  0
SECTION
  2
HEADER
  9
$ACADVER
  1
AC1018
  9
$ACADMAINTVER
 70
     0
  9
$DWGCODEPAGE
  3
ANSI_932
  9
$INSBASE
 10
0.0
 20
0.0
 30
0.0
  9
$EXTMIN
 10
-2100.0
 20
-1485.0
 30
0.0
  9
$EXTMAX
 10
2100.0
 20
1485.0
 30
0.0
  9
$LIMMIN
 10
-2100.0
 20
-1485.0
  9
$LIMMAX
 10
2100.0
 20
1485.0
  9
$ORTHOMODE
 70
     0
  9
$REGENMODE
 70
     1
  9
$FILLMODE
 70
     1
  9
$QTEXTMODE
 70
     0
  9
$MIRRTEXT
 70
     1
  9
$LTSCALE
 40
10.0
  9
$ATTMODE
 70
     1
  9
$TEXTSIZE
 40
2.5
  9
$TRACEWID
 40
1.0
  9
$TEXTSTYLE
  7
Standard
  9
$CLAYER
  8
0
  9
$CELTYPE
  6
ByLayer
  9
$CECOLOR
 62
   256
  9
$CELTSCALE
 40
1.0
  9
$DISPSILH
 70
     0
  9
$DIMSCALE
 40
1.0
  9
$DIMASZ
 40
2.5
  9
$DIMEXO
 40
0.625
  9
$DIMDLI
 40
3.75
  9
$DIMRND
 40
0.0
  9
$DIMDLE
 40
0.0
  9
$DIMEXE
 40
1.25
  9
$DIMTP
 40
0.0
  9
$DIMTM
 40
0.0
  9
$DIMTXT
 40
2.5
  9
$DIMCEN
 40
2.5
  9
$DIMTSZ
 40
0.0
  9
$DIMTOL
 70
     0
  9
$DIMLIM
 70
     0
  9
$DIMTIH
 70
     0
  9
$DIMTOH
 70
     0
  9
$DIMSE1
 70
     0
  9
$DIMSE2
 70
     0
  9
$DIMTAD
 70
     1
  9
$DIMZIN
 70
     8
  9
$DIMBLK
  1

  9
$DIMASO
 70
     1
  9
$DIMSHO
 70
     1
  9
$DIMPOST
  1

  9
$DIMAPOST
  1

  9
$DIMALT
 70
     0
  9
$DIMALTD
 70
     3
  9
$DIMALTF
 40
0.03937007874016
  9
$DIMLFAC
 40
1.0
  9
$DIMTOFL
 70
     1
  9
$DIMTVP
 40
0.0
  9
$DIMTIX
 70
     0
  9
$DIMSOXD
 70
     0
  9
$DIMSAH
 70
     0
  9
$DIMBLK1
  1

  9
$DIMBLK2
  1

  9
$DIMSTYLE
  2
ISO-25
  9
$DIMCLRD
 70
     0
  9
$DIMCLRE
 70
     0
  9
$DIMCLRT
 70
     0
  9
$DIMTFAC
 40
1.0
  9
$DIMGAP
 40
0.625
  9
$DIMJUST
 70
     0
  9
$DIMSD1
 70
     0
  9
$DIMSD2
 70
     0
  9
$DIMTOLJ
 70
     0
  9
$DIMTZIN
 70
     8
  9
$DIMALTZ
 70
     0
  9
$DIMALTTZ
 70
     0
  9
$DIMUPT
 70
     0
  9
$DIMDEC
 70
     2
  9
$DIMTDEC
 70
     2
  9
$DIMALTU
 70
     2
  9
$DIMALTTD
 70
     3
  9
$DIMTXSTY
  7
Standard
  9
$DIMAUNIT
 70
     0
  9
$DIMADEC
 70
     0
  9
$DIMALTRND
 40
0.0
  9
$DIMAZIN
 70
     0
  9
$DIMDSEP
 70
    44
  9
$DIMATFIT
 70
     3
  9
$DIMFRAC
 70
     0
  9
$DIMLDRBLK
  1

  9
$DIMLUNIT
 70
     2
  9
$DIMLWD
 70
    -2
  9
$DIMLWE
 70
    -2
  9
$DIMTMOVE
 70
     0
  9
$LUNITS
 70
     2
  9
$LUPREC
 70
     4
  9
$SKETCHINC
 40
1.0
  9
$FILLETRAD
 40
10.0
  9
$AUNITS
 70
     0
  9
$AUPREC
 70
     0
  9
$MENU
  1
.
  9
$ELEVATION
 40
0.0
  9
$PELEVATION
 40
0.0
  9
$THICKNESS
 40
0.0
  9
$LIMCHECK
 70
     0
  9
$CHAMFERA
 40
0.0
  9
$CHAMFERB
 40
0.0
  9
$CHAMFERC
 40
0.0
  9
$CHAMFERD
 40
0.0
  9
$SKPOLY
 70
     0
  9
$TDCREATE
 40
2459361.501911643
  9
$TDUCREATE
 40
2459361.126911643
  9
$TDUPDATE
 40
2459361.501911829
  9
$TDUUPDATE
 40
2459361.126911829
  9
$TDINDWG
 40
0.0000000116
  9
$TDUSRTIMER
 40
0.0000000116
  9
$USRTIMER
 70
     1
  9
$ANGBASE
 50
0.0
  9
$ANGDIR
 70
     0
  9
$PDMODE
 70
     0
  9
$PDSIZE
 40
0.0
  9
$PLINEWID
 40
0.0
  9
$SPLFRAME
 70
     0
  9
$SPLINETYPE
 70
     6
  9
$SPLINESEGS
 70
     8
  9
$HANDSEED
  5
363
  9
$SURFTAB1
 70
     6
  9
$SURFTAB2
 70
     6
  9
$SURFTYPE
 70
     6
  9
$SURFU
 70
     6
  9
$SURFV
 70
     6
  9
$UCSBASE
  2

  9
$UCSNAME
  2

  9
$UCSORG
 10
0.0
 20
0.0
 30
0.0
  9
$UCSXDIR
 10
1.0
 20
0.0
 30
0.0
  9
$UCSYDIR
 10
0.0
 20
1.0
 30
0.0
  9
$UCSORTHOREF
  2

  9
$UCSORTHOVIEW
 70
     0
  9
$UCSORGTOP
 10
0.0
 20
0.0
 30
0.0
  9
$UCSORGBOTTOM
 10
0.0
 20
0.0
 30
0.0
  9
$UCSORGLEFT
 10
0.0
 20
0.0
 30
0.0
  9
$UCSORGRIGHT
 10
0.0
 20
0.0
 30
0.0
  9
$UCSORGFRONT
 10
0.0
 20
0.0
 30
0.0
  9
$UCSORGBACK
 10
0.0
 20
0.0
 30
0.0
  9
$PUCSBASE
  2

  9
$PUCSNAME
  2

  9
$PUCSORG
 10
0.0
 20
0.0
 30
0.0
  9
$PUCSXDIR
 10
1.0
 20
0.0
 30
0.0
  9
$PUCSYDIR
 10
0.0
 20
1.0
 30
0.0
  9
$PUCSORTHOREF
  2

  9
$PUCSORTHOVIEW
 70
     0
  9
$PUCSORGTOP
 10
0.0
 20
0.0
 30
0.0
  9
$PUCSORGBOTTOM
 10
0.0
 20
0.0
 30
0.0
  9
$PUCSORGLEFT
 10
0.0
 20
0.0
 30
0.0
  9
$PUCSORGRIGHT
 10
0.0
 20
0.0
 30
0.0
  9
$PUCSORGFRONT
 10
0.0
 20
0.0
 30
0.0
  9
$PUCSORGBACK
 10
0.0
 20
0.0
 30
0.0
  9
$USERI1
 70
     0
  9
$USERI2
 70
     0
  9
$USERI3
 70
     0
  9
$USERI4
 70
     0
  9
$USERI5
 70
     0
  9
$USERR1
 40
0.0
  9
$USERR2
 40
0.0
  9
$USERR3
 40
0.0
  9
$USERR4
 40
0.0
  9
$USERR5
 40
0.0
  9
$WORLDVIEW
 70
     1
  9
$SHADEDGE
 70
     3
  9
$SHADEDIF
 70
    70
  9
$TILEMODE
 70
     1
  9
$MAXACTVP
 70
    64
  9
$PINSBASE
 10
0.0
 20
0.0
 30
0.0
  9
$PLIMCHECK
 70
     0
  9
$PEXTMIN
 10
1.000000000000000E+20
 20
1.000000000000000E+20
 30
1.000000000000000E+20
  9
$PEXTMAX
 10
-1.000000000000000E+20
 20
-1.000000000000000E+20
 30
-1.000000000000000E+20
  9
$PLIMMIN
 10
0.0
 20
0.0
  9
$PLIMMAX
 10
420.0
 20
297.0
  9
$UNITMODE
 70
     0
  9
$VISRETAIN
 70
     1
  9
$PLINEGEN
 70
     0
  9
$PSLTSCALE
 70
     1
  9
$TREEDEPTH
 70
  3020
  9
$CMLSTYLE
  2
Standard
  9
$CMLJUST
 70
     0
  9
$CMLSCALE
 40
20.0
  9
$PROXYGRAPHICS
 70
     1
  9
$MEASUREMENT
 70
     1
  9
$CELWEIGHT
370
    -1
  9
$ENDCAPS
280
     0
  9
$JOINSTYLE
280
     0
  9
$LWDISPLAY
290
     0
  9
$INSUNITS
 70
     4
  9
$HYPERLINKBASE
  1

  9
$STYLESHEET
  1

  9
$XEDIT
290
     1
  9
$CEPSNTYPE
380
     0
  9
$PSTYLEMODE
290
     1
  9
$FINGERPRINTGUID
  2
{0AB5DD5F-9129-4F21-9888-8B0E76D04377}
  9
$VERSIONGUID
  2
{FAEB1C32-E019-11D5-929B-00C0DF256EC4}
  9
$EXTNAMES
290
     1
  9
$PSVPSCALE
 40
0.0
  9
$OLESTARTUP
290
     0
  9
$SORTENTS
280
   127
  9
$INDEXCTL
280
     0
  9
$HIDETEXT
280
     1
  9
$XCLIPFRAME
290
     0
  9
$HALOGAP
280
     0
  9
$OBSCOLOR
 70
   257
  9
$OBSLTYPE
280
     0
  9
$INTERSECTIONDISPLAY
280
     0
  9
$INTERSECTIONCOLOR
 70
   257
  9
$DIMASSOC
280
     2
  9
$PROJECTNAME
  1

  0
ENDSEC
  0
SECTION
  2
CLASSES
  0
CLASS
  1
ACDBDICTIONARYWDFLT
  2
AcDbDictionaryWithDefault
  3
ObjectDBX Classes
 90
        0
 91
        4
280
     0
281
     0
  0
CLASS
  1
VISUALSTYLE
  2
AcDbVisualStyle
  3
ObjectDBX Classes
 90
     4095
 91
        4
280
     0
281
     0
  0
CLASS
  1
MATERIAL
  2
AcDbMaterial
  3
ObjectDBX Classes
 90
     1153
 91
        4
280
     0
281
     0
  0
CLASS
  1
SCALE
  2
AcDbScale
  3
ObjectDBX Classes
 90
     1153
 91
        4
280
     0
281
     0
  0
CLASS
  1
TABLESTYLE
  2
AcDbTableStyle
  3
ObjectDBX Classes
 90
     4095
 91
        4
280
     0
281
     0
  0
CLASS
  1
MLEADERSTYLE
  2
AcDbMLeaderStyle
  3
ACDB_MLEADERSTYLE_CLASS
 90
     4095
 91
        4
280
     0
281
     0
  0
CLASS
  1
SUN
  2
AcDbSun
  3
SCENEOE
 90
     1153
 91
        4
280
     0
281
     0
  0
CLASS
  1
DICTIONARYVAR
  2
AcDbDictionaryVar
  3
ObjectDBX Classes
 90
        0
 91
        4
280
     0
281
     0
  0
CLASS
  1
CELLSTYLEMAP
  2
AcDbCellStyleMap
  3
ObjectDBX Classes
 90
     1152
 91
        4
280
     0
281
     0
  0
ENDSEC
  0
SECTION
  2
TABLES
  0
TABLE
  2
VPORT
  5
8
102
{ACAD_XDICTIONARY
360
31A
102
}
330
0
100
AcDbSymbolTable
 70
     1
  0
VPORT
  5
29
330
8
100
AcDbSymbolTableRecord
100
AcDbViewportTableRecord
  2
*Active
 70
     0
 10
0.0
 20
0.0
 11
1.0
 21
1.0
 12
0.0
 22
0.0
 13
0.0
 23
0.0
 14
10.0
 24
10.0
 15
10.0
 25
10.0
 16
0.0
 26
0.0
 36
1.0
 17
0.0
 27
0.0
 37
0.0
 40
3267.0
 41
1.414141414141414
 42
50.0
 43
0.0
 44
0.0
 50
0.0
 51
0.0
 71
     0
 72
 10000
 73
     1
 74
     3
 75
     0
 76
     0
 77
     0
 78
     0
281
     0
 65
     1
110
0.0
120
0.0
130
0.0
111
1.0
121
0.0
131
0.0
112
0.0
122
1.0
132
0.0
 79
     0
146
0.0
  0
ENDTAB
  0
TABLE
  2
LTYPE
  5
5
330
0
100
AcDbSymbolTable
 70
     3
  0
LTYPE
  5
14
330
5
100
AcDbSymbolTableRecord
100
AcDbLinetypeTableRecord
  2
ByBlock
 70
     0
  3

 72
    65
 73
     0
 40
0.0
  0
LTYPE
  5
15
330
5
100
AcDbSymbolTableRecord
100
AcDbLinetypeTableRecord
  2
ByLayer
 70
     0
  3

 72
    65
 73
     0
 40
0.0
  0
LTYPE
  5
16
330
5
100
AcDbSymbolTableRecord
100
AcDbLinetypeTableRecord
  2
Continuous
 70
     0
  3
Solid line
 72
    65
 73
     0
 40
0.0
  0
LTYPE
  5
6F
330
5
100
AcDbSymbolTableRecord
100
AcDbLinetypeTableRecord
  2
JWW_CENTER2
 70
     0
  3
-------------  --  -------------
 72
    65
 73
     4
 40
13.54666666666667
 49
11.00666666666667
 74
     0
 49
-0.8466666666666667
 74
     0
 49
0.8466666666666667
 74
     0
 49
-0.8466666666666667
 74
     0
  0
LTYPE
  5
70
330
5
100
AcDbSymbolTableRecord
100
AcDbLinetypeTableRecord
  2
JWW_DASHED2
 70
     0
  3
--    ----    ----    ----    --
 72
    65
 73
     2
 40
3.386666666666667
 49
1.693333333333333
 74
     0
 49
-1.693333333333333
 74
     0
  0
ENDTAB
  0
TABLE
  2
LAYER
  5
2
330
0
100
AcDbSymbolTable
 70
    23
  0
LAYER
  5
10
330
2
100
AcDbSymbolTableRecord
100
AcDbLayerTableRecord
  2
0
 70
     0
 62
     7
  6
Continuous
370
    -3
390
F
  0
LAYER
  5
71
330
2
100
AcDbSymbolTableRecord
100
AcDbLayerTableRecord
  2
F-5ﾚｲﾔ
 70
     0
 62
     7
  6
Continuous
370
    -3
390
F
  0
LAYER
  5
72
330
2
100
AcDbSymbolTableRecord
100
AcDbLayerTableRecord
  2
F-Fﾚｲﾔ
 70
     0
 62
     7
  6
Continuous
370
    -3
390
F
  0
LAYER
  5
73
330
2
100
AcDbSymbolTableRecord
100
AcDbLayerTableRecord
  2
C-0_通り芯
 70
     0
 62
     7
  6
Continuous
370
    -3
390
F
  0
LAYER
  5
74
330
2
100
AcDbSymbolTableRecord
100
AcDbLayerTableRecord
  2
C-8_ハッチ
 70
     0
 62
     7
  6
Continuous
370
    -3
390
F
  0
LAYER
  5
75
330
2
100
AcDbSymbolTableRecord
100
AcDbLayerTableRecord
  2
C-3_寸法
 70
     0
 62
     7
  6
Continuous
370
    -3
390
F
  0
LAYER
  5
76
330
2
100
AcDbSymbolTableRecord
100
AcDbLayerTableRecord
  2
C-7_木断面
 70
     0
 62
     7
  6
Continuous
370
    -3
390
F
  0
LAYER
  5
77
330
2
100
AcDbSymbolTableRecord
100
AcDbLayerTableRecord
  2
C-6_間仕切
 70
     0
 62
     7
  6
Continuous
370
    -3
390
F
  0
LAYER
  5
78
330
2
100
AcDbSymbolTableRecord
100
AcDbLayerTableRecord
  2
C-2_仕上
 70
     0
 62
     7
  6
Continuous
370
    -3
390
F
  0
LAYER
  5
79
330
2
100
AcDbSymbolTableRecord
100
AcDbLayerTableRecord
  2
C-5_建具
 70
     0
 62
     7
  6
Continuous
370
    -3
390
F
  0
LAYER
  5
7A
330
2
100
AcDbSymbolTableRecord
100
AcDbLayerTableRecord
  2
C-E_見え係り
 70
     0
 62
     7
  6
Continuous
370
    -3
390
F
  0
LAYER
  5
7B
330
2
100
AcDbSymbolTableRecord
100
AcDbLayerTableRecord
  2
D-5_建具
 70
     0
 62
     7
  6
Continuous
370
    -3
390
F
  0
LAYER
  5
7C
330
2
100
AcDbSymbolTableRecord
100
AcDbLayerTableRecord
  2
C-F_断熱材
 70
     0
 62
     7
  6
Continuous
370
    -3
390
F
  0
LAYER
  5
7D
330
2
100
AcDbSymbolTableRecord
100
AcDbLayerTableRecord
  2
D-9_記号
 70
     0
 62
     7
  6
Continuous
370
    -3
390
F
  0
LAYER
  5
7E
330
2
100
AcDbSymbolTableRecord
100
AcDbLayerTableRecord
  2
D-A_インテリア
 70
     0
 62
     7
  6
Continuous
370
    -3
390
F
  0
LAYER
  5
7F
330
2
100
AcDbSymbolTableRecord
100
AcDbLayerTableRecord
  2
D-0_通り芯
 70
     0
 62
     7
  6
Continuous
370
    -3
390
F
  0
LAYER
  5
80
330
2
100
AcDbSymbolTableRecord
100
AcDbLayerTableRecord
  2
D-3_寸法
 70
     0
 62
     7
  6
Continuous
370
    -3
390
F
  0
LAYER
  5
81
330
2
100
AcDbSymbolTableRecord
100
AcDbLayerTableRecord
  2
D-B_衛生陶器
 70
     0
 62
     7
  6
Continuous
370
    -3
390
F
  0
LAYER
  5
82
330
2
100
AcDbSymbolTableRecord
100
AcDbLayerTableRecord
  2
D-F_断熱材
 70
     0
 62
     7
  6
Continuous
370
    -3
390
F
  0
LAYER
  5
83
330
2
100
AcDbSymbolTableRecord
100
AcDbLayerTableRecord
  2
D-8_ハッチ
 70
     0
 62
     7
  6
Continuous
370
    -3
390
F
  0
LAYER
  5
84
330
2
100
AcDbSymbolTableRecord
100
AcDbLayerTableRecord
  2
C-A_インテリア
 70
     0
 62
     7
  6
Continuous
370
    -3
390
F
  0
LAYER
  5
85
330
2
100
AcDbSymbolTableRecord
100
AcDbLayerTableRecord
  2
C-9_記号
 70
     0
 62
     7
  6
Continuous
370
    -3
390
F
  0
LAYER
  5
86
330
2
100
AcDbSymbolTableRecord
100
AcDbLayerTableRecord
  2
D-2_仕上
 70
     0
 62
     7
  6
Continuous
370
    -3
390
F
  0
ENDTAB
  0
TABLE
  2
STYLE
  5
3
330
0
100
AcDbSymbolTable
 70
     2
  0
STYLE
  5
11
330
3
100
AcDbSymbolTableRecord
100
AcDbTextStyleTableRecord
  2
Standard
 70
     0
 40
0.0
 41
1.0
 50
0.0
 71
     0
 42
2.5
  3
txt
  4

  0
STYLE
  5
6E
330
3
100
AcDbSymbolTableRecord
100
AcDbTextStyleTableRecord
  2
ＭＳ ゴシック
 70
     0
 40
1.0
 41
1.0
 50
0.0
 71
     0
 42
2.5
  3

  4

1001
ACAD
1000
MS Gothic
1071
    32817
  0
ENDTAB
  0
TABLE
  2
VIEW
  5
6
330
0
100
AcDbSymbolTable
 70
     0
  0
ENDTAB
  0
TABLE
  2
UCS
  5
7
330
0
100
AcDbSymbolTable
 70
     0
  0
ENDTAB
  0
TABLE
  2
APPID
  5
9
330
0
100
AcDbSymbolTable
 70
     2
  0
APPID
  5
12
330
9
100
AcDbSymbolTableRecord
100
AcDbRegAppTableRecord
  2
ACAD
 70
     0
  0
APPID
  5
359
330
9
100
AcDbSymbolTableRecord
100
AcDbRegAppTableRecord
  2
ACAD_MLEADERVER
 70
     0
  0
ENDTAB
  0
TABLE
  2
DIMSTYLE
  5
A
330
0
100
AcDbSymbolTable
 70
     1
100
AcDbDimStyleTable
  0
DIMSTYLE
105
27
330
A
100
AcDbSymbolTableRecord
100
AcDbDimStyleTableRecord
  2
ISO-25
 70
     0
 41
2.5
 42
0.625
 43
3.75
 44
1.25
 73
     0
 74
     0
 77
     1
 78
     8
140
2.5
141
2.5
143
0.03937007874016
147
0.625
171
     3
172
     1
178
     0
271
     2
272
     2
274
     3
278
    44
283
     0
284
     8
340
11
  0
ENDTAB
  0
TABLE
  2
BLOCK_RECORD
  5
1
330
0
100
AcDbSymbolTable
 70
     1
  0
BLOCK_RECORD
  5
1F
330
1
100
AcDbSymbolTableRecord
100
AcDbBlockTableRecord
  2
*Model_Space
340
22
  0
BLOCK_RECORD
  5
1B
330
1
100
AcDbSymbolTableRecord
100
AcDbBlockTableRecord
  2
*Paper_Space
340
1E
  0
BLOCK_RECORD
  5
23
330
1
100
AcDbSymbolTableRecord
100
AcDbBlockTableRecord
  2
*Paper_Space0
340
26
  0
ENDTAB
  0
ENDSEC
  0
SECTION
  2
BLOCKS
  0
BLOCK
  5
20
330
1F
100
AcDbEntity
  8
0
100
AcDbBlockBegin
  2
*Model_Space
 70
     0
 10
0.0
 20
0.0
 30
0.0
  3
*Model_Space
  1

  0
ENDBLK
  5
21
330
1F
100
AcDbEntity
  8
0
100
AcDbBlockEnd
  0
BLOCK
  5
1C
330
1B
100
AcDbEntity
 67
     1
  8
0
100
AcDbBlockBegin
  2
*Paper_Space
 70
     0
 10
0.0
 20
0.0
 30
0.0
  3
*Paper_Space
  1

  0
ENDBLK
  5
1D
330
1B
100
AcDbEntity
 67
     1
  8
0
100
AcDbBlockEnd
  0
BLOCK
  5
24
330
23
100
AcDbEntity
  8
0
100
AcDbBlockBegin
  2
*Paper_Space0
 70
     0
 10
0.0
 20
0.0
 30
0.0
  3
*Paper_Space0
  1

  0
ENDBLK
  5
25
330
23
100
AcDbEntity
  8
0
100
AcDbBlockEnd
  0
ENDSEC
  0
SECTION
  2
ENTITIES
  0
TEXT
  5
87
330
1F
100
AcDbEntity
  8
F-5ﾚｲﾔ
  6
Continuous
 62
     7
370
     9
100
AcDbText
 10
-635.500789590784
 20
-1301.478854778393
 30
0.0
 40
22.86
  1
コンクリート充填タイプ　スチール製アーチ型車止め
 41
1.159722222222222
  7
ＭＳ ゴシック
100
AcDbText
  0
TEXT
  5
88
330
1F
100
AcDbEntity
  8
F-Fﾚｲﾔ
  6
Continuous
 62
     2
370
     9
100
AcDbText
 10
1115.818214962025
 20
-1049.017654364351
 30
0.0
 40
30.48
  1
本体色は、黄、白、ダークブラウン。
 41
1.117647058823529
  7
ＭＳ ゴシック
100
AcDbText
  0
TEXT
  5
89
330
1F
100
AcDbEntity
  8
F-Fﾚｲﾔ
  6
Continuous
 62
     2
370
     9
100
AcDbText
 10
1115.818214962025
 20
-1099.842913846373
 30
0.0
 40
30.48
  1
ご注文の際にご指示ください。
 41
1.116071428571428
  7
ＭＳ ゴシック
100
AcDbText
  0
TEXT
  5
8A
330
1F
100
AcDbEntity
  8
F-Fﾚｲﾔ
  6
Continuous
 62
     2
370
     9
100
AcDbText
 10
1115.818214962025
 20
-858.8553187807788
 30
0.0
 40
30.48
  1
支柱質量：16.5kg／本
 41
1.1125
  7
ＭＳ ゴシック
100
AcDbText
  0
TEXT
  5
8B
330
1F
100
AcDbEntity
  8
F-Fﾚｲﾔ
  6
Continuous
 62
     2
370
     9
100
AcDbText
 10
1115.818214962025
 20
-918.5631837375421
 30
0.0
 40
30.48
  1
アーチパイプ質量：8.8kg／本
 41
1.11574074074074
  7
ＭＳ ゴシック
100
AcDbText
  0
TEXT
  5
8C
330
1F
100
AcDbEntity
  8
F-Fﾚｲﾔ
  6
Continuous
 62
     2
370
     9
100
AcDbText
 10
1115.818214962025
 20
-978.2710486943055
 30
0.0
 40
30.48
  1
総質量：41.8kg／本
 41
1.111111111111111
  7
ＭＳ ゴシック
100
AcDbText
  0
TEXT
  5
8D
330
1F
100
AcDbEntity
  8
F-5ﾚｲﾔ
  6
Continuous
 62
     7
370
     9
100
AcDbText
 10
-635.5007277308277
 20
-1342.863041394208
 30
0.0
 40
22.86
  1
固定式　先付けタイプ　ＹＢ６ＨＡ１３－１４Ｋ－Ｃ
 41
1.159722222222222
  7
ＭＳ ゴシック
100
AcDbText
  0
LINE
  5
8E
330
1F
100
AcDbEntity
  8
C-0_通り芯
  6
JWW_CENTER2
 62
     7
370
     9
100
AcDbLine
 10
1513.409444252623
 20
883.8113565723067
 30
0.0
 11
1513.409444252623
 21
-519.1831419311994
 31
0.0
  0
LINE
  5
8F
330
1F
100
AcDbEntity
  8
C-8_ハッチ
  6
Continuous
 62
    30
370
     5
100
AcDbLine
 10
1443.509444886385
 20
587.4890913143433
 30
0.0
 11
1583.309443618867
 21
587.4890913143433
 31
0.0
  0
ARC
  5
90
330
1F
100
AcDbEntity
  8
C-3_寸法
  6
Continuous
 62
     4
370
     9
100
AcDbCircle
 10
1513.409444252623
 20
831.2379196190118
 30
0.0
 40
30.25000000000603
100
AcDbArc
 50
0.0
 51
180.0
  0
LINE
  5
91
330
1F
100
AcDbEntity
  8
C-0_通り芯
  6
JWW_CENTER2
 62
     7
370
     9
100
AcDbLine
 10
1446.878429670181
 20
831.2379554235251
 30
0.0
 11
1579.940458835066
 21
831.2378625233332
 31
0.0
  0
LINE
  5
92
330
1F
100
AcDbEntity
  8
C-0_通り芯
  6
JWW_CENTER2
 62
     7
370
     9
100
AcDbLine
 10
1498.211716935495
 20
-338.5111201701942
 30
0.0
 11
1528.607171569751
 21
-338.5111201701942
 31
0.0
  0
LINE
  5
93
330
1F
100
AcDbEntity
  8
C-7_木断面
  6
Continuous
 62
    30
370
     5
100
AcDbLine
 10
1505.909444252623
 20
-338.5111201701942
 30
0.0
 11
1509.662215630187
 21
-332.0111201701943
 31
0.0
  0
LINE
  5
94
330
1F
100
AcDbEntity
  8
C-7_木断面
  6
Continuous
 62
    30
370
     5
100
AcDbLine
 10
1505.909444252623
 20
-338.5111201701942
 30
0.0
 11
1509.662190834655
 21
-345.0111659465614
 31
0.0
  0
LINE
  5
95
330
1F
100
AcDbEntity
  8
C-7_木断面
  6
Continuous
 62
    30
370
     5
100
AcDbLine
 10
1509.662190834655
 20
-345.0111659465614
 30
0.0
 11
1517.15667287506
 21
-345.0111659465614
 31
0.0
  0
LINE
  5
96
330
1F
100
AcDbEntity
  8
C-7_木断面
  6
Continuous
 62
    30
370
     5
100
AcDbLine
 10
1520.909444252623
 20
-338.5111201701942
 30
0.0
 11
1517.15667287506
 21
-345.0111659465614
 31
0.0
  0
LINE
  5
97
330
1F
100
AcDbEntity
  8
C-7_木断面
  6
Continuous
 62
    30
370
     5
100
AcDbLine
 10
1520.909444252623
 20
-338.5111201701942
 30
0.0
 11
1517.15667287506
 21
-332.0111201701943
 31
0.0
  0
LINE
  5
98
330
1F
100
AcDbEntity
  8
C-7_木断面
  6
Continuous
 62
    30
370
     5
100
AcDbLine
 10
1509.662215630187
 20
-332.0111201701943
 30
0.0
 11
1517.15667287506
 21
-332.0111201701943
 31
0.0
  0
CIRCLE
  5
99
330
1F
100
AcDbEntity
  8
C-7_木断面
  6
Continuous
 62
    30
370
     5
100
AcDbCircle
 10
1513.409444252623
 20
-338.5111201701942
 30
0.0
 40
6.499998092651368
  0
CIRCLE
  5
9A
330
1F
100
AcDbEntity
  8
C-6_間仕切
  6
Continuous
 62
     6
370
     5
100
AcDbCircle
 10
1513.409444252623
 20
-338.5111201701942
 30
0.0
 40
3.323499917984009
  0
CIRCLE
  5
9B
330
1F
100
AcDbEntity
  8
C-6_間仕切
  6
Continuous
 62
     6
370
     5
100
AcDbCircle
 10
1513.409444252623
 20
-338.5111201701942
 30
0.0
 40
4.0
  0
LINE
  5
9C
330
1F
100
AcDbEntity
  8
C-2_仕上
  6
Continuous
 62
     3
370
     9
100
AcDbLine
 10
1443.509444886381
 20
-488.5112438901051
 30
0.0
 11
1583.309443618867
 21
-488.5112438901051
 31
0.0
  0
LINE
  5
9D
330
1F
100
AcDbEntity
  8
C-2_仕上
  6
Continuous
 62
     3
370
     9
100
AcDbLine
 10
1443.509444886385
 20
-488.5112438901051
 30
0.0
 11
1443.509444886385
 21
587.4890913143433
 31
0.0
  0
LINE
  5
9E
330
1F
100
AcDbEntity
  8
C-2_仕上
  6
Continuous
 62
     3
370
     9
100
AcDbLine
 10
1583.309443618867
 20
587.4890913143433
 30
0.0
 11
1583.309443618867
 21
-488.5112438901051
 31
0.0
  0
TEXT
  5
9F
330
1F
100
AcDbEntity
  8
C-5_建具
  6
Continuous
 62
     2
370
     9
100
AcDbText
 10
1688.467177318463
 20
24.06993401266579
 30
0.0
 40
30.48
  1
▽G.L.
 41
1.104166666666667
  7
ＭＳ ゴシック
100
AcDbText
  0
LINE
  5
A0
330
1F
100
AcDbEntity
  8
C-E_見え係り
  6
Continuous
 62
    30
370
     5
100
AcDbLine
 10
1294.920381964636
 20
-488.5112438901002
 30
0.0
 11
1443.509444886385
 21
-339.9221809683506
 31
0.0
  0
LINE
  5
A1
330
1F
100
AcDbEntity
  8
C-E_見え係り
  6
Continuous
 62
    30
370
     5
100
AcDbLine
 10
1273.70717852905
 20
-488.5112438901042
 30
0.0
 11
1443.509444886385
 21
-318.7089775327682
 31
0.0
  0
LINE
  5
A2
330
1F
100
AcDbEntity
  8
C-E_見え係り
  6
Continuous
 62
    30
370
     5
100
AcDbLine
 10
1213.409444252625
 20
11.4887561098946
 30
0.0
 11
1213.409444252625
 21
-488.5112438901051
 31
0.0
  0
LINE
  5
A3
330
1F
100
AcDbEntity
  8
C-E_見え係り
  6
Continuous
 62
    30
370
     5
100
AcDbLine
 10
1813.409444252625
 20
11.4887561098946
 30
0.0
 11
1813.409444252625
 21
-488.5112438901051
 31
0.0
  0
LINE
  5
A4
330
1F
100
AcDbEntity
  8
C-E_見え係り
  6
Continuous
 62
    30
370
     5
100
AcDbLine
 10
1213.409444252625
 20
-488.5112438901051
 30
0.0
 11
1813.409444252625
 21
-488.5112438901051
 31
0.0
  0
LINE
  5
A5
330
1F
100
AcDbEntity
  8
C-E_見え係り
  6
Continuous
 62
     6
370
     5
100
AcDbLine
 10
1163.409444252625
 20
11.4887561098946
 30
0.0
 11
1443.509444886385
 21
11.4887561098946
 31
0.0
  0
LINE
  5
A6
330
1F
100
AcDbEntity
  8
C-E_見え係り
  6
Continuous
 62
     6
370
     5
100
AcDbLine
 10
1583.309443618867
 20
11.4887561098946
 30
0.0
 11
1863.409444252625
 21
11.4887561098946
 31
0.0
  0
LINE
  5
A7
330
1F
100
AcDbEntity
  8
C-E_見え係り
  6
Continuous
 62
    30
370
     5
100
AcDbLine
 10
1583.309443618869
 20
-200.1221822358663
 30
0.0
 11
1794.92038196463
 21
11.4887561098946
 31
0.0
  0
LINE
  5
A8
330
1F
100
AcDbEntity
  8
C-E_見え係り
  6
Continuous
 62
    30
370
     5
100
AcDbLine
 10
1583.309443618863
 20
-157.6957753646905
 30
0.0
 11
1752.493975093448
 21
11.4887561098946
 31
0.0
  0
LINE
  5
A9
330
1F
100
AcDbEntity
  8
C-E_見え係り
  6
Continuous
 62
    30
370
     5
100
AcDbLine
 10
1583.309443618868
 20
-178.9089788002856
 30
0.0
 11
1773.707178529048
 21
11.4887561098946
 31
0.0
  0
LINE
  5
AA
330
1F
100
AcDbEntity
  8
C-E_見え係り
  6
Continuous
 62
    30
370
     5
100
AcDbLine
 10
1648.473772557911
 20
-488.5112438901031
 30
0.0
 11
1813.409444252625
 21
-323.5755721953905
 31
0.0
  0
LINE
  5
AB
330
1F
100
AcDbEntity
  8
C-E_見え係り
  6
Continuous
 62
    30
370
     5
100
AcDbLine
 10
1606.047365686709
 20
-488.5112438901059
 30
0.0
 11
1813.409444252625
 21
-281.1491653241904
 31
0.0
  0
LINE
  5
AC
330
1F
100
AcDbEntity
  8
C-E_見え係り
  6
Continuous
 62
    30
370
     5
100
AcDbLine
 10
1627.260569122312
 20
-488.5112438901025
 30
0.0
 11
1813.409444252625
 21
-302.3623687597904
 31
0.0
  0
LINE
  5
AD
330
1F
100
AcDbEntity
  8
C-E_見え係り
  6
Continuous
 62
    30
370
     5
100
AcDbLine
 10
1213.409444252625
 20
-174.042384137651
 30
0.0
 11
1398.940584500171
 21
11.48875610989631
 31
0.0
  0
LINE
  5
AE
330
1F
100
AcDbEntity
  8
C-E_見え係り
  6
Continuous
 62
    30
370
     5
100
AcDbLine
 10
1213.409444252625
 20
-216.4687910088506
 30
0.0
 11
1441.366991371368
 21
11.4887561098929
 31
0.0
  0
LINE
  5
AF
330
1F
100
AcDbEntity
  8
C-E_見え係り
  6
Continuous
 62
    30
370
     5
100
AcDbLine
 10
1213.409444252625
 20
-195.2555875732508
 30
0.0
 11
1420.153787935775
 21
11.48875610990029
 31
0.0
  0
LINE
  5
B0
330
1F
100
AcDbEntity
  8
C-E_見え係り
  6
Continuous
 62
    30
370
     5
100
AcDbLine
 10
1252.493975093449
 20
-488.5112438901051
 30
0.0
 11
1443.509444886381
 21
-297.4957740971722
 31
0.0
  0
LINE
  5
B1
330
1F
100
AcDbEntity
  8
C-E_見え係り
  6
Continuous
 62
     7
370
     9
100
AcDbLine
 10
1646.382961593206
 20
-588.5113634860191
 30
0.0
 11
1704.11797168875
 21
-488.5112438901048
 31
0.0
  0
LINE
  5
B2
330
1F
100
AcDbEntity
  8
C-E_見え係り
  6
Continuous
 62
     7
370
     9
100
AcDbLine
 10
1600.195027748717
 20
-588.5113634860191
 30
0.0
 11
1657.930037844262
 21
-488.5112438901048
 31
0.0
  0
LINE
  5
B3
330
1F
100
AcDbEntity
  8
C-E_見え係り
  6
Continuous
 62
     7
370
     9
100
AcDbLine
 10
1554.006908324361
 20
-588.5113634860191
 30
0.0
 11
1611.741881303933
 21
-488.5112438901048
 31
0.0
  0
LINE
  5
B4
330
1F
100
AcDbEntity
  8
C-E_見え係り
  6
Continuous
 62
     7
370
     9
100
AcDbLine
 10
1507.818900247926
 20
-588.5113634860191
 30
0.0
 11
1565.553947459444
 21
-488.5112438901048
 31
0.0
  0
LINE
  5
B5
330
1F
100
AcDbEntity
  8
C-E_見え係り
  6
Continuous
 62
     7
370
     9
100
AcDbLine
 10
1461.630929287463
 20
-588.5113634860191
 30
0.0
 11
1519.365939383008
 21
-488.5112438901048
 31
0.0
  0
LINE
  5
B6
330
1F
100
AcDbEntity
  8
C-E_見え係り
  6
Continuous
 62
     7
370
     9
100
AcDbLine
 10
1415.442809863107
 20
-588.5113634860191
 30
0.0
 11
1473.177968422545
 21
-488.5112438901048
 31
0.0
  0
LINE
  5
B7
330
1F
100
AcDbEntity
  8
C-E_見え係り
  6
Continuous
 62
     7
370
     9
100
AcDbLine
 10
1369.254838902644
 20
-588.5113634860191
 30
0.0
 11
1426.989848998189
 21
-488.5112438901048
 31
0.0
  0
LINE
  5
B8
330
1F
100
AcDbEntity
  8
C-E_見え係り
  6
Continuous
 62
     7
370
     9
100
AcDbLine
 10
1323.066830826209
 20
-588.5113634860191
 30
0.0
 11
1380.801840921753
 21
-488.5112438901048
 31
0.0
  0
LINE
  5
B9
330
1F
100
AcDbEntity
  8
C-E_見え係り
  6
Continuous
 62
     7
370
     9
100
AcDbLine
 10
1363.48144924101
 20
-518.5111201701936
 30
0.0
 11
1346.160909096373
 21
-488.5112438901048
 31
0.0
  0
LINE
  5
BA
330
1F
100
AcDbEntity
  8
C-E_見え係り
  6
Continuous
 62
     7
370
     9
100
AcDbLine
 10
1409.669308853553
 20
-518.5111201701936
 30
0.0
 11
1392.348880056836
 21
-488.5112438901048
 31
0.0
  0
LINE
  5
BB
330
1F
100
AcDbEntity
  8
C-E_見え係り
  6
Continuous
 62
     7
370
     9
100
AcDbLine
 10
1455.857428277908
 20
-518.5111201701936
 30
0.0
 11
1438.536851017298
 21
-488.5112438901048
 31
0.0
  0
LINE
  5
BC
330
1F
100
AcDbEntity
  8
C-E_見え係り
  6
Continuous
 62
     7
370
     9
100
AcDbLine
 10
1502.045287890451
 20
-518.5111201701936
 30
0.0
 11
1484.724859093734
 21
-488.5112438901048
 31
0.0
  0
LINE
  5
BD
330
1F
100
AcDbEntity
  8
C-E_見え係り
  6
Continuous
 62
     7
370
     9
100
AcDbLine
 10
1548.233370198833
 20
-518.5111201701936
 30
0.0
 11
1530.912830054196
 21
-488.5112438901048
 31
0.0
  0
LINE
  5
BE
330
1F
100
AcDbEntity
  8
C-E_見え係り
  6
Continuous
 62
     7
370
     9
100
AcDbLine
 10
1594.421266927349
 20
-518.5111201701936
 30
0.0
 11
1577.100801014659
 21
-488.5112438901048
 31
0.0
  0
LINE
  5
BF
330
1F
100
AcDbEntity
  8
C-E_見え係り
  6
Continuous
 62
     7
370
     9
100
AcDbLine
 10
1640.609349235732
 20
-518.5111201701936
 30
0.0
 11
1623.288809091095
 21
-488.5112438901048
 31
0.0
  0
LINE
  5
C0
330
1F
100
AcDbEntity
  8
C-E_見え係り
  6
Continuous
 62
     7
370
     9
100
AcDbLine
 10
1686.797208848274
 20
-518.5111201701936
 30
0.0
 11
1669.476817167531
 21
-488.5112438901048
 31
0.0
  0
LINE
  5
C1
330
1F
100
AcDbEntity
  8
C-E_見え係り
  6
Continuous
 62
     7
370
     9
100
AcDbLine
 10
1663.703427505896
 20
-558.51126451009
 30
0.0
 11
1681.023967650533
 21
-588.5113634860191
 31
0.0
  0
LINE
  5
C2
330
1F
100
AcDbEntity
  8
C-E_見え係り
  6
Continuous
 62
     7
370
     9
100
AcDbLine
 10
1617.515567893354
 20
-558.51126451009
 30
0.0
 11
1634.835959574097
 21
-588.5113634860191
 31
0.0
  0
LINE
  5
C3
330
1F
100
AcDbEntity
  8
C-E_見え係り
  6
Continuous
 62
     7
370
     9
100
AcDbLine
 10
1571.327411353024
 20
-558.51126451009
 30
0.0
 11
1588.647951497661
 21
-588.5113634860191
 31
0.0
  0
LINE
  5
C4
330
1F
100
AcDbEntity
  8
C-E_見え係り
  6
Continuous
 62
     7
370
     9
100
AcDbLine
 10
1525.139588856456
 20
-558.51126451009
 30
0.0
 11
1542.459980537199
 21
-588.5113634860191
 31
0.0
  0
LINE
  5
C5
330
1F
100
AcDbEntity
  8
C-E_見え係り
  6
Continuous
 62
     7
370
     9
100
AcDbLine
 10
1478.9514694321
 20
-558.51126451009
 30
0.0
 11
1496.272009576736
 21
-588.5113634860191
 31
0.0
  0
LINE
  5
C6
330
1F
100
AcDbEntity
  8
C-E_見え係り
  6
Continuous
 62
     7
370
     9
100
AcDbLine
 10
1432.763609819558
 20
-558.51126451009
 30
0.0
 11
1450.0840015003
 21
-588.5113634860191
 31
0.0
  0
LINE
  5
C7
330
1F
100
AcDbEntity
  8
C-E_見え係り
  6
Continuous
 62
     7
370
     9
100
AcDbLine
 10
1386.575490395201
 20
-558.51126451009
 30
0.0
 11
1403.896030539838
 21
-588.5113634860191
 31
0.0
  0
LINE
  5
C8
330
1F
100
AcDbEntity
  8
C-E_見え係り
  6
Continuous
 62
     7
370
     9
100
AcDbLine
 10
1340.387630782659
 20
-558.51126451009
 30
0.0
 11
1357.708059579376
 21
-588.5113634860191
 31
0.0
  0
LINE
  5
C9
330
1F
100
AcDbEntity
  8
C-E_見え係り
  6
Continuous
 62
     7
370
     9
100
AcDbLine
 10
1276.878971213666
 20
-588.5113634860191
 30
0.0
 11
1334.613981309211
 21
-488.5112438901048
 31
0.0
  0
LINE
  5
CA
330
1F
100
AcDbEntity
  8
C-E_見え係り
  6
Continuous
 62
     7
370
     9
100
AcDbLine
 10
1317.293589628468
 20
-518.5111201701936
 30
0.0
 11
1299.973049483831
 21
-488.5112438901048
 31
0.0
  0
LINE
  5
CB
330
1F
100
AcDbEntity
  8
C-E_見え係り
  6
Continuous
 62
     7
370
     9
100
AcDbLine
 10
1294.199771170117
 20
-558.51126451009
 30
0.0
 11
1311.520199966834
 21
-588.5113634860191
 31
0.0
  0
LINE
  5
CC
330
1F
100
AcDbEntity
  8
C-E_見え係り
  6
Continuous
 62
     7
370
     9
100
AcDbLine
 10
1230.691111601124
 20
-588.5113634860191
 30
0.0
 11
1288.426121696669
 21
-488.5112438901048
 31
0.0
  0
LINE
  5
CD
330
1F
100
AcDbEntity
  8
C-E_見え係り
  6
Continuous
 62
     7
370
     9
100
AcDbLine
 10
1271.105730015925
 20
-518.5111201701936
 30
0.0
 11
1253.785189871289
 21
-488.5112438901048
 31
0.0
  0
LINE
  5
CE
330
1F
100
AcDbEntity
  8
C-E_見え係り
  6
Continuous
 62
     7
370
     9
100
AcDbLine
 10
1248.011911557574
 20
-558.51126451009
 30
0.0
 11
1265.332340354291
 21
-588.5113634860191
 31
0.0
  0
LINE
  5
CF
330
1F
100
AcDbEntity
  8
C-E_見え係り
  6
Continuous
 62
     7
370
     9
100
AcDbLine
 10
1692.570821205748
 20
-588.5113634860191
 30
0.0
 11
1750.305831301293
 21
-488.5112438901048
 31
0.0
  0
LINE
  5
D0
330
1F
100
AcDbEntity
  8
C-E_見え係り
  6
Continuous
 62
     7
370
     9
100
AcDbLine
 10
1732.985068460816
 20
-518.5111201701936
 30
0.0
 11
1715.664676780072
 21
-488.5112438901048
 31
0.0
  0
LINE
  5
D1
330
1F
100
AcDbEntity
  8
C-E_見え係り
  6
Continuous
 62
     7
370
     9
100
AcDbLine
 10
1709.891287118439
 20
-558.51126451009
 30
0.0
 11
1727.211827263076
 21
-588.5113634860191
 31
0.0
  0
LINE
  5
D2
330
1F
100
AcDbEntity
  8
C-E_見え係り
  6
Continuous
 62
     7
370
     9
100
AcDbLine
 10
1738.758680818291
 20
-588.5113634860191
 30
0.0
 11
1796.493690913836
 21
-488.5112438901048
 31
0.0
  0
LINE
  5
D3
330
1F
100
AcDbEntity
  8
C-E_見え係り
  6
Continuous
 62
     7
370
     9
100
AcDbLine
 10
1779.172928073359
 20
-518.5111201701936
 30
0.0
 11
1761.852536392615
 21
-488.5112438901048
 31
0.0
  0
LINE
  5
D4
330
1F
100
AcDbEntity
  8
C-E_見え係り
  6
Continuous
 62
     7
370
     9
100
AcDbLine
 10
1756.079146730981
 20
-558.51126451009
 30
0.0
 11
1773.399686875617
 21
-588.5113634860191
 31
0.0
  0
LINE
  5
D5
330
1F
100
AcDbEntity
  8
C-E_見え係り
  6
Continuous
 62
     7
370
     9
100
AcDbLine
 10
1163.409444252623
 20
-488.5112438901051
 30
0.0
 11
1163.409444252623
 21
-588.5112438901051
 31
0.0
  0
LINE
  5
D6
330
1F
100
AcDbEntity
  8
C-E_見え係り
  6
Continuous
 62
     7
370
     9
100
AcDbLine
 10
1863.409444252623
 20
-488.5112438901051
 30
0.0
 11
1863.409444252623
 21
-588.5112438901051
 31
0.0
  0
LINE
  5
D7
330
1F
100
AcDbEntity
  8
C-E_見え係り
  6
Continuous
 62
     7
370
     9
100
AcDbLine
 10
1163.409444252623
 20
-588.5112438901051
 30
0.0
 11
1863.409444252623
 21
-588.5112438901051
 31
0.0
  0
LINE
  5
D8
330
1F
100
AcDbEntity
  8
C-E_見え係り
  6
Continuous
 62
     7
370
     9
100
AcDbLine
 10
1863.409444252623
 20
-488.5112438901051
 30
0.0
 11
1163.409444252623
 21
-488.5112438901051
 31
0.0
  0
LINE
  5
D9
330
1F
100
AcDbEntity
  8
C-E_見え係り
  6
Continuous
 62
     7
370
     9
100
AcDbLine
 10
1184.503242386688
 20
-588.5113468551529
 30
0.0
 11
1242.238252482233
 21
-488.5112272592386
 31
0.0
  0
LINE
  5
DA
330
1F
100
AcDbEntity
  8
C-E_見え係り
  6
Continuous
 62
     7
370
     9
100
AcDbLine
 10
1224.91786080149
 20
-518.5111035393275
 30
0.0
 11
1207.597320656854
 21
-488.5112272592386
 31
0.0
  0
LINE
  5
DB
330
1F
100
AcDbEntity
  8
C-E_見え係り
  6
Continuous
 62
     7
370
     9
100
AcDbLine
 10
1201.824042343139
 20
-558.5112478792237
 30
0.0
 11
1219.144471139856
 21
-588.5113468551529
 31
0.0
  0
LINE
  5
DC
330
1F
100
AcDbEntity
  8
C-E_見え係り
  6
Continuous
 62
     7
370
     9
100
AcDbLine
 10
1163.409444252623
 20
-571.9750378215831
 30
0.0
 11
1172.956601925421
 21
-588.5113302242867
 31
0.0
  0
LINE
  5
DD
330
1F
100
AcDbEntity
  8
C-E_見え係り
  6
Continuous
 62
     7
370
     9
100
AcDbLine
 10
1163.409444252623
 20
-545.0470594978661
 30
0.0
 11
1196.050383267798
 21
-488.5112106283724
 31
0.0
  0
LINE
  5
DE
330
1F
100
AcDbEntity
  8
C-E_見え係り
  6
Continuous
 62
     7
370
     9
100
AcDbLine
 10
1178.729991587055
 20
-518.5110869084612
 30
0.0
 11
1163.409444252623
 21
-491.9752790907983
 31
0.0
  0
LINE
  5
DF
330
1F
100
AcDbEntity
  8
C-E_見え係り
  6
Continuous
 62
     7
370
     9
100
AcDbLine
 10
1784.946540430834
 20
-588.5113634860191
 30
0.0
 11
1842.681550526379
 21
-488.5112438901048
 31
0.0
  0
LINE
  5
E0
330
1F
100
AcDbEntity
  8
C-E_見え係り
  6
Continuous
 62
     7
370
     9
100
AcDbLine
 10
1825.360787685902
 20
-518.5111201701936
 30
0.0
 11
1808.040396005158
 21
-488.5112438901048
 31
0.0
  0
LINE
  5
E1
330
1F
100
AcDbEntity
  8
C-E_見え係り
  6
Continuous
 62
     7
370
     9
100
AcDbLine
 10
1802.267006343523
 20
-558.51126451009
 30
0.0
 11
1819.58754648816
 21
-588.5113634860191
 31
0.0
  0
LINE
  5
E2
330
1F
100
AcDbEntity
  8
C-E_見え係り
  6
Continuous
 62
     7
370
     9
100
AcDbLine
 10
1848.454865956066
 20
-558.51126451009
 30
0.0
 11
1863.409444252623
 21
-584.4133914237779
 31
0.0
  0
LINE
  5
E3
330
1F
100
AcDbEntity
  8
C-E_見え係り
  6
Continuous
 62
     7
370
     9
100
AcDbLine
 10
1863.409444252623
 20
-504.41357036336
 30
0.0
 11
1854.228255617701
 21
-488.5112438901048
 31
0.0
  0
LINE
  5
E4
330
1F
100
AcDbEntity
  8
C-E_見え係り
  6
Continuous
 62
     7
370
     9
100
AcDbLine
 10
1831.134400043377
 20
-588.5113634860191
 30
0.0
 11
1863.409444252623
 21
-532.6092639532236
 31
0.0
  0
LINE
  5
E5
330
1F
100
AcDbEntity
  8
C-0_通り芯
  6
JWW_DASHED2
 62
     7
370
     9
100
AcDbLine
 10
1624.078118154237
 20
665.0443506753902
 30
0.0
 11
1624.078118154237
 21
530.9338319532953
 31
0.0
  0
LINE
  5
E6
330
1F
100
AcDbEntity
  8
C-0_通り芯
  6
JWW_DASHED2
 62
     7
370
     9
100
AcDbLine
 10
1624.078118154237
 20
530.9338319532953
 30
0.0
 11
1402.74077035101
 21
530.9338319532953
 31
0.0
  0
LINE
  5
E7
330
1F
100
AcDbEntity
  8
C-0_通り芯
  6
JWW_DASHED2
 62
     7
370
     9
100
AcDbLine
 10
1402.74077035101
 20
530.9338319532953
 30
0.0
 11
1402.74077035101
 21
665.0443506753902
 31
0.0
  0
LINE
  5
E8
330
1F
100
AcDbEntity
  8
C-0_通り芯
  6
JWW_DASHED2
 62
     7
370
     9
100
AcDbLine
 10
1402.74077035101
 20
665.0443506753902
 30
0.0
 11
1624.078118154237
 21
665.0443506753902
 31
0.0
  0
LINE
  5
E9
330
1F
100
AcDbEntity
  8
C-0_通り芯
  6
Continuous
 62
     7
370
     9
100
AcDbLine
 10
1402.74077035101
 20
665.0443506753902
 30
0.0
 11
1274.71117530488
 21
793.0739457215207
 31
0.0
  0
LINE
  5
EA
330
1F
100
AcDbEntity
  8
C-0_通り芯
  6
Continuous
 62
     7
370
     9
100
AcDbLine
 10
1274.71117530488
 20
793.0739457215207
 30
0.0
 11
1334.212675826723
 21
747.4168385458664
 31
0.0
  0
LINE
  5
EB
330
1F
100
AcDbEntity
  8
C-0_通り芯
  6
Continuous
 62
     7
370
     9
100
AcDbLine
 10
1274.71117530488
 20
793.0739457215207
 30
0.0
 11
1320.368282480534
 21
733.5724451996775
 31
0.0
  0
TEXT
  5
EC
330
1F
100
AcDbEntity
  8
D-5_建具
  6
Continuous
 62
     2
370
     9
100
AcDbText
 10
1018.348076118933
 20
750.8307650230663
 30
0.0
 40
30.48
  1
S=1:3
 41
1.1
  7
ＭＳ ゴシック
100
AcDbText
  0
LINE
  5
ED
330
1F
100
AcDbEntity
  8
D-5_建具
  6
Continuous
 62
     7
370
     9
100
AcDbLine
 10
1003.348076118933
 20
730.1907650230663
 30
0.0
 11
1143.348076118933
 21
730.1907650230663
 31
0.0
  0
TEXT
  5
EE
330
1F
100
AcDbEntity
  8
C-5_建具
  6
Continuous
 62
     2
370
     9
100
AcDbText
 10
-981.5922029874406
 20
24.06993401266579
 30
0.0
 40
30.48
  1
▽G.L.
 41
1.104166666666667
  7
ＭＳ ゴシック
100
AcDbText
  0
LINE
  5
EF
330
1F
100
AcDbEntity
  8
C-E_見え係り
  6
Continuous
 62
    30
370
     5
100
AcDbLine
 10
-1094.713826223443
 20
-157.6957753646905
 30
0.0
 11
-925.5292947488539
 21
11.48875610989858
 31
0.0
  0
LINE
  5
F0
330
1F
100
AcDbEntity
  8
C-E_見え係り
  6
Continuous
 62
    30
370
     5
100
AcDbLine
 10
-1404.316091313256
 20
-488.5112438901042
 30
0.0
 11
-1257.315928002975
 21
-341.5110805798223
 31
0.0
  0
LINE
  5
F1
330
1F
100
AcDbEntity
  8
C-E_見え係り
  6
Continuous
 62
    30
370
     5
100
AcDbLine
 10
-1251.316007183719
 20
-335.5111597605661
 30
0.0
 11
-1234.513824955921
 21
-318.7089775327688
 31
0.0
  0
LINE
  5
F2
330
1F
100
AcDbEntity
  8
C-E_見え係り
  6
Continuous
 62
    30
370
     5
100
AcDbLine
 10
-1383.102887877671
 20
-488.5112438901002
 30
0.0
 11
-1238.85277075616
 21
-344.2611267685895
 31
0.0
  0
LINE
  5
F3
330
1F
100
AcDbEntity
  8
C-E_見え係り
  6
Continuous
 62
     6
370
     5
100
AcDbLine
 10
-1769.885678318443
 20
11.4887561098946
 30
0.0
 11
-1234.513824955921
 21
11.4887561098946
 31
0.0
  0
LINE
  5
F4
330
1F
100
AcDbEntity
  8
C-E_見え係り
  6
Continuous
 62
     7
370
     9
100
AcDbLine
 10
-1031.640308249099
 20
-588.5113634860191
 30
0.0
 11
-973.9052981535548
 21
-488.5112438901048
 31
0.0
  0
LINE
  5
F5
330
1F
100
AcDbEntity
  8
C-E_見え係り
  6
Continuous
 62
     7
370
     9
100
AcDbLine
 10
-1077.828242093588
 20
-588.5113634860191
 30
0.0
 11
-1020.093231998043
 21
-488.5112438901048
 31
0.0
  0
LINE
  5
F6
330
1F
100
AcDbEntity
  8
C-E_見え係り
  6
Continuous
 62
     7
370
     9
100
AcDbLine
 10
-1124.016361517944
 20
-588.5113634860191
 30
0.0
 11
-1066.281388538373
 21
-488.5112438901048
 31
0.0
  0
LINE
  5
F7
330
1F
100
AcDbEntity
  8
C-E_見え係り
  6
Continuous
 62
     7
370
     9
100
AcDbLine
 10
-1170.20436959438
 20
-588.5113634860191
 30
0.0
 11
-1112.469322382861
 21
-488.5112438901048
 31
0.0
  0
LINE
  5
F8
330
1F
100
AcDbEntity
  8
C-E_見え係り
  6
Continuous
 62
     7
370
     9
100
AcDbLine
 10
-1216.392340554842
 20
-588.5113634860191
 30
0.0
 11
-1158.657330459298
 21
-488.5112438901048
 31
0.0
  0
LINE
  5
F9
330
1F
100
AcDbEntity
  8
C-E_見え係り
  6
Continuous
 62
     7
370
     9
100
AcDbLine
 10
-1262.580459979199
 20
-588.5113634860191
 30
0.0
 11
-1204.84530141976
 21
-488.5112438901048
 31
0.0
  0
LINE
  5
FA
330
1F
100
AcDbEntity
  8
C-E_見え係り
  6
Continuous
 62
     7
370
     9
100
AcDbLine
 10
-1308.768430939661
 20
-588.5113634860191
 30
0.0
 11
-1251.033420844116
 21
-488.5112438901048
 31
0.0
  0
LINE
  5
FB
330
1F
100
AcDbEntity
  8
C-E_見え係り
  6
Continuous
 62
     7
370
     9
100
AcDbLine
 10
-1354.956439016096
 20
-588.5113634860191
 30
0.0
 11
-1297.221428920552
 21
-488.5112438901048
 31
0.0
  0
LINE
  5
FC
330
1F
100
AcDbEntity
  8
C-E_見え係り
  6
Continuous
 62
     7
370
     9
100
AcDbLine
 10
-1314.541820601295
 20
-518.5111201701936
 30
0.0
 11
-1331.862360745932
 21
-488.5112438901048
 31
0.0
  0
LINE
  5
FD
330
1F
100
AcDbEntity
  8
C-E_見え係り
  6
Continuous
 62
     7
370
     9
100
AcDbLine
 10
-1268.353960988753
 20
-518.5111201701936
 30
0.0
 11
-1285.674389785469
 21
-488.5112438901048
 31
0.0
  0
LINE
  5
FE
330
1F
100
AcDbEntity
  8
C-E_見え係り
  6
Continuous
 62
     7
370
     9
100
AcDbLine
 10
-1222.165841564397
 20
-518.5111201701936
 30
0.0
 11
-1239.486418825007
 21
-488.5112438901048
 31
0.0
  0
LINE
  5
FF
330
1F
100
AcDbEntity
  8
C-E_見え係り
  6
Continuous
 62
     7
370
     9
100
AcDbLine
 10
-1175.977981951854
 20
-518.5111201701936
 30
0.0
 11
-1193.298410748571
 21
-488.5112438901048
 31
0.0
  0
LINE
  5
100
330
1F
100
AcDbEntity
  8
C-E_見え係り
  6
Continuous
 62
     7
370
     9
100
AcDbLine
 10
-1129.789899643472
 20
-518.5111201701936
 30
0.0
 11
-1147.110439788109
 21
-488.5112438901048
 31
0.0
  0
LINE
  5
101
330
1F
100
AcDbEntity
  8
C-E_見え係り
  6
Continuous
 62
     7
370
     9
100
AcDbLine
 10
-1083.602002914956
 20
-518.5111201701936
 30
0.0
 11
-1100.922468827646
 21
-488.5112438901048
 31
0.0
  0
LINE
  5
102
330
1F
100
AcDbEntity
  8
C-E_見え係り
  6
Continuous
 62
     7
370
     9
100
AcDbLine
 10
-1037.413920606573
 20
-518.5111201701936
 30
0.0
 11
-1054.73446075121
 21
-488.5112438901048
 31
0.0
  0
LINE
  5
103
330
1F
100
AcDbEntity
  8
C-E_見え係り
  6
Continuous
 62
     7
370
     9
100
AcDbLine
 10
-991.2260609940313
 20
-518.5111201701936
 30
0.0
 11
-1008.546452674775
 21
-488.5112438901048
 31
0.0
  0
LINE
  5
104
330
1F
100
AcDbEntity
  8
C-E_見え係り
  6
Continuous
 62
     7
370
     9
100
AcDbLine
 10
-1014.319842336409
 20
-558.51126451009
 30
0.0
 11
-996.9993021917725
 21
-588.5113634860191
 31
0.0
  0
LINE
  5
105
330
1F
100
AcDbEntity
  8
C-E_見え係り
  6
Continuous
 62
     7
370
     9
100
AcDbLine
 10
-1060.507701948951
 20
-558.51126451009
 30
0.0
 11
-1043.187310268208
 21
-588.5113634860191
 31
0.0
  0
LINE
  5
106
330
1F
100
AcDbEntity
  8
C-E_見え係り
  6
Continuous
 62
     7
370
     9
100
AcDbLine
 10
-1106.695858489281
 20
-558.51126451009
 30
0.0
 11
-1089.375318344644
 21
-588.5113634860191
 31
0.0
  0
LINE
  5
107
330
1F
100
AcDbEntity
  8
C-E_見え係り
  6
Continuous
 62
     7
370
     9
100
AcDbLine
 10
-1152.883680985849
 20
-558.51126451009
 30
0.0
 11
-1135.563289305106
 21
-588.5113634860191
 31
0.0
  0
LINE
  5
108
330
1F
100
AcDbEntity
  8
C-E_見え係り
  6
Continuous
 62
     7
370
     9
100
AcDbLine
 10
-1199.071800410205
 20
-558.51126451009
 30
0.0
 11
-1181.751260265569
 21
-588.5113634860191
 31
0.0
  0
LINE
  5
109
330
1F
100
AcDbEntity
  8
C-E_見え係り
  6
Continuous
 62
     7
370
     9
100
AcDbLine
 10
-1245.259660022748
 20
-558.51126451009
 30
0.0
 11
-1227.939268342005
 21
-588.5113634860191
 31
0.0
  0
LINE
  5
10A
330
1F
100
AcDbEntity
  8
C-E_見え係り
  6
Continuous
 62
     7
370
     9
100
AcDbLine
 10
-1291.447779447104
 20
-558.51126451009
 30
0.0
 11
-1274.127239302467
 21
-588.5113634860191
 31
0.0
  0
LINE
  5
10B
330
1F
100
AcDbEntity
  8
C-E_見え係り
  6
Continuous
 62
     7
370
     9
100
AcDbLine
 10
-1337.635639059646
 20
-558.51126451009
 30
0.0
 11
-1320.315210262929
 21
-588.5113634860191
 31
0.0
  0
LINE
  5
10C
330
1F
100
AcDbEntity
  8
C-E_見え係り
  6
Continuous
 62
     7
370
     9
100
AcDbLine
 10
-1401.144298628639
 20
-588.5113634860191
 30
0.0
 11
-1343.409288533094
 21
-488.5112438901048
 31
0.0
  0
LINE
  5
10D
330
1F
100
AcDbEntity
  8
C-E_見え係り
  6
Continuous
 62
     7
370
     9
100
AcDbLine
 10
-1360.729680213837
 20
-518.5111201701936
 30
0.0
 11
-1378.050220358474
 21
-488.5112438901048
 31
0.0
  0
LINE
  5
10E
330
1F
100
AcDbEntity
  8
C-E_見え係り
  6
Continuous
 62
     7
370
     9
100
AcDbLine
 10
-1383.823498672188
 20
-558.51126451009
 30
0.0
 11
-1366.503069875471
 21
-588.5113634860191
 31
0.0
  0
LINE
  5
10F
330
1F
100
AcDbEntity
  8
C-E_見え係り
  6
Continuous
 62
     7
370
     9
100
AcDbLine
 10
-1447.332158241181
 20
-588.5113634860191
 30
0.0
 11
-1389.597148145636
 21
-488.5112438901048
 31
0.0
  0
LINE
  5
110
330
1F
100
AcDbEntity
  8
C-E_見え係り
  6
Continuous
 62
     7
370
     9
100
AcDbLine
 10
-1406.917539826379
 20
-518.5111201701936
 30
0.0
 11
-1424.238079971016
 21
-488.5112438901048
 31
0.0
  0
LINE
  5
111
330
1F
100
AcDbEntity
  8
C-E_見え係り
  6
Continuous
 62
     7
370
     9
100
AcDbLine
 10
-1430.01135828473
 20
-558.51126451009
 30
0.0
 11
-1412.690929488014
 21
-588.5113634860191
 31
0.0
  0
LINE
  5
112
330
1F
100
AcDbEntity
  8
C-E_見え係り
  6
Continuous
 62
     7
370
     9
100
AcDbLine
 10
-985.4524486365568
 20
-588.5113634860191
 30
0.0
 11
-927.717438541012
 21
-488.5112438901048
 31
0.0
  0
LINE
  5
113
330
1F
100
AcDbEntity
  8
C-E_見え係り
  6
Continuous
 62
     7
370
     9
100
AcDbLine
 10
-945.0382013814891
 20
-518.5111201701936
 30
0.0
 11
-962.3585930622329
 21
-488.5112438901048
 31
0.0
  0
LINE
  5
114
330
1F
100
AcDbEntity
  8
C-E_見え係り
  6
Continuous
 62
     7
370
     9
100
AcDbLine
 10
-968.1319827238661
 20
-558.51126451009
 30
0.0
 11
-950.8114425792297
 21
-588.5113634860191
 31
0.0
  0
LINE
  5
115
330
1F
100
AcDbEntity
  8
C-E_見え係り
  6
Continuous
 62
     7
370
     9
100
AcDbLine
 10
-939.2645890240141
 20
-588.5113634860191
 30
0.0
 11
-881.5295789284693
 21
-488.5112438901048
 31
0.0
  0
LINE
  5
116
330
1F
100
AcDbEntity
  8
C-E_見え係り
  6
Continuous
 62
     7
370
     9
100
AcDbLine
 10
-898.8503417689464
 20
-518.5111201701936
 30
0.0
 11
-916.1707334496901
 21
-488.5112438901048
 31
0.0
  0
LINE
  5
117
330
1F
100
AcDbEntity
  8
C-E_見え係り
  6
Continuous
 62
     7
370
     9
100
AcDbLine
 10
-921.9441231113245
 20
-558.51126451009
 30
0.0
 11
-904.6235829666881
 21
-588.5113634860191
 31
0.0
  0
LINE
  5
118
330
1F
100
AcDbEntity
  8
C-2_仕上
  6
Continuous
 62
     3
370
     9
100
AcDbLine
 10
-1094.713826223439
 20
587.4890913143433
 30
0.0
 11
-1094.713826223439
 21
-488.5112438901051
 31
0.0
  0
LINE
  5
119
330
1F
100
AcDbEntity
  8
C-2_仕上
  6
Continuous
 62
     3
370
     9
100
AcDbLine
 10
-1234.513824955925
 20
-488.5112438901051
 30
0.0
 11
-1094.713826223439
 21
-488.5112438901051
 31
0.0
  0
LINE
  5
11A
330
1F
100
AcDbEntity
  8
C-2_仕上
  6
Continuous
 62
     3
370
     9
100
AcDbLine
 10
-1234.513824955921
 20
-488.5112438901051
 30
0.0
 11
-1234.513824955921
 21
587.4890913143433
 31
0.0
  0
ARC
  5
11B
330
1F
100
AcDbEntity
  8
C-0_通り芯
  6
JWW_CENTER2
 62
     7
370
     9
100
AcDbCircle
 10
-989.6138255896818
 20
656.2392377935776
 30
0.0
 40
175.0
100
AcDbArc
 50
89.99990989619982
 51
180.0
  0
ARC
  5
11C
330
1F
100
AcDbEntity
  8
C-3_寸法
  6
Continuous
 62
     4
370
     9
100
AcDbCircle
 10
-989.6138255896818
 20
656.2392377935776
 30
0.0
 40
144.75
100
AcDbArc
 50
89.99990989619982
 51
180.0
  0
ARC
  5
11D
330
1F
100
AcDbEntity
  8
C-3_寸法
  6
Continuous
 62
     4
370
     9
100
AcDbCircle
 10
-989.6138255896818
 20
656.2392377935776
 30
0.0
 40
205.25
100
AcDbArc
 50
89.99990989619982
 51
180.0
  0
LINE
  5
11E
330
1F
100
AcDbEntity
  8
C-0_通り芯
  6
JWW_CENTER2
 62
     7
370
     9
100
AcDbLine
 10
-1164.613825589682
 20
656.2392377935776
 30
0.0
 11
-1164.613825589682
 21
-519.1831419311994
 31
0.0
  0
LINE
  5
11F
330
1F
100
AcDbEntity
  8
C-8_ハッチ
  6
Continuous
 62
    30
370
     5
100
AcDbLine
 10
-1234.513824955921
 20
587.4890913143433
 30
0.0
 11
-1094.713826223439
 21
587.4890913143433
 31
0.0
  0
LINE
  5
120
330
1F
100
AcDbEntity
  8
C-0_通り芯
  6
JWW_CENTER2
 62
     7
370
     9
100
AcDbLine
 10
-1269.448378296509
 20
-338.5111201701942
 30
0.0
 11
-1059.448427784473
 21
-338.5111201701942
 31
0.0
  0
LINE
  5
121
330
1F
100
AcDbEntity
  8
C-E_見え係り
  6
Continuous
 62
    30
370
     5
100
AcDbLine
 10
144.7861737765568
 20
-157.6957753646905
 30
0.0
 11
313.9707052511455
 21
11.48875610989858
 31
0.0
  0
LINE
  5
122
330
1F
100
AcDbEntity
  8
C-E_見え係り
  6
Continuous
 62
    30
370
     5
100
AcDbLine
 10
-143.6028878776714
 20
-488.5112438901002
 30
0.0
 11
0.6472292438395932
 21
-344.2611267685895
 31
0.0
  0
LINE
  5
123
330
1F
100
AcDbEntity
  8
C-E_見え係り
  6
Continuous
 62
    30
370
     5
100
AcDbLine
 10
-164.8160913132578
 20
-488.5112438901042
 30
0.0
 11
-17.81592800297558
 21
-341.5110805798223
 31
0.0
  0
LINE
  5
124
330
1F
100
AcDbEntity
  8
C-E_見え係り
  6
Continuous
 62
    30
370
     5
100
AcDbLine
 10
-11.81600718371937
 20
-335.5111597605661
 30
0.0
 11
4.986175044078482
 21
-318.7089775327688
 31
0.0
  0
LINE
  5
125
330
1F
100
AcDbEntity
  8
C-E_見え係り
  6
Continuous
 62
     6
370
     5
100
AcDbLine
 10
144.7861737765614
 20
11.4887561098946
 30
0.0
 11
561.9967481351075
 21
11.4887561098946
 31
0.0
  0
LINE
  5
126
330
1F
100
AcDbEntity
  8
C-2_仕上
  6
Continuous
 62
     3
370
     9
100
AcDbLine
 10
144.7861737765614
 20
587.4890913143433
 30
0.0
 11
144.7861737765614
 21
-488.5112438901051
 31
0.0
  0
LINE
  5
127
330
1F
100
AcDbEntity
  8
C-2_仕上
  6
Continuous
 62
     3
370
     9
100
AcDbLine
 10
4.986175044075072
 20
-488.5112438901051
 30
0.0
 11
144.7861737765614
 21
-488.5112438901051
 31
0.0
  0
LINE
  5
128
330
1F
100
AcDbEntity
  8
C-2_仕上
  6
Continuous
 62
     3
370
     9
100
AcDbLine
 10
4.986175044079619
 20
-488.5112438901051
 30
0.0
 11
4.986175044079619
 21
587.4890913143433
 31
0.0
  0
ARC
  5
129
330
1F
100
AcDbEntity
  8
C-0_通り芯
  6
JWW_CENTER2
 62
     7
370
     9
100
AcDbCircle
 10
-100.1138255896823
 20
656.2378224463935
 30
0.0
 40
175.0
100
AcDbArc
 50
0.0
 51
89.99990989619982
  0
ARC
  5
12A
330
1F
100
AcDbEntity
  8
C-3_寸法
  6
Continuous
 62
     4
370
     9
100
AcDbCircle
 10
-100.1138255896823
 20
656.2378224463935
 30
0.0
 40
205.25
100
AcDbArc
 50
0.0
 51
89.99990989619982
  0
ARC
  5
12B
330
1F
100
AcDbEntity
  8
C-3_寸法
  6
Continuous
 62
     4
370
     9
100
AcDbCircle
 10
-100.1138255896823
 20
656.2378224463935
 30
0.0
 40
144.75
100
AcDbArc
 50
0.0
 51
89.99990989619982
  0
LINE
  5
12C
330
1F
100
AcDbEntity
  8
C-3_寸法
  6
Continuous
 62
     4
370
     9
100
AcDbLine
 10
105.1361744103185
 20
656.2378224463935
 30
0.0
 11
105.1361744103185
 21
311.4890913143431
 31
0.0
  0
LINE
  5
12D
330
1F
100
AcDbEntity
  8
C-3_寸法
  6
Continuous
 62
     4
370
     9
100
AcDbLine
 10
44.63617441031788
 20
656.2378224463935
 30
0.0
 11
44.63617441031788
 21
311.4890913143431
 31
0.0
  0
ARC
  5
12E
330
1F
100
AcDbEntity
  8
C-3_寸法
  6
Continuous
 62
     4
370
     9
100
AcDbCircle
 10
-100.1138255896823
 20
656.2378224463935
 30
0.0
 40
147.55
100
AcDbArc
 50
0.0
 51
89.99990989619982
  0
ARC
  5
12F
330
1F
100
AcDbEntity
  8
C-3_寸法
  6
Continuous
 62
     4
370
     9
100
AcDbCircle
 10
-100.1138255896823
 20
656.2378224463935
 30
0.0
 40
202.45
100
AcDbArc
 50
0.0
 51
89.99990989619982
  0
LINE
  5
130
330
1F
100
AcDbEntity
  8
C-0_通り芯
  6
JWW_CENTER2
 62
     7
370
     9
100
AcDbLine
 10
74.88617441031765
 20
656.2378224463935
 30
0.0
 11
74.88617441031765
 21
-519.1831419311994
 31
0.0
  0
LINE
  5
131
330
1F
100
AcDbEntity
  8
C-8_ハッチ
  6
Continuous
 62
    30
370
     5
100
AcDbLine
 10
105.1361744103185
 20
587.4890913143433
 30
0.0
 11
144.7861737765614
 21
587.4890913143433
 31
0.0
  0
LINE
  5
132
330
1F
100
AcDbEntity
  8
C-8_ハッチ
  6
Continuous
 62
    30
370
     5
100
AcDbLine
 10
4.986175044079619
 20
587.4890913143433
 30
0.0
 11
44.63617441031788
 21
587.4890913143433
 31
0.0
  0
LINE
  5
133
330
1F
100
AcDbEntity
  8
C-0_通り芯
  6
JWW_CENTER2
 62
     7
370
     9
100
AcDbLine
 10
-29.9483782965096
 20
-338.5111201701942
 30
0.0
 11
180.0515722155269
 21
-338.5111201701942
 31
0.0
  0
LINE
  5
134
330
1F
100
AcDbEntity
  8
C-2_仕上
  6
Continuous
 62
     3
370
     9
100
AcDbLine
 10
4.986175044075072
 20
-342.5111201701945
 30
0.0
 11
9.486175044075527
 21
-342.5111201701945
 31
0.0
  0
LINE
  5
135
330
1F
100
AcDbEntity
  8
C-2_仕上
  6
Continuous
 62
     3
370
     9
100
AcDbLine
 10
4.986175044075072
 20
-334.5111201701944
 30
0.0
 11
9.486175044075527
 21
-334.5111201701944
 31
0.0
  0
LINE
  5
136
330
1F
100
AcDbEntity
  8
C-2_仕上
  6
Continuous
 62
     3
370
     9
100
AcDbLine
 10
140.2861737765609
 20
-334.5111201701944
 30
0.0
 11
144.7861737765602
 21
-334.5111201701944
 31
0.0
  0
LINE
  5
137
330
1F
100
AcDbEntity
  8
C-2_仕上
  6
Continuous
 62
     3
370
     9
100
AcDbLine
 10
140.2861737765609
 20
-342.5111201701945
 30
0.0
 11
144.7861737765602
 21
-342.5111201701945
 31
0.0
  0
LINE
  5
138
330
1F
100
AcDbEntity
  8
C-2_仕上
  6
Continuous
 62
     3
370
     9
100
AcDbLine
 10
9.486175044075527
 20
-488.5112438901051
 30
0.0
 11
9.486175044075527
 21
-341.5110805798223
 31
0.0
  0
LINE
  5
139
330
1F
100
AcDbEntity
  8
C-2_仕上
  6
Continuous
 62
     3
370
     9
100
AcDbLine
 10
9.486175044075527
 20
-335.5111597605661
 30
0.0
 11
9.486175044075527
 21
587.4890913143433
 31
0.0
  0
LINE
  5
13A
330
1F
100
AcDbEntity
  8
C-2_仕上
  6
Continuous
 62
     3
370
     9
100
AcDbLine
 10
140.286173776562
 20
587.4890913143433
 30
0.0
 11
140.286173776562
 21
-335.5111597605661
 31
0.0
  0
LINE
  5
13B
330
1F
100
AcDbEntity
  8
C-2_仕上
  6
Continuous
 62
     3
370
     9
100
AcDbLine
 10
140.286173776562
 20
-341.5110805798223
 30
0.0
 11
140.286173776562
 21
-488.5112438901051
 31
0.0
  0
LINE
  5
13C
330
1F
100
AcDbEntity
  8
C-3_寸法
  6
Continuous
 62
     4
370
     9
100
AcDbLine
 10
-544.8635028118933
 20
803.7885301196598
 30
0.0
 11
-100.1135935513734
 21
803.7878224462115
 31
0.0
  0
LINE
  5
13D
330
1F
100
AcDbEntity
  8
C-3_寸法
  6
Continuous
 62
     4
370
     9
100
AcDbLine
 10
-544.8635028118933
 20
858.6885301197281
 30
0.0
 11
-100.1135072151958
 21
858.6878224461434
 31
0.0
  0
LINE
  5
13E
330
1F
100
AcDbEntity
  8
C-E_見え係り
  6
Continuous
 62
     6
370
     5
100
AcDbLine
 10
119.6056238615411
 20
-488.5112438901008
 30
0.0
 11
140.2861737765564
 21
-467.8306939750855
 31
0.0
  0
LINE
  5
13F
330
1F
100
AcDbEntity
  8
C-E_見え係り
  6
Continuous
 62
     6
370
     5
100
AcDbLine
 10
9.486175044068705
 20
-315.7879802329608
 30
0.0
 11
140.2861737765598
 21
-184.98798150047
 31
0.0
  0
LINE
  5
140
330
1F
100
AcDbEntity
  8
C-E_見え係り
  6
Continuous
 62
     6
370
     5
100
AcDbLine
 10
9.486175044072116
 20
-75.37167462952755
 30
0.0
 11
140.2861737765575
 21
55.42832410295784
 31
0.0
  0
LINE
  5
141
330
1F
100
AcDbEntity
  8
C-E_見え係り
  6
Continuous
 62
     6
370
     5
100
AcDbLine
 10
9.486175044073253
 20
-54.15847119392669
 30
0.0
 11
140.2861737765586
 21
76.64152753855927
 31
0.0
  0
LINE
  5
142
330
1F
100
AcDbEntity
  8
C-E_見え係り
  6
Continuous
 62
     6
370
     5
100
AcDbLine
 10
9.486175044072116
 20
-32.94526775834544
 30
0.0
 11
140.2861737765632
 21
97.85473097414507
 31
0.0
  0
LINE
  5
143
330
1F
100
AcDbEntity
  8
C-E_見え係り
  6
Continuous
 62
     6
370
     5
100
AcDbLine
 10
9.486175044069842
 20
207.4710378450827
 30
0.0
 11
140.2861737765598
 21
338.2710365775727
 31
0.0
  0
LINE
  5
144
330
1F
100
AcDbEntity
  8
C-E_見え係り
  6
Continuous
 62
     6
370
     5
100
AcDbLine
 10
9.486175044072116
 20
249.897444716285
 30
0.0
 11
102.3361744103188
 21
342.7474440825317
 31
0.0
  0
LINE
  5
145
330
1F
100
AcDbEntity
  8
C-E_見え係り
  6
Continuous
 62
     6
370
     5
100
AcDbLine
 10
105.1361744103185
 20
345.5474440825315
 30
0.0
 11
140.2861737765575
 21
380.6974434487693
 31
0.0
  0
LINE
  5
146
330
1F
100
AcDbEntity
  8
C-E_見え係り
  6
Continuous
 62
     6
370
     5
100
AcDbLine
 10
9.486175044073253
 20
228.6842412806861
 30
0.0
 11
102.3361744103188
 21
321.5342406469317
 31
0.0
  0
LINE
  5
147
330
1F
100
AcDbEntity
  8
C-E_見え係り
  6
Continuous
 62
     6
370
     5
100
AcDbLine
 10
105.1361744103185
 20
324.3342406469314
 30
0.0
 11
140.2861737765598
 21
359.4842400131715
 31
0.0
  0
LINE
  5
148
330
1F
100
AcDbEntity
  8
C-E_見え係り
  6
Continuous
 62
     6
370
     5
100
AcDbLine
 10
9.486175044073253
 20
-358.2143871041574
 30
0.0
 11
26.18948156840775
 21
-341.5110805798223
 31
0.0
  0
LINE
  5
149
330
1F
100
AcDbEntity
  8
C-E_見え係り
  6
Continuous
 62
     6
370
     5
100
AcDbLine
 10
32.18940238766395
 20
-335.5111597605661
 30
0.0
 11
140.2861737765632
 21
-227.4143883716666
 31
0.0
  0
LINE
  5
14A
330
1F
100
AcDbEntity
  8
C-E_見え係り
  6
Continuous
 62
     6
370
     5
100
AcDbLine
 10
10.97619895206394
 20
-335.5111597605661
 30
0.0
 11
140.286173776562
 21
-206.2011849360683
 31
0.0
  0
LINE
  5
14B
330
1F
100
AcDbEntity
  8
C-E_見え係り
  6
Continuous
 62
     6
370
     5
100
AcDbLine
 10
-1094.713826223439
 20
11.4887561098946
 30
0.0
 11
4.986175044079619
 21
11.4887561098946
 31
0.0
  0
LINE
  5
14C
330
1F
100
AcDbEntity
  8
C-3_寸法
  6
Continuous
 62
     4
370
     9
100
AcDbLine
 10
-989.6135028118937
 20
861.4892377933238
 30
0.0
 11
-100.1135028118931
 21
861.4878224461397
 31
0.0
  0
LINE
  5
14D
330
1F
100
AcDbEntity
  8
C-0_通り芯
  6
JWW_CENTER2
 62
     7
370
     9
100
AcDbLine
 10
-989.6135503832858
 20
831.2392377933604
 30
0.0
 11
-100.1135503832852
 21
831.2378224461775
 31
0.0
  0
LINE
  5
14E
330
1F
100
AcDbEntity
  8
C-3_寸法
  6
Continuous
 62
     4
370
     9
100
AcDbLine
 10
-989.6135979546767
 20
800.9892377933982
 30
0.0
 11
-100.1135979546761
 21
800.9878224462141
 31
0.0
  0
LINE
  5
14F
330
1F
100
AcDbEntity
  8
C-F_断熱材
  6
Continuous
 62
     7
370
     9
100
AcDbLine
 10
-175.907517769853
 20
311.4890913143431
 30
0.0
 11
24.63617441031788
 21
311.4890913143431
 31
0.0
  0
LINE
  5
150
330
1F
100
AcDbEntity
  8
C-0_通り芯
  6
JWW_CENTER2
 62
     7
370
     9
100
AcDbLine
 10
-544.8635028118933
 20
921.634023248033
 30
0.0
 11
-544.8635028118933
 21
740.8430369915043
 31
0.0
  0
LINE
  5
151
330
1F
100
AcDbEntity
  8
C-F_断熱材
  6
Continuous
 62
     7
370
     9
100
AcDbLine
 10
166.434341333274
 20
-335.5111597605661
 30
0.0
 11
415.7635474756303
 21
-86.18195361821097
 31
0.0
  0
LINE
  5
152
330
1F
100
AcDbEntity
  8
C-F_断熱材
  6
Continuous
 62
     7
370
     9
100
AcDbLine
 10
166.434341333274
 20
-335.5111597605658
 30
0.0
 11
184.6971323225064
 21
-311.7106655407595
 31
0.0
  0
LINE
  5
153
330
1F
100
AcDbEntity
  8
C-F_断熱材
  6
Continuous
 62
     7
370
     9
100
AcDbLine
 10
166.434341333274
 20
-335.5111597605658
 30
0.0
 11
190.2350829929021
 21
-317.2483687713346
 31
0.0
  0
LINE
  5
154
330
1F
100
AcDbEntity
  8
C-F_断熱材
  6
Continuous
 62
     7
370
     9
100
AcDbLine
 10
-1194.863825589683
 20
994.4954078001239
 30
0.0
 11
105.1361744103185
 21
994.4954078001239
 31
0.0
  0
TEXT
  5
155
330
1F
100
AcDbEntity
  8
C-F_断熱材
  6
Continuous
 62
     2
370
   211
100
AcDbText
 10
-588.6138255896815
 20
1006.135407800124
 30
0.0
 40
30.48
  1
1300
 41
1.09375
  7
ＭＳ ゴシック
100
AcDbText
  0
LINE
  5
156
330
1F
100
AcDbEntity
  8
C-F_断熱材
  6
Continuous
 62
     7
370
     9
100
AcDbLine
 10
-1194.863825589683
 20
997.4954078001246
 30
0.0
 11
-1194.863825589683
 21
706.2392377935776
 31
0.0
  0
LINE
  5
157
330
1F
100
AcDbEntity
  8
C-F_断熱材
  6
Continuous
 62
     7
370
     9
100
AcDbLine
 10
105.1361744103185
 20
997.4954078001246
 30
0.0
 11
105.1361744103185
 21
706.2378224463935
 31
0.0
  0
LINE
  5
158
330
1F
100
AcDbEntity
  8
C-5_建具
  6
Continuous
 62
     7
370
     9
100
AcDbLine
 10
-172.9075177698523
 20
311.4890913143431
 30
0.0
 11
-176.1706725753542
 21
336.2752128486885
 31
0.0
  0
LINE
  5
159
330
1F
100
AcDbEntity
  8
C-5_建具
  6
Continuous
 62
     7
370
     9
100
AcDbLine
 10
-172.9075177698523
 20
311.4890913143431
 30
0.0
 11
-169.6443629643504
 21
336.2752128486885
 31
0.0
  0
LINE
  5
15A
330
1F
100
AcDbEntity
  8
C-5_建具
  6
Continuous
 62
     7
370
     9
100
AcDbLine
 10
-1234.513824955921
 20
302.7594686869848
 30
0.0
 11
-1209.727703421576
 21
306.0226234924862
 31
0.0
  0
LINE
  5
15B
330
1F
100
AcDbEntity
  8
C-5_建具
  6
Continuous
 62
     7
370
     9
100
AcDbLine
 10
-1234.513824955921
 20
302.7594686869848
 30
0.0
 11
-1209.727703421576
 21
299.4963138814834
 31
0.0
  0
LINE
  5
15C
330
1F
100
AcDbEntity
  8
C-5_建具
  6
Continuous
 62
     7
370
     9
100
AcDbLine
 10
-1234.513824955921
 20
302.7594686869848
 30
0.0
 11
-1094.713826223439
 21
302.7594686869848
 31
0.0
  0
LINE
  5
15D
330
1F
100
AcDbEntity
  8
C-5_建具
  6
Continuous
 62
     7
370
     9
100
AcDbLine
 10
-1094.713826223439
 20
302.7594686869848
 30
0.0
 11
-1119.499947757785
 21
299.4963138814834
 31
0.0
  0
LINE
  5
15E
330
1F
100
AcDbEntity
  8
C-5_建具
  6
Continuous
 62
     7
370
     9
100
AcDbLine
 10
-1094.713826223439
 20
302.7594686869848
 30
0.0
 11
-1119.499947757785
 21
306.0226234924862
 31
0.0
  0
LINE
  5
15F
330
1F
100
AcDbEntity
  8
C-6_間仕切
  6
Continuous
 62
     6
370
     5
100
AcDbLine
 10
4.986175044075072
 20
-335.5111597605661
 30
0.0
 11
144.7861737765602
 21
-335.5111597605661
 31
0.0
  0
LINE
  5
160
330
1F
100
AcDbEntity
  8
C-6_間仕切
  6
Continuous
 62
     6
370
     5
100
AcDbLine
 10
144.7861737765602
 20
-341.5110805798223
 30
0.0
 11
4.986175044075072
 21
-341.5110805798223
 31
0.0
  0
LINE
  5
161
330
1F
100
AcDbEntity
  8
C-6_間仕切
  6
Continuous
 62
     6
370
     5
100
AcDbLine
 10
144.7861737765602
 20
-340.9695585279853
 30
0.0
 11
4.986175044075072
 21
-340.9695585279853
 31
0.0
  0
LINE
  5
162
330
1F
100
AcDbEntity
  8
C-6_間仕切
  6
Continuous
 62
     6
370
     5
100
AcDbLine
 10
144.7861737765602
 20
-336.0526818124031
 30
0.0
 11
4.986175044075072
 21
-336.0526818124031
 31
0.0
  0
LINE
  5
163
330
1F
100
AcDbEntity
  8
C-6_間仕切
  6
Continuous
 62
     6
370
     5
100
AcDbLine
 10
175.0515557195384
 20
-336.0526818124031
 30
0.0
 11
174.5101573876123
 21
-335.5111597605661
 31
0.0
  0
LINE
  5
164
330
1F
100
AcDbEntity
  8
C-6_間仕切
  6
Continuous
 62
     6
370
     5
100
AcDbLine
 10
175.0515557195384
 20
-336.0526818124031
 30
0.0
 11
175.0515557195384
 21
-340.9695585279853
 31
0.0
  0
LINE
  5
165
330
1F
100
AcDbEntity
  8
C-6_間仕切
  6
Continuous
 62
     6
370
     5
100
AcDbLine
 10
174.5101573876123
 20
-335.5111597605661
 30
0.0
 11
174.5101573876123
 21
-341.5110805798223
 31
0.0
  0
LINE
  5
166
330
1F
100
AcDbEntity
  8
C-6_間仕切
  6
Continuous
 62
     6
370
     5
100
AcDbLine
 10
175.0515557195384
 20
-340.9695585279853
 30
0.0
 11
174.5100336677008
 21
-341.5110805798223
 31
0.0
  0
LINE
  5
167
330
1F
100
AcDbEntity
  8
C-6_間仕切
  6
Continuous
 62
     6
370
     5
100
AcDbLine
 10
149.7861902725499
 20
-336.0526818124031
 30
0.0
 11
175.0515557195384
 21
-336.0526818124031
 31
0.0
  0
LINE
  5
168
330
1F
100
AcDbEntity
  8
C-6_間仕切
  6
Continuous
 62
     6
370
     5
100
AcDbLine
 10
149.7861902725499
 20
-335.5111597605661
 30
0.0
 11
174.5101573876123
 21
-335.5111597605661
 31
0.0
  0
LINE
  5
169
330
1F
100
AcDbEntity
  8
C-6_間仕切
  6
Continuous
 62
     6
370
     5
100
AcDbLine
 10
149.7861902725499
 20
-341.5110805798223
 30
0.0
 11
174.5100336677008
 21
-341.5110805798223
 31
0.0
  0
LINE
  5
16A
330
1F
100
AcDbEntity
  8
C-6_間仕切
  6
Continuous
 62
     6
370
     5
100
AcDbLine
 10
149.7861902725499
 20
-340.9695585279853
 30
0.0
 11
175.0515557195384
 21
-340.9695585279853
 31
0.0
  0
LINE
  5
16B
330
1F
100
AcDbEntity
  8
C-6_間仕切
  6
Continuous
 62
     6
370
     5
100
AcDbLine
 10
-24.94811436069808
 20
-336.0526818124031
 30
0.0
 11
-24.94811436069808
 21
-340.9695585279853
 31
0.0
  0
LINE
  5
16C
330
1F
100
AcDbEntity
  8
C-6_間仕切
  6
Continuous
 62
     6
370
     5
100
AcDbLine
 10
-24.94811436069808
 20
-336.0526818124031
 30
0.0
 11
-24.40671602877201
 21
-335.5111597605661
 31
0.0
  0
LINE
  5
16D
330
1F
100
AcDbEntity
  8
C-6_間仕切
  6
Continuous
 62
     6
370
     5
100
AcDbLine
 10
-24.40671602877201
 20
-335.5111597605661
 30
0.0
 11
-24.40671602877201
 21
-341.5110805798223
 31
0.0
  0
LINE
  5
16E
330
1F
100
AcDbEntity
  8
C-6_間仕切
  6
Continuous
 62
     6
370
     5
100
AcDbLine
 10
-24.94811436069808
 20
-340.9695585279853
 30
0.0
 11
-24.40659230886167
 21
-341.5110805798223
 31
0.0
  0
LINE
  5
16F
330
1F
100
AcDbEntity
  8
C-6_間仕切
  6
Continuous
 62
     6
370
     5
100
AcDbLine
 10
-0.0138414519135033
 20
-336.0526818124031
 30
0.0
 11
-24.94811436069808
 21
-336.0526818124031
 31
0.0
  0
LINE
  5
170
330
1F
100
AcDbEntity
  8
C-6_間仕切
  6
Continuous
 62
     6
370
     5
100
AcDbLine
 10
-0.0138414519135033
 20
-335.5111597605661
 30
0.0
 11
-24.40671602877201
 21
-335.5111597605661
 31
0.0
  0
LINE
  5
171
330
1F
100
AcDbEntity
  8
C-6_間仕切
  6
Continuous
 62
     6
370
     5
100
AcDbLine
 10
-0.0138414519135033
 20
-341.5110805798223
 30
0.0
 11
-24.40659230886167
 21
-341.5110805798223
 31
0.0
  0
LINE
  5
172
330
1F
100
AcDbEntity
  8
C-6_間仕切
  6
Continuous
 62
     6
370
     5
100
AcDbLine
 10
-0.0138414519135033
 20
-340.9695585279853
 30
0.0
 11
-24.94811436069808
 21
-340.9695585279853
 31
0.0
  0
LINE
  5
173
330
1F
100
AcDbEntity
  8
C-7_木断面
  6
Continuous
 62
    30
370
     5
100
AcDbLine
 10
4.986175044075072
 20
-332.7611135717989
 30
0.0
 11
4.986175044075072
 21
-344.2611267685895
 31
0.0
  0
LINE
  5
174
330
1F
100
AcDbEntity
  8
C-7_木断面
  6
Continuous
 62
    30
370
     5
100
AcDbLine
 10
0.4768317163719082
 20
-332.7611135717989
 30
0.0
 11
4.986175044075072
 21
-332.7611135717989
 31
0.0
  0
ARC
  5
175
330
1F
100
AcDbEntity
  8
C-7_木断面
  6
Continuous
 62
    30
370
     5
100
AcDbCircle
 10
2.354157650705293
 20
-334.2044300572296
 30
0.0
 40
2.367928785246772
100
AcDbArc
 50
142.4427795410156
 51
217.5572204589844
  0
LINE
  5
176
330
1F
100
AcDbEntity
  8
C-7_木断面
  6
Continuous
 62
    30
370
     5
100
AcDbLine
 10
0.4768317163719082
 20
-335.6478702625718
 30
0.0
 11
4.986175044075072
 21
-335.6478702625718
 31
0.0
  0
ARC
  5
177
330
1F
100
AcDbEntity
  8
C-7_木断面
  6
Continuous
 62
    30
370
     5
100
AcDbCircle
 10
8.5840737851011
 20
-338.5111201701942
 30
0.0
 40
8.59791813669978
100
AcDbArc
 50
160.5480041503906
 51
199.4519958496094
  0
LINE
  5
178
330
1F
100
AcDbEntity
  8
C-7_木断面
  6
Continuous
 62
    30
370
     5
100
AcDbLine
 10
-0.0138414519135033
 20
-334.2044300572296
 30
0.0
 11
-0.0138414519135033
 21
-342.8176865632473
 31
0.0
  0
LINE
  5
179
330
1F
100
AcDbEntity
  8
C-7_木断面
  6
Continuous
 62
    30
370
     5
100
AcDbLine
 10
0.4768317163719082
 20
-341.3743700778166
 30
0.0
 11
4.986175044075072
 21
-341.3743700778166
 31
0.0
  0
ARC
  5
17A
330
1F
100
AcDbEntity
  8
C-7_木断面
  6
Continuous
 62
    30
370
     5
100
AcDbCircle
 10
2.354157650705293
 20
-342.8176865632473
 30
0.0
 40
2.367928785246772
100
AcDbArc
 50
142.4427795410156
 51
217.5572204589844
  0
LINE
  5
17B
330
1F
100
AcDbEntity
  8
C-7_木断面
  6
Continuous
 62
    30
370
     5
100
AcDbLine
 10
0.4768317163719082
 20
-344.2611267685895
 30
0.0
 11
4.986175044075072
 21
-344.2611267685895
 31
0.0
  0
LINE
  5
17C
330
1F
100
AcDbEntity
  8
C-7_木断面
  6
Continuous
 62
    30
370
     5
100
AcDbLine
 10
144.7861737765602
 20
-332.7611135717989
 30
0.0
 11
144.7861737765602
 21
-344.2611267685895
 31
0.0
  0
LINE
  5
17D
330
1F
100
AcDbEntity
  8
C-7_木断面
  6
Continuous
 62
    30
370
     5
100
AcDbLine
 10
149.2955171042634
 20
-335.6478702625718
 30
0.0
 11
144.7861737765602
 21
-335.6478702625718
 31
0.0
  0
LINE
  5
17E
330
1F
100
AcDbEntity
  8
C-7_木断面
  6
Continuous
 62
    30
370
     5
100
AcDbLine
 10
149.2955171042634
 20
-332.7611135717989
 30
0.0
 11
144.7861737765602
 21
-332.7611135717989
 31
0.0
  0
ARC
  5
17F
330
1F
100
AcDbEntity
  8
C-7_木断面
  6
Continuous
 62
    30
370
     5
100
AcDbCircle
 10
147.4181911699311
 20
-334.2044300572296
 30
0.0
 40
2.367928785246772
100
AcDbArc
 50
322.4427795410156
 51
37.55722045898439
  0
LINE
  5
180
330
1F
100
AcDbEntity
  8
C-7_木断面
  6
Continuous
 62
    30
370
     5
100
AcDbLine
 10
149.7861902725499
 20
-334.2044300572296
 30
0.0
 11
149.7861902725499
 21
-342.8176865632473
 31
0.0
  0
ARC
  5
181
330
1F
100
AcDbEntity
  8
C-7_木断面
  6
Continuous
 62
    30
370
     5
100
AcDbCircle
 10
141.1882750355353
 20
-338.5111201701942
 30
0.0
 40
8.59791813669978
100
AcDbArc
 50
340.5480041503906
 51
19.45199584960938
  0
LINE
  5
182
330
1F
100
AcDbEntity
  8
C-7_木断面
  6
Continuous
 62
    30
370
     5
100
AcDbLine
 10
149.2955171042634
 20
-341.3743700778166
 30
0.0
 11
144.7861737765602
 21
-341.3743700778166
 31
0.0
  0
LINE
  5
183
330
1F
100
AcDbEntity
  8
C-7_木断面
  6
Continuous
 62
    30
370
     5
100
AcDbLine
 10
149.2955171042634
 20
-344.2611267685895
 30
0.0
 11
144.7861737765602
 21
-344.2611267685895
 31
0.0
  0
ARC
  5
184
330
1F
100
AcDbEntity
  8
C-7_木断面
  6
Continuous
 62
    30
370
     5
100
AcDbCircle
 10
147.4181911699311
 20
-342.8176865632473
 30
0.0
 40
2.367928785246772
100
AcDbArc
 50
322.4427795410156
 51
37.55722045898439
  0
LINE
  5
185
330
1F
100
AcDbEntity
  8
C-7_木断面
  6
Continuous
 62
    30
370
     5
100
AcDbLine
 10
-1094.713826223439
 20
-332.7611135717989
 30
0.0
 11
-1094.713826223439
 21
-344.2611267685895
 31
0.0
  0
LINE
  5
186
330
1F
100
AcDbEntity
  8
C-7_木断面
  6
Continuous
 62
    30
370
     5
100
AcDbLine
 10
-1090.204482895736
 20
-335.6478702625718
 30
0.0
 11
-1094.713826223439
 21
-335.6478702625718
 31
0.0
  0
LINE
  5
187
330
1F
100
AcDbEntity
  8
C-7_木断面
  6
Continuous
 62
    30
370
     5
100
AcDbLine
 10
-1090.204482895736
 20
-332.7611135717989
 30
0.0
 11
-1094.713826223439
 21
-332.7611135717989
 31
0.0
  0
ARC
  5
188
330
1F
100
AcDbEntity
  8
C-7_木断面
  6
Continuous
 62
    30
370
     5
100
AcDbCircle
 10
-1092.081808830068
 20
-334.2044300572296
 30
0.0
 40
2.367928785246772
100
AcDbArc
 50
322.4427795410156
 51
37.55722045898439
  0
LINE
  5
189
330
1F
100
AcDbEntity
  8
C-7_木断面
  6
Continuous
 62
    30
370
     5
100
AcDbLine
 10
-1089.713809727451
 20
-334.2044300572296
 30
0.0
 11
-1089.713809727451
 21
-342.8176865632473
 31
0.0
  0
ARC
  5
18A
330
1F
100
AcDbEntity
  8
C-7_木断面
  6
Continuous
 62
    30
370
     5
100
AcDbCircle
 10
-1098.311724964465
 20
-338.5111201701942
 30
0.0
 40
8.59791813669978
100
AcDbArc
 50
340.5480041503906
 51
19.45199584960938
  0
LINE
  5
18B
330
1F
100
AcDbEntity
  8
C-7_木断面
  6
Continuous
 62
    30
370
     5
100
AcDbLine
 10
-1090.204482895736
 20
-341.3743700778166
 30
0.0
 11
-1094.713826223439
 21
-341.3743700778166
 31
0.0
  0
LINE
  5
18C
330
1F
100
AcDbEntity
  8
C-7_木断面
  6
Continuous
 62
    30
370
     5
100
AcDbLine
 10
-1090.204482895736
 20
-344.2611267685895
 30
0.0
 11
-1094.713826223439
 21
-344.2611267685895
 31
0.0
  0
ARC
  5
18D
330
1F
100
AcDbEntity
  8
C-7_木断面
  6
Continuous
 62
    30
370
     5
100
AcDbCircle
 10
-1092.081808830068
 20
-342.8176865632473
 30
0.0
 40
2.367928785246772
100
AcDbArc
 50
322.4427795410156
 51
37.55722045898439
  0
LINE
  5
18E
330
1F
100
AcDbEntity
  8
C-7_木断面
  6
Continuous
 62
    30
370
     5
100
AcDbLine
 10
-1234.513824955925
 20
-332.7611135717989
 30
0.0
 11
-1234.513824955925
 21
-344.2611267685895
 31
0.0
  0
LINE
  5
18F
330
1F
100
AcDbEntity
  8
C-7_木断面
  6
Continuous
 62
    30
370
     5
100
AcDbLine
 10
-1239.023168283628
 20
-332.7611135717989
 30
0.0
 11
-1234.513824955925
 21
-332.7611135717989
 31
0.0
  0
ARC
  5
190
330
1F
100
AcDbEntity
  8
C-7_木断面
  6
Continuous
 62
    30
370
     5
100
AcDbCircle
 10
-1237.145842349295
 20
-334.2044300572296
 30
0.0
 40
2.367928785246772
100
AcDbArc
 50
142.4427795410156
 51
217.5572204589844
  0
LINE
  5
191
330
1F
100
AcDbEntity
  8
C-7_木断面
  6
Continuous
 62
    30
370
     5
100
AcDbLine
 10
-1239.023168283628
 20
-335.6478702625718
 30
0.0
 11
-1234.513824955925
 21
-335.6478702625718
 31
0.0
  0
ARC
  5
192
330
1F
100
AcDbEntity
  8
C-7_木断面
  6
Continuous
 62
    30
370
     5
100
AcDbCircle
 10
-1230.915926214899
 20
-338.5111201701942
 30
0.0
 40
8.59791813669978
100
AcDbArc
 50
160.5480041503906
 51
199.4519958496094
  0
LINE
  5
193
330
1F
100
AcDbEntity
  8
C-7_木断面
  6
Continuous
 62
    30
370
     5
100
AcDbLine
 10
-1239.513841451914
 20
-334.2044300572296
 30
0.0
 11
-1239.513841451914
 21
-342.8176865632473
 31
0.0
  0
LINE
  5
194
330
1F
100
AcDbEntity
  8
C-7_木断面
  6
Continuous
 62
    30
370
     5
100
AcDbLine
 10
-1239.023168283628
 20
-341.3743700778166
 30
0.0
 11
-1234.513824955925
 21
-341.3743700778166
 31
0.0
  0
ARC
  5
195
330
1F
100
AcDbEntity
  8
C-7_木断面
  6
Continuous
 62
    30
370
     5
100
AcDbCircle
 10
-1237.145842349295
 20
-342.8176865632473
 30
0.0
 40
2.367928785246772
100
AcDbArc
 50
142.4427795410156
 51
217.5572204589844
  0
LINE
  5
196
330
1F
100
AcDbEntity
  8
C-7_木断面
  6
Continuous
 62
    30
370
     5
100
AcDbLine
 10
-1239.023168283628
 20
-344.2611267685895
 30
0.0
 11
-1234.513824955925
 21
-344.2611267685895
 31
0.0
  0
LINE
  5
197
330
1F
100
AcDbEntity
  8
C-6_間仕切
  6
Continuous
 62
     6
370
     5
100
AcDbLine
 10
-1264.448114360698
 20
-336.0526818124031
 30
0.0
 11
-1264.448114360698
 21
-340.9695585279853
 31
0.0
  0
LINE
  5
198
330
1F
100
AcDbEntity
  8
C-6_間仕切
  6
Continuous
 62
     6
370
     5
100
AcDbLine
 10
-1264.448114360698
 20
-336.0526818124031
 30
0.0
 11
-1263.906716028772
 21
-335.5111597605661
 31
0.0
  0
LINE
  5
199
330
1F
100
AcDbEntity
  8
C-6_間仕切
  6
Continuous
 62
     6
370
     5
100
AcDbLine
 10
-1263.906716028772
 20
-335.5111597605661
 30
0.0
 11
-1263.906716028772
 21
-341.5110805798223
 31
0.0
  0
LINE
  5
19A
330
1F
100
AcDbEntity
  8
C-6_間仕切
  6
Continuous
 62
     6
370
     5
100
AcDbLine
 10
-1264.448114360698
 20
-340.9695585279853
 30
0.0
 11
-1263.906592308861
 21
-341.5110805798223
 31
0.0
  0
LINE
  5
19B
330
1F
100
AcDbEntity
  8
C-6_間仕切
  6
Continuous
 62
     6
370
     5
100
AcDbLine
 10
-1239.513841451914
 20
-336.0526818124031
 30
0.0
 11
-1264.448114360698
 21
-336.0526818124031
 31
0.0
  0
LINE
  5
19C
330
1F
100
AcDbEntity
  8
C-6_間仕切
  6
Continuous
 62
     6
370
     5
100
AcDbLine
 10
-1239.513841451914
 20
-335.5111597605661
 30
0.0
 11
-1263.906716028772
 21
-335.5111597605661
 31
0.0
  0
LINE
  5
19D
330
1F
100
AcDbEntity
  8
C-6_間仕切
  6
Continuous
 62
     6
370
     5
100
AcDbLine
 10
-1239.513841451914
 20
-341.5110805798223
 30
0.0
 11
-1263.906592308861
 21
-341.5110805798223
 31
0.0
  0
LINE
  5
19E
330
1F
100
AcDbEntity
  8
C-6_間仕切
  6
Continuous
 62
     6
370
     5
100
AcDbLine
 10
-1239.513841451914
 20
-340.9695585279853
 30
0.0
 11
-1264.448114360698
 21
-340.9695585279853
 31
0.0
  0
LINE
  5
19F
330
1F
100
AcDbEntity
  8
C-6_間仕切
  6
Continuous
 62
     6
370
     5
100
AcDbLine
 10
-1064.448444280462
 20
-336.0526818124031
 30
0.0
 11
-1064.989842612387
 21
-335.5111597605661
 31
0.0
  0
LINE
  5
1A0
330
1F
100
AcDbEntity
  8
C-6_間仕切
  6
Continuous
 62
     6
370
     5
100
AcDbLine
 10
-1064.448444280462
 20
-336.0526818124031
 30
0.0
 11
-1064.448444280462
 21
-340.9695585279853
 31
0.0
  0
LINE
  5
1A1
330
1F
100
AcDbEntity
  8
C-6_間仕切
  6
Continuous
 62
     6
370
     5
100
AcDbLine
 10
-1064.989842612387
 20
-335.5111597605661
 30
0.0
 11
-1064.989842612387
 21
-341.5110805798223
 31
0.0
  0
LINE
  5
1A2
330
1F
100
AcDbEntity
  8
C-6_間仕切
  6
Continuous
 62
     6
370
     5
100
AcDbLine
 10
-1064.448444280462
 20
-340.9695585279853
 30
0.0
 11
-1064.989966332299
 21
-341.5110805798223
 31
0.0
  0
LINE
  5
1A3
330
1F
100
AcDbEntity
  8
C-6_間仕切
  6
Continuous
 62
     6
370
     5
100
AcDbLine
 10
-1089.713809727451
 20
-336.0526818124031
 30
0.0
 11
-1064.448444280462
 21
-336.0526818124031
 31
0.0
  0
LINE
  5
1A4
330
1F
100
AcDbEntity
  8
C-6_間仕切
  6
Continuous
 62
     6
370
     5
100
AcDbLine
 10
-1089.713809727451
 20
-335.5111597605661
 30
0.0
 11
-1064.989842612387
 21
-335.5111597605661
 31
0.0
  0
LINE
  5
1A5
330
1F
100
AcDbEntity
  8
C-6_間仕切
  6
Continuous
 62
     6
370
     5
100
AcDbLine
 10
-1089.713809727451
 20
-341.5110805798223
 30
0.0
 11
-1064.989966332299
 21
-341.5110805798223
 31
0.0
  0
LINE
  5
1A6
330
1F
100
AcDbEntity
  8
C-6_間仕切
  6
Continuous
 62
     6
370
     5
100
AcDbLine
 10
-1089.713809727451
 20
-340.9695585279853
 30
0.0
 11
-1064.448444280462
 21
-340.9695585279853
 31
0.0
  0
LINE
  5
1A7
330
1F
100
AcDbEntity
  8
C-5_建具
  6
Continuous
 62
     7
370
     9
100
AcDbLine
 10
-655.2181654336605
 20
861.4888251985342
 30
0.0
 11
-655.2181654336605
 21
800.9888251984573
 31
0.0
  0
LINE
  5
1A8
330
1F
100
AcDbEntity
  8
C-5_建具
  6
Continuous
 62
     7
370
     9
100
AcDbLine
 10
-655.2181654336605
 20
800.9888251984579
 30
0.0
 11
-658.4813991170936
 21
776.2027140487168
 31
0.0
  0
LINE
  5
1A9
330
1F
100
AcDbEntity
  8
C-5_建具
  6
Continuous
 62
     7
370
     9
100
AcDbLine
 10
-655.2181654336605
 20
800.9888251984579
 30
0.0
 11
-651.9550895061227
 21
776.2026932797589
 31
0.0
  0
LINE
  5
1AA
330
1F
100
AcDbEntity
  8
C-5_建具
  6
Continuous
 62
     7
370
     9
100
AcDbLine
 10
-655.2181654336605
 20
861.4888251985348
 30
0.0
 11
-651.9549317502274
 21
886.2749363482759
 31
0.0
  0
LINE
  5
1AB
330
1F
100
AcDbEntity
  8
C-5_建具
  6
Continuous
 62
     7
370
     9
100
AcDbLine
 10
-655.2181654336605
 20
861.4888251985348
 30
0.0
 11
-658.4812413611983
 21
886.2749571172337
 31
0.0
  0
LINE
  5
1AC
330
1F
100
AcDbEntity
  8
C-5_建具
  6
Continuous
 62
     7
370
     9
100
AcDbLine
 10
-655.2181654336605
 20
861.4888251985342
 30
0.0
 11
-655.2181654336605
 21
893.7210584797275
 31
0.0
  0
LINE
  5
1AD
330
1F
100
AcDbEntity
  8
C-5_建具
  6
Continuous
 62
     7
370
     9
100
AcDbLine
 10
-655.2181654336605
 20
800.9888251984573
 30
0.0
 11
-655.2181654336605
 21
646.4913248056426
 31
0.0
  0
LINE
  5
1AE
330
1F
100
AcDbEntity
  8
C-0_通り芯
  6
Continuous
 62
     7
370
     9
100
AcDbLine
 10
-1113.357512297328
 20
779.9829245012234
 30
0.0
 11
-1093.523678790046
 21
764.7638887760053
 31
0.0
  0
LINE
  5
1AF
330
1F
100
AcDbEntity
  8
C-0_通り芯
  6
Continuous
 62
     7
370
     9
100
AcDbLine
 10
-1113.357512297328
 20
779.9829245012234
 30
0.0
 11
-1098.13847657211
 21
760.1490909939423
 31
0.0
  0
LINE
  5
1B0
330
1F
100
AcDbEntity
  8
C-5_建具
  6
Continuous
 62
     7
370
     9
100
AcDbLine
 10
-989.6138255896818
 20
656.2392377935776
 30
0.0
 11
-1113.357512297328
 21
779.9829245012234
 31
0.0
  0
TEXT
  5
1B1
330
1F
100
AcDbEntity
  8
C-F_断熱材
  6
Continuous
 62
     2
370
   211
100
AcDbText
 10
-666.8581654336607
 20
646.4913248056426
 30
0.0
 40
30.48
  1
φ60.5
 50
90.0
 41
1.104166666666667
  7
ＭＳ ゴシック
100
AcDbText
  0
TEXT
  5
1B2
330
1F
100
AcDbEntity
  8
C-F_断熱材
  6
Continuous
 62
     2
370
   211
100
AcDbText
 10
-1049.596723654049
 20
731.7974373271782
 30
0.0
 40
30.48
  1
R175
 50
315.0
 41
1.09375
  7
ＭＳ ゴシック
100
AcDbText
  0
TEXT
  5
1B3
330
1F
100
AcDbEntity
  8
C-F_断熱材
  6
Continuous
 62
     2
370
   211
100
AcDbText
 10
-1083.669878055683
 20
314.399468686985
 30
0.0
 40
30.48
  1
φ139.8
 41
1.107142857142855
  7
ＭＳ ゴシック
100
AcDbText
  0
LINE
  5
1B4
330
1F
100
AcDbEntity
  8
C-5_建具
  6
Continuous
 62
     7
370
     9
100
AcDbLine
 10
-1094.713826223442
 20
302.7594686869848
 30
0.0
 11
-913.9836102898994
 21
302.7594686869848
 31
0.0
  0
TEXT
  5
1B5
330
1F
100
AcDbEntity
  8
C-5_建具
  6
Continuous
 62
     2
370
     9
100
AcDbText
 10
418.4404487573138
 20
-71.41556574890207
 30
0.0
 40
30.48
  1
長ねじボルト：M6×200
 41
1.119047619047619
  7
ＭＳ ゴシック
100
AcDbText
  0
TEXT
  5
1B6
330
1F
100
AcDbEntity
  8
C-5_建具
  6
Continuous
 62
     2
370
     9
100
AcDbText
 10
418.4404487573138
 20
-132.5698521409059
 30
0.0
 40
30.48
  1
SS400　電気亜鉛めっき
 41
1.113095238095238
  7
ＭＳ ゴシック
100
AcDbText
  0
LINE
  5
1B7
330
1F
100
AcDbEntity
  8
C-F_断熱材
  6
Continuous
 62
     7
370
     9
100
AcDbLine
 10
415.7635474756303
 20
-86.18195361821091
 30
0.0
 11
888.4404487573138
 21
-86.18195361821091
 31
0.0
  0
TEXT
  5
1B8
330
1F
100
AcDbEntity
  8
C-5_建具
  6
Continuous
 62
     2
370
     9
100
AcDbText
 10
405.9057371452769
 20
-750.8981444341016
 30
0.0
 40
30.48
  1
六角ナット：M6
 41
1.116071428571428
  7
ＭＳ ゴシック
100
AcDbText
  0
TEXT
  5
1B9
330
1F
100
AcDbEntity
  8
C-5_建具
  6
Continuous
 62
     2
370
     9
100
AcDbText
 10
405.9057371452769
 20
-812.0524308261055
 30
0.0
 40
30.48
  1
SWRCH　電気亜鉛めっき
 41
1.113095238095238
  7
ＭＳ ゴシック
100
AcDbText
  0
LINE
  5
1BA
330
1F
100
AcDbEntity
  8
C-F_断熱材
  6
Continuous
 62
     7
370
     9
100
AcDbLine
 10
392.5927597227761
 20
-765.6645323034105
 30
0.0
 11
873.4057371452769
 21
-765.6645323034105
 31
0.0
  0
LINE
  5
1BB
330
1F
100
AcDbEntity
  8
C-F_断熱材
  6
Continuous
 62
     7
370
     9
100
AcDbLine
 10
392.5927597227761
 20
-765.6645323034105
 30
0.0
 11
149.2953548359607
 21
-344.2610656897898
 31
0.0
  0
LINE
  5
1BC
330
1F
100
AcDbEntity
  8
C-F_断熱材
  6
Continuous
 62
     7
370
     9
100
AcDbLine
 10
149.2953548359607
 20
-344.2610656897898
 30
0.0
 11
164.5143905611788
 21
-364.0948991970708
 31
0.0
  0
LINE
  5
1BD
330
1F
100
AcDbEntity
  8
C-F_断熱材
  6
Continuous
 62
     7
370
     9
100
AcDbLine
 10
149.2953548359607
 20
-344.2610656897898
 30
0.0
 11
158.8624406450879
 21
-367.3580540025722
 31
0.0
  0
LINE
  5
1BE
330
1F
100
AcDbEntity
  8
C-F_断熱材
  6
Continuous
 62
     7
370
     9
100
AcDbLine
 10
-152.7327170078314
 20
189.4127249786316
 30
0.0
 11
-519.9437533255146
 21
189.4127249786316
 31
0.0
  0
TEXT
  5
1BF
330
1F
100
AcDbEntity
  8
C-5_建具
  6
Continuous
 62
     2
370
     9
100
AcDbText
 10
-519.9437533255146
 20
201.6193698954468
 30
0.0
 40
30.48
  1
コンクリート充填
 41
1.109375
  7
ＭＳ ゴシック
100
AcDbText
  0
LINE
  5
1C0
330
1F
100
AcDbEntity
  8
C-5_建具
  6
Continuous
 62
     7
370
     9
100
AcDbLine
 10
-152.7327170078314
 20
189.4127249786316
 30
0.0
 11
37.59219491229651
 21
79.52858584805384
 31
0.0
  0
LINE
  5
1C1
330
1F
100
AcDbEntity
  8
C-5_建具
  6
Continuous
 62
     7
370
     9
100
AcDbLine
 10
37.59219491229651
 20
79.52858584805384
 30
0.0
 11
14.49520659951418
 21
89.0956716571811
 31
0.0
  0
LINE
  5
1C2
330
1F
100
AcDbEntity
  8
C-5_建具
  6
Continuous
 62
     7
370
     9
100
AcDbLine
 10
37.59219491229651
 20
79.52858584805384
 30
0.0
 11
17.75836140501555
 21
94.74762157327199
 31
0.0
  0
TEXT
  5
1C3
330
1F
100
AcDbEntity
  8
C-5_建具
  6
Continuous
 62
     2
370
     9
100
AcDbText
 10
-519.9437533255146
 20
147.6848232914047
 30
0.0
 40
30.48
  1
別途工事
 41
1.09375
  7
ＭＳ ゴシック
100
AcDbText
  0
LINE
  5
1C4
330
1F
100
AcDbEntity
  8
C-E_見え係り
  6
Continuous
 62
    30
370
     5
100
AcDbLine
 10
-1464.613825589681
 20
11.4887561098946
 30
0.0
 11
-1464.613825589681
 21
-488.5112438901051
 31
0.0
  0
LINE
  5
1C5
330
1F
100
AcDbEntity
  8
C-E_見え係り
  6
Continuous
 62
    30
370
     5
100
AcDbLine
 10
-1464.613825589681
 20
-216.4687910088505
 30
0.0
 11
-1236.656278470939
 21
11.4887561098929
 31
0.0
  0
LINE
  5
1C6
330
1F
100
AcDbEntity
  8
C-E_見え係り
  6
Continuous
 62
    30
370
     5
100
AcDbLine
 10
-1464.613825589681
 20
-195.2555875732507
 30
0.0
 11
-1257.869481906532
 21
11.48875610990029
 31
0.0
  0
LINE
  5
1C7
330
1F
100
AcDbEntity
  8
C-E_見え係り
  6
Continuous
 62
    30
370
     5
100
AcDbLine
 10
-1464.613825589681
 20
-174.0423841376509
 30
0.0
 11
-1279.082685342135
 21
11.48875610989631
 31
0.0
  0
LINE
  5
1C8
330
1F
100
AcDbEntity
  8
C-E_見え係り
  6
Continuous
 62
    30
370
     5
100
AcDbLine
 10
-1425.529294748857
 20
-488.5112438901051
 30
0.0
 11
-1234.513824955925
 21
-297.4957740971722
 31
0.0
  0
LINE
  5
1C9
330
1F
100
AcDbEntity
  8
C-E_見え係り
  6
Continuous
 62
    30
370
     5
100
AcDbLine
 10
-864.6138255896818
 20
11.4887561098946
 30
0.0
 11
-864.6138255896818
 21
-488.5112438901051
 31
0.0
  0
LINE
  5
1CA
330
1F
100
AcDbEntity
  8
C-E_見え係り
  6
Continuous
 62
    30
370
     5
100
AcDbLine
 10
-1464.613825589681
 20
-488.5112438901051
 30
0.0
 11
-864.6138255896818
 21
-488.5112438901051
 31
0.0
  0
LINE
  5
1CB
330
1F
100
AcDbEntity
  8
C-E_見え係り
  6
Continuous
 62
    30
370
     5
100
AcDbLine
 10
-1029.549497284395
 20
-488.5112438901031
 30
0.0
 11
-864.6138255896818
 21
-323.5755721953905
 31
0.0
  0
LINE
  5
1CC
330
1F
100
AcDbEntity
  8
C-E_見え係り
  6
Continuous
 62
    30
370
     5
100
AcDbLine
 10
-1071.975904155598
 20
-488.5112438901059
 30
0.0
 11
-864.6138255896818
 21
-281.1491653241904
 31
0.0
  0
LINE
  5
1CD
330
1F
100
AcDbEntity
  8
C-E_見え係り
  6
Continuous
 62
    30
370
     5
100
AcDbLine
 10
-1050.762700719994
 20
-488.5112438901025
 30
0.0
 11
-864.6138255896818
 21
-302.3623687597904
 31
0.0
  0
LINE
  5
1CE
330
1F
100
AcDbEntity
  8
C-E_見え係り
  6
Continuous
 62
    30
370
     5
100
AcDbLine
 10
-1094.713826223438
 20
-178.9089788002856
 30
0.0
 11
-904.3160913132579
 21
11.4887561098946
 31
0.0
  0
LINE
  5
1CF
330
1F
100
AcDbEntity
  8
C-E_見え係り
  6
Continuous
 62
    30
370
     5
100
AcDbLine
 10
-1094.713826223437
 20
-200.1221822358663
 30
0.0
 11
-883.1028878776758
 21
11.4887561098946
 31
0.0
  0
LINE
  5
1D0
330
1F
100
AcDbEntity
  8
C-E_見え係り
  6
Continuous
 62
    30
370
     5
100
AcDbLine
 10
-225.1138255896824
 20
11.4887561098946
 30
0.0
 11
-225.1138255896824
 21
-488.5112438901051
 31
0.0
  0
LINE
  5
1D1
330
1F
100
AcDbEntity
  8
C-E_見え係り
  6
Continuous
 62
    30
370
     5
100
AcDbLine
 10
-186.0292947488581
 20
-488.5112438901051
 30
0.0
 11
4.986175044075072
 21
-297.4957740971722
 31
0.0
  0
LINE
  5
1D2
330
1F
100
AcDbEntity
  8
C-E_見え係り
  6
Continuous
 62
    30
370
     5
100
AcDbLine
 10
-225.1138255896824
 20
-216.4687910088505
 30
0.0
 11
2.843721529061032
 21
11.4887561098929
 31
0.0
  0
LINE
  5
1D3
330
1F
100
AcDbEntity
  8
C-E_見え係り
  6
Continuous
 62
    30
370
     5
100
AcDbLine
 10
-225.1138255896824
 20
-195.255587573251
 30
0.0
 11
-18.36948190653215
 21
11.48875610990029
 31
0.0
  0
LINE
  5
1D4
330
1F
100
AcDbEntity
  8
C-E_見え係り
  6
Continuous
 62
    30
370
     5
100
AcDbLine
 10
-225.1138255896824
 20
-174.0423841376505
 30
0.0
 11
-39.58268534213558
 21
11.48875610989631
 31
0.0
  0
LINE
  5
1D5
330
1F
100
AcDbEntity
  8
C-E_見え係り
  6
Continuous
 62
    30
370
     5
100
AcDbLine
 10
374.8861744103176
 20
11.4887561098946
 30
0.0
 11
374.8861744103176
 21
-488.5112438901051
 31
0.0
  0
LINE
  5
1D6
330
1F
100
AcDbEntity
  8
C-E_見え係り
  6
Continuous
 62
    30
370
     5
100
AcDbLine
 10
-225.1138255896824
 20
-488.5112438901051
 30
0.0
 11
374.8861744103176
 21
-488.5112438901051
 31
0.0
  0
LINE
  5
1D7
330
1F
100
AcDbEntity
  8
C-E_見え係り
  6
Continuous
 62
    30
370
     5
100
AcDbLine
 10
188.7372992800051
 20
-488.5112438901025
 30
0.0
 11
374.8861744103176
 21
-302.3623687597904
 31
0.0
  0
LINE
  5
1D8
330
1F
100
AcDbEntity
  8
C-E_見え係り
  6
Continuous
 62
    30
370
     5
100
AcDbLine
 10
209.9505027156052
 20
-488.5112438901031
 30
0.0
 11
374.8861744103176
 21
-323.5755721953902
 31
0.0
  0
LINE
  5
1D9
330
1F
100
AcDbEntity
  8
C-E_見え係り
  6
Continuous
 62
    30
370
     5
100
AcDbLine
 10
167.5240958444017
 20
-488.5112438901059
 30
0.0
 11
374.8861744103176
 21
-281.1491653241904
 31
0.0
  0
LINE
  5
1DA
330
1F
100
AcDbEntity
  8
C-E_見え係り
  6
Continuous
 62
    30
370
     5
100
AcDbLine
 10
144.7861737765625
 20
-200.1221822358663
 30
0.0
 11
356.3971121223238
 21
11.4887561098946
 31
0.0
  0
LINE
  5
1DB
330
1F
100
AcDbEntity
  8
C-E_見え係り
  6
Continuous
 62
    30
370
     5
100
AcDbLine
 10
144.7861737765614
 20
-178.9089788002856
 30
0.0
 11
335.1839086867416
 21
11.4887561098946
 31
0.0
  0
LINE
  5
1DC
330
1F
100
AcDbEntity
  8
C-E_見え係り
  6
Continuous
 62
     7
370
     9
100
AcDbLine
 10
-1514.613825589681
 20
-488.5112438901051
 30
0.0
 11
-1514.613825589681
 21
-588.5112438901051
 31
0.0
  0
TEXT
  5
1DD
330
1F
100
AcDbEntity
  8
C-F_断熱材
  6
Continuous
 62
     2
370
   211
100
AcDbText
 10
-1699.188900494558
 20
-271.0112438901054
 30
0.0
 40
30.48
  1
500
 50
90.0
 41
1.083333333333333
  7
ＭＳ ゴシック
100
AcDbText
  0
TEXT
  5
1DE
330
1F
100
AcDbEntity
  8
C-F_断熱材
  6
Continuous
 62
     2
370
   211
100
AcDbText
 10
-1699.188900494558
 20
403.9889969516087
 30
0.0
 40
30.48
  1
850
 50
90.0
 41
1.083333333333333
  7
ＭＳ ゴシック
100
AcDbText
  0
LINE
  5
1DF
330
1F
100
AcDbEntity
  8
C-F_断熱材
  6
Continuous
 62
     7
370
     9
100
AcDbLine
 10
-1690.548900494558
 20
861.4892377933238
 30
0.0
 11
-1039.613502811894
 21
861.4892377933238
 31
0.0
  0
LINE
  5
1E0
330
1F
100
AcDbEntity
  8
C-5_建具
  6
Continuous
 62
     7
370
     9
100
AcDbLine
 10
-1687.548900494558
 20
861.4892377933238
 30
0.0
 11
-1684.285745689057
 21
836.7031162589784
 31
0.0
  0
LINE
  5
1E1
330
1F
100
AcDbEntity
  8
C-5_建具
  6
Continuous
 62
     7
370
     9
100
AcDbLine
 10
-1687.548900494558
 20
861.4892377933238
 30
0.0
 11
-1690.812055300059
 21
836.7031162589784
 31
0.0
  0
LINE
  5
1E2
330
1F
100
AcDbEntity
  8
C-5_建具
  6
Continuous
 62
     7
370
     9
100
AcDbLine
 10
-1687.548900494558
 20
861.4892377933238
 30
0.0
 11
-1687.548900494558
 21
11.4887561098946
 31
0.0
  0
LINE
  5
1E3
330
1F
100
AcDbEntity
  8
C-5_建具
  6
Continuous
 62
     7
370
     9
100
AcDbLine
 10
-1687.548900494558
 20
11.4887561098946
 30
0.0
 11
-1690.812055300059
 21
36.27487764424
 31
0.0
  0
LINE
  5
1E4
330
1F
100
AcDbEntity
  8
C-5_建具
  6
Continuous
 62
     7
370
     9
100
AcDbLine
 10
-1687.548900494558
 20
11.4887561098946
 30
0.0
 11
-1684.285745689057
 21
36.27487764424
 31
0.0
  0
LINE
  5
1E5
330
1F
100
AcDbEntity
  8
C-5_建具
  6
Continuous
 62
     7
370
     9
100
AcDbLine
 10
-1687.548900494558
 20
11.4887561098946
 30
0.0
 11
-1684.285745689057
 21
-13.2973654244508
 31
0.0
  0
LINE
  5
1E6
330
1F
100
AcDbEntity
  8
C-5_建具
  6
Continuous
 62
     7
370
     9
100
AcDbLine
 10
-1687.548900494558
 20
11.4887561098946
 30
0.0
 11
-1690.812055300059
 21
-13.2973654244508
 31
0.0
  0
LINE
  5
1E7
330
1F
100
AcDbEntity
  8
C-5_建具
  6
Continuous
 62
     7
370
     9
100
AcDbLine
 10
-1687.548900494558
 20
11.4887561098946
 30
0.0
 11
-1687.548900494558
 21
-488.5112438901051
 31
0.0
  0
LINE
  5
1E8
330
1F
100
AcDbEntity
  8
C-5_建具
  6
Continuous
 62
     7
370
     9
100
AcDbLine
 10
-1687.548900494558
 20
-488.5112438901051
 30
0.0
 11
-1690.812055300059
 21
-463.7251223557597
 31
0.0
  0
LINE
  5
1E9
330
1F
100
AcDbEntity
  8
C-5_建具
  6
Continuous
 62
     7
370
     9
100
AcDbLine
 10
-1687.548900494558
 20
-488.5112438901051
 30
0.0
 11
-1684.285745689057
 21
-463.7251223557597
 31
0.0
  0
LINE
  5
1EA
330
1F
100
AcDbEntity
  8
C-5_建具
  6
Continuous
 62
     7
370
     9
100
AcDbLine
 10
-1554.62098583295
 20
861.4892377933238
 30
0.0
 11
-1551.357831027448
 21
836.7031162589784
 31
0.0
  0
LINE
  5
1EB
330
1F
100
AcDbEntity
  8
C-5_建具
  6
Continuous
 62
     7
370
     9
100
AcDbLine
 10
-1554.62098583295
 20
861.4892377933238
 30
0.0
 11
-1557.884140638451
 21
836.7031162589784
 31
0.0
  0
LINE
  5
1EC
330
1F
100
AcDbEntity
  8
C-5_建具
  6
Continuous
 62
     7
370
     9
100
AcDbLine
 10
-1554.62098583295
 20
11.4887561098946
 30
0.0
 11
-1557.884140638451
 21
36.27487764424
 31
0.0
  0
LINE
  5
1ED
330
1F
100
AcDbEntity
  8
C-5_建具
  6
Continuous
 62
     7
370
     9
100
AcDbLine
 10
-1554.62098583295
 20
11.4887561098946
 30
0.0
 11
-1551.357831027448
 21
36.27487764424
 31
0.0
  0
LINE
  5
1EE
330
1F
100
AcDbEntity
  8
C-F_断熱材
  6
Continuous
 62
     7
370
     9
100
AcDbLine
 10
-1554.62098583295
 20
-488.5112438901051
 30
0.0
 11
-1554.62098583295
 21
-338.5111201701942
 31
0.0
  0
LINE
  5
1EF
330
1F
100
AcDbEntity
  8
C-F_断熱材
  6
Continuous
 62
     7
370
     9
100
AcDbLine
 10
-1554.62098583295
 20
-488.5112438901051
 30
0.0
 11
-1557.884140638451
 21
-463.7251223557598
 31
0.0
  0
LINE
  5
1F0
330
1F
100
AcDbEntity
  8
C-F_断熱材
  6
Continuous
 62
     7
370
     9
100
AcDbLine
 10
-1554.62098583295
 20
-488.5112438901051
 30
0.0
 11
-1551.357831027448
 21
-463.7251223557598
 31
0.0
  0
LINE
  5
1F1
330
1F
100
AcDbEntity
  8
C-F_断熱材
  6
Continuous
 62
     7
370
     9
100
AcDbLine
 10
-1554.62098583295
 20
-338.5111201701942
 30
0.0
 11
-1551.357831027448
 21
-363.2972417045394
 31
0.0
  0
LINE
  5
1F2
330
1F
100
AcDbEntity
  8
C-F_断熱材
  6
Continuous
 62
     7
370
     9
100
AcDbLine
 10
-1554.62098583295
 20
-338.5111201701942
 30
0.0
 11
-1557.884140638451
 21
-363.2972417045394
 31
0.0
  0
LINE
  5
1F3
330
1F
100
AcDbEntity
  8
C-F_断熱材
  6
Continuous
 62
     7
370
     9
100
AcDbLine
 10
-1557.62098583295
 20
-338.5111201701942
 30
0.0
 11
-1289.448378296509
 21
-338.5111201701942
 31
0.0
  0
TEXT
  5
1F4
330
1F
100
AcDbEntity
  8
C-F_断熱材
  6
Continuous
 62
     2
370
   211
100
AcDbText
 10
-1566.26098583295
 20
-446.0111820301496
 30
0.0
 40
30.48
  1
150
 50
90.0
 41
1.083333333333333
  7
ＭＳ ゴシック
100
AcDbText
  0
LINE
  5
1F5
330
1F
100
AcDbEntity
  8
C-F_断熱材
  6
Continuous
 62
     7
370
     9
100
AcDbLine
 10
-1690.548900494558
 20
-488.5112438901051
 30
0.0
 11
-1534.613825589681
 21
-488.5112438901051
 31
0.0
  0
LINE
  5
1F6
330
1F
100
AcDbEntity
  8
C-E_見え係り
  6
Continuous
 62
     7
370
     9
100
AcDbLine
 10
-814.6138255896818
 20
-488.5112438901051
 30
0.0
 11
-814.6138255896818
 21
-588.5112438901051
 31
0.0
  0
LINE
  5
1F7
330
1F
100
AcDbEntity
  8
C-E_見え係り
  6
Continuous
 62
     7
370
     9
100
AcDbLine
 10
-1514.613825589681
 20
-588.5112438901051
 30
0.0
 11
-814.6138255896818
 21
-588.5112438901051
 31
0.0
  0
LINE
  5
1F8
330
1F
100
AcDbEntity
  8
C-E_見え係り
  6
Continuous
 62
     7
370
     9
100
AcDbLine
 10
-814.6138255896818
 20
-488.5112438901051
 30
0.0
 11
-1514.613825589681
 21
-488.5112438901051
 31
0.0
  0
LINE
  5
1F9
330
1F
100
AcDbEntity
  8
C-E_見え係り
  6
Continuous
 62
     7
370
     9
100
AcDbLine
 10
-1493.520027455616
 20
-588.5113468551529
 30
0.0
 11
-1435.785017360072
 21
-488.5112272592386
 31
0.0
  0
LINE
  5
1FA
330
1F
100
AcDbEntity
  8
C-E_見え係り
  6
Continuous
 62
     7
370
     9
100
AcDbLine
 10
-1453.105409040815
 20
-518.5111035393275
 30
0.0
 11
-1470.425949185451
 21
-488.5112272592386
 31
0.0
  0
LINE
  5
1FB
330
1F
100
AcDbEntity
  8
C-E_見え係り
  6
Continuous
 62
     7
370
     9
100
AcDbLine
 10
-1476.199227499166
 20
-558.5112478792237
 30
0.0
 11
-1458.878798702449
 21
-588.5113468551529
 31
0.0
  0
LINE
  5
1FC
330
1F
100
AcDbEntity
  8
C-E_見え係り
  6
Continuous
 62
     7
370
     9
100
AcDbLine
 10
-1514.613825589681
 20
-571.9750378215831
 30
0.0
 11
-1505.066667916884
 21
-588.5113302242867
 31
0.0
  0
LINE
  5
1FD
330
1F
100
AcDbEntity
  8
C-E_見え係り
  6
Continuous
 62
     7
370
     9
100
AcDbLine
 10
-1514.613825589681
 20
-545.0470594978661
 30
0.0
 11
-1481.972886574507
 21
-488.5112106283724
 31
0.0
  0
LINE
  5
1FE
330
1F
100
AcDbEntity
  8
C-E_見え係り
  6
Continuous
 62
     7
370
     9
100
AcDbLine
 10
-1499.29327825525
 20
-518.5110869084612
 30
0.0
 11
-1514.613825589681
 21
-491.9752790907983
 31
0.0
  0
LINE
  5
1FF
330
1F
100
AcDbEntity
  8
C-E_見え係り
  6
Continuous
 62
     7
370
     9
100
AcDbLine
 10
-893.0767294114713
 20
-588.5113634860191
 30
0.0
 11
-835.3417193159265
 21
-488.5112438901048
 31
0.0
  0
LINE
  5
200
330
1F
100
AcDbEntity
  8
C-E_見え係り
  6
Continuous
 62
     7
370
     9
100
AcDbLine
 10
-852.6624821564036
 20
-518.5111201701936
 30
0.0
 11
-869.9828738371474
 21
-488.5112438901048
 31
0.0
  0
LINE
  5
201
330
1F
100
AcDbEntity
  8
C-E_見え係り
  6
Continuous
 62
     7
370
     9
100
AcDbLine
 10
-875.7562634987818
 20
-558.51126451009
 30
0.0
 11
-858.4357233541454
 21
-588.5113634860191
 31
0.0
  0
LINE
  5
202
330
1F
100
AcDbEntity
  8
C-E_見え係り
  6
Continuous
 62
     7
370
     9
100
AcDbLine
 10
-829.568403886239
 20
-558.51126451009
 30
0.0
 11
-814.6138255896818
 21
-584.4133914237779
 31
0.0
  0
LINE
  5
203
330
1F
100
AcDbEntity
  8
C-E_見え係り
  6
Continuous
 62
     7
370
     9
100
AcDbLine
 10
-814.6138255896818
 20
-504.41357036336
 30
0.0
 11
-823.7950142246046
 21
-488.5112438901048
 31
0.0
  0
LINE
  5
204
330
1F
100
AcDbEntity
  8
C-E_見え係り
  6
Continuous
 62
     7
370
     9
100
AcDbLine
 10
-846.8888697989286
 20
-588.5113634860191
 30
0.0
 11
-814.6138255896818
 21
-532.6092639532236
 31
0.0
  0
LINE
  5
205
330
1F
100
AcDbEntity
  8
C-E_見え係り
  6
Continuous
 62
     7
370
     9
100
AcDbLine
 10
207.8596917509005
 20
-588.5113634860191
 30
0.0
 11
265.5947018464448
 21
-488.5112438901048
 31
0.0
  0
LINE
  5
206
330
1F
100
AcDbEntity
  8
C-E_見え係り
  6
Continuous
 62
     7
370
     9
100
AcDbLine
 10
161.6717579064115
 20
-588.5113634860191
 30
0.0
 11
219.4067680019563
 21
-488.5112438901048
 31
0.0
  0
LINE
  5
207
330
1F
100
AcDbEntity
  8
C-E_見え係り
  6
Continuous
 62
     7
370
     9
100
AcDbLine
 10
115.4836384820552
 20
-588.5113634860191
 30
0.0
 11
173.2186114616271
 21
-488.5112438901048
 31
0.0
  0
LINE
  5
208
330
1F
100
AcDbEntity
  8
C-E_見え係り
  6
Continuous
 62
     7
370
     9
100
AcDbLine
 10
69.2956304056198
 20
-588.5113634860191
 30
0.0
 11
127.030677617138
 21
-488.5112438901048
 31
0.0
  0
LINE
  5
209
330
1F
100
AcDbEntity
  8
C-E_見え係り
  6
Continuous
 62
     7
370
     9
100
AcDbLine
 10
23.1076594451573
 20
-588.5113634860191
 30
0.0
 11
80.84266954070209
 21
-488.5112438901048
 31
0.0
  0
LINE
  5
20A
330
1F
100
AcDbEntity
  8
C-E_見え係り
  6
Continuous
 62
     7
370
     9
100
AcDbLine
 10
-23.08045997919898
 20
-588.5113634860191
 30
0.0
 11
34.65469858023958
 21
-488.5112438901048
 31
0.0
  0
LINE
  5
20B
330
1F
100
AcDbEntity
  8
C-E_見え係り
  6
Continuous
 62
     7
370
     9
100
AcDbLine
 10
-69.26843093966149
 20
-588.5113634860191
 30
0.0
 11
-11.53342084411669
 21
-488.5112438901048
 31
0.0
  0
LINE
  5
20C
330
1F
100
AcDbEntity
  8
C-E_見え係り
  6
Continuous
 62
     7
370
     9
100
AcDbLine
 10
-115.4564390160967
 20
-588.5113634860191
 30
0.0
 11
-57.72142892055207
 21
-488.5112438901048
 31
0.0
  0
LINE
  5
20D
330
1F
100
AcDbEntity
  8
C-E_見え係り
  6
Continuous
 62
     7
370
     9
100
AcDbLine
 10
-75.0418206012953
 20
-518.5111201701936
 30
0.0
 11
-92.36236074593229
 21
-488.5112438901048
 31
0.0
  0
LINE
  5
20E
330
1F
100
AcDbEntity
  8
C-E_見え係り
  6
Continuous
 62
     7
370
     9
100
AcDbLine
 10
-28.85396098875312
 20
-518.5111201701936
 30
0.0
 11
-46.17438978546978
 21
-488.5112438901048
 31
0.0
  0
LINE
  5
20F
330
1F
100
AcDbEntity
  8
C-E_見え係り
  6
Continuous
 62
     7
370
     9
100
AcDbLine
 10
17.33415843560259
 20
-518.5111201701936
 30
0.0
 11
0.0135811749927228
 21
-488.5112438901048
 31
0.0
  0
LINE
  5
210
330
1F
100
AcDbEntity
  8
C-E_見え係り
  6
Continuous
 62
     7
370
     9
100
AcDbLine
 10
63.52201804814534
 20
-518.5111201701936
 30
0.0
 11
46.2015892514281
 21
-488.5112438901048
 31
0.0
  0
LINE
  5
211
330
1F
100
AcDbEntity
  8
C-E_見え係り
  6
Continuous
 62
     7
370
     9
100
AcDbLine
 10
109.7101003565276
 20
-518.5111201701936
 30
0.0
 11
92.38956021189061
 21
-488.5112438901048
 31
0.0
  0
LINE
  5
212
330
1F
100
AcDbEntity
  8
C-E_見え係り
  6
Continuous
 62
     7
370
     9
100
AcDbLine
 10
155.8979970850432
 20
-518.5111201701936
 30
0.0
 11
138.5775311723531
 21
-488.5112438901048
 31
0.0
  0
LINE
  5
213
330
1F
100
AcDbEntity
  8
C-E_見え係り
  6
Continuous
 62
     7
370
     9
100
AcDbLine
 10
202.0860793934261
 20
-518.5111201701936
 30
0.0
 11
184.7655392487891
 21
-488.5112438901048
 31
0.0
  0
LINE
  5
214
330
1F
100
AcDbEntity
  8
C-E_見え係り
  6
Continuous
 62
     7
370
     9
100
AcDbLine
 10
248.2739390059683
 20
-518.5111201701936
 30
0.0
 11
230.953547325225
 21
-488.5112438901048
 31
0.0
  0
LINE
  5
215
330
1F
100
AcDbEntity
  8
C-E_見え係り
  6
Continuous
 62
     7
370
     9
100
AcDbLine
 10
225.1801576635906
 20
-558.51126451009
 30
0.0
 11
242.5006978082271
 21
-588.5113634860191
 31
0.0
  0
LINE
  5
216
330
1F
100
AcDbEntity
  8
C-E_見え係り
  6
Continuous
 62
     7
370
     9
100
AcDbLine
 10
178.9922980510485
 20
-558.51126451009
 30
0.0
 11
196.3126897317917
 21
-588.5113634860191
 31
0.0
  0
LINE
  5
217
330
1F
100
AcDbEntity
  8
C-E_見え係り
  6
Continuous
 62
     7
370
     9
100
AcDbLine
 10
132.8041415107188
 20
-558.51126451009
 30
0.0
 11
150.1246816553557
 21
-588.5113634860191
 31
0.0
  0
LINE
  5
218
330
1F
100
AcDbEntity
  8
C-E_見え係り
  6
Continuous
 62
     7
370
     9
100
AcDbLine
 10
86.61631901415
 20
-558.51126451009
 30
0.0
 11
103.9367106948932
 21
-588.5113634860191
 31
0.0
  0
LINE
  5
219
330
1F
100
AcDbEntity
  8
C-E_見え係り
  6
Continuous
 62
     7
370
     9
100
AcDbLine
 10
40.42819958979429
 20
-558.51126451009
 30
0.0
 11
57.74873973443071
 21
-588.5113634860191
 31
0.0
  0
LINE
  5
21A
330
1F
100
AcDbEntity
  8
C-E_見え係り
  6
Continuous
 62
     7
370
     9
100
AcDbLine
 10
-5.759660022747894
 20
-558.51126451009
 30
0.0
 11
11.56073165799476
 21
-588.5113634860191
 31
0.0
  0
LINE
  5
21B
330
1F
100
AcDbEntity
  8
C-E_見え係り
  6
Continuous
 62
     7
370
     9
100
AcDbLine
 10
-51.94777944710417
 20
-558.51126451009
 30
0.0
 11
-34.62723930246717
 21
-588.5113634860191
 31
0.0
  0
LINE
  5
21C
330
1F
100
AcDbEntity
  8
C-E_見え係り
  6
Continuous
 62
     7
370
     9
100
AcDbLine
 10
-98.13563905964607
 20
-558.51126451009
 30
0.0
 11
-80.81521026292968
 21
-588.5113634860191
 31
0.0
  0
LINE
  5
21D
330
1F
100
AcDbEntity
  8
C-E_見え係り
  6
Continuous
 62
     7
370
     9
100
AcDbLine
 10
-161.6442986286395
 20
-588.5113634860191
 30
0.0
 11
-103.9092885330945
 21
-488.5112438901048
 31
0.0
  0
LINE
  5
21E
330
1F
100
AcDbEntity
  8
C-E_見え係り
  6
Continuous
 62
     7
370
     9
100
AcDbLine
 10
-121.2296802138373
 20
-518.5111201701936
 30
0.0
 11
-138.5502203584743
 21
-488.5112438901048
 31
0.0
  0
LINE
  5
21F
330
1F
100
AcDbEntity
  8
C-E_見え係り
  6
Continuous
 62
     7
370
     9
100
AcDbLine
 10
-144.3234986721884
 20
-558.51126451009
 30
0.0
 11
-127.0030698754717
 21
-588.5113634860191
 31
0.0
  0
LINE
  5
220
330
1F
100
AcDbEntity
  8
C-E_見え係り
  6
Continuous
 62
     7
370
     9
100
AcDbLine
 10
-207.8321582411817
 20
-588.5113634860191
 30
0.0
 11
-150.0971481456369
 21
-488.5112438901048
 31
0.0
  0
LINE
  5
221
330
1F
100
AcDbEntity
  8
C-E_見え係り
  6
Continuous
 62
     7
370
     9
100
AcDbLine
 10
-167.4175398263801
 20
-518.5111201701936
 30
0.0
 11
-184.7380799710165
 21
-488.5112438901048
 31
0.0
  0
LINE
  5
222
330
1F
100
AcDbEntity
  8
C-E_見え係り
  6
Continuous
 62
     7
370
     9
100
AcDbLine
 10
-190.5113582847312
 20
-558.51126451009
 30
0.0
 11
-173.1909294880145
 21
-588.5113634860191
 31
0.0
  0
LINE
  5
223
330
1F
100
AcDbEntity
  8
C-E_見え係り
  6
Continuous
 62
     7
370
     9
100
AcDbLine
 10
254.0475513634427
 20
-588.5113634860191
 30
0.0
 11
311.7825614589875
 21
-488.5112438901048
 31
0.0
  0
LINE
  5
224
330
1F
100
AcDbEntity
  8
C-E_見え係り
  6
Continuous
 62
     7
370
     9
100
AcDbLine
 10
294.4617986185104
 20
-518.5111201701936
 30
0.0
 11
277.1414069377666
 21
-488.5112438901048
 31
0.0
  0
LINE
  5
225
330
1F
100
AcDbEntity
  8
C-E_見え係り
  6
Continuous
 62
     7
370
     9
100
AcDbLine
 10
271.3680172761334
 20
-558.51126451009
 30
0.0
 11
288.6885574207698
 21
-588.5113634860191
 31
0.0
  0
LINE
  5
226
330
1F
100
AcDbEntity
  8
C-E_見え係り
  6
Continuous
 62
     7
370
     9
100
AcDbLine
 10
300.2354109759855
 20
-588.5113634860191
 30
0.0
 11
357.9704210715303
 21
-488.5112438901048
 31
0.0
  0
LINE
  5
227
330
1F
100
AcDbEntity
  8
C-E_見え係り
  6
Continuous
 62
     7
370
     9
100
AcDbLine
 10
340.6496582310532
 20
-518.5111201701936
 30
0.0
 11
323.3292665503094
 21
-488.5112438901048
 31
0.0
  0
LINE
  5
228
330
1F
100
AcDbEntity
  8
C-E_見え係り
  6
Continuous
 62
     7
370
     9
100
AcDbLine
 10
317.555876888675
 20
-558.51126451009
 30
0.0
 11
334.8764170333114
 21
-588.5113634860191
 31
0.0
  0
LINE
  5
229
330
1F
100
AcDbEntity
  8
C-E_見え係り
  6
Continuous
 62
     7
370
     9
100
AcDbLine
 10
-275.1138255896822
 20
-488.5112438901051
 30
0.0
 11
-275.1138255896822
 21
-588.5112438901051
 31
0.0
  0
LINE
  5
22A
330
1F
100
AcDbEntity
  8
C-E_見え係り
  6
Continuous
 62
     7
370
     9
100
AcDbLine
 10
424.8861744103177
 20
-488.5112438901051
 30
0.0
 11
424.8861744103177
 21
-588.5112438901051
 31
0.0
  0
LINE
  5
22B
330
1F
100
AcDbEntity
  8
C-E_見え係り
  6
Continuous
 62
     7
370
     9
100
AcDbLine
 10
-275.1138255896822
 20
-588.5112438901051
 30
0.0
 11
424.8861744103177
 21
-588.5112438901051
 31
0.0
  0
LINE
  5
22C
330
1F
100
AcDbEntity
  8
C-E_見え係り
  6
Continuous
 62
     7
370
     9
100
AcDbLine
 10
424.8861744103177
 20
-488.5112438901051
 30
0.0
 11
-275.1138255896822
 21
-488.5112438901051
 31
0.0
  0
LINE
  5
22D
330
1F
100
AcDbEntity
  8
C-E_見え係り
  6
Continuous
 62
     7
370
     9
100
AcDbLine
 10
-254.020027455617
 20
-588.5113468551529
 30
0.0
 11
-196.2850173600722
 21
-488.5112272592386
 31
0.0
  0
LINE
  5
22E
330
1F
100
AcDbEntity
  8
C-E_見え係り
  6
Continuous
 62
     7
370
     9
100
AcDbLine
 10
-213.6054090408154
 20
-518.5111035393275
 30
0.0
 11
-230.9259491854518
 21
-488.5112272592386
 31
0.0
  0
LINE
  5
22F
330
1F
100
AcDbEntity
  8
C-E_見え係り
  6
Continuous
 62
     7
370
     9
100
AcDbLine
 10
-236.6992274991665
 20
-558.5112478792237
 30
0.0
 11
-219.3787987024498
 21
-588.5113468551529
 31
0.0
  0
LINE
  5
230
330
1F
100
AcDbEntity
  8
C-E_見え係り
  6
Continuous
 62
     7
370
     9
100
AcDbLine
 10
-275.1138255896822
 20
-571.9750378215831
 30
0.0
 11
-265.5666679168851
 21
-588.5113302242867
 31
0.0
  0
LINE
  5
231
330
1F
100
AcDbEntity
  8
C-E_見え係り
  6
Continuous
 62
     7
370
     9
100
AcDbLine
 10
-275.1138255896822
 20
-545.0470594978661
 30
0.0
 11
-242.4728865745075
 21
-488.5112106283724
 31
0.0
  0
LINE
  5
232
330
1F
100
AcDbEntity
  8
C-E_見え係り
  6
Continuous
 62
     7
370
     9
100
AcDbLine
 10
-259.7932782552507
 20
-518.5110869084612
 30
0.0
 11
-275.1138255896822
 21
-491.9752790907983
 31
0.0
  0
LINE
  5
233
330
1F
100
AcDbEntity
  8
C-E_見え係り
  6
Continuous
 62
     7
370
     9
100
AcDbLine
 10
346.4232705885282
 20
-588.5113634860191
 30
0.0
 11
404.158280684073
 21
-488.5112438901048
 31
0.0
  0
LINE
  5
234
330
1F
100
AcDbEntity
  8
C-E_見え係り
  6
Continuous
 62
     7
370
     9
100
AcDbLine
 10
386.8375178435959
 20
-518.5111201701936
 30
0.0
 11
369.5171261628522
 21
-488.5112438901048
 31
0.0
  0
LINE
  5
235
330
1F
100
AcDbEntity
  8
C-E_見え係り
  6
Continuous
 62
     7
370
     9
100
AcDbLine
 10
363.7437365012178
 20
-558.51126451009
 30
0.0
 11
381.0642766458542
 21
-588.5113634860191
 31
0.0
  0
LINE
  5
236
330
1F
100
AcDbEntity
  8
C-E_見え係り
  6
Continuous
 62
     7
370
     9
100
AcDbLine
 10
409.9315961137605
 20
-558.51126451009
 30
0.0
 11
424.8861744103177
 21
-584.4133914237779
 31
0.0
  0
LINE
  5
237
330
1F
100
AcDbEntity
  8
C-E_見え係り
  6
Continuous
 62
     7
370
     9
100
AcDbLine
 10
424.8861744103177
 20
-504.41357036336
 30
0.0
 11
415.7049857753949
 21
-488.5112438901048
 31
0.0
  0
LINE
  5
238
330
1F
100
AcDbEntity
  8
C-E_見え係り
  6
Continuous
 62
     7
370
     9
100
AcDbLine
 10
392.611130201071
 20
-588.5113634860191
 30
0.0
 11
424.8861744103177
 21
-532.6092639532236
 31
0.0
  0
LINE
  5
239
330
1F
100
AcDbEntity
  8
C-F_断熱材
  6
Continuous
 62
     7
370
     9
100
AcDbLine
 10
-1464.613825589681
 20
-736.7622235046214
 30
0.0
 11
-864.6138255896818
 21
-736.7622235046214
 31
0.0
  0
LINE
  5
23A
330
1F
100
AcDbEntity
  8
C-F_断熱材
  6
Continuous
 62
     7
370
     9
100
AcDbLine
 10
-1464.613825589681
 20
-736.7622235046214
 30
0.0
 11
-1439.827704055336
 21
-733.49906869912
 31
0.0
  0
LINE
  5
23B
330
1F
100
AcDbEntity
  8
C-F_断熱材
  6
Continuous
 62
     7
370
     9
100
AcDbLine
 10
-1464.613825589681
 20
-736.7622235046214
 30
0.0
 11
-1439.827704055336
 21
-740.0253783101227
 31
0.0
  0
LINE
  5
23C
330
1F
100
AcDbEntity
  8
C-F_断熱材
  6
Continuous
 62
     7
370
     9
100
AcDbLine
 10
-864.6138255896818
 20
-736.7622235046214
 30
0.0
 11
-889.399947124027
 21
-740.0253783101227
 31
0.0
  0
LINE
  5
23D
330
1F
100
AcDbEntity
  8
C-F_断熱材
  6
Continuous
 62
     7
370
     9
100
AcDbLine
 10
-864.6138255896818
 20
-736.7622235046214
 30
0.0
 11
-889.399947124027
 21
-733.49906869912
 31
0.0
  0
LINE
  5
23E
330
1F
100
AcDbEntity
  8
C-F_断熱材
  6
Continuous
 62
     7
370
     9
100
AcDbLine
 10
-1464.613825589681
 20
-739.7622235046214
 30
0.0
 11
-1464.613825589681
 21
-508.5112438901051
 31
0.0
  0
LINE
  5
23F
330
1F
100
AcDbEntity
  8
C-F_断熱材
  6
Continuous
 62
     7
370
     9
100
AcDbLine
 10
-864.6138255896818
 20
-739.7622235046214
 30
0.0
 11
-864.6138255896818
 21
-508.5112438901051
 31
0.0
  0
TEXT
  5
240
330
1F
100
AcDbEntity
  8
C-F_断熱材
  6
Continuous
 62
     2
370
   211
100
AcDbText
 10
-1219.613825589681
 20
-725.1222235046215
 30
0.0
 40
30.48
  1
□600
 41
1.1
  7
ＭＳ ゴシック
100
AcDbText
  0
LINE
  5
241
330
1F
100
AcDbEntity
  8
C-3_寸法
  6
Continuous
 62
     4
370
     9
100
AcDbLine
 10
47.43617441031761
 20
311.4890913143431
 30
0.0
 11
44.63617441031788
 21
311.4890913143431
 31
0.0
  0
LINE
  5
242
330
1F
100
AcDbEntity
  8
C-3_寸法
  6
Continuous
 62
     4
370
     9
100
AcDbLine
 10
47.43617441031761
 20
656.2378224463935
 30
0.0
 11
47.43617441031761
 21
311.4890913143431
 31
0.0
  0
LINE
  5
243
330
1F
100
AcDbEntity
  8
C-3_寸法
  6
Continuous
 62
     4
370
     9
100
AcDbLine
 10
105.1361744103185
 20
311.4890913143431
 30
0.0
 11
102.3361744103188
 21
311.4890913143431
 31
0.0
  0
LINE
  5
244
330
1F
100
AcDbEntity
  8
C-3_寸法
  6
Continuous
 62
     4
370
     9
100
AcDbLine
 10
102.3361744103188
 20
656.2378224463935
 30
0.0
 11
102.3361744103188
 21
311.4890913143431
 31
0.0
  0
LINE
  5
245
330
1F
100
AcDbEntity
  8
C-F_断熱材
  6
Continuous
 62
     7
370
     9
100
AcDbLine
 10
144.7861737765614
 20
262.492233786761
 30
0.0
 11
163.0489647657937
 21
286.2927280065673
 31
0.0
  0
LINE
  5
246
330
1F
100
AcDbEntity
  8
C-F_断熱材
  6
Continuous
 62
     7
370
     9
100
AcDbLine
 10
144.7861737765614
 20
262.492233786761
 30
0.0
 11
168.5869154361895
 21
280.7550247759922
 31
0.0
  0
LINE
  5
247
330
1F
100
AcDbEntity
  8
C-F_断熱材
  6
Continuous
 62
     7
370
     9
100
AcDbLine
 10
144.7861737765614
 20
262.492233786761
 30
0.0
 11
283.5899476784769
 21
401.2960076886757
 31
0.0
  0
TEXT
  5
248
330
1F
100
AcDbEntity
  8
C-5_建具
  6
Continuous
 62
     2
370
     9
100
AcDbText
 10
286.2668489601605
 20
416.0623955579845
 30
0.0
 40
30.48
  1
支柱：φ139.8×4.5
 41
1.118055555555556
  7
ＭＳ ゴシック
100
AcDbText
  0
LINE
  5
249
330
1F
100
AcDbEntity
  8
C-F_断熱材
  6
Continuous
 62
     7
370
     9
100
AcDbLine
 10
283.5899476784769
 20
401.2960076886757
 30
0.0
 11
933.7668489601606
 21
401.2960076886757
 31
0.0
  0
LINE
  5
24A
330
1F
100
AcDbEntity
  8
C-F_断熱材
  6
Continuous
 62
     7
370
     9
100
AcDbLine
 10
-497.4662976753266
 20
861.4884547026427
 30
0.0
 11
-494.2031428698253
 21
886.274576236988
 31
0.0
  0
LINE
  5
24B
330
1F
100
AcDbEntity
  8
C-F_断熱材
  6
Continuous
 62
     7
370
     9
100
AcDbLine
 10
-497.4662976753266
 20
861.4884547026427
 30
0.0
 11
-487.8992118661993
 21
884.5854430154249
 31
0.0
  0
LINE
  5
24C
330
1F
100
AcDbEntity
  8
C-F_断熱材
  6
Continuous
 62
     7
370
     9
100
AcDbLine
 10
-417.7993860490244
 20
1158.809416574102
 30
0.0
 11
-497.4662976753266
 21
861.4884547026427
 31
0.0
  0
TEXT
  5
24D
330
1F
100
AcDbEntity
  8
C-5_建具
  6
Continuous
 62
     2
370
     9
100
AcDbText
 10
-401.4819141543113
 20
1112.421518051407
 30
0.0
 40
30.48
  1
STK　溶融亜鉛めっき＋焼付塗装
 41
1.116379310344827
  7
ＭＳ ゴシック
100
AcDbText
  0
TEXT
  5
24E
330
1F
100
AcDbEntity
  8
C-5_建具
  6
Continuous
 62
     2
370
     9
100
AcDbText
 10
-401.4819141543113
 20
1173.575804443411
 30
0.0
 40
30.48
  1
アーチパイプ：φ60.5×2.8
 41
1.12
  7
ＭＳ ゴシック
100
AcDbText
  0
LINE
  5
24F
330
1F
100
AcDbEntity
  8
C-F_断熱材
  6
Continuous
 62
     7
370
     9
100
AcDbLine
 10
-417.7993860490244
 20
1158.809416574102
 30
0.0
 11
246.0180858456887
 21
1158.809416574102
 31
0.0
  0
LINE
  5
250
330
1F
100
AcDbEntity
  8
D-9_記号
  6
Continuous
 62
   211
370
     5
100
AcDbLine
 10
1285.641633311015
 20
1042.170693895595
 30
0.0
 11
1285.641633311015
 21
1057.170693895593
 31
0.0
  0
LINE
  5
251
330
1F
100
AcDbEntity
  8
D-9_記号
  6
Continuous
 62
   211
370
     5
100
AcDbLine
 10
865.6416333110183
 20
1042.170693895595
 30
0.0
 11
865.6416333110183
 21
1057.170693895593
 31
0.0
  0
LINE
  5
252
330
1F
100
AcDbEntity
  8
D-9_記号
  6
Continuous
 62
   211
370
     5
100
AcDbLine
 10
1285.641633311015
 20
1042.170693895595
 30
0.0
 11
865.6416333110183
 21
1042.170693895595
 31
0.0
  0
LINE
  5
253
330
1F
100
AcDbEntity
  8
D-9_記号
  6
Continuous
 62
   211
370
     5
100
AcDbLine
 10
1285.641633311015
 20
1057.170693895593
 30
0.0
 11
865.6416333110183
 21
1057.170693895593
 31
0.0
  0
LINE
  5
254
330
1F
100
AcDbEntity
  8
D-A_インテリア
  6
Continuous
 62
     2
370
     9
100
AcDbLine
 10
867.6231230156172
 20
1057.170693895593
 30
0.0
 11
867.6231230156172
 21
1072.902171633019
 31
0.0
  0
LINE
  5
255
330
1F
100
AcDbEntity
  8
D-A_インテリア
  6
Continuous
 62
     2
370
     9
100
AcDbLine
 10
880.1323792195851
 20
1072.902171633019
 30
0.0
 11
880.1323792195851
 21
1057.170693895593
 31
0.0
  0
LINE
  5
256
330
1F
100
AcDbEntity
  8
D-A_インテリア
  6
Continuous
 62
     2
370
     9
100
AcDbLine
 10
905.1508916275282
 20
1072.902171633019
 30
0.0
 11
905.1508916275282
 21
1057.170693895593
 31
0.0
  0
LINE
  5
257
330
1F
100
AcDbEntity
  8
D-A_インテリア
  6
Continuous
 62
     2
370
     9
100
AcDbLine
 10
867.6231230156172
 20
1057.170693895593
 30
0.0
 11
917.660147831496
 21
1057.170693895593
 31
0.0
  0
LINE
  5
258
330
1F
100
AcDbEntity
  8
D-A_インテリア
  6
Continuous
 62
     2
370
     9
100
AcDbLine
 10
917.660147831496
 20
1057.170693895593
 30
0.0
 11
917.660147831496
 21
1072.902171633019
 31
0.0
  0
LINE
  5
259
330
1F
100
AcDbEntity
  8
D-A_インテリア
  6
Continuous
 62
     2
370
     9
100
AcDbLine
 10
914.3083020902225
 20
1074.837361198045
 30
0.0
 11
917.660147831496
 21
1072.902171633019
 31
0.0
  0
LINE
  5
25A
330
1F
100
AcDbEntity
  8
D-A_インテリア
  6
Continuous
 62
     2
370
     9
100
AcDbLine
 10
870.9749687568908
 20
1074.837361198045
 30
0.0
 11
867.6231230156172
 21
1072.902171633019
 31
0.0
  0
LINE
  5
25B
330
1F
100
AcDbEntity
  8
D-A_インテリア
  6
Continuous
 62
     2
370
     9
100
AcDbLine
 10
870.9749687568908
 20
1074.837361198045
 30
0.0
 11
914.3083020902225
 21
1074.837361198045
 31
0.0
  0
ARC
  5
25C
330
1F
100
AcDbEntity
  8
D-A_インテリア
  6
Continuous
 62
     2
370
     9
100
AcDbCircle
 10
892.6416354235566
 20
1033.439215840275
 30
0.0
 40
41.39814376831055
100
AcDbArc
 50
72.41203308105469
 51
107.5879516601562
  0
ARC
  5
25D
330
1F
100
AcDbEntity
  8
D-A_インテリア
  6
Continuous
 62
     2
370
     9
100
AcDbCircle
 10
910.2766598121871
 20
1060.113595745339
 30
0.0
 40
14.76697603861491
100
AcDbArc
 50
59.99998474121094
 51
85.61573791503906
  0
ARC
  5
25E
330
1F
100
AcDbEntity
  8
D-A_インテリア
  6
Continuous
 62
     2
370
     9
100
AcDbCircle
 10
911.7939333971872
 20
1062.506753227487
 30
0.0
 40
12.33672300974528
100
AcDbArc
 50
91.80421447753906
 51
122.5800170898438
  0
ARC
  5
25F
330
1F
100
AcDbEntity
  8
D-A_インテリア
  6
Continuous
 62
     2
370
     9
100
AcDbCircle
 10
873.4893374499261
 20
1062.506753227487
 30
0.0
 40
12.33672300974528
100
AcDbArc
 50
57.41996765136716
 51
88.19577026367185
  0
ARC
  5
260
330
1F
100
AcDbEntity
  8
D-A_インテリア
  6
Continuous
 62
     2
370
     9
100
AcDbCircle
 10
875.0066110349262
 20
1060.113595745339
 30
0.0
 40
14.76697603861491
100
AcDbArc
 50
94.38424682617189
 51
120.0
  0
LINE
  5
261
330
1F
100
AcDbEntity
  8
D-A_インテリア
  6
Continuous
 62
     2
370
     9
100
AcDbLine
 10
1283.660143606416
 20
1057.170693895593
 30
0.0
 11
1283.660143606416
 21
1072.902171633019
 31
0.0
  0
LINE
  5
262
330
1F
100
AcDbEntity
  8
D-A_インテリア
  6
Continuous
 62
     2
370
     9
100
AcDbLine
 10
1271.150887402448
 20
1072.902171633019
 30
0.0
 11
1271.150887402448
 21
1057.170693895593
 31
0.0
  0
LINE
  5
263
330
1F
100
AcDbEntity
  8
D-A_インテリア
  6
Continuous
 62
     2
370
     9
100
AcDbLine
 10
1246.132374994505
 20
1072.902171633019
 30
0.0
 11
1246.132374994505
 21
1057.170693895593
 31
0.0
  0
LINE
  5
264
330
1F
100
AcDbEntity
  8
D-A_インテリア
  6
Continuous
 62
     2
370
     9
100
AcDbLine
 10
1283.660143606416
 20
1057.170693895593
 30
0.0
 11
1233.623118790537
 21
1057.170693895593
 31
0.0
  0
LINE
  5
265
330
1F
100
AcDbEntity
  8
D-A_インテリア
  6
Continuous
 62
     2
370
     9
100
AcDbLine
 10
1233.623118790537
 20
1057.170693895593
 30
0.0
 11
1233.623118790537
 21
1072.902171633019
 31
0.0
  0
LINE
  5
266
330
1F
100
AcDbEntity
  8
D-A_インテリア
  6
Continuous
 62
     2
370
     9
100
AcDbLine
 10
1236.974964531811
 20
1074.837361198045
 30
0.0
 11
1233.623118790537
 21
1072.902171633019
 31
0.0
  0
LINE
  5
267
330
1F
100
AcDbEntity
  8
D-A_インテリア
  6
Continuous
 62
     2
370
     9
100
AcDbLine
 10
1280.308297865143
 20
1074.837361198045
 30
0.0
 11
1283.660143606416
 21
1072.902171633019
 31
0.0
  0
LINE
  5
268
330
1F
100
AcDbEntity
  8
D-A_インテリア
  6
Continuous
 62
     2
370
     9
100
AcDbLine
 10
1280.308297865143
 20
1074.837361198045
 30
0.0
 11
1236.974964531811
 21
1074.837361198045
 31
0.0
  0
ARC
  5
269
330
1F
100
AcDbEntity
  8
D-A_インテリア
  6
Continuous
 62
     2
370
     9
100
AcDbCircle
 10
1258.641631198477
 20
1033.439215840275
 30
0.0
 40
41.39814376831055
100
AcDbArc
 50
72.41204833984375
 51
107.5879669189453
  0
ARC
  5
26A
330
1F
100
AcDbEntity
  8
D-A_インテリア
  6
Continuous
 62
     2
370
     9
100
AcDbCircle
 10
1241.006606809846
 20
1060.113595745339
 30
0.0
 40
14.76697603861491
100
AcDbArc
 50
94.38426208496094
 51
120.0000152587891
  0
ARC
  5
26B
330
1F
100
AcDbEntity
  8
D-A_インテリア
  6
Continuous
 62
     2
370
     9
100
AcDbCircle
 10
1239.489333224846
 20
1062.506753227487
 30
0.0
 40
12.33672300974528
100
AcDbArc
 50
57.41998291015626
 51
88.19578552246095
  0
ARC
  5
26C
330
1F
100
AcDbEntity
  8
D-A_インテリア
  6
Continuous
 62
     2
370
     9
100
AcDbCircle
 10
1277.793929172107
 20
1062.506753227487
 30
0.0
 40
12.33672300974528
100
AcDbArc
 50
91.80422973632817
 51
122.5800323486328
  0
ARC
  5
26D
330
1F
100
AcDbEntity
  8
D-A_インテリア
  6
Continuous
 62
     2
370
     9
100
AcDbCircle
 10
1276.276655587107
 20
1060.113595745339
 30
0.0
 40
14.76697603861491
100
AcDbArc
 50
60.00000000000001
 51
85.61575317382814
  0
LINE
  5
26E
330
1F
100
AcDbEntity
  8
D-0_通り芯
  6
JWW_CENTER2
 62
     7
370
     9
100
AcDbLine
 10
892.6416354235566
 20
1034.516597576252
 30
0.0
 11
892.6416354235566
 21
1096.860511339762
 31
0.0
  0
LINE
  5
26F
330
1F
100
AcDbEntity
  8
D-0_通り芯
  6
JWW_CENTER2
 62
     7
370
     9
100
AcDbLine
 10
1258.641631198477
 20
1034.516597576252
 30
0.0
 11
1258.641631198477
 21
1096.860511339762
 31
0.0
  0
LINE
  5
270
330
1F
100
AcDbEntity
  8
D-3_寸法
  6
Continuous
 62
     4
370
     9
100
AcDbLine
 10
974.8082999776841
 20
1200.888891438018
 30
0.0
 11
974.8082999776841
 21
1057.170693895593
 31
0.0
  0
LINE
  5
271
330
1F
100
AcDbEntity
  8
D-3_寸法
  6
Continuous
 62
     4
370
     9
100
AcDbLine
 10
1176.474966644353
 20
1200.888891438018
 30
0.0
 11
1176.474966644353
 21
1057.170693895593
 31
0.0
  0
TEXT
  5
272
330
1F
100
AcDbEntity
  8
F-5ﾚｲﾔ
  6
Continuous
 62
     2
370
     9
100
AcDbText
 10
943.0289683470858
 20
-1337.171574678163
 30
0.0
 40
30.48
  1
1:5(1:3)
 41
1.109375
  7
ＭＳ ゴシック
100
AcDbText
  0
LINE
  5
273
330
1F
100
AcDbEntity
  8
D-B_衛生陶器
  6
Continuous
 62
     7
370
     9
100
AcDbLine
 10
863.9797850365802
 20
1042.170693895595
 30
0.0
 11
865.641633311018
 21
1043.832542170033
 31
0.0
  0
LINE
  5
274
330
1F
100
AcDbEntity
  8
D-B_衛生陶器
  6
Continuous
 62
     7
370
     9
100
AcDbLine
 10
861.1513579118312
 20
1042.170693895596
 30
0.0
 11
865.6416333110155
 21
1046.66096929478
 31
0.0
  0
LINE
  5
275
330
1F
100
AcDbEntity
  8
D-B_衛生陶器
  6
Continuous
 62
     7
370
     9
100
AcDbLine
 10
858.3229307870995
 20
1042.170693895596
 30
0.0
 11
865.6416333110116
 21
1049.489396419508
 31
0.0
  0
LINE
  5
276
330
1F
100
AcDbEntity
  8
D-B_衛生陶器
  6
Continuous
 62
     7
370
     9
100
AcDbLine
 10
855.4945036623479
 20
1042.170693895595
 30
0.0
 11
865.6416333110179
 21
1052.317823544265
 31
0.0
  0
TEXT
  5
277
330
1F
100
AcDbEntity
  8
D-5_建具
  6
Continuous
 62
     2
370
     9
100
AcDbText
 10
432.5268766759843
 20
1179.191023209276
 30
0.0
 40
30.48
  1
接合部シール処理
 41
1.109375
  7
ＭＳ ゴシック
100
AcDbText
  0
LINE
  5
278
330
1F
100
AcDbEntity
  8
D-F_断熱材
  6
Continuous
 62
     7
370
     9
100
AcDbLine
 10
790.8002353746496
 20
1166.309416574101
 30
0.0
 11
432.5268766759843
 21
1166.309416574101
 31
0.0
  0
TEXT
  5
279
330
1F
100
AcDbEntity
  8
D-5_建具
  6
Continuous
 62
     2
370
     9
100
AcDbText
 10
432.5268766759843
 20
1122.684177522304
 30
0.0
 40
30.48
  1
別途工事
 41
1.09375
  7
ＭＳ ゴシック
100
AcDbText
  0
LINE
  5
27A
330
1F
100
AcDbEntity
  8
D-5_建具
  6
Continuous
 62
     7
370
     9
100
AcDbLine
 10
1782.716249165741
 20
1166.309416574101
 30
0.0
 11
1371.780353241199
 21
1166.309416574101
 31
0.0
  0
TEXT
  5
27B
330
1F
100
AcDbEntity
  8
D-5_建具
  6
Continuous
 62
     2
370
     9
100
AcDbText
 10
1380.216249165741
 20
1119.921518051406
 30
0.0
 40
30.48
  1
SUS304
 41
1.104166666666667
  7
ＭＳ ゴシック
100
AcDbText
  0
TEXT
  5
27C
330
1F
100
AcDbEntity
  8
D-5_建具
  6
Continuous
 62
     2
370
     9
100
AcDbText
 10
1380.216249165741
 20
1181.07580444341
 30
0.0
 40
30.48
  1
六角ボルト：M8×20
 41
1.118055555555555
  7
ＭＳ ゴシック
100
AcDbText
  0
LINE
  5
27D
330
1F
100
AcDbEntity
  8
D-5_建具
  6
Continuous
 62
     7
370
     9
100
AcDbLine
 10
1371.780353241199
 20
1166.309416574101
 30
0.0
 11
1280.308297865143
 21
1074.837361198045
 31
0.0
  0
LINE
  5
27E
330
1F
100
AcDbEntity
  8
D-5_建具
  6
Continuous
 62
     7
370
     9
100
AcDbLine
 10
1280.308297865143
 20
1074.837361198045
 30
0.0
 11
1295.527333590361
 21
1094.671194705326
 31
0.0
  0
LINE
  5
27F
330
1F
100
AcDbEntity
  8
D-5_建具
  6
Continuous
 62
     7
370
     9
100
AcDbLine
 10
1280.308297865143
 20
1074.837361198045
 30
0.0
 11
1300.142131372424
 21
1090.056396923263
 31
0.0
  0
LINE
  5
280
330
1F
100
AcDbEntity
  8
D-F_断熱材
  6
Continuous
 62
     7
370
     9
100
AcDbLine
 10
790.8002353746496
 20
1166.309416574101
 30
0.0
 11
857.0474851316065
 21
1051.565814133346
 31
0.0
  0
LINE
  5
281
330
1F
100
AcDbEntity
  8
D-3_寸法
  6
Continuous
 62
     7
370
     9
100
AcDbLine
 10
857.0474851316065
 20
1051.565814133346
 30
0.0
 11
841.8284494063885
 21
1071.399647640627
 31
0.0
  0
LINE
  5
282
330
1F
100
AcDbEntity
  8
D-3_寸法
  6
Continuous
 62
     7
370
     9
100
AcDbLine
 10
857.0474851316065
 20
1051.565814133346
 30
0.0
 11
847.4803993224792
 21
1074.662802446128
 31
0.0
  0
LINE
  5
283
330
1F
100
AcDbEntity
  8
D-B_衛生陶器
  6
Continuous
 62
     7
370
     9
100
AcDbLine
 10
848.8358040936668
 20
1046.210369486274
 30
0.0
 11
852.8754796843427
 21
1042.170693895597
 31
0.0
  0
LINE
  5
284
330
1F
100
AcDbEntity
  8
D-B_衛生陶器
  6
Continuous
 62
     7
370
     9
100
AcDbLine
 10
864.2432881356392
 20
1056.258729567017
 30
0.0
 11
865.6416333110202
 21
1054.860384391636
 31
0.0
  0
LINE
  5
285
330
1F
100
AcDbEntity
  8
D-B_衛生陶器
  6
Continuous
 62
     7
370
     9
100
AcDbLine
 10
850.547746764999
 20
1047.326853939691
 30
0.0
 11
855.7039068090916
 21
1042.170693895599
 31
0.0
  0
LINE
  5
286
330
1F
100
AcDbEntity
  8
D-B_衛生陶器
  6
Continuous
 62
     7
370
     9
100
AcDbLine
 10
852.2596894363321
 20
1048.443338393108
 30
0.0
 11
858.5323339338456
 21
1042.170693895595
 31
0.0
  0
LINE
  5
287
330
1F
100
AcDbEntity
  8
D-B_衛生陶器
  6
Continuous
 62
     7
370
     9
100
AcDbLine
 10
853.9716321076646
 20
1049.559822846526
 30
0.0
 11
861.3607610585982
 21
1042.170693895593
 31
0.0
  0
LINE
  5
288
330
1F
100
AcDbEntity
  8
D-B_衛生陶器
  6
Continuous
 62
     7
370
     9
100
AcDbLine
 10
855.6835747789864
 20
1050.676307299936
 30
0.0
 11
864.1891881833288
 21
1042.170693895594
 31
0.0
  0
LINE
  5
289
330
1F
100
AcDbEntity
  8
D-B_衛生陶器
  6
Continuous
 62
     7
370
     9
100
AcDbLine
 10
857.3955174503192
 20
1051.792791753354
 30
0.0
 11
865.641633311019
 21
1043.546675892654
 31
0.0
  0
LINE
  5
28A
330
1F
100
AcDbEntity
  8
D-B_衛生陶器
  6
Continuous
 62
     7
370
     9
100
AcDbLine
 10
859.1074601216519
 20
1052.909276206771
 30
0.0
 11
865.6416333110203
 21
1046.375103017403
 31
0.0
  0
LINE
  5
28B
330
1F
100
AcDbEntity
  8
D-B_衛生陶器
  6
Continuous
 62
     7
370
     9
100
AcDbLine
 10
860.8194027929848
 20
1054.025760660189
 30
0.0
 11
865.6416333110191
 21
1049.203530142155
 31
0.0
  0
LINE
  5
28C
330
1F
100
AcDbEntity
  8
D-B_衛生陶器
  6
Continuous
 62
     7
370
     9
100
AcDbLine
 10
862.5313454643119
 20
1055.142245113603
 30
0.0
 11
865.6416333110169
 21
1052.031957266898
 31
0.0
  0
LINE
  5
28D
330
1F
100
AcDbEntity
  8
D-8_ハッチ
  6
Continuous
 62
    30
370
     5
100
AcDbLine
 10
842.6416354235566
 20
1042.170693895595
 30
0.0
 11
1308.641631198496
 21
1042.170693895595
 31
0.0
  0
LINE
  5
28E
330
1F
100
AcDbEntity
  8
D-B_衛生陶器
  6
Continuous
 62
     7
370
     9
100
AcDbLine
 10
852.6660765375975
 20
1042.170693895595
 30
0.0
 11
865.6416333110172
 21
1055.146250669015
 31
0.0
  0
LINE
  5
28F
330
1F
100
AcDbEntity
  8
D-B_衛生陶器
  6
Continuous
 62
     7
370
     9
100
AcDbLine
 10
865.6416333110183
 20
1057.170693895593
 30
0.0
 11
842.6416354235566
 21
1042.170693895595
 31
0.0
  0
LINE
  5
290
330
1F
100
AcDbEntity
  8
D-B_衛生陶器
  6
Continuous
 62
     7
370
     9
100
AcDbLine
 10
843.6999760796691
 20
1042.860916126021
 30
0.0
 11
844.3901983100953
 21
1042.170693895595
 31
0.0
  0
LINE
  5
291
330
1F
100
AcDbEntity
  8
D-B_衛生陶器
  6
Continuous
 62
     7
370
     9
100
AcDbLine
 10
847.1238614223342
 20
1045.093885032856
 30
0.0
 11
850.047052559595
 21
1042.170693895595
 31
0.0
  0
LINE
  5
292
330
1F
100
AcDbEntity
  8
D-B_衛生陶器
  6
Continuous
 62
     7
370
     9
100
AcDbLine
 10
845.4119187510016
 20
1043.977400579439
 30
0.0
 11
847.2186254348452
 21
1042.170693895595
 31
0.0
  0
LINE
  5
293
330
1F
100
AcDbEntity
  8
D-B_衛生陶器
  6
Continuous
 62
     7
370
     9
100
AcDbLine
 10
844.1807951633466
 20
1042.170693895595
 30
0.0
 11
847.06672043753
 21
1045.056619169779
 31
0.0
  0
LINE
  5
294
330
1F
100
AcDbEntity
  8
D-B_衛生陶器
  6
Continuous
 62
     7
370
     9
100
AcDbLine
 10
847.0092222880969
 20
1042.170693895595
 30
0.0
 11
855.1984498216134
 21
1050.359921429112
 31
0.0
  0
LINE
  5
295
330
1F
100
AcDbEntity
  8
D-B_衛生陶器
  6
Continuous
 62
     7
370
     9
100
AcDbLine
 10
849.8376494128472
 20
1042.170693895595
 30
0.0
 11
863.330179205697
 21
1055.663223688445
 31
0.0
  0
LINE
  5
296
330
1F
100
AcDbEntity
  8
D-B_衛生陶器
  6
Continuous
 62
     7
370
     9
100
AcDbLine
 10
1287.303481585453
 20
1042.170693895595
 30
0.0
 11
1285.641633311015
 21
1043.832542170033
 31
0.0
  0
LINE
  5
297
330
1F
100
AcDbEntity
  8
D-B_衛生陶器
  6
Continuous
 62
     7
370
     9
100
AcDbLine
 10
1290.131908710202
 20
1042.170693895596
 30
0.0
 11
1285.641633311018
 21
1046.66096929478
 31
0.0
  0
LINE
  5
298
330
1F
100
AcDbEntity
  8
D-B_衛生陶器
  6
Continuous
 62
     7
370
     9
100
AcDbLine
 10
1292.960335834934
 20
1042.170693895596
 30
0.0
 11
1285.641633311022
 21
1049.489396419508
 31
0.0
  0
LINE
  5
299
330
1F
100
AcDbEntity
  8
D-B_衛生陶器
  6
Continuous
 62
     7
370
     9
100
AcDbLine
 10
1295.788762959685
 20
1042.170693895595
 30
0.0
 11
1285.641633311016
 21
1052.317823544265
 31
0.0
  0
LINE
  5
29A
330
1F
100
AcDbEntity
  8
D-B_衛生陶器
  6
Continuous
 62
     7
370
     9
100
AcDbLine
 10
1302.447462528366
 20
1046.210369486274
 30
0.0
 11
1298.407786937691
 21
1042.170693895597
 31
0.0
  0
LINE
  5
29B
330
1F
100
AcDbEntity
  8
D-B_衛生陶器
  6
Continuous
 62
     7
370
     9
100
AcDbLine
 10
1287.039978486394
 20
1056.258729567017
 30
0.0
 11
1285.641633311013
 21
1054.860384391636
 31
0.0
  0
LINE
  5
29C
330
1F
100
AcDbEntity
  8
D-B_衛生陶器
  6
Continuous
 62
     7
370
     9
100
AcDbLine
 10
1300.735519857034
 20
1047.326853939691
 30
0.0
 11
1295.579359812942
 21
1042.170693895599
 31
0.0
  0
LINE
  5
29D
330
1F
100
AcDbEntity
  8
D-B_衛生陶器
  6
Continuous
 62
     7
370
     9
100
AcDbLine
 10
1299.023577185701
 20
1048.443338393108
 30
0.0
 11
1292.750932688188
 21
1042.170693895595
 31
0.0
  0
LINE
  5
29E
330
1F
100
AcDbEntity
  8
D-B_衛生陶器
  6
Continuous
 62
     7
370
     9
100
AcDbLine
 10
1297.311634514369
 20
1049.559822846526
 30
0.0
 11
1289.922505563435
 21
1042.170693895593
 31
0.0
  0
LINE
  5
29F
330
1F
100
AcDbEntity
  8
D-B_衛生陶器
  6
Continuous
 62
     7
370
     9
100
AcDbLine
 10
1295.599691843047
 20
1050.676307299936
 30
0.0
 11
1287.094078438704
 21
1042.170693895594
 31
0.0
  0
LINE
  5
2A0
330
1F
100
AcDbEntity
  8
D-B_衛生陶器
  6
Continuous
 62
     7
370
     9
100
AcDbLine
 10
1293.887749171714
 20
1051.792791753354
 30
0.0
 11
1285.641633311014
 21
1043.546675892654
 31
0.0
  0
LINE
  5
2A1
330
1F
100
AcDbEntity
  8
D-B_衛生陶器
  6
Continuous
 62
     7
370
     9
100
AcDbLine
 10
1292.175806500381
 20
1052.909276206771
 30
0.0
 11
1285.641633311013
 21
1046.375103017403
 31
0.0
  0
LINE
  5
2A2
330
1F
100
AcDbEntity
  8
D-B_衛生陶器
  6
Continuous
 62
     7
370
     9
100
AcDbLine
 10
1290.463863829049
 20
1054.025760660189
 30
0.0
 11
1285.641633311014
 21
1049.203530142155
 31
0.0
  0
LINE
  5
2A3
330
1F
100
AcDbEntity
  8
D-B_衛生陶器
  6
Continuous
 62
     7
370
     9
100
AcDbLine
 10
1288.751921157721
 20
1055.142245113603
 30
0.0
 11
1285.641633311016
 21
1052.031957266898
 31
0.0
  0
LINE
  5
2A4
330
1F
100
AcDbEntity
  8
D-B_衛生陶器
  6
Continuous
 62
     7
370
     9
100
AcDbLine
 10
1298.617190084436
 20
1042.170693895595
 30
0.0
 11
1285.641633311016
 21
1055.146250669015
 31
0.0
  0
LINE
  5
2A5
330
1F
100
AcDbEntity
  8
D-B_衛生陶器
  6
Continuous
 62
     7
370
     9
100
AcDbLine
 10
1285.641633311015
 20
1057.170693895593
 30
0.0
 11
1308.641631198477
 21
1042.170693895595
 31
0.0
  0
LINE
  5
2A6
330
1F
100
AcDbEntity
  8
D-B_衛生陶器
  6
Continuous
 62
     7
370
     9
100
AcDbLine
 10
1307.583290542364
 20
1042.860916126021
 30
0.0
 11
1306.893068311938
 21
1042.170693895595
 31
0.0
  0
LINE
  5
2A7
330
1F
100
AcDbEntity
  8
D-B_衛生陶器
  6
Continuous
 62
     7
370
     9
100
AcDbLine
 10
1304.159405199699
 20
1045.093885032856
 30
0.0
 11
1301.236214062438
 21
1042.170693895595
 31
0.0
  0
LINE
  5
2A8
330
1F
100
AcDbEntity
  8
D-B_衛生陶器
  6
Continuous
 62
     7
370
     9
100
AcDbLine
 10
1305.871347871032
 20
1043.977400579439
 30
0.0
 11
1304.064641187188
 21
1042.170693895595
 31
0.0
  0
LINE
  5
2A9
330
1F
100
AcDbEntity
  8
D-B_衛生陶器
  6
Continuous
 62
     7
370
     9
100
AcDbLine
 10
1307.102471458687
 20
1042.170693895595
 30
0.0
 11
1304.216546184503
 21
1045.056619169779
 31
0.0
  0
LINE
  5
2AA
330
1F
100
AcDbEntity
  8
D-B_衛生陶器
  6
Continuous
 62
     7
370
     9
100
AcDbLine
 10
1304.274044333936
 20
1042.170693895595
 30
0.0
 11
1296.08481680042
 21
1050.359921429112
 31
0.0
  0
LINE
  5
2AB
330
1F
100
AcDbEntity
  8
D-B_衛生陶器
  6
Continuous
 62
     7
370
     9
100
AcDbLine
 10
1301.445617209186
 20
1042.170693895595
 30
0.0
 11
1287.953087416336
 21
1055.663223688445
 31
0.0
  0
ARC
  5
2AC
330
1F
100
AcDbEntity
  8
D-3_寸法
  6
Continuous
 62
     4
370
     9
100
AcDbCircle
 10
1025.22496664435
 20
1132.967016438019
 30
0.0
 40
84.5885416666659
100
AcDbArc
 50
53.41444807086982
 51
126.5855519291302
  0
ARC
  5
2AD
330
1F
100
AcDbEntity
  8
D-3_寸法
  6
Continuous
 62
     4
370
     9
100
AcDbCircle
 10
1126.058299977685
 20
1268.810766438023
 30
0.0
 40
84.58854166667172
100
AcDbArc
 50
233.4144480708711
 51
306.5855519291288
  0
ARC
  5
2AE
330
1F
100
AcDbEntity
  8
D-3_寸法
  6
Continuous
 62
     4
370
     9
100
AcDbCircle
 10
1126.058299977685
 20
1127.503569836962
 30
0.0
 40
89.03508131218992
100
AcDbArc
 50
55.51043048692547
 51
124.4895695130745
  0
LINE
  5
2AF
330
1F
100
AcDbEntity
  8
D-0_通り芯
  6
JWW_CENTER2
 62
     7
370
     9
100
AcDbLine
 10
1075.641633311017
 20
1231.585798572197
 30
0.0
 11
1075.641633311017
 21
833.6531626921011
 31
0.0
  0
CIRCLE
  5
2B0
330
1F
100
AcDbEntity
  8
C-3_寸法
  6
Continuous
 62
     4
370
     9
100
AcDbCircle
 10
74.88617441031765
 20
461.4889682528342
 30
0.0
 40
7.0
  0
LINE
  5
2B1
330
1F
100
AcDbEntity
  8
C-2_仕上
  6
JWW_CENTER2
 62
     7
370
     9
100
AcDbLine
 10
64.10596969785684
 20
461.4889682528342
 30
0.0
 11
85.66637912277848
 21
461.4889682528342
 31
0.0
  0
ARC
  5
2B2
330
1F
100
AcDbEntity
  8
C-A_インテリア
  6
Continuous
 62
     2
370
     9
100
AcDbCircle
 10
-1159.323318273093
 20
597.3719618692669
 30
0.0
 40
4.430092811584473
100
AcDbArc
 50
60.00000000000001
 51
85.61575317382814
  0
ARC
  5
2B3
330
1F
100
AcDbEntity
  8
C-A_インテリア
  6
Continuous
 62
     2
370
     9
100
AcDbCircle
 10
-1158.868136197593
 20
598.0899091139113
 30
0.0
 40
3.701016902923584
100
AcDbArc
 50
91.80422973632817
 51
122.5800323486328
  0
ARC
  5
2B4
330
1F
100
AcDbEntity
  8
C-A_インテリア
  6
Continuous
 62
     2
370
     9
100
AcDbCircle
 10
-1170.359514981772
 20
598.0899091139113
 30
0.0
 40
3.701016902923584
100
AcDbArc
 50
57.41998291015626
 51
88.19578552246095
  0
ARC
  5
2B5
330
1F
100
AcDbEntity
  8
C-A_インテリア
  6
Continuous
 62
     2
370
     9
100
AcDbCircle
 10
-1169.904332906271
 20
597.3719618692669
 30
0.0
 40
4.430092811584473
100
AcDbArc
 50
94.38426208496094
 51
120.0000152587891
  0
ARC
  5
2B6
330
1F
100
AcDbEntity
  8
C-A_インテリア
  6
Continuous
 62
     2
370
     9
100
AcDbCircle
 10
-1164.613825589682
 20
589.3696478977474
 30
0.0
 40
12.41944313049316
100
AcDbArc
 50
72.41204833984375
 51
107.5879669189453
  0
LINE
  5
2B7
330
1F
100
AcDbEntity
  8
C-A_インテリア
  6
Continuous
 62
     2
370
     9
100
AcDbLine
 10
-1158.113825589682
 20
601.7890915050784
 30
0.0
 11
-1171.113825589682
 21
601.7890915050784
 31
0.0
  0
LINE
  5
2B8
330
1F
100
AcDbEntity
  8
C-A_インテリア
  6
Continuous
 62
     2
370
     9
100
AcDbLine
 10
-1158.113825589682
 20
601.7890915050784
 30
0.0
 11
-1157.1082718673
 21
601.2085346355709
 31
0.0
  0
LINE
  5
2B9
330
1F
100
AcDbEntity
  8
C-A_インテリア
  6
Continuous
 62
     2
370
     9
100
AcDbLine
 10
-1171.113825589682
 20
601.7890915050784
 30
0.0
 11
-1172.119379312064
 21
601.2085346355709
 31
0.0
  0
LINE
  5
2BA
330
1F
100
AcDbEntity
  8
C-A_インテリア
  6
Continuous
 62
     2
370
     9
100
AcDbLine
 10
-1172.119379312064
 20
596.4890913143429
 30
0.0
 11
-1172.119379312064
 21
601.2085346355709
 31
0.0
  0
LINE
  5
2BB
330
1F
100
AcDbEntity
  8
C-A_インテリア
  6
Continuous
 62
     2
370
     9
100
AcDbLine
 10
-1157.1082718673
 20
596.4890913143429
 30
0.0
 11
-1172.119379312064
 21
596.4890913143429
 31
0.0
  0
LINE
  5
2BC
330
1F
100
AcDbEntity
  8
C-A_インテリア
  6
Continuous
 62
     2
370
     9
100
AcDbLine
 10
-1168.366602450873
 20
601.2085346355709
 30
0.0
 11
-1168.366602450873
 21
596.4890913143429
 31
0.0
  0
LINE
  5
2BD
330
1F
100
AcDbEntity
  8
C-A_インテリア
  6
Continuous
 62
     2
370
     9
100
AcDbLine
 10
-1160.861048728491
 20
601.2085346355709
 30
0.0
 11
-1160.861048728491
 21
596.4890913143429
 31
0.0
  0
LINE
  5
2BE
330
1F
100
AcDbEntity
  8
C-A_インテリア
  6
Continuous
 62
     2
370
     9
100
AcDbLine
 10
-1157.1082718673
 20
596.4890913143429
 30
0.0
 11
-1157.1082718673
 21
601.2085346355709
 31
0.0
  0
LINE
  5
2BF
330
1F
100
AcDbEntity
  8
C-3_寸法
  6
Continuous
 62
     4
370
     9
100
AcDbLine
 10
-1134.363825589682
 20
656.2392377935776
 30
0.0
 11
-1134.363825589682
 21
596.4890913143429
 31
0.0
  0
LINE
  5
2C0
330
1F
100
AcDbEntity
  8
C-3_寸法
  6
Continuous
 62
     4
370
     9
100
AcDbLine
 10
-1194.863825589683
 20
656.2392377935776
 30
0.0
 11
-1194.863825589683
 21
596.4890913143429
 31
0.0
  0
LINE
  5
2C1
330
1F
100
AcDbEntity
  8
C-9_記号
  6
Continuous
 62
   211
370
     5
100
AcDbLine
 10
-1227.613825589683
 20
596.4890913143429
 30
0.0
 11
-1101.613825589682
 21
596.4890913143429
 31
0.0
  0
LINE
  5
2C2
330
1F
100
AcDbEntity
  8
C-8_ハッチ
  6
Continuous
 62
    30
370
     5
100
AcDbLine
 10
-1234.513824955921
 20
591.9890913143436
 30
0.0
 11
-1094.713826223439
 21
591.9890913143436
 31
0.0
  0
LINE
  5
2C3
330
1F
100
AcDbEntity
  8
C-9_記号
  6
Continuous
 62
   211
370
     5
100
AcDbLine
 10
-1134.363825589682
 20
591.9890913143436
 30
0.0
 11
-1101.613825589682
 21
591.9890913143436
 31
0.0
  0
LINE
  5
2C4
330
1F
100
AcDbEntity
  8
C-9_記号
  6
Continuous
 62
   211
370
     5
100
AcDbLine
 10
-1227.613825589683
 20
591.9890913143436
 30
0.0
 11
-1194.863825589683
 21
591.9890913143436
 31
0.0
  0
LINE
  5
2C5
330
1F
100
AcDbEntity
  8
C-9_記号
  6
Continuous
 62
   211
370
     5
100
AcDbLine
 10
-1101.613825589682
 20
591.9890913143436
 30
0.0
 11
-1101.613825589682
 21
596.4890913143429
 31
0.0
  0
LINE
  5
2C6
330
1F
100
AcDbEntity
  8
C-9_記号
  6
Continuous
 62
   211
370
     5
100
AcDbLine
 10
-1227.613825589683
 20
591.9890913143436
 30
0.0
 11
-1227.613825589683
 21
596.4890913143429
 31
0.0
  0
LINE
  5
2C7
330
1F
100
AcDbEntity
  8
C-8_ハッチ
  6
Continuous
 62
    30
370
     5
100
AcDbLine
 10
-1094.713826223439
 20
591.9890913143436
 30
0.0
 11
-1094.713826223439
 21
587.4890913143433
 31
0.0
  0
LINE
  5
2C8
330
1F
100
AcDbEntity
  8
C-8_ハッチ
  6
Continuous
 62
    30
370
     5
100
AcDbLine
 10
-1234.513824955921
 20
591.9890913143436
 30
0.0
 11
-1234.513824955921
 21
587.4890913143433
 31
0.0
  0
LINE
  5
2C9
330
1F
100
AcDbEntity
  8
C-8_ハッチ
  6
Continuous
 62
    30
370
     5
100
AcDbLine
 10
4.986175044079619
 20
591.9890913143436
 30
0.0
 11
4.986175044079619
 21
587.4890913143433
 31
0.0
  0
LINE
  5
2CA
330
1F
100
AcDbEntity
  8
C-8_ハッチ
  6
Continuous
 62
    30
370
     5
100
AcDbLine
 10
144.7861737765614
 20
591.9890913143436
 30
0.0
 11
144.7861737765614
 21
587.4890913143433
 31
0.0
  0
LINE
  5
2CB
330
1F
100
AcDbEntity
  8
C-8_ハッチ
  6
Continuous
 62
    30
370
     5
100
AcDbLine
 10
28.38617441032016
 20
591.9890913143436
 30
0.0
 11
28.38617441032016
 21
587.4890913143433
 31
0.0
  0
LINE
  5
2CC
330
1F
100
AcDbEntity
  8
C-8_ハッチ
  6
Continuous
 62
    30
370
     5
100
AcDbLine
 10
121.3861744103197
 20
591.9890913143436
 30
0.0
 11
121.3861744103197
 21
587.4890913143433
 31
0.0
  0
LINE
  5
2CD
330
1F
100
AcDbEntity
  8
C-9_記号
  6
Continuous
 62
   211
370
     5
100
AcDbLine
 10
137.8861744103172
 20
591.9890913143436
 30
0.0
 11
137.8861744103172
 21
596.4890913143429
 31
0.0
  0
LINE
  5
2CE
330
1F
100
AcDbEntity
  8
C-9_記号
  6
Continuous
 62
   211
370
     5
100
AcDbLine
 10
11.88617441031811
 20
591.9890913143436
 30
0.0
 11
11.88617441031811
 21
596.4890913143429
 31
0.0
  0
LINE
  5
2CF
330
1F
100
AcDbEntity
  8
C-9_記号
  6
Continuous
 62
   211
370
     5
100
AcDbLine
 10
44.1361744103172
 20
596.4890913143429
 30
0.0
 11
44.1361744103172
 21
591.9890913143436
 31
0.0
  0
LINE
  5
2D0
330
1F
100
AcDbEntity
  8
C-9_記号
  6
Continuous
 62
   211
370
     5
100
AcDbLine
 10
105.6361744103181
 20
596.4890913143429
 30
0.0
 11
105.6361744103181
 21
591.9890913143436
 31
0.0
  0
LINE
  5
2D1
330
1F
100
AcDbEntity
  8
C-9_記号
  6
Continuous
 62
   211
370
     5
100
AcDbLine
 10
137.8861744103172
 20
596.4890913143429
 30
0.0
 11
105.1361744103174
 21
596.4890913143429
 31
0.0
  0
LINE
  5
2D2
330
1F
100
AcDbEntity
  8
C-9_記号
  6
Continuous
 62
   211
370
     5
100
AcDbLine
 10
137.8861744103172
 20
591.9890913143436
 30
0.0
 11
105.1361744103174
 21
591.9890913143436
 31
0.0
  0
LINE
  5
2D3
330
1F
100
AcDbEntity
  8
C-9_記号
  6
Continuous
 62
   211
370
     5
100
AcDbLine
 10
44.63617441031788
 20
596.4890913143429
 30
0.0
 11
11.88617441031811
 21
596.4890913143429
 31
0.0
  0
LINE
  5
2D4
330
1F
100
AcDbEntity
  8
C-9_記号
  6
Continuous
 62
   211
370
     5
100
AcDbLine
 10
44.63617441031788
 20
591.9890913143436
 30
0.0
 11
11.88617441031811
 21
591.9890913143436
 31
0.0
  0
LINE
  5
2D5
330
1F
100
AcDbEntity
  8
C-8_ハッチ
  6
Continuous
 62
    30
370
     5
100
AcDbLine
 10
105.1361744103185
 20
591.9890913143436
 30
0.0
 11
144.7861737765614
 21
591.9890913143436
 31
0.0
  0
LINE
  5
2D6
330
1F
100
AcDbEntity
  8
C-8_ハッチ
  6
Continuous
 62
    30
370
     5
100
AcDbLine
 10
4.986175044079619
 20
591.9890913143436
 30
0.0
 11
44.63617441031788
 21
591.9890913143436
 31
0.0
  0
LINE
  5
2D7
330
1F
100
AcDbEntity
  8
C-F_断熱材
  6
Continuous
 62
     7
370
     9
100
AcDbLine
 10
-175.907517769853
 20
591.9890913143436
 30
0.0
 11
-15.01382495592038
 21
591.9890913143436
 31
0.0
  0
LINE
  5
2D8
330
1F
100
AcDbEntity
  8
C-5_建具
  6
Continuous
 62
     7
370
     9
100
AcDbLine
 10
-72.66110801898931
 20
591.9890913143436
 30
0.0
 11
-69.39795321348738
 21
567.2029697799982
 31
0.0
  0
LINE
  5
2D9
330
1F
100
AcDbEntity
  8
C-5_建具
  6
Continuous
 62
     7
370
     9
100
AcDbLine
 10
-72.66110801898931
 20
591.9890913143436
 30
0.0
 11
-75.92426282449124
 21
567.2029697799982
 31
0.0
  0
LINE
  5
2DA
330
1F
100
AcDbEntity
  8
C-5_建具
  6
Continuous
 62
     7
370
     9
100
AcDbLine
 10
-172.9075177698523
 20
591.9890913143436
 30
0.0
 11
-169.6443629643504
 21
567.2029697799982
 31
0.0
  0
LINE
  5
2DB
330
1F
100
AcDbEntity
  8
C-5_建具
  6
Continuous
 62
     7
370
     9
100
AcDbLine
 10
-172.9075177698523
 20
591.9890913143436
 30
0.0
 11
-176.1706725753542
 21
567.2029697799982
 31
0.0
  0
LINE
  5
2DC
330
1F
100
AcDbEntity
  8
C-E_見え係り
  6
Continuous
 62
     6
370
     5
100
AcDbLine
 10
9.486175044075527
 20
441.9890913143436
 30
0.0
 11
44.63617441031788
 21
441.9890913143436
 31
0.0
  0
LINE
  5
2DD
330
1F
100
AcDbEntity
  8
C-E_見え係り
  6
Continuous
 62
     6
370
     5
100
AcDbLine
 10
105.1361744103185
 20
441.9890913143436
 30
0.0
 11
140.286173776562
 21
441.9890913143436
 31
0.0
  0
LINE
  5
2DE
330
1F
100
AcDbEntity
  8
C-E_見え係り
  6
Continuous
 62
     6
370
     5
100
AcDbLine
 10
47.43617441031761
 20
441.9890913143436
 30
0.0
 11
102.3361744103188
 21
441.9890913143436
 31
0.0
  0
LINE
  5
2DF
330
1F
100
AcDbEntity
  8
C-F_断熱材
  6
Continuous
 62
     7
370
     9
100
AcDbLine
 10
-75.66110801898999
 20
441.9890913143436
 30
0.0
 11
-10.51382495592447
 21
441.9890913143436
 31
0.0
  0
LINE
  5
2E0
330
1F
100
AcDbEntity
  8
C-5_建具
  6
Continuous
 62
     7
370
     9
100
AcDbLine
 10
-72.66110801898931
 20
441.9890913143436
 30
0.0
 11
-75.92426282449124
 21
466.775212848689
 31
0.0
  0
LINE
  5
2E1
330
1F
100
AcDbEntity
  8
C-5_建具
  6
Continuous
 62
     7
370
     9
100
AcDbLine
 10
-72.66110801898931
 20
441.9890913143436
 30
0.0
 11
-69.39795321348738
 21
466.775212848689
 31
0.0
  0
LINE
  5
2E2
330
1F
100
AcDbEntity
  8
C-F_断熱材
  6
Continuous
 62
     7
370
     9
100
AcDbLine
 10
-1557.620985832949
 20
591.9890913143436
 30
0.0
 11
-1254.513824955921
 21
591.9890913143436
 31
0.0
  0
LINE
  5
2E3
330
1F
100
AcDbEntity
  8
C-5_建具
  6
Continuous
 62
     7
370
     9
100
AcDbLine
 10
-1554.62098583295
 20
591.9890913143436
 30
0.0
 11
-1557.884140638451
 21
616.775212848689
 31
0.0
  0
LINE
  5
2E4
330
1F
100
AcDbEntity
  8
C-5_建具
  6
Continuous
 62
     7
370
     9
100
AcDbLine
 10
-1554.62098583295
 20
591.9890913143436
 30
0.0
 11
-1551.357831027448
 21
616.775212848689
 31
0.0
  0
LINE
  5
2E5
330
1F
100
AcDbEntity
  8
C-5_建具
  6
Continuous
 62
     7
370
     9
100
AcDbLine
 10
-1554.62098583295
 20
591.9890913143436
 30
0.0
 11
-1551.357831027448
 21
567.2029697799982
 31
0.0
  0
LINE
  5
2E6
330
1F
100
AcDbEntity
  8
C-5_建具
  6
Continuous
 62
     7
370
     9
100
AcDbLine
 10
-1554.62098583295
 20
591.9890913143436
 30
0.0
 11
-1557.884140638451
 21
567.2029697799982
 31
0.0
  0
LINE
  5
2E7
330
1F
100
AcDbEntity
  8
C-8_ハッチ
  6
Continuous
 62
    30
370
     5
100
AcDbLine
 10
1443.509444886385
 20
591.9890913143436
 30
0.0
 11
1443.509444886385
 21
587.4890913143433
 31
0.0
  0
LINE
  5
2E8
330
1F
100
AcDbEntity
  8
C-8_ハッチ
  6
Continuous
 62
    30
370
     5
100
AcDbLine
 10
1583.309443618867
 20
591.9890913143436
 30
0.0
 11
1583.309443618867
 21
587.4890913143433
 31
0.0
  0
LINE
  5
2E9
330
1F
100
AcDbEntity
  8
C-9_記号
  6
Continuous
 62
   211
370
     5
100
AcDbLine
 10
1576.409444252623
 20
591.9890913143436
 30
0.0
 11
1576.409444252623
 21
596.4890913143429
 31
0.0
  0
LINE
  5
2EA
330
1F
100
AcDbEntity
  8
C-9_記号
  6
Continuous
 62
   211
370
     5
100
AcDbLine
 10
1450.409444252624
 20
591.9890913143436
 30
0.0
 11
1450.409444252624
 21
596.4890913143429
 31
0.0
  0
LINE
  5
2EB
330
1F
100
AcDbEntity
  8
C-3_寸法
  6
Continuous
 62
     4
370
     9
100
AcDbLine
 10
1483.159444252624
 20
831.2379196190118
 30
0.0
 11
1483.159444252624
 21
596.4890913143429
 31
0.0
  0
LINE
  5
2EC
330
1F
100
AcDbEntity
  8
C-3_寸法
  6
Continuous
 62
     4
370
     9
100
AcDbLine
 10
1543.659444252624
 20
831.2379196190118
 30
0.0
 11
1543.659444252624
 21
596.4890913143429
 31
0.0
  0
LINE
  5
2ED
330
1F
100
AcDbEntity
  8
C-8_ハッチ
  6
Continuous
 62
    30
370
     5
100
AcDbLine
 10
1443.509444886385
 20
591.9890913143436
 30
0.0
 11
1583.309443618867
 21
591.9890913143436
 31
0.0
  0
LINE
  5
2EE
330
1F
100
AcDbEntity
  8
C-9_記号
  6
Continuous
 62
   211
370
     5
100
AcDbLine
 10
1576.409444252623
 20
591.9890913143436
 30
0.0
 11
1450.409444252624
 21
591.9890913143436
 31
0.0
  0
LINE
  5
2EF
330
1F
100
AcDbEntity
  8
C-9_記号
  6
Continuous
 62
   211
370
     5
100
AcDbLine
 10
1576.409444252623
 20
596.4890913143429
 30
0.0
 11
1450.409444252624
 21
596.4890913143429
 31
0.0
  0
LINE
  5
2F0
330
1F
100
AcDbEntity
  8
C-A_インテリア
  6
Continuous
 62
     2
370
     9
100
AcDbLine
 10
1451.003891164004
 20
596.4890913143429
 30
0.0
 11
1451.003891164004
 21
601.2085346355709
 31
0.0
  0
LINE
  5
2F1
330
1F
100
AcDbEntity
  8
C-A_インテリア
  6
Continuous
 62
     2
370
     9
100
AcDbLine
 10
1454.756668025194
 20
601.2085346355709
 30
0.0
 11
1454.756668025194
 21
596.4890913143429
 31
0.0
  0
LINE
  5
2F2
330
1F
100
AcDbEntity
  8
C-A_インテリア
  6
Continuous
 62
     2
370
     9
100
AcDbLine
 10
1462.262221747577
 20
601.2085346355709
 30
0.0
 11
1462.262221747577
 21
596.4890913143429
 31
0.0
  0
LINE
  5
2F3
330
1F
100
AcDbEntity
  8
C-A_インテリア
  6
Continuous
 62
     2
370
     9
100
AcDbLine
 10
1451.003891164004
 20
596.4890913143429
 30
0.0
 11
1466.014998608767
 21
596.4890913143429
 31
0.0
  0
LINE
  5
2F4
330
1F
100
AcDbEntity
  8
C-A_インテリア
  6
Continuous
 62
     2
370
     9
100
AcDbLine
 10
1466.014998608767
 20
596.4890913143429
 30
0.0
 11
1466.014998608767
 21
601.2085346355709
 31
0.0
  0
LINE
  5
2F5
330
1F
100
AcDbEntity
  8
C-A_インテリア
  6
Continuous
 62
     2
370
     9
100
AcDbLine
 10
1465.009444886385
 20
601.7890915050784
 30
0.0
 11
1466.014998608767
 21
601.2085346355709
 31
0.0
  0
LINE
  5
2F6
330
1F
100
AcDbEntity
  8
C-A_インテリア
  6
Continuous
 62
     2
370
     9
100
AcDbLine
 10
1452.009444886386
 20
601.7890915050784
 30
0.0
 11
1451.003891164004
 21
601.2085346355709
 31
0.0
  0
LINE
  5
2F7
330
1F
100
AcDbEntity
  8
C-A_インテリア
  6
Continuous
 62
     2
370
     9
100
AcDbLine
 10
1452.009444886386
 20
601.7890915050784
 30
0.0
 11
1465.009444886385
 21
601.7890915050784
 31
0.0
  0
ARC
  5
2F8
330
1F
100
AcDbEntity
  8
C-A_インテリア
  6
Continuous
 62
     2
370
     9
100
AcDbCircle
 10
1458.509444886385
 20
589.3696478977474
 30
0.0
 40
12.41944313049316
100
AcDbArc
 50
72.41203308105469
 51
107.5879516601562
  0
ARC
  5
2F9
330
1F
100
AcDbEntity
  8
C-A_インテリア
  6
Continuous
 62
     2
370
     9
100
AcDbCircle
 10
1463.799952202975
 20
597.3719618692669
 30
0.0
 40
4.430092811584473
100
AcDbArc
 50
59.99998474121094
 51
85.61573791503906
  0
ARC
  5
2FA
330
1F
100
AcDbEntity
  8
C-A_インテリア
  6
Continuous
 62
     2
370
     9
100
AcDbCircle
 10
1464.255134278475
 20
598.0899091139113
 30
0.0
 40
3.701016902923584
100
AcDbArc
 50
91.80421447753906
 51
122.5800170898438
  0
ARC
  5
2FB
330
1F
100
AcDbEntity
  8
C-A_インテリア
  6
Continuous
 62
     2
370
     9
100
AcDbCircle
 10
1452.763755494296
 20
598.0899091139113
 30
0.0
 40
3.701016902923584
100
AcDbArc
 50
57.41996765136716
 51
88.19577026367185
  0
ARC
  5
2FC
330
1F
100
AcDbEntity
  8
C-A_インテリア
  6
Continuous
 62
     2
370
     9
100
AcDbCircle
 10
1453.218937569796
 20
597.3719618692669
 30
0.0
 40
4.430092811584473
100
AcDbArc
 50
94.38424682617189
 51
120.0
  0
LINE
  5
2FD
330
1F
100
AcDbEntity
  8
C-A_インテリア
  6
Continuous
 62
     2
370
     9
100
AcDbLine
 10
1575.814997341243
 20
596.4890913143429
 30
0.0
 11
1575.814997341243
 21
601.2085346355709
 31
0.0
  0
LINE
  5
2FE
330
1F
100
AcDbEntity
  8
C-A_インテリア
  6
Continuous
 62
     2
370
     9
100
AcDbLine
 10
1572.062220480053
 20
601.2085346355709
 30
0.0
 11
1572.062220480053
 21
596.4890913143429
 31
0.0
  0
LINE
  5
2FF
330
1F
100
AcDbEntity
  8
C-A_インテリア
  6
Continuous
 62
     2
370
     9
100
AcDbLine
 10
1564.55666675767
 20
601.2085346355709
 30
0.0
 11
1564.55666675767
 21
596.4890913143429
 31
0.0
  0
LINE
  5
300
330
1F
100
AcDbEntity
  8
C-A_インテリア
  6
Continuous
 62
     2
370
     9
100
AcDbLine
 10
1575.814997341243
 20
596.4890913143429
 30
0.0
 11
1560.80388989648
 21
596.4890913143429
 31
0.0
  0
LINE
  5
301
330
1F
100
AcDbEntity
  8
C-A_インテリア
  6
Continuous
 62
     2
370
     9
100
AcDbLine
 10
1560.80388989648
 20
596.4890913143429
 30
0.0
 11
1560.80388989648
 21
601.2085346355709
 31
0.0
  0
LINE
  5
302
330
1F
100
AcDbEntity
  8
C-A_インテリア
  6
Continuous
 62
     2
370
     9
100
AcDbLine
 10
1561.809443618862
 20
601.7890915050784
 30
0.0
 11
1560.80388989648
 21
601.2085346355709
 31
0.0
  0
LINE
  5
303
330
1F
100
AcDbEntity
  8
C-A_インテリア
  6
Continuous
 62
     2
370
     9
100
AcDbLine
 10
1574.809443618861
 20
601.7890915050784
 30
0.0
 11
1575.814997341243
 21
601.2085346355709
 31
0.0
  0
LINE
  5
304
330
1F
100
AcDbEntity
  8
C-A_インテリア
  6
Continuous
 62
     2
370
     9
100
AcDbLine
 10
1574.809443618861
 20
601.7890915050784
 30
0.0
 11
1561.809443618862
 21
601.7890915050784
 31
0.0
  0
ARC
  5
305
330
1F
100
AcDbEntity
  8
C-A_インテリア
  6
Continuous
 62
     2
370
     9
100
AcDbCircle
 10
1568.309443618861
 20
589.3696478977474
 30
0.0
 40
12.41944313049316
100
AcDbArc
 50
72.41204833984375
 51
107.5879669189453
  0
ARC
  5
306
330
1F
100
AcDbEntity
  8
C-A_インテリア
  6
Continuous
 62
     2
370
     9
100
AcDbCircle
 10
1563.018936302272
 20
597.3719618692669
 30
0.0
 40
4.430092811584473
100
AcDbArc
 50
94.38426208496094
 51
120.0000152587891
  0
ARC
  5
307
330
1F
100
AcDbEntity
  8
C-A_インテリア
  6
Continuous
 62
     2
370
     9
100
AcDbCircle
 10
1562.563754226772
 20
598.0899091139113
 30
0.0
 40
3.701016902923584
100
AcDbArc
 50
57.41998291015626
 51
88.19578552246095
  0
ARC
  5
308
330
1F
100
AcDbEntity
  8
C-A_インテリア
  6
Continuous
 62
     2
370
     9
100
AcDbCircle
 10
1574.055133010951
 20
598.0899091139113
 30
0.0
 40
3.701016902923584
100
AcDbArc
 50
91.80422973632817
 51
122.5800323486328
  0
ARC
  5
309
330
1F
100
AcDbEntity
  8
C-A_インテリア
  6
Continuous
 62
     2
370
     9
100
AcDbCircle
 10
1573.599950935451
 20
597.3719618692669
 30
0.0
 40
4.430092811584473
100
AcDbArc
 50
60.00000000000001
 51
85.61575317382814
  0
LINE
  5
30A
330
1F
100
AcDbEntity
  8
C-0_通り芯
  6
JWW_CENTER2
 62
     7
370
     9
100
AcDbLine
 10
1458.509444886385
 20
589.6928624185407
 30
0.0
 11
1458.509444886385
 21
608.3960365475937
 31
0.0
  0
LINE
  5
30B
330
1F
100
AcDbEntity
  8
C-0_通り芯
  6
JWW_CENTER2
 62
     7
370
     9
100
AcDbLine
 10
1568.309443618861
 20
589.6928624185407
 30
0.0
 11
1568.309443618861
 21
608.3960365475937
 31
0.0
  0
LINE
  5
30C
330
1F
100
AcDbEntity
  8
D-2_仕上
  6
Continuous
 62
     3
370
     9
100
AcDbLine
 10
842.6416354235566
 20
833.6531626921011
 30
0.0
 11
842.6416354235566
 21
1027.170693895594
 31
0.0
  0
LINE
  5
30D
330
1F
100
AcDbEntity
  8
D-2_仕上
  6
Continuous
 62
     3
370
     9
100
AcDbLine
 10
1308.641631198496
 20
1027.170693895594
 30
0.0
 11
1308.641631198496
 21
833.6531626921011
 31
0.0
  0
LINE
  5
30E
330
1F
100
AcDbEntity
  8
D-8_ハッチ
  6
Continuous
 62
    30
370
     5
100
AcDbLine
 10
842.6416354235566
 20
1042.170693895595
 30
0.0
 11
842.6416354235566
 21
1027.170693895594
 31
0.0
  0
LINE
  5
30F
330
1F
100
AcDbEntity
  8
D-8_ハッチ
  6
Continuous
 62
    30
370
     5
100
AcDbLine
 10
1308.641631198496
 20
1042.170693895595
 30
0.0
 11
1308.641631198496
 21
1027.170693895594
 31
0.0
  0
LINE
  5
310
330
1F
100
AcDbEntity
  8
D-8_ハッチ
  6
Continuous
 62
    30
370
     5
100
AcDbLine
 10
842.6416354235566
 20
1027.170693895594
 30
0.0
 11
1308.641631198496
 21
1027.170693895594
 31
0.0
  0
TEXT
  5
311
330
1F
100
AcDbEntity
  8
C-5_建具
  6
Continuous
 62
     2
370
     9
100
AcDbText
 10
286.2668489601605
 20
354.9081091659806
 30
0.0
 40
30.48
  1
STK　電気亜鉛めっき＋焼付塗装
 41
1.116379310344827
  7
ＭＳ ゴシック
100
AcDbText
  0
LINE
  5
312
330
1F
100
AcDbEntity
  8
C-5_建具
  6
Continuous
 62
     7
370
     9
100
AcDbLine
 10
-1554.62098583295
 20
591.9890913143436
 30
0.0
 11
-1554.62098583295
 21
11.4887561098946
 31
0.0
  0
TEXT
  5
313
330
1F
100
AcDbEntity
  8
C-5_建具
  6
Continuous
 62
     2
370
   211
100
AcDbText
 10
-1566.260985832949
 20
246.7389237121191
 30
0.0
 40
30.48
  1
580.5
 50
90.0
 41
1.1
  7
ＭＳ ゴシック
100
AcDbText
  0
LINE
  5
314
330
1F
100
AcDbEntity
  8
C-5_建具
  6
Continuous
 62
     7
370
     9
100
AcDbLine
 10
-1554.62098583295
 20
861.4892377933238
 30
0.0
 11
-1554.62098583295
 21
591.9890913143436
 31
0.0
  0
TEXT
  5
315
330
1F
100
AcDbEntity
  8
C-5_建具
  6
Continuous
 62
     2
370
   211
100
AcDbText
 10
-1566.260985832949
 20
671.7391645538337
 30
0.0
 40
30.48
  1
269.5
 50
90.0
 41
1.1
  7
ＭＳ ゴシック
100
AcDbText
  0
LINE
  5
316
330
1F
100
AcDbEntity
  8
C-5_建具
  6
Continuous
 62
     7
370
     9
100
AcDbLine
 10
-172.9075177698523
 20
591.9890913143436
 30
0.0
 11
-172.9075177698523
 21
311.4890913143431
 31
0.0
  0
TEXT
  5
317
330
1F
100
AcDbEntity
  8
C-5_建具
  6
Continuous
 62
     2
370
   211
100
AcDbText
 10
-184.5475177698526
 20
396.7390913143433
 30
0.0
 40
30.48
  1
280.5
 50
90.0
 41
1.1
  7
ＭＳ ゴシック
100
AcDbText
  0
LINE
  5
318
330
1F
100
AcDbEntity
  8
C-5_建具
  6
Continuous
 62
     7
370
     9
100
AcDbLine
 10
-72.66110801898931
 20
591.9890913143436
 30
0.0
 11
-72.66110801898931
 21
441.9890913143436
 31
0.0
  0
TEXT
  5
319
330
1F
100
AcDbEntity
  8
C-5_建具
  6
Continuous
 62
     2
370
   211
100
AcDbText
 10
-84.30110801898954
 20
484.4890913143436
 30
0.0
 40
30.48
  1
150
 50
90.0
 41
1.083333333333333
  7
ＭＳ ゴシック
100
AcDbText
  0
ENDSEC
  0
SECTION
  2
OBJECTS
  0
DICTIONARY
  5
C
330
0
100
AcDbDictionary
281
     1
  3
ACAD_DETAILVIEWSTYLE
350
35F
  3
ACAD_GROUP
350
D
  3
ACAD_LAYOUT
350
1A
  3
ACAD_MATERIAL
350
43
  3
ACAD_MLEADERSTYLE
350
6B
  3
ACAD_MLINESTYLE
350
17
  3
ACAD_PLOTSETTINGS
350
19
  3
ACAD_PLOTSTYLENAME
350
E
  3
ACAD_SCALELIST
350
47
  3
ACAD_SECTIONVIEWSTYLE
350
360
  3
ACAD_TABLESTYLE
350
69
  3
ACAD_VISUALSTYLE
350
2A
  3
ACDB_RECOMPOSE_DATA
350
35C
  3
AcDbVariableDictionary
350
31C
  0
DICTIONARY
  5
31A
330
8
100
AcDbDictionary
280
     1
281
     1
  3
ACAD_XREC_ROUNDTRIP
360
31B
  0
DICTIONARY
  5
35F
102
{ACAD_REACTORS
330
C
102
}
330
C
100
AcDbDictionary
281
     1
  0
DICTIONARY
  5
D
102
{ACAD_REACTORS
330
C
102
}
330
C
100
AcDbDictionary
281
     1
  0
DICTIONARY
  5
1A
102
{ACAD_REACTORS
330
C
102
}
330
C
100
AcDbDictionary
281
     1
  3
Layout1
350
1E
  3
Layout2
350
26
  3
Model
350
22
  0
DICTIONARY
  5
43
102
{ACAD_REACTORS
330
C
102
}
330
C
100
AcDbDictionary
281
     1
  3
ByBlock
350
45
  3
ByLayer
350
44
  3
Global
350
46
  0
DICTIONARY
  5
6B
102
{ACAD_REACTORS
330
C
102
}
330
C
100
AcDbDictionary
281
     1
  3
Standard
350
6C
  0
DICTIONARY
  5
17
102
{ACAD_REACTORS
330
C
102
}
330
C
100
AcDbDictionary
281
     1
  3
Standard
350
18
  0
DICTIONARY
  5
19
102
{ACAD_REACTORS
330
C
102
}
330
C
100
AcDbDictionary
281
     1
  0
ACDBDICTIONARYWDFLT
  5
E
102
{ACAD_REACTORS
330
C
102
}
330
C
100
AcDbDictionary
281
     1
  3
Normal
350
F
100
AcDbDictionaryWithDefault
340
F
  0
DICTIONARY
  5
47
102
{ACAD_REACTORS
330
C
102
}
330
C
100
AcDbDictionary
281
     1
  3
A0
350
48
  3
A1
350
49
  3
A2
350
4A
  3
A3
350
4B
  3
A4
350
4C
  3
A5
350
4D
  3
A6
350
4E
  3
A7
350
4F
  3
A8
350
50
  3
A9
350
51
  3
B0
350
52
  3
B1
350
53
  3
B2
350
54
  3
B3
350
55
  3
B4
350
56
  3
B5
350
57
  3
B6
350
58
  3
B7
350
59
  3
B8
350
5A
  3
B9
350
5B
  3
C0
350
5C
  3
C1
350
5D
  3
C2
350
5E
  3
C3
350
5F
  3
C4
350
60
  3
C5
350
61
  3
C6
350
62
  3
C7
350
63
  3
C8
350
64
  3
C9
350
65
  3
D0
350
66
  3
D1
350
67
  3
D2
350
68
  0
DICTIONARY
  5
360
102
{ACAD_REACTORS
330
C
102
}
330
C
100
AcDbDictionary
281
     1
  0
DICTIONARY
  5
69
102
{ACAD_REACTORS
330
C
102
}
330
C
100
AcDbDictionary
281
     1
  3
Standard
350
6A
  0
DICTIONARY
  5
2A
102
{ACAD_REACTORS
330
C
102
}
330
C
100
AcDbDictionary
281
     1
  3
2dWireframe
350
2F
  3
Basic
350
32
  3
Brighten
350
36
  3
ColorChange
350
3A
  3
Conceptual
350
34
  3
Dim
350
35
  3
EdgeColorOff
350
3D
  3
Facepattern
350
39
  3
Flat
350
2B
  3
FlatWithEdges
350
2C
  3
Gouraud
350
2D
  3
GouraudWithEdges
350
2E
  3
Hidden
350
31
  3
JitterOff
350
3B
  3
Linepattern
350
38
  3
OverhangOff
350
3C
  3
Realistic
350
33
  3
Shaded
350
42
  3
Shaded with edges
350
41
  3
Shades of Gray
350
3E
  3
Sketchy
350
3F
  3
Thicken
350
37
  3
Wireframe
350
30
  3
X-Ray
350
40
  0
XRECORD
  5
35C
102
{ACAD_REACTORS
330
C
102
}
330
C
100
AcDbXrecord
280
     1
 90
        1
330
6A
  0
DICTIONARY
  5
31C
102
{ACAD_REACTORS
330
C
102
}
330
C
100
AcDbDictionary
281
     1
  3
CANNOSCALE
350
31D
  3
CENTEREXE
350
361
  3
CENTERLTYPEFILE
350
362
  3
CMLEADERSTYLE
350
35E
  3
CTABLESTYLE
350
35D
  3
MSLTSCALE
350
31E
  3
XCLIPFRAME
350
31F
  0
XRECORD
  5
31B
102
{ACAD_REACTORS
330
31A
102
}
330
31A
100
AcDbXrecord
280
     1
102
VTR_0.000_0.000_1.000_1.000_VISUALSTYLE
340
2F
102
VTR_0.000_0.000_1.000_1.000_GRIDDISPLAY
 70
     3
102
VTR_0.000_0.000_1.000_1.000_GRIDMAJOR
 70
     5
102
VTR_0.000_0.000_1.000_1.000_DEFAULTLIGHTING
280
     1
102
VTR_0.000_0.000_1.000_1.000_DEFAULTLIGHTINGTYPE
 70
     1
102
VTR_0.000_0.000_1.000_1.000_BRIGHTNESS
141
0.0
102
VTR_0.000_0.000_1.000_1.000_CONTRAST
142
0.0
  0
LAYOUT
  5
1E
102
{ACAD_REACTORS
330
1A
102
}
330
1A
100
AcDbPlotSettings
  1

  2
none_device
  4

  6

 40
0.0
 41
0.0
 42
0.0
 43
0.0
 44
0.0
 45
0.0
 46
0.0
 47
0.0
 48
0.0
 49
0.0
140
0.0
141
0.0
142
1.0
143
1.0
 70
   688
 72
     1
 73
     0
 74
     5
  7

 75
    16
 76
     0
 77
     5
 78
   300
147
1.0
148
0.0
149
0.0
100
AcDbLayout
  1
Layout1
 70
     1
 71
     1
 10
0.0
 20
0.0
 11
420.0
 21
297.0
 12
0.0
 22
0.0
 32
0.0
 14
1.000000000000000E+20
 24
1.000000000000000E+20
 34
1.000000000000000E+20
 15
-1.000000000000000E+20
 25
-1.000000000000000E+20
 35
-1.000000000000000E+20
146
0.0
 13
0.0
 23
0.0
 33
0.0
 16
1.0
 26
0.0
 36
0.0
 17
0.0
 27
1.0
 37
0.0
 76
     0
330
1B
  0
LAYOUT
  5
26
102
{ACAD_REACTORS
330
1A
102
}
330
1A
100
AcDbPlotSettings
  1

  2
none_device
  4

  6

 40
0.0
 41
0.0
 42
0.0
 43
0.0
 44
0.0
 45
0.0
 46
0.0
 47
0.0
 48
0.0
 49
0.0
140
0.0
141
0.0
142
1.0
143
1.0
 70
   688
 72
     1
 73
     0
 74
     5
  7

 75
    16
 76
     0
 77
     5
 78
   300
147
1.0
148
0.0
149
0.0
100
AcDbLayout
  1
Layout2
 70
     1
 71
     2
 10
0.0
 20
0.0
 11
0.0
 21
0.0
 12
0.0
 22
0.0
 32
0.0
 14
0.0
 24
0.0
 34
0.0
 15
0.0
 25
0.0
 35
0.0
146
0.0
 13
0.0
 23
0.0
 33
0.0
 16
1.0
 26
0.0
 36
0.0
 17
0.0
 27
1.0
 37
0.0
 76
     0
330
23
  0
LAYOUT
  5
22
102
{ACAD_REACTORS
330
1A
102
}
330
1A
100
AcDbPlotSettings
  1

  2
none_device
  4
Letter_(8.50_x_11.00_Inches)
  6

 40
6.35
 41
6.35
 42
6.35000508
 43
6.35000508
 44
215.9
 45
279.4
 46
0.0
 47
0.0
 48
0.0
 49
0.0
140
0.0
141
0.0
142
1.0
143
1.0
 70
  1712
 72
     1
 73
     0
 74
     0
  7

 75
     0
 76
     0
 77
     5
 78
   300
147
1.0
148
0.0
149
0.0
100
AcDbLayout
  1
Model
 70
     1
 71
     0
 10
-2100.0
 20
-1485.0
 11
2100.0
 21
1485.0
 12
0.0
 22
0.0
 32
0.0
 14
-2100.0
 24
-1485.0
 34
0.0
 15
2100.0
 25
1485.0
 35
0.0
146
0.0
 13
0.0
 23
0.0
 33
0.0
 16
1.0
 26
0.0
 36
0.0
 17
0.0
 27
1.0
 37
0.0
 76
     0
330
1F
331
29
  0
MATERIAL
  5
45
102
{ACAD_REACTORS
330
43
102
}
102
{ACAD_XDICTIONARY
360
352
102
}
330
43
100
AcDbMaterial
  1
ByBlock
  0
MATERIAL
  5
44
102
{ACAD_REACTORS
330
43
102
}
102
{ACAD_XDICTIONARY
360
350
102
}
330
43
100
AcDbMaterial
  1
ByLayer
  0
MATERIAL
  5
46
102
{ACAD_REACTORS
330
43
102
}
102
{ACAD_XDICTIONARY
360
354
102
}
330
43
100
AcDbMaterial
  1
Global
  0
MLEADERSTYLE
  5
6C
102
{ACAD_REACTORS
330
6B
102
}
102
{ACAD_XDICTIONARY
360
35A
102
}
330
6B
100
AcDbMLeaderStyle
170
     2
171
     1
172
     0
 90
        2
 40
0.0
 41
0.0
173
     1
 91
-1056964608
340
14
 92
       -2
290
     1
 42
2.0
291
     1
 43
8.0
  3
Standard
341
0
 44
4.0
300

342
11
174
     1
178
     6
175
     1
176
     0
 93
-1056964608
 45
4.0
292
     0
297
     0
 46
4.0
343
0
 94
-1056964608
 47
1.0
 49
1.0
140
1.0
293
     1
141
0.0
294
     1
177
     0
142
1.0
295
     0
296
     0
143
3.75
1001
ACAD_MLEADERVER
1070
     2
  0
MLINESTYLE
  5
18
102
{ACAD_REACTORS
330
17
102
}
330
17
100
AcDbMlineStyle
  2
Standard
 70
     0
  3

 62
   256
 51
90.0
 52
90.0
 71
     2
 49
0.5
 62
   256
  6
BYLAYER
 49
-0.5
 62
   256
  6
BYLAYER
  0
ACDBPLACEHOLDER
  5
F
102
{ACAD_REACTORS
330
E
102
}
330
E
  0
SCALE
  5
48
102
{ACAD_REACTORS
330
47
102
}
330
47
100
AcDbScale
 70
     0
300
1:1
140
1.0
141
1.0
290
     1
  0
SCALE
  5
49
102
{ACAD_REACTORS
330
47
102
}
330
47
100
AcDbScale
 70
     0
300
1:2
140
1.0
141
2.0
290
     0
  0
SCALE
  5
4A
102
{ACAD_REACTORS
330
47
102
}
330
47
100
AcDbScale
 70
     0
300
1:4
140
1.0
141
4.0
290
     0
  0
SCALE
  5
4B
102
{ACAD_REACTORS
330
47
102
}
330
47
100
AcDbScale
 70
     0
300
1:5
140
1.0
141
5.0
290
     0
  0
SCALE
  5
4C
102
{ACAD_REACTORS
330
47
102
}
330
47
100
AcDbScale
 70
     0
300
1:8
140
1.0
141
8.0
290
     0
  0
SCALE
  5
4D
102
{ACAD_REACTORS
330
47
102
}
330
47
100
AcDbScale
 70
     0
300
1:10
140
1.0
141
10.0
290
     0
  0
SCALE
  5
4E
102
{ACAD_REACTORS
330
47
102
}
330
47
100
AcDbScale
 70
     0
300
1:16
140
1.0
141
16.0
290
     0
  0
SCALE
  5
4F
102
{ACAD_REACTORS
330
47
102
}
330
47
100
AcDbScale
 70
     0
300
1:20
140
1.0
141
20.0
290
     0
  0
SCALE
  5
50
102
{ACAD_REACTORS
330
47
102
}
330
47
100
AcDbScale
 70
     0
300
1:30
140
1.0
141
30.0
290
     0
  0
SCALE
  5
51
102
{ACAD_REACTORS
330
47
102
}
330
47
100
AcDbScale
 70
     0
300
1:40
140
1.0
141
40.0
290
     0
  0
SCALE
  5
52
102
{ACAD_REACTORS
330
47
102
}
330
47
100
AcDbScale
 70
     0
300
1:50
140
1.0
141
50.0
290
     0
  0
SCALE
  5
53
102
{ACAD_REACTORS
330
47
102
}
330
47
100
AcDbScale
 70
     0
300
1:100
140
1.0
141
100.0
290
     0
  0
SCALE
  5
54
102
{ACAD_REACTORS
330
47
102
}
330
47
100
AcDbScale
 70
     0
300
2:1
140
2.0
141
1.0
290
     0
  0
SCALE
  5
55
102
{ACAD_REACTORS
330
47
102
}
330
47
100
AcDbScale
 70
     0
300
4:1
140
4.0
141
1.0
290
     0
  0
SCALE
  5
56
102
{ACAD_REACTORS
330
47
102
}
330
47
100
AcDbScale
 70
     0
300
8:1
140
8.0
141
1.0
290
     0
  0
SCALE
  5
57
102
{ACAD_REACTORS
330
47
102
}
330
47
100
AcDbScale
 70
     0
300
10:1
140
10.0
141
1.0
290
     0
  0
SCALE
  5
58
102
{ACAD_REACTORS
330
47
102
}
330
47
100
AcDbScale
 70
     0
300
100:1
140
100.0
141
1.0
290
     0
  0
SCALE
  5
59
102
{ACAD_REACTORS
330
47
102
}
330
47
100
AcDbScale
 70
     0
300
1/128" = 1'-0"
140
0.0078125
141
12.0
290
     0
  0
SCALE
  5
5A
102
{ACAD_REACTORS
330
47
102
}
330
47
100
AcDbScale
 70
     0
300
1/64" = 1'-0"
140
0.015625
141
12.0
290
     0
  0
SCALE
  5
5B
102
{ACAD_REACTORS
330
47
102
}
330
47
100
AcDbScale
 70
     0
300
1/32" = 1'-0"
140
0.03125
141
12.0
290
     0
  0
SCALE
  5
5C
102
{ACAD_REACTORS
330
47
102
}
330
47
100
AcDbScale
 70
     0
300
1/16" = 1'-0"
140
0.0625
141
12.0
290
     0
  0
SCALE
  5
5D
102
{ACAD_REACTORS
330
47
102
}
330
47
100
AcDbScale
 70
     0
300
3/32" = 1'-0"
140
0.09375
141
12.0
290
     0
  0
SCALE
  5
5E
102
{ACAD_REACTORS
330
47
102
}
330
47
100
AcDbScale
 70
     0
300
1/8" = 1'-0"
140
0.125
141
12.0
290
     0
  0
SCALE
  5
5F
102
{ACAD_REACTORS
330
47
102
}
330
47
100
AcDbScale
 70
     0
300
3/16" = 1'-0"
140
0.1875
141
12.0
290
     0
  0
SCALE
  5
60
102
{ACAD_REACTORS
330
47
102
}
330
47
100
AcDbScale
 70
     0
300
1/4" = 1'-0"
140
0.25
141
12.0
290
     0
  0
SCALE
  5
61
102
{ACAD_REACTORS
330
47
102
}
330
47
100
AcDbScale
 70
     0
300
3/8" = 1'-0"
140
0.375
141
12.0
290
     0
  0
SCALE
  5
62
102
{ACAD_REACTORS
330
47
102
}
330
47
100
AcDbScale
 70
     0
300
1/2" = 1'-0"
140
0.5
141
12.0
290
     0
  0
SCALE
  5
63
102
{ACAD_REACTORS
330
47
102
}
330
47
100
AcDbScale
 70
     0
300
3/4" = 1'-0"
140
0.75
141
12.0
290
     0
  0
SCALE
  5
64
102
{ACAD_REACTORS
330
47
102
}
330
47
100
AcDbScale
 70
     0
300
1" = 1'-0"
140
1.0
141
12.0
290
     0
  0
SCALE
  5
65
102
{ACAD_REACTORS
330
47
102
}
330
47
100
AcDbScale
 70
     0
300
1-1/2" = 1'-0"
140
1.5
141
12.0
290
     0
  0
SCALE
  5
66
102
{ACAD_REACTORS
330
47
102
}
330
47
100
AcDbScale
 70
     0
300
3" = 1'-0"
140
3.0
141
12.0
290
     0
  0
SCALE
  5
67
102
{ACAD_REACTORS
330
47
102
}
330
47
100
AcDbScale
 70
     0
300
6" = 1'-0"
140
6.0
141
12.0
290
     0
  0
SCALE
  5
68
102
{ACAD_REACTORS
330
47
102
}
330
47
100
AcDbScale
 70
     0
300
1'-0" = 1'-0"
140
12.0
141
12.0
290
     0
  0
TABLESTYLE
  5
6A
102
{ACAD_REACTORS
330
69
102
}
102
{ACAD_XDICTIONARY
360
356
102
}
330
69
100
AcDbTableStyle
  3
Standard
 70
     0
 71
     0
 40
0.06
 41
0.06
280
     0
281
     0
  7
Standard
140
4.5
170
     2
 62
     0
 63
   257
283
     0
274
    -2
284
     1
 64
     0
275
    -2
285
     1
 65
     0
276
    -2
286
     1
 66
     0
277
    -2
287
     1
 67
     0
278
    -2
288
     1
 68
     0
279
    -2
289
     1
 69
     0
  7
Standard
140
6.0
170
     5
 62
     0
 63
   257
283
     0
274
    -2
284
     1
 64
     0
275
    -2
285
     1
 65
     0
276
    -2
286
     1
 66
     0
277
    -2
287
     1
 67
     0
278
    -2
288
     1
 68
     0
279
    -2
289
     1
 69
     0
  7
Standard
140
4.5
170
     5
 62
     0
 63
   257
283
     0
274
    -2
284
     1
 64
     0
275
    -2
285
     1
 65
     0
276
    -2
286
     1
 66
     0
277
    -2
287
     1
 67
     0
278
    -2
288
     1
 68
     0
279
    -2
289
     1
 69
     0
  0
VISUALSTYLE
  5
2F
102
{ACAD_REACTORS
330
2A
102
}
102
{ACAD_XDICTIONARY
360
328
102
}
330
2A
100
AcDbVisualStyle
  2
2dWireframe
 70
     4
 71
     0
 72
     2
 73
     0
 90
        0
 40
0.6
 41
30.0
 62
     5
 63
     7
421
 16777215
 74
     1
 91
        4
 64
     7
 65
   257
 75
     1
175
     1
 42
1.0
 92
        0
 66
   257
 43
1.0
 76
     1
 77
     6
 78
     2
 67
     7
 79
     5
170
     0
171
     0
290
     0
174
     0
 93
        1
 44
0.0
173
     0
291
     0
 45
0.0
1001
ACAD
1000
AcDbSavedByObjectVersion
1070
     0
  0
VISUALSTYLE
  5
32
102
{ACAD_REACTORS
330
2A
102
}
102
{ACAD_XDICTIONARY
360
32E
102
}
330
2A
100
AcDbVisualStyle
  2
Basic
 70
     7
 71
     1
 72
     0
 73
     1
 90
        0
 40
0.6
 41
30.0
 62
     5
 63
     7
421
 16777215
 74
     0
 91
        4
 64
     7
 65
   257
 75
     1
175
     1
 42
1.0
 92
        8
 66
     7
 43
1.0
 76
     1
 77
     6
 78
     2
 67
     7
 79
     5
170
     0
171
     0
290
     0
174
     0
 93
        1
 44
0.0
173
     0
291
     1
 45
0.0
1001
ACAD
1000
AcDbSavedByObjectVersion
1070
     0
  0
VISUALSTYLE
  5
36
102
{ACAD_REACTORS
330
2A
102
}
102
{ACAD_XDICTIONARY
360
336
102
}
330
2A
100
AcDbVisualStyle
  2
Brighten
 70
    12
 71
     2
 72
     2
 73
     0
 90
        0
 40
0.6
 41
30.0
 62
     5
 63
     7
421
 16777215
 74
     1
 91
        4
 64
     7
 65
   257
 75
     1
175
     1
 42
1.0
 92
        8
 66
     7
 43
1.0
 76
     1
 77
     6
 78
     2
 67
     7
 79
     5
170
     0
171
     0
290
     0
174
     0
 93
        1
 44
50.0
173
     0
291
     1
 45
0.0
1001
ACAD
1000
AcDbSavedByObjectVersion
1070
     0
  0
VISUALSTYLE
  5
3A
102
{ACAD_REACTORS
330
2A
102
}
102
{ACAD_XDICTIONARY
360
33E
102
}
330
2A
100
AcDbVisualStyle
  2
ColorChange
 70
    16
 71
     2
 72
     2
 73
     3
 90
        0
 40
0.6
 41
30.0
 62
     5
 63
     8
421
  8421504
 74
     1
 91
        4
 64
     7
 65
   257
 75
     1
175
     1
 42
1.0
 92
        8
 66
     8
424
  8421504
 43
1.0
 76
     1
 77
     6
 78
     2
 67
     7
 79
     5
170
     0
171
     0
290
     0
174
     0
 93
        1
 44
0.0
173
     0
291
     1
 45
0.0
1001
ACAD
1000
AcDbSavedByObjectVersion
1070
     0
  0
VISUALSTYLE
  5
34
102
{ACAD_REACTORS
330
2A
102
}
102
{ACAD_XDICTIONARY
360
332
102
}
330
2A
100
AcDbVisualStyle
  2
Conceptual
 70
     9
 71
     3
 72
     2
 73
     0
 90
        0
 40
0.6
 41
30.0
 62
     5
 63
     7
421
 16777215
 74
     2
 91
        2
 64
     7
 65
   257
 75
     1
175
     1
 42
179.0
 92
        8
 66
     7
 43
1.0
 76
     1
 77
     6
 78
     2
 67
     7
 79
     3
170
     0
171
     0
290
     0
174
     0
 93
        1
 44
0.0
173
     0
291
     0
 45
0.0
1001
ACAD
1000
AcDbSavedByObjectVersion
1070
     0
  0
VISUALSTYLE
  5
35
102
{ACAD_REACTORS
330
2A
102
}
102
{ACAD_XDICTIONARY
360
334
102
}
330
2A
100
AcDbVisualStyle
  2
Dim
 70
    11
 71
     2
 72
     2
 73
     0
 90
        0
 40
0.6
 41
30.0
 62
     5
 63
     7
421
 16777215
 74
     1
 91
        4
 64
     7
 65
   257
 75
     1
175
     1
 42
1.0
 92
        8
 66
     7
 43
1.0
 76
     1
 77
     6
 78
     2
 67
     7
 79
     5
170
     0
171
     0
290
     0
174
     0
 93
        1
 44
-50.0
173
     0
291
     1
 45
0.0
1001
ACAD
1000
AcDbSavedByObjectVersion
1070
     0
  0
VISUALSTYLE
  5
3D
102
{ACAD_REACTORS
330
2A
102
}
102
{ACAD_XDICTIONARY
360
344
102
}
330
2A
100
AcDbVisualStyle
  2
EdgeColorOff
 70
    22
 71
     2
 72
     2
 73
     0
 90
        0
 40
0.6
 41
30.0
 62
     5
 63
     7
421
 16777215
 74
     1
 91
        4
 64
     7
 65
   257
 75
     1
175
     1
 42
1.0
 92
        8
 66
     7
 43
1.0
 76
     1
 77
     6
 78
     2
 67
     7
 79
     5
170
     0
171
     0
290
     0
174
     0
 93
        1
 44
0.0
173
     0
291
     1
 45
0.0
1001
ACAD
1000
AcDbSavedByObjectVersion
1070
     0
  0
VISUALSTYLE
  5
39
102
{ACAD_REACTORS
330
2A
102
}
102
{ACAD_XDICTIONARY
360
33C
102
}
330
2A
100
AcDbVisualStyle
  2
Facepattern
 70
    15
 71
     2
 72
     2
 73
     0
 90
        0
 40
0.6
 41
30.0
 62
     5
 63
     7
421
 16777215
 74
     1
 91
        4
 64
     7
 65
   257
 75
     1
175
     1
 42
1.0
 92
        8
 66
     7
 43
1.0
 76
     1
 77
     6
 78
     2
 67
     7
 79
     5
170
     0
171
     0
290
     0
174
     0
 93
        1
 44
0.0
173
     0
291
     1
 45
0.0
1001
ACAD
1000
AcDbSavedByObjectVersion
1070
     0
  0
VISUALSTYLE
  5
2B
102
{ACAD_REACTORS
330
2A
102
}
102
{ACAD_XDICTIONARY
360
320
102
}
330
2A
100
AcDbVisualStyle
  2
Flat
 70
     0
 71
     2
 72
     1
 73
     1
 90
        2
 40
0.6
 41
30.0
 62
     5
 63
     7
421
 16777215
 74
     0
 91
        0
 64
     7
 65
   257
 75
     1
175
     1
 42
1.0
 92
        8
 66
     7
 43
1.0
 76
     1
 77
     6
 78
     2
 67
     7
 79
     5
170
     0
171
     0
290
     0
174
     0
 93
       13
 44
0.0
173
     0
291
     1
 45
0.0
1001
ACAD
1000
AcDbSavedByObjectVersion
1070
     0
  0
VISUALSTYLE
  5
2C
102
{ACAD_REACTORS
330
2A
102
}
102
{ACAD_XDICTIONARY
360
322
102
}
330
2A
100
AcDbVisualStyle
  2
FlatWithEdges
 70
     1
 71
     2
 72
     1
 73
     1
 90
        2
 40
0.6
 41
30.0
 62
     5
 63
     7
421
 16777215
 74
     1
 91
        0
 64
     7
 65
   257
 75
     1
175
     1
 42
1.0
 92
        0
 66
   257
 43
1.0
 76
     1
 77
     6
 78
     2
 67
     7
 79
     5
170
     0
171
     0
290
     0
174
     0
 93
       13
 44
0.0
173
     0
291
     1
 45
0.0
1001
ACAD
1000
AcDbSavedByObjectVersion
1070
     0
  0
VISUALSTYLE
  5
2D
102
{ACAD_REACTORS
330
2A
102
}
102
{ACAD_XDICTIONARY
360
324
102
}
330
2A
100
AcDbVisualStyle
  2
Gouraud
 70
     2
 71
     2
 72
     2
 73
     1
 90
        2
 40
0.6
 41
30.0
 62
     5
 63
     7
421
 16777215
 74
     0
 91
        0
 64
     7
 65
   257
 75
     1
175
     1
 42
1.0
 92
        0
 66
     7
 43
1.0
 76
     1
 77
     6
 78
     2
 67
     7
 79
     5
170
     0
171
     0
290
     0
174
     0
 93
       13
 44
0.0
173
     0
291
     1
 45
0.0
1001
ACAD
1000
AcDbSavedByObjectVersion
1070
     0
  0
VISUALSTYLE
  5
2E
102
{ACAD_REACTORS
330
2A
102
}
102
{ACAD_XDICTIONARY
360
326
102
}
330
2A
100
AcDbVisualStyle
  2
GouraudWithEdges
 70
     3
 71
     2
 72
     2
 73
     1
 90
        2
 40
0.6
 41
30.0
 62
     5
 63
     7
421
 16777215
 74
     1
 91
        0
 64
     7
 65
   257
 75
     1
175
     1
 42
1.0
 92
        0
 66
   257
 43
1.0
 76
     1
 77
     6
 78
     2
 67
     7
 79
     5
170
     0
171
     0
290
     0
174
     0
 93
       13
 44
0.0
173
     0
291
     1
 45
0.0
1001
ACAD
1000
AcDbSavedByObjectVersion
1070
     0
  0
VISUALSTYLE
  5
31
102
{ACAD_REACTORS
330
2A
102
}
102
{ACAD_XDICTIONARY
360
32C
102
}
330
2A
100
AcDbVisualStyle
  2
Hidden
 70
     6
 71
     1
 72
     2
 73
     2
 90
        0
 40
0.6
 41
30.0
 62
     5
 63
     7
421
 16777215
 74
     2
 91
        2
 64
     7
 65
   257
 75
     2
175
     1
 42
40.0
 92
        0
 66
   257
 43
1.0
 76
     1
 77
     6
 78
     2
 67
     7
 79
     3
170
     0
171
     0
290
     0
174
     0
 93
        1
 44
0.0
173
     0
291
     0
 45
0.0
1001
ACAD
1000
AcDbSavedByObjectVersion
1070
     0
  0
VISUALSTYLE
  5
3B
102
{ACAD_REACTORS
330
2A
102
}
102
{ACAD_XDICTIONARY
360
340
102
}
330
2A
100
AcDbVisualStyle
  2
JitterOff
 70
    20
 71
     2
 72
     2
 73
     0
 90
        0
 40
0.6
 41
30.0
 62
     5
 63
     7
421
 16777215
 74
     1
 91
        4
 64
     7
 65
   257
 75
     1
175
     1
 42
1.0
 92
       10
 66
     7
 43
1.0
 76
     1
 77
     6
 78
     2
 67
     7
 79
     5
170
     0
171
     0
290
     0
174
     0
 93
        1
 44
0.0
173
     0
291
     1
 45
0.0
1001
ACAD
1000
AcDbSavedByObjectVersion
1070
     0
  0
VISUALSTYLE
  5
38
102
{ACAD_REACTORS
330
2A
102
}
102
{ACAD_XDICTIONARY
360
33A
102
}
330
2A
100
AcDbVisualStyle
  2
Linepattern
 70
    14
 71
     2
 72
     2
 73
     0
 90
        0
 40
0.6
 41
30.0
 62
     5
 63
     7
421
 16777215
 74
     1
 91
        4
 64
     7
 65
   257
 75
     7
175
     7
 42
1.0
 92
        8
 66
     7
 43
1.0
 76
     1
 77
     6
 78
     2
 67
     7
 79
     5
170
     0
171
     0
290
     0
174
     0
 93
        1
 44
0.0
173
     0
291
     1
 45
0.0
1001
ACAD
1000
AcDbSavedByObjectVersion
1070
     0
  0
VISUALSTYLE
  5
3C
102
{ACAD_REACTORS
330
2A
102
}
102
{ACAD_XDICTIONARY
360
342
102
}
330
2A
100
AcDbVisualStyle
  2
OverhangOff
 70
    21
 71
     2
 72
     2
 73
     0
 90
        0
 40
0.6
 41
30.0
 62
     5
 63
     7
421
 16777215
 74
     1
 91
        4
 64
     7
 65
   257
 75
     1
175
     1
 42
1.0
 92
        9
 66
     7
 43
1.0
 76
     1
 77
     6
 78
     2
 67
     7
 79
     5
170
     0
171
     0
290
     0
174
     0
 93
        1
 44
0.0
173
     0
291
     1
 45
0.0
1001
ACAD
1000
AcDbSavedByObjectVersion
1070
     0
  0
VISUALSTYLE
  5
33
102
{ACAD_REACTORS
330
2A
102
}
102
{ACAD_XDICTIONARY
360
330
102
}
330
2A
100
AcDbVisualStyle
  2
Realistic
 70
     8
 71
     2
 72
     3
 73
     0
 90
        2
 40
0.6
 41
30.0
 62
     5
 63
     7
421
 16777215
 74
     0
 91
        0
 64
     7
 65
   257
 75
     1
175
     1
 42
1.0
 92
        8
 66
   257
 43
1.0
 76
     1
 77
     6
 78
     2
 67
     7
 79
     3
170
     0
171
     0
290
     0
174
     0
 93
       13
 44
0.0
173
     0
291
     0
 45
0.0
1001
ACAD
1000
AcDbSavedByObjectVersion
1070
     0
  0
VISUALSTYLE
  5
42
102
{ACAD_REACTORS
330
2A
102
}
102
{ACAD_XDICTIONARY
360
34E
102
}
330
2A
100
AcDbVisualStyle
  2
Shaded
 70
    27
 71
     2
 72
     2
 73
     1
 90
        2
 40
0.6
 41
30.0
 62
     5
 63
     7
421
 16777215
 74
     0
 91
        4
 64
     7
 65
   257
 75
     1
175
     1
 42
1.0
 92
        8
 66
   257
 43
1.0
 76
     1
 77
     6
 78
     2
 67
     8
425
  7895160
 79
     3
170
     0
171
     0
290
     0
174
     0
 93
        5
 44
0.0
173
     0
291
     0
 45
0.0
1001
ACAD
1000
AcDbSavedByObjectVersion
1070
     0
  0
VISUALSTYLE
  5
41
102
{ACAD_REACTORS
330
2A
102
}
102
{ACAD_XDICTIONARY
360
34C
102
}
330
2A
100
AcDbVisualStyle
  2
Shaded with edges
 70
    26
 71
     2
 72
     2
 73
     1
 90
        2
 40
0.6
 41
30.0
 62
     5
 63
     7
421
 16777215
 74
     1
 91
       10
 64
     7
 65
   257
 75
     2
175
     1
 42
1.0
 92
        8
 66
   257
 43
1.0
 76
     1
 77
     6
 78
     2
 67
     7
 79
     3
170
     0
171
     0
290
     0
174
     0
 93
        5
 44
0.0
173
     0
291
     0
 45
0.0
1001
ACAD
1000
AcDbSavedByObjectVersion
1070
     0
  0
VISUALSTYLE
  5
3E
102
{ACAD_REACTORS
330
2A
102
}
102
{ACAD_XDICTIONARY
360
346
102
}
330
2A
100
AcDbVisualStyle
  2
Shades of Gray
 70
    23
 71
     2
 72
     2
 73
     3
 90
        0
 40
0.6
 41
30.0
 62
     5
 63
     7
421
 16777215
 74
     2
 91
        2
 64
     7
 65
     7
 75
     1
175
     1
 42
40.0
 92
        8
 66
     7
 43
1.0
 76
     1
 77
     6
 78
     2
 67
     7
 79
     3
170
     0
171
     0
290
     0
174
     0
 93
        1
 44
0.0
173
     0
291
     0
 45
0.0
1001
ACAD
1000
AcDbSavedByObjectVersion
1070
     0
  0
VISUALSTYLE
  5
3F
102
{ACAD_REACTORS
330
2A
102
}
102
{ACAD_XDICTIONARY
360
348
102
}
330
2A
100
AcDbVisualStyle
  2
Sketchy
 70
    24
 71
     1
 72
     2
 73
     2
 90
        0
 40
0.6
 41
30.0
 62
     5
 63
     7
421
 16777215
 74
     2
 91
        2
 64
     7
 65
     7
 75
     1
175
     1
 42
40.0
 92
       11
 66
     7
 43
1.0
 76
     1
 77
     6
 78
     2
 67
     7
 79
     6
170
     0
171
     0
290
     0
174
     0
 93
        1
 44
0.0
173
     0
291
     0
 45
0.0
1001
ACAD
1000
AcDbSavedByObjectVersion
1070
     0
  0
VISUALSTYLE
  5
37
102
{ACAD_REACTORS
330
2A
102
}
102
{ACAD_XDICTIONARY
360
338
102
}
330
2A
100
AcDbVisualStyle
  2
Thicken
 70
    13
 71
     2
 72
     2
 73
     0
 90
        0
 40
0.6
 41
30.0
 62
     5
 63
     7
421
 16777215
 74
     1
 91
        4
 64
     7
 65
   257
 75
     1
175
     1
 42
1.0
 92
       12
 66
     7
 43
1.0
 76
     1
 77
     6
 78
     2
 67
     7
 79
     5
170
     0
171
     0
290
     0
174
     0
 93
        1
 44
0.0
173
     0
291
     1
 45
0.0
1001
ACAD
1000
AcDbSavedByObjectVersion
1070
     0
  0
VISUALSTYLE
  5
30
102
{ACAD_REACTORS
330
2A
102
}
102
{ACAD_XDICTIONARY
360
32A
102
}
330
2A
100
AcDbVisualStyle
  2
Wireframe
 70
     5
 71
     0
 72
     2
 73
     0
 90
        0
 40
0.6
 41
30.0
 62
     5
 63
     7
421
 16777215
 74
     1
 91
        4
 64
     7
 65
   257
 75
     1
175
     1
 42
1.0
 92
        0
 66
   257
 43
1.0
 76
     1
 77
     6
 78
     2
 67
     7
 79
     3
170
     0
171
     0
290
     0
174
     0
 93
        1
 44
0.0
173
     0
291
     0
 45
0.0
1001
ACAD
1000
AcDbSavedByObjectVersion
1070
     0
  0
VISUALSTYLE
  5
40
102
{ACAD_REACTORS
330
2A
102
}
102
{ACAD_XDICTIONARY
360
34A
102
}
330
2A
100
AcDbVisualStyle
  2
X-Ray
 70
    25
 71
     2
 72
     2
 73
     1
 90
        1
 40
0.5
 41
30.0
 62
     5
 63
     7
421
 16777215
 74
     1
 91
        0
 64
     7
 65
   257
 75
     1
175
     1
 42
1.0
 92
        8
 66
     7
 43
1.0
 76
     1
 77
     6
 78
     2
 67
     7
 79
     3
170
     0
171
     0
290
     0
174
     0
 93
       13
 44
0.0
173
     0
291
     0
 45
0.0
1001
ACAD
1000
AcDbSavedByObjectVersion
1070
     0
  0
DICTIONARYVAR
  5
31D
102
{ACAD_REACTORS
330
31C
102
}
330
31C
100
DictionaryVariables
280
     0
  1
1:1
  0
DICTIONARYVAR
  5
361
102
{ACAD_REACTORS
330
31C
102
}
330
31C
100
DictionaryVariables
280
     0
  1
3.500000
  0
DICTIONARYVAR
  5
362
102
{ACAD_REACTORS
330
31C
102
}
330
31C
100
DictionaryVariables
280
     0
  1
acadiso.lin
  0
DICTIONARYVAR
  5
35E
102
{ACAD_REACTORS
330
31C
102
}
330
31C
100
DictionaryVariables
280
     0
  1
Standard
  0
DICTIONARYVAR
  5
35D
102
{ACAD_REACTORS
330
31C
102
}
330
31C
100
DictionaryVariables
280
     0
  1
Standard
  0
DICTIONARYVAR
  5
31E
102
{ACAD_REACTORS
330
31C
102
}
330
31C
100
DictionaryVariables
280
     0
  1
1
  0
DICTIONARYVAR
  5
31F
102
{ACAD_REACTORS
330
31C
102
}
330
31C
100
DictionaryVariables
280
     0
  1
2
  0
DICTIONARY
  5
352
330
45
100
AcDbDictionary
280
     1
281
     1
  3
ACAD_XREC_ROUNDTRIP
360
353
  0
DICTIONARY
  5
350
330
44
100
AcDbDictionary
280
     1
281
     1
  3
ACAD_XREC_ROUNDTRIP
360
351
  0
DICTIONARY
  5
354
330
46
100
AcDbDictionary
280
     1
281
     1
  3
ACAD_XREC_ROUNDTRIP
360
355
  0
DICTIONARY
  5
35A
330
6C
100
AcDbDictionary
280
     1
281
     1
  3
ACAD_XREC_ROUNDTRIP
360
35B
  0
DICTIONARY
  5
356
330
6A
100
AcDbDictionary
280
     1
281
     1
  3
ACAD_ROUNDTRIP_2008_TABLESTYLE_CELLSTYLEMAP
360
358
  3
ACAD_XREC_ROUNDTRIP
360
357
  0
DICTIONARY
  5
328
330
2F
100
AcDbDictionary
280
     1
281
     1
  3
ACAD_XREC_ROUNDTRIP
360
329
  0
DICTIONARY
  5
32E
330
32
100
AcDbDictionary
280
     1
281
     1
  3
ACAD_XREC_ROUNDTRIP
360
32F
  0
DICTIONARY
  5
336
330
36
100
AcDbDictionary
280
     1
281
     1
  3
ACAD_XREC_ROUNDTRIP
360
337
  0
DICTIONARY
  5
33E
330
3A
100
AcDbDictionary
280
     1
281
     1
  3
ACAD_XREC_ROUNDTRIP
360
33F
  0
DICTIONARY
  5
332
330
34
100
AcDbDictionary
280
     1
281
     1
  3
ACAD_XREC_ROUNDTRIP
360
333
  0
DICTIONARY
  5
334
330
35
100
AcDbDictionary
280
     1
281
     1
  3
ACAD_XREC_ROUNDTRIP
360
335
  0
DICTIONARY
  5
344
330
3D
100
AcDbDictionary
280
     1
281
     1
  3
ACAD_XREC_ROUNDTRIP
360
345
  0
DICTIONARY
  5
33C
330
39
100
AcDbDictionary
280
     1
281
     1
  3
ACAD_XREC_ROUNDTRIP
360
33D
  0
DICTIONARY
  5
320
330
2B
100
AcDbDictionary
280
     1
281
     1
  3
ACAD_XREC_ROUNDTRIP
360
321
  0
DICTIONARY
  5
322
330
2C
100
AcDbDictionary
280
     1
281
     1
  3
ACAD_XREC_ROUNDTRIP
360
323
  0
DICTIONARY
  5
324
330
2D
100
AcDbDictionary
280
     1
281
     1
  3
ACAD_XREC_ROUNDTRIP
360
325
  0
DICTIONARY
  5
326
330
2E
100
AcDbDictionary
280
     1
281
     1
  3
ACAD_XREC_ROUNDTRIP
360
327
  0
DICTIONARY
  5
32C
330
31
100
AcDbDictionary
280
     1
281
     1
  3
ACAD_XREC_ROUNDTRIP
360
32D
  0
DICTIONARY
  5
340
330
3B
100
AcDbDictionary
280
     1
281
     1
  3
ACAD_XREC_ROUNDTRIP
360
341
  0
DICTIONARY
  5
33A
330
38
100
AcDbDictionary
280
     1
281
     1
  3
ACAD_XREC_ROUNDTRIP
360
33B
  0
DICTIONARY
  5
342
330
3C
100
AcDbDictionary
280
     1
281
     1
  3
ACAD_XREC_ROUNDTRIP
360
343
  0
DICTIONARY
  5
330
330
33
100
AcDbDictionary
280
     1
281
     1
  3
ACAD_XREC_ROUNDTRIP
360
331
  0
DICTIONARY
  5
34E
330
42
100
AcDbDictionary
280
     1
281
     1
  3
ACAD_XREC_ROUNDTRIP
360
34F
  0
DICTIONARY
  5
34C
330
41
100
AcDbDictionary
280
     1
281
     1
  3
ACAD_XREC_ROUNDTRIP
360
34D
  0
DICTIONARY
  5
346
330
3E
100
AcDbDictionary
280
     1
281
     1
  3
ACAD_XREC_ROUNDTRIP
360
347
  0
DICTIONARY
  5
348
330
3F
100
AcDbDictionary
280
     1
281
     1
  3
ACAD_XREC_ROUNDTRIP
360
349
  0
DICTIONARY
  5
338
330
37
100
AcDbDictionary
280
     1
281
     1
  3
ACAD_XREC_ROUNDTRIP
360
339
  0
DICTIONARY
  5
32A
330
30
100
AcDbDictionary
280
     1
281
     1
  3
ACAD_XREC_ROUNDTRIP
360
32B
  0
DICTIONARY
  5
34A
330
40
100
AcDbDictionary
280
     1
281
     1
  3
ACAD_XREC_ROUNDTRIP
360
34B
  0
XRECORD
  5
353
102
{ACAD_REACTORS
330
352
102
}
330
352
100
AcDbXrecord
280
     1
102
MATERIAL
148
0.0
149
0.0
149
0.0
 93
        0
 94
      127
282
     0
 72
     1
 77
     1
171
     1
175
     1
179
     1
273
     0
  0
XRECORD
  5
351
102
{ACAD_REACTORS
330
350
102
}
330
350
100
AcDbXrecord
280
     1
102
MATERIAL
148
0.0
149
0.0
149
0.0
 93
        0
 94
      127
282
     0
 72
     1
 77
     1
171
     1
175
     1
179
     1
273
     0
  0
XRECORD
  5
355
102
{ACAD_REACTORS
330
354
102
}
330
354
100
AcDbXrecord
280
     1
102
MATERIAL
148
0.0
149
0.0
149
0.0
 93
        0
 94
      127
282
     0
 72
     1
 77
     1
171
     1
175
     1
179
     1
273
     0
  0
XRECORD
  5
35B
102
{ACAD_REACTORS
330
35A
102
}
330
35A
100
AcDbXrecord
280
     1
102
ACAD_ROUNDTRIP_2010_MLEADER_STYLE
  0
CELLSTYLEMAP
  5
358
102
{ACAD_REACTORS
330
356
102
}
330
356
100
AcDbCellStyleMap
 90
        3
300
CELLSTYLE
  1
TABLEFORMAT_BEGIN
 90
        5
170
     1
 91
        0
 92
    32768
 62
   257
 93
        1
300
CONTENTFORMAT
  1
CONTENTFORMAT_BEGIN
 90
        0
 91
        0
 92
        4
 93
        0
300

 40
0.0
140
1.0
 94
        5
 62
     0
340
11
144
6.0
309
CONTENTFORMAT_END
171
     1
301
MARGIN
  1
CELLMARGIN_BEGIN
 40
1.5
 40
1.5
 40
1.5
 40
1.5
 40
1.5
 40
1.5
309
CELLMARGIN_END
 94
        6
 95
        1
302
GRIDFORMAT
  1
GRIDFORMAT_BEGIN
 90
        0
 91
        1
 62
     0
 92
       -2
340
14
 93
        0
 40
0.045
309
GRIDFORMAT_END
 95
        2
302
GRIDFORMAT
  1
GRIDFORMAT_BEGIN
 90
        0
 91
        1
 62
     0
 92
       -2
340
14
 93
        0
 40
0.045
309
GRIDFORMAT_END
 95
        4
302
GRIDFORMAT
  1
GRIDFORMAT_BEGIN
 90
        0
 91
        1
 62
     0
 92
       -2
340
14
 93
        0
 40
0.045
309
GRIDFORMAT_END
 95
        8
302
GRIDFORMAT
  1
GRIDFORMAT_BEGIN
 90
        0
 91
        1
 62
     0
 92
       -2
340
14
 93
        0
 40
0.045
309
GRIDFORMAT_END
 95
       16
302
GRIDFORMAT
  1
GRIDFORMAT_BEGIN
 90
        0
 91
        1
 62
     0
 92
       -2
340
14
 93
        0
 40
0.045
309
GRIDFORMAT_END
 95
       32
302
GRIDFORMAT
  1
GRIDFORMAT_BEGIN
 90
        0
 91
        1
 62
     0
 92
       -2
340
14
 93
        0
 40
0.045
309
GRIDFORMAT_END
309
TABLEFORMAT_END
  1
CELLSTYLE_BEGIN
 90
        1
 91
        1
300
_TITLE
309
CELLSTYLE_END
300
CELLSTYLE
  1
TABLEFORMAT_BEGIN
 90
        5
170
     1
 91
        0
 92
        0
 62
   257
 93
        1
300
CONTENTFORMAT
  1
CONTENTFORMAT_BEGIN
 90
        0
 91
        0
 92
        4
 93
        0
300

 40
0.0
140
1.0
 94
        5
 62
     0
340
11
144
4.5
309
CONTENTFORMAT_END
171
     1
301
MARGIN
  1
CELLMARGIN_BEGIN
 40
1.5
 40
1.5
 40
1.5
 40
1.5
 40
1.5
 40
1.5
309
CELLMARGIN_END
 94
        6
 95
        1
302
GRIDFORMAT
  1
GRIDFORMAT_BEGIN
 90
        0
 91
        1
 62
     0
 92
       -2
340
14
 93
        0
 40
0.045
309
GRIDFORMAT_END
 95
        2
302
GRIDFORMAT
  1
GRIDFORMAT_BEGIN
 90
        0
 91
        1
 62
     0
 92
       -2
340
14
 93
        0
 40
0.045
309
GRIDFORMAT_END
 95
        4
302
GRIDFORMAT
  1
GRIDFORMAT_BEGIN
 90
        0
 91
        1
 62
     0
 92
       -2
340
14
 93
        0
 40
0.045
309
GRIDFORMAT_END
 95
        8
302
GRIDFORMAT
  1
GRIDFORMAT_BEGIN
 90
        0
 91
        1
 62
     0
 92
       -2
340
14
 93
        0
 40
0.045
309
GRIDFORMAT_END
 95
       16
302
GRIDFORMAT
  1
GRIDFORMAT_BEGIN
 90
        0
 91
        1
 62
     0
 92
       -2
340
14
 93
        0
 40
0.045
309
GRIDFORMAT_END
 95
       32
302
GRIDFORMAT
  1
GRIDFORMAT_BEGIN
 90
        0
 91
        1
 62
     0
 92
       -2
340
14
 93
        0
 40
0.045
309
GRIDFORMAT_END
309
TABLEFORMAT_END
  1
CELLSTYLE_BEGIN
 90
        2
 91
        1
300
_HEADER
309
CELLSTYLE_END
300
CELLSTYLE
  1
TABLEFORMAT_BEGIN
 90
        5
170
     1
 91
        0
 92
        0
 62
   257
 93
        1
300
CONTENTFORMAT
  1
CONTENTFORMAT_BEGIN
 90
        0
 91
        0
 92
        4
 93
        0
300

 40
0.0
140
1.0
 94
        2
 62
     0
340
11
144
4.5
309
CONTENTFORMAT_END
171
     1
301
MARGIN
  1
CELLMARGIN_BEGIN
 40
1.5
 40
1.5
 40
1.5
 40
1.5
 40
1.5
 40
1.5
309
CELLMARGIN_END
 94
        6
 95
        1
302
GRIDFORMAT
  1
GRIDFORMAT_BEGIN
 90
        0
 91
        1
 62
     0
 92
       -2
340
14
 93
        0
 40
0.045
309
GRIDFORMAT_END
 95
        2
302
GRIDFORMAT
  1
GRIDFORMAT_BEGIN
 90
        0
 91
        1
 62
     0
 92
       -2
340
14
 93
        0
 40
0.045
309
GRIDFORMAT_END
 95
        4
302
GRIDFORMAT
  1
GRIDFORMAT_BEGIN
 90
        0
 91
        1
 62
     0
 92
       -2
340
14
 93
        0
 40
0.045
309
GRIDFORMAT_END
 95
        8
302
GRIDFORMAT
  1
GRIDFORMAT_BEGIN
 90
        0
 91
        1
 62
     0
 92
       -2
340
14
 93
        0
 40
0.045
309
GRIDFORMAT_END
 95
       16
302
GRIDFORMAT
  1
GRIDFORMAT_BEGIN
 90
        0
 91
        1
 62
     0
 92
       -2
340
14
 93
        0
 40
0.045
309
GRIDFORMAT_END
 95
       32
302
GRIDFORMAT
  1
GRIDFORMAT_BEGIN
 90
        0
 91
        1
 62
     0
 92
       -2
340
14
 93
        0
 40
0.045
309
GRIDFORMAT_END
309
TABLEFORMAT_END
  1
CELLSTYLE_BEGIN
 90
        3
 91
        2
300
_DATA
309
CELLSTYLE_END
  0
XRECORD
  5
357
102
{ACAD_REACTORS
330
356
102
}
330
356
100
AcDbXrecord
280
     1
102
ACAD_ROUNDTRIP_PRE2007_TABLESTYLE
 90
        4
 91
        0
  1

 92
        4
 93
        0
  2

 94
        4
 95
        0
  3

  0
XRECORD
  5
329
102
{ACAD_REACTORS
330
328
102
}
330
328
100
AcDbXrecord
280
     1
102
RTVSPropertyOp0
 70
     1
102
RTVSPropertyOp1
 70
     1
102
RTVSPropertyOp2
 70
     1
102
RTVSPropertyOp3
 70
     1
102
RTVSPropertyOp4
 70
     1
102
RTVSPropertyOp5
 70
     1
102
RTVSPropertyOp6
 70
     1
102
RTVSPropertyOp7
 70
     1
102
RTVSPropertyOp8
 70
     1
102
RTVSPropertyOp9
 70
     1
102
RTVSPropertyOp10
 70
     1
102
RTVSPropertyOp11
 70
     1
102
RTVSPropertyOp12
 70
     1
102
RTVSPropertyOp13
 70
     1
102
RTVSPropertyOp14
 70
     1
102
RTVSPropertyOp15
 70
     1
102
RTVSPropertyOp16
 70
     1
102
RTVSPropertyOp17
 70
     1
102
RTVSPropertyOp18
 70
     1
102
RTVSPropertyOp19
 70
     1
102
RTVSPropertyOp20
 70
     1
102
RTVSPropertyOp21
 70
     1
102
RTVSPropertyOp22
 70
     1
102
RTVSPropertyOp23
 70
     1
102
RTVSPropertyOp24
 70
     1
102
RTVSPropertyOp25
 70
     1
102
RTVSPropertyOp26
 70
     1
102
RTVSPropertyOp27
 70
     1
102
RTVSPropertyOp28
 70
     1
102
RTVSPropertyOp29
 70
     1
102
RTVSPropertyOp30
 70
     1
102
RTVSPropertyOp31
 70
     1
102
RTVSPropertyOp32
 70
     1
102
RTVSPropertyOp33
 70
     1
102
RTVSPropertyOp34
 70
     1
102
RTVSPropertyOp35
 70
     1
102
RTVSPropertyOp36
 70
     1
102
RTVSPropertyOp37
 70
     1
102
RTVSPropertyOp38
 70
     1
102
RTVSPropertyOp39
 70
     1
102
RTVSPropertyOp40
 70
     1
102
RTVSPropertyOp41
 70
     1
102
RTVSPropertyOp42
 70
     1
102
RTVSPropertyOp43
 70
     1
102
RTVSPropertyOp44
 70
     1
102
RTVSPropertyOp45
 70
     1
102
RTVSPropertyOp46
 70
     1
102
RTVSPropertyOp47
 70
     1
102
RTVSPropertyOp48
 70
     1
102
RTVSPropertyOp49
 70
     1
102
RTVSPropertyOp50
 70
     1
102
RTVSPropertyOp51
 70
     0
102
RTVSPropertyOp52
 70
     0
102
RTVSPropertyOp53
 70
     1
102
RTVSPropertyOp54
 70
     1
102
RTVSPropertyOp55
 70
     1
102
RTVSPropertyOp56
 70
     1
102
RTVSPropertyOp57
 70
     1
102
RTVSPost2010Prop28
280
     1
102
RTVSPost2010PropOp28
 70
     1
102
RTVSPost2010Prop29
280
     1
102
RTVSPost2010PropOp29
 70
     1
102
RTVSPost2010Prop30
280
     0
102
RTVSPost2010PropOp30
 70
     1
102
RTVSPost2010Prop31
280
     0
102
RTVSPost2010PropOp31
 70
     1
102
RTVSPost2010Prop32
280
     0
102
RTVSPost2010PropOp32
 70
     1
102
RTVSPost2010Prop33
280
     0
102
RTVSPost2010PropOp33
 70
     1
102
RTVSPost2010Prop34
280
     0
102
RTVSPost2010PropOp34
 70
     1
102
RTVSPost2010Prop35
280
     0
102
RTVSPost2010PropOp35
 70
     1
102
RTVSPost2010Prop36
280
     0
102
RTVSPost2010PropOp36
 70
     1
102
RTVSPost2010Prop37
 90
       50
102
RTVSPost2010PropOp37
 70
     1
102
RTVSPost2010Prop38
140
0.0
102
RTVSPost2010PropOp38
 70
     1
102
RTVSPost2010Prop39
140
1.0
102
RTVSPost2010PropOp39
 70
     1
102
RTVSPost2010Prop40
 90
        0
102
RTVSPost2010PropOp40
 70
     1
102
RTVSPost2010Prop41ColorIndex
 90
       18
102
RTVSPost2010Prop41ColorRGB
 90
        0
102
RTVSPost2010PropOp41
 70
     1
102
RTVSPost2010Prop42
 90
       50
102
RTVSPost2010PropOp42
 70
     1
102
RTVSPost2010Prop43
 90
        3
102
RTVSPost2010PropOp43
 70
     1
102
RTVSPost2010Prop44ColorIndex
 90
        5
102
RTVSPost2010Prop44ColorRGB
 90
      255
102
RTVSPost2010PropOp44
 70
     1
102
RTVSPost2010Prop45
280
     0
102
RTVSPost2010PropOp45
 70
     1
102
RTVSPost2010Prop46
 90
       50
102
RTVSPost2010PropOp46
 70
     1
102
RTVSPost2010Prop47
 90
       50
102
RTVSPost2010PropOp47
 70
     1
102
RTVSPost2010Prop48
 90
       50
102
RTVSPost2010PropOp48
 70
     1
102
RTVSPost2010Prop49
280
     0
102
RTVSPost2010PropOp49
 70
     1
102
RTVSPost2010Prop50
 90
       50
102
RTVSPost2010PropOp50
 70
     1
102
RTVSPost2010Prop51ColorIndex
 90
      256
102
RTVSPost2010Prop51ColorRGB
 90
-16777216
102
RTVSPost2010PropOp51
 70
     0
102
RTVSPost2010Prop52
140
1.0
102
RTVSPost2010PropOp52
 70
     0
102
RTVSPost2010Prop53
 90
        2
102
RTVSPost2010PropOp53
 70
     1
102
RTVSPost2010Prop54
  1
strokes_ogs.tif
102
RTVSPost2010PropOp54
 70
     1
102
RTVSPost2010Prop55
280
     0
102
RTVSPost2010PropOp55
 70
     1
102
RTVSPost2010Prop56
140
1.0
102
RTVSPost2010PropOp56
 70
     1
102
RTVSPost2010Prop57
140
1.0
102
RTVSPost2010PropOp57
 70
     1
  0
XRECORD
  5
32F
102
{ACAD_REACTORS
330
32E
102
}
330
32E
100
AcDbXrecord
280
     1
102
RTVSPropertyOp0
 70
     1
102
RTVSPropertyOp1
 70
     1
102
RTVSPropertyOp2
 70
     1
102
RTVSPropertyOp3
 70
     1
102
RTVSPropertyOp4
 70
     1
102
RTVSPropertyOp5
 70
     1
102
RTVSPropertyOp6
 70
     1
102
RTVSPropertyOp7
 70
     1
102
RTVSPropertyOp8
 70
     1
102
RTVSPropertyOp9
 70
     1
102
RTVSPropertyOp10
 70
     1
102
RTVSPropertyOp11
 70
     1
102
RTVSPropertyOp12
 70
     1
102
RTVSPropertyOp13
 70
     1
102
RTVSPropertyOp14
 70
     1
102
RTVSPropertyOp15
 70
     1
102
RTVSPropertyOp16
 70
     1
102
RTVSPropertyOp17
 70
     1
102
RTVSPropertyOp18
 70
     1
102
RTVSPropertyOp19
 70
     1
102
RTVSPropertyOp20
 70
     1
102
RTVSPropertyOp21
 70
     1
102
RTVSPropertyOp22
 70
     1
102
RTVSPropertyOp23
 70
     1
102
RTVSPropertyOp24
 70
     1
102
RTVSPropertyOp25
 70
     1
102
RTVSPropertyOp26
 70
     1
102
RTVSPropertyOp27
 70
     1
102
RTVSPropertyOp28
 70
     1
102
RTVSPropertyOp29
 70
     1
102
RTVSPropertyOp30
 70
     1
102
RTVSPropertyOp31
 70
     1
102
RTVSPropertyOp32
 70
     1
102
RTVSPropertyOp33
 70
     1
102
RTVSPropertyOp34
 70
     1
102
RTVSPropertyOp35
 70
     1
102
RTVSPropertyOp36
 70
     1
102
RTVSPropertyOp37
 70
     1
102
RTVSPropertyOp38
 70
     1
102
RTVSPropertyOp39
 70
     1
102
RTVSPropertyOp40
 70
     1
102
RTVSPropertyOp41
 70
     1
102
RTVSPropertyOp42
 70
     1
102
RTVSPropertyOp43
 70
     1
102
RTVSPropertyOp44
 70
     1
102
RTVSPropertyOp45
 70
     1
102
RTVSPropertyOp46
 70
     1
102
RTVSPropertyOp47
 70
     1
102
RTVSPropertyOp48
 70
     1
102
RTVSPropertyOp49
 70
     1
102
RTVSPropertyOp50
 70
     1
102
RTVSPropertyOp51
 70
     0
102
RTVSPropertyOp52
 70
     0
102
RTVSPropertyOp53
 70
     1
102
RTVSPropertyOp54
 70
     1
102
RTVSPropertyOp55
 70
     1
102
RTVSPropertyOp56
 70
     1
102
RTVSPropertyOp57
 70
     1
102
RTVSPost2010Prop28
280
     0
102
RTVSPost2010PropOp28
 70
     1
102
RTVSPost2010Prop29
280
     1
102
RTVSPost2010PropOp29
 70
     1
102
RTVSPost2010Prop30
280
     1
102
RTVSPost2010PropOp30
 70
     1
102
RTVSPost2010Prop31
280
     0
102
RTVSPost2010PropOp31
 70
     1
102
RTVSPost2010Prop32
280
     0
102
RTVSPost2010PropOp32
 70
     1
102
RTVSPost2010Prop33
280
     0
102
RTVSPost2010PropOp33
 70
     1
102
RTVSPost2010Prop34
280
     0
102
RTVSPost2010PropOp34
 70
     1
102
RTVSPost2010Prop35
280
     0
102
RTVSPost2010PropOp35
 70
     1
102
RTVSPost2010Prop36
280
     0
102
RTVSPost2010PropOp36
 70
     1
102
RTVSPost2010Prop37
 90
       50
102
RTVSPost2010PropOp37
 70
     1
102
RTVSPost2010Prop38
140
0.0
102
RTVSPost2010PropOp38
 70
     1
102
RTVSPost2010Prop39
140
1.0
102
RTVSPost2010PropOp39
 70
     1
102
RTVSPost2010Prop40
 90
        0
102
RTVSPost2010PropOp40
 70
     1
102
RTVSPost2010Prop41ColorIndex
 90
       18
102
RTVSPost2010Prop41ColorRGB
 90
        0
102
RTVSPost2010PropOp41
 70
     1
102
RTVSPost2010Prop42
 90
       50
102
RTVSPost2010PropOp42
 70
     1
102
RTVSPost2010Prop43
 90
        3
102
RTVSPost2010PropOp43
 70
     1
102
RTVSPost2010Prop44ColorIndex
 90
        5
102
RTVSPost2010Prop44ColorRGB
 90
      255
102
RTVSPost2010PropOp44
 70
     1
102
RTVSPost2010Prop45
280
     0
102
RTVSPost2010PropOp45
 70
     1
102
RTVSPost2010Prop46
 90
       50
102
RTVSPost2010PropOp46
 70
     1
102
RTVSPost2010Prop47
 90
       50
102
RTVSPost2010PropOp47
 70
     1
102
RTVSPost2010Prop48
 90
       50
102
RTVSPost2010PropOp48
 70
     1
102
RTVSPost2010Prop49
280
     0
102
RTVSPost2010PropOp49
 70
     1
102
RTVSPost2010Prop50
 90
       50
102
RTVSPost2010PropOp50
 70
     1
102
RTVSPost2010Prop51ColorIndex
 90
      256
102
RTVSPost2010Prop51ColorRGB
 90
-16777216
102
RTVSPost2010PropOp51
 70
     0
102
RTVSPost2010Prop52
140
1.0
102
RTVSPost2010PropOp52
 70
     0
102
RTVSPost2010Prop53
 90
        2
102
RTVSPost2010PropOp53
 70
     1
102
RTVSPost2010Prop54
  1
strokes_ogs.tif
102
RTVSPost2010PropOp54
 70
     1
102
RTVSPost2010Prop55
280
     0
102
RTVSPost2010PropOp55
 70
     1
102
RTVSPost2010Prop56
140
1.0
102
RTVSPost2010PropOp56
 70
     1
102
RTVSPost2010Prop57
140
1.0
102
RTVSPost2010PropOp57
 70
     1
  0
XRECORD
  5
337
102
{ACAD_REACTORS
330
336
102
}
330
336
100
AcDbXrecord
280
     1
102
RTVSPropertyOp0
 70
     1
102
RTVSPropertyOp1
 70
     1
102
RTVSPropertyOp2
 70
     1
102
RTVSPropertyOp3
 70
     1
102
RTVSPropertyOp4
 70
     1
102
RTVSPropertyOp5
 70
     1
102
RTVSPropertyOp6
 70
     1
102
RTVSPropertyOp7
 70
     1
102
RTVSPropertyOp8
 70
     1
102
RTVSPropertyOp9
 70
     1
102
RTVSPropertyOp10
 70
     1
102
RTVSPropertyOp11
 70
     1
102
RTVSPropertyOp12
 70
     1
102
RTVSPropertyOp13
 70
     1
102
RTVSPropertyOp14
 70
     1
102
RTVSPropertyOp15
 70
     1
102
RTVSPropertyOp16
 70
     1
102
RTVSPropertyOp17
 70
     1
102
RTVSPropertyOp18
 70
     1
102
RTVSPropertyOp19
 70
     1
102
RTVSPropertyOp20
 70
     1
102
RTVSPropertyOp21
 70
     1
102
RTVSPropertyOp22
 70
     1
102
RTVSPropertyOp23
 70
     1
102
RTVSPropertyOp24
 70
     1
102
RTVSPropertyOp25
 70
     1
102
RTVSPropertyOp26
 70
     1
102
RTVSPropertyOp27
 70
     1
102
RTVSPropertyOp28
 70
     1
102
RTVSPropertyOp29
 70
     1
102
RTVSPropertyOp30
 70
     1
102
RTVSPropertyOp31
 70
     1
102
RTVSPropertyOp32
 70
     1
102
RTVSPropertyOp33
 70
     1
102
RTVSPropertyOp34
 70
     1
102
RTVSPropertyOp35
 70
     1
102
RTVSPropertyOp36
 70
     1
102
RTVSPropertyOp37
 70
     1
102
RTVSPropertyOp38
 70
     1
102
RTVSPropertyOp39
 70
     1
102
RTVSPropertyOp40
 70
     1
102
RTVSPropertyOp41
 70
     1
102
RTVSPropertyOp42
 70
     1
102
RTVSPropertyOp43
 70
     1
102
RTVSPropertyOp44
 70
     1
102
RTVSPropertyOp45
 70
     1
102
RTVSPropertyOp46
 70
     1
102
RTVSPropertyOp47
 70
     1
102
RTVSPropertyOp48
 70
     1
102
RTVSPropertyOp49
 70
     1
102
RTVSPropertyOp50
 70
     1
102
RTVSPropertyOp51
 70
     0
102
RTVSPropertyOp52
 70
     0
102
RTVSPropertyOp53
 70
     1
102
RTVSPropertyOp54
 70
     1
102
RTVSPropertyOp55
 70
     1
102
RTVSPropertyOp56
 70
     1
102
RTVSPropertyOp57
 70
     1
102
RTVSPost2010Prop28
280
     0
102
RTVSPost2010PropOp28
 70
     1
102
RTVSPost2010Prop29
280
     1
102
RTVSPost2010PropOp29
 70
     1
102
RTVSPost2010Prop30
280
     1
102
RTVSPost2010PropOp30
 70
     1
102
RTVSPost2010Prop31
280
     0
102
RTVSPost2010PropOp31
 70
     1
102
RTVSPost2010Prop32
280
     0
102
RTVSPost2010PropOp32
 70
     1
102
RTVSPost2010Prop33
280
     0
102
RTVSPost2010PropOp33
 70
     1
102
RTVSPost2010Prop34
280
     0
102
RTVSPost2010PropOp34
 70
     1
102
RTVSPost2010Prop35
280
     0
102
RTVSPost2010PropOp35
 70
     1
102
RTVSPost2010Prop36
280
     0
102
RTVSPost2010PropOp36
 70
     1
102
RTVSPost2010Prop37
 90
       50
102
RTVSPost2010PropOp37
 70
     1
102
RTVSPost2010Prop38
140
0.0
102
RTVSPost2010PropOp38
 70
     1
102
RTVSPost2010Prop39
140
1.0
102
RTVSPost2010PropOp39
 70
     1
102
RTVSPost2010Prop40
 90
        0
102
RTVSPost2010PropOp40
 70
     1
102
RTVSPost2010Prop41ColorIndex
 90
       18
102
RTVSPost2010Prop41ColorRGB
 90
        0
102
RTVSPost2010PropOp41
 70
     1
102
RTVSPost2010Prop42
 90
       50
102
RTVSPost2010PropOp42
 70
     1
102
RTVSPost2010Prop43
 90
        3
102
RTVSPost2010PropOp43
 70
     1
102
RTVSPost2010Prop44ColorIndex
 90
        5
102
RTVSPost2010Prop44ColorRGB
 90
      255
102
RTVSPost2010PropOp44
 70
     1
102
RTVSPost2010Prop45
280
     0
102
RTVSPost2010PropOp45
 70
     1
102
RTVSPost2010Prop46
 90
       50
102
RTVSPost2010PropOp46
 70
     1
102
RTVSPost2010Prop47
 90
       50
102
RTVSPost2010PropOp47
 70
     1
102
RTVSPost2010Prop48
 90
       50
102
RTVSPost2010PropOp48
 70
     1
102
RTVSPost2010Prop49
280
     0
102
RTVSPost2010PropOp49
 70
     1
102
RTVSPost2010Prop50
 90
       50
102
RTVSPost2010PropOp50
 70
     1
102
RTVSPost2010Prop51ColorIndex
 90
      256
102
RTVSPost2010Prop51ColorRGB
 90
-16777216
102
RTVSPost2010PropOp51
 70
     0
102
RTVSPost2010Prop52
140
1.0
102
RTVSPost2010PropOp52
 70
     0
102
RTVSPost2010Prop53
 90
        2
102
RTVSPost2010PropOp53
 70
     1
102
RTVSPost2010Prop54
  1
strokes_ogs.tif
102
RTVSPost2010PropOp54
 70
     1
102
RTVSPost2010Prop55
280
     0
102
RTVSPost2010PropOp55
 70
     1
102
RTVSPost2010Prop56
140
1.0
102
RTVSPost2010PropOp56
 70
     1
102
RTVSPost2010Prop57
140
1.0
102
RTVSPost2010PropOp57
 70
     1
  0
XRECORD
  5
33F
102
{ACAD_REACTORS
330
33E
102
}
330
33E
100
AcDbXrecord
280
     1
102
RTVSPropertyOp0
 70
     1
102
RTVSPropertyOp1
 70
     1
102
RTVSPropertyOp2
 70
     1
102
RTVSPropertyOp3
 70
     1
102
RTVSPropertyOp4
 70
     1
102
RTVSPropertyOp5
 70
     1
102
RTVSPropertyOp6
 70
     1
102
RTVSPropertyOp7
 70
     1
102
RTVSPropertyOp8
 70
     1
102
RTVSPropertyOp9
 70
     1
102
RTVSPropertyOp10
 70
     1
102
RTVSPropertyOp11
 70
     1
102
RTVSPropertyOp12
 70
     1
102
RTVSPropertyOp13
 70
     1
102
RTVSPropertyOp14
 70
     1
102
RTVSPropertyOp15
 70
     1
102
RTVSPropertyOp16
 70
     1
102
RTVSPropertyOp17
 70
     1
102
RTVSPropertyOp18
 70
     1
102
RTVSPropertyOp19
 70
     1
102
RTVSPropertyOp20
 70
     1
102
RTVSPropertyOp21
 70
     1
102
RTVSPropertyOp22
 70
     1
102
RTVSPropertyOp23
 70
     1
102
RTVSPropertyOp24
 70
     1
102
RTVSPropertyOp25
 70
     1
102
RTVSPropertyOp26
 70
     1
102
RTVSPropertyOp27
 70
     1
102
RTVSPropertyOp28
 70
     1
102
RTVSPropertyOp29
 70
     1
102
RTVSPropertyOp30
 70
     1
102
RTVSPropertyOp31
 70
     1
102
RTVSPropertyOp32
 70
     1
102
RTVSPropertyOp33
 70
     1
102
RTVSPropertyOp34
 70
     1
102
RTVSPropertyOp35
 70
     1
102
RTVSPropertyOp36
 70
     1
102
RTVSPropertyOp37
 70
     1
102
RTVSPropertyOp38
 70
     1
102
RTVSPropertyOp39
 70
     1
102
RTVSPropertyOp40
 70
     1
102
RTVSPropertyOp41
 70
     1
102
RTVSPropertyOp42
 70
     1
102
RTVSPropertyOp43
 70
     1
102
RTVSPropertyOp44
 70
     1
102
RTVSPropertyOp45
 70
     1
102
RTVSPropertyOp46
 70
     1
102
RTVSPropertyOp47
 70
     1
102
RTVSPropertyOp48
 70
     1
102
RTVSPropertyOp49
 70
     1
102
RTVSPropertyOp50
 70
     1
102
RTVSPropertyOp51
 70
     0
102
RTVSPropertyOp52
 70
     0
102
RTVSPropertyOp53
 70
     1
102
RTVSPropertyOp54
 70
     1
102
RTVSPropertyOp55
 70
     1
102
RTVSPropertyOp56
 70
     1
102
RTVSPropertyOp57
 70
     1
102
RTVSPost2010Prop28
280
     0
102
RTVSPost2010PropOp28
 70
     1
102
RTVSPost2010Prop29
280
     1
102
RTVSPost2010PropOp29
 70
     1
102
RTVSPost2010Prop30
280
     1
102
RTVSPost2010PropOp30
 70
     1
102
RTVSPost2010Prop31
280
     0
102
RTVSPost2010PropOp31
 70
     1
102
RTVSPost2010Prop32
280
     0
102
RTVSPost2010PropOp32
 70
     1
102
RTVSPost2010Prop33
280
     0
102
RTVSPost2010PropOp33
 70
     1
102
RTVSPost2010Prop34
280
     0
102
RTVSPost2010PropOp34
 70
     1
102
RTVSPost2010Prop35
280
     0
102
RTVSPost2010PropOp35
 70
     1
102
RTVSPost2010Prop36
280
     0
102
RTVSPost2010PropOp36
 70
     1
102
RTVSPost2010Prop37
 90
       50
102
RTVSPost2010PropOp37
 70
     1
102
RTVSPost2010Prop38
140
0.0
102
RTVSPost2010PropOp38
 70
     1
102
RTVSPost2010Prop39
140
1.0
102
RTVSPost2010PropOp39
 70
     1
102
RTVSPost2010Prop40
 90
        0
102
RTVSPost2010PropOp40
 70
     1
102
RTVSPost2010Prop41ColorIndex
 90
       18
102
RTVSPost2010Prop41ColorRGB
 90
        0
102
RTVSPost2010PropOp41
 70
     1
102
RTVSPost2010Prop42
 90
       50
102
RTVSPost2010PropOp42
 70
     1
102
RTVSPost2010Prop43
 90
        3
102
RTVSPost2010PropOp43
 70
     1
102
RTVSPost2010Prop44ColorIndex
 90
        5
102
RTVSPost2010Prop44ColorRGB
 90
      255
102
RTVSPost2010PropOp44
 70
     1
102
RTVSPost2010Prop45
280
     0
102
RTVSPost2010PropOp45
 70
     1
102
RTVSPost2010Prop46
 90
       50
102
RTVSPost2010PropOp46
 70
     1
102
RTVSPost2010Prop47
 90
       50
102
RTVSPost2010PropOp47
 70
     1
102
RTVSPost2010Prop48
 90
       50
102
RTVSPost2010PropOp48
 70
     1
102
RTVSPost2010Prop49
280
     0
102
RTVSPost2010PropOp49
 70
     1
102
RTVSPost2010Prop50
 90
       50
102
RTVSPost2010PropOp50
 70
     1
102
RTVSPost2010Prop51ColorIndex
 90
      256
102
RTVSPost2010Prop51ColorRGB
 90
-16777216
102
RTVSPost2010PropOp51
 70
     0
102
RTVSPost2010Prop52
140
1.0
102
RTVSPost2010PropOp52
 70
     0
102
RTVSPost2010Prop53
 90
        2
102
RTVSPost2010PropOp53
 70
     1
102
RTVSPost2010Prop54
  1
strokes_ogs.tif
102
RTVSPost2010PropOp54
 70
     1
102
RTVSPost2010Prop55
280
     0
102
RTVSPost2010PropOp55
 70
     1
102
RTVSPost2010Prop56
140
1.0
102
RTVSPost2010PropOp56
 70
     1
102
RTVSPost2010Prop57
140
1.0
102
RTVSPost2010PropOp57
 70
     1
  0
XRECORD
  5
333
102
{ACAD_REACTORS
330
332
102
}
330
332
100
AcDbXrecord
280
     1
102
RTVSPropertyOp0
 70
     1
102
RTVSPropertyOp1
 70
     1
102
RTVSPropertyOp2
 70
     1
102
RTVSPropertyOp3
 70
     1
102
RTVSPropertyOp4
 70
     1
102
RTVSPropertyOp5
 70
     1
102
RTVSPropertyOp6
 70
     1
102
RTVSPropertyOp7
 70
     1
102
RTVSPropertyOp8
 70
     1
102
RTVSPropertyOp9
 70
     1
102
RTVSPropertyOp10
 70
     1
102
RTVSPropertyOp11
 70
     1
102
RTVSPropertyOp12
 70
     1
102
RTVSPropertyOp13
 70
     1
102
RTVSPropertyOp14
 70
     1
102
RTVSPropertyOp15
 70
     1
102
RTVSPropertyOp16
 70
     1
102
RTVSPropertyOp17
 70
     1
102
RTVSPropertyOp18
 70
     1
102
RTVSPropertyOp19
 70
     1
102
RTVSPropertyOp20
 70
     1
102
RTVSPropertyOp21
 70
     1
102
RTVSPropertyOp22
 70
     1
102
RTVSPropertyOp23
 70
     1
102
RTVSPropertyOp24
 70
     1
102
RTVSPropertyOp25
 70
     1
102
RTVSPropertyOp26
 70
     1
102
RTVSPropertyOp27
 70
     1
102
RTVSPropertyOp28
 70
     1
102
RTVSPropertyOp29
 70
     1
102
RTVSPropertyOp30
 70
     1
102
RTVSPropertyOp31
 70
     1
102
RTVSPropertyOp32
 70
     1
102
RTVSPropertyOp33
 70
     1
102
RTVSPropertyOp34
 70
     1
102
RTVSPropertyOp35
 70
     1
102
RTVSPropertyOp36
 70
     1
102
RTVSPropertyOp37
 70
     1
102
RTVSPropertyOp38
 70
     1
102
RTVSPropertyOp39
 70
     1
102
RTVSPropertyOp40
 70
     1
102
RTVSPropertyOp41
 70
     1
102
RTVSPropertyOp42
 70
     1
102
RTVSPropertyOp43
 70
     1
102
RTVSPropertyOp44
 70
     1
102
RTVSPropertyOp45
 70
     1
102
RTVSPropertyOp46
 70
     1
102
RTVSPropertyOp47
 70
     1
102
RTVSPropertyOp48
 70
     1
102
RTVSPropertyOp49
 70
     1
102
RTVSPropertyOp50
 70
     1
102
RTVSPropertyOp51
 70
     0
102
RTVSPropertyOp52
 70
     0
102
RTVSPropertyOp53
 70
     1
102
RTVSPropertyOp54
 70
     1
102
RTVSPropertyOp55
 70
     1
102
RTVSPropertyOp56
 70
     1
102
RTVSPropertyOp57
 70
     1
102
RTVSPost2010Prop28
280
     0
102
RTVSPost2010PropOp28
 70
     1
102
RTVSPost2010Prop29
280
     1
102
RTVSPost2010PropOp29
 70
     1
102
RTVSPost2010Prop30
280
     1
102
RTVSPost2010PropOp30
 70
     1
102
RTVSPost2010Prop31
280
     0
102
RTVSPost2010PropOp31
 70
     1
102
RTVSPost2010Prop32
280
     0
102
RTVSPost2010PropOp32
 70
     1
102
RTVSPost2010Prop33
280
     0
102
RTVSPost2010PropOp33
 70
     1
102
RTVSPost2010Prop34
280
     0
102
RTVSPost2010PropOp34
 70
     1
102
RTVSPost2010Prop35
280
     0
102
RTVSPost2010PropOp35
 70
     1
102
RTVSPost2010Prop36
280
     0
102
RTVSPost2010PropOp36
 70
     1
102
RTVSPost2010Prop37
 90
       50
102
RTVSPost2010PropOp37
 70
     1
102
RTVSPost2010Prop38
140
0.0
102
RTVSPost2010PropOp38
 70
     1
102
RTVSPost2010Prop39
140
1.0
102
RTVSPost2010PropOp39
 70
     1
102
RTVSPost2010Prop40
 90
        0
102
RTVSPost2010PropOp40
 70
     1
102
RTVSPost2010Prop41ColorIndex
 90
       18
102
RTVSPost2010Prop41ColorRGB
 90
        0
102
RTVSPost2010PropOp41
 70
     1
102
RTVSPost2010Prop42
 90
       50
102
RTVSPost2010PropOp42
 70
     1
102
RTVSPost2010Prop43
 90
        3
102
RTVSPost2010PropOp43
 70
     1
102
RTVSPost2010Prop44ColorIndex
 90
        5
102
RTVSPost2010Prop44ColorRGB
 90
      255
102
RTVSPost2010PropOp44
 70
     1
102
RTVSPost2010Prop45
280
     0
102
RTVSPost2010PropOp45
 70
     1
102
RTVSPost2010Prop46
 90
       50
102
RTVSPost2010PropOp46
 70
     1
102
RTVSPost2010Prop47
 90
       50
102
RTVSPost2010PropOp47
 70
     1
102
RTVSPost2010Prop48
 90
       50
102
RTVSPost2010PropOp48
 70
     1
102
RTVSPost2010Prop49
280
     0
102
RTVSPost2010PropOp49
 70
     1
102
RTVSPost2010Prop50
 90
       50
102
RTVSPost2010PropOp50
 70
     1
102
RTVSPost2010Prop51ColorIndex
 90
      256
102
RTVSPost2010Prop51ColorRGB
 90
-16777216
102
RTVSPost2010PropOp51
 70
     0
102
RTVSPost2010Prop52
140
1.0
102
RTVSPost2010PropOp52
 70
     0
102
RTVSPost2010Prop53
 90
        2
102
RTVSPost2010PropOp53
 70
     1
102
RTVSPost2010Prop54
  1
strokes_ogs.tif
102
RTVSPost2010PropOp54
 70
     1
102
RTVSPost2010Prop55
280
     0
102
RTVSPost2010PropOp55
 70
     1
102
RTVSPost2010Prop56
140
1.0
102
RTVSPost2010PropOp56
 70
     1
102
RTVSPost2010Prop57
140
1.0
102
RTVSPost2010PropOp57
 70
     1
  0
XRECORD
  5
335
102
{ACAD_REACTORS
330
334
102
}
330
334
100
AcDbXrecord
280
     1
102
RTVSPropertyOp0
 70
     1
102
RTVSPropertyOp1
 70
     1
102
RTVSPropertyOp2
 70
     1
102
RTVSPropertyOp3
 70
     1
102
RTVSPropertyOp4
 70
     1
102
RTVSPropertyOp5
 70
     1
102
RTVSPropertyOp6
 70
     1
102
RTVSPropertyOp7
 70
     1
102
RTVSPropertyOp8
 70
     1
102
RTVSPropertyOp9
 70
     1
102
RTVSPropertyOp10
 70
     1
102
RTVSPropertyOp11
 70
     1
102
RTVSPropertyOp12
 70
     1
102
RTVSPropertyOp13
 70
     1
102
RTVSPropertyOp14
 70
     1
102
RTVSPropertyOp15
 70
     1
102
RTVSPropertyOp16
 70
     1
102
RTVSPropertyOp17
 70
     1
102
RTVSPropertyOp18
 70
     1
102
RTVSPropertyOp19
 70
     1
102
RTVSPropertyOp20
 70
     1
102
RTVSPropertyOp21
 70
     1
102
RTVSPropertyOp22
 70
     1
102
RTVSPropertyOp23
 70
     1
102
RTVSPropertyOp24
 70
     1
102
RTVSPropertyOp25
 70
     1
102
RTVSPropertyOp26
 70
     1
102
RTVSPropertyOp27
 70
     1
102
RTVSPropertyOp28
 70
     1
102
RTVSPropertyOp29
 70
     1
102
RTVSPropertyOp30
 70
     1
102
RTVSPropertyOp31
 70
     1
102
RTVSPropertyOp32
 70
     1
102
RTVSPropertyOp33
 70
     1
102
RTVSPropertyOp34
 70
     1
102
RTVSPropertyOp35
 70
     1
102
RTVSPropertyOp36
 70
     1
102
RTVSPropertyOp37
 70
     1
102
RTVSPropertyOp38
 70
     1
102
RTVSPropertyOp39
 70
     1
102
RTVSPropertyOp40
 70
     1
102
RTVSPropertyOp41
 70
     1
102
RTVSPropertyOp42
 70
     1
102
RTVSPropertyOp43
 70
     1
102
RTVSPropertyOp44
 70
     1
102
RTVSPropertyOp45
 70
     1
102
RTVSPropertyOp46
 70
     1
102
RTVSPropertyOp47
 70
     1
102
RTVSPropertyOp48
 70
     1
102
RTVSPropertyOp49
 70
     1
102
RTVSPropertyOp50
 70
     1
102
RTVSPropertyOp51
 70
     0
102
RTVSPropertyOp52
 70
     0
102
RTVSPropertyOp53
 70
     1
102
RTVSPropertyOp54
 70
     1
102
RTVSPropertyOp55
 70
     1
102
RTVSPropertyOp56
 70
     1
102
RTVSPropertyOp57
 70
     1
102
RTVSPost2010Prop28
280
     0
102
RTVSPost2010PropOp28
 70
     1
102
RTVSPost2010Prop29
280
     1
102
RTVSPost2010PropOp29
 70
     1
102
RTVSPost2010Prop30
280
     1
102
RTVSPost2010PropOp30
 70
     1
102
RTVSPost2010Prop31
280
     0
102
RTVSPost2010PropOp31
 70
     1
102
RTVSPost2010Prop32
280
     0
102
RTVSPost2010PropOp32
 70
     1
102
RTVSPost2010Prop33
280
     0
102
RTVSPost2010PropOp33
 70
     1
102
RTVSPost2010Prop34
280
     0
102
RTVSPost2010PropOp34
 70
     1
102
RTVSPost2010Prop35
280
     0
102
RTVSPost2010PropOp35
 70
     1
102
RTVSPost2010Prop36
280
     0
102
RTVSPost2010PropOp36
 70
     1
102
RTVSPost2010Prop37
 90
       50
102
RTVSPost2010PropOp37
 70
     1
102
RTVSPost2010Prop38
140
0.0
102
RTVSPost2010PropOp38
 70
     1
102
RTVSPost2010Prop39
140
1.0
102
RTVSPost2010PropOp39
 70
     1
102
RTVSPost2010Prop40
 90
        0
102
RTVSPost2010PropOp40
 70
     1
102
RTVSPost2010Prop41ColorIndex
 90
       18
102
RTVSPost2010Prop41ColorRGB
 90
        0
102
RTVSPost2010PropOp41
 70
     1
102
RTVSPost2010Prop42
 90
       50
102
RTVSPost2010PropOp42
 70
     1
102
RTVSPost2010Prop43
 90
        3
102
RTVSPost2010PropOp43
 70
     1
102
RTVSPost2010Prop44ColorIndex
 90
        5
102
RTVSPost2010Prop44ColorRGB
 90
      255
102
RTVSPost2010PropOp44
 70
     1
102
RTVSPost2010Prop45
280
     0
102
RTVSPost2010PropOp45
 70
     1
102
RTVSPost2010Prop46
 90
       50
102
RTVSPost2010PropOp46
 70
     1
102
RTVSPost2010Prop47
 90
       50
102
RTVSPost2010PropOp47
 70
     1
102
RTVSPost2010Prop48
 90
       50
102
RTVSPost2010PropOp48
 70
     1
102
RTVSPost2010Prop49
280
     0
102
RTVSPost2010PropOp49
 70
     1
102
RTVSPost2010Prop50
 90
       50
102
RTVSPost2010PropOp50
 70
     1
102
RTVSPost2010Prop51ColorIndex
 90
      256
102
RTVSPost2010Prop51ColorRGB
 90
-16777216
102
RTVSPost2010PropOp51
 70
     0
102
RTVSPost2010Prop52
140
1.0
102
RTVSPost2010PropOp52
 70
     0
102
RTVSPost2010Prop53
 90
        2
102
RTVSPost2010PropOp53
 70
     1
102
RTVSPost2010Prop54
  1
strokes_ogs.tif
102
RTVSPost2010PropOp54
 70
     1
102
RTVSPost2010Prop55
280
     0
102
RTVSPost2010PropOp55
 70
     1
102
RTVSPost2010Prop56
140
1.0
102
RTVSPost2010PropOp56
 70
     1
102
RTVSPost2010Prop57
140
1.0
102
RTVSPost2010PropOp57
 70
     1
  0
XRECORD
  5
345
102
{ACAD_REACTORS
330
344
102
}
330
344
100
AcDbXrecord
280
     1
102
RTVSPropertyOp0
 70
     0
102
RTVSPropertyOp1
 70
     0
102
RTVSPropertyOp2
 70
     0
102
RTVSPropertyOp3
 70
     0
102
RTVSPropertyOp4
 70
     0
102
RTVSPropertyOp5
 70
     0
102
RTVSPropertyOp6
 70
     0
102
RTVSPropertyOp7
 70
     0
102
RTVSPropertyOp8
 70
     0
102
RTVSPropertyOp9
 70
     0
102
RTVSPropertyOp10
 70
     0
102
RTVSPropertyOp11
 70
     0
102
RTVSPropertyOp12
 70
     0
102
RTVSPropertyOp13
 70
     0
102
RTVSPropertyOp14
 70
     2
102
RTVSPropertyOp15
 70
     0
102
RTVSPropertyOp16
 70
     0
102
RTVSPropertyOp17
 70
     0
102
RTVSPropertyOp18
 70
     0
102
RTVSPropertyOp19
 70
     0
102
RTVSPropertyOp20
 70
     0
102
RTVSPropertyOp21
 70
     0
102
RTVSPropertyOp22
 70
     0
102
RTVSPropertyOp23
 70
     0
102
RTVSPropertyOp24
 70
     0
102
RTVSPropertyOp25
 70
     0
102
RTVSPropertyOp26
 70
     0
102
RTVSPropertyOp27
 70
     0
102
RTVSPropertyOp28
 70
     0
102
RTVSPropertyOp29
 70
     0
102
RTVSPropertyOp30
 70
     0
102
RTVSPropertyOp31
 70
     0
102
RTVSPropertyOp32
 70
     0
102
RTVSPropertyOp33
 70
     0
102
RTVSPropertyOp34
 70
     0
102
RTVSPropertyOp35
 70
     0
102
RTVSPropertyOp36
 70
     0
102
RTVSPropertyOp37
 70
     0
102
RTVSPropertyOp38
 70
     0
102
RTVSPropertyOp39
 70
     0
102
RTVSPropertyOp40
 70
     0
102
RTVSPropertyOp41
 70
     0
102
RTVSPropertyOp42
 70
     0
102
RTVSPropertyOp43
 70
     0
102
RTVSPropertyOp44
 70
     0
102
RTVSPropertyOp45
 70
     0
102
RTVSPropertyOp46
 70
     0
102
RTVSPropertyOp47
 70
     0
102
RTVSPropertyOp48
 70
     0
102
RTVSPropertyOp49
 70
     0
102
RTVSPropertyOp50
 70
     0
102
RTVSPropertyOp51
 70
     0
102
RTVSPropertyOp52
 70
     0
102
RTVSPropertyOp53
 70
     0
102
RTVSPropertyOp54
 70
     0
102
RTVSPropertyOp55
 70
     0
102
RTVSPropertyOp56
 70
     0
102
RTVSPropertyOp57
 70
     0
102
RTVSPost2010Prop28
280
     0
102
RTVSPost2010PropOp28
 70
     0
102
RTVSPost2010Prop29
280
     1
102
RTVSPost2010PropOp29
 70
     0
102
RTVSPost2010Prop30
280
     1
102
RTVSPost2010PropOp30
 70
     0
102
RTVSPost2010Prop31
280
     0
102
RTVSPost2010PropOp31
 70
     0
102
RTVSPost2010Prop32
280
     0
102
RTVSPost2010PropOp32
 70
     0
102
RTVSPost2010Prop33
280
     0
102
RTVSPost2010PropOp33
 70
     0
102
RTVSPost2010Prop34
280
     0
102
RTVSPost2010PropOp34
 70
     0
102
RTVSPost2010Prop35
280
     0
102
RTVSPost2010PropOp35
 70
     0
102
RTVSPost2010Prop36
280
     0
102
RTVSPost2010PropOp36
 70
     0
102
RTVSPost2010Prop37
 90
       50
102
RTVSPost2010PropOp37
 70
     0
102
RTVSPost2010Prop38
140
0.0
102
RTVSPost2010PropOp38
 70
     0
102
RTVSPost2010Prop39
140
1.0
102
RTVSPost2010PropOp39
 70
     0
102
RTVSPost2010Prop40
 90
        0
102
RTVSPost2010PropOp40
 70
     0
102
RTVSPost2010Prop41ColorIndex
 90
       18
102
RTVSPost2010Prop41ColorRGB
 90
        0
102
RTVSPost2010PropOp41
 70
     0
102
RTVSPost2010Prop42
 90
       50
102
RTVSPost2010PropOp42
 70
     0
102
RTVSPost2010Prop43
 90
        3
102
RTVSPost2010PropOp43
 70
     0
102
RTVSPost2010Prop44ColorIndex
 90
        5
102
RTVSPost2010Prop44ColorRGB
 90
      255
102
RTVSPost2010PropOp44
 70
     0
102
RTVSPost2010Prop45
280
     0
102
RTVSPost2010PropOp45
 70
     0
102
RTVSPost2010Prop46
 90
       50
102
RTVSPost2010PropOp46
 70
     0
102
RTVSPost2010Prop47
 90
       50
102
RTVSPost2010PropOp47
 70
     0
102
RTVSPost2010Prop48
 90
       50
102
RTVSPost2010PropOp48
 70
     0
102
RTVSPost2010Prop49
280
     0
102
RTVSPost2010PropOp49
 70
     0
102
RTVSPost2010Prop50
 90
       50
102
RTVSPost2010PropOp50
 70
     0
102
RTVSPost2010Prop51ColorIndex
 90
      256
102
RTVSPost2010Prop51ColorRGB
 90
-16777216
102
RTVSPost2010PropOp51
 70
     0
102
RTVSPost2010Prop52
140
1.0
102
RTVSPost2010PropOp52
 70
     0
102
RTVSPost2010Prop53
 90
        2
102
RTVSPost2010PropOp53
 70
     0
102
RTVSPost2010Prop54
  1
strokes_ogs.tif
102
RTVSPost2010PropOp54
 70
     0
102
RTVSPost2010Prop55
280
     0
102
RTVSPost2010PropOp55
 70
     0
102
RTVSPost2010Prop56
140
1.0
102
RTVSPost2010PropOp56
 70
     0
102
RTVSPost2010Prop57
140
1.0
102
RTVSPost2010PropOp57
 70
     0
  0
XRECORD
  5
33D
102
{ACAD_REACTORS
330
33C
102
}
330
33C
100
AcDbXrecord
280
     1
102
RTVSPropertyOp0
 70
     1
102
RTVSPropertyOp1
 70
     1
102
RTVSPropertyOp2
 70
     1
102
RTVSPropertyOp3
 70
     1
102
RTVSPropertyOp4
 70
     1
102
RTVSPropertyOp5
 70
     1
102
RTVSPropertyOp6
 70
     1
102
RTVSPropertyOp7
 70
     1
102
RTVSPropertyOp8
 70
     1
102
RTVSPropertyOp9
 70
     1
102
RTVSPropertyOp10
 70
     1
102
RTVSPropertyOp11
 70
     1
102
RTVSPropertyOp12
 70
     1
102
RTVSPropertyOp13
 70
     1
102
RTVSPropertyOp14
 70
     1
102
RTVSPropertyOp15
 70
     1
102
RTVSPropertyOp16
 70
     1
102
RTVSPropertyOp17
 70
     1
102
RTVSPropertyOp18
 70
     1
102
RTVSPropertyOp19
 70
     1
102
RTVSPropertyOp20
 70
     1
102
RTVSPropertyOp21
 70
     1
102
RTVSPropertyOp22
 70
     1
102
RTVSPropertyOp23
 70
     1
102
RTVSPropertyOp24
 70
     1
102
RTVSPropertyOp25
 70
     1
102
RTVSPropertyOp26
 70
     1
102
RTVSPropertyOp27
 70
     1
102
RTVSPropertyOp28
 70
     1
102
RTVSPropertyOp29
 70
     1
102
RTVSPropertyOp30
 70
     1
102
RTVSPropertyOp31
 70
     1
102
RTVSPropertyOp32
 70
     1
102
RTVSPropertyOp33
 70
     1
102
RTVSPropertyOp34
 70
     1
102
RTVSPropertyOp35
 70
     1
102
RTVSPropertyOp36
 70
     1
102
RTVSPropertyOp37
 70
     1
102
RTVSPropertyOp38
 70
     1
102
RTVSPropertyOp39
 70
     1
102
RTVSPropertyOp40
 70
     1
102
RTVSPropertyOp41
 70
     1
102
RTVSPropertyOp42
 70
     1
102
RTVSPropertyOp43
 70
     1
102
RTVSPropertyOp44
 70
     1
102
RTVSPropertyOp45
 70
     1
102
RTVSPropertyOp46
 70
     1
102
RTVSPropertyOp47
 70
     1
102
RTVSPropertyOp48
 70
     1
102
RTVSPropertyOp49
 70
     1
102
RTVSPropertyOp50
 70
     1
102
RTVSPropertyOp51
 70
     0
102
RTVSPropertyOp52
 70
     0
102
RTVSPropertyOp53
 70
     1
102
RTVSPropertyOp54
 70
     1
102
RTVSPropertyOp55
 70
     1
102
RTVSPropertyOp56
 70
     1
102
RTVSPropertyOp57
 70
     1
102
RTVSPost2010Prop28
280
     0
102
RTVSPost2010PropOp28
 70
     1
102
RTVSPost2010Prop29
280
     1
102
RTVSPost2010PropOp29
 70
     1
102
RTVSPost2010Prop30
280
     1
102
RTVSPost2010PropOp30
 70
     1
102
RTVSPost2010Prop31
280
     0
102
RTVSPost2010PropOp31
 70
     1
102
RTVSPost2010Prop32
280
     0
102
RTVSPost2010PropOp32
 70
     1
102
RTVSPost2010Prop33
280
     0
102
RTVSPost2010PropOp33
 70
     1
102
RTVSPost2010Prop34
280
     0
102
RTVSPost2010PropOp34
 70
     1
102
RTVSPost2010Prop35
280
     0
102
RTVSPost2010PropOp35
 70
     1
102
RTVSPost2010Prop36
280
     0
102
RTVSPost2010PropOp36
 70
     1
102
RTVSPost2010Prop37
 90
       50
102
RTVSPost2010PropOp37
 70
     1
102
RTVSPost2010Prop38
140
0.0
102
RTVSPost2010PropOp38
 70
     1
102
RTVSPost2010Prop39
140
1.0
102
RTVSPost2010PropOp39
 70
     1
102
RTVSPost2010Prop40
 90
        0
102
RTVSPost2010PropOp40
 70
     1
102
RTVSPost2010Prop41ColorIndex
 90
       18
102
RTVSPost2010Prop41ColorRGB
 90
        0
102
RTVSPost2010PropOp41
 70
     1
102
RTVSPost2010Prop42
 90
       50
102
RTVSPost2010PropOp42
 70
     1
102
RTVSPost2010Prop43
 90
        3
102
RTVSPost2010PropOp43
 70
     1
102
RTVSPost2010Prop44ColorIndex
 90
        5
102
RTVSPost2010Prop44ColorRGB
 90
      255
102
RTVSPost2010PropOp44
 70
     1
102
RTVSPost2010Prop45
280
     0
102
RTVSPost2010PropOp45
 70
     1
102
RTVSPost2010Prop46
 90
       50
102
RTVSPost2010PropOp46
 70
     1
102
RTVSPost2010Prop47
 90
       50
102
RTVSPost2010PropOp47
 70
     1
102
RTVSPost2010Prop48
 90
       50
102
RTVSPost2010PropOp48
 70
     1
102
RTVSPost2010Prop49
280
     0
102
RTVSPost2010PropOp49
 70
     1
102
RTVSPost2010Prop50
 90
       50
102
RTVSPost2010PropOp50
 70
     1
102
RTVSPost2010Prop51ColorIndex
 90
      256
102
RTVSPost2010Prop51ColorRGB
 90
-16777216
102
RTVSPost2010PropOp51
 70
     0
102
RTVSPost2010Prop52
140
1.0
102
RTVSPost2010PropOp52
 70
     0
102
RTVSPost2010Prop53
 90
        2
102
RTVSPost2010PropOp53
 70
     1
102
RTVSPost2010Prop54
  1
strokes_ogs.tif
102
RTVSPost2010PropOp54
 70
     1
102
RTVSPost2010Prop55
280
     0
102
RTVSPost2010PropOp55
 70
     1
102
RTVSPost2010Prop56
140
1.0
102
RTVSPost2010PropOp56
 70
     1
102
RTVSPost2010Prop57
140
1.0
102
RTVSPost2010PropOp57
 70
     1
  0
XRECORD
  5
321
102
{ACAD_REACTORS
330
320
102
}
330
320
100
AcDbXrecord
280
     1
102
RTVSPropertyOp0
 70
     1
102
RTVSPropertyOp1
 70
     1
102
RTVSPropertyOp2
 70
     1
102
RTVSPropertyOp3
 70
     1
102
RTVSPropertyOp4
 70
     1
102
RTVSPropertyOp5
 70
     1
102
RTVSPropertyOp6
 70
     1
102
RTVSPropertyOp7
 70
     1
102
RTVSPropertyOp8
 70
     1
102
RTVSPropertyOp9
 70
     1
102
RTVSPropertyOp10
 70
     1
102
RTVSPropertyOp11
 70
     1
102
RTVSPropertyOp12
 70
     1
102
RTVSPropertyOp13
 70
     1
102
RTVSPropertyOp14
 70
     1
102
RTVSPropertyOp15
 70
     1
102
RTVSPropertyOp16
 70
     1
102
RTVSPropertyOp17
 70
     1
102
RTVSPropertyOp18
 70
     1
102
RTVSPropertyOp19
 70
     1
102
RTVSPropertyOp20
 70
     1
102
RTVSPropertyOp21
 70
     1
102
RTVSPropertyOp22
 70
     1
102
RTVSPropertyOp23
 70
     1
102
RTVSPropertyOp24
 70
     1
102
RTVSPropertyOp25
 70
     1
102
RTVSPropertyOp26
 70
     1
102
RTVSPropertyOp27
 70
     1
102
RTVSPropertyOp28
 70
     1
102
RTVSPropertyOp29
 70
     1
102
RTVSPropertyOp30
 70
     1
102
RTVSPropertyOp31
 70
     1
102
RTVSPropertyOp32
 70
     1
102
RTVSPropertyOp33
 70
     1
102
RTVSPropertyOp34
 70
     1
102
RTVSPropertyOp35
 70
     1
102
RTVSPropertyOp36
 70
     1
102
RTVSPropertyOp37
 70
     1
102
RTVSPropertyOp38
 70
     1
102
RTVSPropertyOp39
 70
     1
102
RTVSPropertyOp40
 70
     1
102
RTVSPropertyOp41
 70
     1
102
RTVSPropertyOp42
 70
     1
102
RTVSPropertyOp43
 70
     1
102
RTVSPropertyOp44
 70
     1
102
RTVSPropertyOp45
 70
     1
102
RTVSPropertyOp46
 70
     1
102
RTVSPropertyOp47
 70
     1
102
RTVSPropertyOp48
 70
     1
102
RTVSPropertyOp49
 70
     1
102
RTVSPropertyOp50
 70
     1
102
RTVSPropertyOp51
 70
     0
102
RTVSPropertyOp52
 70
     0
102
RTVSPropertyOp53
 70
     1
102
RTVSPropertyOp54
 70
     1
102
RTVSPropertyOp55
 70
     1
102
RTVSPropertyOp56
 70
     1
102
RTVSPropertyOp57
 70
     1
102
RTVSPost2010Prop28
280
     0
102
RTVSPost2010PropOp28
 70
     1
102
RTVSPost2010Prop29
280
     1
102
RTVSPost2010PropOp29
 70
     1
102
RTVSPost2010Prop30
280
     1
102
RTVSPost2010PropOp30
 70
     1
102
RTVSPost2010Prop31
280
     0
102
RTVSPost2010PropOp31
 70
     1
102
RTVSPost2010Prop32
280
     0
102
RTVSPost2010PropOp32
 70
     1
102
RTVSPost2010Prop33
280
     0
102
RTVSPost2010PropOp33
 70
     1
102
RTVSPost2010Prop34
280
     0
102
RTVSPost2010PropOp34
 70
     1
102
RTVSPost2010Prop35
280
     0
102
RTVSPost2010PropOp35
 70
     1
102
RTVSPost2010Prop36
280
     0
102
RTVSPost2010PropOp36
 70
     1
102
RTVSPost2010Prop37
 90
       50
102
RTVSPost2010PropOp37
 70
     1
102
RTVSPost2010Prop38
140
0.0
102
RTVSPost2010PropOp38
 70
     1
102
RTVSPost2010Prop39
140
1.0
102
RTVSPost2010PropOp39
 70
     1
102
RTVSPost2010Prop40
 90
        0
102
RTVSPost2010PropOp40
 70
     1
102
RTVSPost2010Prop41ColorIndex
 90
       18
102
RTVSPost2010Prop41ColorRGB
 90
        0
102
RTVSPost2010PropOp41
 70
     1
102
RTVSPost2010Prop42
 90
       50
102
RTVSPost2010PropOp42
 70
     1
102
RTVSPost2010Prop43
 90
        3
102
RTVSPost2010PropOp43
 70
     1
102
RTVSPost2010Prop44ColorIndex
 90
        5
102
RTVSPost2010Prop44ColorRGB
 90
      255
102
RTVSPost2010PropOp44
 70
     1
102
RTVSPost2010Prop45
280
     0
102
RTVSPost2010PropOp45
 70
     1
102
RTVSPost2010Prop46
 90
       50
102
RTVSPost2010PropOp46
 70
     1
102
RTVSPost2010Prop47
 90
       50
102
RTVSPost2010PropOp47
 70
     1
102
RTVSPost2010Prop48
 90
       50
102
RTVSPost2010PropOp48
 70
     1
102
RTVSPost2010Prop49
280
     0
102
RTVSPost2010PropOp49
 70
     1
102
RTVSPost2010Prop50
 90
       50
102
RTVSPost2010PropOp50
 70
     1
102
RTVSPost2010Prop51ColorIndex
 90
      256
102
RTVSPost2010Prop51ColorRGB
 90
-16777216
102
RTVSPost2010PropOp51
 70
     0
102
RTVSPost2010Prop52
140
1.0
102
RTVSPost2010PropOp52
 70
     0
102
RTVSPost2010Prop53
 90
        2
102
RTVSPost2010PropOp53
 70
     1
102
RTVSPost2010Prop54
  1
strokes_ogs.tif
102
RTVSPost2010PropOp54
 70
     1
102
RTVSPost2010Prop55
280
     0
102
RTVSPost2010PropOp55
 70
     1
102
RTVSPost2010Prop56
140
1.0
102
RTVSPost2010PropOp56
 70
     1
102
RTVSPost2010Prop57
140
1.0
102
RTVSPost2010PropOp57
 70
     1
  0
XRECORD
  5
323
102
{ACAD_REACTORS
330
322
102
}
330
322
100
AcDbXrecord
280
     1
102
RTVSPropertyOp0
 70
     1
102
RTVSPropertyOp1
 70
     1
102
RTVSPropertyOp2
 70
     1
102
RTVSPropertyOp3
 70
     1
102
RTVSPropertyOp4
 70
     1
102
RTVSPropertyOp5
 70
     1
102
RTVSPropertyOp6
 70
     1
102
RTVSPropertyOp7
 70
     1
102
RTVSPropertyOp8
 70
     1
102
RTVSPropertyOp9
 70
     1
102
RTVSPropertyOp10
 70
     1
102
RTVSPropertyOp11
 70
     1
102
RTVSPropertyOp12
 70
     1
102
RTVSPropertyOp13
 70
     1
102
RTVSPropertyOp14
 70
     1
102
RTVSPropertyOp15
 70
     1
102
RTVSPropertyOp16
 70
     1
102
RTVSPropertyOp17
 70
     1
102
RTVSPropertyOp18
 70
     1
102
RTVSPropertyOp19
 70
     1
102
RTVSPropertyOp20
 70
     1
102
RTVSPropertyOp21
 70
     1
102
RTVSPropertyOp22
 70
     1
102
RTVSPropertyOp23
 70
     1
102
RTVSPropertyOp24
 70
     1
102
RTVSPropertyOp25
 70
     1
102
RTVSPropertyOp26
 70
     1
102
RTVSPropertyOp27
 70
     1
102
RTVSPropertyOp28
 70
     1
102
RTVSPropertyOp29
 70
     1
102
RTVSPropertyOp30
 70
     1
102
RTVSPropertyOp31
 70
     1
102
RTVSPropertyOp32
 70
     1
102
RTVSPropertyOp33
 70
     1
102
RTVSPropertyOp34
 70
     1
102
RTVSPropertyOp35
 70
     1
102
RTVSPropertyOp36
 70
     1
102
RTVSPropertyOp37
 70
     1
102
RTVSPropertyOp38
 70
     1
102
RTVSPropertyOp39
 70
     1
102
RTVSPropertyOp40
 70
     1
102
RTVSPropertyOp41
 70
     1
102
RTVSPropertyOp42
 70
     1
102
RTVSPropertyOp43
 70
     1
102
RTVSPropertyOp44
 70
     1
102
RTVSPropertyOp45
 70
     1
102
RTVSPropertyOp46
 70
     1
102
RTVSPropertyOp47
 70
     1
102
RTVSPropertyOp48
 70
     1
102
RTVSPropertyOp49
 70
     1
102
RTVSPropertyOp50
 70
     1
102
RTVSPropertyOp51
 70
     0
102
RTVSPropertyOp52
 70
     0
102
RTVSPropertyOp53
 70
     1
102
RTVSPropertyOp54
 70
     1
102
RTVSPropertyOp55
 70
     1
102
RTVSPropertyOp56
 70
     1
102
RTVSPropertyOp57
 70
     1
102
RTVSPost2010Prop28
280
     0
102
RTVSPost2010PropOp28
 70
     1
102
RTVSPost2010Prop29
280
     1
102
RTVSPost2010PropOp29
 70
     1
102
RTVSPost2010Prop30
280
     1
102
RTVSPost2010PropOp30
 70
     1
102
RTVSPost2010Prop31
280
     0
102
RTVSPost2010PropOp31
 70
     1
102
RTVSPost2010Prop32
280
     0
102
RTVSPost2010PropOp32
 70
     1
102
RTVSPost2010Prop33
280
     0
102
RTVSPost2010PropOp33
 70
     1
102
RTVSPost2010Prop34
280
     0
102
RTVSPost2010PropOp34
 70
     1
102
RTVSPost2010Prop35
280
     0
102
RTVSPost2010PropOp35
 70
     1
102
RTVSPost2010Prop36
280
     0
102
RTVSPost2010PropOp36
 70
     1
102
RTVSPost2010Prop37
 90
       50
102
RTVSPost2010PropOp37
 70
     1
102
RTVSPost2010Prop38
140
0.0
102
RTVSPost2010PropOp38
 70
     1
102
RTVSPost2010Prop39
140
1.0
102
RTVSPost2010PropOp39
 70
     1
102
RTVSPost2010Prop40
 90
        0
102
RTVSPost2010PropOp40
 70
     1
102
RTVSPost2010Prop41ColorIndex
 90
       18
102
RTVSPost2010Prop41ColorRGB
 90
        0
102
RTVSPost2010PropOp41
 70
     1
102
RTVSPost2010Prop42
 90
       50
102
RTVSPost2010PropOp42
 70
     1
102
RTVSPost2010Prop43
 90
        3
102
RTVSPost2010PropOp43
 70
     1
102
RTVSPost2010Prop44ColorIndex
 90
        5
102
RTVSPost2010Prop44ColorRGB
 90
      255
102
RTVSPost2010PropOp44
 70
     1
102
RTVSPost2010Prop45
280
     0
102
RTVSPost2010PropOp45
 70
     1
102
RTVSPost2010Prop46
 90
       50
102
RTVSPost2010PropOp46
 70
     1
102
RTVSPost2010Prop47
 90
       50
102
RTVSPost2010PropOp47
 70
     1
102
RTVSPost2010Prop48
 90
       50
102
RTVSPost2010PropOp48
 70
     1
102
RTVSPost2010Prop49
280
     0
102
RTVSPost2010PropOp49
 70
     1
102
RTVSPost2010Prop50
 90
       50
102
RTVSPost2010PropOp50
 70
     1
102
RTVSPost2010Prop51ColorIndex
 90
      256
102
RTVSPost2010Prop51ColorRGB
 90
-16777216
102
RTVSPost2010PropOp51
 70
     0
102
RTVSPost2010Prop52
140
1.0
102
RTVSPost2010PropOp52
 70
     0
102
RTVSPost2010Prop53
 90
        2
102
RTVSPost2010PropOp53
 70
     1
102
RTVSPost2010Prop54
  1
strokes_ogs.tif
102
RTVSPost2010PropOp54
 70
     1
102
RTVSPost2010Prop55
280
     0
102
RTVSPost2010PropOp55
 70
     1
102
RTVSPost2010Prop56
140
1.0
102
RTVSPost2010PropOp56
 70
     1
102
RTVSPost2010Prop57
140
1.0
102
RTVSPost2010PropOp57
 70
     1
  0
XRECORD
  5
325
102
{ACAD_REACTORS
330
324
102
}
330
324
100
AcDbXrecord
280
     1
102
RTVSPropertyOp0
 70
     1
102
RTVSPropertyOp1
 70
     1
102
RTVSPropertyOp2
 70
     1
102
RTVSPropertyOp3
 70
     1
102
RTVSPropertyOp4
 70
     1
102
RTVSPropertyOp5
 70
     1
102
RTVSPropertyOp6
 70
     1
102
RTVSPropertyOp7
 70
     1
102
RTVSPropertyOp8
 70
     1
102
RTVSPropertyOp9
 70
     1
102
RTVSPropertyOp10
 70
     1
102
RTVSPropertyOp11
 70
     1
102
RTVSPropertyOp12
 70
     1
102
RTVSPropertyOp13
 70
     1
102
RTVSPropertyOp14
 70
     1
102
RTVSPropertyOp15
 70
     1
102
RTVSPropertyOp16
 70
     1
102
RTVSPropertyOp17
 70
     1
102
RTVSPropertyOp18
 70
     1
102
RTVSPropertyOp19
 70
     1
102
RTVSPropertyOp20
 70
     1
102
RTVSPropertyOp21
 70
     1
102
RTVSPropertyOp22
 70
     1
102
RTVSPropertyOp23
 70
     1
102
RTVSPropertyOp24
 70
     1
102
RTVSPropertyOp25
 70
     1
102
RTVSPropertyOp26
 70
     1
102
RTVSPropertyOp27
 70
     1
102
RTVSPropertyOp28
 70
     1
102
RTVSPropertyOp29
 70
     1
102
RTVSPropertyOp30
 70
     1
102
RTVSPropertyOp31
 70
     1
102
RTVSPropertyOp32
 70
     1
102
RTVSPropertyOp33
 70
     1
102
RTVSPropertyOp34
 70
     1
102
RTVSPropertyOp35
 70
     1
102
RTVSPropertyOp36
 70
     1
102
RTVSPropertyOp37
 70
     1
102
RTVSPropertyOp38
 70
     1
102
RTVSPropertyOp39
 70
     1
102
RTVSPropertyOp40
 70
     1
102
RTVSPropertyOp41
 70
     1
102
RTVSPropertyOp42
 70
     1
102
RTVSPropertyOp43
 70
     1
102
RTVSPropertyOp44
 70
     1
102
RTVSPropertyOp45
 70
     1
102
RTVSPropertyOp46
 70
     1
102
RTVSPropertyOp47
 70
     1
102
RTVSPropertyOp48
 70
     1
102
RTVSPropertyOp49
 70
     1
102
RTVSPropertyOp50
 70
     1
102
RTVSPropertyOp51
 70
     0
102
RTVSPropertyOp52
 70
     0
102
RTVSPropertyOp53
 70
     1
102
RTVSPropertyOp54
 70
     1
102
RTVSPropertyOp55
 70
     1
102
RTVSPropertyOp56
 70
     1
102
RTVSPropertyOp57
 70
     1
102
RTVSPost2010Prop28
280
     0
102
RTVSPost2010PropOp28
 70
     1
102
RTVSPost2010Prop29
280
     1
102
RTVSPost2010PropOp29
 70
     1
102
RTVSPost2010Prop30
280
     1
102
RTVSPost2010PropOp30
 70
     1
102
RTVSPost2010Prop31
280
     0
102
RTVSPost2010PropOp31
 70
     1
102
RTVSPost2010Prop32
280
     0
102
RTVSPost2010PropOp32
 70
     1
102
RTVSPost2010Prop33
280
     0
102
RTVSPost2010PropOp33
 70
     1
102
RTVSPost2010Prop34
280
     0
102
RTVSPost2010PropOp34
 70
     1
102
RTVSPost2010Prop35
280
     0
102
RTVSPost2010PropOp35
 70
     1
102
RTVSPost2010Prop36
280
     0
102
RTVSPost2010PropOp36
 70
     1
102
RTVSPost2010Prop37
 90
       50
102
RTVSPost2010PropOp37
 70
     1
102
RTVSPost2010Prop38
140
0.0
102
RTVSPost2010PropOp38
 70
     1
102
RTVSPost2010Prop39
140
1.0
102
RTVSPost2010PropOp39
 70
     1
102
RTVSPost2010Prop40
 90
        0
102
RTVSPost2010PropOp40
 70
     1
102
RTVSPost2010Prop41ColorIndex
 90
       18
102
RTVSPost2010Prop41ColorRGB
 90
        0
102
RTVSPost2010PropOp41
 70
     1
102
RTVSPost2010Prop42
 90
       50
102
RTVSPost2010PropOp42
 70
     1
102
RTVSPost2010Prop43
 90
        3
102
RTVSPost2010PropOp43
 70
     1
102
RTVSPost2010Prop44ColorIndex
 90
        5
102
RTVSPost2010Prop44ColorRGB
 90
      255
102
RTVSPost2010PropOp44
 70
     1
102
RTVSPost2010Prop45
280
     0
102
RTVSPost2010PropOp45
 70
     1
102
RTVSPost2010Prop46
 90
       50
102
RTVSPost2010PropOp46
 70
     1
102
RTVSPost2010Prop47
 90
       50
102
RTVSPost2010PropOp47
 70
     1
102
RTVSPost2010Prop48
 90
       50
102
RTVSPost2010PropOp48
 70
     1
102
RTVSPost2010Prop49
280
     0
102
RTVSPost2010PropOp49
 70
     1
102
RTVSPost2010Prop50
 90
       50
102
RTVSPost2010PropOp50
 70
     1
102
RTVSPost2010Prop51ColorIndex
 90
      256
102
RTVSPost2010Prop51ColorRGB
 90
-16777216
102
RTVSPost2010PropOp51
 70
     0
102
RTVSPost2010Prop52
140
1.0
102
RTVSPost2010PropOp52
 70
     0
102
RTVSPost2010Prop53
 90
        2
102
RTVSPost2010PropOp53
 70
     1
102
RTVSPost2010Prop54
  1
strokes_ogs.tif
102
RTVSPost2010PropOp54
 70
     1
102
RTVSPost2010Prop55
280
     0
102
RTVSPost2010PropOp55
 70
     1
102
RTVSPost2010Prop56
140
1.0
102
RTVSPost2010PropOp56
 70
     1
102
RTVSPost2010Prop57
140
1.0
102
RTVSPost2010PropOp57
 70
     1
  0
XRECORD
  5
327
102
{ACAD_REACTORS
330
326
102
}
330
326
100
AcDbXrecord
280
     1
102
RTVSPropertyOp0
 70
     1
102
RTVSPropertyOp1
 70
     1
102
RTVSPropertyOp2
 70
     1
102
RTVSPropertyOp3
 70
     1
102
RTVSPropertyOp4
 70
     1
102
RTVSPropertyOp5
 70
     1
102
RTVSPropertyOp6
 70
     1
102
RTVSPropertyOp7
 70
     1
102
RTVSPropertyOp8
 70
     1
102
RTVSPropertyOp9
 70
     1
102
RTVSPropertyOp10
 70
     1
102
RTVSPropertyOp11
 70
     1
102
RTVSPropertyOp12
 70
     1
102
RTVSPropertyOp13
 70
     1
102
RTVSPropertyOp14
 70
     1
102
RTVSPropertyOp15
 70
     1
102
RTVSPropertyOp16
 70
     1
102
RTVSPropertyOp17
 70
     1
102
RTVSPropertyOp18
 70
     1
102
RTVSPropertyOp19
 70
     1
102
RTVSPropertyOp20
 70
     1
102
RTVSPropertyOp21
 70
     1
102
RTVSPropertyOp22
 70
     1
102
RTVSPropertyOp23
 70
     1
102
RTVSPropertyOp24
 70
     1
102
RTVSPropertyOp25
 70
     1
102
RTVSPropertyOp26
 70
     1
102
RTVSPropertyOp27
 70
     1
102
RTVSPropertyOp28
 70
     1
102
RTVSPropertyOp29
 70
     1
102
RTVSPropertyOp30
 70
     1
102
RTVSPropertyOp31
 70
     1
102
RTVSPropertyOp32
 70
     1
102
RTVSPropertyOp33
 70
     1
102
RTVSPropertyOp34
 70
     1
102
RTVSPropertyOp35
 70
     1
102
RTVSPropertyOp36
 70
     1
102
RTVSPropertyOp37
 70
     1
102
RTVSPropertyOp38
 70
     1
102
RTVSPropertyOp39
 70
     1
102
RTVSPropertyOp40
 70
     1
102
RTVSPropertyOp41
 70
     1
102
RTVSPropertyOp42
 70
     1
102
RTVSPropertyOp43
 70
     1
102
RTVSPropertyOp44
 70
     1
102
RTVSPropertyOp45
 70
     1
102
RTVSPropertyOp46
 70
     1
102
RTVSPropertyOp47
 70
     1
102
RTVSPropertyOp48
 70
     1
102
RTVSPropertyOp49
 70
     1
102
RTVSPropertyOp50
 70
     1
102
RTVSPropertyOp51
 70
     0
102
RTVSPropertyOp52
 70
     0
102
RTVSPropertyOp53
 70
     1
102
RTVSPropertyOp54
 70
     1
102
RTVSPropertyOp55
 70
     1
102
RTVSPropertyOp56
 70
     1
102
RTVSPropertyOp57
 70
     1
102
RTVSPost2010Prop28
280
     0
102
RTVSPost2010PropOp28
 70
     1
102
RTVSPost2010Prop29
280
     1
102
RTVSPost2010PropOp29
 70
     1
102
RTVSPost2010Prop30
280
     1
102
RTVSPost2010PropOp30
 70
     1
102
RTVSPost2010Prop31
280
     0
102
RTVSPost2010PropOp31
 70
     1
102
RTVSPost2010Prop32
280
     0
102
RTVSPost2010PropOp32
 70
     1
102
RTVSPost2010Prop33
280
     0
102
RTVSPost2010PropOp33
 70
     1
102
RTVSPost2010Prop34
280
     0
102
RTVSPost2010PropOp34
 70
     1
102
RTVSPost2010Prop35
280
     0
102
RTVSPost2010PropOp35
 70
     1
102
RTVSPost2010Prop36
280
     0
102
RTVSPost2010PropOp36
 70
     1
102
RTVSPost2010Prop37
 90
       50
102
RTVSPost2010PropOp37
 70
     1
102
RTVSPost2010Prop38
140
0.0
102
RTVSPost2010PropOp38
 70
     1
102
RTVSPost2010Prop39
140
1.0
102
RTVSPost2010PropOp39
 70
     1
102
RTVSPost2010Prop40
 90
        0
102
RTVSPost2010PropOp40
 70
     1
102
RTVSPost2010Prop41ColorIndex
 90
       18
102
RTVSPost2010Prop41ColorRGB
 90
        0
102
RTVSPost2010PropOp41
 70
     1
102
RTVSPost2010Prop42
 90
       50
102
RTVSPost2010PropOp42
 70
     1
102
RTVSPost2010Prop43
 90
        3
102
RTVSPost2010PropOp43
 70
     1
102
RTVSPost2010Prop44ColorIndex
 90
        5
102
RTVSPost2010Prop44ColorRGB
 90
      255
102
RTVSPost2010PropOp44
 70
     1
102
RTVSPost2010Prop45
280
     0
102
RTVSPost2010PropOp45
 70
     1
102
RTVSPost2010Prop46
 90
       50
102
RTVSPost2010PropOp46
 70
     1
102
RTVSPost2010Prop47
 90
       50
102
RTVSPost2010PropOp47
 70
     1
102
RTVSPost2010Prop48
 90
       50
102
RTVSPost2010PropOp48
 70
     1
102
RTVSPost2010Prop49
280
     0
102
RTVSPost2010PropOp49
 70
     1
102
RTVSPost2010Prop50
 90
       50
102
RTVSPost2010PropOp50
 70
     1
102
RTVSPost2010Prop51ColorIndex
 90
      256
102
RTVSPost2010Prop51ColorRGB
 90
-16777216
102
RTVSPost2010PropOp51
 70
     0
102
RTVSPost2010Prop52
140
1.0
102
RTVSPost2010PropOp52
 70
     0
102
RTVSPost2010Prop53
 90
        2
102
RTVSPost2010PropOp53
 70
     1
102
RTVSPost2010Prop54
  1
strokes_ogs.tif
102
RTVSPost2010PropOp54
 70
     1
102
RTVSPost2010Prop55
280
     0
102
RTVSPost2010PropOp55
 70
     1
102
RTVSPost2010Prop56
140
1.0
102
RTVSPost2010PropOp56
 70
     1
102
RTVSPost2010Prop57
140
1.0
102
RTVSPost2010PropOp57
 70
     1
  0
XRECORD
  5
32D
102
{ACAD_REACTORS
330
32C
102
}
330
32C
100
AcDbXrecord
280
     1
102
RTVSPropertyOp0
 70
     1
102
RTVSPropertyOp1
 70
     1
102
RTVSPropertyOp2
 70
     1
102
RTVSPropertyOp3
 70
     1
102
RTVSPropertyOp4
 70
     1
102
RTVSPropertyOp5
 70
     1
102
RTVSPropertyOp6
 70
     1
102
RTVSPropertyOp7
 70
     1
102
RTVSPropertyOp8
 70
     1
102
RTVSPropertyOp9
 70
     1
102
RTVSPropertyOp10
 70
     1
102
RTVSPropertyOp11
 70
     1
102
RTVSPropertyOp12
 70
     1
102
RTVSPropertyOp13
 70
     1
102
RTVSPropertyOp14
 70
     1
102
RTVSPropertyOp15
 70
     1
102
RTVSPropertyOp16
 70
     1
102
RTVSPropertyOp17
 70
     1
102
RTVSPropertyOp18
 70
     1
102
RTVSPropertyOp19
 70
     1
102
RTVSPropertyOp20
 70
     1
102
RTVSPropertyOp21
 70
     1
102
RTVSPropertyOp22
 70
     1
102
RTVSPropertyOp23
 70
     1
102
RTVSPropertyOp24
 70
     1
102
RTVSPropertyOp25
 70
     1
102
RTVSPropertyOp26
 70
     1
102
RTVSPropertyOp27
 70
     1
102
RTVSPropertyOp28
 70
     1
102
RTVSPropertyOp29
 70
     1
102
RTVSPropertyOp30
 70
     1
102
RTVSPropertyOp31
 70
     1
102
RTVSPropertyOp32
 70
     1
102
RTVSPropertyOp33
 70
     1
102
RTVSPropertyOp34
 70
     1
102
RTVSPropertyOp35
 70
     1
102
RTVSPropertyOp36
 70
     1
102
RTVSPropertyOp37
 70
     1
102
RTVSPropertyOp38
 70
     1
102
RTVSPropertyOp39
 70
     1
102
RTVSPropertyOp40
 70
     1
102
RTVSPropertyOp41
 70
     1
102
RTVSPropertyOp42
 70
     1
102
RTVSPropertyOp43
 70
     1
102
RTVSPropertyOp44
 70
     1
102
RTVSPropertyOp45
 70
     1
102
RTVSPropertyOp46
 70
     1
102
RTVSPropertyOp47
 70
     1
102
RTVSPropertyOp48
 70
     1
102
RTVSPropertyOp49
 70
     1
102
RTVSPropertyOp50
 70
     1
102
RTVSPropertyOp51
 70
     0
102
RTVSPropertyOp52
 70
     0
102
RTVSPropertyOp53
 70
     1
102
RTVSPropertyOp54
 70
     1
102
RTVSPropertyOp55
 70
     1
102
RTVSPropertyOp56
 70
     1
102
RTVSPropertyOp57
 70
     1
102
RTVSPost2010Prop28
280
     0
102
RTVSPost2010PropOp28
 70
     1
102
RTVSPost2010Prop29
280
     1
102
RTVSPost2010PropOp29
 70
     1
102
RTVSPost2010Prop30
280
     1
102
RTVSPost2010PropOp30
 70
     1
102
RTVSPost2010Prop31
280
     0
102
RTVSPost2010PropOp31
 70
     1
102
RTVSPost2010Prop32
280
     0
102
RTVSPost2010PropOp32
 70
     1
102
RTVSPost2010Prop33
280
     0
102
RTVSPost2010PropOp33
 70
     1
102
RTVSPost2010Prop34
280
     0
102
RTVSPost2010PropOp34
 70
     1
102
RTVSPost2010Prop35
280
     0
102
RTVSPost2010PropOp35
 70
     1
102
RTVSPost2010Prop36
280
     0
102
RTVSPost2010PropOp36
 70
     1
102
RTVSPost2010Prop37
 90
       50
102
RTVSPost2010PropOp37
 70
     1
102
RTVSPost2010Prop38
140
0.0
102
RTVSPost2010PropOp38
 70
     1
102
RTVSPost2010Prop39
140
1.0
102
RTVSPost2010PropOp39
 70
     1
102
RTVSPost2010Prop40
 90
        0
102
RTVSPost2010PropOp40
 70
     1
102
RTVSPost2010Prop41ColorIndex
 90
       18
102
RTVSPost2010Prop41ColorRGB
 90
        0
102
RTVSPost2010PropOp41
 70
     1
102
RTVSPost2010Prop42
 90
       50
102
RTVSPost2010PropOp42
 70
     1
102
RTVSPost2010Prop43
 90
        3
102
RTVSPost2010PropOp43
 70
     1
102
RTVSPost2010Prop44ColorIndex
 90
        5
102
RTVSPost2010Prop44ColorRGB
 90
      255
102
RTVSPost2010PropOp44
 70
     1
102
RTVSPost2010Prop45
280
     0
102
RTVSPost2010PropOp45
 70
     1
102
RTVSPost2010Prop46
 90
       50
102
RTVSPost2010PropOp46
 70
     1
102
RTVSPost2010Prop47
 90
       50
102
RTVSPost2010PropOp47
 70
     1
102
RTVSPost2010Prop48
 90
       50
102
RTVSPost2010PropOp48
 70
     1
102
RTVSPost2010Prop49
280
     0
102
RTVSPost2010PropOp49
 70
     1
102
RTVSPost2010Prop50
 90
       50
102
RTVSPost2010PropOp50
 70
     1
102
RTVSPost2010Prop51ColorIndex
 90
      256
102
RTVSPost2010Prop51ColorRGB
 90
-16777216
102
RTVSPost2010PropOp51
 70
     0
102
RTVSPost2010Prop52
140
1.0
102
RTVSPost2010PropOp52
 70
     0
102
RTVSPost2010Prop53
 90
        2
102
RTVSPost2010PropOp53
 70
     1
102
RTVSPost2010Prop54
  1
strokes_ogs.tif
102
RTVSPost2010PropOp54
 70
     1
102
RTVSPost2010Prop55
280
     0
102
RTVSPost2010PropOp55
 70
     1
102
RTVSPost2010Prop56
140
1.0
102
RTVSPost2010PropOp56
 70
     1
102
RTVSPost2010Prop57
140
1.0
102
RTVSPost2010PropOp57
 70
     1
  0
XRECORD
  5
341
102
{ACAD_REACTORS
330
340
102
}
330
340
100
AcDbXrecord
280
     1
102
RTVSPropertyOp0
 70
     0
102
RTVSPropertyOp1
 70
     0
102
RTVSPropertyOp2
 70
     0
102
RTVSPropertyOp3
 70
     0
102
RTVSPropertyOp4
 70
     0
102
RTVSPropertyOp5
 70
     0
102
RTVSPropertyOp6
 70
     0
102
RTVSPropertyOp7
 70
     0
102
RTVSPropertyOp8
 70
     0
102
RTVSPropertyOp9
 70
     0
102
RTVSPropertyOp10
 70
     0
102
RTVSPropertyOp11
 70
     0
102
RTVSPropertyOp12
 70
     0
102
RTVSPropertyOp13
 70
     0
102
RTVSPropertyOp14
 70
     2
102
RTVSPropertyOp15
 70
     0
102
RTVSPropertyOp16
 70
     0
102
RTVSPropertyOp17
 70
     0
102
RTVSPropertyOp18
 70
     0
102
RTVSPropertyOp19
 70
     0
102
RTVSPropertyOp20
 70
     0
102
RTVSPropertyOp21
 70
     0
102
RTVSPropertyOp22
 70
     0
102
RTVSPropertyOp23
 70
     0
102
RTVSPropertyOp24
 70
     0
102
RTVSPropertyOp25
 70
     0
102
RTVSPropertyOp26
 70
     0
102
RTVSPropertyOp27
 70
     0
102
RTVSPropertyOp28
 70
     0
102
RTVSPropertyOp29
 70
     0
102
RTVSPropertyOp30
 70
     0
102
RTVSPropertyOp31
 70
     0
102
RTVSPropertyOp32
 70
     0
102
RTVSPropertyOp33
 70
     0
102
RTVSPropertyOp34
 70
     0
102
RTVSPropertyOp35
 70
     0
102
RTVSPropertyOp36
 70
     0
102
RTVSPropertyOp37
 70
     0
102
RTVSPropertyOp38
 70
     0
102
RTVSPropertyOp39
 70
     0
102
RTVSPropertyOp40
 70
     0
102
RTVSPropertyOp41
 70
     0
102
RTVSPropertyOp42
 70
     0
102
RTVSPropertyOp43
 70
     0
102
RTVSPropertyOp44
 70
     0
102
RTVSPropertyOp45
 70
     0
102
RTVSPropertyOp46
 70
     0
102
RTVSPropertyOp47
 70
     0
102
RTVSPropertyOp48
 70
     0
102
RTVSPropertyOp49
 70
     0
102
RTVSPropertyOp50
 70
     0
102
RTVSPropertyOp51
 70
     0
102
RTVSPropertyOp52
 70
     0
102
RTVSPropertyOp53
 70
     0
102
RTVSPropertyOp54
 70
     0
102
RTVSPropertyOp55
 70
     0
102
RTVSPropertyOp56
 70
     0
102
RTVSPropertyOp57
 70
     0
102
RTVSPost2010Prop28
280
     0
102
RTVSPost2010PropOp28
 70
     0
102
RTVSPost2010Prop29
280
     1
102
RTVSPost2010PropOp29
 70
     0
102
RTVSPost2010Prop30
280
     1
102
RTVSPost2010PropOp30
 70
     0
102
RTVSPost2010Prop31
280
     0
102
RTVSPost2010PropOp31
 70
     0
102
RTVSPost2010Prop32
280
     0
102
RTVSPost2010PropOp32
 70
     0
102
RTVSPost2010Prop33
280
     0
102
RTVSPost2010PropOp33
 70
     0
102
RTVSPost2010Prop34
280
     0
102
RTVSPost2010PropOp34
 70
     0
102
RTVSPost2010Prop35
280
     0
102
RTVSPost2010PropOp35
 70
     0
102
RTVSPost2010Prop36
280
     0
102
RTVSPost2010PropOp36
 70
     0
102
RTVSPost2010Prop37
 90
       50
102
RTVSPost2010PropOp37
 70
     0
102
RTVSPost2010Prop38
140
0.0
102
RTVSPost2010PropOp38
 70
     0
102
RTVSPost2010Prop39
140
1.0
102
RTVSPost2010PropOp39
 70
     0
102
RTVSPost2010Prop40
 90
        0
102
RTVSPost2010PropOp40
 70
     0
102
RTVSPost2010Prop41ColorIndex
 90
       18
102
RTVSPost2010Prop41ColorRGB
 90
        0
102
RTVSPost2010PropOp41
 70
     0
102
RTVSPost2010Prop42
 90
       50
102
RTVSPost2010PropOp42
 70
     0
102
RTVSPost2010Prop43
 90
        3
102
RTVSPost2010PropOp43
 70
     0
102
RTVSPost2010Prop44ColorIndex
 90
        5
102
RTVSPost2010Prop44ColorRGB
 90
      255
102
RTVSPost2010PropOp44
 70
     0
102
RTVSPost2010Prop45
280
     0
102
RTVSPost2010PropOp45
 70
     0
102
RTVSPost2010Prop46
 90
       50
102
RTVSPost2010PropOp46
 70
     0
102
RTVSPost2010Prop47
 90
       50
102
RTVSPost2010PropOp47
 70
     0
102
RTVSPost2010Prop48
 90
       50
102
RTVSPost2010PropOp48
 70
     0
102
RTVSPost2010Prop49
280
     0
102
RTVSPost2010PropOp49
 70
     0
102
RTVSPost2010Prop50
 90
       50
102
RTVSPost2010PropOp50
 70
     0
102
RTVSPost2010Prop51ColorIndex
 90
      256
102
RTVSPost2010Prop51ColorRGB
 90
-16777216
102
RTVSPost2010PropOp51
 70
     0
102
RTVSPost2010Prop52
140
1.0
102
RTVSPost2010PropOp52
 70
     0
102
RTVSPost2010Prop53
 90
        2
102
RTVSPost2010PropOp53
 70
     0
102
RTVSPost2010Prop54
  1
strokes_ogs.tif
102
RTVSPost2010PropOp54
 70
     0
102
RTVSPost2010Prop55
280
     0
102
RTVSPost2010PropOp55
 70
     0
102
RTVSPost2010Prop56
140
1.0
102
RTVSPost2010PropOp56
 70
     0
102
RTVSPost2010Prop57
140
1.0
102
RTVSPost2010PropOp57
 70
     0
  0
XRECORD
  5
33B
102
{ACAD_REACTORS
330
33A
102
}
330
33A
100
AcDbXrecord
280
     1
102
RTVSPropertyOp0
 70
     1
102
RTVSPropertyOp1
 70
     1
102
RTVSPropertyOp2
 70
     1
102
RTVSPropertyOp3
 70
     1
102
RTVSPropertyOp4
 70
     1
102
RTVSPropertyOp5
 70
     1
102
RTVSPropertyOp6
 70
     1
102
RTVSPropertyOp7
 70
     1
102
RTVSPropertyOp8
 70
     1
102
RTVSPropertyOp9
 70
     1
102
RTVSPropertyOp10
 70
     1
102
RTVSPropertyOp11
 70
     1
102
RTVSPropertyOp12
 70
     1
102
RTVSPropertyOp13
 70
     1
102
RTVSPropertyOp14
 70
     1
102
RTVSPropertyOp15
 70
     1
102
RTVSPropertyOp16
 70
     1
102
RTVSPropertyOp17
 70
     1
102
RTVSPropertyOp18
 70
     1
102
RTVSPropertyOp19
 70
     1
102
RTVSPropertyOp20
 70
     1
102
RTVSPropertyOp21
 70
     1
102
RTVSPropertyOp22
 70
     1
102
RTVSPropertyOp23
 70
     1
102
RTVSPropertyOp24
 70
     1
102
RTVSPropertyOp25
 70
     1
102
RTVSPropertyOp26
 70
     1
102
RTVSPropertyOp27
 70
     1
102
RTVSPropertyOp28
 70
     1
102
RTVSPropertyOp29
 70
     1
102
RTVSPropertyOp30
 70
     1
102
RTVSPropertyOp31
 70
     1
102
RTVSPropertyOp32
 70
     1
102
RTVSPropertyOp33
 70
     1
102
RTVSPropertyOp34
 70
     1
102
RTVSPropertyOp35
 70
     1
102
RTVSPropertyOp36
 70
     1
102
RTVSPropertyOp37
 70
     1
102
RTVSPropertyOp38
 70
     1
102
RTVSPropertyOp39
 70
     1
102
RTVSPropertyOp40
 70
     1
102
RTVSPropertyOp41
 70
     1
102
RTVSPropertyOp42
 70
     1
102
RTVSPropertyOp43
 70
     1
102
RTVSPropertyOp44
 70
     1
102
RTVSPropertyOp45
 70
     1
102
RTVSPropertyOp46
 70
     1
102
RTVSPropertyOp47
 70
     1
102
RTVSPropertyOp48
 70
     1
102
RTVSPropertyOp49
 70
     1
102
RTVSPropertyOp50
 70
     1
102
RTVSPropertyOp51
 70
     0
102
RTVSPropertyOp52
 70
     0
102
RTVSPropertyOp53
 70
     1
102
RTVSPropertyOp54
 70
     1
102
RTVSPropertyOp55
 70
     1
102
RTVSPropertyOp56
 70
     1
102
RTVSPropertyOp57
 70
     1
102
RTVSPost2010Prop28
280
     0
102
RTVSPost2010PropOp28
 70
     1
102
RTVSPost2010Prop29
280
     1
102
RTVSPost2010PropOp29
 70
     1
102
RTVSPost2010Prop30
280
     1
102
RTVSPost2010PropOp30
 70
     1
102
RTVSPost2010Prop31
280
     0
102
RTVSPost2010PropOp31
 70
     1
102
RTVSPost2010Prop32
280
     0
102
RTVSPost2010PropOp32
 70
     1
102
RTVSPost2010Prop33
280
     0
102
RTVSPost2010PropOp33
 70
     1
102
RTVSPost2010Prop34
280
     0
102
RTVSPost2010PropOp34
 70
     1
102
RTVSPost2010Prop35
280
     0
102
RTVSPost2010PropOp35
 70
     1
102
RTVSPost2010Prop36
280
     0
102
RTVSPost2010PropOp36
 70
     1
102
RTVSPost2010Prop37
 90
       50
102
RTVSPost2010PropOp37
 70
     1
102
RTVSPost2010Prop38
140
0.0
102
RTVSPost2010PropOp38
 70
     1
102
RTVSPost2010Prop39
140
1.0
102
RTVSPost2010PropOp39
 70
     1
102
RTVSPost2010Prop40
 90
        0
102
RTVSPost2010PropOp40
 70
     1
102
RTVSPost2010Prop41ColorIndex
 90
       18
102
RTVSPost2010Prop41ColorRGB
 90
        0
102
RTVSPost2010PropOp41
 70
     1
102
RTVSPost2010Prop42
 90
       50
102
RTVSPost2010PropOp42
 70
     1
102
RTVSPost2010Prop43
 90
        3
102
RTVSPost2010PropOp43
 70
     1
102
RTVSPost2010Prop44ColorIndex
 90
        5
102
RTVSPost2010Prop44ColorRGB
 90
      255
102
RTVSPost2010PropOp44
 70
     1
102
RTVSPost2010Prop45
280
     0
102
RTVSPost2010PropOp45
 70
     1
102
RTVSPost2010Prop46
 90
       50
102
RTVSPost2010PropOp46
 70
     1
102
RTVSPost2010Prop47
 90
       50
102
RTVSPost2010PropOp47
 70
     1
102
RTVSPost2010Prop48
 90
       50
102
RTVSPost2010PropOp48
 70
     1
102
RTVSPost2010Prop49
280
     0
102
RTVSPost2010PropOp49
 70
     1
102
RTVSPost2010Prop50
 90
       50
102
RTVSPost2010PropOp50
 70
     1
102
RTVSPost2010Prop51ColorIndex
 90
      256
102
RTVSPost2010Prop51ColorRGB
 90
-16777216
102
RTVSPost2010PropOp51
 70
     0
102
RTVSPost2010Prop52
140
1.0
102
RTVSPost2010PropOp52
 70
     0
102
RTVSPost2010Prop53
 90
        2
102
RTVSPost2010PropOp53
 70
     1
102
RTVSPost2010Prop54
  1
strokes_ogs.tif
102
RTVSPost2010PropOp54
 70
     1
102
RTVSPost2010Prop55
280
     0
102
RTVSPost2010PropOp55
 70
     1
102
RTVSPost2010Prop56
140
1.0
102
RTVSPost2010PropOp56
 70
     1
102
RTVSPost2010Prop57
140
1.0
102
RTVSPost2010PropOp57
 70
     1
  0
XRECORD
  5
343
102
{ACAD_REACTORS
330
342
102
}
330
342
100
AcDbXrecord
280
     1
102
RTVSPropertyOp0
 70
     0
102
RTVSPropertyOp1
 70
     0
102
RTVSPropertyOp2
 70
     0
102
RTVSPropertyOp3
 70
     0
102
RTVSPropertyOp4
 70
     0
102
RTVSPropertyOp5
 70
     0
102
RTVSPropertyOp6
 70
     0
102
RTVSPropertyOp7
 70
     0
102
RTVSPropertyOp8
 70
     0
102
RTVSPropertyOp9
 70
     0
102
RTVSPropertyOp10
 70
     0
102
RTVSPropertyOp11
 70
     0
102
RTVSPropertyOp12
 70
     0
102
RTVSPropertyOp13
 70
     0
102
RTVSPropertyOp14
 70
     2
102
RTVSPropertyOp15
 70
     0
102
RTVSPropertyOp16
 70
     0
102
RTVSPropertyOp17
 70
     0
102
RTVSPropertyOp18
 70
     0
102
RTVSPropertyOp19
 70
     0
102
RTVSPropertyOp20
 70
     0
102
RTVSPropertyOp21
 70
     0
102
RTVSPropertyOp22
 70
     0
102
RTVSPropertyOp23
 70
     0
102
RTVSPropertyOp24
 70
     0
102
RTVSPropertyOp25
 70
     0
102
RTVSPropertyOp26
 70
     0
102
RTVSPropertyOp27
 70
     0
102
RTVSPropertyOp28
 70
     0
102
RTVSPropertyOp29
 70
     0
102
RTVSPropertyOp30
 70
     0
102
RTVSPropertyOp31
 70
     0
102
RTVSPropertyOp32
 70
     0
102
RTVSPropertyOp33
 70
     0
102
RTVSPropertyOp34
 70
     0
102
RTVSPropertyOp35
 70
     0
102
RTVSPropertyOp36
 70
     0
102
RTVSPropertyOp37
 70
     0
102
RTVSPropertyOp38
 70
     0
102
RTVSPropertyOp39
 70
     0
102
RTVSPropertyOp40
 70
     0
102
RTVSPropertyOp41
 70
     0
102
RTVSPropertyOp42
 70
     0
102
RTVSPropertyOp43
 70
     0
102
RTVSPropertyOp44
 70
     0
102
RTVSPropertyOp45
 70
     0
102
RTVSPropertyOp46
 70
     0
102
RTVSPropertyOp47
 70
     0
102
RTVSPropertyOp48
 70
     0
102
RTVSPropertyOp49
 70
     0
102
RTVSPropertyOp50
 70
     0
102
RTVSPropertyOp51
 70
     0
102
RTVSPropertyOp52
 70
     0
102
RTVSPropertyOp53
 70
     0
102
RTVSPropertyOp54
 70
     0
102
RTVSPropertyOp55
 70
     0
102
RTVSPropertyOp56
 70
     0
102
RTVSPropertyOp57
 70
     0
102
RTVSPost2010Prop28
280
     0
102
RTVSPost2010PropOp28
 70
     0
102
RTVSPost2010Prop29
280
     1
102
RTVSPost2010PropOp29
 70
     0
102
RTVSPost2010Prop30
280
     1
102
RTVSPost2010PropOp30
 70
     0
102
RTVSPost2010Prop31
280
     0
102
RTVSPost2010PropOp31
 70
     0
102
RTVSPost2010Prop32
280
     0
102
RTVSPost2010PropOp32
 70
     0
102
RTVSPost2010Prop33
280
     0
102
RTVSPost2010PropOp33
 70
     0
102
RTVSPost2010Prop34
280
     0
102
RTVSPost2010PropOp34
 70
     0
102
RTVSPost2010Prop35
280
     0
102
RTVSPost2010PropOp35
 70
     0
102
RTVSPost2010Prop36
280
     0
102
RTVSPost2010PropOp36
 70
     0
102
RTVSPost2010Prop37
 90
       50
102
RTVSPost2010PropOp37
 70
     0
102
RTVSPost2010Prop38
140
0.0
102
RTVSPost2010PropOp38
 70
     0
102
RTVSPost2010Prop39
140
1.0
102
RTVSPost2010PropOp39
 70
     0
102
RTVSPost2010Prop40
 90
        0
102
RTVSPost2010PropOp40
 70
     0
102
RTVSPost2010Prop41ColorIndex
 90
       18
102
RTVSPost2010Prop41ColorRGB
 90
        0
102
RTVSPost2010PropOp41
 70
     0
102
RTVSPost2010Prop42
 90
       50
102
RTVSPost2010PropOp42
 70
     0
102
RTVSPost2010Prop43
 90
        3
102
RTVSPost2010PropOp43
 70
     0
102
RTVSPost2010Prop44ColorIndex
 90
        5
102
RTVSPost2010Prop44ColorRGB
 90
      255
102
RTVSPost2010PropOp44
 70
     0
102
RTVSPost2010Prop45
280
     0
102
RTVSPost2010PropOp45
 70
     0
102
RTVSPost2010Prop46
 90
       50
102
RTVSPost2010PropOp46
 70
     0
102
RTVSPost2010Prop47
 90
       50
102
RTVSPost2010PropOp47
 70
     0
102
RTVSPost2010Prop48
 90
       50
102
RTVSPost2010PropOp48
 70
     0
102
RTVSPost2010Prop49
280
     0
102
RTVSPost2010PropOp49
 70
     0
102
RTVSPost2010Prop50
 90
       50
102
RTVSPost2010PropOp50
 70
     0
102
RTVSPost2010Prop51ColorIndex
 90
      256
102
RTVSPost2010Prop51ColorRGB
 90
-16777216
102
RTVSPost2010PropOp51
 70
     0
102
RTVSPost2010Prop52
140
1.0
102
RTVSPost2010PropOp52
 70
     0
102
RTVSPost2010Prop53
 90
        2
102
RTVSPost2010PropOp53
 70
     0
102
RTVSPost2010Prop54
  1
strokes_ogs.tif
102
RTVSPost2010PropOp54
 70
     0
102
RTVSPost2010Prop55
280
     0
102
RTVSPost2010PropOp55
 70
     0
102
RTVSPost2010Prop56
140
1.0
102
RTVSPost2010PropOp56
 70
     0
102
RTVSPost2010Prop57
140
1.0
102
RTVSPost2010PropOp57
 70
     0
  0
XRECORD
  5
331
102
{ACAD_REACTORS
330
330
102
}
330
330
100
AcDbXrecord
280
     1
102
RTVSPropertyOp0
 70
     1
102
RTVSPropertyOp1
 70
     1
102
RTVSPropertyOp2
 70
     1
102
RTVSPropertyOp3
 70
     1
102
RTVSPropertyOp4
 70
     1
102
RTVSPropertyOp5
 70
     1
102
RTVSPropertyOp6
 70
     1
102
RTVSPropertyOp7
 70
     1
102
RTVSPropertyOp8
 70
     1
102
RTVSPropertyOp9
 70
     1
102
RTVSPropertyOp10
 70
     1
102
RTVSPropertyOp11
 70
     1
102
RTVSPropertyOp12
 70
     1
102
RTVSPropertyOp13
 70
     1
102
RTVSPropertyOp14
 70
     1
102
RTVSPropertyOp15
 70
     1
102
RTVSPropertyOp16
 70
     1
102
RTVSPropertyOp17
 70
     1
102
RTVSPropertyOp18
 70
     1
102
RTVSPropertyOp19
 70
     1
102
RTVSPropertyOp20
 70
     1
102
RTVSPropertyOp21
 70
     1
102
RTVSPropertyOp22
 70
     1
102
RTVSPropertyOp23
 70
     1
102
RTVSPropertyOp24
 70
     1
102
RTVSPropertyOp25
 70
     1
102
RTVSPropertyOp26
 70
     1
102
RTVSPropertyOp27
 70
     1
102
RTVSPropertyOp28
 70
     1
102
RTVSPropertyOp29
 70
     1
102
RTVSPropertyOp30
 70
     1
102
RTVSPropertyOp31
 70
     1
102
RTVSPropertyOp32
 70
     1
102
RTVSPropertyOp33
 70
     1
102
RTVSPropertyOp34
 70
     1
102
RTVSPropertyOp35
 70
     1
102
RTVSPropertyOp36
 70
     1
102
RTVSPropertyOp37
 70
     1
102
RTVSPropertyOp38
 70
     1
102
RTVSPropertyOp39
 70
     1
102
RTVSPropertyOp40
 70
     1
102
RTVSPropertyOp41
 70
     1
102
RTVSPropertyOp42
 70
     1
102
RTVSPropertyOp43
 70
     1
102
RTVSPropertyOp44
 70
     1
102
RTVSPropertyOp45
 70
     1
102
RTVSPropertyOp46
 70
     1
102
RTVSPropertyOp47
 70
     1
102
RTVSPropertyOp48
 70
     1
102
RTVSPropertyOp49
 70
     1
102
RTVSPropertyOp50
 70
     1
102
RTVSPropertyOp51
 70
     0
102
RTVSPropertyOp52
 70
     0
102
RTVSPropertyOp53
 70
     1
102
RTVSPropertyOp54
 70
     1
102
RTVSPropertyOp55
 70
     1
102
RTVSPropertyOp56
 70
     1
102
RTVSPropertyOp57
 70
     1
102
RTVSPost2010Prop28
280
     0
102
RTVSPost2010PropOp28
 70
     1
102
RTVSPost2010Prop29
280
     1
102
RTVSPost2010PropOp29
 70
     1
102
RTVSPost2010Prop30
280
     1
102
RTVSPost2010PropOp30
 70
     1
102
RTVSPost2010Prop31
280
     0
102
RTVSPost2010PropOp31
 70
     1
102
RTVSPost2010Prop32
280
     0
102
RTVSPost2010PropOp32
 70
     1
102
RTVSPost2010Prop33
280
     0
102
RTVSPost2010PropOp33
 70
     1
102
RTVSPost2010Prop34
280
     0
102
RTVSPost2010PropOp34
 70
     1
102
RTVSPost2010Prop35
280
     0
102
RTVSPost2010PropOp35
 70
     1
102
RTVSPost2010Prop36
280
     0
102
RTVSPost2010PropOp36
 70
     1
102
RTVSPost2010Prop37
 90
       50
102
RTVSPost2010PropOp37
 70
     1
102
RTVSPost2010Prop38
140
0.0
102
RTVSPost2010PropOp38
 70
     1
102
RTVSPost2010Prop39
140
1.0
102
RTVSPost2010PropOp39
 70
     1
102
RTVSPost2010Prop40
 90
        0
102
RTVSPost2010PropOp40
 70
     1
102
RTVSPost2010Prop41ColorIndex
 90
       18
102
RTVSPost2010Prop41ColorRGB
 90
        0
102
RTVSPost2010PropOp41
 70
     1
102
RTVSPost2010Prop42
 90
       50
102
RTVSPost2010PropOp42
 70
     1
102
RTVSPost2010Prop43
 90
        3
102
RTVSPost2010PropOp43
 70
     1
102
RTVSPost2010Prop44ColorIndex
 90
        5
102
RTVSPost2010Prop44ColorRGB
 90
      255
102
RTVSPost2010PropOp44
 70
     1
102
RTVSPost2010Prop45
280
     0
102
RTVSPost2010PropOp45
 70
     1
102
RTVSPost2010Prop46
 90
       50
102
RTVSPost2010PropOp46
 70
     1
102
RTVSPost2010Prop47
 90
       50
102
RTVSPost2010PropOp47
 70
     1
102
RTVSPost2010Prop48
 90
       50
102
RTVSPost2010PropOp48
 70
     1
102
RTVSPost2010Prop49
280
     0
102
RTVSPost2010PropOp49
 70
     1
102
RTVSPost2010Prop50
 90
       50
102
RTVSPost2010PropOp50
 70
     1
102
RTVSPost2010Prop51ColorIndex
 90
      256
102
RTVSPost2010Prop51ColorRGB
 90
-16777216
102
RTVSPost2010PropOp51
 70
     0
102
RTVSPost2010Prop52
140
1.0
102
RTVSPost2010PropOp52
 70
     0
102
RTVSPost2010Prop53
 90
        2
102
RTVSPost2010PropOp53
 70
     1
102
RTVSPost2010Prop54
  1
strokes_ogs.tif
102
RTVSPost2010PropOp54
 70
     1
102
RTVSPost2010Prop55
280
     0
102
RTVSPost2010PropOp55
 70
     1
102
RTVSPost2010Prop56
140
1.0
102
RTVSPost2010PropOp56
 70
     1
102
RTVSPost2010Prop57
140
1.0
102
RTVSPost2010PropOp57
 70
     1
  0
XRECORD
  5
34F
102
{ACAD_REACTORS
330
34E
102
}
330
34E
100
AcDbXrecord
280
     1
102
RTVSPropertyOp0
 70
     1
102
RTVSPropertyOp1
 70
     1
102
RTVSPropertyOp2
 70
     1
102
RTVSPropertyOp3
 70
     1
102
RTVSPropertyOp4
 70
     1
102
RTVSPropertyOp5
 70
     1
102
RTVSPropertyOp6
 70
     1
102
RTVSPropertyOp7
 70
     1
102
RTVSPropertyOp8
 70
     1
102
RTVSPropertyOp9
 70
     1
102
RTVSPropertyOp10
 70
     1
102
RTVSPropertyOp11
 70
     1
102
RTVSPropertyOp12
 70
     1
102
RTVSPropertyOp13
 70
     1
102
RTVSPropertyOp14
 70
     1
102
RTVSPropertyOp15
 70
     1
102
RTVSPropertyOp16
 70
     1
102
RTVSPropertyOp17
 70
     1
102
RTVSPropertyOp18
 70
     1
102
RTVSPropertyOp19
 70
     1
102
RTVSPropertyOp20
 70
     1
102
RTVSPropertyOp21
 70
     1
102
RTVSPropertyOp22
 70
     1
102
RTVSPropertyOp23
 70
     1
102
RTVSPropertyOp24
 70
     1
102
RTVSPropertyOp25
 70
     1
102
RTVSPropertyOp26
 70
     1
102
RTVSPropertyOp27
 70
     1
102
RTVSPropertyOp28
 70
     1
102
RTVSPropertyOp29
 70
     1
102
RTVSPropertyOp30
 70
     1
102
RTVSPropertyOp31
 70
     1
102
RTVSPropertyOp32
 70
     1
102
RTVSPropertyOp33
 70
     1
102
RTVSPropertyOp34
 70
     1
102
RTVSPropertyOp35
 70
     1
102
RTVSPropertyOp36
 70
     1
102
RTVSPropertyOp37
 70
     1
102
RTVSPropertyOp38
 70
     1
102
RTVSPropertyOp39
 70
     1
102
RTVSPropertyOp40
 70
     1
102
RTVSPropertyOp41
 70
     1
102
RTVSPropertyOp42
 70
     1
102
RTVSPropertyOp43
 70
     1
102
RTVSPropertyOp44
 70
     1
102
RTVSPropertyOp45
 70
     1
102
RTVSPropertyOp46
 70
     1
102
RTVSPropertyOp47
 70
     1
102
RTVSPropertyOp48
 70
     1
102
RTVSPropertyOp49
 70
     1
102
RTVSPropertyOp50
 70
     1
102
RTVSPropertyOp51
 70
     0
102
RTVSPropertyOp52
 70
     0
102
RTVSPropertyOp53
 70
     1
102
RTVSPropertyOp54
 70
     1
102
RTVSPropertyOp55
 70
     1
102
RTVSPropertyOp56
 70
     1
102
RTVSPropertyOp57
 70
     1
102
RTVSPost2010Prop28
280
     0
102
RTVSPost2010PropOp28
 70
     1
102
RTVSPost2010Prop29
280
     1
102
RTVSPost2010PropOp29
 70
     1
102
RTVSPost2010Prop30
280
     1
102
RTVSPost2010PropOp30
 70
     1
102
RTVSPost2010Prop31
280
     0
102
RTVSPost2010PropOp31
 70
     1
102
RTVSPost2010Prop32
280
     0
102
RTVSPost2010PropOp32
 70
     1
102
RTVSPost2010Prop33
280
     0
102
RTVSPost2010PropOp33
 70
     1
102
RTVSPost2010Prop34
280
     0
102
RTVSPost2010PropOp34
 70
     1
102
RTVSPost2010Prop35
280
     0
102
RTVSPost2010PropOp35
 70
     1
102
RTVSPost2010Prop36
280
     0
102
RTVSPost2010PropOp36
 70
     1
102
RTVSPost2010Prop37
 90
       50
102
RTVSPost2010PropOp37
 70
     1
102
RTVSPost2010Prop38
140
0.0
102
RTVSPost2010PropOp38
 70
     1
102
RTVSPost2010Prop39
140
1.0
102
RTVSPost2010PropOp39
 70
     1
102
RTVSPost2010Prop40
 90
        0
102
RTVSPost2010PropOp40
 70
     1
102
RTVSPost2010Prop41ColorIndex
 90
       18
102
RTVSPost2010Prop41ColorRGB
 90
        0
102
RTVSPost2010PropOp41
 70
     1
102
RTVSPost2010Prop42
 90
       50
102
RTVSPost2010PropOp42
 70
     1
102
RTVSPost2010Prop43
 90
        3
102
RTVSPost2010PropOp43
 70
     1
102
RTVSPost2010Prop44ColorIndex
 90
        5
102
RTVSPost2010Prop44ColorRGB
 90
      255
102
RTVSPost2010PropOp44
 70
     1
102
RTVSPost2010Prop45
280
     0
102
RTVSPost2010PropOp45
 70
     1
102
RTVSPost2010Prop46
 90
       50
102
RTVSPost2010PropOp46
 70
     1
102
RTVSPost2010Prop47
 90
       50
102
RTVSPost2010PropOp47
 70
     1
102
RTVSPost2010Prop48
 90
       50
102
RTVSPost2010PropOp48
 70
     1
102
RTVSPost2010Prop49
280
     0
102
RTVSPost2010PropOp49
 70
     1
102
RTVSPost2010Prop50
 90
       50
102
RTVSPost2010PropOp50
 70
     1
102
RTVSPost2010Prop51ColorIndex
 90
      256
102
RTVSPost2010Prop51ColorRGB
 90
-16777216
102
RTVSPost2010PropOp51
 70
     0
102
RTVSPost2010Prop52
140
1.0
102
RTVSPost2010PropOp52
 70
     0
102
RTVSPost2010Prop53
 90
        2
102
RTVSPost2010PropOp53
 70
     1
102
RTVSPost2010Prop54
  1
strokes_ogs.tif
102
RTVSPost2010PropOp54
 70
     1
102
RTVSPost2010Prop55
280
     0
102
RTVSPost2010PropOp55
 70
     1
102
RTVSPost2010Prop56
140
1.0
102
RTVSPost2010PropOp56
 70
     1
102
RTVSPost2010Prop57
140
1.0
102
RTVSPost2010PropOp57
 70
     1
  0
XRECORD
  5
34D
102
{ACAD_REACTORS
330
34C
102
}
330
34C
100
AcDbXrecord
280
     1
102
RTVSPropertyOp0
 70
     1
102
RTVSPropertyOp1
 70
     1
102
RTVSPropertyOp2
 70
     1
102
RTVSPropertyOp3
 70
     1
102
RTVSPropertyOp4
 70
     1
102
RTVSPropertyOp5
 70
     1
102
RTVSPropertyOp6
 70
     1
102
RTVSPropertyOp7
 70
     1
102
RTVSPropertyOp8
 70
     1
102
RTVSPropertyOp9
 70
     1
102
RTVSPropertyOp10
 70
     1
102
RTVSPropertyOp11
 70
     1
102
RTVSPropertyOp12
 70
     1
102
RTVSPropertyOp13
 70
     1
102
RTVSPropertyOp14
 70
     1
102
RTVSPropertyOp15
 70
     1
102
RTVSPropertyOp16
 70
     1
102
RTVSPropertyOp17
 70
     1
102
RTVSPropertyOp18
 70
     1
102
RTVSPropertyOp19
 70
     1
102
RTVSPropertyOp20
 70
     1
102
RTVSPropertyOp21
 70
     1
102
RTVSPropertyOp22
 70
     1
102
RTVSPropertyOp23
 70
     1
102
RTVSPropertyOp24
 70
     1
102
RTVSPropertyOp25
 70
     1
102
RTVSPropertyOp26
 70
     1
102
RTVSPropertyOp27
 70
     1
102
RTVSPropertyOp28
 70
     1
102
RTVSPropertyOp29
 70
     1
102
RTVSPropertyOp30
 70
     1
102
RTVSPropertyOp31
 70
     1
102
RTVSPropertyOp32
 70
     1
102
RTVSPropertyOp33
 70
     1
102
RTVSPropertyOp34
 70
     1
102
RTVSPropertyOp35
 70
     1
102
RTVSPropertyOp36
 70
     1
102
RTVSPropertyOp37
 70
     1
102
RTVSPropertyOp38
 70
     1
102
RTVSPropertyOp39
 70
     1
102
RTVSPropertyOp40
 70
     1
102
RTVSPropertyOp41
 70
     1
102
RTVSPropertyOp42
 70
     1
102
RTVSPropertyOp43
 70
     1
102
RTVSPropertyOp44
 70
     1
102
RTVSPropertyOp45
 70
     1
102
RTVSPropertyOp46
 70
     1
102
RTVSPropertyOp47
 70
     1
102
RTVSPropertyOp48
 70
     1
102
RTVSPropertyOp49
 70
     1
102
RTVSPropertyOp50
 70
     1
102
RTVSPropertyOp51
 70
     0
102
RTVSPropertyOp52
 70
     0
102
RTVSPropertyOp53
 70
     1
102
RTVSPropertyOp54
 70
     1
102
RTVSPropertyOp55
 70
     1
102
RTVSPropertyOp56
 70
     1
102
RTVSPropertyOp57
 70
     1
102
RTVSPost2010Prop28
280
     0
102
RTVSPost2010PropOp28
 70
     1
102
RTVSPost2010Prop29
280
     1
102
RTVSPost2010PropOp29
 70
     1
102
RTVSPost2010Prop30
280
     1
102
RTVSPost2010PropOp30
 70
     1
102
RTVSPost2010Prop31
280
     0
102
RTVSPost2010PropOp31
 70
     1
102
RTVSPost2010Prop32
280
     0
102
RTVSPost2010PropOp32
 70
     1
102
RTVSPost2010Prop33
280
     0
102
RTVSPost2010PropOp33
 70
     1
102
RTVSPost2010Prop34
280
     0
102
RTVSPost2010PropOp34
 70
     1
102
RTVSPost2010Prop35
280
     0
102
RTVSPost2010PropOp35
 70
     1
102
RTVSPost2010Prop36
280
     0
102
RTVSPost2010PropOp36
 70
     1
102
RTVSPost2010Prop37
 90
       50
102
RTVSPost2010PropOp37
 70
     1
102
RTVSPost2010Prop38
140
0.0
102
RTVSPost2010PropOp38
 70
     1
102
RTVSPost2010Prop39
140
1.0
102
RTVSPost2010PropOp39
 70
     1
102
RTVSPost2010Prop40
 90
        0
102
RTVSPost2010PropOp40
 70
     1
102
RTVSPost2010Prop41ColorIndex
 90
       18
102
RTVSPost2010Prop41ColorRGB
 90
        0
102
RTVSPost2010PropOp41
 70
     1
102
RTVSPost2010Prop42
 90
       50
102
RTVSPost2010PropOp42
 70
     1
102
RTVSPost2010Prop43
 90
        3
102
RTVSPost2010PropOp43
 70
     1
102
RTVSPost2010Prop44ColorIndex
 90
        5
102
RTVSPost2010Prop44ColorRGB
 90
      255
102
RTVSPost2010PropOp44
 70
     1
102
RTVSPost2010Prop45
280
     0
102
RTVSPost2010PropOp45
 70
     1
102
RTVSPost2010Prop46
 90
       50
102
RTVSPost2010PropOp46
 70
     1
102
RTVSPost2010Prop47
 90
       50
102
RTVSPost2010PropOp47
 70
     1
102
RTVSPost2010Prop48
 90
       50
102
RTVSPost2010PropOp48
 70
     1
102
RTVSPost2010Prop49
280
     0
102
RTVSPost2010PropOp49
 70
     1
102
RTVSPost2010Prop50
 90
       50
102
RTVSPost2010PropOp50
 70
     1
102
RTVSPost2010Prop51ColorIndex
 90
      256
102
RTVSPost2010Prop51ColorRGB
 90
-16777216
102
RTVSPost2010PropOp51
 70
     0
102
RTVSPost2010Prop52
140
1.0
102
RTVSPost2010PropOp52
 70
     0
102
RTVSPost2010Prop53
 90
        2
102
RTVSPost2010PropOp53
 70
     1
102
RTVSPost2010Prop54
  1
strokes_ogs.tif
102
RTVSPost2010PropOp54
 70
     1
102
RTVSPost2010Prop55
280
     0
102
RTVSPost2010PropOp55
 70
     1
102
RTVSPost2010Prop56
140
1.0
102
RTVSPost2010PropOp56
 70
     1
102
RTVSPost2010Prop57
140
1.0
102
RTVSPost2010PropOp57
 70
     1
  0
XRECORD
  5
347
102
{ACAD_REACTORS
330
346
102
}
330
346
100
AcDbXrecord
280
     1
102
RTVSPropertyOp0
 70
     1
102
RTVSPropertyOp1
 70
     1
102
RTVSPropertyOp2
 70
     1
102
RTVSPropertyOp3
 70
     1
102
RTVSPropertyOp4
 70
     1
102
RTVSPropertyOp5
 70
     1
102
RTVSPropertyOp6
 70
     1
102
RTVSPropertyOp7
 70
     1
102
RTVSPropertyOp8
 70
     1
102
RTVSPropertyOp9
 70
     1
102
RTVSPropertyOp10
 70
     1
102
RTVSPropertyOp11
 70
     1
102
RTVSPropertyOp12
 70
     1
102
RTVSPropertyOp13
 70
     1
102
RTVSPropertyOp14
 70
     1
102
RTVSPropertyOp15
 70
     1
102
RTVSPropertyOp16
 70
     1
102
RTVSPropertyOp17
 70
     1
102
RTVSPropertyOp18
 70
     1
102
RTVSPropertyOp19
 70
     1
102
RTVSPropertyOp20
 70
     1
102
RTVSPropertyOp21
 70
     1
102
RTVSPropertyOp22
 70
     1
102
RTVSPropertyOp23
 70
     1
102
RTVSPropertyOp24
 70
     1
102
RTVSPropertyOp25
 70
     1
102
RTVSPropertyOp26
 70
     1
102
RTVSPropertyOp27
 70
     1
102
RTVSPropertyOp28
 70
     1
102
RTVSPropertyOp29
 70
     1
102
RTVSPropertyOp30
 70
     1
102
RTVSPropertyOp31
 70
     1
102
RTVSPropertyOp32
 70
     1
102
RTVSPropertyOp33
 70
     1
102
RTVSPropertyOp34
 70
     1
102
RTVSPropertyOp35
 70
     1
102
RTVSPropertyOp36
 70
     1
102
RTVSPropertyOp37
 70
     1
102
RTVSPropertyOp38
 70
     1
102
RTVSPropertyOp39
 70
     1
102
RTVSPropertyOp40
 70
     1
102
RTVSPropertyOp41
 70
     1
102
RTVSPropertyOp42
 70
     1
102
RTVSPropertyOp43
 70
     1
102
RTVSPropertyOp44
 70
     1
102
RTVSPropertyOp45
 70
     1
102
RTVSPropertyOp46
 70
     1
102
RTVSPropertyOp47
 70
     1
102
RTVSPropertyOp48
 70
     1
102
RTVSPropertyOp49
 70
     1
102
RTVSPropertyOp50
 70
     1
102
RTVSPropertyOp51
 70
     0
102
RTVSPropertyOp52
 70
     0
102
RTVSPropertyOp53
 70
     1
102
RTVSPropertyOp54
 70
     1
102
RTVSPropertyOp55
 70
     1
102
RTVSPropertyOp56
 70
     1
102
RTVSPropertyOp57
 70
     1
102
RTVSPost2010Prop28
280
     0
102
RTVSPost2010PropOp28
 70
     1
102
RTVSPost2010Prop29
280
     1
102
RTVSPost2010PropOp29
 70
     1
102
RTVSPost2010Prop30
280
     1
102
RTVSPost2010PropOp30
 70
     1
102
RTVSPost2010Prop31
280
     0
102
RTVSPost2010PropOp31
 70
     1
102
RTVSPost2010Prop32
280
     0
102
RTVSPost2010PropOp32
 70
     1
102
RTVSPost2010Prop33
280
     0
102
RTVSPost2010PropOp33
 70
     1
102
RTVSPost2010Prop34
280
     0
102
RTVSPost2010PropOp34
 70
     1
102
RTVSPost2010Prop35
280
     0
102
RTVSPost2010PropOp35
 70
     1
102
RTVSPost2010Prop36
280
     0
102
RTVSPost2010PropOp36
 70
     1
102
RTVSPost2010Prop37
 90
       50
102
RTVSPost2010PropOp37
 70
     1
102
RTVSPost2010Prop38
140
0.0
102
RTVSPost2010PropOp38
 70
     1
102
RTVSPost2010Prop39
140
1.0
102
RTVSPost2010PropOp39
 70
     1
102
RTVSPost2010Prop40
 90
        0
102
RTVSPost2010PropOp40
 70
     1
102
RTVSPost2010Prop41ColorIndex
 90
       18
102
RTVSPost2010Prop41ColorRGB
 90
        0
102
RTVSPost2010PropOp41
 70
     1
102
RTVSPost2010Prop42
 90
       50
102
RTVSPost2010PropOp42
 70
     1
102
RTVSPost2010Prop43
 90
        3
102
RTVSPost2010PropOp43
 70
     1
102
RTVSPost2010Prop44ColorIndex
 90
        5
102
RTVSPost2010Prop44ColorRGB
 90
      255
102
RTVSPost2010PropOp44
 70
     1
102
RTVSPost2010Prop45
280
     0
102
RTVSPost2010PropOp45
 70
     1
102
RTVSPost2010Prop46
 90
       50
102
RTVSPost2010PropOp46
 70
     1
102
RTVSPost2010Prop47
 90
       50
102
RTVSPost2010PropOp47
 70
     1
102
RTVSPost2010Prop48
 90
       50
102
RTVSPost2010PropOp48
 70
     1
102
RTVSPost2010Prop49
280
     0
102
RTVSPost2010PropOp49
 70
     1
102
RTVSPost2010Prop50
 90
       50
102
RTVSPost2010PropOp50
 70
     1
102
RTVSPost2010Prop51ColorIndex
 90
      256
102
RTVSPost2010Prop51ColorRGB
 90
-16777216
102
RTVSPost2010PropOp51
 70
     0
102
RTVSPost2010Prop52
140
1.0
102
RTVSPost2010PropOp52
 70
     0
102
RTVSPost2010Prop53
 90
        2
102
RTVSPost2010PropOp53
 70
     1
102
RTVSPost2010Prop54
  1
strokes_ogs.tif
102
RTVSPost2010PropOp54
 70
     1
102
RTVSPost2010Prop55
280
     0
102
RTVSPost2010PropOp55
 70
     1
102
RTVSPost2010Prop56
140
1.0
102
RTVSPost2010PropOp56
 70
     1
102
RTVSPost2010Prop57
140
1.0
102
RTVSPost2010PropOp57
 70
     1
  0
XRECORD
  5
349
102
{ACAD_REACTORS
330
348
102
}
330
348
100
AcDbXrecord
280
     1
102
RTVSPropertyOp0
 70
     1
102
RTVSPropertyOp1
 70
     1
102
RTVSPropertyOp2
 70
     1
102
RTVSPropertyOp3
 70
     1
102
RTVSPropertyOp4
 70
     1
102
RTVSPropertyOp5
 70
     1
102
RTVSPropertyOp6
 70
     1
102
RTVSPropertyOp7
 70
     1
102
RTVSPropertyOp8
 70
     1
102
RTVSPropertyOp9
 70
     1
102
RTVSPropertyOp10
 70
     1
102
RTVSPropertyOp11
 70
     1
102
RTVSPropertyOp12
 70
     1
102
RTVSPropertyOp13
 70
     1
102
RTVSPropertyOp14
 70
     1
102
RTVSPropertyOp15
 70
     1
102
RTVSPropertyOp16
 70
     1
102
RTVSPropertyOp17
 70
     1
102
RTVSPropertyOp18
 70
     1
102
RTVSPropertyOp19
 70
     1
102
RTVSPropertyOp20
 70
     1
102
RTVSPropertyOp21
 70
     1
102
RTVSPropertyOp22
 70
     1
102
RTVSPropertyOp23
 70
     1
102
RTVSPropertyOp24
 70
     1
102
RTVSPropertyOp25
 70
     1
102
RTVSPropertyOp26
 70
     1
102
RTVSPropertyOp27
 70
     1
102
RTVSPropertyOp28
 70
     1
102
RTVSPropertyOp29
 70
     1
102
RTVSPropertyOp30
 70
     1
102
RTVSPropertyOp31
 70
     1
102
RTVSPropertyOp32
 70
     1
102
RTVSPropertyOp33
 70
     1
102
RTVSPropertyOp34
 70
     1
102
RTVSPropertyOp35
 70
     1
102
RTVSPropertyOp36
 70
     1
102
RTVSPropertyOp37
 70
     1
102
RTVSPropertyOp38
 70
     1
102
RTVSPropertyOp39
 70
     1
102
RTVSPropertyOp40
 70
     1
102
RTVSPropertyOp41
 70
     1
102
RTVSPropertyOp42
 70
     1
102
RTVSPropertyOp43
 70
     1
102
RTVSPropertyOp44
 70
     1
102
RTVSPropertyOp45
 70
     1
102
RTVSPropertyOp46
 70
     1
102
RTVSPropertyOp47
 70
     1
102
RTVSPropertyOp48
 70
     1
102
RTVSPropertyOp49
 70
     1
102
RTVSPropertyOp50
 70
     1
102
RTVSPropertyOp51
 70
     0
102
RTVSPropertyOp52
 70
     0
102
RTVSPropertyOp53
 70
     1
102
RTVSPropertyOp54
 70
     1
102
RTVSPropertyOp55
 70
     1
102
RTVSPropertyOp56
 70
     1
102
RTVSPropertyOp57
 70
     1
102
RTVSPost2010Prop28
280
     0
102
RTVSPost2010PropOp28
 70
     1
102
RTVSPost2010Prop29
280
     1
102
RTVSPost2010PropOp29
 70
     1
102
RTVSPost2010Prop30
280
     1
102
RTVSPost2010PropOp30
 70
     1
102
RTVSPost2010Prop31
280
     0
102
RTVSPost2010PropOp31
 70
     1
102
RTVSPost2010Prop32
280
     0
102
RTVSPost2010PropOp32
 70
     1
102
RTVSPost2010Prop33
280
     0
102
RTVSPost2010PropOp33
 70
     1
102
RTVSPost2010Prop34
280
     0
102
RTVSPost2010PropOp34
 70
     1
102
RTVSPost2010Prop35
280
     0
102
RTVSPost2010PropOp35
 70
     1
102
RTVSPost2010Prop36
280
     0
102
RTVSPost2010PropOp36
 70
     1
102
RTVSPost2010Prop37
 90
       50
102
RTVSPost2010PropOp37
 70
     1
102
RTVSPost2010Prop38
140
0.0
102
RTVSPost2010PropOp38
 70
     1
102
RTVSPost2010Prop39
140
1.0
102
RTVSPost2010PropOp39
 70
     1
102
RTVSPost2010Prop40
 90
        0
102
RTVSPost2010PropOp40
 70
     1
102
RTVSPost2010Prop41ColorIndex
 90
       18
102
RTVSPost2010Prop41ColorRGB
 90
        0
102
RTVSPost2010PropOp41
 70
     1
102
RTVSPost2010Prop42
 90
       50
102
RTVSPost2010PropOp42
 70
     1
102
RTVSPost2010Prop43
 90
        3
102
RTVSPost2010PropOp43
 70
     1
102
RTVSPost2010Prop44ColorIndex
 90
        5
102
RTVSPost2010Prop44ColorRGB
 90
      255
102
RTVSPost2010PropOp44
 70
     1
102
RTVSPost2010Prop45
280
     0
102
RTVSPost2010PropOp45
 70
     1
102
RTVSPost2010Prop46
 90
       50
102
RTVSPost2010PropOp46
 70
     1
102
RTVSPost2010Prop47
 90
       50
102
RTVSPost2010PropOp47
 70
     1
102
RTVSPost2010Prop48
 90
       50
102
RTVSPost2010PropOp48
 70
     1
102
RTVSPost2010Prop49
280
     0
102
RTVSPost2010PropOp49
 70
     1
102
RTVSPost2010Prop50
 90
       50
102
RTVSPost2010PropOp50
 70
     1
102
RTVSPost2010Prop51ColorIndex
 90
      256
102
RTVSPost2010Prop51ColorRGB
 90
-16777216
102
RTVSPost2010PropOp51
 70
     0
102
RTVSPost2010Prop52
140
1.0
102
RTVSPost2010PropOp52
 70
     0
102
RTVSPost2010Prop53
 90
        2
102
RTVSPost2010PropOp53
 70
     1
102
RTVSPost2010Prop54
  1
strokes_ogs.tif
102
RTVSPost2010PropOp54
 70
     1
102
RTVSPost2010Prop55
280
     0
102
RTVSPost2010PropOp55
 70
     1
102
RTVSPost2010Prop56
140
1.0
102
RTVSPost2010PropOp56
 70
     1
102
RTVSPost2010Prop57
140
1.0
102
RTVSPost2010PropOp57
 70
     1
  0
XRECORD
  5
339
102
{ACAD_REACTORS
330
338
102
}
330
338
100
AcDbXrecord
280
     1
102
RTVSPropertyOp0
 70
     1
102
RTVSPropertyOp1
 70
     1
102
RTVSPropertyOp2
 70
     1
102
RTVSPropertyOp3
 70
     1
102
RTVSPropertyOp4
 70
     1
102
RTVSPropertyOp5
 70
     1
102
RTVSPropertyOp6
 70
     1
102
RTVSPropertyOp7
 70
     1
102
RTVSPropertyOp8
 70
     1
102
RTVSPropertyOp9
 70
     1
102
RTVSPropertyOp10
 70
     1
102
RTVSPropertyOp11
 70
     1
102
RTVSPropertyOp12
 70
     1
102
RTVSPropertyOp13
 70
     1
102
RTVSPropertyOp14
 70
     1
102
RTVSPropertyOp15
 70
     1
102
RTVSPropertyOp16
 70
     1
102
RTVSPropertyOp17
 70
     1
102
RTVSPropertyOp18
 70
     1
102
RTVSPropertyOp19
 70
     1
102
RTVSPropertyOp20
 70
     1
102
RTVSPropertyOp21
 70
     1
102
RTVSPropertyOp22
 70
     1
102
RTVSPropertyOp23
 70
     1
102
RTVSPropertyOp24
 70
     1
102
RTVSPropertyOp25
 70
     1
102
RTVSPropertyOp26
 70
     1
102
RTVSPropertyOp27
 70
     1
102
RTVSPropertyOp28
 70
     1
102
RTVSPropertyOp29
 70
     1
102
RTVSPropertyOp30
 70
     1
102
RTVSPropertyOp31
 70
     1
102
RTVSPropertyOp32
 70
     1
102
RTVSPropertyOp33
 70
     1
102
RTVSPropertyOp34
 70
     1
102
RTVSPropertyOp35
 70
     1
102
RTVSPropertyOp36
 70
     1
102
RTVSPropertyOp37
 70
     1
102
RTVSPropertyOp38
 70
     1
102
RTVSPropertyOp39
 70
     1
102
RTVSPropertyOp40
 70
     1
102
RTVSPropertyOp41
 70
     1
102
RTVSPropertyOp42
 70
     1
102
RTVSPropertyOp43
 70
     1
102
RTVSPropertyOp44
 70
     1
102
RTVSPropertyOp45
 70
     1
102
RTVSPropertyOp46
 70
     1
102
RTVSPropertyOp47
 70
     1
102
RTVSPropertyOp48
 70
     1
102
RTVSPropertyOp49
 70
     1
102
RTVSPropertyOp50
 70
     1
102
RTVSPropertyOp51
 70
     0
102
RTVSPropertyOp52
 70
     0
102
RTVSPropertyOp53
 70
     1
102
RTVSPropertyOp54
 70
     1
102
RTVSPropertyOp55
 70
     1
102
RTVSPropertyOp56
 70
     1
102
RTVSPropertyOp57
 70
     1
102
RTVSPost2010Prop28
280
     0
102
RTVSPost2010PropOp28
 70
     1
102
RTVSPost2010Prop29
280
     1
102
RTVSPost2010PropOp29
 70
     1
102
RTVSPost2010Prop30
280
     1
102
RTVSPost2010PropOp30
 70
     1
102
RTVSPost2010Prop31
280
     0
102
RTVSPost2010PropOp31
 70
     1
102
RTVSPost2010Prop32
280
     0
102
RTVSPost2010PropOp32
 70
     1
102
RTVSPost2010Prop33
280
     0
102
RTVSPost2010PropOp33
 70
     1
102
RTVSPost2010Prop34
280
     0
102
RTVSPost2010PropOp34
 70
     1
102
RTVSPost2010Prop35
280
     0
102
RTVSPost2010PropOp35
 70
     1
102
RTVSPost2010Prop36
280
     0
102
RTVSPost2010PropOp36
 70
     1
102
RTVSPost2010Prop37
 90
       50
102
RTVSPost2010PropOp37
 70
     1
102
RTVSPost2010Prop38
140
0.0
102
RTVSPost2010PropOp38
 70
     1
102
RTVSPost2010Prop39
140
1.0
102
RTVSPost2010PropOp39
 70
     1
102
RTVSPost2010Prop40
 90
        0
102
RTVSPost2010PropOp40
 70
     1
102
RTVSPost2010Prop41ColorIndex
 90
       18
102
RTVSPost2010Prop41ColorRGB
 90
        0
102
RTVSPost2010PropOp41
 70
     1
102
RTVSPost2010Prop42
 90
       50
102
RTVSPost2010PropOp42
 70
     1
102
RTVSPost2010Prop43
 90
        3
102
RTVSPost2010PropOp43
 70
     1
102
RTVSPost2010Prop44ColorIndex
 90
        5
102
RTVSPost2010Prop44ColorRGB
 90
      255
102
RTVSPost2010PropOp44
 70
     1
102
RTVSPost2010Prop45
280
     0
102
RTVSPost2010PropOp45
 70
     1
102
RTVSPost2010Prop46
 90
       50
102
RTVSPost2010PropOp46
 70
     1
102
RTVSPost2010Prop47
 90
       50
102
RTVSPost2010PropOp47
 70
     1
102
RTVSPost2010Prop48
 90
       50
102
RTVSPost2010PropOp48
 70
     1
102
RTVSPost2010Prop49
280
     0
102
RTVSPost2010PropOp49
 70
     1
102
RTVSPost2010Prop50
 90
       50
102
RTVSPost2010PropOp50
 70
     1
102
RTVSPost2010Prop51ColorIndex
 90
      256
102
RTVSPost2010Prop51ColorRGB
 90
-16777216
102
RTVSPost2010PropOp51
 70
     0
102
RTVSPost2010Prop52
140
1.0
102
RTVSPost2010PropOp52
 70
     0
102
RTVSPost2010Prop53
 90
        2
102
RTVSPost2010PropOp53
 70
     1
102
RTVSPost2010Prop54
  1
strokes_ogs.tif
102
RTVSPost2010PropOp54
 70
     1
102
RTVSPost2010Prop55
280
     0
102
RTVSPost2010PropOp55
 70
     1
102
RTVSPost2010Prop56
140
1.0
102
RTVSPost2010PropOp56
 70
     1
102
RTVSPost2010Prop57
140
1.0
102
RTVSPost2010PropOp57
 70
     1
  0
XRECORD
  5
32B
102
{ACAD_REACTORS
330
32A
102
}
330
32A
100
AcDbXrecord
280
     1
102
RTVSPropertyOp0
 70
     1
102
RTVSPropertyOp1
 70
     1
102
RTVSPropertyOp2
 70
     1
102
RTVSPropertyOp3
 70
     1
102
RTVSPropertyOp4
 70
     1
102
RTVSPropertyOp5
 70
     1
102
RTVSPropertyOp6
 70
     1
102
RTVSPropertyOp7
 70
     1
102
RTVSPropertyOp8
 70
     1
102
RTVSPropertyOp9
 70
     1
102
RTVSPropertyOp10
 70
     1
102
RTVSPropertyOp11
 70
     1
102
RTVSPropertyOp12
 70
     1
102
RTVSPropertyOp13
 70
     1
102
RTVSPropertyOp14
 70
     1
102
RTVSPropertyOp15
 70
     1
102
RTVSPropertyOp16
 70
     1
102
RTVSPropertyOp17
 70
     1
102
RTVSPropertyOp18
 70
     1
102
RTVSPropertyOp19
 70
     1
102
RTVSPropertyOp20
 70
     1
102
RTVSPropertyOp21
 70
     1
102
RTVSPropertyOp22
 70
     1
102
RTVSPropertyOp23
 70
     1
102
RTVSPropertyOp24
 70
     1
102
RTVSPropertyOp25
 70
     1
102
RTVSPropertyOp26
 70
     1
102
RTVSPropertyOp27
 70
     1
102
RTVSPropertyOp28
 70
     1
102
RTVSPropertyOp29
 70
     1
102
RTVSPropertyOp30
 70
     1
102
RTVSPropertyOp31
 70
     1
102
RTVSPropertyOp32
 70
     1
102
RTVSPropertyOp33
 70
     1
102
RTVSPropertyOp34
 70
     1
102
RTVSPropertyOp35
 70
     1
102
RTVSPropertyOp36
 70
     1
102
RTVSPropertyOp37
 70
     1
102
RTVSPropertyOp38
 70
     1
102
RTVSPropertyOp39
 70
     1
102
RTVSPropertyOp40
 70
     1
102
RTVSPropertyOp41
 70
     1
102
RTVSPropertyOp42
 70
     1
102
RTVSPropertyOp43
 70
     1
102
RTVSPropertyOp44
 70
     1
102
RTVSPropertyOp45
 70
     1
102
RTVSPropertyOp46
 70
     1
102
RTVSPropertyOp47
 70
     1
102
RTVSPropertyOp48
 70
     1
102
RTVSPropertyOp49
 70
     1
102
RTVSPropertyOp50
 70
     1
102
RTVSPropertyOp51
 70
     0
102
RTVSPropertyOp52
 70
     0
102
RTVSPropertyOp53
 70
     1
102
RTVSPropertyOp54
 70
     1
102
RTVSPropertyOp55
 70
     1
102
RTVSPropertyOp56
 70
     1
102
RTVSPropertyOp57
 70
     1
102
RTVSPost2010Prop28
280
     0
102
RTVSPost2010PropOp28
 70
     1
102
RTVSPost2010Prop29
280
     1
102
RTVSPost2010PropOp29
 70
     1
102
RTVSPost2010Prop30
280
     1
102
RTVSPost2010PropOp30
 70
     1
102
RTVSPost2010Prop31
280
     0
102
RTVSPost2010PropOp31
 70
     1
102
RTVSPost2010Prop32
280
     0
102
RTVSPost2010PropOp32
 70
     1
102
RTVSPost2010Prop33
280
     0
102
RTVSPost2010PropOp33
 70
     1
102
RTVSPost2010Prop34
280
     0
102
RTVSPost2010PropOp34
 70
     1
102
RTVSPost2010Prop35
280
     0
102
RTVSPost2010PropOp35
 70
     1
102
RTVSPost2010Prop36
280
     0
102
RTVSPost2010PropOp36
 70
     1
102
RTVSPost2010Prop37
 90
       50
102
RTVSPost2010PropOp37
 70
     1
102
RTVSPost2010Prop38
140
0.0
102
RTVSPost2010PropOp38
 70
     1
102
RTVSPost2010Prop39
140
1.0
102
RTVSPost2010PropOp39
 70
     1
102
RTVSPost2010Prop40
 90
        0
102
RTVSPost2010PropOp40
 70
     1
102
RTVSPost2010Prop41ColorIndex
 90
       18
102
RTVSPost2010Prop41ColorRGB
 90
        0
102
RTVSPost2010PropOp41
 70
     1
102
RTVSPost2010Prop42
 90
       50
102
RTVSPost2010PropOp42
 70
     1
102
RTVSPost2010Prop43
 90
        3
102
RTVSPost2010PropOp43
 70
     1
102
RTVSPost2010Prop44ColorIndex
 90
        5
102
RTVSPost2010Prop44ColorRGB
 90
      255
102
RTVSPost2010PropOp44
 70
     1
102
RTVSPost2010Prop45
280
     0
102
RTVSPost2010PropOp45
 70
     1
102
RTVSPost2010Prop46
 90
       50
102
RTVSPost2010PropOp46
 70
     1
102
RTVSPost2010Prop47
 90
       50
102
RTVSPost2010PropOp47
 70
     1
102
RTVSPost2010Prop48
 90
       50
102
RTVSPost2010PropOp48
 70
     1
102
RTVSPost2010Prop49
280
     0
102
RTVSPost2010PropOp49
 70
     1
102
RTVSPost2010Prop50
 90
       50
102
RTVSPost2010PropOp50
 70
     1
102
RTVSPost2010Prop51ColorIndex
 90
      256
102
RTVSPost2010Prop51ColorRGB
 90
-16777216
102
RTVSPost2010PropOp51
 70
     0
102
RTVSPost2010Prop52
140
1.0
102
RTVSPost2010PropOp52
 70
     0
102
RTVSPost2010Prop53
 90
        2
102
RTVSPost2010PropOp53
 70
     1
102
RTVSPost2010Prop54
  1
strokes_ogs.tif
102
RTVSPost2010PropOp54
 70
     1
102
RTVSPost2010Prop55
280
     0
102
RTVSPost2010PropOp55
 70
     1
102
RTVSPost2010Prop56
140
1.0
102
RTVSPost2010PropOp56
 70
     1
102
RTVSPost2010Prop57
140
1.0
102
RTVSPost2010PropOp57
 70
     1
  0
XRECORD
  5
34B
102
{ACAD_REACTORS
330
34A
102
}
330
34A
100
AcDbXrecord
280
     1
102
RTVSPropertyOp0
 70
     1
102
RTVSPropertyOp1
 70
     1
102
RTVSPropertyOp2
 70
     1
102
RTVSPropertyOp3
 70
     1
102
RTVSPropertyOp4
 70
     1
102
RTVSPropertyOp5
 70
     1
102
RTVSPropertyOp6
 70
     1
102
RTVSPropertyOp7
 70
     1
102
RTVSPropertyOp8
 70
     1
102
RTVSPropertyOp9
 70
     1
102
RTVSPropertyOp10
 70
     1
102
RTVSPropertyOp11
 70
     1
102
RTVSPropertyOp12
 70
     1
102
RTVSPropertyOp13
 70
     1
102
RTVSPropertyOp14
 70
     1
102
RTVSPropertyOp15
 70
     1
102
RTVSPropertyOp16
 70
     1
102
RTVSPropertyOp17
 70
     1
102
RTVSPropertyOp18
 70
     1
102
RTVSPropertyOp19
 70
     1
102
RTVSPropertyOp20
 70
     1
102
RTVSPropertyOp21
 70
     1
102
RTVSPropertyOp22
 70
     1
102
RTVSPropertyOp23
 70
     1
102
RTVSPropertyOp24
 70
     1
102
RTVSPropertyOp25
 70
     1
102
RTVSPropertyOp26
 70
     1
102
RTVSPropertyOp27
 70
     1
102
RTVSPropertyOp28
 70
     1
102
RTVSPropertyOp29
 70
     1
102
RTVSPropertyOp30
 70
     1
102
RTVSPropertyOp31
 70
     1
102
RTVSPropertyOp32
 70
     1
102
RTVSPropertyOp33
 70
     1
102
RTVSPropertyOp34
 70
     1
102
RTVSPropertyOp35
 70
     1
102
RTVSPropertyOp36
 70
     1
102
RTVSPropertyOp37
 70
     1
102
RTVSPropertyOp38
 70
     1
102
RTVSPropertyOp39
 70
     1
102
RTVSPropertyOp40
 70
     1
102
RTVSPropertyOp41
 70
     1
102
RTVSPropertyOp42
 70
     1
102
RTVSPropertyOp43
 70
     1
102
RTVSPropertyOp44
 70
     1
102
RTVSPropertyOp45
 70
     1
102
RTVSPropertyOp46
 70
     1
102
RTVSPropertyOp47
 70
     1
102
RTVSPropertyOp48
 70
     1
102
RTVSPropertyOp49
 70
     1
102
RTVSPropertyOp50
 70
     1
102
RTVSPropertyOp51
 70
     0
102
RTVSPropertyOp52
 70
     0
102
RTVSPropertyOp53
 70
     1
102
RTVSPropertyOp54
 70
     1
102
RTVSPropertyOp55
 70
     1
102
RTVSPropertyOp56
 70
     1
102
RTVSPropertyOp57
 70
     1
102
RTVSPost2010Prop28
280
     0
102
RTVSPost2010PropOp28
 70
     1
102
RTVSPost2010Prop29
280
     1
102
RTVSPost2010PropOp29
 70
     1
102
RTVSPost2010Prop30
280
     1
102
RTVSPost2010PropOp30
 70
     1
102
RTVSPost2010Prop31
280
     0
102
RTVSPost2010PropOp31
 70
     1
102
RTVSPost2010Prop32
280
     0
102
RTVSPost2010PropOp32
 70
     1
102
RTVSPost2010Prop33
280
     0
102
RTVSPost2010PropOp33
 70
     1
102
RTVSPost2010Prop34
280
     0
102
RTVSPost2010PropOp34
 70
     1
102
RTVSPost2010Prop35
280
     0
102
RTVSPost2010PropOp35
 70
     1
102
RTVSPost2010Prop36
280
     0
102
RTVSPost2010PropOp36
 70
     1
102
RTVSPost2010Prop37
 90
       50
102
RTVSPost2010PropOp37
 70
     1
102
RTVSPost2010Prop38
140
0.0
102
RTVSPost2010PropOp38
 70
     1
102
RTVSPost2010Prop39
140
1.0
102
RTVSPost2010PropOp39
 70
     1
102
RTVSPost2010Prop40
 90
        0
102
RTVSPost2010PropOp40
 70
     1
102
RTVSPost2010Prop41ColorIndex
 90
       18
102
RTVSPost2010Prop41ColorRGB
 90
        0
102
RTVSPost2010PropOp41
 70
     1
102
RTVSPost2010Prop42
 90
       50
102
RTVSPost2010PropOp42
 70
     1
102
RTVSPost2010Prop43
 90
        3
102
RTVSPost2010PropOp43
 70
     1
102
RTVSPost2010Prop44ColorIndex
 90
        5
102
RTVSPost2010Prop44ColorRGB
 90
      255
102
RTVSPost2010PropOp44
 70
     1
102
RTVSPost2010Prop45
280
     0
102
RTVSPost2010PropOp45
 70
     1
102
RTVSPost2010Prop46
 90
       50
102
RTVSPost2010PropOp46
 70
     1
102
RTVSPost2010Prop47
 90
       50
102
RTVSPost2010PropOp47
 70
     1
102
RTVSPost2010Prop48
 90
       50
102
RTVSPost2010PropOp48
 70
     1
102
RTVSPost2010Prop49
280
     0
102
RTVSPost2010PropOp49
 70
     1
102
RTVSPost2010Prop50
 90
       50
102
RTVSPost2010PropOp50
 70
     1
102
RTVSPost2010Prop51ColorIndex
 90
      256
102
RTVSPost2010Prop51ColorRGB
 90
-16777216
102
RTVSPost2010PropOp51
 70
     0
102
RTVSPost2010Prop52
140
1.0
102
RTVSPost2010PropOp52
 70
     0
102
RTVSPost2010Prop53
 90
        2
102
RTVSPost2010PropOp53
 70
     1
102
RTVSPost2010Prop54
  1
strokes_ogs.tif
102
RTVSPost2010PropOp54
 70
     1
102
RTVSPost2010Prop55
280
     0
102
RTVSPost2010PropOp55
 70
     1
102
RTVSPost2010Prop56
140
1.0
102
RTVSPost2010PropOp56
 70
     1
102
RTVSPost2010Prop57
140
1.0
102
RTVSPost2010PropOp57
 70
     1
  0
ENDSEC
  0
EOF
