  0
SECTION
  2
HEADER
  9
$ACADVER
  1
AC1018
  9
$ACADMAINTVER
 70
     0
  9
$DWGCODEPAGE
  3
ANSI_932
  9
$INSBASE
 10
0.0
 20
0.0
 30
0.0
  9
$EXTMIN
 10
-2100.0
 20
-1485.0
 30
0.0
  9
$EXTMAX
 10
2100.0
 20
1485.0
 30
0.0
  9
$LIMMIN
 10
-2100.0
 20
-1485.0
  9
$LIMMAX
 10
2100.0
 20
1485.0
  9
$ORTHOMODE
 70
     0
  9
$REGENMODE
 70
     1
  9
$FILLMODE
 70
     1
  9
$QTEXTMODE
 70
     0
  9
$MIRRTEXT
 70
     1
  9
$LTSCALE
 40
10.0
  9
$ATTMODE
 70
     1
  9
$TEXTSIZE
 40
2.5
  9
$TRACEWID
 40
1.0
  9
$TEXTSTYLE
  7
Standard
  9
$CLAYER
  8
0
  9
$CELTYPE
  6
ByLayer
  9
$CECOLOR
 62
   256
  9
$CELTSCALE
 40
1.0
  9
$DISPSILH
 70
     0
  9
$DIMSCALE
 40
1.0
  9
$DIMASZ
 40
2.5
  9
$DIMEXO
 40
0.625
  9
$DIMDLI
 40
3.75
  9
$DIMRND
 40
0.0
  9
$DIMDLE
 40
0.0
  9
$DIMEXE
 40
1.25
  9
$DIMTP
 40
0.0
  9
$DIMTM
 40
0.0
  9
$DIMTXT
 40
2.5
  9
$DIMCEN
 40
2.5
  9
$DIMTSZ
 40
0.0
  9
$DIMTOL
 70
     0
  9
$DIMLIM
 70
     0
  9
$DIMTIH
 70
     0
  9
$DIMTOH
 70
     0
  9
$DIMSE1
 70
     0
  9
$DIMSE2
 70
     0
  9
$DIMTAD
 70
     1
  9
$DIMZIN
 70
     8
  9
$DIMBLK
  1

  9
$DIMASO
 70
     1
  9
$DIMSHO
 70
     1
  9
$DIMPOST
  1

  9
$DIMAPOST
  1

  9
$DIMALT
 70
     0
  9
$DIMALTD
 70
     3
  9
$DIMALTF
 40
0.03937007874016
  9
$DIMLFAC
 40
1.0
  9
$DIMTOFL
 70
     1
  9
$DIMTVP
 40
0.0
  9
$DIMTIX
 70
     0
  9
$DIMSOXD
 70
     0
  9
$DIMSAH
 70
     0
  9
$DIMBLK1
  1

  9
$DIMBLK2
  1

  9
$DIMSTYLE
  2
ISO-25
  9
$DIMCLRD
 70
     0
  9
$DIMCLRE
 70
     0
  9
$DIMCLRT
 70
     0
  9
$DIMTFAC
 40
1.0
  9
$DIMGAP
 40
0.625
  9
$DIMJUST
 70
     0
  9
$DIMSD1
 70
     0
  9
$DIMSD2
 70
     0
  9
$DIMTOLJ
 70
     0
  9
$DIMTZIN
 70
     8
  9
$DIMALTZ
 70
     0
  9
$DIMALTTZ
 70
     0
  9
$DIMUPT
 70
     0
  9
$DIMDEC
 70
     2
  9
$DIMTDEC
 70
     2
  9
$DIMALTU
 70
     2
  9
$DIMALTTD
 70
     3
  9
$DIMTXSTY
  7
Standard
  9
$DIMAUNIT
 70
     0
  9
$DIMADEC
 70
     0
  9
$DIMALTRND
 40
0.0
  9
$DIMAZIN
 70
     0
  9
$DIMDSEP
 70
    44
  9
$DIMATFIT
 70
     3
  9
$DIMFRAC
 70
     0
  9
$DIMLDRBLK
  1

  9
$DIMLUNIT
 70
     2
  9
$DIMLWD
 70
    -2
  9
$DIMLWE
 70
    -2
  9
$DIMTMOVE
 70
     0
  9
$LUNITS
 70
     2
  9
$LUPREC
 70
     4
  9
$SKETCHINC
 40
1.0
  9
$FILLETRAD
 40
10.0
  9
$AUNITS
 70
     0
  9
$AUPREC
 70
     0
  9
$MENU
  1
.
  9
$ELEVATION
 40
0.0
  9
$PELEVATION
 40
0.0
  9
$THICKNESS
 40
0.0
  9
$LIMCHECK
 70
     0
  9
$CHAMFERA
 40
0.0
  9
$CHAMFERB
 40
0.0
  9
$CHAMFERC
 40
0.0
  9
$CHAMFERD
 40
0.0
  9
$SKPOLY
 70
     0
  9
$TDCREATE
 40
2459145.672934224
  9
$TDUCREATE
 40
2459145.297934224
  9
$TDUPDATE
 40
2459145.672934364
  9
$TDUUPDATE
 40
2459145.297934364
  9
$TDINDWG
 40
0.0000000116
  9
$TDUSRTIMER
 40
0.0000000116
  9
$USRTIMER
 70
     1
  9
$ANGBASE
 50
0.0
  9
$ANGDIR
 70
     0
  9
$PDMODE
 70
     0
  9
$PDSIZE
 40
0.0
  9
$PLINEWID
 40
0.0
  9
$SPLFRAME
 70
     0
  9
$SPLINETYPE
 70
     6
  9
$SPLINESEGS
 70
     8
  9
$HANDSEED
  5
2F0
  9
$SURFTAB1
 70
     6
  9
$SURFTAB2
 70
     6
  9
$SURFTYPE
 70
     6
  9
$SURFU
 70
     6
  9
$SURFV
 70
     6
  9
$UCSBASE
  2

  9
$UCSNAME
  2

  9
$UCSORG
 10
0.0
 20
0.0
 30
0.0
  9
$UCSXDIR
 10
1.0
 20
0.0
 30
0.0
  9
$UCSYDIR
 10
0.0
 20
1.0
 30
0.0
  9
$UCSORTHOREF
  2

  9
$UCSORTHOVIEW
 70
     0
  9
$UCSORGTOP
 10
0.0
 20
0.0
 30
0.0
  9
$UCSORGBOTTOM
 10
0.0
 20
0.0
 30
0.0
  9
$UCSORGLEFT
 10
0.0
 20
0.0
 30
0.0
  9
$UCSORGRIGHT
 10
0.0
 20
0.0
 30
0.0
  9
$UCSORGFRONT
 10
0.0
 20
0.0
 30
0.0
  9
$UCSORGBACK
 10
0.0
 20
0.0
 30
0.0
  9
$PUCSBASE
  2

  9
$PUCSNAME
  2

  9
$PUCSORG
 10
0.0
 20
0.0
 30
0.0
  9
$PUCSXDIR
 10
1.0
 20
0.0
 30
0.0
  9
$PUCSYDIR
 10
0.0
 20
1.0
 30
0.0
  9
$PUCSORTHOREF
  2

  9
$PUCSORTHOVIEW
 70
     0
  9
$PUCSORGTOP
 10
0.0
 20
0.0
 30
0.0
  9
$PUCSORGBOTTOM
 10
0.0
 20
0.0
 30
0.0
  9
$PUCSORGLEFT
 10
0.0
 20
0.0
 30
0.0
  9
$PUCSORGRIGHT
 10
0.0
 20
0.0
 30
0.0
  9
$PUCSORGFRONT
 10
0.0
 20
0.0
 30
0.0
  9
$PUCSORGBACK
 10
0.0
 20
0.0
 30
0.0
  9
$USERI1
 70
     0
  9
$USERI2
 70
     0
  9
$USERI3
 70
     0
  9
$USERI4
 70
     0
  9
$USERI5
 70
     0
  9
$USERR1
 40
0.0
  9
$USERR2
 40
0.0
  9
$USERR3
 40
0.0
  9
$USERR4
 40
0.0
  9
$USERR5
 40
0.0
  9
$WORLDVIEW
 70
     1
  9
$SHADEDGE
 70
     3
  9
$SHADEDIF
 70
    70
  9
$TILEMODE
 70
     1
  9
$MAXACTVP
 70
    64
  9
$PINSBASE
 10
0.0
 20
0.0
 30
0.0
  9
$PLIMCHECK
 70
     0
  9
$PEXTMIN
 10
1.000000000000000E+20
 20
1.000000000000000E+20
 30
1.000000000000000E+20
  9
$PEXTMAX
 10
-1.000000000000000E+20
 20
-1.000000000000000E+20
 30
-1.000000000000000E+20
  9
$PLIMMIN
 10
0.0
 20
0.0
  9
$PLIMMAX
 10
420.0
 20
297.0
  9
$UNITMODE
 70
     0
  9
$VISRETAIN
 70
     1
  9
$PLINEGEN
 70
     0
  9
$PSLTSCALE
 70
     1
  9
$TREEDEPTH
 70
  3020
  9
$CMLSTYLE
  2
Standard
  9
$CMLJUST
 70
     0
  9
$CMLSCALE
 40
20.0
  9
$PROXYGRAPHICS
 70
     1
  9
$MEASUREMENT
 70
     1
  9
$CELWEIGHT
370
    -1
  9
$ENDCAPS
280
     0
  9
$JOINSTYLE
280
     0
  9
$LWDISPLAY
290
     0
  9
$INSUNITS
 70
     4
  9
$HYPERLINKBASE
  1

  9
$STYLESHEET
  1

  9
$XEDIT
290
     1
  9
$CEPSNTYPE
380
     0
  9
$PSTYLEMODE
290
     1
  9
$FINGERPRINTGUID
  2
{C577DF46-F565-49AB-B43C-69B41D59ED89}
  9
$VERSIONGUID
  2
{FAEB1C32-E019-11D5-929B-00C0DF256EC4}
  9
$EXTNAMES
290
     1
  9
$PSVPSCALE
 40
0.0
  9
$OLESTARTUP
290
     0
  9
$SORTENTS
280
   127
  9
$INDEXCTL
280
     0
  9
$HIDETEXT
280
     1
  9
$XCLIPFRAME
290
     0
  9
$HALOGAP
280
     0
  9
$OBSCOLOR
 70
   257
  9
$OBSLTYPE
280
     0
  9
$INTERSECTIONDISPLAY
280
     0
  9
$INTERSECTIONCOLOR
 70
   257
  9
$DIMASSOC
280
     2
  9
$PROJECTNAME
  1

  0
ENDSEC
  0
SECTION
  2
CLASSES
  0
CLASS
  1
ACDBDICTIONARYWDFLT
  2
AcDbDictionaryWithDefault
  3
ObjectDBX Classes
 90
        0
 91
        4
280
     0
281
     0
  0
CLASS
  1
VISUALSTYLE
  2
AcDbVisualStyle
  3
ObjectDBX Classes
 90
     4095
 91
        4
280
     0
281
     0
  0
CLASS
  1
MATERIAL
  2
AcDbMaterial
  3
ObjectDBX Classes
 90
     1153
 91
        4
280
     0
281
     0
  0
CLASS
  1
SCALE
  2
AcDbScale
  3
ObjectDBX Classes
 90
     1153
 91
        4
280
     0
281
     0
  0
CLASS
  1
TABLESTYLE
  2
AcDbTableStyle
  3
ObjectDBX Classes
 90
     4095
 91
        4
280
     0
281
     0
  0
CLASS
  1
MLEADERSTYLE
  2
AcDbMLeaderStyle
  3
ACDB_MLEADERSTYLE_CLASS
 90
     4095
 91
        4
280
     0
281
     0
  0
CLASS
  1
SUN
  2
AcDbSun
  3
SCENEOE
 90
     1153
 91
        4
280
     0
281
     0
  0
CLASS
  1
DICTIONARYVAR
  2
AcDbDictionaryVar
  3
ObjectDBX Classes
 90
        0
 91
        4
280
     0
281
     0
  0
CLASS
  1
CELLSTYLEMAP
  2
AcDbCellStyleMap
  3
ObjectDBX Classes
 90
     1152
 91
        4
280
     0
281
     0
  0
ENDSEC
  0
SECTION
  2
TABLES
  0
TABLE
  2
VPORT
  5
8
102
{ACAD_XDICTIONARY
360
2A7
102
}
330
0
100
AcDbSymbolTable
 70
     1
  0
VPORT
  5
29
330
8
100
AcDbSymbolTableRecord
100
AcDbViewportTableRecord
  2
*Active
 70
     0
 10
0.0
 20
0.0
 11
1.0
 21
1.0
 12
0.0
 22
0.0
 13
0.0
 23
0.0
 14
10.0
 24
10.0
 15
10.0
 25
10.0
 16
0.0
 26
0.0
 36
1.0
 17
0.0
 27
0.0
 37
0.0
 40
3267.0
 41
1.414141414141414
 42
50.0
 43
0.0
 44
0.0
 50
0.0
 51
0.0
 71
     0
 72
 10000
 73
     1
 74
     3
 75
     0
 76
     0
 77
     0
 78
     0
281
     0
 65
     1
110
0.0
120
0.0
130
0.0
111
1.0
121
0.0
131
0.0
112
0.0
122
1.0
132
0.0
 79
     0
146
0.0
  0
ENDTAB
  0
TABLE
  2
LTYPE
  5
5
330
0
100
AcDbSymbolTable
 70
     6
  0
LTYPE
  5
14
330
5
100
AcDbSymbolTableRecord
100
AcDbLinetypeTableRecord
  2
ByBlock
 70
     0
  3

 72
    65
 73
     0
 40
0.0
  0
LTYPE
  5
15
330
5
100
AcDbSymbolTableRecord
100
AcDbLinetypeTableRecord
  2
ByLayer
 70
     0
  3

 72
    65
 73
     0
 40
0.0
  0
LTYPE
  5
16
330
5
100
AcDbSymbolTableRecord
100
AcDbLinetypeTableRecord
  2
Continuous
 70
     0
  3
Solid line
 72
    65
 73
     0
 40
0.0
  0
LTYPE
  5
6F
330
5
100
AcDbSymbolTableRecord
100
AcDbLinetypeTableRecord
  2
JWW_CENTER2
 70
     0
  3
-------------  --  -------------
 72
    65
 73
     4
 40
13.54666666666667
 49
11.00666666666667
 74
     0
 49
-0.8466666666666667
 74
     0
 49
0.8466666666666667
 74
     0
 49
-0.8466666666666667
 74
     0
  0
LTYPE
  5
70
330
5
100
AcDbSymbolTableRecord
100
AcDbLinetypeTableRecord
  2
JWW_DASHED2
 70
     0
  3
--    ----    ----    ----    --
 72
    65
 73
     2
 40
3.386666666666667
 49
1.693333333333333
 74
     0
 49
-1.693333333333333
 74
     0
  0
LTYPE
  5
71
330
5
100
AcDbSymbolTableRecord
100
AcDbLinetypeTableRecord
  2
JWW_PHANTOM1
 70
     0
  3
----  -  -  --------  -  -  ----
 72
    65
 73
     6
 40
6.773333333333333
 49
3.386666666666667
 74
     0
 49
-0.8466666666666667
 74
     0
 49
0.4233333333333333
 74
     0
 49
-0.8466666666666667
 74
     0
 49
0.4233333333333333
 74
     0
 49
-0.8466666666666667
 74
     0
  0
LTYPE
  5
72
330
5
100
AcDbSymbolTableRecord
100
AcDbLinetypeTableRecord
  2
JWW_CENTER1
 70
     0
  3
-----  --  ----------  --  -----
 72
    65
 73
     4
 40
6.773333333333333
 49
4.233333333333333
 74
     0
 49
-0.8466666666666667
 74
     0
 49
0.8466666666666667
 74
     0
 49
-0.8466666666666667
 74
     0
  0
LTYPE
  5
73
330
5
100
AcDbSymbolTableRecord
100
AcDbLinetypeTableRecord
  2
JWW_DASHED1
 70
     0
  3
-  --  --  --  --  --  --  --  -
 72
    65
 73
     2
 40
1.693333333333333
 49
0.8466666666666667
 74
     0
 49
-0.8466666666666667
 74
     0
  0
ENDTAB
  0
TABLE
  2
LAYER
  5
2
330
0
100
AcDbSymbolTable
 70
    23
  0
LAYER
  5
10
330
2
100
AcDbSymbolTableRecord
100
AcDbLayerTableRecord
  2
0
 70
     0
 62
     7
  6
Continuous
370
    -3
390
F
  0
LAYER
  5
74
330
2
100
AcDbSymbolTableRecord
100
AcDbLayerTableRecord
  2
F-5ﾚｲﾔ
 70
     0
 62
     7
  6
Continuous
370
    -3
390
F
  0
LAYER
  5
75
330
2
100
AcDbSymbolTableRecord
100
AcDbLayerTableRecord
  2
C-0_通り芯
 70
     0
 62
     7
  6
Continuous
370
    -3
390
F
  0
LAYER
  5
76
330
2
100
AcDbSymbolTableRecord
100
AcDbLayerTableRecord
  2
C-2_仕上
 70
     0
 62
     7
  6
Continuous
370
    -3
390
F
  0
LAYER
  5
77
330
2
100
AcDbSymbolTableRecord
100
AcDbLayerTableRecord
  2
C-4_文字
 70
     0
 62
     7
  6
Continuous
370
    -3
390
F
  0
LAYER
  5
78
330
2
100
AcDbSymbolTableRecord
100
AcDbLayerTableRecord
  2
C-1_躯体
 70
     0
 62
     7
  6
Continuous
370
    -3
390
F
  0
LAYER
  5
79
330
2
100
AcDbSymbolTableRecord
100
AcDbLayerTableRecord
  2
C-3_寸法
 70
     0
 62
     7
  6
Continuous
370
    -3
390
F
  0
LAYER
  5
7A
330
2
100
AcDbSymbolTableRecord
100
AcDbLayerTableRecord
  2
C-E_見え係り
 70
     0
 62
     7
  6
Continuous
370
    -3
390
F
  0
LAYER
  5
7B
330
2
100
AcDbSymbolTableRecord
100
AcDbLayerTableRecord
  2
C-6_間仕切
 70
     0
 62
     7
  6
Continuous
370
    -3
390
F
  0
LAYER
  5
7C
330
2
100
AcDbSymbolTableRecord
100
AcDbLayerTableRecord
  2
C-B_衛生陶器
 70
     0
 62
     7
  6
Continuous
370
    -3
390
F
  0
LAYER
  5
7D
330
2
100
AcDbSymbolTableRecord
100
AcDbLayerTableRecord
  2
C-9_記号
 70
     0
 62
     7
  6
Continuous
370
    -3
390
F
  0
LAYER
  5
7E
330
2
100
AcDbSymbolTableRecord
100
AcDbLayerTableRecord
  2
D-0_通り芯
 70
     0
 62
     7
  6
Continuous
370
    -3
390
F
  0
LAYER
  5
7F
330
2
100
AcDbSymbolTableRecord
100
AcDbLayerTableRecord
  2
D-5_建具
 70
     0
 62
     7
  6
Continuous
370
    -3
390
F
  0
LAYER
  5
80
330
2
100
AcDbSymbolTableRecord
100
AcDbLayerTableRecord
  2
D-1_躯体
 70
     0
 62
     7
  6
Continuous
370
    -3
390
F
  0
LAYER
  5
81
330
2
100
AcDbSymbolTableRecord
100
AcDbLayerTableRecord
  2
D-E_見え係り
 70
     0
 62
     7
  6
Continuous
370
    -3
390
F
  0
LAYER
  5
82
330
2
100
AcDbSymbolTableRecord
100
AcDbLayerTableRecord
  2
D-6_間仕切
 70
     0
 62
     7
  6
Continuous
370
    -3
390
F
  0
LAYER
  5
83
330
2
100
AcDbSymbolTableRecord
100
AcDbLayerTableRecord
  2
D-B_衛生陶器
 70
     0
 62
     7
  6
Continuous
370
    -3
390
F
  0
LAYER
  5
84
330
2
100
AcDbSymbolTableRecord
100
AcDbLayerTableRecord
  2
D-9_記号
 70
     0
 62
     7
  6
Continuous
370
    -3
390
F
  0
LAYER
  5
85
330
2
100
AcDbSymbolTableRecord
100
AcDbLayerTableRecord
  2
D-4_文字
 70
     0
 62
     7
  6
Continuous
370
    -3
390
F
  0
LAYER
  5
86
330
2
100
AcDbSymbolTableRecord
100
AcDbLayerTableRecord
  2
F-Fﾚｲﾔ
 70
     0
 62
     7
  6
Continuous
370
    -3
390
F
  0
LAYER
  5
87
330
2
100
AcDbSymbolTableRecord
100
AcDbLayerTableRecord
  2
C-A_インテリア
 70
     0
 62
     7
  6
Continuous
370
    -3
390
F
  0
LAYER
  5
88
330
2
100
AcDbSymbolTableRecord
100
AcDbLayerTableRecord
  2
C-5_建具
 70
     0
 62
     7
  6
Continuous
370
    -3
390
F
  0
LAYER
  5
89
330
2
100
AcDbSymbolTableRecord
100
AcDbLayerTableRecord
  2
D-A_インテリア
 70
     0
 62
     7
  6
Continuous
370
    -3
390
F
  0
ENDTAB
  0
TABLE
  2
STYLE
  5
3
330
0
100
AcDbSymbolTable
 70
     2
  0
STYLE
  5
11
330
3
100
AcDbSymbolTableRecord
100
AcDbTextStyleTableRecord
  2
Standard
 70
     0
 40
0.0
 41
1.0
 50
0.0
 71
     0
 42
2.5
  3
txt
  4

  0
STYLE
  5
6E
330
3
100
AcDbSymbolTableRecord
100
AcDbTextStyleTableRecord
  2
ＭＳ ゴシック
 70
     0
 40
1.0
 41
1.0
 50
0.0
 71
     0
 42
2.5
  3

  4

1001
ACAD
1000
MS Gothic
1071
    32817
  0
ENDTAB
  0
TABLE
  2
VIEW
  5
6
330
0
100
AcDbSymbolTable
 70
     0
  0
ENDTAB
  0
TABLE
  2
UCS
  5
7
330
0
100
AcDbSymbolTable
 70
     0
  0
ENDTAB
  0
TABLE
  2
APPID
  5
9
330
0
100
AcDbSymbolTable
 70
     2
  0
APPID
  5
12
330
9
100
AcDbSymbolTableRecord
100
AcDbRegAppTableRecord
  2
ACAD
 70
     0
  0
APPID
  5
2E6
330
9
100
AcDbSymbolTableRecord
100
AcDbRegAppTableRecord
  2
ACAD_MLEADERVER
 70
     0
  0
ENDTAB
  0
TABLE
  2
DIMSTYLE
  5
A
330
0
100
AcDbSymbolTable
 70
     1
100
AcDbDimStyleTable
  0
DIMSTYLE
105
27
330
A
100
AcDbSymbolTableRecord
100
AcDbDimStyleTableRecord
  2
ISO-25
 70
     0
 41
2.5
 42
0.625
 43
3.75
 44
1.25
 73
     0
 74
     0
 77
     1
 78
     8
140
2.5
141
2.5
143
0.03937007874016
147
0.625
171
     3
172
     1
178
     0
271
     2
272
     2
274
     3
278
    44
283
     0
284
     8
340
11
  0
ENDTAB
  0
TABLE
  2
BLOCK_RECORD
  5
1
330
0
100
AcDbSymbolTable
 70
     1
  0
BLOCK_RECORD
  5
1F
330
1
100
AcDbSymbolTableRecord
100
AcDbBlockTableRecord
  2
*Model_Space
340
22
  0
BLOCK_RECORD
  5
1B
330
1
100
AcDbSymbolTableRecord
100
AcDbBlockTableRecord
  2
*Paper_Space
340
1E
  0
BLOCK_RECORD
  5
23
330
1
100
AcDbSymbolTableRecord
100
AcDbBlockTableRecord
  2
*Paper_Space0
340
26
  0
ENDTAB
  0
ENDSEC
  0
SECTION
  2
BLOCKS
  0
BLOCK
  5
20
330
1F
100
AcDbEntity
  8
0
100
AcDbBlockBegin
  2
*Model_Space
 70
     0
 10
0.0
 20
0.0
 30
0.0
  3
*Model_Space
  1

  0
ENDBLK
  5
21
330
1F
100
AcDbEntity
  8
0
100
AcDbBlockEnd
  0
BLOCK
  5
1C
330
1B
100
AcDbEntity
 67
     1
  8
0
100
AcDbBlockBegin
  2
*Paper_Space
 70
     0
 10
0.0
 20
0.0
 30
0.0
  3
*Paper_Space
  1

  0
ENDBLK
  5
1D
330
1B
100
AcDbEntity
 67
     1
  8
0
100
AcDbBlockEnd
  0
BLOCK
  5
24
330
23
100
AcDbEntity
  8
0
100
AcDbBlockBegin
  2
*Paper_Space0
 70
     0
 10
0.0
 20
0.0
 30
0.0
  3
*Paper_Space0
  1

  0
ENDBLK
  5
25
330
23
100
AcDbEntity
  8
0
100
AcDbBlockEnd
  0
ENDSEC
  0
SECTION
  2
ENTITIES
  0
TEXT
  5
8A
330
1F
100
AcDbEntity
  8
F-5ﾚｲﾔ
  6
Continuous
 62
     2
370
     9
100
AcDbText
 10
1192.638704563886
 20
-1052.200916680239
 30
0.0
 40
30.48
  1
本体色は、黄または白です。
 41
1.115384615384615
  7
ＭＳ ゴシック
100
AcDbText
  0
TEXT
  5
8B
330
1F
100
AcDbEntity
  8
F-5ﾚｲﾔ
  6
Continuous
 62
     2
370
     9
100
AcDbText
 10
1192.638704563886
 20
-1111.671894792166
 30
0.0
 40
30.48
  1
ご注文の際にご指示ください。
 41
1.116071428571428
  7
ＭＳ ゴシック
100
AcDbText
  0
ARC
  5
8C
330
1F
100
AcDbEntity
  8
C-0_通り芯
  6
JWW_CENTER2
 62
     7
370
     9
100
AcDbCircle
 10
-605.5376246183047
 20
281.6909244327954
 30
0.0
 40
175.0000051549963
100
AcDbArc
 50
0.0
 51
90.000244140625
  0
ARC
  5
8D
330
1F
100
AcDbEntity
  8
C-2_仕上
  6
Continuous
 62
     3
370
     9
100
AcDbCircle
 10
-605.5378720581273
 20
281.6904295531496
 30
0.0
 40
144.7500074231947
100
AcDbArc
 50
0.0
 51
90.00019836425781
  0
ARC
  5
8E
330
1F
100
AcDbEntity
  8
C-2_仕上
  6
Continuous
 62
     3
370
     9
100
AcDbCircle
 10
-605.5376246183047
 20
281.6909244327954
 30
0.0
 40
205.2500028867979
100
AcDbArc
 50
0.0
 51
90.00022888183594
  0
LINE
  5
8F
330
1F
100
AcDbEntity
  8
C-4_文字
  6
Continuous
 62
     7
370
     9
100
AcDbLine
 10
-400.2877763813958
 20
633.3339247411349
 30
0.0
 11
-400.2877763813958
 21
378.2045860044057
 31
0.0
  0
LINE
  5
90
330
1F
100
AcDbEntity
  8
C-4_文字
  6
Continuous
 62
     7
370
     9
100
AcDbLine
 10
-400.2877763813958
 20
630.3339247411348
 30
0.0
 11
-425.073897915741
 21
627.0707699356334
 31
0.0
  0
LINE
  5
91
330
1F
100
AcDbEntity
  8
C-4_文字
  6
Continuous
 62
     7
370
     9
100
AcDbLine
 10
-400.2877763813958
 20
630.3339247411348
 30
0.0
 11
-425.073897915741
 21
633.5970795466361
 31
0.0
  0
ARC
  5
92
330
1F
100
AcDbEntity
  8
C-0_通り芯
  6
Continuous
 62
     4
370
     9
100
AcDbCircle
 10
-481.1146050871411
 20
-154.2432015991484
 30
0.0
 40
0.2
100
AcDbArc
 50
242.7939768869962
 51
354.0
  0
LINE
  5
93
330
1F
100
AcDbEntity
  8
C-0_通り芯
  6
Continuous
 62
     4
370
     9
100
AcDbLine
 10
-468.0378390661508
 20
-163.0584025308879
 30
0.0
 11
-468.0378390661508
 21
-164.5584074796842
 31
0.0
  0
LINE
  5
94
330
1F
100
AcDbEntity
  8
C-0_通り芯
  6
Continuous
 62
     4
370
     9
100
AcDbLine
 10
-464.5378027749757
 20
-164.5584074796842
 30
0.0
 11
-464.5378027749757
 21
-413.0584231508734
 31
0.0
  0
LINE
  5
95
330
1F
100
AcDbEntity
  8
C-1_躯体
  6
Continuous
 62
     7
370
     9
100
AcDbLine
 10
-470.5378225701622
 20
-413.0584231508734
 30
0.0
 11
-390.537756586209
 21
-413.0584231508734
 31
0.0
  0
LINE
  5
96
330
1F
100
AcDbEntity
  8
C-3_寸法
  6
JWW_DASHED2
 62
     3
370
     9
100
AcDbLine
 10
-460.7879017509048
 20
-163.0584025308879
 30
0.0
 11
-460.7879017509048
 21
-413.0584231508734
 31
0.0
  0
LINE
  5
97
330
1F
100
AcDbEntity
  8
C-0_通り芯
  6
JWW_DASHED2
 62
     4
370
     9
100
AcDbLine
 10
-463.0377235958042
 20
-164.5584074796842
 30
0.0
 11
-463.0377235958042
 21
-413.0584231508734
 31
0.0
  0
ARC
  5
98
330
1F
100
AcDbEntity
  8
C-0_通り芯
  6
JWW_DASHED2
 62
     4
370
     9
100
AcDbCircle
 10
-464.5378027765468
 20
-164.5584074796842
 30
0.0
 40
1.499999874346965
100
AcDbArc
 50
0.0000000000000127
 51
90.00000000000001
  0
LINE
  5
99
330
1F
100
AcDbEntity
  8
C-0_通り芯
  6
Continuous
 62
     4
370
     9
100
AcDbLine
 10
-393.0378885541153
 20
-163.0584025308879
 30
0.0
 11
-393.0378885541153
 21
-164.5584074796842
 31
0.0
  0
LINE
  5
9A
330
1F
100
AcDbEntity
  8
C-0_通り芯
  6
Continuous
 62
     4
370
     9
100
AcDbLine
 10
-396.5377763813943
 20
-164.5584074796842
 30
0.0
 11
-396.5377763813943
 21
-413.0584231508734
 31
0.0
  0
LINE
  5
9B
330
1F
100
AcDbEntity
  8
C-0_通り芯
  6
Continuous
 62
     4
370
     9
100
AcDbLine
 10
-396.5377763813955
 20
-164.5584074796842
 30
0.0
 11
-393.0377400902215
 21
-164.5584074796842
 31
0.0
  0
LINE
  5
9C
330
1F
100
AcDbEntity
  8
C-0_通り芯
  6
Continuous
 62
     4
370
     9
100
AcDbLine
 10
-393.0377400902215
 20
-163.0584025308879
 30
0.0
 11
-393.0377400902215
 21
-164.5584074796842
 31
0.0
  0
LINE
  5
9D
330
1F
100
AcDbEntity
  8
C-3_寸法
  6
JWW_DASHED2
 62
     3
370
     9
100
AcDbLine
 10
-400.2876774054664
 20
-163.0584025308879
 30
0.0
 11
-400.2876774054664
 21
-413.0584231508734
 31
0.0
  0
LINE
  5
9E
330
1F
100
AcDbEntity
  8
C-0_通り芯
  6
JWW_DASHED2
 62
     4
370
     9
100
AcDbLine
 10
-398.037855560567
 20
-164.5584074796842
 30
0.0
 11
-398.037855560567
 21
-413.0584231508734
 31
0.0
  0
ARC
  5
9F
330
1F
100
AcDbEntity
  8
C-0_通り芯
  6
JWW_DASHED2
 62
     4
370
     9
100
AcDbCircle
 10
-396.5377763798232
 20
-164.5584074796842
 30
0.0
 40
1.499999874346965
100
AcDbArc
 50
90.0
 51
180.0
  0
LINE
  5
A0
330
1F
100
AcDbEntity
  8
C-0_通り芯
  6
Continuous
 62
     4
370
     9
100
AcDbLine
 10
-468.0378390661508
 20
-164.5584074796842
 30
0.0
 11
-464.5378027749757
 21
-164.5584074796842
 31
0.0
  0
LINE
  5
A1
330
1F
100
AcDbEntity
  8
C-1_躯体
  6
Continuous
 62
     3
370
     9
100
AcDbLine
 10
-491.787802774977
 20
-160.7584025308877
 30
0.0
 11
-460.7878027749757
 21
-160.7584025308877
 31
0.0
  0
ARC
  5
A2
330
1F
100
AcDbEntity
  8
C-1_躯体
  6
Continuous
 62
     3
370
     9
100
AcDbCircle
 10
-491.787802774977
 20
-162.258402530888
 30
0.0
 40
1.5
100
AcDbArc
 50
90.0
 51
180.0
  0
LINE
  5
A3
330
1F
100
AcDbEntity
  8
C-1_躯体
  6
Continuous
 62
     3
370
     9
100
AcDbLine
 10
-493.2878027749757
 20
-179.758402530888
 30
0.0
 11
-493.2878027749757
 21
-162.258402530888
 31
0.0
  0
LINE
  5
A4
330
1F
100
AcDbEntity
  8
C-1_躯体
  6
Continuous
 62
     3
370
     9
100
AcDbLine
 10
-491.787802774977
 20
-181.2584025308878
 30
0.0
 11
-464.5378027749757
 21
-181.2584025308878
 31
0.0
  0
ARC
  5
A5
330
1F
100
AcDbEntity
  8
C-1_躯体
  6
Continuous
 62
     3
370
     9
100
AcDbCircle
 10
-491.787802774977
 20
-179.758402530888
 30
0.0
 40
1.5
100
AcDbArc
 50
180.0
 51
270.0
  0
LINE
  5
A6
330
1F
100
AcDbEntity
  8
C-1_躯体
  6
Continuous
 62
     4
370
     9
100
AcDbLine
 10
-485.2675189770388
 20
-147.8350311737877
 30
0.0
 11
-483.3547165036088
 21
-152.8128694888763
 31
0.0
  0
CIRCLE
  5
A7
330
1F
100
AcDbEntity
  8
C-E_見え係り
  6
Continuous
 62
     4
370
     9
100
AcDbCircle
 10
-476.8878027749769
 20
-168.558402530888
 30
0.0
 40
2.5
  0
ARC
  5
A8
330
1F
100
AcDbEntity
  8
C-0_通り芯
  6
Continuous
 62
     4
370
     9
100
AcDbCircle
 10
-472.8615303114122
 20
-87.20056699511204
 30
0.0
 40
0.9999999999999999
100
AcDbArc
 50
174.0
 51
256.8749836510982
  0
ARC
  5
A9
330
1F
100
AcDbEntity
  8
C-0_通り芯
  6
Continuous
 62
     4
370
     9
100
AcDbCircle
 10
-473.1899865354944
 20
-78.84549253807918
 30
0.0
 40
0.2
100
AcDbArc
 50
354.0
 51
105.2060231130038
  0
LINE
  5
AA
330
1F
100
AcDbEntity
  8
C-0_通り芯
  6
Continuous
 62
     4
370
     9
100
AcDbLine
 10
-473.0886068523341
 20
-88.17444390959466
 30
0.0
 11
-466.0966813758045
 21
-89.80473437853064
 31
0.0
  0
LINE
  5
AB
330
1F
100
AcDbEntity
  8
C-6_間仕切
  6
Continuous
 62
     2
370
     9
100
AcDbLine
 10
-468.5430922227578
 20
-143.6944499283995
 30
0.0
 11
-468.0831692771607
 21
-139.3185754031278
 31
0.0
  0
LINE
  5
AC
330
1F
100
AcDbEntity
  8
C-6_間仕切
  6
Continuous
 62
     2
370
     9
100
AcDbLine
 10
-469.4223445632314
 20
-144.4064544348642
 30
0.0
 11
-468.5430922227578
 21
-143.6944499283995
 31
0.0
  0
LINE
  5
AD
330
1F
100
AcDbEntity
  8
C-6_間仕切
  6
Continuous
 62
     2
370
     9
100
AcDbLine
 10
-468.795173783626
 20
-138.4393230626542
 30
0.0
 11
-468.0831692771607
 21
-139.3185754031278
 31
0.0
  0
LINE
  5
AE
330
1F
100
AcDbEntity
  8
C-B_衛生陶器
  6
Continuous
 62
     2
370
     9
100
AcDbLine
 10
-470.029195752038
 20
-146.3536538424843
 30
0.0
 11
-470.5382604950432
 21
-147.054321425522
 31
0.0
  0
LINE
  5
AF
330
1F
100
AcDbEntity
  8
C-B_衛生陶器
  6
Continuous
 62
     2
370
     9
100
AcDbLine
 10
-468.9839182967602
 20
-136.4085031772011
 30
0.0
 11
-469.3361817718596
 21
-135.6173063504868
 31
0.0
  0
LINE
  5
B0
330
1F
100
AcDbEntity
  8
C-0_通り芯
  6
Continuous
 62
     4
370
     9
100
AcDbLine
 10
-466.0966813758056
 20
-89.80473437853064
 30
0.0
 11
-470.8887098403601
 21
-135.3978396653174
 31
0.0
  0
LINE
  5
B1
330
1F
100
AcDbEntity
  8
C-0_通り芯
  6
Continuous
 62
     4
370
     9
100
AcDbLine
 10
-470.8887098403601
 20
-135.3978396653174
 30
0.0
 11
-470.8945614535446
 21
-135.4535140457899
 31
0.0
  0
LINE
  5
B2
330
1F
100
AcDbEntity
  8
C-B_衛生陶器
  6
Continuous
 62
     2
370
     9
100
AcDbLine
 10
-470.5382604950432
 20
-147.054321425522
 30
0.0
 11
-472.0966401767282
 21
-146.8905291208246
 31
0.0
  0
LINE
  5
B3
330
1F
100
AcDbEntity
  8
C-B_衛生陶器
  6
Continuous
 62
     2
370
     9
100
AcDbLine
 10
-469.3361817718596
 20
-135.6173063504868
 30
0.0
 11
-470.8945614535446
 21
-135.4535140457899
 31
0.0
  0
ARC
  5
B4
330
1F
100
AcDbEntity
  8
C-0_通り芯
  6
Continuous
 62
     4
370
     9
100
AcDbCircle
 10
-479.3909850129216
 20
-149.3241787126148
 30
0.0
 40
1.0
100
AcDbArc
 50
91.12501634890181
 51
174.0
  0
LINE
  5
B5
330
1F
100
AcDbEntity
  8
C-0_通り芯
  6
Continuous
 62
     4
370
     9
100
AcDbLine
 10
-479.4106189906699
 20
-148.3243714777355
 30
0.0
 11
-472.2325274133731
 21
-148.1834098149433
 31
0.0
  0
LINE
  5
B6
330
1F
100
AcDbEntity
  8
C-1_躯体
  6
Continuous
 62
     4
370
     9
100
AcDbLine
 10
-470.8945614535446
 20
-135.4535140457899
 30
0.0
 11
-472.2325274133731
 21
-148.1834098149433
 31
0.0
  0
LINE
  5
B7
330
1F
100
AcDbEntity
  8
C-B_衛生陶器
  6
Continuous
 62
     2
370
     9
100
AcDbLine
 10
-468.9839182967602
 20
-136.4085031772011
 30
0.0
 11
-470.029195752038
 21
-146.3536538424843
 31
0.0
  0
LINE
  5
B8
330
1F
100
AcDbEntity
  8
C-6_間仕切
  6
Continuous
 62
     2
370
     9
100
AcDbLine
 10
-469.4223445632314
 20
-144.4064544348642
 30
0.0
 11
-469.820142414203
 21
-144.3646441959477
 31
0.0
  0
LINE
  5
B9
330
1F
100
AcDbEntity
  8
C-6_間仕切
  6
Continuous
 62
     2
370
     9
100
AcDbLine
 10
-468.5430933691486
 20
-143.6944608355738
 30
0.0
 11
-469.7365196435885
 21
-143.5690266796531
 31
0.0
  0
LINE
  5
BA
330
1F
100
AcDbEntity
  8
C-6_間仕切
  6
Continuous
 62
     2
370
     9
100
AcDbLine
 10
-468.0831681307699
 20
-139.3185644959529
 30
0.0
 11
-469.2765944052098
 21
-139.1931303400322
 31
0.0
  0
LINE
  5
BB
330
1F
100
AcDbEntity
  8
C-6_間仕切
  6
Continuous
 62
     2
370
     9
100
AcDbLine
 10
-468.795173783626
 20
-138.4393230626542
 30
0.0
 11
-469.1929716345964
 21
-138.3975128237377
 31
0.0
  0
LINE
  5
BC
330
1F
100
AcDbEntity
  8
C-9_記号
  6
Continuous
 62
     7
370
     9
100
AcDbLine
 10
-481.5982786427616
 20
-160.7584025308877
 30
0.0
 11
-480.9157007080682
 21
-154.264107291802
 31
0.0
  0
LINE
  5
BD
330
1F
100
AcDbEntity
  8
C-9_記号
  6
Continuous
 62
     7
370
     9
100
AcDbLine
 10
-484.8159051373659
 20
-160.7584025308877
 30
0.0
 11
-483.8463294388293
 21
-151.5335059690553
 31
0.0
  0
LINE
  5
BE
330
1F
100
AcDbEntity
  8
C-6_間仕切
  6
Continuous
 62
     2
370
     9
100
AcDbLine
 10
-486.4247183846691
 20
-160.7584025308877
 30
0.0
 11
-485.1096090283499
 21
-148.2459728177055
 31
0.0
  0
LINE
  5
BF
330
1F
100
AcDbEntity
  8
C-E_見え係り
  6
Continuous
 62
     6
370
     9
100
AcDbLine
 10
-280.5377895781861
 20
-414.5583909836963
 30
0.0
 11
-280.5377895781861
 21
-163.0583909836959
 31
0.0
  0
LINE
  5
C0
330
1F
100
AcDbEntity
  8
C-E_見え係り
  6
Continuous
 62
     6
370
     9
100
AcDbLine
 10
-580.5377895781861
 20
-414.5583909836963
 30
0.0
 11
-580.5377895781861
 21
-163.0583909836959
 31
0.0
  0
LINE
  5
C1
330
1F
100
AcDbEntity
  8
C-E_見え係り
  6
Continuous
 62
     6
370
     9
100
AcDbLine
 10
-630.5377895781861
 20
-514.5583909836963
 30
0.0
 11
-630.5377895781861
 21
-414.5583909836963
 31
0.0
  0
LINE
  5
C2
330
1F
100
AcDbEntity
  8
C-E_見え係り
  6
Continuous
 62
     6
370
     9
100
AcDbLine
 10
-230.5377895781861
 20
-414.5583909836963
 30
0.0
 11
-630.5377895781861
 21
-414.5583909836963
 31
0.0
  0
LINE
  5
C3
330
1F
100
AcDbEntity
  8
C-E_見え係り
  6
Continuous
 62
     6
370
     9
100
AcDbLine
 10
-230.5377895781861
 20
-514.5583909836963
 30
0.0
 11
-230.5377895781861
 21
-414.5583909836963
 31
0.0
  0
LINE
  5
C4
330
1F
100
AcDbEntity
  8
C-E_見え係り
  6
Continuous
 62
     6
370
     9
100
AcDbLine
 10
-230.5377895781861
 20
-514.5583909836963
 30
0.0
 11
-630.5377895781861
 21
-514.5583909836963
 31
0.0
  0
LINE
  5
C5
330
1F
100
AcDbEntity
  8
C-1_躯体
  6
Continuous
 62
     7
370
     9
100
AcDbLine
 10
-390.537756586209
 20
-413.0584231508734
 30
0.0
 11
-390.537756586209
 21
-414.5583909836963
 31
0.0
  0
LINE
  5
C6
330
1F
100
AcDbEntity
  8
C-1_躯体
  6
Continuous
 62
     7
370
     9
100
AcDbLine
 10
-418.037723594233
 20
-413.0584231508734
 30
0.0
 11
-418.037723594233
 21
-414.5583909836963
 31
0.0
  0
LINE
  5
C7
330
1F
100
AcDbEntity
  8
C-1_躯体
  6
Continuous
 62
     7
370
     9
100
AcDbLine
 10
-443.0378555621382
 20
-413.0584231508734
 30
0.0
 11
-443.0378555621382
 21
-414.5583909836963
 31
0.0
  0
LINE
  5
C8
330
1F
100
AcDbEntity
  8
C-1_躯体
  6
Continuous
 62
     7
370
     9
100
AcDbLine
 10
-470.5378225701622
 20
-413.0584231508734
 30
0.0
 11
-470.5378225701622
 21
-414.5583909836963
 31
0.0
  0
LINE
  5
C9
330
1F
100
AcDbEntity
  8
C-1_躯体
  6
Continuous
 62
     4
370
     9
100
AcDbLine
 10
-483.3547165036088
 20
-152.8128694888763
 30
0.0
 11
-481.2060433716987
 21
-154.4210752625089
 31
0.0
  0
LINE
  5
CA
330
1F
100
AcDbEntity
  8
C-0_通り芯
  6
Continuous
 62
     4
370
     9
100
AcDbLine
 10
-475.6283064574927
 20
-79.3009883873664
 30
0.0
 11
-480.2396577808553
 21
-85.64796897778152
 31
0.0
  0
LINE
  5
CB
330
1F
100
AcDbEntity
  8
C-0_通り芯
  6
Continuous
 62
     4
370
     9
100
AcDbLine
 10
-486.4518435922138
 20
-144.7529688444014
 30
0.0
 11
-485.2675189770388
 21
-147.8350311737877
 31
0.0
  0
LINE
  5
CC
330
1F
100
AcDbEntity
  8
C-0_通り芯
  6
Continuous
 62
     4
370
     9
100
AcDbLine
 10
-486.4518435922138
 20
-144.7529688444014
 30
0.0
 11
-480.2396577808553
 21
-85.64796897778152
 31
0.0
  0
LINE
  5
CD
330
1F
100
AcDbEntity
  8
C-0_通り芯
  6
Continuous
 62
     4
370
     9
100
AcDbLine
 10
-480.9157007080682
 20
-154.264107291802
 30
0.0
 11
-472.9605467194824
 21
-78.57587295493872
 31
0.0
  0
LINE
  5
CE
330
1F
100
AcDbEntity
  8
C-0_通り芯
  6
Continuous
 62
     4
370
     9
100
AcDbLine
 10
-472.9605467194824
 20
-78.57587295493872
 30
0.0
 11
-475.6283064574927
 21
-79.3009883873664
 31
0.0
  0
LINE
  5
CF
330
1F
100
AcDbEntity
  8
C-E_見え係り
  6
Continuous
 62
     6
370
     9
100
AcDbLine
 10
-464.5378027749781
 20
-197.2498421314169
 30
0.0
 11
-580.5377895781863
 21
-313.2498289346264
 31
0.0
  0
LINE
  5
D0
330
1F
100
AcDbEntity
  8
C-E_見え係り
  6
Continuous
 62
     6
370
     9
100
AcDbLine
 10
-464.5378027749781
 20
-211.391977755148
 30
0.0
 11
-580.5377895781863
 21
-327.3919645583575
 31
0.0
  0
LINE
  5
D1
330
1F
100
AcDbEntity
  8
C-E_見え係り
  6
Continuous
 62
     6
370
     9
100
AcDbLine
 10
-464.537802774977
 20
-225.5341133788785
 30
0.0
 11
-580.5377895781863
 21
-341.5341001820885
 31
0.0
  0
LINE
  5
D2
330
1F
100
AcDbEntity
  8
C-E_見え係り
  6
Continuous
 62
     6
370
     9
100
AcDbLine
 10
-280.5377895781861
 20
-212.1309905170166
 30
0.0
 11
-396.5377763813968
 21
-328.1309773202266
 31
0.0
  0
LINE
  5
D3
330
1F
100
AcDbEntity
  8
C-E_見え係り
  6
Continuous
 62
     6
370
     9
100
AcDbLine
 10
-280.5377895781861
 20
-226.2731261407477
 30
0.0
 11
-396.5377763813968
 21
-342.2731129439571
 31
0.0
  0
LINE
  5
D4
330
1F
100
AcDbEntity
  8
C-E_見え係り
  6
Continuous
 62
     6
370
     9
100
AcDbLine
 10
-280.5377895781861
 20
-240.4152617644788
 30
0.0
 11
-396.5377763813968
 21
-356.4152485676888
 31
0.0
  0
LINE
  5
D5
330
1F
100
AcDbEntity
  8
C-2_仕上
  6
Continuous
 62
     3
370
     9
100
AcDbLine
 10
-460.7878027749771
 20
281.6904295531496
 30
0.0
 11
-460.7878027749771
 21
-163.0584025308879
 31
0.0
  0
LINE
  5
D6
330
1F
100
AcDbEntity
  8
C-0_通り芯
  6
Continuous
 62
     4
370
     9
100
AcDbLine
 10
-393.0377400902215
 20
-163.0584025308879
 30
0.0
 11
-468.0378390661508
 21
-163.0584025308879
 31
0.0
  0
LINE
  5
D7
330
1F
100
AcDbEntity
  8
C-2_仕上
  6
Continuous
 62
     3
370
     9
100
AcDbLine
 10
-400.2877763813958
 20
281.6909244327954
 30
0.0
 11
-400.2877763813958
 21
-163.0584025308879
 31
0.0
  0
LINE
  5
D8
330
1F
100
AcDbEntity
  8
C-6_間仕切
  6
Continuous
 62
     6
370
     9
100
AcDbLine
 10
-393.0378885546987
 20
-163.0582545804953
 30
0.0
 11
-204.7521161092821
 21
-163.0575117264292
 31
0.0
  0
LINE
  5
D9
330
1F
100
AcDbEntity
  8
C-2_仕上
  6
Continuous
 62
     3
370
     9
100
AcDbLine
 10
279.5913754748938
 20
457.5801861226709
 30
0.0
 11
279.5913754748938
 21
-92.44456307179668
 31
0.0
  0
LINE
  5
DA
330
1F
100
AcDbEntity
  8
C-2_仕上
  6
Continuous
 62
     3
370
     9
100
AcDbLine
 10
340.091401868475
 20
457.5801861226709
 30
0.0
 11
340.091401868475
 21
-92.37792518927783
 31
0.0
  0
LINE
  5
DB
330
1F
100
AcDbEntity
  8
C-E_見え係り
  6
Continuous
 62
     6
370
     9
100
AcDbLine
 10
159.8416361115073
 20
-414.5575117264295
 30
0.0
 11
159.8416361115073
 21
-163.0575117264292
 31
0.0
  0
LINE
  5
DC
330
1F
100
AcDbEntity
  8
C-E_見え係り
  6
Continuous
 62
     6
370
     9
100
AcDbLine
 10
459.8416361115079
 20
-414.5575117264295
 30
0.0
 11
459.8416361115079
 21
-163.0575117264292
 31
0.0
  0
LINE
  5
DD
330
1F
100
AcDbEntity
  8
C-E_見え係り
  6
Continuous
 62
     6
370
     9
100
AcDbLine
 10
509.8416361115078
 20
-514.5575117264297
 30
0.0
 11
509.8416361115078
 21
-414.5575117264295
 31
0.0
  0
LINE
  5
DE
330
1F
100
AcDbEntity
  8
C-E_見え係り
  6
Continuous
 62
     6
370
     9
100
AcDbLine
 10
109.8416361115075
 20
-414.5575117264295
 30
0.0
 11
509.8416361115078
 21
-414.5575117264295
 31
0.0
  0
LINE
  5
DF
330
1F
100
AcDbEntity
  8
C-E_見え係り
  6
Continuous
 62
     6
370
     9
100
AcDbLine
 10
109.8416361115075
 20
-514.5575117264297
 30
0.0
 11
109.8416361115075
 21
-414.5575117264295
 31
0.0
  0
LINE
  5
E0
330
1F
100
AcDbEntity
  8
C-E_見え係り
  6
Continuous
 62
     6
370
     9
100
AcDbLine
 10
109.8416361115075
 20
-514.5575117264297
 30
0.0
 11
509.8416361115078
 21
-514.5575117264297
 31
0.0
  0
LINE
  5
E1
330
1F
100
AcDbEntity
  8
C-E_見え係り
  6
Continuous
 62
     6
370
     9
100
AcDbLine
 10
309.8416361115073
 20
-414.5575117264295
 30
0.0
 11
283.0467168683947
 21
-514.5575117264297
 31
0.0
  0
LINE
  5
E2
330
1F
100
AcDbEntity
  8
C-E_見え係り
  6
Continuous
 62
     6
370
     9
100
AcDbLine
 10
296.0960856819349
 20
-514.5575117264297
 30
0.0
 11
289.5714012751648
 21
-490.2070580170117
 31
0.0
  0
LINE
  5
E3
330
1F
100
AcDbEntity
  8
C-E_見え係り
  6
Continuous
 62
     6
370
     9
100
AcDbLine
 10
296.7922672979671
 20
-414.5575117264295
 30
0.0
 11
303.3169517047372
 21
-438.9079654358476
 31
0.0
  0
LINE
  5
E4
330
1F
100
AcDbEntity
  8
C-E_見え係り
  6
Continuous
 62
     6
370
     9
100
AcDbLine
 10
259.8416361115073
 20
-414.5575117264295
 30
0.0
 11
233.0467168683947
 21
-514.5575117264297
 31
0.0
  0
LINE
  5
E5
330
1F
100
AcDbEntity
  8
C-E_見え係り
  6
Continuous
 62
     6
370
     9
100
AcDbLine
 10
246.0960856819349
 20
-514.5575117264297
 30
0.0
 11
239.5714012751648
 21
-490.2070580170117
 31
0.0
  0
LINE
  5
E6
330
1F
100
AcDbEntity
  8
C-E_見え係り
  6
Continuous
 62
     6
370
     9
100
AcDbLine
 10
246.7922672979671
 20
-414.5575117264295
 30
0.0
 11
253.3169517047372
 21
-438.9079654358476
 31
0.0
  0
LINE
  5
E7
330
1F
100
AcDbEntity
  8
C-E_見え係り
  6
Continuous
 62
     6
370
     9
100
AcDbLine
 10
209.8416361115073
 20
-414.5575117264295
 30
0.0
 11
183.0467168683947
 21
-514.5575117264297
 31
0.0
  0
LINE
  5
E8
330
1F
100
AcDbEntity
  8
C-E_見え係り
  6
Continuous
 62
     6
370
     9
100
AcDbLine
 10
196.0960856819349
 20
-514.5575117264297
 30
0.0
 11
189.5714012751648
 21
-490.2070580170117
 31
0.0
  0
LINE
  5
E9
330
1F
100
AcDbEntity
  8
C-E_見え係り
  6
Continuous
 62
     6
370
     9
100
AcDbLine
 10
196.7922672979671
 20
-414.5575117264295
 30
0.0
 11
203.3169517047372
 21
-438.9079654358476
 31
0.0
  0
LINE
  5
EA
330
1F
100
AcDbEntity
  8
C-E_見え係り
  6
Continuous
 62
     6
370
     9
100
AcDbLine
 10
159.8416361115073
 20
-414.5575117264295
 30
0.0
 11
133.0467168683948
 21
-514.5575117264297
 31
0.0
  0
LINE
  5
EB
330
1F
100
AcDbEntity
  8
C-E_見え係り
  6
Continuous
 62
     6
370
     9
100
AcDbLine
 10
146.0960856819351
 20
-514.5575117264297
 30
0.0
 11
139.571401275165
 21
-490.2070580170117
 31
0.0
  0
LINE
  5
EC
330
1F
100
AcDbEntity
  8
C-E_見え係り
  6
Continuous
 62
     6
370
     9
100
AcDbLine
 10
146.7922672979672
 20
-414.5575117264295
 30
0.0
 11
153.3169517047372
 21
-438.9079654358476
 31
0.0
  0
LINE
  5
ED
330
1F
100
AcDbEntity
  8
C-E_見え係り
  6
Continuous
 62
     6
370
     9
100
AcDbLine
 10
359.8416361115073
 20
-414.5575117264295
 30
0.0
 11
333.0467168683947
 21
-514.5575117264297
 31
0.0
  0
LINE
  5
EE
330
1F
100
AcDbEntity
  8
C-E_見え係り
  6
Continuous
 62
     6
370
     9
100
AcDbLine
 10
346.0960856819349
 20
-514.5575117264297
 30
0.0
 11
339.5714012751648
 21
-490.2070580170117
 31
0.0
  0
LINE
  5
EF
330
1F
100
AcDbEntity
  8
C-E_見え係り
  6
Continuous
 62
     6
370
     9
100
AcDbLine
 10
346.7922672979671
 20
-414.5575117264295
 30
0.0
 11
353.3169517047372
 21
-438.9079654358476
 31
0.0
  0
LINE
  5
F0
330
1F
100
AcDbEntity
  8
C-E_見え係り
  6
Continuous
 62
     6
370
     9
100
AcDbLine
 10
409.8416361115079
 20
-414.5575117264295
 30
0.0
 11
383.0467168683953
 21
-514.5575117264297
 31
0.0
  0
LINE
  5
F1
330
1F
100
AcDbEntity
  8
C-E_見え係り
  6
Continuous
 62
     6
370
     9
100
AcDbLine
 10
396.0960856819355
 20
-514.5575117264297
 30
0.0
 11
389.5714012751654
 21
-490.2070580170117
 31
0.0
  0
LINE
  5
F2
330
1F
100
AcDbEntity
  8
C-E_見え係り
  6
Continuous
 62
     6
370
     9
100
AcDbLine
 10
396.7922672979677
 20
-414.5575117264295
 30
0.0
 11
403.3169517047378
 21
-438.9079654358476
 31
0.0
  0
LINE
  5
F3
330
1F
100
AcDbEntity
  8
C-E_見え係り
  6
Continuous
 62
     6
370
     9
100
AcDbLine
 10
459.8416361115079
 20
-414.5575117264295
 30
0.0
 11
433.0467168683953
 21
-514.5575117264297
 31
0.0
  0
LINE
  5
F4
330
1F
100
AcDbEntity
  8
C-E_見え係り
  6
Continuous
 62
     6
370
     9
100
AcDbLine
 10
446.0960856819355
 20
-514.5575117264297
 30
0.0
 11
439.5714012751654
 21
-490.2070580170117
 31
0.0
  0
LINE
  5
F5
330
1F
100
AcDbEntity
  8
C-E_見え係り
  6
Continuous
 62
     6
370
     9
100
AcDbLine
 10
446.7922672979677
 20
-414.5575117264295
 30
0.0
 11
453.3169517047378
 21
-438.9079654358476
 31
0.0
  0
LINE
  5
F6
330
1F
100
AcDbEntity
  8
C-E_見え係り
  6
Continuous
 62
     6
370
     9
100
AcDbLine
 10
509.8416361115078
 20
-414.5575117264295
 30
0.0
 11
483.0467168683953
 21
-514.5575117264297
 31
0.0
  0
LINE
  5
F7
330
1F
100
AcDbEntity
  8
C-E_見え係り
  6
Continuous
 62
     6
370
     9
100
AcDbLine
 10
496.0960856819354
 20
-514.5575117264297
 30
0.0
 11
489.5714012751654
 21
-490.2070580170117
 31
0.0
  0
LINE
  5
F8
330
1F
100
AcDbEntity
  8
C-E_見え係り
  6
Continuous
 62
     6
370
     9
100
AcDbLine
 10
496.7922672979676
 20
-414.5575117264295
 30
0.0
 11
503.3169517047377
 21
-438.9079654358476
 31
0.0
  0
LINE
  5
F9
330
1F
100
AcDbEntity
  8
C-1_躯体
  6
Continuous
 62
     7
370
     9
100
AcDbLine
 10
269.8416031195302
 20
-413.0575438936066
 30
0.0
 11
269.8416031195302
 21
-414.5575117264295
 31
0.0
  0
LINE
  5
FA
330
1F
100
AcDbEntity
  8
C-1_躯体
  6
Continuous
 62
     7
370
     9
100
AcDbLine
 10
297.3415701275542
 20
-413.0575438936066
 30
0.0
 11
297.3415701275542
 21
-414.5575117264295
 31
0.0
  0
LINE
  5
FB
330
1F
100
AcDbEntity
  8
C-1_躯体
  6
Continuous
 62
     7
370
     9
100
AcDbLine
 10
322.3417020954594
 20
-413.0575438936066
 30
0.0
 11
322.3417020954594
 21
-414.5575117264295
 31
0.0
  0
LINE
  5
FC
330
1F
100
AcDbEntity
  8
C-1_躯体
  6
Continuous
 62
     7
370
     9
100
AcDbLine
 10
349.8416691034834
 20
-413.0575438936066
 30
0.0
 11
349.8416691034834
 21
-414.5575117264295
 31
0.0
  0
LINE
  5
FD
330
1F
100
AcDbEntity
  8
C-E_見え係り
  6
Continuous
 62
     6
370
     9
100
AcDbLine
 10
459.8416361115079
 20
-212.1301112597499
 30
0.0
 11
343.841649308298
 21
-328.1300980629599
 31
0.0
  0
LINE
  5
FE
330
1F
100
AcDbEntity
  8
C-E_見え係り
  6
Continuous
 62
     6
370
     9
100
AcDbLine
 10
459.8416361115079
 20
-226.272246883481
 30
0.0
 11
343.841649308298
 21
-342.2722336866904
 31
0.0
  0
LINE
  5
FF
330
1F
100
AcDbEntity
  8
C-E_見え係り
  6
Continuous
 62
     6
370
     9
100
AcDbLine
 10
459.8416361115079
 20
-240.4143825072121
 30
0.0
 11
343.841649308298
 21
-356.414369310422
 31
0.0
  0
LINE
  5
100
330
1F
100
AcDbEntity
  8
C-E_見え係り
  6
Continuous
 62
     6
370
     9
100
AcDbLine
 10
275.8416229147167
 20
-225.5332341216125
 30
0.0
 11
159.8416361115073
 21
-341.5332209248218
 31
0.0
  0
LINE
  5
101
330
1F
100
AcDbEntity
  8
C-E_見え係り
  6
Continuous
 62
     6
370
     9
100
AcDbLine
 10
275.8416229147167
 20
-211.3910984978813
 30
0.0
 11
159.8416361115073
 21
-327.3910853010907
 31
0.0
  0
LINE
  5
102
330
1F
100
AcDbEntity
  8
C-E_見え係り
  6
Continuous
 62
     6
370
     9
100
AcDbLine
 10
275.8416229147167
 20
-197.2489628741502
 30
0.0
 11
159.8416361115073
 21
-313.2489496773596
 31
0.0
  0
LINE
  5
103
330
1F
100
AcDbEntity
  8
C-3_寸法
  6
JWW_DASHED2
 62
     3
370
     9
100
AcDbLine
 10
279.5915239387875
 20
-163.0575232736212
 30
0.0
 11
279.5915239387875
 21
-413.0575438936066
 31
0.0
  0
LINE
  5
104
330
1F
100
AcDbEntity
  8
C-0_通り芯
  6
Continuous
 62
     4
370
     9
100
AcDbLine
 10
275.8416229147167
 20
-164.5575282224175
 30
0.0
 11
275.8416229147167
 21
-413.0575438936066
 31
0.0
  0
LINE
  5
105
330
1F
100
AcDbEntity
  8
C-0_通り芯
  6
JWW_DASHED2
 62
     4
370
     9
100
AcDbLine
 10
342.3415701291253
 20
-164.5575282224175
 30
0.0
 11
342.3415701291253
 21
-413.0575438936066
 31
0.0
  0
LINE
  5
106
330
1F
100
AcDbEntity
  8
C-3_寸法
  6
JWW_DASHED2
 62
     3
370
     9
100
AcDbLine
 10
340.0917482842272
 20
-163.0575232736212
 30
0.0
 11
340.0917482842272
 21
-413.0575438936066
 31
0.0
  0
LINE
  5
107
330
1F
100
AcDbEntity
  8
C-1_躯体
  6
Continuous
 62
     7
370
     9
100
AcDbLine
 10
349.8416691034834
 20
-413.0575438936066
 30
0.0
 11
269.8416031195302
 21
-413.0575438936066
 31
0.0
  0
LINE
  5
108
330
1F
100
AcDbEntity
  8
C-0_通り芯
  6
Continuous
 62
     4
370
     9
100
AcDbLine
 10
343.841649308298
 20
-164.5575282224175
 30
0.0
 11
343.841649308298
 21
-413.0575438936066
 31
0.0
  0
LINE
  5
109
330
1F
100
AcDbEntity
  8
C-0_通り芯
  6
JWW_DASHED2
 62
     4
370
     9
100
AcDbLine
 10
277.3417020938882
 20
-164.5575282224175
 30
0.0
 11
277.3417020938882
 21
-413.0575438936066
 31
0.0
  0
LINE
  5
10A
330
1F
100
AcDbEntity
  8
C-0_通り芯
  6
Continuous
 62
     4
370
     9
100
AcDbLine
 10
347.3416855994719
 20
-164.5575282224175
 30
0.0
 11
343.841649308298
 21
-164.5575282224175
 31
0.0
  0
LINE
  5
10B
330
1F
100
AcDbEntity
  8
C-0_通り芯
  6
Continuous
 62
     4
370
     9
100
AcDbLine
 10
272.3415866235428
 20
-164.5575282224175
 30
0.0
 11
275.8416229147167
 21
-164.5575282224175
 31
0.0
  0
ARC
  5
10C
330
1F
100
AcDbEntity
  8
C-0_通り芯
  6
JWW_DASHED2
 62
     4
370
     9
100
AcDbCircle
 10
275.8416229131456
 20
-164.5575282224175
 30
0.0
 40
1.499999874346965
100
AcDbArc
 50
0.0000000000000127
 51
90.00000000000001
  0
LINE
  5
10D
330
1F
100
AcDbEntity
  8
C-0_通り芯
  6
Continuous
 62
     4
370
     9
100
AcDbLine
 10
272.3415866235428
 20
-163.0575232736212
 30
0.0
 11
272.3415866235428
 21
-164.5575282224175
 31
0.0
  0
LINE
  5
10E
330
1F
100
AcDbEntity
  8
C-0_通り芯
  6
Continuous
 62
     4
370
     9
100
AcDbLine
 10
272.3417350874365
 20
-163.0575232736212
 30
0.0
 11
272.3417350874365
 21
-164.5575282224175
 31
0.0
  0
ARC
  5
10F
330
1F
100
AcDbEntity
  8
C-0_通り芯
  6
JWW_DASHED2
 62
     4
370
     9
100
AcDbCircle
 10
343.8416493098691
 20
-164.5575282224175
 30
0.0
 40
1.499999874346965
100
AcDbArc
 50
90.0
 51
180.0
  0
LINE
  5
110
330
1F
100
AcDbEntity
  8
C-0_通り芯
  6
Continuous
 62
     4
370
     9
100
AcDbLine
 10
347.3416855994719
 20
-163.0575232736212
 30
0.0
 11
347.3416855994719
 21
-164.5575282224175
 31
0.0
  0
LINE
  5
111
330
1F
100
AcDbEntity
  8
C-0_通り芯
  6
JWW_CENTER2
 62
     7
370
     9
100
AcDbLine
 10
257.952762985451
 20
457.5799386828479
 30
0.0
 11
364.9798889884073
 21
457.5804335624938
 31
0.0
  0
ARC
  5
112
330
1F
100
AcDbEntity
  8
C-2_仕上
  6
Continuous
 62
     3
370
     9
100
AcDbCircle
 10
309.8413886716844
 20
457.5801861226709
 30
0.0
 40
30.24996486870018
100
AcDbArc
 50
0.0
 51
180.0
  0
ARC
  5
113
330
1F
100
AcDbEntity
  8
C-2_仕上
  6
JWW_DASHED2
 62
     3
370
     9
100
AcDbCircle
 10
309.8413886716844
 20
457.5801861226709
 30
0.0
 40
30.24996486870018
100
AcDbArc
 50
180.0004730224609
 51
0.0004730224609375
  0
LINE
  5
114
330
1F
100
AcDbEntity
  8
C-0_通り芯
  6
JWW_CENTER2
 62
     7
370
     9
100
AcDbLine
 10
309.8416361115073
 20
514.0976685709396
 30
0.0
 11
309.8416361115073
 21
-454.0735747248816
 31
0.0
  0
LINE
  5
115
330
1F
100
AcDbEntity
  8
C-1_躯体
  6
Continuous
 62
     3
370
     9
100
AcDbLine
 10
279.5916229147167
 20
-58.0792712721361
 30
0.0
 11
279.5916229147167
 21
-163.0575232736212
 31
0.0
  0
LINE
  5
116
330
1F
100
AcDbEntity
  8
C-1_躯体
  6
Continuous
 62
     3
370
     9
100
AcDbLine
 10
340.091649308298
 20
-73.57509280946005
 30
0.0
 11
340.091649308298
 21
-163.0575232736212
 31
0.0
  0
ELLIPSE
  5
117
330
1F
100
AcDbEntity
  8
C-0_通り芯
  6
Continuous
 62
     4
370
     9
100
AcDbEllipse
 10
309.8986321757491
 20
-118.0794158670572
 30
0.0
 11
-3.345514096583813
 21
31.83044040163793
 31
0.0
210
0.0
220
0.0
230
1.0
 40
0.9945
 41
1.154744950481671
 42
1.776258424061158
  0
ELLIPSE
  5
118
330
1F
100
AcDbEntity
  8
C-0_通り芯
  6
Continuous
 62
     4
370
     9
100
AcDbEllipse
 10
309.8986321757491
 20
-118.0794158670572
 30
0.0
 11
-3.345514096583813
 21
31.83044040163793
 31
0.0
210
0.0
220
0.0
230
1.0
 40
0.9945
 41
4.284832074319628
 42
4.929356607402788
  0
ELLIPSE
  5
119
330
1F
100
AcDbEntity
  8
C-0_通り芯
  6
Continuous
 62
     4
370
     9
100
AcDbEllipse
 10
309.8986321757491
 20
-118.0794158670572
 30
0.0
 11
-4.160232838052567
 21
39.58197143565728
 31
0.0
210
0.0
220
0.0
230
1.0
 40
0.9944999999999998
 41
0.7667625057856567
 42
2.16425058662961
  0
ELLIPSE
  5
11A
330
1F
100
AcDbEntity
  8
C-0_通り芯
  6
Continuous
 62
     4
370
     9
100
AcDbEllipse
 10
309.8986321757491
 20
-118.0794158670572
 30
0.0
 11
-4.055704374784915
 21
38.58744954028901
 31
0.0
210
0.0
220
0.0
230
1.0
 40
0.9945
 41
0.7980163469981315
 42
2.132987027544697
  0
ELLIPSE
  5
11B
330
1F
100
AcDbEntity
  8
C-0_通り芯
  6
Continuous
 62
     4
370
     9
100
AcDbEllipse
 10
309.8986321757491
 20
-118.0794158670572
 30
0.0
 11
-4.160232838052567
 21
39.58197143565728
 31
0.0
210
0.0
220
0.0
230
1.0
 40
0.9944999999999998
 41
3.903880426896705
 42
5.31030825482571
  0
ELLIPSE
  5
11C
330
1F
100
AcDbEntity
  8
C-0_通り芯
  6
Continuous
 62
     4
370
     9
100
AcDbEllipse
 10
309.8986321757491
 20
-118.0794158670572
 30
0.0
 11
-4.055704374784915
 21
38.58744954028901
 31
0.0
210
0.0
220
0.0
230
1.0
 40
0.9945
 41
3.934851212666703
 42
5.279337469055713
  0
LINE
  5
11D
330
1F
100
AcDbEntity
  8
C-E_見え係り
  6
Continuous
 62
     6
370
     9
100
AcDbLine
 10
75.62429375637649
 20
-163.0575117264292
 30
0.0
 11
272.3417350874365
 21
-163.0575117264292
 31
0.0
  0
LINE
  5
11E
330
1F
100
AcDbEntity
  8
C-E_見え係り
  6
Continuous
 62
     6
370
     9
100
AcDbLine
 10
347.3416855994719
 20
-163.0575117264292
 30
0.0
 11
543.2413150329733
 21
-163.0575117264292
 31
0.0
  0
LINE
  5
11F
330
1F
100
AcDbEntity
  8
C-0_通り芯
  6
Continuous
 62
     4
370
     9
100
AcDbLine
 10
347.3416855994719
 20
-163.0575232736212
 30
0.0
 11
272.3415866235428
 21
-163.0575232736212
 31
0.0
  0
ARC
  5
120
330
1F
100
AcDbEntity
  8
C-0_通り芯
  6
JWW_CENTER2
 62
     7
370
     9
100
AcDbCircle
 10
-1195.037845664547
 20
281.6909244327954
 30
0.0
 40
175.0000051549963
100
AcDbArc
 50
89.999755859375
 51
180.0
  0
ARC
  5
121
330
1F
100
AcDbEntity
  8
C-2_仕上
  6
Continuous
 62
     3
370
     9
100
AcDbCircle
 10
-1195.037721944636
 20
281.6904295531496
 30
0.0
 40
144.7500074231947
100
AcDbArc
 50
89.9998016357422
 51
180.0
  0
ARC
  5
122
330
1F
100
AcDbEntity
  8
C-2_仕上
  6
Continuous
 62
     3
370
     9
100
AcDbCircle
 10
-1195.037845664547
 20
281.6909244327954
 30
0.0
 40
205.2500028867979
100
AcDbArc
 50
89.99977111816406
 51
180.0
  0
LINE
  5
123
330
1F
100
AcDbEntity
  8
C-4_文字
  6
Continuous
 62
     7
370
     9
100
AcDbLine
 10
-1400.287817621367
 20
633.3339247411349
 30
0.0
 11
-1400.287817621367
 21
378.2045860044057
 31
0.0
  0
LINE
  5
124
330
1F
100
AcDbEntity
  8
C-4_文字
  6
Continuous
 62
     7
370
     9
100
AcDbLine
 10
-1400.287817621367
 20
630.3339247411348
 30
0.0
 11
-1375.501696087021
 21
633.5970795466361
 31
0.0
  0
LINE
  5
125
330
1F
100
AcDbEntity
  8
C-4_文字
  6
Continuous
 62
     7
370
     9
100
AcDbLine
 10
-1400.287817621367
 20
630.3339247411348
 30
0.0
 11
-1375.501696087021
 21
627.0707699356334
 31
0.0
  0
TEXT
  5
126
330
1F
100
AcDbEntity
  8
C-4_文字
  6
Continuous
 62
     2
370
     9
100
AcDbText
 10
-1229.888996220029
 20
330.1323905352006
 30
0.0
 40
30.48
  1
R175
 50
314.9999485295183
 41
1.093750000000008
  7
ＭＳ ゴシック
100
AcDbText
  0
LINE
  5
127
330
1F
100
AcDbEntity
  8
C-4_文字
  6
Continuous
 62
     7
370
     9
100
AcDbLine
 10
-1160.75772528639
 20
246.1689129120729
 30
0.0
 11
-1319.400753266932
 21
404.8122833309546
 31
0.0
  0
LINE
  5
128
330
1F
100
AcDbEntity
  8
C-4_文字
  6
Continuous
 62
     7
370
     9
100
AcDbLine
 10
-1319.400753266932
 20
404.8122833309546
 30
0.0
 11
-1304.181762505357
 21
384.9784639362159
 31
0.0
  0
LINE
  5
129
330
1F
100
AcDbEntity
  8
C-4_文字
  6
Continuous
 62
     7
370
     9
100
AcDbLine
 10
-1319.400753266932
 20
404.8122833309546
 30
0.0
 11
-1299.566959450708
 21
389.59320522117
 31
0.0
  0
ARC
  5
12A
330
1F
100
AcDbEntity
  8
C-0_通り芯
  6
Continuous
 62
     4
370
     9
100
AcDbCircle
 10
-1319.460988915621
 20
-154.2508536137083
 30
0.0
 40
0.2
100
AcDbArc
 50
186.0
 51
297.2060231130038
  0
LINE
  5
12B
330
1F
100
AcDbEntity
  8
C-0_通り芯
  6
Continuous
 62
     4
370
     9
100
AcDbLine
 10
-1332.537754936611
 20
-163.0660545454477
 30
0.0
 11
-1332.537754936611
 21
-164.5660594942441
 31
0.0
  0
LINE
  5
12C
330
1F
100
AcDbEntity
  8
C-0_通り芯
  6
Continuous
 62
     4
370
     9
100
AcDbLine
 10
-1336.037791227786
 20
-164.5660594942441
 30
0.0
 11
-1336.037791227786
 21
-413.0660751654332
 31
0.0
  0
LINE
  5
12D
330
1F
100
AcDbEntity
  8
C-1_躯体
  6
Continuous
 62
     7
370
     9
100
AcDbLine
 10
-1330.0377714326
 20
-413.0660751654332
 30
0.0
 11
-1410.037837416553
 21
-413.0660751654332
 31
0.0
  0
LINE
  5
12E
330
1F
100
AcDbEntity
  8
C-3_寸法
  6
JWW_DASHED2
 62
     3
370
     9
100
AcDbLine
 10
-1339.787692251857
 20
-163.0660545454477
 30
0.0
 11
-1339.787692251857
 21
-413.0660751654332
 31
0.0
  0
LINE
  5
12F
330
1F
100
AcDbEntity
  8
C-0_通り芯
  6
JWW_DASHED2
 62
     4
370
     9
100
AcDbLine
 10
-1337.537870406958
 20
-164.5660594942441
 30
0.0
 11
-1337.537870406958
 21
-413.0660751654332
 31
0.0
  0
ARC
  5
130
330
1F
100
AcDbEntity
  8
C-0_通り芯
  6
JWW_DASHED2
 62
     4
370
     9
100
AcDbCircle
 10
-1336.037791226215
 20
-164.5660594942441
 30
0.0
 40
1.499999874346965
100
AcDbArc
 50
90.0
 51
180.0
  0
LINE
  5
131
330
1F
100
AcDbEntity
  8
C-0_通り芯
  6
Continuous
 62
     4
370
     9
100
AcDbLine
 10
-1407.537705448647
 20
-163.0660545454477
 30
0.0
 11
-1407.537705448647
 21
-164.5660594942441
 31
0.0
  0
LINE
  5
132
330
1F
100
AcDbEntity
  8
C-0_通り芯
  6
Continuous
 62
     4
370
     9
100
AcDbLine
 10
-1404.037817621368
 20
-164.5660594942441
 30
0.0
 11
-1404.037817621368
 21
-413.0660751654332
 31
0.0
  0
LINE
  5
133
330
1F
100
AcDbEntity
  8
C-0_通り芯
  6
Continuous
 62
     4
370
     9
100
AcDbLine
 10
-1404.037817621366
 20
-164.5660594942441
 30
0.0
 11
-1407.53785391254
 21
-164.5660594942441
 31
0.0
  0
LINE
  5
134
330
1F
100
AcDbEntity
  8
C-0_通り芯
  6
Continuous
 62
     4
370
     9
100
AcDbLine
 10
-1407.53785391254
 20
-163.0660545454477
 30
0.0
 11
-1407.53785391254
 21
-164.5660594942441
 31
0.0
  0
LINE
  5
135
330
1F
100
AcDbEntity
  8
C-3_寸法
  6
JWW_DASHED2
 62
     3
370
     9
100
AcDbLine
 10
-1400.287916597296
 20
-163.0660545454477
 30
0.0
 11
-1400.287916597296
 21
-413.0660751654332
 31
0.0
  0
LINE
  5
136
330
1F
100
AcDbEntity
  8
C-0_通り芯
  6
JWW_DASHED2
 62
     4
370
     9
100
AcDbLine
 10
-1402.537738442195
 20
-164.5660594942441
 30
0.0
 11
-1402.537738442195
 21
-413.0660751654332
 31
0.0
  0
ARC
  5
137
330
1F
100
AcDbEntity
  8
C-0_通り芯
  6
JWW_DASHED2
 62
     4
370
     9
100
AcDbCircle
 10
-1404.037817622939
 20
-164.5660594942441
 30
0.0
 40
1.499999874346965
100
AcDbArc
 50
0.0000000000000127
 51
90.00000000000001
  0
LINE
  5
138
330
1F
100
AcDbEntity
  8
C-0_通り芯
  6
Continuous
 62
     4
370
     9
100
AcDbLine
 10
-1332.537754936611
 20
-164.5660594942441
 30
0.0
 11
-1336.037791227786
 21
-164.5660594942441
 31
0.0
  0
LINE
  5
139
330
1F
100
AcDbEntity
  8
C-E_見え係り
  6
Continuous
 62
     6
370
     9
100
AcDbLine
 10
-1404.037817621368
 20
-197.2574941459768
 30
0.0
 11
-1520.037804424576
 21
-313.2574809491862
 31
0.0
  0
LINE
  5
13A
330
1F
100
AcDbEntity
  8
C-E_見え係り
  6
Continuous
 62
     6
370
     9
100
AcDbLine
 10
-1404.037817621368
 20
-211.3996297697078
 30
0.0
 11
-1520.037804424576
 21
-327.3996165729172
 31
0.0
  0
LINE
  5
13B
330
1F
100
AcDbEntity
  8
C-E_見え係り
  6
Continuous
 62
     6
370
     9
100
AcDbLine
 10
-1404.037817621366
 20
-225.5417653934384
 30
0.0
 11
-1520.037804424576
 21
-341.5417521966483
 31
0.0
  0
LINE
  5
13C
330
1F
100
AcDbEntity
  8
C-E_見え係り
  6
Continuous
 62
     6
370
     9
100
AcDbLine
 10
-1220.037804424576
 20
-212.1386425315764
 30
0.0
 11
-1336.037791227786
 21
-328.1386293347864
 31
0.0
  0
LINE
  5
13D
330
1F
100
AcDbEntity
  8
C-E_見え係り
  6
Continuous
 62
     6
370
     9
100
AcDbLine
 10
-1220.037804424576
 20
-226.2807781553076
 30
0.0
 11
-1336.037791227786
 21
-342.2807649585169
 31
0.0
  0
LINE
  5
13E
330
1F
100
AcDbEntity
  8
C-E_見え係り
  6
Continuous
 62
     6
370
     9
100
AcDbLine
 10
-1220.037804424576
 20
-240.4229137790386
 30
0.0
 11
-1336.037791227786
 21
-356.4229005822485
 31
0.0
  0
LINE
  5
13F
330
1F
100
AcDbEntity
  8
C-1_躯体
  6
Continuous
 62
     3
370
     9
100
AcDbLine
 10
-1308.787791227785
 20
-160.7660545454476
 30
0.0
 11
-1339.787791227786
 21
-160.7660545454476
 31
0.0
  0
ELLIPSE
  5
140
330
1F
100
AcDbEntity
  8
C-1_躯体
  6
Continuous
 62
     3
370
     9
100
AcDbEllipse
 10
-1308.787791227785
 20
-162.2660545454479
 30
0.0
 11
-1.060660171779821
 21
-1.060660171779822
 31
0.0
210
0.0
220
0.0
230
1.0
 40
0.9999999999999999
 41
2.356194490192345
 42
3.926990816987241
  0
LINE
  5
141
330
1F
100
AcDbEntity
  8
C-1_躯体
  6
Continuous
 62
     3
370
     9
100
AcDbLine
 10
-1307.287791227786
 20
-179.7660545454478
 30
0.0
 11
-1307.287791227786
 21
-162.2660545454479
 31
0.0
  0
LINE
  5
142
330
1F
100
AcDbEntity
  8
C-1_躯体
  6
Continuous
 62
     3
370
     9
100
AcDbLine
 10
-1308.787791227785
 20
-181.2660545454476
 30
0.0
 11
-1336.037791227786
 21
-181.2660545454476
 31
0.0
  0
ELLIPSE
  5
143
330
1F
100
AcDbEntity
  8
C-1_躯体
  6
Continuous
 62
     3
370
     9
100
AcDbEllipse
 10
-1308.787791227785
 20
-179.7660545454478
 30
0.0
 11
-1.060660171779821
 21
-1.060660171779822
 31
0.0
210
0.0
220
0.0
230
1.0
 40
0.9999999999999999
 41
0.7853981633974483
 42
2.356194490192345
  0
LINE
  5
144
330
1F
100
AcDbEntity
  8
C-1_躯体
  6
Continuous
 62
     4
370
     9
100
AcDbLine
 10
-1315.308075025723
 20
-147.8426831883476
 30
0.0
 11
-1317.220877499153
 21
-152.8205215034361
 31
0.0
  0
CIRCLE
  5
145
330
1F
100
AcDbEntity
  8
C-E_見え係り
  6
Continuous
 62
     4
370
     9
100
AcDbCircle
 10
-1323.687791227785
 20
-168.5660545454479
 30
0.0
 40
2.5
  0
ARC
  5
146
330
1F
100
AcDbEntity
  8
C-0_通り芯
  6
Continuous
 62
     4
370
     9
100
AcDbCircle
 10
-1327.71406369135
 20
-87.20821900967188
 30
0.0
 40
1.0
100
AcDbArc
 50
283.1250163489018
 51
5.999999999999996
  0
ARC
  5
147
330
1F
100
AcDbEntity
  8
C-0_通り芯
  6
Continuous
 62
     4
370
     9
100
AcDbCircle
 10
-1327.385607467268
 20
-78.85314455263902
 30
0.0
 40
0.2
100
AcDbArc
 50
74.79397688699622
 51
186.0
  0
LINE
  5
148
330
1F
100
AcDbEntity
  8
C-0_通り芯
  6
Continuous
 62
     4
370
     9
100
AcDbLine
 10
-1327.333149342714
 20
-78.6601467672417
 30
0.0
 11
-1324.947287545269
 21
-79.30864040192624
 31
0.0
  0
LINE
  5
149
330
1F
100
AcDbEntity
  8
C-0_通り芯
  6
Continuous
 62
     4
370
     9
100
AcDbLine
 10
-1327.486987150428
 20
-88.1820959241545
 30
0.0
 11
-1334.478912626957
 21
-89.81238639309048
 31
0.0
  0
LINE
  5
14A
330
1F
100
AcDbEntity
  8
C-6_間仕切
  6
Continuous
 62
     2
370
     9
100
AcDbLine
 10
-1332.032501780004
 20
-143.7021019429593
 30
0.0
 11
-1332.492424725601
 21
-139.3262274176876
 31
0.0
  0
LINE
  5
14B
330
1F
100
AcDbEntity
  8
C-6_間仕切
  6
Continuous
 62
     2
370
     9
100
AcDbLine
 10
-1331.153249439531
 20
-144.414106449424
 30
0.0
 11
-1332.032501780004
 21
-143.7021019429593
 31
0.0
  0
LINE
  5
14C
330
1F
100
AcDbEntity
  8
C-6_間仕切
  6
Continuous
 62
     2
370
     9
100
AcDbLine
 10
-1331.780420219136
 20
-138.446975077214
 30
0.0
 11
-1332.492424725601
 21
-139.3262274176876
 31
0.0
  0
LINE
  5
14D
330
1F
100
AcDbEntity
  8
C-B_衛生陶器
  6
Continuous
 62
     2
370
     9
100
AcDbLine
 10
-1330.546398250724
 20
-146.3613058570442
 30
0.0
 11
-1330.037333507719
 21
-147.0619734400818
 31
0.0
  0
LINE
  5
14E
330
1F
100
AcDbEntity
  8
C-B_衛生陶器
  6
Continuous
 62
     2
370
     9
100
AcDbLine
 10
-1331.591675706002
 20
-136.4161551917609
 30
0.0
 11
-1331.239412230902
 21
-135.6249583650466
 31
0.0
  0
LINE
  5
14F
330
1F
100
AcDbEntity
  8
C-0_通り芯
  6
Continuous
 62
     4
370
     9
100
AcDbLine
 10
-1334.478912626956
 20
-89.81238639309048
 30
0.0
 11
-1329.686884162402
 21
-135.4054916798773
 31
0.0
  0
LINE
  5
150
330
1F
100
AcDbEntity
  8
C-0_通り芯
  6
Continuous
 62
     4
370
     9
100
AcDbLine
 10
-1329.686884162402
 20
-135.4054916798773
 30
0.0
 11
-1329.681032549217
 21
-135.4611660603498
 31
0.0
  0
LINE
  5
151
330
1F
100
AcDbEntity
  8
C-B_衛生陶器
  6
Continuous
 62
     2
370
     9
100
AcDbLine
 10
-1330.037333507719
 20
-147.0619734400818
 30
0.0
 11
-1328.478953826034
 21
-146.8981811353844
 31
0.0
  0
LINE
  5
152
330
1F
100
AcDbEntity
  8
C-B_衛生陶器
  6
Continuous
 62
     2
370
     9
100
AcDbLine
 10
-1331.239412230902
 20
-135.6249583650466
 30
0.0
 11
-1329.681032549217
 21
-135.4611660603498
 31
0.0
  0
ARC
  5
153
330
1F
100
AcDbEntity
  8
C-0_通り芯
  6
Continuous
 62
     4
370
     9
100
AcDbCircle
 10
-1321.18460898984
 20
-149.3318307271746
 30
0.0
 40
1.0
100
AcDbArc
 50
6.000000000000009
 51
88.87498365109819
  0
LINE
  5
154
330
1F
100
AcDbEntity
  8
C-0_通り芯
  6
Continuous
 62
     4
370
     9
100
AcDbLine
 10
-1321.164975012092
 20
-148.3320234922953
 30
0.0
 11
-1328.343066589389
 21
-148.1910618295032
 31
0.0
  0
LINE
  5
155
330
1F
100
AcDbEntity
  8
C-1_躯体
  6
Continuous
 62
     4
370
     9
100
AcDbLine
 10
-1329.681032549217
 20
-135.4611660603498
 30
0.0
 11
-1328.343066589389
 21
-148.1910618295032
 31
0.0
  0
LINE
  5
156
330
1F
100
AcDbEntity
  8
C-B_衛生陶器
  6
Continuous
 62
     2
370
     9
100
AcDbLine
 10
-1331.591675706002
 20
-136.4161551917609
 30
0.0
 11
-1330.546398250724
 21
-146.3613058570442
 31
0.0
  0
LINE
  5
157
330
1F
100
AcDbEntity
  8
C-6_間仕切
  6
Continuous
 62
     2
370
     9
100
AcDbLine
 10
-1331.153249439531
 20
-144.414106449424
 30
0.0
 11
-1330.755451588559
 21
-144.3722962105076
 31
0.0
  0
LINE
  5
158
330
1F
100
AcDbEntity
  8
C-6_間仕切
  6
Continuous
 62
     2
370
     9
100
AcDbLine
 10
-1332.032500633613
 20
-143.7021128501336
 30
0.0
 11
-1330.839074359174
 21
-143.576678694213
 31
0.0
  0
LINE
  5
159
330
1F
100
AcDbEntity
  8
C-6_間仕切
  6
Continuous
 62
     2
370
     9
100
AcDbLine
 10
-1332.492425871992
 20
-139.3262165105127
 30
0.0
 11
-1331.298999597552
 21
-139.2007823545921
 31
0.0
  0
LINE
  5
15A
330
1F
100
AcDbEntity
  8
C-6_間仕切
  6
Continuous
 62
     2
370
     9
100
AcDbLine
 10
-1331.780420219136
 20
-138.446975077214
 30
0.0
 11
-1331.382622368166
 21
-138.4051648382975
 31
0.0
  0
LINE
  5
15B
330
1F
100
AcDbEntity
  8
C-9_記号
  6
Continuous
 62
     7
370
     9
100
AcDbLine
 10
-1318.97731536
 20
-160.7660545454476
 30
0.0
 11
-1319.659893294694
 21
-154.2717593063619
 31
0.0
  0
LINE
  5
15C
330
1F
100
AcDbEntity
  8
C-9_記号
  6
Continuous
 62
     7
370
     9
100
AcDbLine
 10
-1315.759688865396
 20
-160.7660545454476
 30
0.0
 11
-1316.729264563933
 21
-151.5411579836151
 31
0.0
  0
LINE
  5
15D
330
1F
100
AcDbEntity
  8
C-6_間仕切
  6
Continuous
 62
     2
370
     9
100
AcDbLine
 10
-1314.150875618093
 20
-160.7660545454476
 30
0.0
 11
-1315.465984974412
 21
-148.2536248322654
 31
0.0
  0
LINE
  5
15E
330
1F
100
AcDbEntity
  8
C-E_見え係り
  6
Continuous
 62
     6
370
     9
100
AcDbLine
 10
-1520.037804424576
 20
-414.5660429982561
 30
0.0
 11
-1520.037804424576
 21
-163.0660429982557
 31
0.0
  0
LINE
  5
15F
330
1F
100
AcDbEntity
  8
C-E_見え係り
  6
Continuous
 62
     6
370
     9
100
AcDbLine
 10
-1220.037804424576
 20
-414.5660429982561
 30
0.0
 11
-1220.037804424576
 21
-163.0660429982557
 31
0.0
  0
LINE
  5
160
330
1F
100
AcDbEntity
  8
C-E_見え係り
  6
Continuous
 62
     6
370
     9
100
AcDbLine
 10
-1170.037804424576
 20
-514.5660429982561
 30
0.0
 11
-1170.037804424576
 21
-414.5660429982561
 31
0.0
  0
LINE
  5
161
330
1F
100
AcDbEntity
  8
C-E_見え係り
  6
Continuous
 62
     6
370
     9
100
AcDbLine
 10
-1570.037804424576
 20
-414.5660429982561
 30
0.0
 11
-1170.037804424576
 21
-414.5660429982561
 31
0.0
  0
LINE
  5
162
330
1F
100
AcDbEntity
  8
C-E_見え係り
  6
Continuous
 62
     6
370
     9
100
AcDbLine
 10
-1570.037804424576
 20
-514.5660429982561
 30
0.0
 11
-1570.037804424576
 21
-414.5660429982561
 31
0.0
  0
LINE
  5
163
330
1F
100
AcDbEntity
  8
C-E_見え係り
  6
Continuous
 62
     6
370
     9
100
AcDbLine
 10
-1570.037804424576
 20
-514.5660429982561
 30
0.0
 11
-1170.037804424576
 21
-514.5660429982561
 31
0.0
  0
LINE
  5
164
330
1F
100
AcDbEntity
  8
C-E_見え係り
  6
Continuous
 62
     6
370
     9
100
AcDbLine
 10
-1370.037804424576
 20
-414.5660429982561
 30
0.0
 11
-1396.832723667688
 21
-514.5660429982561
 31
0.0
  0
LINE
  5
165
330
1F
100
AcDbEntity
  8
C-E_見え係り
  6
Continuous
 62
     6
370
     9
100
AcDbLine
 10
-1383.783354854149
 20
-514.5660429982561
 30
0.0
 11
-1390.308039260919
 21
-490.2155892888382
 31
0.0
  0
LINE
  5
166
330
1F
100
AcDbEntity
  8
C-E_見え係り
  6
Continuous
 62
     6
370
     9
100
AcDbLine
 10
-1383.087173238116
 20
-414.5660429982561
 30
0.0
 11
-1376.562488831346
 21
-438.9164967076741
 31
0.0
  0
LINE
  5
167
330
1F
100
AcDbEntity
  8
C-E_見え係り
  6
Continuous
 62
     6
370
     9
100
AcDbLine
 10
-1420.037804424576
 20
-414.5660429982561
 30
0.0
 11
-1446.832723667688
 21
-514.5660429982561
 31
0.0
  0
LINE
  5
168
330
1F
100
AcDbEntity
  8
C-E_見え係り
  6
Continuous
 62
     6
370
     9
100
AcDbLine
 10
-1433.783354854149
 20
-514.5660429982561
 30
0.0
 11
-1440.308039260918
 21
-490.2155892888382
 31
0.0
  0
LINE
  5
169
330
1F
100
AcDbEntity
  8
C-E_見え係り
  6
Continuous
 62
     6
370
     9
100
AcDbLine
 10
-1433.087173238116
 20
-414.5660429982561
 30
0.0
 11
-1426.562488831346
 21
-438.9164967076741
 31
0.0
  0
LINE
  5
16A
330
1F
100
AcDbEntity
  8
C-E_見え係り
  6
Continuous
 62
     6
370
     9
100
AcDbLine
 10
-1470.037804424576
 20
-414.5660429982561
 30
0.0
 11
-1496.83272366769
 21
-514.5660429982561
 31
0.0
  0
LINE
  5
16B
330
1F
100
AcDbEntity
  8
C-E_見え係り
  6
Continuous
 62
     6
370
     9
100
AcDbLine
 10
-1483.783354854148
 20
-514.5660429982561
 30
0.0
 11
-1490.308039260919
 21
-490.2155892888382
 31
0.0
  0
LINE
  5
16C
330
1F
100
AcDbEntity
  8
C-E_見え係り
  6
Continuous
 62
     6
370
     9
100
AcDbLine
 10
-1483.087173238116
 20
-414.5660429982561
 30
0.0
 11
-1476.562488831346
 21
-438.9164967076741
 31
0.0
  0
LINE
  5
16D
330
1F
100
AcDbEntity
  8
C-E_見え係り
  6
Continuous
 62
     6
370
     9
100
AcDbLine
 10
-1520.037804424576
 20
-414.5660429982561
 30
0.0
 11
-1546.832723667688
 21
-514.5660429982561
 31
0.0
  0
LINE
  5
16E
330
1F
100
AcDbEntity
  8
C-E_見え係り
  6
Continuous
 62
     6
370
     9
100
AcDbLine
 10
-1533.783354854149
 20
-514.5660429982561
 30
0.0
 11
-1540.308039260918
 21
-490.2155892888382
 31
0.0
  0
LINE
  5
16F
330
1F
100
AcDbEntity
  8
C-E_見え係り
  6
Continuous
 62
     6
370
     9
100
AcDbLine
 10
-1533.087173238116
 20
-414.5660429982561
 30
0.0
 11
-1526.562488831346
 21
-438.9164967076741
 31
0.0
  0
LINE
  5
170
330
1F
100
AcDbEntity
  8
C-E_見え係り
  6
Continuous
 62
     6
370
     9
100
AcDbLine
 10
-1320.037804424576
 20
-414.5660429982561
 30
0.0
 11
-1346.832723667688
 21
-514.5660429982561
 31
0.0
  0
LINE
  5
171
330
1F
100
AcDbEntity
  8
C-E_見え係り
  6
Continuous
 62
     6
370
     9
100
AcDbLine
 10
-1333.783354854149
 20
-514.5660429982561
 30
0.0
 11
-1340.308039260919
 21
-490.2155892888382
 31
0.0
  0
LINE
  5
172
330
1F
100
AcDbEntity
  8
C-E_見え係り
  6
Continuous
 62
     6
370
     9
100
AcDbLine
 10
-1333.087173238116
 20
-414.5660429982561
 30
0.0
 11
-1326.562488831346
 21
-438.9164967076741
 31
0.0
  0
LINE
  5
173
330
1F
100
AcDbEntity
  8
C-E_見え係り
  6
Continuous
 62
     6
370
     9
100
AcDbLine
 10
-1270.037804424576
 20
-414.5660429982561
 30
0.0
 11
-1296.832723667688
 21
-514.5660429982561
 31
0.0
  0
LINE
  5
174
330
1F
100
AcDbEntity
  8
C-E_見え係り
  6
Continuous
 62
     6
370
     9
100
AcDbLine
 10
-1283.783354854149
 20
-514.5660429982561
 30
0.0
 11
-1290.308039260918
 21
-490.2155892888382
 31
0.0
  0
LINE
  5
175
330
1F
100
AcDbEntity
  8
C-E_見え係り
  6
Continuous
 62
     6
370
     9
100
AcDbLine
 10
-1283.087173238116
 20
-414.5660429982561
 30
0.0
 11
-1276.562488831346
 21
-438.9164967076741
 31
0.0
  0
LINE
  5
176
330
1F
100
AcDbEntity
  8
C-E_見え係り
  6
Continuous
 62
     6
370
     9
100
AcDbLine
 10
-1220.037804424576
 20
-414.5660429982561
 30
0.0
 11
-1246.832723667688
 21
-514.5660429982561
 31
0.0
  0
LINE
  5
177
330
1F
100
AcDbEntity
  8
C-E_見え係り
  6
Continuous
 62
     6
370
     9
100
AcDbLine
 10
-1233.783354854149
 20
-514.5660429982561
 30
0.0
 11
-1240.308039260918
 21
-490.2155892888382
 31
0.0
  0
LINE
  5
178
330
1F
100
AcDbEntity
  8
C-E_見え係り
  6
Continuous
 62
     6
370
     9
100
AcDbLine
 10
-1233.087173238116
 20
-414.5660429982561
 30
0.0
 11
-1226.562488831346
 21
-438.9164967076741
 31
0.0
  0
LINE
  5
179
330
1F
100
AcDbEntity
  8
C-E_見え係り
  6
Continuous
 62
     6
370
     9
100
AcDbLine
 10
-1170.037804424576
 20
-414.5660429982561
 30
0.0
 11
-1196.832723667688
 21
-514.5660429982561
 31
0.0
  0
LINE
  5
17A
330
1F
100
AcDbEntity
  8
C-E_見え係り
  6
Continuous
 62
     6
370
     9
100
AcDbLine
 10
-1183.783354854149
 20
-514.5660429982561
 30
0.0
 11
-1190.308039260918
 21
-490.2155892888382
 31
0.0
  0
LINE
  5
17B
330
1F
100
AcDbEntity
  8
C-E_見え係り
  6
Continuous
 62
     6
370
     9
100
AcDbLine
 10
-1183.087173238116
 20
-414.5660429982561
 30
0.0
 11
-1176.562488831346
 21
-438.9164967076741
 31
0.0
  0
LINE
  5
17C
330
1F
100
AcDbEntity
  8
C-1_躯体
  6
Continuous
 62
     7
370
     9
100
AcDbLine
 10
-1410.037837416553
 20
-413.0660751654332
 30
0.0
 11
-1410.037837416553
 21
-414.5660429982561
 31
0.0
  0
LINE
  5
17D
330
1F
100
AcDbEntity
  8
C-1_躯体
  6
Continuous
 62
     7
370
     9
100
AcDbLine
 10
-1382.537870408529
 20
-413.0660751654332
 30
0.0
 11
-1382.537870408529
 21
-414.5660429982561
 31
0.0
  0
LINE
  5
17E
330
1F
100
AcDbEntity
  8
C-1_躯体
  6
Continuous
 62
     7
370
     9
100
AcDbLine
 10
-1357.537738440624
 20
-413.0660751654332
 30
0.0
 11
-1357.537738440624
 21
-414.5660429982561
 31
0.0
  0
LINE
  5
17F
330
1F
100
AcDbEntity
  8
C-1_躯体
  6
Continuous
 62
     7
370
     9
100
AcDbLine
 10
-1330.0377714326
 20
-413.0660751654332
 30
0.0
 11
-1330.0377714326
 21
-414.5660429982561
 31
0.0
  0
LINE
  5
180
330
1F
100
AcDbEntity
  8
C-1_躯体
  6
Continuous
 62
     4
370
     9
100
AcDbLine
 10
-1317.220877499153
 20
-152.8205215034361
 30
0.0
 11
-1319.369550631063
 21
-154.4287272770688
 31
0.0
  0
LINE
  5
181
330
1F
100
AcDbEntity
  8
C-0_通り芯
  6
Continuous
 62
     4
370
     9
100
AcDbLine
 10
-1319.659893294694
 20
-154.2717593063619
 30
0.0
 11
-1327.584511846342
 21
-78.87405024529265
 31
0.0
  0
LINE
  5
182
330
1F
100
AcDbEntity
  8
C-0_通り芯
  6
Continuous
 62
     4
370
     9
100
AcDbLine
 10
-1324.947287545269
 20
-79.30864040192624
 30
0.0
 11
-1320.335936221907
 21
-85.65562099234135
 31
0.0
  0
LINE
  5
183
330
1F
100
AcDbEntity
  8
C-0_通り芯
  6
Continuous
 62
     4
370
     9
100
AcDbLine
 10
-1314.123750410548
 20
-144.7606208589613
 30
0.0
 11
-1315.308075025723
 21
-147.8426831883476
 31
0.0
  0
LINE
  5
184
330
1F
100
AcDbEntity
  8
C-0_通り芯
  6
Continuous
 62
     4
370
     9
100
AcDbLine
 10
-1314.123750410548
 20
-144.7606208589613
 30
0.0
 11
-1320.335936221907
 21
-85.65562099234135
 31
0.0
  0
LINE
  5
185
330
1F
100
AcDbEntity
  8
C-4_文字
  6
Continuous
 62
     7
370
     9
100
AcDbLine
 10
-1045.114765175888
 20
-163.0660429982557
 30
0.0
 11
-1045.114765175888
 21
-414.5660429982561
 31
0.0
  0
LINE
  5
186
330
1F
100
AcDbEntity
  8
C-4_文字
  6
Continuous
 62
     7
370
     9
100
AcDbLine
 10
-1045.114765175888
 20
-163.0660429982557
 30
0.0
 11
-1041.851610370386
 21
-187.8521645326009
 31
0.0
  0
LINE
  5
187
330
1F
100
AcDbEntity
  8
C-4_文字
  6
Continuous
 62
     7
370
     9
100
AcDbLine
 10
-1045.114765175888
 20
-163.0660429982557
 30
0.0
 11
-1048.377919981388
 21
-187.8521645326009
 31
0.0
  0
LINE
  5
188
330
1F
100
AcDbEntity
  8
C-4_文字
  6
Continuous
 62
     7
370
     9
100
AcDbLine
 10
-1045.114765175888
 20
-414.5660429982561
 30
0.0
 11
-1041.851610370386
 21
-389.7799214639108
 31
0.0
  0
LINE
  5
189
330
1F
100
AcDbEntity
  8
C-4_文字
  6
Continuous
 62
     7
370
     9
100
AcDbLine
 10
-1045.114765175888
 20
-414.5660429982561
 30
0.0
 11
-1048.377919981388
 21
-389.7799214639108
 31
0.0
  0
LINE
  5
18A
330
1F
100
AcDbEntity
  8
C-4_文字
  6
Continuous
 62
     7
370
     9
100
AcDbLine
 10
-1042.114765175887
 20
-414.5660429982561
 30
0.0
 11
-1150.037804424576
 21
-414.5660429982561
 31
0.0
  0
TEXT
  5
18B
330
1F
100
AcDbEntity
  8
C-4_文字
  6
Continuous
 62
     2
370
   211
100
AcDbText
 10
-1056.754765175887
 20
-343.8160429982559
 30
0.0
 40
30.48
  1
251.5
 50
90.0
 41
1.1
  7
ＭＳ ゴシック
100
AcDbText
  0
LINE
  5
18C
330
1F
100
AcDbEntity
  8
C-4_文字
  6
Continuous
 62
     7
370
     9
100
AcDbLine
 10
-1045.114765175888
 20
-414.5660429982561
 30
0.0
 11
-1045.114765175888
 21
-514.5660429982561
 31
0.0
  0
LINE
  5
18D
330
1F
100
AcDbEntity
  8
C-4_文字
  6
Continuous
 62
     7
370
     9
100
AcDbLine
 10
-1045.114765175888
 20
-414.5660429982561
 30
0.0
 11
-1041.851610370386
 21
-439.3521645326014
 31
0.0
  0
LINE
  5
18E
330
1F
100
AcDbEntity
  8
C-4_文字
  6
Continuous
 62
     7
370
     9
100
AcDbLine
 10
-1045.114765175888
 20
-414.5660429982561
 30
0.0
 11
-1048.377919981388
 21
-439.3521645326014
 31
0.0
  0
LINE
  5
18F
330
1F
100
AcDbEntity
  8
C-4_文字
  6
Continuous
 62
     7
370
     9
100
AcDbLine
 10
-1045.114765175888
 20
-514.5660429982561
 30
0.0
 11
-1041.851610370386
 21
-489.7799214639109
 31
0.0
  0
LINE
  5
190
330
1F
100
AcDbEntity
  8
C-4_文字
  6
Continuous
 62
     7
370
     9
100
AcDbLine
 10
-1045.114765175888
 20
-514.5660429982561
 30
0.0
 11
-1048.377919981388
 21
-489.7799214639109
 31
0.0
  0
LINE
  5
191
330
1F
100
AcDbEntity
  8
C-4_文字
  6
Continuous
 62
     7
370
     9
100
AcDbLine
 10
-1042.114765175887
 20
-514.5660429982561
 30
0.0
 11
-1150.037804424576
 21
-514.5660429982561
 31
0.0
  0
TEXT
  5
192
330
1F
100
AcDbEntity
  8
C-4_文字
  6
Continuous
 62
     2
370
   211
100
AcDbText
 10
-1056.754765175887
 20
-497.0660429982561
 30
0.0
 40
30.48
  1
100
 50
90.0
 41
1.083333333333333
  7
ＭＳ ゴシック
100
AcDbText
  0
LINE
  5
193
330
1F
100
AcDbEntity
  8
C-4_文字
  6
Continuous
 62
     7
370
     9
100
AcDbLine
 10
-1520.037804424576
 20
-639.5572593373926
 30
0.0
 11
-1220.037804424576
 21
-639.5572593373926
 31
0.0
  0
LINE
  5
194
330
1F
100
AcDbEntity
  8
C-4_文字
  6
Continuous
 62
     7
370
     9
100
AcDbLine
 10
-1520.037804424576
 20
-639.5572593373926
 30
0.0
 11
-1495.25168289023
 21
-636.2941045318912
 31
0.0
  0
LINE
  5
195
330
1F
100
AcDbEntity
  8
C-4_文字
  6
Continuous
 62
     7
370
     9
100
AcDbLine
 10
-1520.037804424576
 20
-639.5572593373926
 30
0.0
 11
-1495.25168289023
 21
-642.8204141428938
 31
0.0
  0
LINE
  5
196
330
1F
100
AcDbEntity
  8
C-4_文字
  6
Continuous
 62
     7
370
     9
100
AcDbLine
 10
-1220.037804424576
 20
-639.5572593373926
 30
0.0
 11
-1244.82392595892
 21
-636.2941045318912
 31
0.0
  0
LINE
  5
197
330
1F
100
AcDbEntity
  8
C-4_文字
  6
Continuous
 62
     7
370
     9
100
AcDbLine
 10
-1220.037804424576
 20
-639.5572593373926
 30
0.0
 11
-1244.82392595892
 21
-642.8204141428938
 31
0.0
  0
LINE
  5
198
330
1F
100
AcDbEntity
  8
C-4_文字
  6
Continuous
 62
     7
370
     9
100
AcDbLine
 10
-1520.037804424576
 20
-642.5572593373926
 30
0.0
 11
-1520.037804424576
 21
-534.5660429982562
 31
0.0
  0
LINE
  5
199
330
1F
100
AcDbEntity
  8
C-4_文字
  6
Continuous
 62
     7
370
     9
100
AcDbLine
 10
-1220.037804424576
 20
-642.5572593373926
 30
0.0
 11
-1220.037804424576
 21
-534.5660429982562
 31
0.0
  0
TEXT
  5
19A
330
1F
100
AcDbEntity
  8
C-4_文字
  6
Continuous
 62
     2
370
   211
100
AcDbText
 10
-1425.037804424576
 20
-627.9172593373926
 30
0.0
 40
30.48
  1
□300
 41
1.1
  7
ＭＳ ゴシック
100
AcDbText
  0
LINE
  5
19B
330
1F
100
AcDbEntity
  8
C-4_文字
  6
Continuous
 62
     7
370
     9
100
AcDbLine
 10
-1570.037804424576
 20
-743.6707542862396
 30
0.0
 11
-1170.037804424576
 21
-743.6707542862396
 31
0.0
  0
LINE
  5
19C
330
1F
100
AcDbEntity
  8
C-4_文字
  6
Continuous
 62
     7
370
     9
100
AcDbLine
 10
-1570.037804424576
 20
-743.6707542862396
 30
0.0
 11
-1545.25168289023
 21
-740.4075994807383
 31
0.0
  0
LINE
  5
19D
330
1F
100
AcDbEntity
  8
C-4_文字
  6
Continuous
 62
     7
370
     9
100
AcDbLine
 10
-1570.037804424576
 20
-743.6707542862396
 30
0.0
 11
-1545.25168289023
 21
-746.933909091741
 31
0.0
  0
LINE
  5
19E
330
1F
100
AcDbEntity
  8
C-4_文字
  6
Continuous
 62
     7
370
     9
100
AcDbLine
 10
-1170.037804424576
 20
-743.6707542862396
 30
0.0
 11
-1194.82392595892
 21
-740.4075994807383
 31
0.0
  0
LINE
  5
19F
330
1F
100
AcDbEntity
  8
C-4_文字
  6
Continuous
 62
     7
370
     9
100
AcDbLine
 10
-1170.037804424576
 20
-743.6707542862396
 30
0.0
 11
-1194.82392595892
 21
-746.933909091741
 31
0.0
  0
LINE
  5
1A0
330
1F
100
AcDbEntity
  8
C-4_文字
  6
Continuous
 62
     7
370
     9
100
AcDbLine
 10
-1570.037804424576
 20
-746.6707542862398
 30
0.0
 11
-1570.037804424576
 21
-534.5660429982562
 31
0.0
  0
LINE
  5
1A1
330
1F
100
AcDbEntity
  8
C-4_文字
  6
Continuous
 62
     7
370
     9
100
AcDbLine
 10
-1170.037804424576
 20
-746.6707542862398
 30
0.0
 11
-1170.037804424576
 21
-534.5660429982562
 31
0.0
  0
TEXT
  5
1A2
330
1F
100
AcDbEntity
  8
C-4_文字
  6
Continuous
 62
     2
370
   211
100
AcDbText
 10
-1425.037804424576
 20
-732.0307542862397
 30
0.0
 40
30.48
  1
□400
 41
1.1
  7
ＭＳ ゴシック
100
AcDbText
  0
LINE
  5
1A3
330
1F
100
AcDbEntity
  8
C-4_文字
  6
Continuous
 62
     7
370
     9
100
AcDbLine
 10
-1621.139350874114
 20
486.9410201095267
 30
0.0
 11
-1621.139350874114
 21
-163.0581690679836
 31
0.0
  0
LINE
  5
1A4
330
1F
100
AcDbEntity
  8
C-4_文字
  6
Continuous
 62
     7
370
     9
100
AcDbLine
 10
-1621.139350874114
 20
486.9410201095267
 30
0.0
 11
-1617.876196068612
 21
462.1548985751813
 31
0.0
  0
LINE
  5
1A5
330
1F
100
AcDbEntity
  8
C-4_文字
  6
Continuous
 62
     7
370
     9
100
AcDbLine
 10
-1621.139350874114
 20
486.9410201095267
 30
0.0
 11
-1624.402505679616
 21
462.1548985751813
 31
0.0
  0
LINE
  5
1A6
330
1F
100
AcDbEntity
  8
C-4_文字
  6
Continuous
 62
     7
370
     9
100
AcDbLine
 10
-1621.139350874114
 20
-163.0581690679836
 30
0.0
 11
-1624.402505679616
 21
-138.2720475336382
 31
0.0
  0
LINE
  5
1A7
330
1F
100
AcDbEntity
  8
C-4_文字
  6
Continuous
 62
     7
370
     9
100
AcDbLine
 10
-1621.139350874114
 20
-163.0581690679836
 30
0.0
 11
-1617.876196068612
 21
-138.2720475336382
 31
0.0
  0
LINE
  5
1A8
330
1F
100
AcDbEntity
  8
C-4_文字
  6
Continuous
 62
     7
370
     9
100
AcDbLine
 10
-1624.139350874114
 20
486.9410201095267
 30
0.0
 11
-1299.244235670519
 21
486.9410201095267
 31
0.0
  0
TEXT
  5
1A9
330
1F
100
AcDbEntity
  8
C-4_文字
  6
Continuous
 62
     2
370
   211
100
AcDbText
 10
-1631.779350874114
 20
129.4414255207712
 30
0.0
 40
30.48
  1
650
 50
90.0
 41
1.083333333333335
  7
ＭＳ ゴシック
100
AcDbText
  0
LINE
  5
1AA
330
1F
100
AcDbEntity
  8
C-4_文字
  6
Continuous
 62
     7
370
     9
100
AcDbLine
 10
-1621.139350874114
 20
-163.0581690679836
 30
0.0
 11
-1617.876196068612
 21
-187.8442906023288
 31
0.0
  0
LINE
  5
1AB
330
1F
100
AcDbEntity
  8
C-4_文字
  6
Continuous
 62
     7
370
     9
100
AcDbLine
 10
-1621.139350874114
 20
-163.0581690679836
 30
0.0
 11
-1624.402505679615
 21
-187.8442906023288
 31
0.0
  0
LINE
  5
1AC
330
1F
100
AcDbEntity
  8
C-4_文字
  6
Continuous
 62
     7
370
     9
100
AcDbLine
 10
-1621.139350874114
 20
-413.0582012351611
 30
0.0
 11
-1617.876196068612
 21
-388.2720797008158
 31
0.0
  0
LINE
  5
1AD
330
1F
100
AcDbEntity
  8
C-4_文字
  6
Continuous
 62
     7
370
     9
100
AcDbLine
 10
-1621.139350874114
 20
-413.0582012351611
 30
0.0
 11
-1624.402505679615
 21
-388.2720797008158
 31
0.0
  0
TEXT
  5
1AE
330
1F
100
AcDbEntity
  8
C-4_文字
  6
Continuous
 62
     2
370
   211
100
AcDbText
 10
-1632.779350874114
 20
-320.5581851515723
 30
0.0
 40
30.48
  1
250
 50
90.0
 41
1.083333333333333
  7
ＭＳ ゴシック
100
AcDbText
  0
LINE
  5
1AF
330
1F
100
AcDbEntity
  8
C-4_文字
  6
Continuous
 62
     7
370
     9
100
AcDbLine
 10
-1624.139350874113
 20
-414.558169067984
 30
0.0
 11
-1588.713105696546
 21
-414.558169067984
 31
0.0
  0
TEXT
  5
1B0
330
1F
100
AcDbEntity
  8
C-4_文字
  6
Continuous
 62
     2
370
   211
100
AcDbText
 10
-1632.779350874114
 20
-483.912825085299
 30
0.0
 40
30.48
  1
1.5
 50
90.0
 41
1.083333333333333
  7
ＭＳ ゴシック
100
AcDbText
  0
LINE
  5
1B1
330
1F
100
AcDbEntity
  8
C-4_文字
  6
Continuous
 62
     7
370
     9
100
AcDbLine
 10
-1621.139350874114
 20
-414.558169067984
 30
0.0
 11
-1617.876196068612
 21
-439.3442906023293
 31
0.0
  0
LINE
  5
1B2
330
1F
100
AcDbEntity
  8
C-4_文字
  6
Continuous
 62
     7
370
     9
100
AcDbLine
 10
-1621.139350874114
 20
-414.558169067984
 30
0.0
 11
-1624.402505679615
 21
-439.3442906023293
 31
0.0
  0
LINE
  5
1B3
330
1F
100
AcDbEntity
  8
C-4_文字
  6
Continuous
 62
     7
370
     9
100
AcDbLine
 10
-1621.139350874114
 20
-163.0581690679836
 30
0.0
 11
-1621.139350874114
 21
-487.4179334764668
 31
0.0
  0
LINE
  5
1B4
330
1F
100
AcDbEntity
  8
C-4_文字
  6
Continuous
 62
     7
370
     9
100
AcDbLine
 10
-1726.256042084735
 20
-413.0582012351611
 30
0.0
 11
-1358.30608978464
 21
-413.0582012351611
 31
0.0
  0
LINE
  5
1B5
330
1F
100
AcDbEntity
  8
C-4_文字
  6
Continuous
 62
     7
370
     9
100
AcDbLine
 10
-1723.256042084736
 20
486.941242025238
 30
0.0
 11
-1723.256042084736
 21
-413.0582012351611
 31
0.0
  0
LINE
  5
1B6
330
1F
100
AcDbEntity
  8
C-4_文字
  6
Continuous
 62
     7
370
     9
100
AcDbLine
 10
-1723.256042084736
 20
486.941242025238
 30
0.0
 11
-1719.992887279234
 21
462.1551204908926
 31
0.0
  0
LINE
  5
1B7
330
1F
100
AcDbEntity
  8
C-4_文字
  6
Continuous
 62
     7
370
     9
100
AcDbLine
 10
-1723.256042084736
 20
486.941242025238
 30
0.0
 11
-1726.519196890237
 21
462.1551204908926
 31
0.0
  0
LINE
  5
1B8
330
1F
100
AcDbEntity
  8
C-4_文字
  6
Continuous
 62
     7
370
     9
100
AcDbLine
 10
-1723.256042084736
 20
-413.0582012351611
 30
0.0
 11
-1719.992887279234
 21
-388.2720797008158
 31
0.0
  0
LINE
  5
1B9
330
1F
100
AcDbEntity
  8
C-4_文字
  6
Continuous
 62
     7
370
     9
100
AcDbLine
 10
-1723.256042084736
 20
-413.0582012351611
 30
0.0
 11
-1726.519196890237
 21
-388.2720797008158
 31
0.0
  0
TEXT
  5
1BA
330
1F
100
AcDbEntity
  8
C-4_文字
  6
Continuous
 62
     2
370
   211
100
AcDbText
 10
-1734.896042084736
 20
4.44152039503841
 30
0.0
 40
30.48
  1
900
 50
90.0
 41
1.083333333333333
  7
ＭＳ ゴシック
100
AcDbText
  0
LINE
  5
1BB
330
1F
100
AcDbEntity
  8
C-4_文字
  6
Continuous
 62
     7
370
     9
100
AcDbLine
 10
-1726.256042084735
 20
486.941242025238
 30
0.0
 11
-1206.587998175706
 21
486.941242025238
 31
0.0
  0
LINE
  5
1BC
330
1F
100
AcDbEntity
  8
C-0_通り芯
  6
JWW_CENTER2
 62
     7
370
     9
100
AcDbLine
 10
-1370.037804424576
 20
281.6909244327954
 30
0.0
 11
-1370.037804424576
 21
-454.0735747248816
 31
0.0
  0
LINE
  5
1BD
330
1F
100
AcDbEntity
  8
C-2_仕上
  6
Continuous
 62
     3
370
     9
100
AcDbLine
 10
-1400.287817621367
 20
281.6909244327954
 30
0.0
 11
-1400.287817621367
 21
-163.0660545454477
 31
0.0
  0
LINE
  5
1BE
330
1F
100
AcDbEntity
  8
C-2_仕上
  6
Continuous
 62
     3
370
     9
100
AcDbLine
 10
-1339.787791227786
 20
281.6904295531496
 30
0.0
 11
-1339.787791227786
 21
-163.0660545454477
 31
0.0
  0
LINE
  5
1BF
330
1F
100
AcDbEntity
  8
C-0_通り芯
  6
Continuous
 62
     4
370
     9
100
AcDbLine
 10
-1407.53785391254
 20
-163.0660545454477
 30
0.0
 11
-1332.537754936611
 21
-163.0660545454477
 31
0.0
  0
LINE
  5
1C0
330
1F
100
AcDbEntity
  8
C-6_間仕切
  6
Continuous
 62
     6
370
     9
100
AcDbLine
 10
-1819.536343340507
 20
-163.0678279764031
 30
0.0
 11
-1407.537853911957
 21
-163.066202496426
 31
0.0
  0
LINE
  5
1C1
330
1F
100
AcDbEntity
  8
C-6_間仕切
  6
Continuous
 62
     6
370
     9
100
AcDbLine
 10
-1307.287791227786
 20
-163.0658069744185
 30
0.0
 11
-493.2878027749756
 21
-163.058650101917
 31
0.0
  0
LINE
  5
1C2
330
1F
100
AcDbEntity
  8
C-2_仕上
  6
Continuous
 62
     3
370
     9
100
AcDbLine
 10
-605.5384445390368
 20
426.4382718778259
 30
0.0
 11
-1195.03722706499
 21
426.4407462761225
 31
0.0
  0
LINE
  5
1C3
330
1F
100
AcDbEntity
  8
C-2_仕上
  6
Continuous
 62
     3
370
     9
100
AcDbLine
 10
-605.5384445390368
 20
486.9385457108425
 30
0.0
 11
-1195.036979625168
 21
486.9410201095267
 31
0.0
  0
LINE
  5
1C4
330
1F
100
AcDbEntity
  8
C-0_通り芯
  6
JWW_CENTER2
 62
     7
370
     9
100
AcDbLine
 10
-605.5384445390368
 20
456.6887799541204
 30
0.0
 11
-1195.037103345079
 21
456.6907594729131
 31
0.0
  0
LINE
  5
1C5
330
1F
100
AcDbEntity
  8
C-4_文字
  6
Continuous
 62
     7
370
     9
100
AcDbLine
 10
-1400.287817621367
 20
630.3339247411348
 30
0.0
 11
-400.2877763813958
 21
630.3339247411348
 31
0.0
  0
TEXT
  5
1C6
330
1F
100
AcDbEntity
  8
C-4_文字
  6
Continuous
 62
     2
370
   211
100
AcDbText
 10
-944.0377970013815
 20
640.9739247411347
 30
0.0
 40
30.48
  1
1000
 41
1.09375
  7
ＭＳ ゴシック
100
AcDbText
  0
LINE
  5
1C7
330
1F
100
AcDbEntity
  8
D-0_通り芯
  6
JWW_CENTER2
 62
     7
370
     9
100
AcDbLine
 10
1237.723485045461
 20
229.2591969361019
 30
0.0
 11
1237.723485045461
 21
-378.4322924256008
 31
0.0
  0
TEXT
  5
1C8
330
1F
100
AcDbEntity
  8
D-5_建具
  6
Continuous
 62
     7
370
     9
100
AcDbText
 10
973.0002614833069
 20
148.3874310533089
 30
0.0
 40
22.86
  1
蓋
  7
ＭＳ ゴシック
100
AcDbText
  0
ARC
  5
1C9
330
1F
100
AcDbEntity
  8
D-0_通り芯
  6
Continuous
 62
     4
370
     9
100
AcDbCircle
 10
1069.134100015608
 20
-133.6734866259778
 30
0.0
 40
0.6666666666666667
100
AcDbArc
 50
242.7939768869962
 51
354.0
  0
LINE
  5
1CA
330
1F
100
AcDbEntity
  8
D-0_通り芯
  6
Continuous
 62
     4
370
     9
100
AcDbLine
 10
1112.723320085579
 20
-163.0574897317755
 30
0.0
 11
1112.723320085579
 21
-168.0575062277635
 31
0.0
  0
LINE
  5
1CB
330
1F
100
AcDbEntity
  8
D-0_通り芯
  6
Continuous
 62
     4
370
     9
100
AcDbLine
 10
1362.723155125698
 20
-163.0574897317755
 30
0.0
 11
1362.723155125698
 21
-168.0575062277635
 31
0.0
  0
LINE
  5
1CC
330
1F
100
AcDbEntity
  8
D-0_通り芯
  6
Continuous
 62
     4
370
     9
100
AcDbLine
 10
1351.056862368095
 20
-168.0575062277635
 30
0.0
 11
1362.723650005342
 21
-168.0575062277635
 31
0.0
  0
LINE
  5
1CD
330
1F
100
AcDbEntity
  8
D-0_通り芯
  6
Continuous
 62
     4
370
     9
100
AcDbLine
 10
1362.723650005342
 20
-163.0574897317755
 30
0.0
 11
1362.723650005342
 21
-168.0575062277635
 31
0.0
  0
LINE
  5
1CE
330
1F
100
AcDbEntity
  8
D-0_通り芯
  6
Continuous
 62
     4
370
     9
100
AcDbLine
 10
1112.723320085579
 20
-168.0575062277635
 30
0.0
 11
1124.390107722827
 21
-168.0575062277635
 31
0.0
  0
LINE
  5
1CF
330
1F
100
AcDbEntity
  8
D-1_躯体
  6
Continuous
 62
     3
370
     9
100
AcDbLine
 10
1033.556774389493
 20
-155.390823065109
 30
0.0
 11
1136.890107722825
 21
-155.390823065109
 31
0.0
  0
ARC
  5
1D0
330
1F
100
AcDbEntity
  8
D-1_躯体
  6
Continuous
 62
     3
370
     9
100
AcDbCircle
 10
1033.556774389493
 20
-160.390823065109
 30
0.0
 40
4.999999999999999
100
AcDbArc
 50
90.0
 51
180.0
  0
LINE
  5
1D1
330
1F
100
AcDbEntity
  8
D-1_躯体
  6
Continuous
 62
     3
370
     9
100
AcDbLine
 10
1028.556774389493
 20
-218.7241563984421
 30
0.0
 11
1028.556774389493
 21
-160.390823065109
 31
0.0
  0
LINE
  5
1D2
330
1F
100
AcDbEntity
  8
D-1_躯体
  6
Continuous
 62
     3
370
     9
100
AcDbLine
 10
1033.556774389493
 20
-223.7241563984421
 30
0.0
 11
1124.390107722827
 21
-223.7241563984421
 31
0.0
  0
ARC
  5
1D3
330
1F
100
AcDbEntity
  8
D-1_躯体
  6
Continuous
 62
     3
370
     9
100
AcDbCircle
 10
1033.556774389493
 20
-218.7241563984421
 30
0.0
 40
4.999999999999999
100
AcDbArc
 50
180.0
 51
270.0
  0
LINE
  5
1D4
330
1F
100
AcDbEntity
  8
D-1_躯体
  6
Continuous
 62
     4
370
     9
100
AcDbLine
 10
1055.291053715948
 20
-112.3129185414409
 30
0.0
 11
1061.667061960718
 21
-128.9057129250708
 31
0.0
  0
CIRCLE
  5
1D5
330
1F
100
AcDbEntity
  8
D-E_見え係り
  6
Continuous
 62
     4
370
     9
100
AcDbCircle
 10
1083.223441056159
 20
-181.3908230651086
 30
0.0
 40
8.333333333333332
  0
ARC
  5
1D6
330
1F
100
AcDbEntity
  8
D-0_通り芯
  6
Continuous
 62
     4
370
     9
100
AcDbCircle
 10
1096.644349268041
 20
89.80196205414319
 30
0.0
 40
3.333333333333333
100
AcDbArc
 50
174.0
 51
256.8749836510982
  0
ARC
  5
1D7
330
1F
100
AcDbEntity
  8
D-0_通り芯
  6
Continuous
 62
     4
370
     9
100
AcDbCircle
 10
1095.549495187767
 20
117.6522102442534
 30
0.0
 40
0.6666666666666666
100
AcDbArc
 50
354.0
 51
105.2060231130038
  0
LINE
  5
1D8
330
1F
100
AcDbEntity
  8
D-0_通り芯
  6
Continuous
 62
     4
370
     9
100
AcDbLine
 10
1095.374634772586
 20
118.2955361955778
 30
0.0
 11
1087.421762114437
 21
116.1338907466297
 31
0.0
  0
LINE
  5
1D9
330
1F
100
AcDbEntity
  8
D-0_通り芯
  6
Continuous
 62
     4
370
     9
100
AcDbLine
 10
1095.887427464965
 20
86.55570567253409
 30
0.0
 11
1119.193845720062
 21
81.12140410941453
 31
0.0
  0
LINE
  5
1DA
330
1F
100
AcDbEntity
  8
D-6_間仕切
  6
Continuous
 62
     2
370
     9
100
AcDbLine
 10
1111.039142896887
 20
-98.51098105681373
 30
0.0
 11
1112.572219382211
 21
-83.92473263924259
 31
0.0
  0
LINE
  5
1DB
330
1F
100
AcDbEntity
  8
D-6_間仕切
  6
Continuous
 62
     2
370
     9
100
AcDbLine
 10
1108.108301761974
 20
-100.8843294116961
 30
0.0
 11
1111.039142896887
 21
-98.51098105681373
 31
0.0
  0
LINE
  5
1DC
330
1F
100
AcDbEntity
  8
D-6_間仕切
  6
Continuous
 62
     2
370
     9
100
AcDbLine
 10
1110.198871027326
 20
-80.99389150433055
 30
0.0
 11
1112.572219382211
 21
-83.92473263924259
 31
0.0
  0
LINE
  5
1DD
330
1F
100
AcDbEntity
  8
D-B_衛生陶器
  6
Continuous
 62
     2
370
     9
100
AcDbLine
 10
1106.085464465954
 20
-107.374994103764
 30
0.0
 11
1104.388581989272
 21
-109.7105527138892
 31
0.0
  0
LINE
  5
1DE
330
1F
100
AcDbEntity
  8
D-B_衛生陶器
  6
Continuous
 62
     2
370
     9
100
AcDbLine
 10
1109.56972265021
 20
-74.22449188615232
 30
0.0
 11
1108.395511066551
 21
-71.58716913043904
 31
0.0
  0
LINE
  5
1DF
330
1F
100
AcDbEntity
  8
D-0_通り芯
  6
Continuous
 62
     4
370
     9
100
AcDbLine
 10
1119.193845720062
 20
81.12140410941453
 30
0.0
 11
1103.220417504878
 21
-70.85561351320777
 31
0.0
  0
LINE
  5
1E0
330
1F
100
AcDbEntity
  8
D-0_通り芯
  6
Continuous
 62
     4
370
     9
100
AcDbLine
 10
1103.220417504878
 20
-70.85561351320777
 30
0.0
 11
1103.2009121276
 21
-71.0411947814491
 31
0.0
  0
LINE
  5
1E1
330
1F
100
AcDbEntity
  8
D-B_衛生陶器
  6
Continuous
 62
     2
370
     9
100
AcDbLine
 10
1104.388581989272
 20
-109.7105527138892
 30
0.0
 11
1099.193983050321
 21
-109.1645783648987
 31
0.0
  0
LINE
  5
1E2
330
1F
100
AcDbEntity
  8
D-B_衛生陶器
  6
Continuous
 62
     2
370
     9
100
AcDbLine
 10
1108.395511066551
 20
-71.58716913043904
 30
0.0
 11
1103.2009121276
 21
-71.0411947814491
 31
0.0
  0
ARC
  5
1E3
330
1F
100
AcDbEntity
  8
D-0_通り芯
  6
Continuous
 62
     4
370
     9
100
AcDbCircle
 10
1074.879500263007
 20
-117.2767436708663
 30
0.0
 40
3.333333333333333
100
AcDbArc
 50
91.12501634890181
 51
174.0
  0
LINE
  5
1E4
330
1F
100
AcDbEntity
  8
D-0_通り芯
  6
Continuous
 62
     4
370
     9
100
AcDbLine
 10
1074.814053670514
 20
-113.9440528879337
 30
0.0
 11
1098.741025594838
 21
-113.4741806786268
 31
0.0
  0
LINE
  5
1E5
330
1F
100
AcDbEntity
  8
D-1_躯体
  6
Continuous
 62
     4
370
     9
100
AcDbLine
 10
1103.2009121276
 20
-71.0411947814491
 30
0.0
 11
1098.741025594838
 21
-113.4741806786268
 31
0.0
  0
LINE
  5
1E6
330
1F
100
AcDbEntity
  8
D-B_衛生陶器
  6
Continuous
 62
     2
370
     9
100
AcDbLine
 10
1109.56972265021
 20
-74.22449188615232
 30
0.0
 11
1106.085464465954
 21
-107.374994103764
 31
0.0
  0
LINE
  5
1E7
330
1F
100
AcDbEntity
  8
D-6_間仕切
  6
Continuous
 62
     2
370
     9
100
AcDbLine
 10
1108.108301761974
 20
-100.8843294116961
 30
0.0
 11
1106.782308925405
 21
-100.7449619486412
 31
0.0
  0
LINE
  5
1E8
330
1F
100
AcDbEntity
  8
D-6_間仕切
  6
Continuous
 62
     2
370
     9
100
AcDbLine
 10
1111.039139075586
 20
-98.51101741406282
 30
0.0
 11
1107.06105149412
 21
-98.09290356099311
 31
0.0
  0
LINE
  5
1E9
330
1F
100
AcDbEntity
  8
D-6_間仕切
  6
Continuous
 62
     2
370
     9
100
AcDbLine
 10
1112.572223203512
 20
-83.92469628199294
 30
0.0
 11
1108.594135622046
 21
-83.50658242892322
 31
0.0
  0
LINE
  5
1EA
330
1F
100
AcDbEntity
  8
D-6_間仕切
  6
Continuous
 62
     2
370
     9
100
AcDbLine
 10
1110.198871027326
 20
-80.99389150433055
 30
0.0
 11
1108.872878190759
 21
-80.85452404127508
 31
0.0
  0
LINE
  5
1EB
330
1F
100
AcDbEntity
  8
D-9_記号
  6
Continuous
 62
     7
370
     9
100
AcDbLine
 10
1067.521854830208
 20
-155.390823065109
 30
0.0
 11
1069.797114612521
 21
-133.7431722681564
 31
0.0
  0
LINE
  5
1EC
330
1F
100
AcDbEntity
  8
D-9_記号
  6
Continuous
 62
     7
370
     9
100
AcDbLine
 10
1056.79643318153
 20
-155.390823065109
 30
0.0
 11
1060.028352176651
 21
-124.6411678590002
 31
0.0
  0
LINE
  5
1ED
330
1F
100
AcDbEntity
  8
D-6_間仕切
  6
Continuous
 62
     2
370
     9
100
AcDbLine
 10
1051.433722357182
 20
-155.390823065109
 30
0.0
 11
1055.817420211581
 21
-113.682724021168
 31
0.0
  0
LINE
  5
1EE
330
1F
100
AcDbEntity
  8
D-1_躯体
  6
Continuous
 62
     4
370
     9
100
AcDbLine
 10
1061.667061960718
 20
-128.9057129250708
 30
0.0
 11
1068.829305733751
 21
-134.2663988371786
 31
0.0
  0
LINE
  5
1EF
330
1F
100
AcDbEntity
  8
D-0_通り芯
  6
Continuous
 62
     4
370
     9
100
AcDbLine
 10
1069.797114612521
 20
-133.7431722681564
 30
0.0
 11
1096.212509784679
 21
117.5825246020754
 31
0.0
  0
LINE
  5
1F0
330
1F
100
AcDbEntity
  8
D-0_通り芯
  6
Continuous
 62
     4
370
     9
100
AcDbLine
 10
1124.390107722827
 20
-168.0575062277635
 30
0.0
 11
1124.390107722827
 21
-313.2922844359325
 31
0.0
  0
LINE
  5
1F1
330
1F
100
AcDbEntity
  8
D-0_通り芯
  6
Continuous
 62
     4
370
     9
100
AcDbLine
 10
1351.056862368097
 20
-168.0575062277635
 30
0.0
 11
1351.056862368097
 21
-313.2922844359325
 31
0.0
  0
LINE
  5
1F2
330
1F
100
AcDbEntity
  8
D-1_躯体
  6
Continuous
 62
     3
370
     9
100
AcDbLine
 10
1136.890107722825
 20
-163.0574897317755
 30
0.0
 11
1136.890107722825
 21
164.5318033190803
 31
0.0
  0
LINE
  5
1F3
330
1F
100
AcDbEntity
  8
D-1_躯体
  6
Continuous
 62
     3
370
     9
100
AcDbLine
 10
1338.556862368097
 20
-163.0574897317755
 30
0.0
 11
1338.556862368097
 21
164.5318033190803
 31
0.0
  0
ARC
  5
1F4
330
1F
100
AcDbEntity
  8
D-0_通り芯
  6
Continuous
 62
     4
370
     9
100
AcDbCircle
 10
1181.056796384143
 20
-256.1493738774849
 30
0.0
 40
80.47624389178071
100
AcDbArc
 50
225.2397455553737
 51
314.7602544446263
  0
ARC
  5
1F5
330
1F
100
AcDbEntity
  8
D-0_通り芯
  6
Continuous
 62
     4
370
     9
100
AcDbCircle
 10
1294.390173706777
 20
-256.1493738774849
 30
0.0
 40
80.47624389178071
100
AcDbArc
 50
225.2397455553737
 51
314.7602544446263
  0
ARC
  5
1F6
330
1F
100
AcDbEntity
  8
D-0_通り芯
  6
Continuous
 62
     4
370
     9
100
AcDbCircle
 10
1181.056796384143
 20
-370.4351949943799
 30
0.0
 40
80.47624389178071
100
AcDbArc
 50
45.23974555537367
 51
134.7602544446263
  0
ARC
  5
1F7
330
1F
100
AcDbEntity
  8
D-1_躯体
  6
Continuous
 62
     3
370
     9
100
AcDbCircle
 10
1288.140173706779
 20
121.7304165091987
 30
0.0
 40
66.13472014321468
100
AcDbArc
 50
40.32968394453118
 51
139.6703160554688
  0
ARC
  5
1F8
330
1F
100
AcDbEntity
  8
D-1_躯体
  6
Continuous
 62
     3
370
     9
100
AcDbCircle
 10
1187.306796384143
 20
121.7304165091987
 30
0.0
 40
66.13472014321468
100
AcDbArc
 50
40.32968394453118
 51
139.6703160554688
  0
ARC
  5
1F9
330
1F
100
AcDbEntity
  8
D-1_躯体
  6
Continuous
 62
     3
370
     9
100
AcDbCircle
 10
1288.140173706779
 20
207.3331901289619
 30
0.0
 40
66.13472014321468
100
AcDbArc
 50
220.3296839445312
 51
319.6703160554688
  0
LINE
  5
1FA
330
1F
100
AcDbEntity
  8
D-6_間仕切
  6
Continuous
 62
     6
370
     9
100
AcDbLine
 10
1028.556774389493
 20
-163.0575117264292
 30
0.0
 11
851.1324324820856
 21
-163.0575117264292
 31
0.0
  0
LINE
  5
1FB
330
1F
100
AcDbEntity
  8
D-0_通り芯
  6
Continuous
 62
     4
370
     9
100
AcDbLine
 10
1087.421762114437
 20
116.1338907466297
 30
0.0
 11
1072.050591036565
 21
94.9772887785794
 31
0.0
  0
LINE
  5
1FC
330
1F
100
AcDbEntity
  8
D-0_通り芯
  6
Continuous
 62
     4
370
     9
100
AcDbLine
 10
1051.343304998702
 20
-102.0393774434875
 30
0.0
 11
1055.291053715948
 21
-112.3129185414409
 31
0.0
  0
LINE
  5
1FD
330
1F
100
AcDbEntity
  8
D-0_通り芯
  6
Continuous
 62
     4
370
     9
100
AcDbLine
 10
1051.343304998702
 20
-102.0393774434875
 30
0.0
 11
1072.050591036565
 21
94.9772887785794
 31
0.0
  0
LINE
  5
1FE
330
1F
100
AcDbEntity
  8
D-5_建具
  6
Continuous
 62
     7
370
     9
100
AcDbLine
 10
1031.802572934202
 20
137.490764386642
 30
0.0
 11
973.0002614833069
 21
137.490764386642
 31
0.0
  0
LINE
  5
1FF
330
1F
100
AcDbEntity
  8
D-5_建具
  6
Continuous
 62
     7
370
     9
100
AcDbLine
 10
1069.632212694539
 20
71.96790628971218
 30
0.0
 11
1031.802572934202
 21
137.490764386642
 31
0.0
  0
LINE
  5
200
330
1F
100
AcDbEntity
  8
D-5_建具
  6
Continuous
 62
     7
370
     9
100
AcDbLine
 10
1069.632212694539
 20
71.96790628971218
 30
0.0
 11
1060.06512688541
 21
95.06489460249401
 31
0.0
  0
LINE
  5
201
330
1F
100
AcDbEntity
  8
D-5_建具
  6
Continuous
 62
     7
370
     9
100
AcDbLine
 10
1069.632212694539
 20
71.96790628971218
 30
0.0
 11
1054.41317696932
 21
91.80173979699322
 31
0.0
  0
TEXT
  5
202
330
1F
100
AcDbEntity
  8
D-4_文字
  6
Continuous
 62
     2
370
   211
100
AcDbText
 10
1464.293034815755
 20
-233.6944186871134
 30
0.0
 40
30.47999999999989
  1
6.5
 50
90.0
 41
1.083333333333337
  7
ＭＳ ゴシック
100
AcDbText
  0
LWPOLYLINE
  5
203
330
1F
100
AcDbEntity
  8
D-4_文字
  6
Continuous
 62
     7
370
     9
100
AcDbPolyline
 90
        4
 70
     1
 43
2.0
 10
1476.847532061896
 20
-143.0575117264201
 42
0.4142135623731
 10
1475.847532061896
 20
-142.0575117264201
 42
0.4142135623731
 10
1474.847532061897
 20
-143.0575117264201
 42
0.4142135623731
 10
1475.847532061896
 20
-144.0575117264201
 42
0.4142135623731
  0
LWPOLYLINE
  5
204
330
1F
100
AcDbEntity
  8
D-4_文字
  6
Continuous
 62
     7
370
     9
100
AcDbPolyline
 90
        4
 70
     1
 43
2.0
 10
1476.847532061896
 20
-163.0575117264286
 42
0.4142135623731
 10
1475.847532061896
 20
-162.0575117264286
 42
0.4142135623731
 10
1474.847532061897
 20
-163.0575117264286
 42
0.4142135623731
 10
1475.847532061896
 20
-164.0575117264287
 42
0.4142135623731
  0
LINE
  5
205
330
1F
100
AcDbEntity
  8
D-4_文字
  6
Continuous
 62
     7
370
     9
100
AcDbLine
 10
1478.847532061897
 20
-143.0575117264201
 30
0.0
 11
1379.796449969375
 21
-143.0575117264201
 31
0.0
  0
LINE
  5
206
330
1F
100
AcDbEntity
  8
D-4_文字
  6
Continuous
 62
     7
370
     9
100
AcDbLine
 10
1478.847532061897
 20
-163.0575117264286
 30
0.0
 11
1401.916708836195
 21
-163.0575117264286
 31
0.0
  0
LINE
  5
207
330
1F
100
AcDbEntity
  8
D-4_文字
  6
Continuous
 62
     7
370
     9
100
AcDbLine
 10
1475.847532061896
 20
-143.0575117264201
 30
0.0
 11
1475.847532061896
 21
-238.2901633679643
 31
0.0
  0
LINE
  5
208
330
1F
100
AcDbEntity
  8
D-6_間仕切
  6
Continuous
 62
     6
370
     9
100
AcDbLine
 10
1361.972165710751
 20
-163.0574897317755
 30
0.0
 11
1637.741545454052
 21
-163.0574897317755
 31
0.0
  0
ARC
  5
209
330
1F
100
AcDbEntity
  8
D-0_通り芯
  6
Continuous
 62
     4
370
     9
100
AcDbCircle
 10
1111.371158171791
 20
-162.390845059762
 30
0.0
 40
0.6666666666666667
100
AcDbArc
 50
158.7939768869962
 51
270.0
  0
LINE
  5
20A
330
1F
100
AcDbEntity
  8
D-0_通り芯
  6
JWW_PHANTOM1
 62
     4
370
     9
100
AcDbLine
 10
1131.167718472722
 20
-146.3908450597527
 30
0.0
 11
1115.332295496465
 21
-154.4663441624627
 31
0.0
  0
LINE
  5
20B
330
1F
100
AcDbEntity
  8
D-0_通り芯
  6
JWW_PHANTOM1
 62
     4
370
     9
100
AcDbLine
 10
1115.332295496465
 20
-154.4663441624627
 30
0.0
 11
1110.749634317825
 21
-162.1496966751611
 31
0.0
  0
LINE
  5
20C
330
1F
100
AcDbEntity
  8
D-0_通り芯
  6
JWW_PHANTOM1
 62
     4
370
     9
100
AcDbLine
 10
1111.371158171791
 20
-163.0575117264286
 30
0.0
 11
1364.08122724188
 21
-163.0575117264286
 31
0.0
  0
ARC
  5
20D
330
1F
100
AcDbEntity
  8
D-0_通り芯
  6
JWW_PHANTOM1
 62
     4
370
     9
100
AcDbCircle
 10
1364.08122724188
 20
-162.390845059762
 30
0.0
 40
0.6666666666666667
100
AcDbArc
 50
270.0
 51
21.20602311300377
  0
LINE
  5
20E
330
1F
100
AcDbEntity
  8
D-0_通り芯
  6
JWW_PHANTOM1
 62
     4
370
     9
100
AcDbLine
 10
1364.702751095845
 20
-162.1496966751605
 30
0.0
 11
1361.721645809323
 21
-154.4663441624622
 31
0.0
  0
LINE
  5
20F
330
1F
100
AcDbEntity
  8
D-0_通り芯
  6
JWW_PHANTOM1
 62
     4
370
     9
100
AcDbLine
 10
1361.721645809323
 20
-154.4663441624622
 30
0.0
 11
1341.96096837506
 21
-143.0575117264201
 31
0.0
  0
LINE
  5
210
330
1F
100
AcDbEntity
  8
D-0_通り芯
  6
JWW_PHANTOM1
 62
     4
370
     9
100
AcDbLine
 10
1137.70412477812
 20
-143.0575117264201
 30
0.0
 11
1131.167718472722
 21
-146.3908450597527
 31
0.0
  0
LINE
  5
211
330
1F
100
AcDbEntity
  8
D-0_通り芯
  6
JWW_PHANTOM1
 62
     4
370
     9
100
AcDbLine
 10
1137.70412477812
 20
-143.0575117264201
 30
0.0
 11
1341.96096837506
 21
-143.0575117264201
 31
0.0
  0
ARC
  5
212
330
1F
100
AcDbEntity
  8
D-0_通り芯
  6
JWW_PHANTOM1
 62
     4
370
     9
100
AcDbCircle
 10
1082.733594642622
 20
-163.0575117268527
 30
0.0
 40
281.3530479220074
100
AcDbArc
 50
0.0000044791591712
 51
87.2397372696237
  0
LINE
  5
213
330
1F
100
AcDbEntity
  8
D-0_通り芯
  6
Continuous
 62
     4
370
     9
100
AcDbLine
 10
1112.723320085579
 20
-163.0575117264286
 30
0.0
 11
1361.972165710751
 21
-163.0575117264286
 31
0.0
  0
LINE
  5
214
330
1F
100
AcDbEntity
  8
D-6_間仕切
  6
JWW_PHANTOM1
 62
     2
370
     9
100
AcDbLine
 10
1049.025997975992
 20
-147.0575117264193
 30
0.0
 11
1129.860437211642
 21
-147.0575117264193
 31
0.0
  0
LINE
  5
215
330
1F
100
AcDbEntity
  8
D-6_間仕切
  6
JWW_PHANTOM1
 62
     2
370
     9
100
AcDbLine
 10
1049.025997975992
 20
-147.0575117264193
 30
0.0
 11
1049.025997975992
 21
-155.390823065109
 31
0.0
  0
LINE
  5
216
330
1F
100
AcDbEntity
  8
D-9_記号
  6
JWW_PHANTOM1
 62
     7
370
     9
100
AcDbLine
 10
1049.025997975992
 20
-152.3908450597614
 30
0.0
 11
1119.402187122987
 21
-152.3908450597614
 31
0.0
  0
TEXT
  5
217
330
1F
100
AcDbEntity
  8
F-Fﾚｲﾔ
  6
Continuous
 62
     2
370
     9
100
AcDbText
 10
-938.5179398148131
 20
-1364.848781415343
 30
0.0
 40
30.48
  1
車止め　スチール製　アーチ型　脱着式　鋳鉄製蓋　鍵付　ＹＢ６Ｌ１０－ＨＤＬ
 41
0.8993243243243243
  7
ＭＳ ゴシック
100
AcDbText
  0
TEXT
  5
218
330
1F
100
AcDbEntity
  8
F-5ﾚｲﾔ
  6
Continuous
 62
     2
370
     0
100
AcDbText
 10
1387.344234791177
 20
-993.3742512140833
 30
0.0
 40
30.48000000000003
  1
支柱質量：10.5kg／本
 41
1.1125
  7
ＭＳ ゴシック
100
AcDbText
  0
LINE
  5
219
330
1F
100
AcDbEntity
  8
C-A_インテリア
  6
Continuous
 62
     2
370
     9
100
AcDbLine
 10
-380.8560754991457
 20
-114.3083200509473
 30
0.0
 11
-380.8560754991457
 21
-132.0584404716608
 31
0.0
  0
LINE
  5
21A
330
1F
100
AcDbEntity
  8
C-A_インテリア
  6
Continuous
 62
     2
370
     9
100
AcDbLine
 10
-385.3561645774811
 20
-114.3083200509473
 30
0.0
 11
-385.3561645774811
 21
-132.0584404716608
 31
0.0
  0
LINE
  5
21B
330
1F
100
AcDbEntity
  8
C-A_インテリア
  6
Continuous
 62
     2
370
     9
100
AcDbLine
 10
-388.1060128143894
 20
-132.0584404716608
 30
0.0
 11
-378.1060787983425
 21
-132.0584404716608
 31
0.0
  0
LINE
  5
21C
330
1F
100
AcDbEntity
  8
C-A_インテリア
  6
Continuous
 62
     2
370
     9
100
AcDbLine
 10
-388.1060128143894
 20
-132.0584404716608
 30
0.0
 11
-388.1060128143894
 21
-155.5583447949296
 31
0.0
  0
ARC
  5
21D
330
1F
100
AcDbEntity
  8
C-A_インテリア
  6
Continuous
 62
     2
370
     9
100
AcDbCircle
 10
-383.1060458063665
 20
-114.3083200509473
 30
0.0
 40
2.250000318965396
100
AcDbArc
 50
0.0000000000000064
 51
180.0
  0
LINE
  5
21E
330
1F
100
AcDbEntity
  8
C-6_間仕切
  6
JWW_CENTER1
 62
     7
370
     9
100
AcDbLine
 10
-383.1060458063665
 20
-108.5421308881514
 30
0.0
 11
-383.1060458063665
 21
-117.6044411842874
 31
0.0
  0
LINE
  5
21F
330
1F
100
AcDbEntity
  8
C-6_間仕切
  6
Continuous
 62
     7
370
     9
100
AcDbLine
 10
-375.1062173646436
 20
-108.0583612909176
 30
0.0
 11
-375.1062173646436
 21
-118.0583695389119
 31
0.0
  0
ARC
  5
220
330
1F
100
AcDbEntity
  8
C-6_間仕切
  6
Continuous
 62
     7
370
     9
100
AcDbCircle
 10
-376.1061216879124
 20
-108.0583612909176
 30
0.0
 40
1.000000012887491
100
AcDbArc
 50
0.0000000000000127
 51
90.00000000000001
  0
ARC
  5
221
330
1F
100
AcDbEntity
  8
C-6_間仕切
  6
Continuous
 62
     7
370
     9
100
AcDbCircle
 10
-376.1061216879124
 20
-118.0583695389119
 30
0.0
 40
1.000000012887491
100
AcDbArc
 50
270.0
 51
0.0
  0
ARC
  5
222
330
1F
100
AcDbEntity
  8
C-6_間仕切
  6
Continuous
 62
     7
370
     9
100
AcDbCircle
 10
-383.1060458063665
 20
-113.0584025308879
 30
0.0
 40
3.500000045106217
100
AcDbArc
 50
310.0047302246094
 51
229.9922332763672
  0
LINE
  5
223
330
1F
100
AcDbEntity
  8
C-6_間仕切
  6
Continuous
 62
     7
370
     9
100
AcDbLine
 10
-393.1061282863071
 20
-107.0583827357019
 30
0.0
 11
-393.1061282863071
 21
-119.058348094127
 31
0.0
  0
LINE
  5
224
330
1F
100
AcDbEntity
  8
C-0_通り芯
  6
JWW_CENTER2
 62
     7
370
     9
100
AcDbLine
 10
-491.920726576003
 20
-113.0584025308879
 30
0.0
 11
-373.3160397358425
 21
-113.0584025308879
 31
0.0
  0
ARC
  5
225
330
1F
100
AcDbEntity
  8
C-6_間仕切
  6
Continuous
 62
     7
370
     9
100
AcDbCircle
 10
-486.1061381838999
 20
-122.0583579917196
 30
0.0
 40
1.000000012887491
100
AcDbArc
 50
180.0
 51
270.0
  0
LINE
  5
226
330
1F
100
AcDbEntity
  8
C-6_間仕切
  6
Continuous
 62
     7
370
     9
100
AcDbLine
 10
-487.1061909710624
 20
-122.0583579917196
 30
0.0
 11
-487.1061909710624
 21
-104.0583728381092
 31
0.0
  0
ARC
  5
227
330
1F
100
AcDbEntity
  8
C-6_間仕切
  6
Continuous
 62
     7
370
     9
100
AcDbCircle
 10
-486.1061381838999
 20
-104.0583728381092
 30
0.0
 40
1.000000012887491
100
AcDbArc
 50
90.0
 51
180.0
  0
LINE
  5
228
330
1F
100
AcDbEntity
  8
C-6_間仕切
  6
Continuous
 62
     7
370
     9
100
AcDbLine
 10
-376.1061216879124
 20
-107.0583827357019
 30
0.0
 11
-400.2877763813955
 21
-107.0583827357019
 31
0.0
  0
LINE
  5
229
330
1F
100
AcDbEntity
  8
C-6_間仕切
  6
Continuous
 62
     7
370
     9
100
AcDbLine
 10
-376.1061216879124
 20
-119.058348094127
 30
0.0
 11
-400.2877763813955
 21
-119.058348094127
 31
0.0
  0
LINE
  5
22A
330
1F
100
AcDbEntity
  8
C-6_間仕切
  6
JWW_DASHED1
 62
     7
370
     9
100
AcDbLine
 10
-400.2877763813955
 20
-107.0583827357019
 30
0.0
 11
-460.7878027749757
 21
-107.0583827357019
 31
0.0
  0
LINE
  5
22B
330
1F
100
AcDbEntity
  8
C-6_間仕切
  6
JWW_DASHED1
 62
     7
370
     9
100
AcDbLine
 10
-400.2877763813955
 20
-119.058348094127
 30
0.0
 11
-460.7878027749757
 21
-119.058348094127
 31
0.0
  0
LINE
  5
22C
330
1F
100
AcDbEntity
  8
C-A_インテリア
  6
Continuous
 62
     2
370
     9
100
AcDbLine
 10
-385.8558940432748
 20
-132.0584404716608
 30
0.0
 11
-385.8558940432748
 21
-155.5583447949296
 31
0.0
  0
LINE
  5
22D
330
1F
100
AcDbEntity
  8
C-A_インテリア
  6
Continuous
 62
     2
370
     9
100
AcDbLine
 10
-380.3560491055645
 20
-132.0584404716608
 30
0.0
 11
-380.3560491055645
 21
-155.5583447949296
 31
0.0
  0
LINE
  5
22E
330
1F
100
AcDbEntity
  8
C-A_インテリア
  6
Continuous
 62
     2
370
     9
100
AcDbLine
 10
-378.1060787983425
 20
-132.0584404716608
 30
0.0
 11
-378.1060787983425
 21
-155.5583447949296
 31
0.0
  0
LINE
  5
22F
330
1F
100
AcDbEntity
  8
C-A_インテリア
  6
Continuous
 62
     2
370
     9
100
AcDbLine
 10
-388.1060128143894
 20
-155.5583447949296
 30
0.0
 11
-378.1060787983425
 21
-155.5583447949296
 31
0.0
  0
ARC
  5
230
330
1F
100
AcDbEntity
  8
C-5_建具
  6
Continuous
 62
     7
370
     9
100
AcDbCircle
 10
309.8416361115073
 20
-113.2933775157745
 30
0.0
 40
6.000019795185811
100
AcDbArc
 50
349.8367004394531
 51
190.1632995605469
  0
LINE
  5
231
330
1F
100
AcDbEntity
  8
C-5_建具
  6
Continuous
 62
     7
370
     9
100
AcDbLine
 10
307.3416526074953
 20
-118.0631141408272
 30
0.0
 11
307.3416526074953
 21
-108.5236408907216
 31
0.0
  0
ARC
  5
232
330
1F
100
AcDbEntity
  8
C-5_建具
  6
Continuous
 62
     7
370
     9
100
AcDbCircle
 10
309.8416361115073
 20
-113.2933775157745
 30
0.0
 40
6.000019795185811
100
AcDbArc
 50
234.7026977539062
 51
305.2973022460938
  0
ARC
  5
233
330
1F
100
AcDbEntity
  8
C-5_建具
  6
Continuous
 62
     7
370
     9
100
AcDbCircle
 10
308.3417053946579
 20
-118.0631141408272
 30
0.0
 40
1.000000012887491
100
AcDbArc
 50
180.0
 51
252.5401763916015
  0
ARC
  5
234
330
1F
100
AcDbEntity
  8
C-5_建具
  6
Continuous
 62
     7
370
     9
100
AcDbCircle
 10
311.3415668283574
 20
-118.0631141408272
 30
0.0
 40
1.000000012887491
100
AcDbArc
 50
287.4598236083985
 51
0.0000000000000127
  0
LINE
  5
235
330
1F
100
AcDbEntity
  8
C-5_建具
  6
Continuous
 62
     7
370
     9
100
AcDbLine
 10
312.3416196155188
 20
-118.0631141408272
 30
0.0
 11
312.3416196155188
 21
-108.5236408907216
 31
0.0
  0
ARC
  5
236
330
1F
100
AcDbEntity
  8
C-5_建具
  6
Continuous
 62
     7
370
     9
100
AcDbCircle
 10
311.3415668283574
 20
-108.5236408907216
 30
0.0
 40
1.000000012887491
100
AcDbArc
 50
0.0
 51
72.54017639160156
  0
ARC
  5
237
330
1F
100
AcDbEntity
  8
C-5_建具
  6
Continuous
 62
     7
370
     9
100
AcDbCircle
 10
308.3417053946579
 20
-108.5236408907216
 30
0.0
 40
1.000000012887491
100
AcDbArc
 50
107.4598236083985
 51
180.0
  0
ARC
  5
238
330
1F
100
AcDbEntity
  8
C-6_間仕切
  6
Continuous
 62
     2
370
     9
100
AcDbCircle
 10
309.8416361115073
 20
-121.7933436989987
 30
0.0
 40
9.500056666296882
100
AcDbArc
 50
105.2573547363281
 51
180.0
  0
ARC
  5
239
330
1F
100
AcDbEntity
  8
C-6_間仕切
  6
Continuous
 62
     2
370
     9
100
AcDbCircle
 10
309.8416361115073
 20
-121.7933436989987
 30
0.0
 40
5.00011547191723
100
AcDbArc
 50
119.9991455078125
 51
180.0
  0
LINE
  5
23A
330
1F
100
AcDbEntity
  8
C-6_間仕切
  6
Continuous
 62
     2
370
     9
100
AcDbLine
 10
304.8415206395902
 20
-121.7933436989987
 30
0.0
 11
304.8415206395902
 21
-132.2934525725206
 31
0.0
  0
LINE
  5
23B
330
1F
100
AcDbEntity
  8
C-6_間仕切
  6
Continuous
 62
     2
370
     9
100
AcDbLine
 10
300.3415800251474
 20
-121.7933436989987
 30
0.0
 11
300.3415800251474
 21
-132.2934525725206
 31
0.0
  0
ARC
  5
23C
330
1F
100
AcDbEntity
  8
C-6_間仕切
  6
Continuous
 62
     2
370
     9
100
AcDbCircle
 10
309.8416361115073
 20
-121.7933436989987
 30
0.0
 40
5.00011547191723
100
AcDbArc
 50
0.0
 51
60.00085449218751
  0
LINE
  5
23D
330
1F
100
AcDbEntity
  8
C-6_間仕切
  6
Continuous
 62
     2
370
     9
100
AcDbLine
 10
314.8417515834245
 20
-121.7933436989987
 30
0.0
 11
314.8417515834245
 21
-132.2934525725206
 31
0.0
  0
ARC
  5
23E
330
1F
100
AcDbEntity
  8
C-6_間仕切
  6
Continuous
 62
     2
370
     9
100
AcDbCircle
 10
309.8416361115073
 20
-121.7933436989987
 30
0.0
 40
9.500056666296882
100
AcDbArc
 50
0.0
 51
74.74270629882814
  0
LINE
  5
23F
330
1F
100
AcDbEntity
  8
C-6_間仕切
  6
Continuous
 62
     2
370
     9
100
AcDbLine
 10
321.8416757018792
 20
-132.2934525725206
 30
0.0
 11
321.8416757018792
 21
-155.7933568957892
 31
0.0
  0
LINE
  5
240
330
1F
100
AcDbEntity
  8
C-6_間仕切
  6
Continuous
 62
     2
370
     9
100
AcDbLine
 10
319.3416921978672
 20
-121.7933436989987
 30
0.0
 11
319.3416921978672
 21
-132.2934525725206
 31
0.0
  0
LINE
  5
241
330
1F
100
AcDbEntity
  8
C-6_間仕切
  6
Continuous
 62
     2
370
     9
100
AcDbLine
 10
297.8415965211354
 20
-132.2934525725206
 30
0.0
 11
321.8416757018792
 21
-132.2934525725206
 31
0.0
  0
LINE
  5
242
330
1F
100
AcDbEntity
  8
C-6_間仕切
  6
Continuous
 62
     2
370
     9
100
AcDbLine
 10
297.8415965211354
 20
-132.2934525725206
 30
0.0
 11
297.8415965211354
 21
-155.7933568957892
 31
0.0
  0
LINE
  5
243
330
1F
100
AcDbEntity
  8
C-6_間仕切
  6
Continuous
 62
     2
370
     9
100
AcDbLine
 10
297.8415965211354
 20
-155.7933568957892
 30
0.0
 11
321.8416757018792
 21
-155.7933568957892
 31
0.0
  0
ARC
  5
244
330
1F
100
AcDbEntity
  8
C-0_通り芯
  6
Continuous
 62
     4
370
     9
100
AcDbCircle
 10
309.8417845754011
 20
-112.452923414212
 30
0.0
 40
6.999924118454395
100
AcDbArc
 50
359.9993896484376
 51
180.0006103515626
  0
LINE
  5
245
330
1F
100
AcDbEntity
  8
C-0_通り芯
  6
Continuous
 62
     4
370
     9
100
AcDbLine
 10
316.8417086938553
 20
-112.4529976461587
 30
0.0
 11
316.8417086938553
 21
-114.3653610593767
 31
0.0
  0
ARC
  5
246
330
1F
100
AcDbEntity
  8
C-0_通り芯
  6
Continuous
 62
     4
370
     9
100
AcDbCircle
 10
309.8417845754011
 20
-114.3654352913234
 30
0.0
 40
6.999924118454395
100
AcDbArc
 50
229.5813903808594
 51
310.4159698486328
  0
ARC
  5
247
330
1F
100
AcDbEntity
  8
C-0_通り芯
  6
Continuous
 62
     4
370
     9
100
AcDbCircle
 10
309.8417845754011
 20
-114.3654352913234
 30
0.0
 40
6.999924118454395
100
AcDbArc
 50
352.3052215576173
 51
0.0006103515625301
  0
LINE
  5
248
330
1F
100
AcDbEntity
  8
C-0_通り芯
  6
Continuous
 62
     4
370
     9
100
AcDbLine
 10
302.8418604569464
 20
-112.4529976461587
 30
0.0
 11
302.8418604569464
 21
-114.3653610593767
 31
0.0
  0
ARC
  5
249
330
1F
100
AcDbEntity
  8
C-0_通り芯
  6
Continuous
 62
     4
370
     9
100
AcDbCircle
 10
309.8417845754011
 20
-114.3654352913234
 30
0.0
 40
6.999924118454395
100
AcDbArc
 50
179.9993896484375
 51
187.6925048828125
  0
LINE
  5
24A
330
1F
100
AcDbEntity
  8
C-6_間仕切
  6
Continuous
 62
     7
370
     9
100
AcDbLine
 10
-486.1061381838999
 20
-103.0583200509473
 30
0.0
 11
-482.0695594161072
 21
-103.0583200509473
 31
0.0
  0
LINE
  5
24B
330
1F
100
AcDbEntity
  8
C-6_間仕切
  6
Continuous
 62
     7
370
     9
100
AcDbLine
 10
-484.1716458552188
 20
-123.0583365469353
 30
0.0
 11
-486.1061381838999
 21
-123.0583365469353
 31
0.0
  0
LINE
  5
24C
330
1F
100
AcDbEntity
  8
C-6_間仕切
  6
Continuous
 62
     7
370
     9
100
AcDbLine
 10
-460.7878027749757
 20
-107.0583827357019
 30
0.0
 11
-467.9101128919287
 21
-107.0583827357019
 31
0.0
  0
LINE
  5
24D
330
1F
100
AcDbEntity
  8
C-6_間仕切
  6
Continuous
 62
     7
370
     9
100
AcDbLine
 10
-460.7878027749757
 20
-119.058348094127
 30
0.0
 11
-469.1713600741405
 21
-119.058348094127
 31
0.0
  0
TEXT
  5
24E
330
1F
100
AcDbEntity
  8
D-5_建具
  6
Continuous
 62
     7
370
     9
100
AcDbText
 10
1461.990695993266
 20
1.767342375632683
 30
0.0
 40
22.86
  1
南京錠：CAC202
 41
1.154761904761905
  7
ＭＳ ゴシック
100
AcDbText
  0
LINE
  5
24F
330
1F
100
AcDbEntity
  8
D-A_インテリア
  6
Continuous
 62
     2
370
     9
100
AcDbLine
 10
1403.329198642263
 20
-0.5572367932927236
 30
0.0
 11
1403.329198642263
 21
-59.72430486233801
 31
0.0
  0
LINE
  5
250
330
1F
100
AcDbEntity
  8
D-A_インテリア
  6
Continuous
 62
     2
370
     9
100
AcDbLine
 10
1388.328901714476
 20
-0.5572367932927236
 30
0.0
 11
1388.328901714476
 21
-59.72430486233801
 31
0.0
  0
LINE
  5
251
330
1F
100
AcDbEntity
  8
D-A_インテリア
  6
Continuous
 62
     2
370
     9
100
AcDbLine
 10
1386.663136828497
 20
-59.72430486233801
 30
0.0
 11
1386.663136828497
 21
-138.0573192732332
 31
0.0
  0
LINE
  5
252
330
1F
100
AcDbEntity
  8
D-A_インテリア
  6
Continuous
 62
     2
370
     9
100
AcDbLine
 10
1379.16274092478
 20
-59.72430486233801
 30
0.0
 11
1412.495854311605
 21
-59.72430486233801
 31
0.0
  0
LINE
  5
253
330
1F
100
AcDbEntity
  8
D-A_インテリア
  6
Continuous
 62
     2
370
     9
100
AcDbLine
 10
1404.995953287533
 20
-59.72430486233801
 30
0.0
 11
1404.995953287533
 21
-138.0573192732332
 31
0.0
  0
LINE
  5
254
330
1F
100
AcDbEntity
  8
D-A_インテリア
  6
Continuous
 62
     2
370
     9
100
AcDbLine
 10
1412.495854311605
 20
-59.72430486233801
 30
0.0
 11
1412.495854311605
 21
-138.0573192732332
 31
0.0
  0
LINE
  5
255
330
1F
100
AcDbEntity
  8
D-A_インテリア
  6
Continuous
 62
     2
370
     9
100
AcDbLine
 10
1379.16274092478
 20
-59.72430486233801
 30
0.0
 11
1379.16274092478
 21
-138.0573192732332
 31
0.0
  0
LINE
  5
256
330
1F
100
AcDbEntity
  8
D-A_インテリア
  6
Continuous
 62
     2
370
     9
100
AcDbLine
 10
1379.16274092478
 20
-138.0573192732332
 30
0.0
 11
1412.495854311605
 21
-138.0573192732332
 31
0.0
  0
ARC
  5
257
330
1F
100
AcDbEntity
  8
D-A_インテリア
  6
Continuous
 62
     2
370
     9
100
AcDbCircle
 10
1395.829297618192
 20
-0.5572367932927236
 30
0.0
 40
7.500001063217987
100
AcDbArc
 50
0.0000000000000064
 51
180.0
  0
LINE
  5
258
330
1F
100
AcDbEntity
  8
D-6_間仕切
  6
JWW_CENTER1
 62
     7
370
     9
100
AcDbLine
 10
1395.829297618192
 20
18.66339374935936
 30
0.0
 11
1395.829297618192
 21
-11.54430723776041
 31
0.0
  0
LINE
  5
259
330
1F
100
AcDbEntity
  8
D-6_間仕切
  6
Continuous
 62
     7
370
     9
100
AcDbLine
 10
1422.495392423936
 20
20.27595907347294
 30
0.0
 11
1422.495392423936
 21
-13.05740175317393
 31
0.0
  0
ARC
  5
25A
330
1F
100
AcDbEntity
  8
D-6_間仕切
  6
Continuous
 62
     7
370
     9
100
AcDbCircle
 10
1419.16237801304
 20
20.27595907347294
 30
0.0
 40
3.333333376291636
100
AcDbArc
 50
0.0000000000000127
 51
90.00000000000001
  0
ARC
  5
25B
330
1F
100
AcDbEntity
  8
D-6_間仕切
  6
Continuous
 62
     7
370
     9
100
AcDbCircle
 10
1419.16237801304
 20
-13.05740175317393
 30
0.0
 40
3.333333376291636
100
AcDbArc
 50
270.0
 51
0.0
  0
ARC
  5
25C
330
1F
100
AcDbEntity
  8
D-6_間仕切
  6
Continuous
 62
     7
370
     9
100
AcDbCircle
 10
1395.829297618192
 20
3.609154940238035
 30
0.0
 40
11.66666681702072
100
AcDbArc
 50
310.0047302246094
 51
229.9922332763672
  0
LINE
  5
25D
330
1F
100
AcDbEntity
  8
D-6_間仕切
  6
Continuous
 62
     7
370
     9
100
AcDbLine
 10
1362.495689351723
 20
23.60922092419063
 30
0.0
 11
1362.495689351723
 21
-16.39066360389162
 31
0.0
  0
LINE
  5
25E
330
1F
100
AcDbEntity
  8
D-0_通り芯
  6
JWW_CENTER2
 62
     7
370
     9
100
AcDbLine
 10
1033.113695052736
 20
3.609154940238035
 30
0.0
 11
1428.462651186605
 21
3.609154940238035
 31
0.0
  0
ARC
  5
25F
330
1F
100
AcDbEntity
  8
D-6_間仕切
  6
Continuous
 62
     7
370
     9
100
AcDbCircle
 10
1052.495656359747
 20
-26.3906965958682
 30
0.0
 40
3.333333376291636
100
AcDbArc
 50
180.0
 51
270.0
  0
LINE
  5
260
330
1F
100
AcDbEntity
  8
D-6_間仕切
  6
Continuous
 62
     7
370
     9
100
AcDbLine
 10
1049.162147069206
 20
-26.3906965958682
 30
0.0
 11
1049.162147069206
 21
33.60925391616721
 31
0.0
  0
ARC
  5
261
330
1F
100
AcDbEntity
  8
D-6_間仕切
  6
Continuous
 62
     7
370
     9
100
AcDbCircle
 10
1052.495656359747
 20
33.60925391616721
 30
0.0
 40
3.333333376291636
100
AcDbArc
 50
90.0
 51
180.0
  0
LINE
  5
262
330
1F
100
AcDbEntity
  8
D-6_間仕切
  6
Continuous
 62
     7
370
     9
100
AcDbLine
 10
1419.16237801304
 20
23.60922092419063
 30
0.0
 11
1338.556862368097
 21
23.60922092419063
 31
0.0
  0
LINE
  5
263
330
1F
100
AcDbEntity
  8
D-6_間仕切
  6
Continuous
 62
     7
370
     9
100
AcDbLine
 10
1419.16237801304
 20
-16.39066360389162
 30
0.0
 11
1338.556862368097
 21
-16.39066360389162
 31
0.0
  0
LINE
  5
264
330
1F
100
AcDbEntity
  8
D-6_間仕切
  6
JWW_DASHED1
 62
     7
370
     9
100
AcDbLine
 10
1338.556862368097
 20
23.60922092419063
 30
0.0
 11
1136.890107722827
 21
23.60922092419063
 31
0.0
  0
LINE
  5
265
330
1F
100
AcDbEntity
  8
D-6_間仕切
  6
JWW_DASHED1
 62
     7
370
     9
100
AcDbLine
 10
1338.556862368097
 20
-16.39066360389162
 30
0.0
 11
1136.890107722827
 21
-16.39066360389162
 31
0.0
  0
LINE
  5
266
330
1F
100
AcDbEntity
  8
D-5_建具
  6
Continuous
 62
     7
370
     9
100
AcDbLine
 10
1422.495711389332
 20
20.27595907347294
 30
0.0
 11
1486.269999225744
 21
130.7362658226617
 31
0.0
  0
LINE
  5
267
330
1F
100
AcDbEntity
  8
D-5_建具
  6
Continuous
 62
     7
370
     9
100
AcDbLine
 10
1422.495711389332
 20
20.27595907347294
 30
0.0
 11
1437.71474711455
 21
40.10979258075398
 31
0.0
  0
LINE
  5
268
330
1F
100
AcDbEntity
  8
D-5_建具
  6
Continuous
 62
     7
370
     9
100
AcDbLine
 10
1422.495711389332
 20
20.27595907347294
 30
0.0
 11
1432.062797198459
 21
43.37294738625477
 31
0.0
  0
LINE
  5
269
330
1F
100
AcDbEntity
  8
D-5_建具
  6
Continuous
 62
     7
370
     9
100
AcDbLine
 10
1412.495430957533
 20
-94.75462944637624
 30
0.0
 11
1422.062516766661
 21
-71.65764113359441
 31
0.0
  0
LINE
  5
26A
330
1F
100
AcDbEntity
  8
D-5_建具
  6
Continuous
 62
     7
370
     9
100
AcDbLine
 10
1412.495430957533
 20
-94.75462944637624
 30
0.0
 11
1427.714466682751
 21
-74.92079593909577
 31
0.0
  0
LINE
  5
26B
330
1F
100
AcDbEntity
  8
D-5_建具
  6
Continuous
 62
     7
370
     9
100
AcDbLine
 10
1412.495430957533
 20
-94.75462944637624
 30
0.0
 11
1461.990695993266
 21
-9.129324291034173
 31
0.0
  0
LINE
  5
26C
330
1F
100
AcDbEntity
  8
D-5_建具
  6
Continuous
 62
     7
370
     9
100
AcDbLine
 10
1461.990695993266
 20
-9.129324291034173
 30
0.0
 11
1705.588899222142
 21
-9.129324291034173
 31
0.0
  0
LINE
  5
26D
330
1F
100
AcDbEntity
  8
D-5_建具
  6
Continuous
 62
     7
370
     9
100
AcDbLine
 10
1486.269999225744
 20
130.7362658226617
 30
0.0
 11
1800.644193097676
 21
130.7362658226617
 31
0.0
  0
TEXT
  5
26E
330
1F
100
AcDbEntity
  8
D-5_建具
  6
Continuous
 62
     7
370
     9
100
AcDbText
 10
1486.270001182138
 20
141.6329324893281
 30
0.0
 40
22.86000000000017
  1
ロックピン：SCS13A
 50
359.9999735004548
 41
1.157407407407396
  7
ＭＳ ゴシック
100
AcDbText
  0
LINE
  5
26F
330
1F
100
AcDbEntity
  8
D-6_間仕切
  6
Continuous
 62
     7
370
     9
100
AcDbLine
 10
1052.495656359747
 20
36.94276320670728
 30
0.0
 11
1065.950916607327
 21
36.94276320670728
 31
0.0
  0
LINE
  5
270
330
1F
100
AcDbEntity
  8
D-6_間仕切
  6
Continuous
 62
     7
370
     9
100
AcDbLine
 10
1058.943961810288
 20
-29.72395844658589
 30
0.0
 11
1052.495656359747
 21
-29.72395844658589
 31
0.0
  0
LINE
  5
271
330
1F
100
AcDbEntity
  8
D-6_間仕切
  6
Continuous
 62
     7
370
     9
100
AcDbLine
 10
1136.890107722827
 20
23.60922092419063
 30
0.0
 11
1113.14907168792
 21
23.60922092419063
 31
0.0
  0
LINE
  5
272
330
1F
100
AcDbEntity
  8
D-6_間仕切
  6
Continuous
 62
     7
370
     9
100
AcDbLine
 10
1136.890107722827
 20
-16.39066360389162
 30
0.0
 11
1108.94491441388
 21
-16.39066360389162
 31
0.0
  0
LINE
  5
273
330
1F
100
AcDbEntity
  8
D-5_建具
  6
Continuous
 62
     7
370
     9
100
AcDbLine
 10
929.7234867751013
 20
-428.7855826004624
 30
0.0
 11
1545.723486775101
 21
-428.7855826004624
 31
0.0
  0
LINE
  5
274
330
1F
100
AcDbEntity
  8
D-5_建具
  6
Continuous
 62
     7
370
     9
100
AcDbLine
 10
929.7234867751013
 20
-498.7855826004624
 30
0.0
 11
1545.723486775101
 21
-498.7855826004624
 31
0.0
  0
LINE
  5
275
330
1F
100
AcDbEntity
  8
D-5_建具
  6
Continuous
 62
     7
370
     9
100
AcDbLine
 10
929.7234867751013
 20
-428.7855826004624
 30
0.0
 11
929.7234867751013
 21
-498.7855826004624
 31
0.0
  0
LINE
  5
276
330
1F
100
AcDbEntity
  8
D-5_建具
  6
Continuous
 62
     7
370
     9
100
AcDbLine
 10
1545.723486775101
 20
-428.7855826004624
 30
0.0
 11
1545.723486775101
 21
-498.7855826004624
 31
0.0
  0
TEXT
  5
277
330
1F
100
AcDbEntity
  8
D-5_建具
  6
Continuous
 62
     2
370
     9
100
AcDbText
 10
947.7234867751014
 20
-478.1455826004625
 30
0.0
 40
30.48
  1
南京錠部詳細図　Ｓ＝１：３
 41
1.115384615384615
  7
ＭＳ ゴシック
100
AcDbText
  0
TEXT
  5
278
330
1F
100
AcDbEntity
  8
C-5_建具
  6
Continuous
 62
     2
370
     9
100
AcDbText
 10
-336.9409896781035
 20
-153.08140103965
 30
0.0
 40
30.48
  1
▽G.L.
 41
1.104166666666667
  7
ＭＳ ゴシック
100
AcDbText
  0
TEXT
  5
279
330
1F
100
AcDbEntity
  8
C-5_建具
  6
Continuous
 62
     2
370
     9
100
AcDbText
 10
415.7380542719727
 20
-152.1929641491832
 30
0.0
 40
30.47999999999989
  1
▽G.L.
 41
1.104166666666671
  7
ＭＳ ゴシック
100
AcDbText
  0
TEXT
  5
27A
330
1F
100
AcDbEntity
  8
D-4_文字
  6
Continuous
 62
     2
370
     9
100
AcDbText
 10
1508.084443465133
 20
-151.0807895862586
 30
0.0
 40
30.48000000000005
  1
▽G.L.
 41
1.104166666666665
  7
ＭＳ ゴシック
100
AcDbText
  0
LINE
  5
27B
330
1F
100
AcDbEntity
  8
C-E_見え係り
  6
Continuous
 62
     6
370
     9
100
AcDbLine
 10
-430.5377895781867
 20
-414.5583909836964
 30
0.0
 11
-457.3327088212994
 21
-514.5583909836964
 31
0.0
  0
LINE
  5
27C
330
1F
100
AcDbEntity
  8
C-E_見え係り
  6
Continuous
 62
     6
370
     9
100
AcDbLine
 10
-444.2833400077603
 20
-514.5583909836964
 30
0.0
 11
-450.8080244145304
 21
-490.2079372742784
 31
0.0
  0
LINE
  5
27D
330
1F
100
AcDbEntity
  8
C-E_見え係り
  6
Continuous
 62
     6
370
     9
100
AcDbLine
 10
-443.587158391727
 20
-414.5583909836964
 30
0.0
 11
-437.0624739849569
 21
-438.9088446931143
 31
0.0
  0
LINE
  5
27E
330
1F
100
AcDbEntity
  8
C-E_見え係り
  6
Continuous
 62
     6
370
     9
100
AcDbLine
 10
-480.5377895781868
 20
-414.5583909836964
 30
0.0
 11
-507.3327088212994
 21
-514.5583909836964
 31
0.0
  0
LINE
  5
27F
330
1F
100
AcDbEntity
  8
C-E_見え係り
  6
Continuous
 62
     6
370
     9
100
AcDbLine
 10
-494.2833400077603
 20
-514.5583909836964
 30
0.0
 11
-500.8080244145293
 21
-490.2079372742784
 31
0.0
  0
LINE
  5
280
330
1F
100
AcDbEntity
  8
C-E_見え係り
  6
Continuous
 62
     6
370
     9
100
AcDbLine
 10
-493.587158391727
 20
-414.5583909836964
 30
0.0
 11
-487.0624739849569
 21
-438.9088446931143
 31
0.0
  0
LINE
  5
281
330
1F
100
AcDbEntity
  8
C-E_見え係り
  6
Continuous
 62
     6
370
     9
100
AcDbLine
 10
-530.5377895781868
 20
-414.5583909836964
 30
0.0
 11
-557.3327088213006
 21
-514.5583909836964
 31
0.0
  0
LINE
  5
282
330
1F
100
AcDbEntity
  8
C-E_見え係り
  6
Continuous
 62
     6
370
     9
100
AcDbLine
 10
-544.2833400077592
 20
-514.5583909836964
 30
0.0
 11
-550.8080244145305
 21
-490.2079372742784
 31
0.0
  0
LINE
  5
283
330
1F
100
AcDbEntity
  8
C-E_見え係り
  6
Continuous
 62
     6
370
     9
100
AcDbLine
 10
-543.587158391727
 20
-414.5583909836964
 30
0.0
 11
-537.0624739849569
 21
-438.9088446931143
 31
0.0
  0
LINE
  5
284
330
1F
100
AcDbEntity
  8
C-E_見え係り
  6
Continuous
 62
     6
370
     9
100
AcDbLine
 10
-580.5377895781868
 20
-414.5583909836964
 30
0.0
 11
-607.3327088212994
 21
-514.5583909836964
 31
0.0
  0
LINE
  5
285
330
1F
100
AcDbEntity
  8
C-E_見え係り
  6
Continuous
 62
     6
370
     9
100
AcDbLine
 10
-594.2833400077603
 20
-514.5583909836964
 30
0.0
 11
-600.8080244145293
 21
-490.2079372742784
 31
0.0
  0
LINE
  5
286
330
1F
100
AcDbEntity
  8
C-E_見え係り
  6
Continuous
 62
     6
370
     9
100
AcDbLine
 10
-593.587158391727
 20
-414.5583909836964
 30
0.0
 11
-587.0624739849569
 21
-438.9088446931143
 31
0.0
  0
LINE
  5
287
330
1F
100
AcDbEntity
  8
C-E_見え係り
  6
Continuous
 62
     6
370
     9
100
AcDbLine
 10
-380.5377895781867
 20
-414.5583909836964
 30
0.0
 11
-407.3327088212994
 21
-514.5583909836964
 31
0.0
  0
LINE
  5
288
330
1F
100
AcDbEntity
  8
C-E_見え係り
  6
Continuous
 62
     6
370
     9
100
AcDbLine
 10
-394.2833400077603
 20
-514.5583909836964
 30
0.0
 11
-400.8080244145304
 21
-490.2079372742784
 31
0.0
  0
LINE
  5
289
330
1F
100
AcDbEntity
  8
C-E_見え係り
  6
Continuous
 62
     6
370
     9
100
AcDbLine
 10
-393.587158391727
 20
-414.5583909836964
 30
0.0
 11
-387.0624739849569
 21
-438.9088446931143
 31
0.0
  0
LINE
  5
28A
330
1F
100
AcDbEntity
  8
C-E_見え係り
  6
Continuous
 62
     6
370
     9
100
AcDbLine
 10
-330.5377895781867
 20
-414.5583909836964
 30
0.0
 11
-357.3327088212994
 21
-514.5583909836964
 31
0.0
  0
LINE
  5
28B
330
1F
100
AcDbEntity
  8
C-E_見え係り
  6
Continuous
 62
     6
370
     9
100
AcDbLine
 10
-344.2833400077603
 20
-514.5583909836964
 30
0.0
 11
-350.8080244145293
 21
-490.2079372742784
 31
0.0
  0
LINE
  5
28C
330
1F
100
AcDbEntity
  8
C-E_見え係り
  6
Continuous
 62
     6
370
     9
100
AcDbLine
 10
-343.587158391727
 20
-414.5583909836964
 30
0.0
 11
-337.0624739849569
 21
-438.9088446931143
 31
0.0
  0
LINE
  5
28D
330
1F
100
AcDbEntity
  8
C-E_見え係り
  6
Continuous
 62
     6
370
     9
100
AcDbLine
 10
-280.5377895781867
 20
-414.5583909836964
 30
0.0
 11
-307.3327088212994
 21
-514.5583909836964
 31
0.0
  0
LINE
  5
28E
330
1F
100
AcDbEntity
  8
C-E_見え係り
  6
Continuous
 62
     6
370
     9
100
AcDbLine
 10
-294.2833400077603
 20
-514.5583909836964
 30
0.0
 11
-300.8080244145293
 21
-490.2079372742784
 31
0.0
  0
LINE
  5
28F
330
1F
100
AcDbEntity
  8
C-E_見え係り
  6
Continuous
 62
     6
370
     9
100
AcDbLine
 10
-293.587158391727
 20
-414.5583909836964
 30
0.0
 11
-287.0624739849569
 21
-438.9088446931143
 31
0.0
  0
LINE
  5
290
330
1F
100
AcDbEntity
  8
C-E_見え係り
  6
Continuous
 62
     6
370
     9
100
AcDbLine
 10
-230.5377895781867
 20
-414.5583909836964
 30
0.0
 11
-257.3327088212994
 21
-514.5583909836964
 31
0.0
  0
LINE
  5
291
330
1F
100
AcDbEntity
  8
C-E_見え係り
  6
Continuous
 62
     6
370
     9
100
AcDbLine
 10
-244.2833400077603
 20
-514.5583909836964
 30
0.0
 11
-250.8080244145293
 21
-490.2079372742784
 31
0.0
  0
LINE
  5
292
330
1F
100
AcDbEntity
  8
C-E_見え係り
  6
Continuous
 62
     6
370
     9
100
AcDbLine
 10
-243.587158391727
 20
-414.5583909836964
 30
0.0
 11
-237.0624739849569
 21
-438.9088446931143
 31
0.0
  0
LINE
  5
293
330
1F
100
AcDbEntity
  8
C-0_通り芯
  6
JWW_CENTER2
 62
     7
370
     9
100
AcDbLine
 10
-430.5377895781864
 20
281.6909244327954
 30
0.0
 11
-430.5377895781864
 21
-454.0735747248817
 31
0.0
  0
LINE
  5
294
330
1F
100
AcDbEntity
  8
C-4_文字
  6
Continuous
 62
     7
370
     9
100
AcDbLine
 10
-1400.287817621367
 20
131.8649986353936
 30
0.0
 11
-1425.073926514684
 21
128.6018859743925
 31
0.0
  0
LINE
  5
295
330
1F
100
AcDbEntity
  8
C-4_文字
  6
Continuous
 62
     7
370
     9
100
AcDbLine
 10
-1400.287817621367
 20
131.8649986353936
 30
0.0
 11
-1425.073926514684
 21
135.1281112963941
 31
0.0
  0
LINE
  5
296
330
1F
100
AcDbEntity
  8
C-4_文字
  6
Continuous
 62
     7
370
     9
100
AcDbLine
 10
-1339.787791227786
 20
131.8649986353936
 30
0.0
 11
-1315.001682334468
 21
135.1281112963941
 31
0.0
  0
LINE
  5
297
330
1F
100
AcDbEntity
  8
C-4_文字
  6
Continuous
 62
     7
370
     9
100
AcDbLine
 10
-1339.787791227786
 20
131.8649986353936
 30
0.0
 11
-1315.001682334468
 21
128.6018859743925
 31
0.0
  0
LINE
  5
298
330
1F
100
AcDbEntity
  8
C-4_文字
  6
Continuous
 62
     7
370
     9
100
AcDbLine
 10
-1162.684965135091
 20
131.8649986353936
 30
0.0
 11
-1441.849913469657
 21
131.8649986353936
 31
0.0
  0
TEXT
  5
299
330
1F
100
AcDbEntity
  8
C-4_文字
  6
Continuous
 62
     2
370
     9
100
AcDbText
 10
-1309.329307918426
 20
140.5050827649331
 30
0.0
 40
30.48
  1
φ60.5
 41
1.104166666666665
  7
ＭＳ ゴシック
100
AcDbText
  0
TEXT
  5
29A
330
1F
100
AcDbEntity
  8
C-5_建具
  6
Continuous
 62
     7
370
     9
100
AcDbText
 10
-590.1006671751072
 20
666.7751521981455
 30
0.0
 40
22.86
  1
STK　溶融亜鉛めっき＋焼付塗装
 41
1.155172413793104
  7
ＭＳ ゴシック
100
AcDbText
  0
LINE
  5
29B
330
1F
100
AcDbEntity
  8
C-5_建具
  6
Continuous
 62
     7
370
     9
100
AcDbLine
 10
-598.469133400941
 20
705.6922641322012
 30
0.0
 11
-87.6006671751071
 21
705.6922641322012
 31
0.0
  0
TEXT
  5
29C
330
1F
100
AcDbEntity
  8
C-5_建具
  6
Continuous
 62
     7
370
     9
100
AcDbText
 10
-590.1006671751072
 20
721.6822968652982
 30
0.0
 40
22.86
  1
本体：φ60.5×2.8
 41
1.156862745098039
  7
ＭＳ ゴシック
100
AcDbText
  0
LINE
  5
29D
330
1F
100
AcDbEntity
  8
C-5_建具
  6
Continuous
 62
     7
370
     9
100
AcDbLine
 10
-724.7671799675543
 20
486.9390461691278
 30
0.0
 11
-709.5480886662141
 21
506.7728370312261
 31
0.0
  0
LINE
  5
29E
330
1F
100
AcDbEntity
  8
C-5_建具
  6
Continuous
 62
     7
370
     9
100
AcDbLine
 10
-724.7671799675543
 20
486.9390461691278
 30
0.0
 11
-715.2000294386288
 21
510.0360076739849
 31
0.0
  0
LINE
  5
29F
330
1F
100
AcDbEntity
  8
C-5_建具
  6
Continuous
 62
     7
370
     9
100
AcDbLine
 10
-724.7671799675543
 20
486.9390461691278
 30
0.0
 11
-598.469133400941
 21
705.6922641322012
 31
0.0
  0
TEXT
  5
2A0
330
1F
100
AcDbEntity
  8
C-5_建具
  6
Continuous
 62
     7
370
     9
100
AcDbText
 10
-183.8616498475241
 20
-608.90616225804
 30
0.0
 40
22.86000000000032
  1
脱着用埋設管
 41
1.138888888888885
  7
ＭＳ ゴシック
100
AcDbText
  0
TEXT
  5
2A1
330
1F
100
AcDbEntity
  8
C-5_建具
  6
Continuous
 62
     7
370
     9
100
AcDbText
 10
-183.861649847523
 20
-670.6933963005928
 30
0.0
 40
22.85999999999978
  1
蓋：FCD500　溶融亜鉛めっき
 41
1.153846153846164
  7
ＭＳ ゴシック
100
AcDbText
  0
TEXT
  5
2A2
330
1F
100
AcDbEntity
  8
C-5_建具
  6
Continuous
 62
     7
370
     9
100
AcDbText
 10
-183.861649847523
 20
-713.2415767848979
 30
0.0
 40
22.86000000000006
  1
埋設管本体：SUS
 41
1.155555555555553
  7
ＭＳ ゴシック
100
AcDbText
  0
LINE
  5
2A3
330
1F
100
AcDbEntity
  8
C-5_建具
  6
Continuous
 62
     7
370
     9
100
AcDbLine
 10
-396.5377763813943
 20
-260.2095471122287
 30
0.0
 11
-187.4262166477578
 21
-624.9975295602322
 31
0.0
  0
LINE
  5
2A4
330
1F
100
AcDbEntity
  8
C-5_建具
  6
Continuous
 62
     7
370
     9
100
AcDbLine
 10
-396.5377763813943
 20
-260.2095471122287
 30
0.0
 11
-381.3187321118072
 21
-280.0433740631812
 31
0.0
  0
LINE
  5
2A5
330
1F
100
AcDbEntity
  8
C-5_建具
  6
Continuous
 62
     7
370
     9
100
AcDbLine
 10
-396.5377763813943
 20
-260.2095471122287
 30
0.0
 11
-386.970680622138
 21
-283.3065313035295
 31
0.0
  0
LINE
  5
2A6
330
1F
100
AcDbEntity
  8
C-5_建具
  6
Continuous
 62
     7
370
     9
100
AcDbLine
 10
266.1383501524768
 20
-624.9975295602322
 30
0.0
 11
-187.4262166477578
 21
-624.9975295602322
 31
0.0
  0
ENDSEC
  0
SECTION
  2
OBJECTS
  0
DICTIONARY
  5
C
330
0
100
AcDbDictionary
281
     1
  3
ACAD_DETAILVIEWSTYLE
350
2EC
  3
ACAD_GROUP
350
D
  3
ACAD_LAYOUT
350
1A
  3
ACAD_MATERIAL
350
43
  3
ACAD_MLEADERSTYLE
350
6B
  3
ACAD_MLINESTYLE
350
17
  3
ACAD_PLOTSETTINGS
350
19
  3
ACAD_PLOTSTYLENAME
350
E
  3
ACAD_SCALELIST
350
47
  3
ACAD_SECTIONVIEWSTYLE
350
2ED
  3
ACAD_TABLESTYLE
350
69
  3
ACAD_VISUALSTYLE
350
2A
  3
ACDB_RECOMPOSE_DATA
350
2E9
  3
AcDbVariableDictionary
350
2A9
  0
DICTIONARY
  5
2A7
330
8
100
AcDbDictionary
280
     1
281
     1
  3
ACAD_XREC_ROUNDTRIP
360
2A8
  0
DICTIONARY
  5
2EC
102
{ACAD_REACTORS
330
C
102
}
330
C
100
AcDbDictionary
281
     1
  0
DICTIONARY
  5
D
102
{ACAD_REACTORS
330
C
102
}
330
C
100
AcDbDictionary
281
     1
  0
DICTIONARY
  5
1A
102
{ACAD_REACTORS
330
C
102
}
330
C
100
AcDbDictionary
281
     1
  3
Layout1
350
1E
  3
Layout2
350
26
  3
Model
350
22
  0
DICTIONARY
  5
43
102
{ACAD_REACTORS
330
C
102
}
330
C
100
AcDbDictionary
281
     1
  3
ByBlock
350
45
  3
ByLayer
350
44
  3
Global
350
46
  0
DICTIONARY
  5
6B
102
{ACAD_REACTORS
330
C
102
}
330
C
100
AcDbDictionary
281
     1
  3
Standard
350
6C
  0
DICTIONARY
  5
17
102
{ACAD_REACTORS
330
C
102
}
330
C
100
AcDbDictionary
281
     1
  3
Standard
350
18
  0
DICTIONARY
  5
19
102
{ACAD_REACTORS
330
C
102
}
330
C
100
AcDbDictionary
281
     1
  0
ACDBDICTIONARYWDFLT
  5
E
102
{ACAD_REACTORS
330
C
102
}
330
C
100
AcDbDictionary
281
     1
  3
Normal
350
F
100
AcDbDictionaryWithDefault
340
F
  0
DICTIONARY
  5
47
102
{ACAD_REACTORS
330
C
102
}
330
C
100
AcDbDictionary
281
     1
  3
A0
350
48
  3
A1
350
49
  3
A2
350
4A
  3
A3
350
4B
  3
A4
350
4C
  3
A5
350
4D
  3
A6
350
4E
  3
A7
350
4F
  3
A8
350
50
  3
A9
350
51
  3
B0
350
52
  3
B1
350
53
  3
B2
350
54
  3
B3
350
55
  3
B4
350
56
  3
B5
350
57
  3
B6
350
58
  3
B7
350
59
  3
B8
350
5A
  3
B9
350
5B
  3
C0
350
5C
  3
C1
350
5D
  3
C2
350
5E
  3
C3
350
5F
  3
C4
350
60
  3
C5
350
61
  3
C6
350
62
  3
C7
350
63
  3
C8
350
64
  3
C9
350
65
  3
D0
350
66
  3
D1
350
67
  3
D2
350
68
  0
DICTIONARY
  5
2ED
102
{ACAD_REACTORS
330
C
102
}
330
C
100
AcDbDictionary
281
     1
  0
DICTIONARY
  5
69
102
{ACAD_REACTORS
330
C
102
}
330
C
100
AcDbDictionary
281
     1
  3
Standard
350
6A
  0
DICTIONARY
  5
2A
102
{ACAD_REACTORS
330
C
102
}
330
C
100
AcDbDictionary
281
     1
  3
2dWireframe
350
2F
  3
Basic
350
32
  3
Brighten
350
36
  3
ColorChange
350
3A
  3
Conceptual
350
34
  3
Dim
350
35
  3
EdgeColorOff
350
3D
  3
Facepattern
350
39
  3
Flat
350
2B
  3
FlatWithEdges
350
2C
  3
Gouraud
350
2D
  3
GouraudWithEdges
350
2E
  3
Hidden
350
31
  3
JitterOff
350
3B
  3
Linepattern
350
38
  3
OverhangOff
350
3C
  3
Realistic
350
33
  3
Shaded
350
42
  3
Shaded with edges
350
41
  3
Shades of Gray
350
3E
  3
Sketchy
350
3F
  3
Thicken
350
37
  3
Wireframe
350
30
  3
X-Ray
350
40
  0
XRECORD
  5
2E9
102
{ACAD_REACTORS
330
C
102
}
330
C
100
AcDbXrecord
280
     1
 90
        1
330
6A
  0
DICTIONARY
  5
2A9
102
{ACAD_REACTORS
330
C
102
}
330
C
100
AcDbDictionary
281
     1
  3
CANNOSCALE
350
2AA
  3
CENTEREXE
350
2EE
  3
CENTERLTYPEFILE
350
2EF
  3
CMLEADERSTYLE
350
2EB
  3
CTABLESTYLE
350
2EA
  3
MSLTSCALE
350
2AB
  3
XCLIPFRAME
350
2AC
  0
XRECORD
  5
2A8
102
{ACAD_REACTORS
330
2A7
102
}
330
2A7
100
AcDbXrecord
280
     1
102
VTR_0.000_0.000_1.000_1.000_VISUALSTYLE
340
2F
102
VTR_0.000_0.000_1.000_1.000_GRIDDISPLAY
 70
     3
102
VTR_0.000_0.000_1.000_1.000_GRIDMAJOR
 70
     5
102
VTR_0.000_0.000_1.000_1.000_DEFAULTLIGHTING
280
     1
102
VTR_0.000_0.000_1.000_1.000_DEFAULTLIGHTINGTYPE
 70
     1
102
VTR_0.000_0.000_1.000_1.000_BRIGHTNESS
141
0.0
102
VTR_0.000_0.000_1.000_1.000_CONTRAST
142
0.0
  0
LAYOUT
  5
1E
102
{ACAD_REACTORS
330
1A
102
}
330
1A
100
AcDbPlotSettings
  1

  2
none_device
  4

  6

 40
0.0
 41
0.0
 42
0.0
 43
0.0
 44
0.0
 45
0.0
 46
0.0
 47
0.0
 48
0.0
 49
0.0
140
0.0
141
0.0
142
1.0
143
1.0
 70
   688
 72
     1
 73
     0
 74
     5
  7

 75
    16
 76
     0
 77
     5
 78
   300
147
1.0
148
0.0
149
0.0
100
AcDbLayout
  1
Layout1
 70
     1
 71
     1
 10
0.0
 20
0.0
 11
420.0
 21
297.0
 12
0.0
 22
0.0
 32
0.0
 14
1.000000000000000E+20
 24
1.000000000000000E+20
 34
1.000000000000000E+20
 15
-1.000000000000000E+20
 25
-1.000000000000000E+20
 35
-1.000000000000000E+20
146
0.0
 13
0.0
 23
0.0
 33
0.0
 16
1.0
 26
0.0
 36
0.0
 17
0.0
 27
1.0
 37
0.0
 76
     0
330
1B
  0
LAYOUT
  5
26
102
{ACAD_REACTORS
330
1A
102
}
330
1A
100
AcDbPlotSettings
  1

  2
none_device
  4

  6

 40
0.0
 41
0.0
 42
0.0
 43
0.0
 44
0.0
 45
0.0
 46
0.0
 47
0.0
 48
0.0
 49
0.0
140
0.0
141
0.0
142
1.0
143
1.0
 70
   688
 72
     1
 73
     0
 74
     5
  7

 75
    16
 76
     0
 77
     5
 78
   300
147
1.0
148
0.0
149
0.0
100
AcDbLayout
  1
Layout2
 70
     1
 71
     2
 10
0.0
 20
0.0
 11
0.0
 21
0.0
 12
0.0
 22
0.0
 32
0.0
 14
0.0
 24
0.0
 34
0.0
 15
0.0
 25
0.0
 35
0.0
146
0.0
 13
0.0
 23
0.0
 33
0.0
 16
1.0
 26
0.0
 36
0.0
 17
0.0
 27
1.0
 37
0.0
 76
     0
330
23
  0
LAYOUT
  5
22
102
{ACAD_REACTORS
330
1A
102
}
330
1A
100
AcDbPlotSettings
  1

  2
none_device
  4
Letter_(8.50_x_11.00_Inches)
  6

 40
6.35
 41
6.35
 42
6.35000508
 43
6.35000508
 44
215.9
 45
279.4
 46
0.0
 47
0.0
 48
0.0
 49
0.0
140
0.0
141
0.0
142
1.0
143
1.0
 70
  1712
 72
     1
 73
     0
 74
     0
  7

 75
     0
 76
     0
 77
     5
 78
   300
147
1.0
148
0.0
149
0.0
100
AcDbLayout
  1
Model
 70
     1
 71
     0
 10
-2100.0
 20
-1485.0
 11
2100.0
 21
1485.0
 12
0.0
 22
0.0
 32
0.0
 14
-2100.0
 24
-1485.0
 34
0.0
 15
2100.0
 25
1485.0
 35
0.0
146
0.0
 13
0.0
 23
0.0
 33
0.0
 16
1.0
 26
0.0
 36
0.0
 17
0.0
 27
1.0
 37
0.0
 76
     0
330
1F
331
29
  0
MATERIAL
  5
45
102
{ACAD_REACTORS
330
43
102
}
102
{ACAD_XDICTIONARY
360
2DF
102
}
330
43
100
AcDbMaterial
  1
ByBlock
  0
MATERIAL
  5
44
102
{ACAD_REACTORS
330
43
102
}
102
{ACAD_XDICTIONARY
360
2DD
102
}
330
43
100
AcDbMaterial
  1
ByLayer
  0
MATERIAL
  5
46
102
{ACAD_REACTORS
330
43
102
}
102
{ACAD_XDICTIONARY
360
2E1
102
}
330
43
100
AcDbMaterial
  1
Global
  0
MLEADERSTYLE
  5
6C
102
{ACAD_REACTORS
330
6B
102
}
102
{ACAD_XDICTIONARY
360
2E7
102
}
330
6B
100
AcDbMLeaderStyle
170
     2
171
     1
172
     0
 90
        2
 40
0.0
 41
0.0
173
     1
 91
-1056964608
340
14
 92
       -2
290
     1
 42
2.0
291
     1
 43
8.0
  3
Standard
341
0
 44
4.0
300

342
11
174
     1
178
     6
175
     1
176
     0
 93
-1056964608
 45
4.0
292
     0
297
     0
 46
4.0
343
0
 94
-1056964608
 47
1.0
 49
1.0
140
1.0
293
     1
141
0.0
294
     1
177
     0
142
1.0
295
     0
296
     0
143
3.75
1001
ACAD_MLEADERVER
1070
     2
  0
MLINESTYLE
  5
18
102
{ACAD_REACTORS
330
17
102
}
330
17
100
AcDbMlineStyle
  2
Standard
 70
     0
  3

 62
   256
 51
90.0
 52
90.0
 71
     2
 49
0.5
 62
   256
  6
BYLAYER
 49
-0.5
 62
   256
  6
BYLAYER
  0
ACDBPLACEHOLDER
  5
F
102
{ACAD_REACTORS
330
E
102
}
330
E
  0
SCALE
  5
48
102
{ACAD_REACTORS
330
47
102
}
330
47
100
AcDbScale
 70
     0
300
1:1
140
1.0
141
1.0
290
     1
  0
SCALE
  5
49
102
{ACAD_REACTORS
330
47
102
}
330
47
100
AcDbScale
 70
     0
300
1:2
140
1.0
141
2.0
290
     0
  0
SCALE
  5
4A
102
{ACAD_REACTORS
330
47
102
}
330
47
100
AcDbScale
 70
     0
300
1:4
140
1.0
141
4.0
290
     0
  0
SCALE
  5
4B
102
{ACAD_REACTORS
330
47
102
}
330
47
100
AcDbScale
 70
     0
300
1:5
140
1.0
141
5.0
290
     0
  0
SCALE
  5
4C
102
{ACAD_REACTORS
330
47
102
}
330
47
100
AcDbScale
 70
     0
300
1:8
140
1.0
141
8.0
290
     0
  0
SCALE
  5
4D
102
{ACAD_REACTORS
330
47
102
}
330
47
100
AcDbScale
 70
     0
300
1:10
140
1.0
141
10.0
290
     0
  0
SCALE
  5
4E
102
{ACAD_REACTORS
330
47
102
}
330
47
100
AcDbScale
 70
     0
300
1:16
140
1.0
141
16.0
290
     0
  0
SCALE
  5
4F
102
{ACAD_REACTORS
330
47
102
}
330
47
100
AcDbScale
 70
     0
300
1:20
140
1.0
141
20.0
290
     0
  0
SCALE
  5
50
102
{ACAD_REACTORS
330
47
102
}
330
47
100
AcDbScale
 70
     0
300
1:30
140
1.0
141
30.0
290
     0
  0
SCALE
  5
51
102
{ACAD_REACTORS
330
47
102
}
330
47
100
AcDbScale
 70
     0
300
1:40
140
1.0
141
40.0
290
     0
  0
SCALE
  5
52
102
{ACAD_REACTORS
330
47
102
}
330
47
100
AcDbScale
 70
     0
300
1:50
140
1.0
141
50.0
290
     0
  0
SCALE
  5
53
102
{ACAD_REACTORS
330
47
102
}
330
47
100
AcDbScale
 70
     0
300
1:100
140
1.0
141
100.0
290
     0
  0
SCALE
  5
54
102
{ACAD_REACTORS
330
47
102
}
330
47
100
AcDbScale
 70
     0
300
2:1
140
2.0
141
1.0
290
     0
  0
SCALE
  5
55
102
{ACAD_REACTORS
330
47
102
}
330
47
100
AcDbScale
 70
     0
300
4:1
140
4.0
141
1.0
290
     0
  0
SCALE
  5
56
102
{ACAD_REACTORS
330
47
102
}
330
47
100
AcDbScale
 70
     0
300
8:1
140
8.0
141
1.0
290
     0
  0
SCALE
  5
57
102
{ACAD_REACTORS
330
47
102
}
330
47
100
AcDbScale
 70
     0
300
10:1
140
10.0
141
1.0
290
     0
  0
SCALE
  5
58
102
{ACAD_REACTORS
330
47
102
}
330
47
100
AcDbScale
 70
     0
300
100:1
140
100.0
141
1.0
290
     0
  0
SCALE
  5
59
102
{ACAD_REACTORS
330
47
102
}
330
47
100
AcDbScale
 70
     0
300
1/128" = 1'-0"
140
0.0078125
141
12.0
290
     0
  0
SCALE
  5
5A
102
{ACAD_REACTORS
330
47
102
}
330
47
100
AcDbScale
 70
     0
300
1/64" = 1'-0"
140
0.015625
141
12.0
290
     0
  0
SCALE
  5
5B
102
{ACAD_REACTORS
330
47
102
}
330
47
100
AcDbScale
 70
     0
300
1/32" = 1'-0"
140
0.03125
141
12.0
290
     0
  0
SCALE
  5
5C
102
{ACAD_REACTORS
330
47
102
}
330
47
100
AcDbScale
 70
     0
300
1/16" = 1'-0"
140
0.0625
141
12.0
290
     0
  0
SCALE
  5
5D
102
{ACAD_REACTORS
330
47
102
}
330
47
100
AcDbScale
 70
     0
300
3/32" = 1'-0"
140
0.09375
141
12.0
290
     0
  0
SCALE
  5
5E
102
{ACAD_REACTORS
330
47
102
}
330
47
100
AcDbScale
 70
     0
300
1/8" = 1'-0"
140
0.125
141
12.0
290
     0
  0
SCALE
  5
5F
102
{ACAD_REACTORS
330
47
102
}
330
47
100
AcDbScale
 70
     0
300
3/16" = 1'-0"
140
0.1875
141
12.0
290
     0
  0
SCALE
  5
60
102
{ACAD_REACTORS
330
47
102
}
330
47
100
AcDbScale
 70
     0
300
1/4" = 1'-0"
140
0.25
141
12.0
290
     0
  0
SCALE
  5
61
102
{ACAD_REACTORS
330
47
102
}
330
47
100
AcDbScale
 70
     0
300
3/8" = 1'-0"
140
0.375
141
12.0
290
     0
  0
SCALE
  5
62
102
{ACAD_REACTORS
330
47
102
}
330
47
100
AcDbScale
 70
     0
300
1/2" = 1'-0"
140
0.5
141
12.0
290
     0
  0
SCALE
  5
63
102
{ACAD_REACTORS
330
47
102
}
330
47
100
AcDbScale
 70
     0
300
3/4" = 1'-0"
140
0.75
141
12.0
290
     0
  0
SCALE
  5
64
102
{ACAD_REACTORS
330
47
102
}
330
47
100
AcDbScale
 70
     0
300
1" = 1'-0"
140
1.0
141
12.0
290
     0
  0
SCALE
  5
65
102
{ACAD_REACTORS
330
47
102
}
330
47
100
AcDbScale
 70
     0
300
1-1/2" = 1'-0"
140
1.5
141
12.0
290
     0
  0
SCALE
  5
66
102
{ACAD_REACTORS
330
47
102
}
330
47
100
AcDbScale
 70
     0
300
3" = 1'-0"
140
3.0
141
12.0
290
     0
  0
SCALE
  5
67
102
{ACAD_REACTORS
330
47
102
}
330
47
100
AcDbScale
 70
     0
300
6" = 1'-0"
140
6.0
141
12.0
290
     0
  0
SCALE
  5
68
102
{ACAD_REACTORS
330
47
102
}
330
47
100
AcDbScale
 70
     0
300
1'-0" = 1'-0"
140
12.0
141
12.0
290
     0
  0
TABLESTYLE
  5
6A
102
{ACAD_REACTORS
330
69
102
}
102
{ACAD_XDICTIONARY
360
2E3
102
}
330
69
100
AcDbTableStyle
  3
Standard
 70
     0
 71
     0
 40
0.06
 41
0.06
280
     0
281
     0
  7
Standard
140
4.5
170
     2
 62
     0
 63
   257
283
     0
274
    -2
284
     1
 64
     0
275
    -2
285
     1
 65
     0
276
    -2
286
     1
 66
     0
277
    -2
287
     1
 67
     0
278
    -2
288
     1
 68
     0
279
    -2
289
     1
 69
     0
  7
Standard
140
6.0
170
     5
 62
     0
 63
   257
283
     0
274
    -2
284
     1
 64
     0
275
    -2
285
     1
 65
     0
276
    -2
286
     1
 66
     0
277
    -2
287
     1
 67
     0
278
    -2
288
     1
 68
     0
279
    -2
289
     1
 69
     0
  7
Standard
140
4.5
170
     5
 62
     0
 63
   257
283
     0
274
    -2
284
     1
 64
     0
275
    -2
285
     1
 65
     0
276
    -2
286
     1
 66
     0
277
    -2
287
     1
 67
     0
278
    -2
288
     1
 68
     0
279
    -2
289
     1
 69
     0
  0
VISUALSTYLE
  5
2F
102
{ACAD_REACTORS
330
2A
102
}
102
{ACAD_XDICTIONARY
360
2B5
102
}
330
2A
100
AcDbVisualStyle
  2
2dWireframe
 70
     4
 71
     0
 72
     2
 73
     0
 90
        0
 40
0.6
 41
30.0
 62
     5
 63
     7
421
 16777215
 74
     1
 91
        4
 64
     7
 65
   257
 75
     1
175
     1
 42
1.0
 92
        0
 66
   257
 43
1.0
 76
     1
 77
     6
 78
     2
 67
     7
 79
     5
170
     0
171
     0
290
     0
174
     0
 93
        1
 44
0.0
173
     0
291
     0
 45
0.0
1001
ACAD
1000
AcDbSavedByObjectVersion
1070
     0
  0
VISUALSTYLE
  5
32
102
{ACAD_REACTORS
330
2A
102
}
102
{ACAD_XDICTIONARY
360
2BB
102
}
330
2A
100
AcDbVisualStyle
  2
Basic
 70
     7
 71
     1
 72
     0
 73
     1
 90
        0
 40
0.6
 41
30.0
 62
     5
 63
     7
421
 16777215
 74
     0
 91
        4
 64
     7
 65
   257
 75
     1
175
     1
 42
1.0
 92
        8
 66
     7
 43
1.0
 76
     1
 77
     6
 78
     2
 67
     7
 79
     5
170
     0
171
     0
290
     0
174
     0
 93
        1
 44
0.0
173
     0
291
     1
 45
0.0
1001
ACAD
1000
AcDbSavedByObjectVersion
1070
     0
  0
VISUALSTYLE
  5
36
102
{ACAD_REACTORS
330
2A
102
}
102
{ACAD_XDICTIONARY
360
2C3
102
}
330
2A
100
AcDbVisualStyle
  2
Brighten
 70
    12
 71
     2
 72
     2
 73
     0
 90
        0
 40
0.6
 41
30.0
 62
     5
 63
     7
421
 16777215
 74
     1
 91
        4
 64
     7
 65
   257
 75
     1
175
     1
 42
1.0
 92
        8
 66
     7
 43
1.0
 76
     1
 77
     6
 78
     2
 67
     7
 79
     5
170
     0
171
     0
290
     0
174
     0
 93
        1
 44
50.0
173
     0
291
     1
 45
0.0
1001
ACAD
1000
AcDbSavedByObjectVersion
1070
     0
  0
VISUALSTYLE
  5
3A
102
{ACAD_REACTORS
330
2A
102
}
102
{ACAD_XDICTIONARY
360
2CB
102
}
330
2A
100
AcDbVisualStyle
  2
ColorChange
 70
    16
 71
     2
 72
     2
 73
     3
 90
        0
 40
0.6
 41
30.0
 62
     5
 63
     8
421
  8421504
 74
     1
 91
        4
 64
     7
 65
   257
 75
     1
175
     1
 42
1.0
 92
        8
 66
     8
424
  8421504
 43
1.0
 76
     1
 77
     6
 78
     2
 67
     7
 79
     5
170
     0
171
     0
290
     0
174
     0
 93
        1
 44
0.0
173
     0
291
     1
 45
0.0
1001
ACAD
1000
AcDbSavedByObjectVersion
1070
     0
  0
VISUALSTYLE
  5
34
102
{ACAD_REACTORS
330
2A
102
}
102
{ACAD_XDICTIONARY
360
2BF
102
}
330
2A
100
AcDbVisualStyle
  2
Conceptual
 70
     9
 71
     3
 72
     2
 73
     0
 90
        0
 40
0.6
 41
30.0
 62
     5
 63
     7
421
 16777215
 74
     2
 91
        2
 64
     7
 65
   257
 75
     1
175
     1
 42
179.0
 92
        8
 66
     7
 43
1.0
 76
     1
 77
     6
 78
     2
 67
     7
 79
     3
170
     0
171
     0
290
     0
174
     0
 93
        1
 44
0.0
173
     0
291
     0
 45
0.0
1001
ACAD
1000
AcDbSavedByObjectVersion
1070
     0
  0
VISUALSTYLE
  5
35
102
{ACAD_REACTORS
330
2A
102
}
102
{ACAD_XDICTIONARY
360
2C1
102
}
330
2A
100
AcDbVisualStyle
  2
Dim
 70
    11
 71
     2
 72
     2
 73
     0
 90
        0
 40
0.6
 41
30.0
 62
     5
 63
     7
421
 16777215
 74
     1
 91
        4
 64
     7
 65
   257
 75
     1
175
     1
 42
1.0
 92
        8
 66
     7
 43
1.0
 76
     1
 77
     6
 78
     2
 67
     7
 79
     5
170
     0
171
     0
290
     0
174
     0
 93
        1
 44
-50.0
173
     0
291
     1
 45
0.0
1001
ACAD
1000
AcDbSavedByObjectVersion
1070
     0
  0
VISUALSTYLE
  5
3D
102
{ACAD_REACTORS
330
2A
102
}
102
{ACAD_XDICTIONARY
360
2D1
102
}
330
2A
100
AcDbVisualStyle
  2
EdgeColorOff
 70
    22
 71
     2
 72
     2
 73
     0
 90
        0
 40
0.6
 41
30.0
 62
     5
 63
     7
421
 16777215
 74
     1
 91
        4
 64
     7
 65
   257
 75
     1
175
     1
 42
1.0
 92
        8
 66
     7
 43
1.0
 76
     1
 77
     6
 78
     2
 67
     7
 79
     5
170
     0
171
     0
290
     0
174
     0
 93
        1
 44
0.0
173
     0
291
     1
 45
0.0
1001
ACAD
1000
AcDbSavedByObjectVersion
1070
     0
  0
VISUALSTYLE
  5
39
102
{ACAD_REACTORS
330
2A
102
}
102
{ACAD_XDICTIONARY
360
2C9
102
}
330
2A
100
AcDbVisualStyle
  2
Facepattern
 70
    15
 71
     2
 72
     2
 73
     0
 90
        0
 40
0.6
 41
30.0
 62
     5
 63
     7
421
 16777215
 74
     1
 91
        4
 64
     7
 65
   257
 75
     1
175
     1
 42
1.0
 92
        8
 66
     7
 43
1.0
 76
     1
 77
     6
 78
     2
 67
     7
 79
     5
170
     0
171
     0
290
     0
174
     0
 93
        1
 44
0.0
173
     0
291
     1
 45
0.0
1001
ACAD
1000
AcDbSavedByObjectVersion
1070
     0
  0
VISUALSTYLE
  5
2B
102
{ACAD_REACTORS
330
2A
102
}
102
{ACAD_XDICTIONARY
360
2AD
102
}
330
2A
100
AcDbVisualStyle
  2
Flat
 70
     0
 71
     2
 72
     1
 73
     1
 90
        2
 40
0.6
 41
30.0
 62
     5
 63
     7
421
 16777215
 74
     0
 91
        0
 64
     7
 65
   257
 75
     1
175
     1
 42
1.0
 92
        8
 66
     7
 43
1.0
 76
     1
 77
     6
 78
     2
 67
     7
 79
     5
170
     0
171
     0
290
     0
174
     0
 93
       13
 44
0.0
173
     0
291
     1
 45
0.0
1001
ACAD
1000
AcDbSavedByObjectVersion
1070
     0
  0
VISUALSTYLE
  5
2C
102
{ACAD_REACTORS
330
2A
102
}
102
{ACAD_XDICTIONARY
360
2AF
102
}
330
2A
100
AcDbVisualStyle
  2
FlatWithEdges
 70
     1
 71
     2
 72
     1
 73
     1
 90
        2
 40
0.6
 41
30.0
 62
     5
 63
     7
421
 16777215
 74
     1
 91
        0
 64
     7
 65
   257
 75
     1
175
     1
 42
1.0
 92
        0
 66
   257
 43
1.0
 76
     1
 77
     6
 78
     2
 67
     7
 79
     5
170
     0
171
     0
290
     0
174
     0
 93
       13
 44
0.0
173
     0
291
     1
 45
0.0
1001
ACAD
1000
AcDbSavedByObjectVersion
1070
     0
  0
VISUALSTYLE
  5
2D
102
{ACAD_REACTORS
330
2A
102
}
102
{ACAD_XDICTIONARY
360
2B1
102
}
330
2A
100
AcDbVisualStyle
  2
Gouraud
 70
     2
 71
     2
 72
     2
 73
     1
 90
        2
 40
0.6
 41
30.0
 62
     5
 63
     7
421
 16777215
 74
     0
 91
        0
 64
     7
 65
   257
 75
     1
175
     1
 42
1.0
 92
        0
 66
     7
 43
1.0
 76
     1
 77
     6
 78
     2
 67
     7
 79
     5
170
     0
171
     0
290
     0
174
     0
 93
       13
 44
0.0
173
     0
291
     1
 45
0.0
1001
ACAD
1000
AcDbSavedByObjectVersion
1070
     0
  0
VISUALSTYLE
  5
2E
102
{ACAD_REACTORS
330
2A
102
}
102
{ACAD_XDICTIONARY
360
2B3
102
}
330
2A
100
AcDbVisualStyle
  2
GouraudWithEdges
 70
     3
 71
     2
 72
     2
 73
     1
 90
        2
 40
0.6
 41
30.0
 62
     5
 63
     7
421
 16777215
 74
     1
 91
        0
 64
     7
 65
   257
 75
     1
175
     1
 42
1.0
 92
        0
 66
   257
 43
1.0
 76
     1
 77
     6
 78
     2
 67
     7
 79
     5
170
     0
171
     0
290
     0
174
     0
 93
       13
 44
0.0
173
     0
291
     1
 45
0.0
1001
ACAD
1000
AcDbSavedByObjectVersion
1070
     0
  0
VISUALSTYLE
  5
31
102
{ACAD_REACTORS
330
2A
102
}
102
{ACAD_XDICTIONARY
360
2B9
102
}
330
2A
100
AcDbVisualStyle
  2
Hidden
 70
     6
 71
     1
 72
     2
 73
     2
 90
        0
 40
0.6
 41
30.0
 62
     5
 63
     7
421
 16777215
 74
     2
 91
        2
 64
     7
 65
   257
 75
     2
175
     1
 42
40.0
 92
        0
 66
   257
 43
1.0
 76
     1
 77
     6
 78
     2
 67
     7
 79
     3
170
     0
171
     0
290
     0
174
     0
 93
        1
 44
0.0
173
     0
291
     0
 45
0.0
1001
ACAD
1000
AcDbSavedByObjectVersion
1070
     0
  0
VISUALSTYLE
  5
3B
102
{ACAD_REACTORS
330
2A
102
}
102
{ACAD_XDICTIONARY
360
2CD
102
}
330
2A
100
AcDbVisualStyle
  2
JitterOff
 70
    20
 71
     2
 72
     2
 73
     0
 90
        0
 40
0.6
 41
30.0
 62
     5
 63
     7
421
 16777215
 74
     1
 91
        4
 64
     7
 65
   257
 75
     1
175
     1
 42
1.0
 92
       10
 66
     7
 43
1.0
 76
     1
 77
     6
 78
     2
 67
     7
 79
     5
170
     0
171
     0
290
     0
174
     0
 93
        1
 44
0.0
173
     0
291
     1
 45
0.0
1001
ACAD
1000
AcDbSavedByObjectVersion
1070
     0
  0
VISUALSTYLE
  5
38
102
{ACAD_REACTORS
330
2A
102
}
102
{ACAD_XDICTIONARY
360
2C7
102
}
330
2A
100
AcDbVisualStyle
  2
Linepattern
 70
    14
 71
     2
 72
     2
 73
     0
 90
        0
 40
0.6
 41
30.0
 62
     5
 63
     7
421
 16777215
 74
     1
 91
        4
 64
     7
 65
   257
 75
     7
175
     7
 42
1.0
 92
        8
 66
     7
 43
1.0
 76
     1
 77
     6
 78
     2
 67
     7
 79
     5
170
     0
171
     0
290
     0
174
     0
 93
        1
 44
0.0
173
     0
291
     1
 45
0.0
1001
ACAD
1000
AcDbSavedByObjectVersion
1070
     0
  0
VISUALSTYLE
  5
3C
102
{ACAD_REACTORS
330
2A
102
}
102
{ACAD_XDICTIONARY
360
2CF
102
}
330
2A
100
AcDbVisualStyle
  2
OverhangOff
 70
    21
 71
     2
 72
     2
 73
     0
 90
        0
 40
0.6
 41
30.0
 62
     5
 63
     7
421
 16777215
 74
     1
 91
        4
 64
     7
 65
   257
 75
     1
175
     1
 42
1.0
 92
        9
 66
     7
 43
1.0
 76
     1
 77
     6
 78
     2
 67
     7
 79
     5
170
     0
171
     0
290
     0
174
     0
 93
        1
 44
0.0
173
     0
291
     1
 45
0.0
1001
ACAD
1000
AcDbSavedByObjectVersion
1070
     0
  0
VISUALSTYLE
  5
33
102
{ACAD_REACTORS
330
2A
102
}
102
{ACAD_XDICTIONARY
360
2BD
102
}
330
2A
100
AcDbVisualStyle
  2
Realistic
 70
     8
 71
     2
 72
     3
 73
     0
 90
        2
 40
0.6
 41
30.0
 62
     5
 63
     7
421
 16777215
 74
     0
 91
        0
 64
     7
 65
   257
 75
     1
175
     1
 42
1.0
 92
        8
 66
   257
 43
1.0
 76
     1
 77
     6
 78
     2
 67
     7
 79
     3
170
     0
171
     0
290
     0
174
     0
 93
       13
 44
0.0
173
     0
291
     0
 45
0.0
1001
ACAD
1000
AcDbSavedByObjectVersion
1070
     0
  0
VISUALSTYLE
  5
42
102
{ACAD_REACTORS
330
2A
102
}
102
{ACAD_XDICTIONARY
360
2DB
102
}
330
2A
100
AcDbVisualStyle
  2
Shaded
 70
    27
 71
     2
 72
     2
 73
     1
 90
        2
 40
0.6
 41
30.0
 62
     5
 63
     7
421
 16777215
 74
     0
 91
        4
 64
     7
 65
   257
 75
     1
175
     1
 42
1.0
 92
        8
 66
   257
 43
1.0
 76
     1
 77
     6
 78
     2
 67
     8
425
  7895160
 79
     3
170
     0
171
     0
290
     0
174
     0
 93
        5
 44
0.0
173
     0
291
     0
 45
0.0
1001
ACAD
1000
AcDbSavedByObjectVersion
1070
     0
  0
VISUALSTYLE
  5
41
102
{ACAD_REACTORS
330
2A
102
}
102
{ACAD_XDICTIONARY
360
2D9
102
}
330
2A
100
AcDbVisualStyle
  2
Shaded with edges
 70
    26
 71
     2
 72
     2
 73
     1
 90
        2
 40
0.6
 41
30.0
 62
     5
 63
     7
421
 16777215
 74
     1
 91
       10
 64
     7
 65
   257
 75
     2
175
     1
 42
1.0
 92
        8
 66
   257
 43
1.0
 76
     1
 77
     6
 78
     2
 67
     7
 79
     3
170
     0
171
     0
290
     0
174
     0
 93
        5
 44
0.0
173
     0
291
     0
 45
0.0
1001
ACAD
1000
AcDbSavedByObjectVersion
1070
     0
  0
VISUALSTYLE
  5
3E
102
{ACAD_REACTORS
330
2A
102
}
102
{ACAD_XDICTIONARY
360
2D3
102
}
330
2A
100
AcDbVisualStyle
  2
Shades of Gray
 70
    23
 71
     2
 72
     2
 73
     3
 90
        0
 40
0.6
 41
30.0
 62
     5
 63
     7
421
 16777215
 74
     2
 91
        2
 64
     7
 65
     7
 75
     1
175
     1
 42
40.0
 92
        8
 66
     7
 43
1.0
 76
     1
 77
     6
 78
     2
 67
     7
 79
     3
170
     0
171
     0
290
     0
174
     0
 93
        1
 44
0.0
173
     0
291
     0
 45
0.0
1001
ACAD
1000
AcDbSavedByObjectVersion
1070
     0
  0
VISUALSTYLE
  5
3F
102
{ACAD_REACTORS
330
2A
102
}
102
{ACAD_XDICTIONARY
360
2D5
102
}
330
2A
100
AcDbVisualStyle
  2
Sketchy
 70
    24
 71
     1
 72
     2
 73
     2
 90
        0
 40
0.6
 41
30.0
 62
     5
 63
     7
421
 16777215
 74
     2
 91
        2
 64
     7
 65
     7
 75
     1
175
     1
 42
40.0
 92
       11
 66
     7
 43
1.0
 76
     1
 77
     6
 78
     2
 67
     7
 79
     6
170
     0
171
     0
290
     0
174
     0
 93
        1
 44
0.0
173
     0
291
     0
 45
0.0
1001
ACAD
1000
AcDbSavedByObjectVersion
1070
     0
  0
VISUALSTYLE
  5
37
102
{ACAD_REACTORS
330
2A
102
}
102
{ACAD_XDICTIONARY
360
2C5
102
}
330
2A
100
AcDbVisualStyle
  2
Thicken
 70
    13
 71
     2
 72
     2
 73
     0
 90
        0
 40
0.6
 41
30.0
 62
     5
 63
     7
421
 16777215
 74
     1
 91
        4
 64
     7
 65
   257
 75
     1
175
     1
 42
1.0
 92
       12
 66
     7
 43
1.0
 76
     1
 77
     6
 78
     2
 67
     7
 79
     5
170
     0
171
     0
290
     0
174
     0
 93
        1
 44
0.0
173
     0
291
     1
 45
0.0
1001
ACAD
1000
AcDbSavedByObjectVersion
1070
     0
  0
VISUALSTYLE
  5
30
102
{ACAD_REACTORS
330
2A
102
}
102
{ACAD_XDICTIONARY
360
2B7
102
}
330
2A
100
AcDbVisualStyle
  2
Wireframe
 70
     5
 71
     0
 72
     2
 73
     0
 90
        0
 40
0.6
 41
30.0
 62
     5
 63
     7
421
 16777215
 74
     1
 91
        4
 64
     7
 65
   257
 75
     1
175
     1
 42
1.0
 92
        0
 66
   257
 43
1.0
 76
     1
 77
     6
 78
     2
 67
     7
 79
     3
170
     0
171
     0
290
     0
174
     0
 93
        1
 44
0.0
173
     0
291
     0
 45
0.0
1001
ACAD
1000
AcDbSavedByObjectVersion
1070
     0
  0
VISUALSTYLE
  5
40
102
{ACAD_REACTORS
330
2A
102
}
102
{ACAD_XDICTIONARY
360
2D7
102
}
330
2A
100
AcDbVisualStyle
  2
X-Ray
 70
    25
 71
     2
 72
     2
 73
     1
 90
        1
 40
0.5
 41
30.0
 62
     5
 63
     7
421
 16777215
 74
     1
 91
        0
 64
     7
 65
   257
 75
     1
175
     1
 42
1.0
 92
        8
 66
     7
 43
1.0
 76
     1
 77
     6
 78
     2
 67
     7
 79
     3
170
     0
171
     0
290
     0
174
     0
 93
       13
 44
0.0
173
     0
291
     0
 45
0.0
1001
ACAD
1000
AcDbSavedByObjectVersion
1070
     0
  0
DICTIONARYVAR
  5
2AA
102
{ACAD_REACTORS
330
2A9
102
}
330
2A9
100
DictionaryVariables
280
     0
  1
1:1
  0
DICTIONARYVAR
  5
2EE
102
{ACAD_REACTORS
330
2A9
102
}
330
2A9
100
DictionaryVariables
280
     0
  1
3.500000
  0
DICTIONARYVAR
  5
2EF
102
{ACAD_REACTORS
330
2A9
102
}
330
2A9
100
DictionaryVariables
280
     0
  1
acadiso.lin
  0
DICTIONARYVAR
  5
2EB
102
{ACAD_REACTORS
330
2A9
102
}
330
2A9
100
DictionaryVariables
280
     0
  1
Standard
  0
DICTIONARYVAR
  5
2EA
102
{ACAD_REACTORS
330
2A9
102
}
330
2A9
100
DictionaryVariables
280
     0
  1
Standard
  0
DICTIONARYVAR
  5
2AB
102
{ACAD_REACTORS
330
2A9
102
}
330
2A9
100
DictionaryVariables
280
     0
  1
1
  0
DICTIONARYVAR
  5
2AC
102
{ACAD_REACTORS
330
2A9
102
}
330
2A9
100
DictionaryVariables
280
     0
  1
2
  0
DICTIONARY
  5
2DF
330
45
100
AcDbDictionary
280
     1
281
     1
  3
ACAD_XREC_ROUNDTRIP
360
2E0
  0
DICTIONARY
  5
2DD
330
44
100
AcDbDictionary
280
     1
281
     1
  3
ACAD_XREC_ROUNDTRIP
360
2DE
  0
DICTIONARY
  5
2E1
330
46
100
AcDbDictionary
280
     1
281
     1
  3
ACAD_XREC_ROUNDTRIP
360
2E2
  0
DICTIONARY
  5
2E7
330
6C
100
AcDbDictionary
280
     1
281
     1
  3
ACAD_XREC_ROUNDTRIP
360
2E8
  0
DICTIONARY
  5
2E3
330
6A
100
AcDbDictionary
280
     1
281
     1
  3
ACAD_ROUNDTRIP_2008_TABLESTYLE_CELLSTYLEMAP
360
2E5
  3
ACAD_XREC_ROUNDTRIP
360
2E4
  0
DICTIONARY
  5
2B5
330
2F
100
AcDbDictionary
280
     1
281
     1
  3
ACAD_XREC_ROUNDTRIP
360
2B6
  0
DICTIONARY
  5
2BB
330
32
100
AcDbDictionary
280
     1
281
     1
  3
ACAD_XREC_ROUNDTRIP
360
2BC
  0
DICTIONARY
  5
2C3
330
36
100
AcDbDictionary
280
     1
281
     1
  3
ACAD_XREC_ROUNDTRIP
360
2C4
  0
DICTIONARY
  5
2CB
330
3A
100
AcDbDictionary
280
     1
281
     1
  3
ACAD_XREC_ROUNDTRIP
360
2CC
  0
DICTIONARY
  5
2BF
330
34
100
AcDbDictionary
280
     1
281
     1
  3
ACAD_XREC_ROUNDTRIP
360
2C0
  0
DICTIONARY
  5
2C1
330
35
100
AcDbDictionary
280
     1
281
     1
  3
ACAD_XREC_ROUNDTRIP
360
2C2
  0
DICTIONARY
  5
2D1
330
3D
100
AcDbDictionary
280
     1
281
     1
  3
ACAD_XREC_ROUNDTRIP
360
2D2
  0
DICTIONARY
  5
2C9
330
39
100
AcDbDictionary
280
     1
281
     1
  3
ACAD_XREC_ROUNDTRIP
360
2CA
  0
DICTIONARY
  5
2AD
330
2B
100
AcDbDictionary
280
     1
281
     1
  3
ACAD_XREC_ROUNDTRIP
360
2AE
  0
DICTIONARY
  5
2AF
330
2C
100
AcDbDictionary
280
     1
281
     1
  3
ACAD_XREC_ROUNDTRIP
360
2B0
  0
DICTIONARY
  5
2B1
330
2D
100
AcDbDictionary
280
     1
281
     1
  3
ACAD_XREC_ROUNDTRIP
360
2B2
  0
DICTIONARY
  5
2B3
330
2E
100
AcDbDictionary
280
     1
281
     1
  3
ACAD_XREC_ROUNDTRIP
360
2B4
  0
DICTIONARY
  5
2B9
330
31
100
AcDbDictionary
280
     1
281
     1
  3
ACAD_XREC_ROUNDTRIP
360
2BA
  0
DICTIONARY
  5
2CD
330
3B
100
AcDbDictionary
280
     1
281
     1
  3
ACAD_XREC_ROUNDTRIP
360
2CE
  0
DICTIONARY
  5
2C7
330
38
100
AcDbDictionary
280
     1
281
     1
  3
ACAD_XREC_ROUNDTRIP
360
2C8
  0
DICTIONARY
  5
2CF
330
3C
100
AcDbDictionary
280
     1
281
     1
  3
ACAD_XREC_ROUNDTRIP
360
2D0
  0
DICTIONARY
  5
2BD
330
33
100
AcDbDictionary
280
     1
281
     1
  3
ACAD_XREC_ROUNDTRIP
360
2BE
  0
DICTIONARY
  5
2DB
330
42
100
AcDbDictionary
280
     1
281
     1
  3
ACAD_XREC_ROUNDTRIP
360
2DC
  0
DICTIONARY
  5
2D9
330
41
100
AcDbDictionary
280
     1
281
     1
  3
ACAD_XREC_ROUNDTRIP
360
2DA
  0
DICTIONARY
  5
2D3
330
3E
100
AcDbDictionary
280
     1
281
     1
  3
ACAD_XREC_ROUNDTRIP
360
2D4
  0
DICTIONARY
  5
2D5
330
3F
100
AcDbDictionary
280
     1
281
     1
  3
ACAD_XREC_ROUNDTRIP
360
2D6
  0
DICTIONARY
  5
2C5
330
37
100
AcDbDictionary
280
     1
281
     1
  3
ACAD_XREC_ROUNDTRIP
360
2C6
  0
DICTIONARY
  5
2B7
330
30
100
AcDbDictionary
280
     1
281
     1
  3
ACAD_XREC_ROUNDTRIP
360
2B8
  0
DICTIONARY
  5
2D7
330
40
100
AcDbDictionary
280
     1
281
     1
  3
ACAD_XREC_ROUNDTRIP
360
2D8
  0
XRECORD
  5
2E0
102
{ACAD_REACTORS
330
2DF
102
}
330
2DF
100
AcDbXrecord
280
     1
102
MATERIAL
148
0.0
149
0.0
149
0.0
 93
        0
 94
      127
282
     0
 72
     1
 77
     1
171
     1
175
     1
179
     1
273
     0
  0
XRECORD
  5
2DE
102
{ACAD_REACTORS
330
2DD
102
}
330
2DD
100
AcDbXrecord
280
     1
102
MATERIAL
148
0.0
149
0.0
149
0.0
 93
        0
 94
      127
282
     0
 72
     1
 77
     1
171
     1
175
     1
179
     1
273
     0
  0
XRECORD
  5
2E2
102
{ACAD_REACTORS
330
2E1
102
}
330
2E1
100
AcDbXrecord
280
     1
102
MATERIAL
148
0.0
149
0.0
149
0.0
 93
        0
 94
      127
282
     0
 72
     1
 77
     1
171
     1
175
     1
179
     1
273
     0
  0
XRECORD
  5
2E8
102
{ACAD_REACTORS
330
2E7
102
}
330
2E7
100
AcDbXrecord
280
     1
102
ACAD_ROUNDTRIP_2010_MLEADER_STYLE
  0
CELLSTYLEMAP
  5
2E5
102
{ACAD_REACTORS
330
2E3
102
}
330
2E3
100
AcDbCellStyleMap
 90
        3
300
CELLSTYLE
  1
TABLEFORMAT_BEGIN
 90
        5
170
     1
 91
        0
 92
    32768
 62
   257
 93
        1
300
CONTENTFORMAT
  1
CONTENTFORMAT_BEGIN
 90
        0
 91
        0
 92
        4
 93
        0
300

 40
0.0
140
1.0
 94
        5
 62
     0
340
11
144
6.0
309
CONTENTFORMAT_END
171
     1
301
MARGIN
  1
CELLMARGIN_BEGIN
 40
1.5
 40
1.5
 40
1.5
 40
1.5
 40
1.5
 40
1.5
309
CELLMARGIN_END
 94
        6
 95
        1
302
GRIDFORMAT
  1
GRIDFORMAT_BEGIN
 90
        0
 91
        1
 62
     0
 92
       -2
340
14
 93
        0
 40
0.045
309
GRIDFORMAT_END
 95
        2
302
GRIDFORMAT
  1
GRIDFORMAT_BEGIN
 90
        0
 91
        1
 62
     0
 92
       -2
340
14
 93
        0
 40
0.045
309
GRIDFORMAT_END
 95
        4
302
GRIDFORMAT
  1
GRIDFORMAT_BEGIN
 90
        0
 91
        1
 62
     0
 92
       -2
340
14
 93
        0
 40
0.045
309
GRIDFORMAT_END
 95
        8
302
GRIDFORMAT
  1
GRIDFORMAT_BEGIN
 90
        0
 91
        1
 62
     0
 92
       -2
340
14
 93
        0
 40
0.045
309
GRIDFORMAT_END
 95
       16
302
GRIDFORMAT
  1
GRIDFORMAT_BEGIN
 90
        0
 91
        1
 62
     0
 92
       -2
340
14
 93
        0
 40
0.045
309
GRIDFORMAT_END
 95
       32
302
GRIDFORMAT
  1
GRIDFORMAT_BEGIN
 90
        0
 91
        1
 62
     0
 92
       -2
340
14
 93
        0
 40
0.045
309
GRIDFORMAT_END
309
TABLEFORMAT_END
  1
CELLSTYLE_BEGIN
 90
        1
 91
        1
300
_TITLE
309
CELLSTYLE_END
300
CELLSTYLE
  1
TABLEFORMAT_BEGIN
 90
        5
170
     1
 91
        0
 92
        0
 62
   257
 93
        1
300
CONTENTFORMAT
  1
CONTENTFORMAT_BEGIN
 90
        0
 91
        0
 92
        4
 93
        0
300

 40
0.0
140
1.0
 94
        5
 62
     0
340
11
144
4.5
309
CONTENTFORMAT_END
171
     1
301
MARGIN
  1
CELLMARGIN_BEGIN
 40
1.5
 40
1.5
 40
1.5
 40
1.5
 40
1.5
 40
1.5
309
CELLMARGIN_END
 94
        6
 95
        1
302
GRIDFORMAT
  1
GRIDFORMAT_BEGIN
 90
        0
 91
        1
 62
     0
 92
       -2
340
14
 93
        0
 40
0.045
309
GRIDFORMAT_END
 95
        2
302
GRIDFORMAT
  1
GRIDFORMAT_BEGIN
 90
        0
 91
        1
 62
     0
 92
       -2
340
14
 93
        0
 40
0.045
309
GRIDFORMAT_END
 95
        4
302
GRIDFORMAT
  1
GRIDFORMAT_BEGIN
 90
        0
 91
        1
 62
     0
 92
       -2
340
14
 93
        0
 40
0.045
309
GRIDFORMAT_END
 95
        8
302
GRIDFORMAT
  1
GRIDFORMAT_BEGIN
 90
        0
 91
        1
 62
     0
 92
       -2
340
14
 93
        0
 40
0.045
309
GRIDFORMAT_END
 95
       16
302
GRIDFORMAT
  1
GRIDFORMAT_BEGIN
 90
        0
 91
        1
 62
     0
 92
       -2
340
14
 93
        0
 40
0.045
309
GRIDFORMAT_END
 95
       32
302
GRIDFORMAT
  1
GRIDFORMAT_BEGIN
 90
        0
 91
        1
 62
     0
 92
       -2
340
14
 93
        0
 40
0.045
309
GRIDFORMAT_END
309
TABLEFORMAT_END
  1
CELLSTYLE_BEGIN
 90
        2
 91
        1
300
_HEADER
309
CELLSTYLE_END
300
CELLSTYLE
  1
TABLEFORMAT_BEGIN
 90
        5
170
     1
 91
        0
 92
        0
 62
   257
 93
        1
300
CONTENTFORMAT
  1
CONTENTFORMAT_BEGIN
 90
        0
 91
        0
 92
        4
 93
        0
300

 40
0.0
140
1.0
 94
        2
 62
     0
340
11
144
4.5
309
CONTENTFORMAT_END
171
     1
301
MARGIN
  1
CELLMARGIN_BEGIN
 40
1.5
 40
1.5
 40
1.5
 40
1.5
 40
1.5
 40
1.5
309
CELLMARGIN_END
 94
        6
 95
        1
302
GRIDFORMAT
  1
GRIDFORMAT_BEGIN
 90
        0
 91
        1
 62
     0
 92
       -2
340
14
 93
        0
 40
0.045
309
GRIDFORMAT_END
 95
        2
302
GRIDFORMAT
  1
GRIDFORMAT_BEGIN
 90
        0
 91
        1
 62
     0
 92
       -2
340
14
 93
        0
 40
0.045
309
GRIDFORMAT_END
 95
        4
302
GRIDFORMAT
  1
GRIDFORMAT_BEGIN
 90
        0
 91
        1
 62
     0
 92
       -2
340
14
 93
        0
 40
0.045
309
GRIDFORMAT_END
 95
        8
302
GRIDFORMAT
  1
GRIDFORMAT_BEGIN
 90
        0
 91
        1
 62
     0
 92
       -2
340
14
 93
        0
 40
0.045
309
GRIDFORMAT_END
 95
       16
302
GRIDFORMAT
  1
GRIDFORMAT_BEGIN
 90
        0
 91
        1
 62
     0
 92
       -2
340
14
 93
        0
 40
0.045
309
GRIDFORMAT_END
 95
       32
302
GRIDFORMAT
  1
GRIDFORMAT_BEGIN
 90
        0
 91
        1
 62
     0
 92
       -2
340
14
 93
        0
 40
0.045
309
GRIDFORMAT_END
309
TABLEFORMAT_END
  1
CELLSTYLE_BEGIN
 90
        3
 91
        2
300
_DATA
309
CELLSTYLE_END
  0
XRECORD
  5
2E4
102
{ACAD_REACTORS
330
2E3
102
}
330
2E3
100
AcDbXrecord
280
     1
102
ACAD_ROUNDTRIP_PRE2007_TABLESTYLE
 90
        4
 91
        0
  1

 92
        4
 93
        0
  2

 94
        4
 95
        0
  3

  0
XRECORD
  5
2B6
102
{ACAD_REACTORS
330
2B5
102
}
330
2B5
100
AcDbXrecord
280
     1
102
RTVSPropertyOp0
 70
     1
102
RTVSPropertyOp1
 70
     1
102
RTVSPropertyOp2
 70
     1
102
RTVSPropertyOp3
 70
     1
102
RTVSPropertyOp4
 70
     1
102
RTVSPropertyOp5
 70
     1
102
RTVSPropertyOp6
 70
     1
102
RTVSPropertyOp7
 70
     1
102
RTVSPropertyOp8
 70
     1
102
RTVSPropertyOp9
 70
     1
102
RTVSPropertyOp10
 70
     1
102
RTVSPropertyOp11
 70
     1
102
RTVSPropertyOp12
 70
     1
102
RTVSPropertyOp13
 70
     1
102
RTVSPropertyOp14
 70
     1
102
RTVSPropertyOp15
 70
     1
102
RTVSPropertyOp16
 70
     1
102
RTVSPropertyOp17
 70
     1
102
RTVSPropertyOp18
 70
     1
102
RTVSPropertyOp19
 70
     1
102
RTVSPropertyOp20
 70
     1
102
RTVSPropertyOp21
 70
     1
102
RTVSPropertyOp22
 70
     1
102
RTVSPropertyOp23
 70
     1
102
RTVSPropertyOp24
 70
     1
102
RTVSPropertyOp25
 70
     1
102
RTVSPropertyOp26
 70
     1
102
RTVSPropertyOp27
 70
     1
102
RTVSPropertyOp28
 70
     1
102
RTVSPropertyOp29
 70
     1
102
RTVSPropertyOp30
 70
     1
102
RTVSPropertyOp31
 70
     1
102
RTVSPropertyOp32
 70
     1
102
RTVSPropertyOp33
 70
     1
102
RTVSPropertyOp34
 70
     1
102
RTVSPropertyOp35
 70
     1
102
RTVSPropertyOp36
 70
     1
102
RTVSPropertyOp37
 70
     1
102
RTVSPropertyOp38
 70
     1
102
RTVSPropertyOp39
 70
     1
102
RTVSPropertyOp40
 70
     1
102
RTVSPropertyOp41
 70
     1
102
RTVSPropertyOp42
 70
     1
102
RTVSPropertyOp43
 70
     1
102
RTVSPropertyOp44
 70
     1
102
RTVSPropertyOp45
 70
     1
102
RTVSPropertyOp46
 70
     1
102
RTVSPropertyOp47
 70
     1
102
RTVSPropertyOp48
 70
     1
102
RTVSPropertyOp49
 70
     1
102
RTVSPropertyOp50
 70
     1
102
RTVSPropertyOp51
 70
     0
102
RTVSPropertyOp52
 70
     0
102
RTVSPropertyOp53
 70
     1
102
RTVSPropertyOp54
 70
     1
102
RTVSPropertyOp55
 70
     1
102
RTVSPropertyOp56
 70
     1
102
RTVSPropertyOp57
 70
     1
102
RTVSPost2010Prop28
280
     1
102
RTVSPost2010PropOp28
 70
     1
102
RTVSPost2010Prop29
280
     1
102
RTVSPost2010PropOp29
 70
     1
102
RTVSPost2010Prop30
280
     0
102
RTVSPost2010PropOp30
 70
     1
102
RTVSPost2010Prop31
280
     0
102
RTVSPost2010PropOp31
 70
     1
102
RTVSPost2010Prop32
280
     0
102
RTVSPost2010PropOp32
 70
     1
102
RTVSPost2010Prop33
280
     0
102
RTVSPost2010PropOp33
 70
     1
102
RTVSPost2010Prop34
280
     0
102
RTVSPost2010PropOp34
 70
     1
102
RTVSPost2010Prop35
280
     0
102
RTVSPost2010PropOp35
 70
     1
102
RTVSPost2010Prop36
280
     0
102
RTVSPost2010PropOp36
 70
     1
102
RTVSPost2010Prop37
 90
       50
102
RTVSPost2010PropOp37
 70
     1
102
RTVSPost2010Prop38
140
0.0
102
RTVSPost2010PropOp38
 70
     1
102
RTVSPost2010Prop39
140
1.0
102
RTVSPost2010PropOp39
 70
     1
102
RTVSPost2010Prop40
 90
        0
102
RTVSPost2010PropOp40
 70
     1
102
RTVSPost2010Prop41ColorIndex
 90
       18
102
RTVSPost2010Prop41ColorRGB
 90
        0
102
RTVSPost2010PropOp41
 70
     1
102
RTVSPost2010Prop42
 90
       50
102
RTVSPost2010PropOp42
 70
     1
102
RTVSPost2010Prop43
 90
        3
102
RTVSPost2010PropOp43
 70
     1
102
RTVSPost2010Prop44ColorIndex
 90
        5
102
RTVSPost2010Prop44ColorRGB
 90
      255
102
RTVSPost2010PropOp44
 70
     1
102
RTVSPost2010Prop45
280
     0
102
RTVSPost2010PropOp45
 70
     1
102
RTVSPost2010Prop46
 90
       50
102
RTVSPost2010PropOp46
 70
     1
102
RTVSPost2010Prop47
 90
       50
102
RTVSPost2010PropOp47
 70
     1
102
RTVSPost2010Prop48
 90
       50
102
RTVSPost2010PropOp48
 70
     1
102
RTVSPost2010Prop49
280
     0
102
RTVSPost2010PropOp49
 70
     1
102
RTVSPost2010Prop50
 90
       50
102
RTVSPost2010PropOp50
 70
     1
102
RTVSPost2010Prop51ColorIndex
 90
      256
102
RTVSPost2010Prop51ColorRGB
 90
-16777216
102
RTVSPost2010PropOp51
 70
     0
102
RTVSPost2010Prop52
140
1.0
102
RTVSPost2010PropOp52
 70
     0
102
RTVSPost2010Prop53
 90
        2
102
RTVSPost2010PropOp53
 70
     1
102
RTVSPost2010Prop54
  1
strokes_ogs.tif
102
RTVSPost2010PropOp54
 70
     1
102
RTVSPost2010Prop55
280
     0
102
RTVSPost2010PropOp55
 70
     1
102
RTVSPost2010Prop56
140
1.0
102
RTVSPost2010PropOp56
 70
     1
102
RTVSPost2010Prop57
140
1.0
102
RTVSPost2010PropOp57
 70
     1
  0
XRECORD
  5
2BC
102
{ACAD_REACTORS
330
2BB
102
}
330
2BB
100
AcDbXrecord
280
     1
102
RTVSPropertyOp0
 70
     1
102
RTVSPropertyOp1
 70
     1
102
RTVSPropertyOp2
 70
     1
102
RTVSPropertyOp3
 70
     1
102
RTVSPropertyOp4
 70
     1
102
RTVSPropertyOp5
 70
     1
102
RTVSPropertyOp6
 70
     1
102
RTVSPropertyOp7
 70
     1
102
RTVSPropertyOp8
 70
     1
102
RTVSPropertyOp9
 70
     1
102
RTVSPropertyOp10
 70
     1
102
RTVSPropertyOp11
 70
     1
102
RTVSPropertyOp12
 70
     1
102
RTVSPropertyOp13
 70
     1
102
RTVSPropertyOp14
 70
     1
102
RTVSPropertyOp15
 70
     1
102
RTVSPropertyOp16
 70
     1
102
RTVSPropertyOp17
 70
     1
102
RTVSPropertyOp18
 70
     1
102
RTVSPropertyOp19
 70
     1
102
RTVSPropertyOp20
 70
     1
102
RTVSPropertyOp21
 70
     1
102
RTVSPropertyOp22
 70
     1
102
RTVSPropertyOp23
 70
     1
102
RTVSPropertyOp24
 70
     1
102
RTVSPropertyOp25
 70
     1
102
RTVSPropertyOp26
 70
     1
102
RTVSPropertyOp27
 70
     1
102
RTVSPropertyOp28
 70
     1
102
RTVSPropertyOp29
 70
     1
102
RTVSPropertyOp30
 70
     1
102
RTVSPropertyOp31
 70
     1
102
RTVSPropertyOp32
 70
     1
102
RTVSPropertyOp33
 70
     1
102
RTVSPropertyOp34
 70
     1
102
RTVSPropertyOp35
 70
     1
102
RTVSPropertyOp36
 70
     1
102
RTVSPropertyOp37
 70
     1
102
RTVSPropertyOp38
 70
     1
102
RTVSPropertyOp39
 70
     1
102
RTVSPropertyOp40
 70
     1
102
RTVSPropertyOp41
 70
     1
102
RTVSPropertyOp42
 70
     1
102
RTVSPropertyOp43
 70
     1
102
RTVSPropertyOp44
 70
     1
102
RTVSPropertyOp45
 70
     1
102
RTVSPropertyOp46
 70
     1
102
RTVSPropertyOp47
 70
     1
102
RTVSPropertyOp48
 70
     1
102
RTVSPropertyOp49
 70
     1
102
RTVSPropertyOp50
 70
     1
102
RTVSPropertyOp51
 70
     0
102
RTVSPropertyOp52
 70
     0
102
RTVSPropertyOp53
 70
     1
102
RTVSPropertyOp54
 70
     1
102
RTVSPropertyOp55
 70
     1
102
RTVSPropertyOp56
 70
     1
102
RTVSPropertyOp57
 70
     1
102
RTVSPost2010Prop28
280
     0
102
RTVSPost2010PropOp28
 70
     1
102
RTVSPost2010Prop29
280
     1
102
RTVSPost2010PropOp29
 70
     1
102
RTVSPost2010Prop30
280
     1
102
RTVSPost2010PropOp30
 70
     1
102
RTVSPost2010Prop31
280
     0
102
RTVSPost2010PropOp31
 70
     1
102
RTVSPost2010Prop32
280
     0
102
RTVSPost2010PropOp32
 70
     1
102
RTVSPost2010Prop33
280
     0
102
RTVSPost2010PropOp33
 70
     1
102
RTVSPost2010Prop34
280
     0
102
RTVSPost2010PropOp34
 70
     1
102
RTVSPost2010Prop35
280
     0
102
RTVSPost2010PropOp35
 70
     1
102
RTVSPost2010Prop36
280
     0
102
RTVSPost2010PropOp36
 70
     1
102
RTVSPost2010Prop37
 90
       50
102
RTVSPost2010PropOp37
 70
     1
102
RTVSPost2010Prop38
140
0.0
102
RTVSPost2010PropOp38
 70
     1
102
RTVSPost2010Prop39
140
1.0
102
RTVSPost2010PropOp39
 70
     1
102
RTVSPost2010Prop40
 90
        0
102
RTVSPost2010PropOp40
 70
     1
102
RTVSPost2010Prop41ColorIndex
 90
       18
102
RTVSPost2010Prop41ColorRGB
 90
        0
102
RTVSPost2010PropOp41
 70
     1
102
RTVSPost2010Prop42
 90
       50
102
RTVSPost2010PropOp42
 70
     1
102
RTVSPost2010Prop43
 90
        3
102
RTVSPost2010PropOp43
 70
     1
102
RTVSPost2010Prop44ColorIndex
 90
        5
102
RTVSPost2010Prop44ColorRGB
 90
      255
102
RTVSPost2010PropOp44
 70
     1
102
RTVSPost2010Prop45
280
     0
102
RTVSPost2010PropOp45
 70
     1
102
RTVSPost2010Prop46
 90
       50
102
RTVSPost2010PropOp46
 70
     1
102
RTVSPost2010Prop47
 90
       50
102
RTVSPost2010PropOp47
 70
     1
102
RTVSPost2010Prop48
 90
       50
102
RTVSPost2010PropOp48
 70
     1
102
RTVSPost2010Prop49
280
     0
102
RTVSPost2010PropOp49
 70
     1
102
RTVSPost2010Prop50
 90
       50
102
RTVSPost2010PropOp50
 70
     1
102
RTVSPost2010Prop51ColorIndex
 90
      256
102
RTVSPost2010Prop51ColorRGB
 90
-16777216
102
RTVSPost2010PropOp51
 70
     0
102
RTVSPost2010Prop52
140
1.0
102
RTVSPost2010PropOp52
 70
     0
102
RTVSPost2010Prop53
 90
        2
102
RTVSPost2010PropOp53
 70
     1
102
RTVSPost2010Prop54
  1
strokes_ogs.tif
102
RTVSPost2010PropOp54
 70
     1
102
RTVSPost2010Prop55
280
     0
102
RTVSPost2010PropOp55
 70
     1
102
RTVSPost2010Prop56
140
1.0
102
RTVSPost2010PropOp56
 70
     1
102
RTVSPost2010Prop57
140
1.0
102
RTVSPost2010PropOp57
 70
     1
  0
XRECORD
  5
2C4
102
{ACAD_REACTORS
330
2C3
102
}
330
2C3
100
AcDbXrecord
280
     1
102
RTVSPropertyOp0
 70
     1
102
RTVSPropertyOp1
 70
     1
102
RTVSPropertyOp2
 70
     1
102
RTVSPropertyOp3
 70
     1
102
RTVSPropertyOp4
 70
     1
102
RTVSPropertyOp5
 70
     1
102
RTVSPropertyOp6
 70
     1
102
RTVSPropertyOp7
 70
     1
102
RTVSPropertyOp8
 70
     1
102
RTVSPropertyOp9
 70
     1
102
RTVSPropertyOp10
 70
     1
102
RTVSPropertyOp11
 70
     1
102
RTVSPropertyOp12
 70
     1
102
RTVSPropertyOp13
 70
     1
102
RTVSPropertyOp14
 70
     1
102
RTVSPropertyOp15
 70
     1
102
RTVSPropertyOp16
 70
     1
102
RTVSPropertyOp17
 70
     1
102
RTVSPropertyOp18
 70
     1
102
RTVSPropertyOp19
 70
     1
102
RTVSPropertyOp20
 70
     1
102
RTVSPropertyOp21
 70
     1
102
RTVSPropertyOp22
 70
     1
102
RTVSPropertyOp23
 70
     1
102
RTVSPropertyOp24
 70
     1
102
RTVSPropertyOp25
 70
     1
102
RTVSPropertyOp26
 70
     1
102
RTVSPropertyOp27
 70
     1
102
RTVSPropertyOp28
 70
     1
102
RTVSPropertyOp29
 70
     1
102
RTVSPropertyOp30
 70
     1
102
RTVSPropertyOp31
 70
     1
102
RTVSPropertyOp32
 70
     1
102
RTVSPropertyOp33
 70
     1
102
RTVSPropertyOp34
 70
     1
102
RTVSPropertyOp35
 70
     1
102
RTVSPropertyOp36
 70
     1
102
RTVSPropertyOp37
 70
     1
102
RTVSPropertyOp38
 70
     1
102
RTVSPropertyOp39
 70
     1
102
RTVSPropertyOp40
 70
     1
102
RTVSPropertyOp41
 70
     1
102
RTVSPropertyOp42
 70
     1
102
RTVSPropertyOp43
 70
     1
102
RTVSPropertyOp44
 70
     1
102
RTVSPropertyOp45
 70
     1
102
RTVSPropertyOp46
 70
     1
102
RTVSPropertyOp47
 70
     1
102
RTVSPropertyOp48
 70
     1
102
RTVSPropertyOp49
 70
     1
102
RTVSPropertyOp50
 70
     1
102
RTVSPropertyOp51
 70
     0
102
RTVSPropertyOp52
 70
     0
102
RTVSPropertyOp53
 70
     1
102
RTVSPropertyOp54
 70
     1
102
RTVSPropertyOp55
 70
     1
102
RTVSPropertyOp56
 70
     1
102
RTVSPropertyOp57
 70
     1
102
RTVSPost2010Prop28
280
     0
102
RTVSPost2010PropOp28
 70
     1
102
RTVSPost2010Prop29
280
     1
102
RTVSPost2010PropOp29
 70
     1
102
RTVSPost2010Prop30
280
     1
102
RTVSPost2010PropOp30
 70
     1
102
RTVSPost2010Prop31
280
     0
102
RTVSPost2010PropOp31
 70
     1
102
RTVSPost2010Prop32
280
     0
102
RTVSPost2010PropOp32
 70
     1
102
RTVSPost2010Prop33
280
     0
102
RTVSPost2010PropOp33
 70
     1
102
RTVSPost2010Prop34
280
     0
102
RTVSPost2010PropOp34
 70
     1
102
RTVSPost2010Prop35
280
     0
102
RTVSPost2010PropOp35
 70
     1
102
RTVSPost2010Prop36
280
     0
102
RTVSPost2010PropOp36
 70
     1
102
RTVSPost2010Prop37
 90
       50
102
RTVSPost2010PropOp37
 70
     1
102
RTVSPost2010Prop38
140
0.0
102
RTVSPost2010PropOp38
 70
     1
102
RTVSPost2010Prop39
140
1.0
102
RTVSPost2010PropOp39
 70
     1
102
RTVSPost2010Prop40
 90
        0
102
RTVSPost2010PropOp40
 70
     1
102
RTVSPost2010Prop41ColorIndex
 90
       18
102
RTVSPost2010Prop41ColorRGB
 90
        0
102
RTVSPost2010PropOp41
 70
     1
102
RTVSPost2010Prop42
 90
       50
102
RTVSPost2010PropOp42
 70
     1
102
RTVSPost2010Prop43
 90
        3
102
RTVSPost2010PropOp43
 70
     1
102
RTVSPost2010Prop44ColorIndex
 90
        5
102
RTVSPost2010Prop44ColorRGB
 90
      255
102
RTVSPost2010PropOp44
 70
     1
102
RTVSPost2010Prop45
280
     0
102
RTVSPost2010PropOp45
 70
     1
102
RTVSPost2010Prop46
 90
       50
102
RTVSPost2010PropOp46
 70
     1
102
RTVSPost2010Prop47
 90
       50
102
RTVSPost2010PropOp47
 70
     1
102
RTVSPost2010Prop48
 90
       50
102
RTVSPost2010PropOp48
 70
     1
102
RTVSPost2010Prop49
280
     0
102
RTVSPost2010PropOp49
 70
     1
102
RTVSPost2010Prop50
 90
       50
102
RTVSPost2010PropOp50
 70
     1
102
RTVSPost2010Prop51ColorIndex
 90
      256
102
RTVSPost2010Prop51ColorRGB
 90
-16777216
102
RTVSPost2010PropOp51
 70
     0
102
RTVSPost2010Prop52
140
1.0
102
RTVSPost2010PropOp52
 70
     0
102
RTVSPost2010Prop53
 90
        2
102
RTVSPost2010PropOp53
 70
     1
102
RTVSPost2010Prop54
  1
strokes_ogs.tif
102
RTVSPost2010PropOp54
 70
     1
102
RTVSPost2010Prop55
280
     0
102
RTVSPost2010PropOp55
 70
     1
102
RTVSPost2010Prop56
140
1.0
102
RTVSPost2010PropOp56
 70
     1
102
RTVSPost2010Prop57
140
1.0
102
RTVSPost2010PropOp57
 70
     1
  0
XRECORD
  5
2CC
102
{ACAD_REACTORS
330
2CB
102
}
330
2CB
100
AcDbXrecord
280
     1
102
RTVSPropertyOp0
 70
     1
102
RTVSPropertyOp1
 70
     1
102
RTVSPropertyOp2
 70
     1
102
RTVSPropertyOp3
 70
     1
102
RTVSPropertyOp4
 70
     1
102
RTVSPropertyOp5
 70
     1
102
RTVSPropertyOp6
 70
     1
102
RTVSPropertyOp7
 70
     1
102
RTVSPropertyOp8
 70
     1
102
RTVSPropertyOp9
 70
     1
102
RTVSPropertyOp10
 70
     1
102
RTVSPropertyOp11
 70
     1
102
RTVSPropertyOp12
 70
     1
102
RTVSPropertyOp13
 70
     1
102
RTVSPropertyOp14
 70
     1
102
RTVSPropertyOp15
 70
     1
102
RTVSPropertyOp16
 70
     1
102
RTVSPropertyOp17
 70
     1
102
RTVSPropertyOp18
 70
     1
102
RTVSPropertyOp19
 70
     1
102
RTVSPropertyOp20
 70
     1
102
RTVSPropertyOp21
 70
     1
102
RTVSPropertyOp22
 70
     1
102
RTVSPropertyOp23
 70
     1
102
RTVSPropertyOp24
 70
     1
102
RTVSPropertyOp25
 70
     1
102
RTVSPropertyOp26
 70
     1
102
RTVSPropertyOp27
 70
     1
102
RTVSPropertyOp28
 70
     1
102
RTVSPropertyOp29
 70
     1
102
RTVSPropertyOp30
 70
     1
102
RTVSPropertyOp31
 70
     1
102
RTVSPropertyOp32
 70
     1
102
RTVSPropertyOp33
 70
     1
102
RTVSPropertyOp34
 70
     1
102
RTVSPropertyOp35
 70
     1
102
RTVSPropertyOp36
 70
     1
102
RTVSPropertyOp37
 70
     1
102
RTVSPropertyOp38
 70
     1
102
RTVSPropertyOp39
 70
     1
102
RTVSPropertyOp40
 70
     1
102
RTVSPropertyOp41
 70
     1
102
RTVSPropertyOp42
 70
     1
102
RTVSPropertyOp43
 70
     1
102
RTVSPropertyOp44
 70
     1
102
RTVSPropertyOp45
 70
     1
102
RTVSPropertyOp46
 70
     1
102
RTVSPropertyOp47
 70
     1
102
RTVSPropertyOp48
 70
     1
102
RTVSPropertyOp49
 70
     1
102
RTVSPropertyOp50
 70
     1
102
RTVSPropertyOp51
 70
     0
102
RTVSPropertyOp52
 70
     0
102
RTVSPropertyOp53
 70
     1
102
RTVSPropertyOp54
 70
     1
102
RTVSPropertyOp55
 70
     1
102
RTVSPropertyOp56
 70
     1
102
RTVSPropertyOp57
 70
     1
102
RTVSPost2010Prop28
280
     0
102
RTVSPost2010PropOp28
 70
     1
102
RTVSPost2010Prop29
280
     1
102
RTVSPost2010PropOp29
 70
     1
102
RTVSPost2010Prop30
280
     1
102
RTVSPost2010PropOp30
 70
     1
102
RTVSPost2010Prop31
280
     0
102
RTVSPost2010PropOp31
 70
     1
102
RTVSPost2010Prop32
280
     0
102
RTVSPost2010PropOp32
 70
     1
102
RTVSPost2010Prop33
280
     0
102
RTVSPost2010PropOp33
 70
     1
102
RTVSPost2010Prop34
280
     0
102
RTVSPost2010PropOp34
 70
     1
102
RTVSPost2010Prop35
280
     0
102
RTVSPost2010PropOp35
 70
     1
102
RTVSPost2010Prop36
280
     0
102
RTVSPost2010PropOp36
 70
     1
102
RTVSPost2010Prop37
 90
       50
102
RTVSPost2010PropOp37
 70
     1
102
RTVSPost2010Prop38
140
0.0
102
RTVSPost2010PropOp38
 70
     1
102
RTVSPost2010Prop39
140
1.0
102
RTVSPost2010PropOp39
 70
     1
102
RTVSPost2010Prop40
 90
        0
102
RTVSPost2010PropOp40
 70
     1
102
RTVSPost2010Prop41ColorIndex
 90
       18
102
RTVSPost2010Prop41ColorRGB
 90
        0
102
RTVSPost2010PropOp41
 70
     1
102
RTVSPost2010Prop42
 90
       50
102
RTVSPost2010PropOp42
 70
     1
102
RTVSPost2010Prop43
 90
        3
102
RTVSPost2010PropOp43
 70
     1
102
RTVSPost2010Prop44ColorIndex
 90
        5
102
RTVSPost2010Prop44ColorRGB
 90
      255
102
RTVSPost2010PropOp44
 70
     1
102
RTVSPost2010Prop45
280
     0
102
RTVSPost2010PropOp45
 70
     1
102
RTVSPost2010Prop46
 90
       50
102
RTVSPost2010PropOp46
 70
     1
102
RTVSPost2010Prop47
 90
       50
102
RTVSPost2010PropOp47
 70
     1
102
RTVSPost2010Prop48
 90
       50
102
RTVSPost2010PropOp48
 70
     1
102
RTVSPost2010Prop49
280
     0
102
RTVSPost2010PropOp49
 70
     1
102
RTVSPost2010Prop50
 90
       50
102
RTVSPost2010PropOp50
 70
     1
102
RTVSPost2010Prop51ColorIndex
 90
      256
102
RTVSPost2010Prop51ColorRGB
 90
-16777216
102
RTVSPost2010PropOp51
 70
     0
102
RTVSPost2010Prop52
140
1.0
102
RTVSPost2010PropOp52
 70
     0
102
RTVSPost2010Prop53
 90
        2
102
RTVSPost2010PropOp53
 70
     1
102
RTVSPost2010Prop54
  1
strokes_ogs.tif
102
RTVSPost2010PropOp54
 70
     1
102
RTVSPost2010Prop55
280
     0
102
RTVSPost2010PropOp55
 70
     1
102
RTVSPost2010Prop56
140
1.0
102
RTVSPost2010PropOp56
 70
     1
102
RTVSPost2010Prop57
140
1.0
102
RTVSPost2010PropOp57
 70
     1
  0
XRECORD
  5
2C0
102
{ACAD_REACTORS
330
2BF
102
}
330
2BF
100
AcDbXrecord
280
     1
102
RTVSPropertyOp0
 70
     1
102
RTVSPropertyOp1
 70
     1
102
RTVSPropertyOp2
 70
     1
102
RTVSPropertyOp3
 70
     1
102
RTVSPropertyOp4
 70
     1
102
RTVSPropertyOp5
 70
     1
102
RTVSPropertyOp6
 70
     1
102
RTVSPropertyOp7
 70
     1
102
RTVSPropertyOp8
 70
     1
102
RTVSPropertyOp9
 70
     1
102
RTVSPropertyOp10
 70
     1
102
RTVSPropertyOp11
 70
     1
102
RTVSPropertyOp12
 70
     1
102
RTVSPropertyOp13
 70
     1
102
RTVSPropertyOp14
 70
     1
102
RTVSPropertyOp15
 70
     1
102
RTVSPropertyOp16
 70
     1
102
RTVSPropertyOp17
 70
     1
102
RTVSPropertyOp18
 70
     1
102
RTVSPropertyOp19
 70
     1
102
RTVSPropertyOp20
 70
     1
102
RTVSPropertyOp21
 70
     1
102
RTVSPropertyOp22
 70
     1
102
RTVSPropertyOp23
 70
     1
102
RTVSPropertyOp24
 70
     1
102
RTVSPropertyOp25
 70
     1
102
RTVSPropertyOp26
 70
     1
102
RTVSPropertyOp27
 70
     1
102
RTVSPropertyOp28
 70
     1
102
RTVSPropertyOp29
 70
     1
102
RTVSPropertyOp30
 70
     1
102
RTVSPropertyOp31
 70
     1
102
RTVSPropertyOp32
 70
     1
102
RTVSPropertyOp33
 70
     1
102
RTVSPropertyOp34
 70
     1
102
RTVSPropertyOp35
 70
     1
102
RTVSPropertyOp36
 70
     1
102
RTVSPropertyOp37
 70
     1
102
RTVSPropertyOp38
 70
     1
102
RTVSPropertyOp39
 70
     1
102
RTVSPropertyOp40
 70
     1
102
RTVSPropertyOp41
 70
     1
102
RTVSPropertyOp42
 70
     1
102
RTVSPropertyOp43
 70
     1
102
RTVSPropertyOp44
 70
     1
102
RTVSPropertyOp45
 70
     1
102
RTVSPropertyOp46
 70
     1
102
RTVSPropertyOp47
 70
     1
102
RTVSPropertyOp48
 70
     1
102
RTVSPropertyOp49
 70
     1
102
RTVSPropertyOp50
 70
     1
102
RTVSPropertyOp51
 70
     0
102
RTVSPropertyOp52
 70
     0
102
RTVSPropertyOp53
 70
     1
102
RTVSPropertyOp54
 70
     1
102
RTVSPropertyOp55
 70
     1
102
RTVSPropertyOp56
 70
     1
102
RTVSPropertyOp57
 70
     1
102
RTVSPost2010Prop28
280
     0
102
RTVSPost2010PropOp28
 70
     1
102
RTVSPost2010Prop29
280
     1
102
RTVSPost2010PropOp29
 70
     1
102
RTVSPost2010Prop30
280
     1
102
RTVSPost2010PropOp30
 70
     1
102
RTVSPost2010Prop31
280
     0
102
RTVSPost2010PropOp31
 70
     1
102
RTVSPost2010Prop32
280
     0
102
RTVSPost2010PropOp32
 70
     1
102
RTVSPost2010Prop33
280
     0
102
RTVSPost2010PropOp33
 70
     1
102
RTVSPost2010Prop34
280
     0
102
RTVSPost2010PropOp34
 70
     1
102
RTVSPost2010Prop35
280
     0
102
RTVSPost2010PropOp35
 70
     1
102
RTVSPost2010Prop36
280
     0
102
RTVSPost2010PropOp36
 70
     1
102
RTVSPost2010Prop37
 90
       50
102
RTVSPost2010PropOp37
 70
     1
102
RTVSPost2010Prop38
140
0.0
102
RTVSPost2010PropOp38
 70
     1
102
RTVSPost2010Prop39
140
1.0
102
RTVSPost2010PropOp39
 70
     1
102
RTVSPost2010Prop40
 90
        0
102
RTVSPost2010PropOp40
 70
     1
102
RTVSPost2010Prop41ColorIndex
 90
       18
102
RTVSPost2010Prop41ColorRGB
 90
        0
102
RTVSPost2010PropOp41
 70
     1
102
RTVSPost2010Prop42
 90
       50
102
RTVSPost2010PropOp42
 70
     1
102
RTVSPost2010Prop43
 90
        3
102
RTVSPost2010PropOp43
 70
     1
102
RTVSPost2010Prop44ColorIndex
 90
        5
102
RTVSPost2010Prop44ColorRGB
 90
      255
102
RTVSPost2010PropOp44
 70
     1
102
RTVSPost2010Prop45
280
     0
102
RTVSPost2010PropOp45
 70
     1
102
RTVSPost2010Prop46
 90
       50
102
RTVSPost2010PropOp46
 70
     1
102
RTVSPost2010Prop47
 90
       50
102
RTVSPost2010PropOp47
 70
     1
102
RTVSPost2010Prop48
 90
       50
102
RTVSPost2010PropOp48
 70
     1
102
RTVSPost2010Prop49
280
     0
102
RTVSPost2010PropOp49
 70
     1
102
RTVSPost2010Prop50
 90
       50
102
RTVSPost2010PropOp50
 70
     1
102
RTVSPost2010Prop51ColorIndex
 90
      256
102
RTVSPost2010Prop51ColorRGB
 90
-16777216
102
RTVSPost2010PropOp51
 70
     0
102
RTVSPost2010Prop52
140
1.0
102
RTVSPost2010PropOp52
 70
     0
102
RTVSPost2010Prop53
 90
        2
102
RTVSPost2010PropOp53
 70
     1
102
RTVSPost2010Prop54
  1
strokes_ogs.tif
102
RTVSPost2010PropOp54
 70
     1
102
RTVSPost2010Prop55
280
     0
102
RTVSPost2010PropOp55
 70
     1
102
RTVSPost2010Prop56
140
1.0
102
RTVSPost2010PropOp56
 70
     1
102
RTVSPost2010Prop57
140
1.0
102
RTVSPost2010PropOp57
 70
     1
  0
XRECORD
  5
2C2
102
{ACAD_REACTORS
330
2C1
102
}
330
2C1
100
AcDbXrecord
280
     1
102
RTVSPropertyOp0
 70
     1
102
RTVSPropertyOp1
 70
     1
102
RTVSPropertyOp2
 70
     1
102
RTVSPropertyOp3
 70
     1
102
RTVSPropertyOp4
 70
     1
102
RTVSPropertyOp5
 70
     1
102
RTVSPropertyOp6
 70
     1
102
RTVSPropertyOp7
 70
     1
102
RTVSPropertyOp8
 70
     1
102
RTVSPropertyOp9
 70
     1
102
RTVSPropertyOp10
 70
     1
102
RTVSPropertyOp11
 70
     1
102
RTVSPropertyOp12
 70
     1
102
RTVSPropertyOp13
 70
     1
102
RTVSPropertyOp14
 70
     1
102
RTVSPropertyOp15
 70
     1
102
RTVSPropertyOp16
 70
     1
102
RTVSPropertyOp17
 70
     1
102
RTVSPropertyOp18
 70
     1
102
RTVSPropertyOp19
 70
     1
102
RTVSPropertyOp20
 70
     1
102
RTVSPropertyOp21
 70
     1
102
RTVSPropertyOp22
 70
     1
102
RTVSPropertyOp23
 70
     1
102
RTVSPropertyOp24
 70
     1
102
RTVSPropertyOp25
 70
     1
102
RTVSPropertyOp26
 70
     1
102
RTVSPropertyOp27
 70
     1
102
RTVSPropertyOp28
 70
     1
102
RTVSPropertyOp29
 70
     1
102
RTVSPropertyOp30
 70
     1
102
RTVSPropertyOp31
 70
     1
102
RTVSPropertyOp32
 70
     1
102
RTVSPropertyOp33
 70
     1
102
RTVSPropertyOp34
 70
     1
102
RTVSPropertyOp35
 70
     1
102
RTVSPropertyOp36
 70
     1
102
RTVSPropertyOp37
 70
     1
102
RTVSPropertyOp38
 70
     1
102
RTVSPropertyOp39
 70
     1
102
RTVSPropertyOp40
 70
     1
102
RTVSPropertyOp41
 70
     1
102
RTVSPropertyOp42
 70
     1
102
RTVSPropertyOp43
 70
     1
102
RTVSPropertyOp44
 70
     1
102
RTVSPropertyOp45
 70
     1
102
RTVSPropertyOp46
 70
     1
102
RTVSPropertyOp47
 70
     1
102
RTVSPropertyOp48
 70
     1
102
RTVSPropertyOp49
 70
     1
102
RTVSPropertyOp50
 70
     1
102
RTVSPropertyOp51
 70
     0
102
RTVSPropertyOp52
 70
     0
102
RTVSPropertyOp53
 70
     1
102
RTVSPropertyOp54
 70
     1
102
RTVSPropertyOp55
 70
     1
102
RTVSPropertyOp56
 70
     1
102
RTVSPropertyOp57
 70
     1
102
RTVSPost2010Prop28
280
     0
102
RTVSPost2010PropOp28
 70
     1
102
RTVSPost2010Prop29
280
     1
102
RTVSPost2010PropOp29
 70
     1
102
RTVSPost2010Prop30
280
     1
102
RTVSPost2010PropOp30
 70
     1
102
RTVSPost2010Prop31
280
     0
102
RTVSPost2010PropOp31
 70
     1
102
RTVSPost2010Prop32
280
     0
102
RTVSPost2010PropOp32
 70
     1
102
RTVSPost2010Prop33
280
     0
102
RTVSPost2010PropOp33
 70
     1
102
RTVSPost2010Prop34
280
     0
102
RTVSPost2010PropOp34
 70
     1
102
RTVSPost2010Prop35
280
     0
102
RTVSPost2010PropOp35
 70
     1
102
RTVSPost2010Prop36
280
     0
102
RTVSPost2010PropOp36
 70
     1
102
RTVSPost2010Prop37
 90
       50
102
RTVSPost2010PropOp37
 70
     1
102
RTVSPost2010Prop38
140
0.0
102
RTVSPost2010PropOp38
 70
     1
102
RTVSPost2010Prop39
140
1.0
102
RTVSPost2010PropOp39
 70
     1
102
RTVSPost2010Prop40
 90
        0
102
RTVSPost2010PropOp40
 70
     1
102
RTVSPost2010Prop41ColorIndex
 90
       18
102
RTVSPost2010Prop41ColorRGB
 90
        0
102
RTVSPost2010PropOp41
 70
     1
102
RTVSPost2010Prop42
 90
       50
102
RTVSPost2010PropOp42
 70
     1
102
RTVSPost2010Prop43
 90
        3
102
RTVSPost2010PropOp43
 70
     1
102
RTVSPost2010Prop44ColorIndex
 90
        5
102
RTVSPost2010Prop44ColorRGB
 90
      255
102
RTVSPost2010PropOp44
 70
     1
102
RTVSPost2010Prop45
280
     0
102
RTVSPost2010PropOp45
 70
     1
102
RTVSPost2010Prop46
 90
       50
102
RTVSPost2010PropOp46
 70
     1
102
RTVSPost2010Prop47
 90
       50
102
RTVSPost2010PropOp47
 70
     1
102
RTVSPost2010Prop48
 90
       50
102
RTVSPost2010PropOp48
 70
     1
102
RTVSPost2010Prop49
280
     0
102
RTVSPost2010PropOp49
 70
     1
102
RTVSPost2010Prop50
 90
       50
102
RTVSPost2010PropOp50
 70
     1
102
RTVSPost2010Prop51ColorIndex
 90
      256
102
RTVSPost2010Prop51ColorRGB
 90
-16777216
102
RTVSPost2010PropOp51
 70
     0
102
RTVSPost2010Prop52
140
1.0
102
RTVSPost2010PropOp52
 70
     0
102
RTVSPost2010Prop53
 90
        2
102
RTVSPost2010PropOp53
 70
     1
102
RTVSPost2010Prop54
  1
strokes_ogs.tif
102
RTVSPost2010PropOp54
 70
     1
102
RTVSPost2010Prop55
280
     0
102
RTVSPost2010PropOp55
 70
     1
102
RTVSPost2010Prop56
140
1.0
102
RTVSPost2010PropOp56
 70
     1
102
RTVSPost2010Prop57
140
1.0
102
RTVSPost2010PropOp57
 70
     1
  0
XRECORD
  5
2D2
102
{ACAD_REACTORS
330
2D1
102
}
330
2D1
100
AcDbXrecord
280
     1
102
RTVSPropertyOp0
 70
     0
102
RTVSPropertyOp1
 70
     0
102
RTVSPropertyOp2
 70
     0
102
RTVSPropertyOp3
 70
     0
102
RTVSPropertyOp4
 70
     0
102
RTVSPropertyOp5
 70
     0
102
RTVSPropertyOp6
 70
     0
102
RTVSPropertyOp7
 70
     0
102
RTVSPropertyOp8
 70
     0
102
RTVSPropertyOp9
 70
     0
102
RTVSPropertyOp10
 70
     0
102
RTVSPropertyOp11
 70
     0
102
RTVSPropertyOp12
 70
     0
102
RTVSPropertyOp13
 70
     0
102
RTVSPropertyOp14
 70
     2
102
RTVSPropertyOp15
 70
     0
102
RTVSPropertyOp16
 70
     0
102
RTVSPropertyOp17
 70
     0
102
RTVSPropertyOp18
 70
     0
102
RTVSPropertyOp19
 70
     0
102
RTVSPropertyOp20
 70
     0
102
RTVSPropertyOp21
 70
     0
102
RTVSPropertyOp22
 70
     0
102
RTVSPropertyOp23
 70
     0
102
RTVSPropertyOp24
 70
     0
102
RTVSPropertyOp25
 70
     0
102
RTVSPropertyOp26
 70
     0
102
RTVSPropertyOp27
 70
     0
102
RTVSPropertyOp28
 70
     0
102
RTVSPropertyOp29
 70
     0
102
RTVSPropertyOp30
 70
     0
102
RTVSPropertyOp31
 70
     0
102
RTVSPropertyOp32
 70
     0
102
RTVSPropertyOp33
 70
     0
102
RTVSPropertyOp34
 70
     0
102
RTVSPropertyOp35
 70
     0
102
RTVSPropertyOp36
 70
     0
102
RTVSPropertyOp37
 70
     0
102
RTVSPropertyOp38
 70
     0
102
RTVSPropertyOp39
 70
     0
102
RTVSPropertyOp40
 70
     0
102
RTVSPropertyOp41
 70
     0
102
RTVSPropertyOp42
 70
     0
102
RTVSPropertyOp43
 70
     0
102
RTVSPropertyOp44
 70
     0
102
RTVSPropertyOp45
 70
     0
102
RTVSPropertyOp46
 70
     0
102
RTVSPropertyOp47
 70
     0
102
RTVSPropertyOp48
 70
     0
102
RTVSPropertyOp49
 70
     0
102
RTVSPropertyOp50
 70
     0
102
RTVSPropertyOp51
 70
     0
102
RTVSPropertyOp52
 70
     0
102
RTVSPropertyOp53
 70
     0
102
RTVSPropertyOp54
 70
     0
102
RTVSPropertyOp55
 70
     0
102
RTVSPropertyOp56
 70
     0
102
RTVSPropertyOp57
 70
     0
102
RTVSPost2010Prop28
280
     0
102
RTVSPost2010PropOp28
 70
     0
102
RTVSPost2010Prop29
280
     1
102
RTVSPost2010PropOp29
 70
     0
102
RTVSPost2010Prop30
280
     1
102
RTVSPost2010PropOp30
 70
     0
102
RTVSPost2010Prop31
280
     0
102
RTVSPost2010PropOp31
 70
     0
102
RTVSPost2010Prop32
280
     0
102
RTVSPost2010PropOp32
 70
     0
102
RTVSPost2010Prop33
280
     0
102
RTVSPost2010PropOp33
 70
     0
102
RTVSPost2010Prop34
280
     0
102
RTVSPost2010PropOp34
 70
     0
102
RTVSPost2010Prop35
280
     0
102
RTVSPost2010PropOp35
 70
     0
102
RTVSPost2010Prop36
280
     0
102
RTVSPost2010PropOp36
 70
     0
102
RTVSPost2010Prop37
 90
       50
102
RTVSPost2010PropOp37
 70
     0
102
RTVSPost2010Prop38
140
0.0
102
RTVSPost2010PropOp38
 70
     0
102
RTVSPost2010Prop39
140
1.0
102
RTVSPost2010PropOp39
 70
     0
102
RTVSPost2010Prop40
 90
        0
102
RTVSPost2010PropOp40
 70
     0
102
RTVSPost2010Prop41ColorIndex
 90
       18
102
RTVSPost2010Prop41ColorRGB
 90
        0
102
RTVSPost2010PropOp41
 70
     0
102
RTVSPost2010Prop42
 90
       50
102
RTVSPost2010PropOp42
 70
     0
102
RTVSPost2010Prop43
 90
        3
102
RTVSPost2010PropOp43
 70
     0
102
RTVSPost2010Prop44ColorIndex
 90
        5
102
RTVSPost2010Prop44ColorRGB
 90
      255
102
RTVSPost2010PropOp44
 70
     0
102
RTVSPost2010Prop45
280
     0
102
RTVSPost2010PropOp45
 70
     0
102
RTVSPost2010Prop46
 90
       50
102
RTVSPost2010PropOp46
 70
     0
102
RTVSPost2010Prop47
 90
       50
102
RTVSPost2010PropOp47
 70
     0
102
RTVSPost2010Prop48
 90
       50
102
RTVSPost2010PropOp48
 70
     0
102
RTVSPost2010Prop49
280
     0
102
RTVSPost2010PropOp49
 70
     0
102
RTVSPost2010Prop50
 90
       50
102
RTVSPost2010PropOp50
 70
     0
102
RTVSPost2010Prop51ColorIndex
 90
      256
102
RTVSPost2010Prop51ColorRGB
 90
-16777216
102
RTVSPost2010PropOp51
 70
     0
102
RTVSPost2010Prop52
140
1.0
102
RTVSPost2010PropOp52
 70
     0
102
RTVSPost2010Prop53
 90
        2
102
RTVSPost2010PropOp53
 70
     0
102
RTVSPost2010Prop54
  1
strokes_ogs.tif
102
RTVSPost2010PropOp54
 70
     0
102
RTVSPost2010Prop55
280
     0
102
RTVSPost2010PropOp55
 70
     0
102
RTVSPost2010Prop56
140
1.0
102
RTVSPost2010PropOp56
 70
     0
102
RTVSPost2010Prop57
140
1.0
102
RTVSPost2010PropOp57
 70
     0
  0
XRECORD
  5
2CA
102
{ACAD_REACTORS
330
2C9
102
}
330
2C9
100
AcDbXrecord
280
     1
102
RTVSPropertyOp0
 70
     1
102
RTVSPropertyOp1
 70
     1
102
RTVSPropertyOp2
 70
     1
102
RTVSPropertyOp3
 70
     1
102
RTVSPropertyOp4
 70
     1
102
RTVSPropertyOp5
 70
     1
102
RTVSPropertyOp6
 70
     1
102
RTVSPropertyOp7
 70
     1
102
RTVSPropertyOp8
 70
     1
102
RTVSPropertyOp9
 70
     1
102
RTVSPropertyOp10
 70
     1
102
RTVSPropertyOp11
 70
     1
102
RTVSPropertyOp12
 70
     1
102
RTVSPropertyOp13
 70
     1
102
RTVSPropertyOp14
 70
     1
102
RTVSPropertyOp15
 70
     1
102
RTVSPropertyOp16
 70
     1
102
RTVSPropertyOp17
 70
     1
102
RTVSPropertyOp18
 70
     1
102
RTVSPropertyOp19
 70
     1
102
RTVSPropertyOp20
 70
     1
102
RTVSPropertyOp21
 70
     1
102
RTVSPropertyOp22
 70
     1
102
RTVSPropertyOp23
 70
     1
102
RTVSPropertyOp24
 70
     1
102
RTVSPropertyOp25
 70
     1
102
RTVSPropertyOp26
 70
     1
102
RTVSPropertyOp27
 70
     1
102
RTVSPropertyOp28
 70
     1
102
RTVSPropertyOp29
 70
     1
102
RTVSPropertyOp30
 70
     1
102
RTVSPropertyOp31
 70
     1
102
RTVSPropertyOp32
 70
     1
102
RTVSPropertyOp33
 70
     1
102
RTVSPropertyOp34
 70
     1
102
RTVSPropertyOp35
 70
     1
102
RTVSPropertyOp36
 70
     1
102
RTVSPropertyOp37
 70
     1
102
RTVSPropertyOp38
 70
     1
102
RTVSPropertyOp39
 70
     1
102
RTVSPropertyOp40
 70
     1
102
RTVSPropertyOp41
 70
     1
102
RTVSPropertyOp42
 70
     1
102
RTVSPropertyOp43
 70
     1
102
RTVSPropertyOp44
 70
     1
102
RTVSPropertyOp45
 70
     1
102
RTVSPropertyOp46
 70
     1
102
RTVSPropertyOp47
 70
     1
102
RTVSPropertyOp48
 70
     1
102
RTVSPropertyOp49
 70
     1
102
RTVSPropertyOp50
 70
     1
102
RTVSPropertyOp51
 70
     0
102
RTVSPropertyOp52
 70
     0
102
RTVSPropertyOp53
 70
     1
102
RTVSPropertyOp54
 70
     1
102
RTVSPropertyOp55
 70
     1
102
RTVSPropertyOp56
 70
     1
102
RTVSPropertyOp57
 70
     1
102
RTVSPost2010Prop28
280
     0
102
RTVSPost2010PropOp28
 70
     1
102
RTVSPost2010Prop29
280
     1
102
RTVSPost2010PropOp29
 70
     1
102
RTVSPost2010Prop30
280
     1
102
RTVSPost2010PropOp30
 70
     1
102
RTVSPost2010Prop31
280
     0
102
RTVSPost2010PropOp31
 70
     1
102
RTVSPost2010Prop32
280
     0
102
RTVSPost2010PropOp32
 70
     1
102
RTVSPost2010Prop33
280
     0
102
RTVSPost2010PropOp33
 70
     1
102
RTVSPost2010Prop34
280
     0
102
RTVSPost2010PropOp34
 70
     1
102
RTVSPost2010Prop35
280
     0
102
RTVSPost2010PropOp35
 70
     1
102
RTVSPost2010Prop36
280
     0
102
RTVSPost2010PropOp36
 70
     1
102
RTVSPost2010Prop37
 90
       50
102
RTVSPost2010PropOp37
 70
     1
102
RTVSPost2010Prop38
140
0.0
102
RTVSPost2010PropOp38
 70
     1
102
RTVSPost2010Prop39
140
1.0
102
RTVSPost2010PropOp39
 70
     1
102
RTVSPost2010Prop40
 90
        0
102
RTVSPost2010PropOp40
 70
     1
102
RTVSPost2010Prop41ColorIndex
 90
       18
102
RTVSPost2010Prop41ColorRGB
 90
        0
102
RTVSPost2010PropOp41
 70
     1
102
RTVSPost2010Prop42
 90
       50
102
RTVSPost2010PropOp42
 70
     1
102
RTVSPost2010Prop43
 90
        3
102
RTVSPost2010PropOp43
 70
     1
102
RTVSPost2010Prop44ColorIndex
 90
        5
102
RTVSPost2010Prop44ColorRGB
 90
      255
102
RTVSPost2010PropOp44
 70
     1
102
RTVSPost2010Prop45
280
     0
102
RTVSPost2010PropOp45
 70
     1
102
RTVSPost2010Prop46
 90
       50
102
RTVSPost2010PropOp46
 70
     1
102
RTVSPost2010Prop47
 90
       50
102
RTVSPost2010PropOp47
 70
     1
102
RTVSPost2010Prop48
 90
       50
102
RTVSPost2010PropOp48
 70
     1
102
RTVSPost2010Prop49
280
     0
102
RTVSPost2010PropOp49
 70
     1
102
RTVSPost2010Prop50
 90
       50
102
RTVSPost2010PropOp50
 70
     1
102
RTVSPost2010Prop51ColorIndex
 90
      256
102
RTVSPost2010Prop51ColorRGB
 90
-16777216
102
RTVSPost2010PropOp51
 70
     0
102
RTVSPost2010Prop52
140
1.0
102
RTVSPost2010PropOp52
 70
     0
102
RTVSPost2010Prop53
 90
        2
102
RTVSPost2010PropOp53
 70
     1
102
RTVSPost2010Prop54
  1
strokes_ogs.tif
102
RTVSPost2010PropOp54
 70
     1
102
RTVSPost2010Prop55
280
     0
102
RTVSPost2010PropOp55
 70
     1
102
RTVSPost2010Prop56
140
1.0
102
RTVSPost2010PropOp56
 70
     1
102
RTVSPost2010Prop57
140
1.0
102
RTVSPost2010PropOp57
 70
     1
  0
XRECORD
  5
2AE
102
{ACAD_REACTORS
330
2AD
102
}
330
2AD
100
AcDbXrecord
280
     1
102
RTVSPropertyOp0
 70
     1
102
RTVSPropertyOp1
 70
     1
102
RTVSPropertyOp2
 70
     1
102
RTVSPropertyOp3
 70
     1
102
RTVSPropertyOp4
 70
     1
102
RTVSPropertyOp5
 70
     1
102
RTVSPropertyOp6
 70
     1
102
RTVSPropertyOp7
 70
     1
102
RTVSPropertyOp8
 70
     1
102
RTVSPropertyOp9
 70
     1
102
RTVSPropertyOp10
 70
     1
102
RTVSPropertyOp11
 70
     1
102
RTVSPropertyOp12
 70
     1
102
RTVSPropertyOp13
 70
     1
102
RTVSPropertyOp14
 70
     1
102
RTVSPropertyOp15
 70
     1
102
RTVSPropertyOp16
 70
     1
102
RTVSPropertyOp17
 70
     1
102
RTVSPropertyOp18
 70
     1
102
RTVSPropertyOp19
 70
     1
102
RTVSPropertyOp20
 70
     1
102
RTVSPropertyOp21
 70
     1
102
RTVSPropertyOp22
 70
     1
102
RTVSPropertyOp23
 70
     1
102
RTVSPropertyOp24
 70
     1
102
RTVSPropertyOp25
 70
     1
102
RTVSPropertyOp26
 70
     1
102
RTVSPropertyOp27
 70
     1
102
RTVSPropertyOp28
 70
     1
102
RTVSPropertyOp29
 70
     1
102
RTVSPropertyOp30
 70
     1
102
RTVSPropertyOp31
 70
     1
102
RTVSPropertyOp32
 70
     1
102
RTVSPropertyOp33
 70
     1
102
RTVSPropertyOp34
 70
     1
102
RTVSPropertyOp35
 70
     1
102
RTVSPropertyOp36
 70
     1
102
RTVSPropertyOp37
 70
     1
102
RTVSPropertyOp38
 70
     1
102
RTVSPropertyOp39
 70
     1
102
RTVSPropertyOp40
 70
     1
102
RTVSPropertyOp41
 70
     1
102
RTVSPropertyOp42
 70
     1
102
RTVSPropertyOp43
 70
     1
102
RTVSPropertyOp44
 70
     1
102
RTVSPropertyOp45
 70
     1
102
RTVSPropertyOp46
 70
     1
102
RTVSPropertyOp47
 70
     1
102
RTVSPropertyOp48
 70
     1
102
RTVSPropertyOp49
 70
     1
102
RTVSPropertyOp50
 70
     1
102
RTVSPropertyOp51
 70
     0
102
RTVSPropertyOp52
 70
     0
102
RTVSPropertyOp53
 70
     1
102
RTVSPropertyOp54
 70
     1
102
RTVSPropertyOp55
 70
     1
102
RTVSPropertyOp56
 70
     1
102
RTVSPropertyOp57
 70
     1
102
RTVSPost2010Prop28
280
     0
102
RTVSPost2010PropOp28
 70
     1
102
RTVSPost2010Prop29
280
     1
102
RTVSPost2010PropOp29
 70
     1
102
RTVSPost2010Prop30
280
     1
102
RTVSPost2010PropOp30
 70
     1
102
RTVSPost2010Prop31
280
     0
102
RTVSPost2010PropOp31
 70
     1
102
RTVSPost2010Prop32
280
     0
102
RTVSPost2010PropOp32
 70
     1
102
RTVSPost2010Prop33
280
     0
102
RTVSPost2010PropOp33
 70
     1
102
RTVSPost2010Prop34
280
     0
102
RTVSPost2010PropOp34
 70
     1
102
RTVSPost2010Prop35
280
     0
102
RTVSPost2010PropOp35
 70
     1
102
RTVSPost2010Prop36
280
     0
102
RTVSPost2010PropOp36
 70
     1
102
RTVSPost2010Prop37
 90
       50
102
RTVSPost2010PropOp37
 70
     1
102
RTVSPost2010Prop38
140
0.0
102
RTVSPost2010PropOp38
 70
     1
102
RTVSPost2010Prop39
140
1.0
102
RTVSPost2010PropOp39
 70
     1
102
RTVSPost2010Prop40
 90
        0
102
RTVSPost2010PropOp40
 70
     1
102
RTVSPost2010Prop41ColorIndex
 90
       18
102
RTVSPost2010Prop41ColorRGB
 90
        0
102
RTVSPost2010PropOp41
 70
     1
102
RTVSPost2010Prop42
 90
       50
102
RTVSPost2010PropOp42
 70
     1
102
RTVSPost2010Prop43
 90
        3
102
RTVSPost2010PropOp43
 70
     1
102
RTVSPost2010Prop44ColorIndex
 90
        5
102
RTVSPost2010Prop44ColorRGB
 90
      255
102
RTVSPost2010PropOp44
 70
     1
102
RTVSPost2010Prop45
280
     0
102
RTVSPost2010PropOp45
 70
     1
102
RTVSPost2010Prop46
 90
       50
102
RTVSPost2010PropOp46
 70
     1
102
RTVSPost2010Prop47
 90
       50
102
RTVSPost2010PropOp47
 70
     1
102
RTVSPost2010Prop48
 90
       50
102
RTVSPost2010PropOp48
 70
     1
102
RTVSPost2010Prop49
280
     0
102
RTVSPost2010PropOp49
 70
     1
102
RTVSPost2010Prop50
 90
       50
102
RTVSPost2010PropOp50
 70
     1
102
RTVSPost2010Prop51ColorIndex
 90
      256
102
RTVSPost2010Prop51ColorRGB
 90
-16777216
102
RTVSPost2010PropOp51
 70
     0
102
RTVSPost2010Prop52
140
1.0
102
RTVSPost2010PropOp52
 70
     0
102
RTVSPost2010Prop53
 90
        2
102
RTVSPost2010PropOp53
 70
     1
102
RTVSPost2010Prop54
  1
strokes_ogs.tif
102
RTVSPost2010PropOp54
 70
     1
102
RTVSPost2010Prop55
280
     0
102
RTVSPost2010PropOp55
 70
     1
102
RTVSPost2010Prop56
140
1.0
102
RTVSPost2010PropOp56
 70
     1
102
RTVSPost2010Prop57
140
1.0
102
RTVSPost2010PropOp57
 70
     1
  0
XRECORD
  5
2B0
102
{ACAD_REACTORS
330
2AF
102
}
330
2AF
100
AcDbXrecord
280
     1
102
RTVSPropertyOp0
 70
     1
102
RTVSPropertyOp1
 70
     1
102
RTVSPropertyOp2
 70
     1
102
RTVSPropertyOp3
 70
     1
102
RTVSPropertyOp4
 70
     1
102
RTVSPropertyOp5
 70
     1
102
RTVSPropertyOp6
 70
     1
102
RTVSPropertyOp7
 70
     1
102
RTVSPropertyOp8
 70
     1
102
RTVSPropertyOp9
 70
     1
102
RTVSPropertyOp10
 70
     1
102
RTVSPropertyOp11
 70
     1
102
RTVSPropertyOp12
 70
     1
102
RTVSPropertyOp13
 70
     1
102
RTVSPropertyOp14
 70
     1
102
RTVSPropertyOp15
 70
     1
102
RTVSPropertyOp16
 70
     1
102
RTVSPropertyOp17
 70
     1
102
RTVSPropertyOp18
 70
     1
102
RTVSPropertyOp19
 70
     1
102
RTVSPropertyOp20
 70
     1
102
RTVSPropertyOp21
 70
     1
102
RTVSPropertyOp22
 70
     1
102
RTVSPropertyOp23
 70
     1
102
RTVSPropertyOp24
 70
     1
102
RTVSPropertyOp25
 70
     1
102
RTVSPropertyOp26
 70
     1
102
RTVSPropertyOp27
 70
     1
102
RTVSPropertyOp28
 70
     1
102
RTVSPropertyOp29
 70
     1
102
RTVSPropertyOp30
 70
     1
102
RTVSPropertyOp31
 70
     1
102
RTVSPropertyOp32
 70
     1
102
RTVSPropertyOp33
 70
     1
102
RTVSPropertyOp34
 70
     1
102
RTVSPropertyOp35
 70
     1
102
RTVSPropertyOp36
 70
     1
102
RTVSPropertyOp37
 70
     1
102
RTVSPropertyOp38
 70
     1
102
RTVSPropertyOp39
 70
     1
102
RTVSPropertyOp40
 70
     1
102
RTVSPropertyOp41
 70
     1
102
RTVSPropertyOp42
 70
     1
102
RTVSPropertyOp43
 70
     1
102
RTVSPropertyOp44
 70
     1
102
RTVSPropertyOp45
 70
     1
102
RTVSPropertyOp46
 70
     1
102
RTVSPropertyOp47
 70
     1
102
RTVSPropertyOp48
 70
     1
102
RTVSPropertyOp49
 70
     1
102
RTVSPropertyOp50
 70
     1
102
RTVSPropertyOp51
 70
     0
102
RTVSPropertyOp52
 70
     0
102
RTVSPropertyOp53
 70
     1
102
RTVSPropertyOp54
 70
     1
102
RTVSPropertyOp55
 70
     1
102
RTVSPropertyOp56
 70
     1
102
RTVSPropertyOp57
 70
     1
102
RTVSPost2010Prop28
280
     0
102
RTVSPost2010PropOp28
 70
     1
102
RTVSPost2010Prop29
280
     1
102
RTVSPost2010PropOp29
 70
     1
102
RTVSPost2010Prop30
280
     1
102
RTVSPost2010PropOp30
 70
     1
102
RTVSPost2010Prop31
280
     0
102
RTVSPost2010PropOp31
 70
     1
102
RTVSPost2010Prop32
280
     0
102
RTVSPost2010PropOp32
 70
     1
102
RTVSPost2010Prop33
280
     0
102
RTVSPost2010PropOp33
 70
     1
102
RTVSPost2010Prop34
280
     0
102
RTVSPost2010PropOp34
 70
     1
102
RTVSPost2010Prop35
280
     0
102
RTVSPost2010PropOp35
 70
     1
102
RTVSPost2010Prop36
280
     0
102
RTVSPost2010PropOp36
 70
     1
102
RTVSPost2010Prop37
 90
       50
102
RTVSPost2010PropOp37
 70
     1
102
RTVSPost2010Prop38
140
0.0
102
RTVSPost2010PropOp38
 70
     1
102
RTVSPost2010Prop39
140
1.0
102
RTVSPost2010PropOp39
 70
     1
102
RTVSPost2010Prop40
 90
        0
102
RTVSPost2010PropOp40
 70
     1
102
RTVSPost2010Prop41ColorIndex
 90
       18
102
RTVSPost2010Prop41ColorRGB
 90
        0
102
RTVSPost2010PropOp41
 70
     1
102
RTVSPost2010Prop42
 90
       50
102
RTVSPost2010PropOp42
 70
     1
102
RTVSPost2010Prop43
 90
        3
102
RTVSPost2010PropOp43
 70
     1
102
RTVSPost2010Prop44ColorIndex
 90
        5
102
RTVSPost2010Prop44ColorRGB
 90
      255
102
RTVSPost2010PropOp44
 70
     1
102
RTVSPost2010Prop45
280
     0
102
RTVSPost2010PropOp45
 70
     1
102
RTVSPost2010Prop46
 90
       50
102
RTVSPost2010PropOp46
 70
     1
102
RTVSPost2010Prop47
 90
       50
102
RTVSPost2010PropOp47
 70
     1
102
RTVSPost2010Prop48
 90
       50
102
RTVSPost2010PropOp48
 70
     1
102
RTVSPost2010Prop49
280
     0
102
RTVSPost2010PropOp49
 70
     1
102
RTVSPost2010Prop50
 90
       50
102
RTVSPost2010PropOp50
 70
     1
102
RTVSPost2010Prop51ColorIndex
 90
      256
102
RTVSPost2010Prop51ColorRGB
 90
-16777216
102
RTVSPost2010PropOp51
 70
     0
102
RTVSPost2010Prop52
140
1.0
102
RTVSPost2010PropOp52
 70
     0
102
RTVSPost2010Prop53
 90
        2
102
RTVSPost2010PropOp53
 70
     1
102
RTVSPost2010Prop54
  1
strokes_ogs.tif
102
RTVSPost2010PropOp54
 70
     1
102
RTVSPost2010Prop55
280
     0
102
RTVSPost2010PropOp55
 70
     1
102
RTVSPost2010Prop56
140
1.0
102
RTVSPost2010PropOp56
 70
     1
102
RTVSPost2010Prop57
140
1.0
102
RTVSPost2010PropOp57
 70
     1
  0
XRECORD
  5
2B2
102
{ACAD_REACTORS
330
2B1
102
}
330
2B1
100
AcDbXrecord
280
     1
102
RTVSPropertyOp0
 70
     1
102
RTVSPropertyOp1
 70
     1
102
RTVSPropertyOp2
 70
     1
102
RTVSPropertyOp3
 70
     1
102
RTVSPropertyOp4
 70
     1
102
RTVSPropertyOp5
 70
     1
102
RTVSPropertyOp6
 70
     1
102
RTVSPropertyOp7
 70
     1
102
RTVSPropertyOp8
 70
     1
102
RTVSPropertyOp9
 70
     1
102
RTVSPropertyOp10
 70
     1
102
RTVSPropertyOp11
 70
     1
102
RTVSPropertyOp12
 70
     1
102
RTVSPropertyOp13
 70
     1
102
RTVSPropertyOp14
 70
     1
102
RTVSPropertyOp15
 70
     1
102
RTVSPropertyOp16
 70
     1
102
RTVSPropertyOp17
 70
     1
102
RTVSPropertyOp18
 70
     1
102
RTVSPropertyOp19
 70
     1
102
RTVSPropertyOp20
 70
     1
102
RTVSPropertyOp21
 70
     1
102
RTVSPropertyOp22
 70
     1
102
RTVSPropertyOp23
 70
     1
102
RTVSPropertyOp24
 70
     1
102
RTVSPropertyOp25
 70
     1
102
RTVSPropertyOp26
 70
     1
102
RTVSPropertyOp27
 70
     1
102
RTVSPropertyOp28
 70
     1
102
RTVSPropertyOp29
 70
     1
102
RTVSPropertyOp30
 70
     1
102
RTVSPropertyOp31
 70
     1
102
RTVSPropertyOp32
 70
     1
102
RTVSPropertyOp33
 70
     1
102
RTVSPropertyOp34
 70
     1
102
RTVSPropertyOp35
 70
     1
102
RTVSPropertyOp36
 70
     1
102
RTVSPropertyOp37
 70
     1
102
RTVSPropertyOp38
 70
     1
102
RTVSPropertyOp39
 70
     1
102
RTVSPropertyOp40
 70
     1
102
RTVSPropertyOp41
 70
     1
102
RTVSPropertyOp42
 70
     1
102
RTVSPropertyOp43
 70
     1
102
RTVSPropertyOp44
 70
     1
102
RTVSPropertyOp45
 70
     1
102
RTVSPropertyOp46
 70
     1
102
RTVSPropertyOp47
 70
     1
102
RTVSPropertyOp48
 70
     1
102
RTVSPropertyOp49
 70
     1
102
RTVSPropertyOp50
 70
     1
102
RTVSPropertyOp51
 70
     0
102
RTVSPropertyOp52
 70
     0
102
RTVSPropertyOp53
 70
     1
102
RTVSPropertyOp54
 70
     1
102
RTVSPropertyOp55
 70
     1
102
RTVSPropertyOp56
 70
     1
102
RTVSPropertyOp57
 70
     1
102
RTVSPost2010Prop28
280
     0
102
RTVSPost2010PropOp28
 70
     1
102
RTVSPost2010Prop29
280
     1
102
RTVSPost2010PropOp29
 70
     1
102
RTVSPost2010Prop30
280
     1
102
RTVSPost2010PropOp30
 70
     1
102
RTVSPost2010Prop31
280
     0
102
RTVSPost2010PropOp31
 70
     1
102
RTVSPost2010Prop32
280
     0
102
RTVSPost2010PropOp32
 70
     1
102
RTVSPost2010Prop33
280
     0
102
RTVSPost2010PropOp33
 70
     1
102
RTVSPost2010Prop34
280
     0
102
RTVSPost2010PropOp34
 70
     1
102
RTVSPost2010Prop35
280
     0
102
RTVSPost2010PropOp35
 70
     1
102
RTVSPost2010Prop36
280
     0
102
RTVSPost2010PropOp36
 70
     1
102
RTVSPost2010Prop37
 90
       50
102
RTVSPost2010PropOp37
 70
     1
102
RTVSPost2010Prop38
140
0.0
102
RTVSPost2010PropOp38
 70
     1
102
RTVSPost2010Prop39
140
1.0
102
RTVSPost2010PropOp39
 70
     1
102
RTVSPost2010Prop40
 90
        0
102
RTVSPost2010PropOp40
 70
     1
102
RTVSPost2010Prop41ColorIndex
 90
       18
102
RTVSPost2010Prop41ColorRGB
 90
        0
102
RTVSPost2010PropOp41
 70
     1
102
RTVSPost2010Prop42
 90
       50
102
RTVSPost2010PropOp42
 70
     1
102
RTVSPost2010Prop43
 90
        3
102
RTVSPost2010PropOp43
 70
     1
102
RTVSPost2010Prop44ColorIndex
 90
        5
102
RTVSPost2010Prop44ColorRGB
 90
      255
102
RTVSPost2010PropOp44
 70
     1
102
RTVSPost2010Prop45
280
     0
102
RTVSPost2010PropOp45
 70
     1
102
RTVSPost2010Prop46
 90
       50
102
RTVSPost2010PropOp46
 70
     1
102
RTVSPost2010Prop47
 90
       50
102
RTVSPost2010PropOp47
 70
     1
102
RTVSPost2010Prop48
 90
       50
102
RTVSPost2010PropOp48
 70
     1
102
RTVSPost2010Prop49
280
     0
102
RTVSPost2010PropOp49
 70
     1
102
RTVSPost2010Prop50
 90
       50
102
RTVSPost2010PropOp50
 70
     1
102
RTVSPost2010Prop51ColorIndex
 90
      256
102
RTVSPost2010Prop51ColorRGB
 90
-16777216
102
RTVSPost2010PropOp51
 70
     0
102
RTVSPost2010Prop52
140
1.0
102
RTVSPost2010PropOp52
 70
     0
102
RTVSPost2010Prop53
 90
        2
102
RTVSPost2010PropOp53
 70
     1
102
RTVSPost2010Prop54
  1
strokes_ogs.tif
102
RTVSPost2010PropOp54
 70
     1
102
RTVSPost2010Prop55
280
     0
102
RTVSPost2010PropOp55
 70
     1
102
RTVSPost2010Prop56
140
1.0
102
RTVSPost2010PropOp56
 70
     1
102
RTVSPost2010Prop57
140
1.0
102
RTVSPost2010PropOp57
 70
     1
  0
XRECORD
  5
2B4
102
{ACAD_REACTORS
330
2B3
102
}
330
2B3
100
AcDbXrecord
280
     1
102
RTVSPropertyOp0
 70
     1
102
RTVSPropertyOp1
 70
     1
102
RTVSPropertyOp2
 70
     1
102
RTVSPropertyOp3
 70
     1
102
RTVSPropertyOp4
 70
     1
102
RTVSPropertyOp5
 70
     1
102
RTVSPropertyOp6
 70
     1
102
RTVSPropertyOp7
 70
     1
102
RTVSPropertyOp8
 70
     1
102
RTVSPropertyOp9
 70
     1
102
RTVSPropertyOp10
 70
     1
102
RTVSPropertyOp11
 70
     1
102
RTVSPropertyOp12
 70
     1
102
RTVSPropertyOp13
 70
     1
102
RTVSPropertyOp14
 70
     1
102
RTVSPropertyOp15
 70
     1
102
RTVSPropertyOp16
 70
     1
102
RTVSPropertyOp17
 70
     1
102
RTVSPropertyOp18
 70
     1
102
RTVSPropertyOp19
 70
     1
102
RTVSPropertyOp20
 70
     1
102
RTVSPropertyOp21
 70
     1
102
RTVSPropertyOp22
 70
     1
102
RTVSPropertyOp23
 70
     1
102
RTVSPropertyOp24
 70
     1
102
RTVSPropertyOp25
 70
     1
102
RTVSPropertyOp26
 70
     1
102
RTVSPropertyOp27
 70
     1
102
RTVSPropertyOp28
 70
     1
102
RTVSPropertyOp29
 70
     1
102
RTVSPropertyOp30
 70
     1
102
RTVSPropertyOp31
 70
     1
102
RTVSPropertyOp32
 70
     1
102
RTVSPropertyOp33
 70
     1
102
RTVSPropertyOp34
 70
     1
102
RTVSPropertyOp35
 70
     1
102
RTVSPropertyOp36
 70
     1
102
RTVSPropertyOp37
 70
     1
102
RTVSPropertyOp38
 70
     1
102
RTVSPropertyOp39
 70
     1
102
RTVSPropertyOp40
 70
     1
102
RTVSPropertyOp41
 70
     1
102
RTVSPropertyOp42
 70
     1
102
RTVSPropertyOp43
 70
     1
102
RTVSPropertyOp44
 70
     1
102
RTVSPropertyOp45
 70
     1
102
RTVSPropertyOp46
 70
     1
102
RTVSPropertyOp47
 70
     1
102
RTVSPropertyOp48
 70
     1
102
RTVSPropertyOp49
 70
     1
102
RTVSPropertyOp50
 70
     1
102
RTVSPropertyOp51
 70
     0
102
RTVSPropertyOp52
 70
     0
102
RTVSPropertyOp53
 70
     1
102
RTVSPropertyOp54
 70
     1
102
RTVSPropertyOp55
 70
     1
102
RTVSPropertyOp56
 70
     1
102
RTVSPropertyOp57
 70
     1
102
RTVSPost2010Prop28
280
     0
102
RTVSPost2010PropOp28
 70
     1
102
RTVSPost2010Prop29
280
     1
102
RTVSPost2010PropOp29
 70
     1
102
RTVSPost2010Prop30
280
     1
102
RTVSPost2010PropOp30
 70
     1
102
RTVSPost2010Prop31
280
     0
102
RTVSPost2010PropOp31
 70
     1
102
RTVSPost2010Prop32
280
     0
102
RTVSPost2010PropOp32
 70
     1
102
RTVSPost2010Prop33
280
     0
102
RTVSPost2010PropOp33
 70
     1
102
RTVSPost2010Prop34
280
     0
102
RTVSPost2010PropOp34
 70
     1
102
RTVSPost2010Prop35
280
     0
102
RTVSPost2010PropOp35
 70
     1
102
RTVSPost2010Prop36
280
     0
102
RTVSPost2010PropOp36
 70
     1
102
RTVSPost2010Prop37
 90
       50
102
RTVSPost2010PropOp37
 70
     1
102
RTVSPost2010Prop38
140
0.0
102
RTVSPost2010PropOp38
 70
     1
102
RTVSPost2010Prop39
140
1.0
102
RTVSPost2010PropOp39
 70
     1
102
RTVSPost2010Prop40
 90
        0
102
RTVSPost2010PropOp40
 70
     1
102
RTVSPost2010Prop41ColorIndex
 90
       18
102
RTVSPost2010Prop41ColorRGB
 90
        0
102
RTVSPost2010PropOp41
 70
     1
102
RTVSPost2010Prop42
 90
       50
102
RTVSPost2010PropOp42
 70
     1
102
RTVSPost2010Prop43
 90
        3
102
RTVSPost2010PropOp43
 70
     1
102
RTVSPost2010Prop44ColorIndex
 90
        5
102
RTVSPost2010Prop44ColorRGB
 90
      255
102
RTVSPost2010PropOp44
 70
     1
102
RTVSPost2010Prop45
280
     0
102
RTVSPost2010PropOp45
 70
     1
102
RTVSPost2010Prop46
 90
       50
102
RTVSPost2010PropOp46
 70
     1
102
RTVSPost2010Prop47
 90
       50
102
RTVSPost2010PropOp47
 70
     1
102
RTVSPost2010Prop48
 90
       50
102
RTVSPost2010PropOp48
 70
     1
102
RTVSPost2010Prop49
280
     0
102
RTVSPost2010PropOp49
 70
     1
102
RTVSPost2010Prop50
 90
       50
102
RTVSPost2010PropOp50
 70
     1
102
RTVSPost2010Prop51ColorIndex
 90
      256
102
RTVSPost2010Prop51ColorRGB
 90
-16777216
102
RTVSPost2010PropOp51
 70
     0
102
RTVSPost2010Prop52
140
1.0
102
RTVSPost2010PropOp52
 70
     0
102
RTVSPost2010Prop53
 90
        2
102
RTVSPost2010PropOp53
 70
     1
102
RTVSPost2010Prop54
  1
strokes_ogs.tif
102
RTVSPost2010PropOp54
 70
     1
102
RTVSPost2010Prop55
280
     0
102
RTVSPost2010PropOp55
 70
     1
102
RTVSPost2010Prop56
140
1.0
102
RTVSPost2010PropOp56
 70
     1
102
RTVSPost2010Prop57
140
1.0
102
RTVSPost2010PropOp57
 70
     1
  0
XRECORD
  5
2BA
102
{ACAD_REACTORS
330
2B9
102
}
330
2B9
100
AcDbXrecord
280
     1
102
RTVSPropertyOp0
 70
     1
102
RTVSPropertyOp1
 70
     1
102
RTVSPropertyOp2
 70
     1
102
RTVSPropertyOp3
 70
     1
102
RTVSPropertyOp4
 70
     1
102
RTVSPropertyOp5
 70
     1
102
RTVSPropertyOp6
 70
     1
102
RTVSPropertyOp7
 70
     1
102
RTVSPropertyOp8
 70
     1
102
RTVSPropertyOp9
 70
     1
102
RTVSPropertyOp10
 70
     1
102
RTVSPropertyOp11
 70
     1
102
RTVSPropertyOp12
 70
     1
102
RTVSPropertyOp13
 70
     1
102
RTVSPropertyOp14
 70
     1
102
RTVSPropertyOp15
 70
     1
102
RTVSPropertyOp16
 70
     1
102
RTVSPropertyOp17
 70
     1
102
RTVSPropertyOp18
 70
     1
102
RTVSPropertyOp19
 70
     1
102
RTVSPropertyOp20
 70
     1
102
RTVSPropertyOp21
 70
     1
102
RTVSPropertyOp22
 70
     1
102
RTVSPropertyOp23
 70
     1
102
RTVSPropertyOp24
 70
     1
102
RTVSPropertyOp25
 70
     1
102
RTVSPropertyOp26
 70
     1
102
RTVSPropertyOp27
 70
     1
102
RTVSPropertyOp28
 70
     1
102
RTVSPropertyOp29
 70
     1
102
RTVSPropertyOp30
 70
     1
102
RTVSPropertyOp31
 70
     1
102
RTVSPropertyOp32
 70
     1
102
RTVSPropertyOp33
 70
     1
102
RTVSPropertyOp34
 70
     1
102
RTVSPropertyOp35
 70
     1
102
RTVSPropertyOp36
 70
     1
102
RTVSPropertyOp37
 70
     1
102
RTVSPropertyOp38
 70
     1
102
RTVSPropertyOp39
 70
     1
102
RTVSPropertyOp40
 70
     1
102
RTVSPropertyOp41
 70
     1
102
RTVSPropertyOp42
 70
     1
102
RTVSPropertyOp43
 70
     1
102
RTVSPropertyOp44
 70
     1
102
RTVSPropertyOp45
 70
     1
102
RTVSPropertyOp46
 70
     1
102
RTVSPropertyOp47
 70
     1
102
RTVSPropertyOp48
 70
     1
102
RTVSPropertyOp49
 70
     1
102
RTVSPropertyOp50
 70
     1
102
RTVSPropertyOp51
 70
     0
102
RTVSPropertyOp52
 70
     0
102
RTVSPropertyOp53
 70
     1
102
RTVSPropertyOp54
 70
     1
102
RTVSPropertyOp55
 70
     1
102
RTVSPropertyOp56
 70
     1
102
RTVSPropertyOp57
 70
     1
102
RTVSPost2010Prop28
280
     0
102
RTVSPost2010PropOp28
 70
     1
102
RTVSPost2010Prop29
280
     1
102
RTVSPost2010PropOp29
 70
     1
102
RTVSPost2010Prop30
280
     1
102
RTVSPost2010PropOp30
 70
     1
102
RTVSPost2010Prop31
280
     0
102
RTVSPost2010PropOp31
 70
     1
102
RTVSPost2010Prop32
280
     0
102
RTVSPost2010PropOp32
 70
     1
102
RTVSPost2010Prop33
280
     0
102
RTVSPost2010PropOp33
 70
     1
102
RTVSPost2010Prop34
280
     0
102
RTVSPost2010PropOp34
 70
     1
102
RTVSPost2010Prop35
280
     0
102
RTVSPost2010PropOp35
 70
     1
102
RTVSPost2010Prop36
280
     0
102
RTVSPost2010PropOp36
 70
     1
102
RTVSPost2010Prop37
 90
       50
102
RTVSPost2010PropOp37
 70
     1
102
RTVSPost2010Prop38
140
0.0
102
RTVSPost2010PropOp38
 70
     1
102
RTVSPost2010Prop39
140
1.0
102
RTVSPost2010PropOp39
 70
     1
102
RTVSPost2010Prop40
 90
        0
102
RTVSPost2010PropOp40
 70
     1
102
RTVSPost2010Prop41ColorIndex
 90
       18
102
RTVSPost2010Prop41ColorRGB
 90
        0
102
RTVSPost2010PropOp41
 70
     1
102
RTVSPost2010Prop42
 90
       50
102
RTVSPost2010PropOp42
 70
     1
102
RTVSPost2010Prop43
 90
        3
102
RTVSPost2010PropOp43
 70
     1
102
RTVSPost2010Prop44ColorIndex
 90
        5
102
RTVSPost2010Prop44ColorRGB
 90
      255
102
RTVSPost2010PropOp44
 70
     1
102
RTVSPost2010Prop45
280
     0
102
RTVSPost2010PropOp45
 70
     1
102
RTVSPost2010Prop46
 90
       50
102
RTVSPost2010PropOp46
 70
     1
102
RTVSPost2010Prop47
 90
       50
102
RTVSPost2010PropOp47
 70
     1
102
RTVSPost2010Prop48
 90
       50
102
RTVSPost2010PropOp48
 70
     1
102
RTVSPost2010Prop49
280
     0
102
RTVSPost2010PropOp49
 70
     1
102
RTVSPost2010Prop50
 90
       50
102
RTVSPost2010PropOp50
 70
     1
102
RTVSPost2010Prop51ColorIndex
 90
      256
102
RTVSPost2010Prop51ColorRGB
 90
-16777216
102
RTVSPost2010PropOp51
 70
     0
102
RTVSPost2010Prop52
140
1.0
102
RTVSPost2010PropOp52
 70
     0
102
RTVSPost2010Prop53
 90
        2
102
RTVSPost2010PropOp53
 70
     1
102
RTVSPost2010Prop54
  1
strokes_ogs.tif
102
RTVSPost2010PropOp54
 70
     1
102
RTVSPost2010Prop55
280
     0
102
RTVSPost2010PropOp55
 70
     1
102
RTVSPost2010Prop56
140
1.0
102
RTVSPost2010PropOp56
 70
     1
102
RTVSPost2010Prop57
140
1.0
102
RTVSPost2010PropOp57
 70
     1
  0
XRECORD
  5
2CE
102
{ACAD_REACTORS
330
2CD
102
}
330
2CD
100
AcDbXrecord
280
     1
102
RTVSPropertyOp0
 70
     0
102
RTVSPropertyOp1
 70
     0
102
RTVSPropertyOp2
 70
     0
102
RTVSPropertyOp3
 70
     0
102
RTVSPropertyOp4
 70
     0
102
RTVSPropertyOp5
 70
     0
102
RTVSPropertyOp6
 70
     0
102
RTVSPropertyOp7
 70
     0
102
RTVSPropertyOp8
 70
     0
102
RTVSPropertyOp9
 70
     0
102
RTVSPropertyOp10
 70
     0
102
RTVSPropertyOp11
 70
     0
102
RTVSPropertyOp12
 70
     0
102
RTVSPropertyOp13
 70
     0
102
RTVSPropertyOp14
 70
     2
102
RTVSPropertyOp15
 70
     0
102
RTVSPropertyOp16
 70
     0
102
RTVSPropertyOp17
 70
     0
102
RTVSPropertyOp18
 70
     0
102
RTVSPropertyOp19
 70
     0
102
RTVSPropertyOp20
 70
     0
102
RTVSPropertyOp21
 70
     0
102
RTVSPropertyOp22
 70
     0
102
RTVSPropertyOp23
 70
     0
102
RTVSPropertyOp24
 70
     0
102
RTVSPropertyOp25
 70
     0
102
RTVSPropertyOp26
 70
     0
102
RTVSPropertyOp27
 70
     0
102
RTVSPropertyOp28
 70
     0
102
RTVSPropertyOp29
 70
     0
102
RTVSPropertyOp30
 70
     0
102
RTVSPropertyOp31
 70
     0
102
RTVSPropertyOp32
 70
     0
102
RTVSPropertyOp33
 70
     0
102
RTVSPropertyOp34
 70
     0
102
RTVSPropertyOp35
 70
     0
102
RTVSPropertyOp36
 70
     0
102
RTVSPropertyOp37
 70
     0
102
RTVSPropertyOp38
 70
     0
102
RTVSPropertyOp39
 70
     0
102
RTVSPropertyOp40
 70
     0
102
RTVSPropertyOp41
 70
     0
102
RTVSPropertyOp42
 70
     0
102
RTVSPropertyOp43
 70
     0
102
RTVSPropertyOp44
 70
     0
102
RTVSPropertyOp45
 70
     0
102
RTVSPropertyOp46
 70
     0
102
RTVSPropertyOp47
 70
     0
102
RTVSPropertyOp48
 70
     0
102
RTVSPropertyOp49
 70
     0
102
RTVSPropertyOp50
 70
     0
102
RTVSPropertyOp51
 70
     0
102
RTVSPropertyOp52
 70
     0
102
RTVSPropertyOp53
 70
     0
102
RTVSPropertyOp54
 70
     0
102
RTVSPropertyOp55
 70
     0
102
RTVSPropertyOp56
 70
     0
102
RTVSPropertyOp57
 70
     0
102
RTVSPost2010Prop28
280
     0
102
RTVSPost2010PropOp28
 70
     0
102
RTVSPost2010Prop29
280
     1
102
RTVSPost2010PropOp29
 70
     0
102
RTVSPost2010Prop30
280
     1
102
RTVSPost2010PropOp30
 70
     0
102
RTVSPost2010Prop31
280
     0
102
RTVSPost2010PropOp31
 70
     0
102
RTVSPost2010Prop32
280
     0
102
RTVSPost2010PropOp32
 70
     0
102
RTVSPost2010Prop33
280
     0
102
RTVSPost2010PropOp33
 70
     0
102
RTVSPost2010Prop34
280
     0
102
RTVSPost2010PropOp34
 70
     0
102
RTVSPost2010Prop35
280
     0
102
RTVSPost2010PropOp35
 70
     0
102
RTVSPost2010Prop36
280
     0
102
RTVSPost2010PropOp36
 70
     0
102
RTVSPost2010Prop37
 90
       50
102
RTVSPost2010PropOp37
 70
     0
102
RTVSPost2010Prop38
140
0.0
102
RTVSPost2010PropOp38
 70
     0
102
RTVSPost2010Prop39
140
1.0
102
RTVSPost2010PropOp39
 70
     0
102
RTVSPost2010Prop40
 90
        0
102
RTVSPost2010PropOp40
 70
     0
102
RTVSPost2010Prop41ColorIndex
 90
       18
102
RTVSPost2010Prop41ColorRGB
 90
        0
102
RTVSPost2010PropOp41
 70
     0
102
RTVSPost2010Prop42
 90
       50
102
RTVSPost2010PropOp42
 70
     0
102
RTVSPost2010Prop43
 90
        3
102
RTVSPost2010PropOp43
 70
     0
102
RTVSPost2010Prop44ColorIndex
 90
        5
102
RTVSPost2010Prop44ColorRGB
 90
      255
102
RTVSPost2010PropOp44
 70
     0
102
RTVSPost2010Prop45
280
     0
102
RTVSPost2010PropOp45
 70
     0
102
RTVSPost2010Prop46
 90
       50
102
RTVSPost2010PropOp46
 70
     0
102
RTVSPost2010Prop47
 90
       50
102
RTVSPost2010PropOp47
 70
     0
102
RTVSPost2010Prop48
 90
       50
102
RTVSPost2010PropOp48
 70
     0
102
RTVSPost2010Prop49
280
     0
102
RTVSPost2010PropOp49
 70
     0
102
RTVSPost2010Prop50
 90
       50
102
RTVSPost2010PropOp50
 70
     0
102
RTVSPost2010Prop51ColorIndex
 90
      256
102
RTVSPost2010Prop51ColorRGB
 90
-16777216
102
RTVSPost2010PropOp51
 70
     0
102
RTVSPost2010Prop52
140
1.0
102
RTVSPost2010PropOp52
 70
     0
102
RTVSPost2010Prop53
 90
        2
102
RTVSPost2010PropOp53
 70
     0
102
RTVSPost2010Prop54
  1
strokes_ogs.tif
102
RTVSPost2010PropOp54
 70
     0
102
RTVSPost2010Prop55
280
     0
102
RTVSPost2010PropOp55
 70
     0
102
RTVSPost2010Prop56
140
1.0
102
RTVSPost2010PropOp56
 70
     0
102
RTVSPost2010Prop57
140
1.0
102
RTVSPost2010PropOp57
 70
     0
  0
XRECORD
  5
2C8
102
{ACAD_REACTORS
330
2C7
102
}
330
2C7
100
AcDbXrecord
280
     1
102
RTVSPropertyOp0
 70
     1
102
RTVSPropertyOp1
 70
     1
102
RTVSPropertyOp2
 70
     1
102
RTVSPropertyOp3
 70
     1
102
RTVSPropertyOp4
 70
     1
102
RTVSPropertyOp5
 70
     1
102
RTVSPropertyOp6
 70
     1
102
RTVSPropertyOp7
 70
     1
102
RTVSPropertyOp8
 70
     1
102
RTVSPropertyOp9
 70
     1
102
RTVSPropertyOp10
 70
     1
102
RTVSPropertyOp11
 70
     1
102
RTVSPropertyOp12
 70
     1
102
RTVSPropertyOp13
 70
     1
102
RTVSPropertyOp14
 70
     1
102
RTVSPropertyOp15
 70
     1
102
RTVSPropertyOp16
 70
     1
102
RTVSPropertyOp17
 70
     1
102
RTVSPropertyOp18
 70
     1
102
RTVSPropertyOp19
 70
     1
102
RTVSPropertyOp20
 70
     1
102
RTVSPropertyOp21
 70
     1
102
RTVSPropertyOp22
 70
     1
102
RTVSPropertyOp23
 70
     1
102
RTVSPropertyOp24
 70
     1
102
RTVSPropertyOp25
 70
     1
102
RTVSPropertyOp26
 70
     1
102
RTVSPropertyOp27
 70
     1
102
RTVSPropertyOp28
 70
     1
102
RTVSPropertyOp29
 70
     1
102
RTVSPropertyOp30
 70
     1
102
RTVSPropertyOp31
 70
     1
102
RTVSPropertyOp32
 70
     1
102
RTVSPropertyOp33
 70
     1
102
RTVSPropertyOp34
 70
     1
102
RTVSPropertyOp35
 70
     1
102
RTVSPropertyOp36
 70
     1
102
RTVSPropertyOp37
 70
     1
102
RTVSPropertyOp38
 70
     1
102
RTVSPropertyOp39
 70
     1
102
RTVSPropertyOp40
 70
     1
102
RTVSPropertyOp41
 70
     1
102
RTVSPropertyOp42
 70
     1
102
RTVSPropertyOp43
 70
     1
102
RTVSPropertyOp44
 70
     1
102
RTVSPropertyOp45
 70
     1
102
RTVSPropertyOp46
 70
     1
102
RTVSPropertyOp47
 70
     1
102
RTVSPropertyOp48
 70
     1
102
RTVSPropertyOp49
 70
     1
102
RTVSPropertyOp50
 70
     1
102
RTVSPropertyOp51
 70
     0
102
RTVSPropertyOp52
 70
     0
102
RTVSPropertyOp53
 70
     1
102
RTVSPropertyOp54
 70
     1
102
RTVSPropertyOp55
 70
     1
102
RTVSPropertyOp56
 70
     1
102
RTVSPropertyOp57
 70
     1
102
RTVSPost2010Prop28
280
     0
102
RTVSPost2010PropOp28
 70
     1
102
RTVSPost2010Prop29
280
     1
102
RTVSPost2010PropOp29
 70
     1
102
RTVSPost2010Prop30
280
     1
102
RTVSPost2010PropOp30
 70
     1
102
RTVSPost2010Prop31
280
     0
102
RTVSPost2010PropOp31
 70
     1
102
RTVSPost2010Prop32
280
     0
102
RTVSPost2010PropOp32
 70
     1
102
RTVSPost2010Prop33
280
     0
102
RTVSPost2010PropOp33
 70
     1
102
RTVSPost2010Prop34
280
     0
102
RTVSPost2010PropOp34
 70
     1
102
RTVSPost2010Prop35
280
     0
102
RTVSPost2010PropOp35
 70
     1
102
RTVSPost2010Prop36
280
     0
102
RTVSPost2010PropOp36
 70
     1
102
RTVSPost2010Prop37
 90
       50
102
RTVSPost2010PropOp37
 70
     1
102
RTVSPost2010Prop38
140
0.0
102
RTVSPost2010PropOp38
 70
     1
102
RTVSPost2010Prop39
140
1.0
102
RTVSPost2010PropOp39
 70
     1
102
RTVSPost2010Prop40
 90
        0
102
RTVSPost2010PropOp40
 70
     1
102
RTVSPost2010Prop41ColorIndex
 90
       18
102
RTVSPost2010Prop41ColorRGB
 90
        0
102
RTVSPost2010PropOp41
 70
     1
102
RTVSPost2010Prop42
 90
       50
102
RTVSPost2010PropOp42
 70
     1
102
RTVSPost2010Prop43
 90
        3
102
RTVSPost2010PropOp43
 70
     1
102
RTVSPost2010Prop44ColorIndex
 90
        5
102
RTVSPost2010Prop44ColorRGB
 90
      255
102
RTVSPost2010PropOp44
 70
     1
102
RTVSPost2010Prop45
280
     0
102
RTVSPost2010PropOp45
 70
     1
102
RTVSPost2010Prop46
 90
       50
102
RTVSPost2010PropOp46
 70
     1
102
RTVSPost2010Prop47
 90
       50
102
RTVSPost2010PropOp47
 70
     1
102
RTVSPost2010Prop48
 90
       50
102
RTVSPost2010PropOp48
 70
     1
102
RTVSPost2010Prop49
280
     0
102
RTVSPost2010PropOp49
 70
     1
102
RTVSPost2010Prop50
 90
       50
102
RTVSPost2010PropOp50
 70
     1
102
RTVSPost2010Prop51ColorIndex
 90
      256
102
RTVSPost2010Prop51ColorRGB
 90
-16777216
102
RTVSPost2010PropOp51
 70
     0
102
RTVSPost2010Prop52
140
1.0
102
RTVSPost2010PropOp52
 70
     0
102
RTVSPost2010Prop53
 90
        2
102
RTVSPost2010PropOp53
 70
     1
102
RTVSPost2010Prop54
  1
strokes_ogs.tif
102
RTVSPost2010PropOp54
 70
     1
102
RTVSPost2010Prop55
280
     0
102
RTVSPost2010PropOp55
 70
     1
102
RTVSPost2010Prop56
140
1.0
102
RTVSPost2010PropOp56
 70
     1
102
RTVSPost2010Prop57
140
1.0
102
RTVSPost2010PropOp57
 70
     1
  0
XRECORD
  5
2D0
102
{ACAD_REACTORS
330
2CF
102
}
330
2CF
100
AcDbXrecord
280
     1
102
RTVSPropertyOp0
 70
     0
102
RTVSPropertyOp1
 70
     0
102
RTVSPropertyOp2
 70
     0
102
RTVSPropertyOp3
 70
     0
102
RTVSPropertyOp4
 70
     0
102
RTVSPropertyOp5
 70
     0
102
RTVSPropertyOp6
 70
     0
102
RTVSPropertyOp7
 70
     0
102
RTVSPropertyOp8
 70
     0
102
RTVSPropertyOp9
 70
     0
102
RTVSPropertyOp10
 70
     0
102
RTVSPropertyOp11
 70
     0
102
RTVSPropertyOp12
 70
     0
102
RTVSPropertyOp13
 70
     0
102
RTVSPropertyOp14
 70
     2
102
RTVSPropertyOp15
 70
     0
102
RTVSPropertyOp16
 70
     0
102
RTVSPropertyOp17
 70
     0
102
RTVSPropertyOp18
 70
     0
102
RTVSPropertyOp19
 70
     0
102
RTVSPropertyOp20
 70
     0
102
RTVSPropertyOp21
 70
     0
102
RTVSPropertyOp22
 70
     0
102
RTVSPropertyOp23
 70
     0
102
RTVSPropertyOp24
 70
     0
102
RTVSPropertyOp25
 70
     0
102
RTVSPropertyOp26
 70
     0
102
RTVSPropertyOp27
 70
     0
102
RTVSPropertyOp28
 70
     0
102
RTVSPropertyOp29
 70
     0
102
RTVSPropertyOp30
 70
     0
102
RTVSPropertyOp31
 70
     0
102
RTVSPropertyOp32
 70
     0
102
RTVSPropertyOp33
 70
     0
102
RTVSPropertyOp34
 70
     0
102
RTVSPropertyOp35
 70
     0
102
RTVSPropertyOp36
 70
     0
102
RTVSPropertyOp37
 70
     0
102
RTVSPropertyOp38
 70
     0
102
RTVSPropertyOp39
 70
     0
102
RTVSPropertyOp40
 70
     0
102
RTVSPropertyOp41
 70
     0
102
RTVSPropertyOp42
 70
     0
102
RTVSPropertyOp43
 70
     0
102
RTVSPropertyOp44
 70
     0
102
RTVSPropertyOp45
 70
     0
102
RTVSPropertyOp46
 70
     0
102
RTVSPropertyOp47
 70
     0
102
RTVSPropertyOp48
 70
     0
102
RTVSPropertyOp49
 70
     0
102
RTVSPropertyOp50
 70
     0
102
RTVSPropertyOp51
 70
     0
102
RTVSPropertyOp52
 70
     0
102
RTVSPropertyOp53
 70
     0
102
RTVSPropertyOp54
 70
     0
102
RTVSPropertyOp55
 70
     0
102
RTVSPropertyOp56
 70
     0
102
RTVSPropertyOp57
 70
     0
102
RTVSPost2010Prop28
280
     0
102
RTVSPost2010PropOp28
 70
     0
102
RTVSPost2010Prop29
280
     1
102
RTVSPost2010PropOp29
 70
     0
102
RTVSPost2010Prop30
280
     1
102
RTVSPost2010PropOp30
 70
     0
102
RTVSPost2010Prop31
280
     0
102
RTVSPost2010PropOp31
 70
     0
102
RTVSPost2010Prop32
280
     0
102
RTVSPost2010PropOp32
 70
     0
102
RTVSPost2010Prop33
280
     0
102
RTVSPost2010PropOp33
 70
     0
102
RTVSPost2010Prop34
280
     0
102
RTVSPost2010PropOp34
 70
     0
102
RTVSPost2010Prop35
280
     0
102
RTVSPost2010PropOp35
 70
     0
102
RTVSPost2010Prop36
280
     0
102
RTVSPost2010PropOp36
 70
     0
102
RTVSPost2010Prop37
 90
       50
102
RTVSPost2010PropOp37
 70
     0
102
RTVSPost2010Prop38
140
0.0
102
RTVSPost2010PropOp38
 70
     0
102
RTVSPost2010Prop39
140
1.0
102
RTVSPost2010PropOp39
 70
     0
102
RTVSPost2010Prop40
 90
        0
102
RTVSPost2010PropOp40
 70
     0
102
RTVSPost2010Prop41ColorIndex
 90
       18
102
RTVSPost2010Prop41ColorRGB
 90
        0
102
RTVSPost2010PropOp41
 70
     0
102
RTVSPost2010Prop42
 90
       50
102
RTVSPost2010PropOp42
 70
     0
102
RTVSPost2010Prop43
 90
        3
102
RTVSPost2010PropOp43
 70
     0
102
RTVSPost2010Prop44ColorIndex
 90
        5
102
RTVSPost2010Prop44ColorRGB
 90
      255
102
RTVSPost2010PropOp44
 70
     0
102
RTVSPost2010Prop45
280
     0
102
RTVSPost2010PropOp45
 70
     0
102
RTVSPost2010Prop46
 90
       50
102
RTVSPost2010PropOp46
 70
     0
102
RTVSPost2010Prop47
 90
       50
102
RTVSPost2010PropOp47
 70
     0
102
RTVSPost2010Prop48
 90
       50
102
RTVSPost2010PropOp48
 70
     0
102
RTVSPost2010Prop49
280
     0
102
RTVSPost2010PropOp49
 70
     0
102
RTVSPost2010Prop50
 90
       50
102
RTVSPost2010PropOp50
 70
     0
102
RTVSPost2010Prop51ColorIndex
 90
      256
102
RTVSPost2010Prop51ColorRGB
 90
-16777216
102
RTVSPost2010PropOp51
 70
     0
102
RTVSPost2010Prop52
140
1.0
102
RTVSPost2010PropOp52
 70
     0
102
RTVSPost2010Prop53
 90
        2
102
RTVSPost2010PropOp53
 70
     0
102
RTVSPost2010Prop54
  1
strokes_ogs.tif
102
RTVSPost2010PropOp54
 70
     0
102
RTVSPost2010Prop55
280
     0
102
RTVSPost2010PropOp55
 70
     0
102
RTVSPost2010Prop56
140
1.0
102
RTVSPost2010PropOp56
 70
     0
102
RTVSPost2010Prop57
140
1.0
102
RTVSPost2010PropOp57
 70
     0
  0
XRECORD
  5
2BE
102
{ACAD_REACTORS
330
2BD
102
}
330
2BD
100
AcDbXrecord
280
     1
102
RTVSPropertyOp0
 70
     1
102
RTVSPropertyOp1
 70
     1
102
RTVSPropertyOp2
 70
     1
102
RTVSPropertyOp3
 70
     1
102
RTVSPropertyOp4
 70
     1
102
RTVSPropertyOp5
 70
     1
102
RTVSPropertyOp6
 70
     1
102
RTVSPropertyOp7
 70
     1
102
RTVSPropertyOp8
 70
     1
102
RTVSPropertyOp9
 70
     1
102
RTVSPropertyOp10
 70
     1
102
RTVSPropertyOp11
 70
     1
102
RTVSPropertyOp12
 70
     1
102
RTVSPropertyOp13
 70
     1
102
RTVSPropertyOp14
 70
     1
102
RTVSPropertyOp15
 70
     1
102
RTVSPropertyOp16
 70
     1
102
RTVSPropertyOp17
 70
     1
102
RTVSPropertyOp18
 70
     1
102
RTVSPropertyOp19
 70
     1
102
RTVSPropertyOp20
 70
     1
102
RTVSPropertyOp21
 70
     1
102
RTVSPropertyOp22
 70
     1
102
RTVSPropertyOp23
 70
     1
102
RTVSPropertyOp24
 70
     1
102
RTVSPropertyOp25
 70
     1
102
RTVSPropertyOp26
 70
     1
102
RTVSPropertyOp27
 70
     1
102
RTVSPropertyOp28
 70
     1
102
RTVSPropertyOp29
 70
     1
102
RTVSPropertyOp30
 70
     1
102
RTVSPropertyOp31
 70
     1
102
RTVSPropertyOp32
 70
     1
102
RTVSPropertyOp33
 70
     1
102
RTVSPropertyOp34
 70
     1
102
RTVSPropertyOp35
 70
     1
102
RTVSPropertyOp36
 70
     1
102
RTVSPropertyOp37
 70
     1
102
RTVSPropertyOp38
 70
     1
102
RTVSPropertyOp39
 70
     1
102
RTVSPropertyOp40
 70
     1
102
RTVSPropertyOp41
 70
     1
102
RTVSPropertyOp42
 70
     1
102
RTVSPropertyOp43
 70
     1
102
RTVSPropertyOp44
 70
     1
102
RTVSPropertyOp45
 70
     1
102
RTVSPropertyOp46
 70
     1
102
RTVSPropertyOp47
 70
     1
102
RTVSPropertyOp48
 70
     1
102
RTVSPropertyOp49
 70
     1
102
RTVSPropertyOp50
 70
     1
102
RTVSPropertyOp51
 70
     0
102
RTVSPropertyOp52
 70
     0
102
RTVSPropertyOp53
 70
     1
102
RTVSPropertyOp54
 70
     1
102
RTVSPropertyOp55
 70
     1
102
RTVSPropertyOp56
 70
     1
102
RTVSPropertyOp57
 70
     1
102
RTVSPost2010Prop28
280
     0
102
RTVSPost2010PropOp28
 70
     1
102
RTVSPost2010Prop29
280
     1
102
RTVSPost2010PropOp29
 70
     1
102
RTVSPost2010Prop30
280
     1
102
RTVSPost2010PropOp30
 70
     1
102
RTVSPost2010Prop31
280
     0
102
RTVSPost2010PropOp31
 70
     1
102
RTVSPost2010Prop32
280
     0
102
RTVSPost2010PropOp32
 70
     1
102
RTVSPost2010Prop33
280
     0
102
RTVSPost2010PropOp33
 70
     1
102
RTVSPost2010Prop34
280
     0
102
RTVSPost2010PropOp34
 70
     1
102
RTVSPost2010Prop35
280
     0
102
RTVSPost2010PropOp35
 70
     1
102
RTVSPost2010Prop36
280
     0
102
RTVSPost2010PropOp36
 70
     1
102
RTVSPost2010Prop37
 90
       50
102
RTVSPost2010PropOp37
 70
     1
102
RTVSPost2010Prop38
140
0.0
102
RTVSPost2010PropOp38
 70
     1
102
RTVSPost2010Prop39
140
1.0
102
RTVSPost2010PropOp39
 70
     1
102
RTVSPost2010Prop40
 90
        0
102
RTVSPost2010PropOp40
 70
     1
102
RTVSPost2010Prop41ColorIndex
 90
       18
102
RTVSPost2010Prop41ColorRGB
 90
        0
102
RTVSPost2010PropOp41
 70
     1
102
RTVSPost2010Prop42
 90
       50
102
RTVSPost2010PropOp42
 70
     1
102
RTVSPost2010Prop43
 90
        3
102
RTVSPost2010PropOp43
 70
     1
102
RTVSPost2010Prop44ColorIndex
 90
        5
102
RTVSPost2010Prop44ColorRGB
 90
      255
102
RTVSPost2010PropOp44
 70
     1
102
RTVSPost2010Prop45
280
     0
102
RTVSPost2010PropOp45
 70
     1
102
RTVSPost2010Prop46
 90
       50
102
RTVSPost2010PropOp46
 70
     1
102
RTVSPost2010Prop47
 90
       50
102
RTVSPost2010PropOp47
 70
     1
102
RTVSPost2010Prop48
 90
       50
102
RTVSPost2010PropOp48
 70
     1
102
RTVSPost2010Prop49
280
     0
102
RTVSPost2010PropOp49
 70
     1
102
RTVSPost2010Prop50
 90
       50
102
RTVSPost2010PropOp50
 70
     1
102
RTVSPost2010Prop51ColorIndex
 90
      256
102
RTVSPost2010Prop51ColorRGB
 90
-16777216
102
RTVSPost2010PropOp51
 70
     0
102
RTVSPost2010Prop52
140
1.0
102
RTVSPost2010PropOp52
 70
     0
102
RTVSPost2010Prop53
 90
        2
102
RTVSPost2010PropOp53
 70
     1
102
RTVSPost2010Prop54
  1
strokes_ogs.tif
102
RTVSPost2010PropOp54
 70
     1
102
RTVSPost2010Prop55
280
     0
102
RTVSPost2010PropOp55
 70
     1
102
RTVSPost2010Prop56
140
1.0
102
RTVSPost2010PropOp56
 70
     1
102
RTVSPost2010Prop57
140
1.0
102
RTVSPost2010PropOp57
 70
     1
  0
XRECORD
  5
2DC
102
{ACAD_REACTORS
330
2DB
102
}
330
2DB
100
AcDbXrecord
280
     1
102
RTVSPropertyOp0
 70
     1
102
RTVSPropertyOp1
 70
     1
102
RTVSPropertyOp2
 70
     1
102
RTVSPropertyOp3
 70
     1
102
RTVSPropertyOp4
 70
     1
102
RTVSPropertyOp5
 70
     1
102
RTVSPropertyOp6
 70
     1
102
RTVSPropertyOp7
 70
     1
102
RTVSPropertyOp8
 70
     1
102
RTVSPropertyOp9
 70
     1
102
RTVSPropertyOp10
 70
     1
102
RTVSPropertyOp11
 70
     1
102
RTVSPropertyOp12
 70
     1
102
RTVSPropertyOp13
 70
     1
102
RTVSPropertyOp14
 70
     1
102
RTVSPropertyOp15
 70
     1
102
RTVSPropertyOp16
 70
     1
102
RTVSPropertyOp17
 70
     1
102
RTVSPropertyOp18
 70
     1
102
RTVSPropertyOp19
 70
     1
102
RTVSPropertyOp20
 70
     1
102
RTVSPropertyOp21
 70
     1
102
RTVSPropertyOp22
 70
     1
102
RTVSPropertyOp23
 70
     1
102
RTVSPropertyOp24
 70
     1
102
RTVSPropertyOp25
 70
     1
102
RTVSPropertyOp26
 70
     1
102
RTVSPropertyOp27
 70
     1
102
RTVSPropertyOp28
 70
     1
102
RTVSPropertyOp29
 70
     1
102
RTVSPropertyOp30
 70
     1
102
RTVSPropertyOp31
 70
     1
102
RTVSPropertyOp32
 70
     1
102
RTVSPropertyOp33
 70
     1
102
RTVSPropertyOp34
 70
     1
102
RTVSPropertyOp35
 70
     1
102
RTVSPropertyOp36
 70
     1
102
RTVSPropertyOp37
 70
     1
102
RTVSPropertyOp38
 70
     1
102
RTVSPropertyOp39
 70
     1
102
RTVSPropertyOp40
 70
     1
102
RTVSPropertyOp41
 70
     1
102
RTVSPropertyOp42
 70
     1
102
RTVSPropertyOp43
 70
     1
102
RTVSPropertyOp44
 70
     1
102
RTVSPropertyOp45
 70
     1
102
RTVSPropertyOp46
 70
     1
102
RTVSPropertyOp47
 70
     1
102
RTVSPropertyOp48
 70
     1
102
RTVSPropertyOp49
 70
     1
102
RTVSPropertyOp50
 70
     1
102
RTVSPropertyOp51
 70
     0
102
RTVSPropertyOp52
 70
     0
102
RTVSPropertyOp53
 70
     1
102
RTVSPropertyOp54
 70
     1
102
RTVSPropertyOp55
 70
     1
102
RTVSPropertyOp56
 70
     1
102
RTVSPropertyOp57
 70
     1
102
RTVSPost2010Prop28
280
     0
102
RTVSPost2010PropOp28
 70
     1
102
RTVSPost2010Prop29
280
     1
102
RTVSPost2010PropOp29
 70
     1
102
RTVSPost2010Prop30
280
     1
102
RTVSPost2010PropOp30
 70
     1
102
RTVSPost2010Prop31
280
     0
102
RTVSPost2010PropOp31
 70
     1
102
RTVSPost2010Prop32
280
     0
102
RTVSPost2010PropOp32
 70
     1
102
RTVSPost2010Prop33
280
     0
102
RTVSPost2010PropOp33
 70
     1
102
RTVSPost2010Prop34
280
     0
102
RTVSPost2010PropOp34
 70
     1
102
RTVSPost2010Prop35
280
     0
102
RTVSPost2010PropOp35
 70
     1
102
RTVSPost2010Prop36
280
     0
102
RTVSPost2010PropOp36
 70
     1
102
RTVSPost2010Prop37
 90
       50
102
RTVSPost2010PropOp37
 70
     1
102
RTVSPost2010Prop38
140
0.0
102
RTVSPost2010PropOp38
 70
     1
102
RTVSPost2010Prop39
140
1.0
102
RTVSPost2010PropOp39
 70
     1
102
RTVSPost2010Prop40
 90
        0
102
RTVSPost2010PropOp40
 70
     1
102
RTVSPost2010Prop41ColorIndex
 90
       18
102
RTVSPost2010Prop41ColorRGB
 90
        0
102
RTVSPost2010PropOp41
 70
     1
102
RTVSPost2010Prop42
 90
       50
102
RTVSPost2010PropOp42
 70
     1
102
RTVSPost2010Prop43
 90
        3
102
RTVSPost2010PropOp43
 70
     1
102
RTVSPost2010Prop44ColorIndex
 90
        5
102
RTVSPost2010Prop44ColorRGB
 90
      255
102
RTVSPost2010PropOp44
 70
     1
102
RTVSPost2010Prop45
280
     0
102
RTVSPost2010PropOp45
 70
     1
102
RTVSPost2010Prop46
 90
       50
102
RTVSPost2010PropOp46
 70
     1
102
RTVSPost2010Prop47
 90
       50
102
RTVSPost2010PropOp47
 70
     1
102
RTVSPost2010Prop48
 90
       50
102
RTVSPost2010PropOp48
 70
     1
102
RTVSPost2010Prop49
280
     0
102
RTVSPost2010PropOp49
 70
     1
102
RTVSPost2010Prop50
 90
       50
102
RTVSPost2010PropOp50
 70
     1
102
RTVSPost2010Prop51ColorIndex
 90
      256
102
RTVSPost2010Prop51ColorRGB
 90
-16777216
102
RTVSPost2010PropOp51
 70
     0
102
RTVSPost2010Prop52
140
1.0
102
RTVSPost2010PropOp52
 70
     0
102
RTVSPost2010Prop53
 90
        2
102
RTVSPost2010PropOp53
 70
     1
102
RTVSPost2010Prop54
  1
strokes_ogs.tif
102
RTVSPost2010PropOp54
 70
     1
102
RTVSPost2010Prop55
280
     0
102
RTVSPost2010PropOp55
 70
     1
102
RTVSPost2010Prop56
140
1.0
102
RTVSPost2010PropOp56
 70
     1
102
RTVSPost2010Prop57
140
1.0
102
RTVSPost2010PropOp57
 70
     1
  0
XRECORD
  5
2DA
102
{ACAD_REACTORS
330
2D9
102
}
330
2D9
100
AcDbXrecord
280
     1
102
RTVSPropertyOp0
 70
     1
102
RTVSPropertyOp1
 70
     1
102
RTVSPropertyOp2
 70
     1
102
RTVSPropertyOp3
 70
     1
102
RTVSPropertyOp4
 70
     1
102
RTVSPropertyOp5
 70
     1
102
RTVSPropertyOp6
 70
     1
102
RTVSPropertyOp7
 70
     1
102
RTVSPropertyOp8
 70
     1
102
RTVSPropertyOp9
 70
     1
102
RTVSPropertyOp10
 70
     1
102
RTVSPropertyOp11
 70
     1
102
RTVSPropertyOp12
 70
     1
102
RTVSPropertyOp13
 70
     1
102
RTVSPropertyOp14
 70
     1
102
RTVSPropertyOp15
 70
     1
102
RTVSPropertyOp16
 70
     1
102
RTVSPropertyOp17
 70
     1
102
RTVSPropertyOp18
 70
     1
102
RTVSPropertyOp19
 70
     1
102
RTVSPropertyOp20
 70
     1
102
RTVSPropertyOp21
 70
     1
102
RTVSPropertyOp22
 70
     1
102
RTVSPropertyOp23
 70
     1
102
RTVSPropertyOp24
 70
     1
102
RTVSPropertyOp25
 70
     1
102
RTVSPropertyOp26
 70
     1
102
RTVSPropertyOp27
 70
     1
102
RTVSPropertyOp28
 70
     1
102
RTVSPropertyOp29
 70
     1
102
RTVSPropertyOp30
 70
     1
102
RTVSPropertyOp31
 70
     1
102
RTVSPropertyOp32
 70
     1
102
RTVSPropertyOp33
 70
     1
102
RTVSPropertyOp34
 70
     1
102
RTVSPropertyOp35
 70
     1
102
RTVSPropertyOp36
 70
     1
102
RTVSPropertyOp37
 70
     1
102
RTVSPropertyOp38
 70
     1
102
RTVSPropertyOp39
 70
     1
102
RTVSPropertyOp40
 70
     1
102
RTVSPropertyOp41
 70
     1
102
RTVSPropertyOp42
 70
     1
102
RTVSPropertyOp43
 70
     1
102
RTVSPropertyOp44
 70
     1
102
RTVSPropertyOp45
 70
     1
102
RTVSPropertyOp46
 70
     1
102
RTVSPropertyOp47
 70
     1
102
RTVSPropertyOp48
 70
     1
102
RTVSPropertyOp49
 70
     1
102
RTVSPropertyOp50
 70
     1
102
RTVSPropertyOp51
 70
     0
102
RTVSPropertyOp52
 70
     0
102
RTVSPropertyOp53
 70
     1
102
RTVSPropertyOp54
 70
     1
102
RTVSPropertyOp55
 70
     1
102
RTVSPropertyOp56
 70
     1
102
RTVSPropertyOp57
 70
     1
102
RTVSPost2010Prop28
280
     0
102
RTVSPost2010PropOp28
 70
     1
102
RTVSPost2010Prop29
280
     1
102
RTVSPost2010PropOp29
 70
     1
102
RTVSPost2010Prop30
280
     1
102
RTVSPost2010PropOp30
 70
     1
102
RTVSPost2010Prop31
280
     0
102
RTVSPost2010PropOp31
 70
     1
102
RTVSPost2010Prop32
280
     0
102
RTVSPost2010PropOp32
 70
     1
102
RTVSPost2010Prop33
280
     0
102
RTVSPost2010PropOp33
 70
     1
102
RTVSPost2010Prop34
280
     0
102
RTVSPost2010PropOp34
 70
     1
102
RTVSPost2010Prop35
280
     0
102
RTVSPost2010PropOp35
 70
     1
102
RTVSPost2010Prop36
280
     0
102
RTVSPost2010PropOp36
 70
     1
102
RTVSPost2010Prop37
 90
       50
102
RTVSPost2010PropOp37
 70
     1
102
RTVSPost2010Prop38
140
0.0
102
RTVSPost2010PropOp38
 70
     1
102
RTVSPost2010Prop39
140
1.0
102
RTVSPost2010PropOp39
 70
     1
102
RTVSPost2010Prop40
 90
        0
102
RTVSPost2010PropOp40
 70
     1
102
RTVSPost2010Prop41ColorIndex
 90
       18
102
RTVSPost2010Prop41ColorRGB
 90
        0
102
RTVSPost2010PropOp41
 70
     1
102
RTVSPost2010Prop42
 90
       50
102
RTVSPost2010PropOp42
 70
     1
102
RTVSPost2010Prop43
 90
        3
102
RTVSPost2010PropOp43
 70
     1
102
RTVSPost2010Prop44ColorIndex
 90
        5
102
RTVSPost2010Prop44ColorRGB
 90
      255
102
RTVSPost2010PropOp44
 70
     1
102
RTVSPost2010Prop45
280
     0
102
RTVSPost2010PropOp45
 70
     1
102
RTVSPost2010Prop46
 90
       50
102
RTVSPost2010PropOp46
 70
     1
102
RTVSPost2010Prop47
 90
       50
102
RTVSPost2010PropOp47
 70
     1
102
RTVSPost2010Prop48
 90
       50
102
RTVSPost2010PropOp48
 70
     1
102
RTVSPost2010Prop49
280
     0
102
RTVSPost2010PropOp49
 70
     1
102
RTVSPost2010Prop50
 90
       50
102
RTVSPost2010PropOp50
 70
     1
102
RTVSPost2010Prop51ColorIndex
 90
      256
102
RTVSPost2010Prop51ColorRGB
 90
-16777216
102
RTVSPost2010PropOp51
 70
     0
102
RTVSPost2010Prop52
140
1.0
102
RTVSPost2010PropOp52
 70
     0
102
RTVSPost2010Prop53
 90
        2
102
RTVSPost2010PropOp53
 70
     1
102
RTVSPost2010Prop54
  1
strokes_ogs.tif
102
RTVSPost2010PropOp54
 70
     1
102
RTVSPost2010Prop55
280
     0
102
RTVSPost2010PropOp55
 70
     1
102
RTVSPost2010Prop56
140
1.0
102
RTVSPost2010PropOp56
 70
     1
102
RTVSPost2010Prop57
140
1.0
102
RTVSPost2010PropOp57
 70
     1
  0
XRECORD
  5
2D4
102
{ACAD_REACTORS
330
2D3
102
}
330
2D3
100
AcDbXrecord
280
     1
102
RTVSPropertyOp0
 70
     1
102
RTVSPropertyOp1
 70
     1
102
RTVSPropertyOp2
 70
     1
102
RTVSPropertyOp3
 70
     1
102
RTVSPropertyOp4
 70
     1
102
RTVSPropertyOp5
 70
     1
102
RTVSPropertyOp6
 70
     1
102
RTVSPropertyOp7
 70
     1
102
RTVSPropertyOp8
 70
     1
102
RTVSPropertyOp9
 70
     1
102
RTVSPropertyOp10
 70
     1
102
RTVSPropertyOp11
 70
     1
102
RTVSPropertyOp12
 70
     1
102
RTVSPropertyOp13
 70
     1
102
RTVSPropertyOp14
 70
     1
102
RTVSPropertyOp15
 70
     1
102
RTVSPropertyOp16
 70
     1
102
RTVSPropertyOp17
 70
     1
102
RTVSPropertyOp18
 70
     1
102
RTVSPropertyOp19
 70
     1
102
RTVSPropertyOp20
 70
     1
102
RTVSPropertyOp21
 70
     1
102
RTVSPropertyOp22
 70
     1
102
RTVSPropertyOp23
 70
     1
102
RTVSPropertyOp24
 70
     1
102
RTVSPropertyOp25
 70
     1
102
RTVSPropertyOp26
 70
     1
102
RTVSPropertyOp27
 70
     1
102
RTVSPropertyOp28
 70
     1
102
RTVSPropertyOp29
 70
     1
102
RTVSPropertyOp30
 70
     1
102
RTVSPropertyOp31
 70
     1
102
RTVSPropertyOp32
 70
     1
102
RTVSPropertyOp33
 70
     1
102
RTVSPropertyOp34
 70
     1
102
RTVSPropertyOp35
 70
     1
102
RTVSPropertyOp36
 70
     1
102
RTVSPropertyOp37
 70
     1
102
RTVSPropertyOp38
 70
     1
102
RTVSPropertyOp39
 70
     1
102
RTVSPropertyOp40
 70
     1
102
RTVSPropertyOp41
 70
     1
102
RTVSPropertyOp42
 70
     1
102
RTVSPropertyOp43
 70
     1
102
RTVSPropertyOp44
 70
     1
102
RTVSPropertyOp45
 70
     1
102
RTVSPropertyOp46
 70
     1
102
RTVSPropertyOp47
 70
     1
102
RTVSPropertyOp48
 70
     1
102
RTVSPropertyOp49
 70
     1
102
RTVSPropertyOp50
 70
     1
102
RTVSPropertyOp51
 70
     0
102
RTVSPropertyOp52
 70
     0
102
RTVSPropertyOp53
 70
     1
102
RTVSPropertyOp54
 70
     1
102
RTVSPropertyOp55
 70
     1
102
RTVSPropertyOp56
 70
     1
102
RTVSPropertyOp57
 70
     1
102
RTVSPost2010Prop28
280
     0
102
RTVSPost2010PropOp28
 70
     1
102
RTVSPost2010Prop29
280
     1
102
RTVSPost2010PropOp29
 70
     1
102
RTVSPost2010Prop30
280
     1
102
RTVSPost2010PropOp30
 70
     1
102
RTVSPost2010Prop31
280
     0
102
RTVSPost2010PropOp31
 70
     1
102
RTVSPost2010Prop32
280
     0
102
RTVSPost2010PropOp32
 70
     1
102
RTVSPost2010Prop33
280
     0
102
RTVSPost2010PropOp33
 70
     1
102
RTVSPost2010Prop34
280
     0
102
RTVSPost2010PropOp34
 70
     1
102
RTVSPost2010Prop35
280
     0
102
RTVSPost2010PropOp35
 70
     1
102
RTVSPost2010Prop36
280
     0
102
RTVSPost2010PropOp36
 70
     1
102
RTVSPost2010Prop37
 90
       50
102
RTVSPost2010PropOp37
 70
     1
102
RTVSPost2010Prop38
140
0.0
102
RTVSPost2010PropOp38
 70
     1
102
RTVSPost2010Prop39
140
1.0
102
RTVSPost2010PropOp39
 70
     1
102
RTVSPost2010Prop40
 90
        0
102
RTVSPost2010PropOp40
 70
     1
102
RTVSPost2010Prop41ColorIndex
 90
       18
102
RTVSPost2010Prop41ColorRGB
 90
        0
102
RTVSPost2010PropOp41
 70
     1
102
RTVSPost2010Prop42
 90
       50
102
RTVSPost2010PropOp42
 70
     1
102
RTVSPost2010Prop43
 90
        3
102
RTVSPost2010PropOp43
 70
     1
102
RTVSPost2010Prop44ColorIndex
 90
        5
102
RTVSPost2010Prop44ColorRGB
 90
      255
102
RTVSPost2010PropOp44
 70
     1
102
RTVSPost2010Prop45
280
     0
102
RTVSPost2010PropOp45
 70
     1
102
RTVSPost2010Prop46
 90
       50
102
RTVSPost2010PropOp46
 70
     1
102
RTVSPost2010Prop47
 90
       50
102
RTVSPost2010PropOp47
 70
     1
102
RTVSPost2010Prop48
 90
       50
102
RTVSPost2010PropOp48
 70
     1
102
RTVSPost2010Prop49
280
     0
102
RTVSPost2010PropOp49
 70
     1
102
RTVSPost2010Prop50
 90
       50
102
RTVSPost2010PropOp50
 70
     1
102
RTVSPost2010Prop51ColorIndex
 90
      256
102
RTVSPost2010Prop51ColorRGB
 90
-16777216
102
RTVSPost2010PropOp51
 70
     0
102
RTVSPost2010Prop52
140
1.0
102
RTVSPost2010PropOp52
 70
     0
102
RTVSPost2010Prop53
 90
        2
102
RTVSPost2010PropOp53
 70
     1
102
RTVSPost2010Prop54
  1
strokes_ogs.tif
102
RTVSPost2010PropOp54
 70
     1
102
RTVSPost2010Prop55
280
     0
102
RTVSPost2010PropOp55
 70
     1
102
RTVSPost2010Prop56
140
1.0
102
RTVSPost2010PropOp56
 70
     1
102
RTVSPost2010Prop57
140
1.0
102
RTVSPost2010PropOp57
 70
     1
  0
XRECORD
  5
2D6
102
{ACAD_REACTORS
330
2D5
102
}
330
2D5
100
AcDbXrecord
280
     1
102
RTVSPropertyOp0
 70
     1
102
RTVSPropertyOp1
 70
     1
102
RTVSPropertyOp2
 70
     1
102
RTVSPropertyOp3
 70
     1
102
RTVSPropertyOp4
 70
     1
102
RTVSPropertyOp5
 70
     1
102
RTVSPropertyOp6
 70
     1
102
RTVSPropertyOp7
 70
     1
102
RTVSPropertyOp8
 70
     1
102
RTVSPropertyOp9
 70
     1
102
RTVSPropertyOp10
 70
     1
102
RTVSPropertyOp11
 70
     1
102
RTVSPropertyOp12
 70
     1
102
RTVSPropertyOp13
 70
     1
102
RTVSPropertyOp14
 70
     1
102
RTVSPropertyOp15
 70
     1
102
RTVSPropertyOp16
 70
     1
102
RTVSPropertyOp17
 70
     1
102
RTVSPropertyOp18
 70
     1
102
RTVSPropertyOp19
 70
     1
102
RTVSPropertyOp20
 70
     1
102
RTVSPropertyOp21
 70
     1
102
RTVSPropertyOp22
 70
     1
102
RTVSPropertyOp23
 70
     1
102
RTVSPropertyOp24
 70
     1
102
RTVSPropertyOp25
 70
     1
102
RTVSPropertyOp26
 70
     1
102
RTVSPropertyOp27
 70
     1
102
RTVSPropertyOp28
 70
     1
102
RTVSPropertyOp29
 70
     1
102
RTVSPropertyOp30
 70
     1
102
RTVSPropertyOp31
 70
     1
102
RTVSPropertyOp32
 70
     1
102
RTVSPropertyOp33
 70
     1
102
RTVSPropertyOp34
 70
     1
102
RTVSPropertyOp35
 70
     1
102
RTVSPropertyOp36
 70
     1
102
RTVSPropertyOp37
 70
     1
102
RTVSPropertyOp38
 70
     1
102
RTVSPropertyOp39
 70
     1
102
RTVSPropertyOp40
 70
     1
102
RTVSPropertyOp41
 70
     1
102
RTVSPropertyOp42
 70
     1
102
RTVSPropertyOp43
 70
     1
102
RTVSPropertyOp44
 70
     1
102
RTVSPropertyOp45
 70
     1
102
RTVSPropertyOp46
 70
     1
102
RTVSPropertyOp47
 70
     1
102
RTVSPropertyOp48
 70
     1
102
RTVSPropertyOp49
 70
     1
102
RTVSPropertyOp50
 70
     1
102
RTVSPropertyOp51
 70
     0
102
RTVSPropertyOp52
 70
     0
102
RTVSPropertyOp53
 70
     1
102
RTVSPropertyOp54
 70
     1
102
RTVSPropertyOp55
 70
     1
102
RTVSPropertyOp56
 70
     1
102
RTVSPropertyOp57
 70
     1
102
RTVSPost2010Prop28
280
     0
102
RTVSPost2010PropOp28
 70
     1
102
RTVSPost2010Prop29
280
     1
102
RTVSPost2010PropOp29
 70
     1
102
RTVSPost2010Prop30
280
     1
102
RTVSPost2010PropOp30
 70
     1
102
RTVSPost2010Prop31
280
     0
102
RTVSPost2010PropOp31
 70
     1
102
RTVSPost2010Prop32
280
     0
102
RTVSPost2010PropOp32
 70
     1
102
RTVSPost2010Prop33
280
     0
102
RTVSPost2010PropOp33
 70
     1
102
RTVSPost2010Prop34
280
     0
102
RTVSPost2010PropOp34
 70
     1
102
RTVSPost2010Prop35
280
     0
102
RTVSPost2010PropOp35
 70
     1
102
RTVSPost2010Prop36
280
     0
102
RTVSPost2010PropOp36
 70
     1
102
RTVSPost2010Prop37
 90
       50
102
RTVSPost2010PropOp37
 70
     1
102
RTVSPost2010Prop38
140
0.0
102
RTVSPost2010PropOp38
 70
     1
102
RTVSPost2010Prop39
140
1.0
102
RTVSPost2010PropOp39
 70
     1
102
RTVSPost2010Prop40
 90
        0
102
RTVSPost2010PropOp40
 70
     1
102
RTVSPost2010Prop41ColorIndex
 90
       18
102
RTVSPost2010Prop41ColorRGB
 90
        0
102
RTVSPost2010PropOp41
 70
     1
102
RTVSPost2010Prop42
 90
       50
102
RTVSPost2010PropOp42
 70
     1
102
RTVSPost2010Prop43
 90
        3
102
RTVSPost2010PropOp43
 70
     1
102
RTVSPost2010Prop44ColorIndex
 90
        5
102
RTVSPost2010Prop44ColorRGB
 90
      255
102
RTVSPost2010PropOp44
 70
     1
102
RTVSPost2010Prop45
280
     0
102
RTVSPost2010PropOp45
 70
     1
102
RTVSPost2010Prop46
 90
       50
102
RTVSPost2010PropOp46
 70
     1
102
RTVSPost2010Prop47
 90
       50
102
RTVSPost2010PropOp47
 70
     1
102
RTVSPost2010Prop48
 90
       50
102
RTVSPost2010PropOp48
 70
     1
102
RTVSPost2010Prop49
280
     0
102
RTVSPost2010PropOp49
 70
     1
102
RTVSPost2010Prop50
 90
       50
102
RTVSPost2010PropOp50
 70
     1
102
RTVSPost2010Prop51ColorIndex
 90
      256
102
RTVSPost2010Prop51ColorRGB
 90
-16777216
102
RTVSPost2010PropOp51
 70
     0
102
RTVSPost2010Prop52
140
1.0
102
RTVSPost2010PropOp52
 70
     0
102
RTVSPost2010Prop53
 90
        2
102
RTVSPost2010PropOp53
 70
     1
102
RTVSPost2010Prop54
  1
strokes_ogs.tif
102
RTVSPost2010PropOp54
 70
     1
102
RTVSPost2010Prop55
280
     0
102
RTVSPost2010PropOp55
 70
     1
102
RTVSPost2010Prop56
140
1.0
102
RTVSPost2010PropOp56
 70
     1
102
RTVSPost2010Prop57
140
1.0
102
RTVSPost2010PropOp57
 70
     1
  0
XRECORD
  5
2C6
102
{ACAD_REACTORS
330
2C5
102
}
330
2C5
100
AcDbXrecord
280
     1
102
RTVSPropertyOp0
 70
     1
102
RTVSPropertyOp1
 70
     1
102
RTVSPropertyOp2
 70
     1
102
RTVSPropertyOp3
 70
     1
102
RTVSPropertyOp4
 70
     1
102
RTVSPropertyOp5
 70
     1
102
RTVSPropertyOp6
 70
     1
102
RTVSPropertyOp7
 70
     1
102
RTVSPropertyOp8
 70
     1
102
RTVSPropertyOp9
 70
     1
102
RTVSPropertyOp10
 70
     1
102
RTVSPropertyOp11
 70
     1
102
RTVSPropertyOp12
 70
     1
102
RTVSPropertyOp13
 70
     1
102
RTVSPropertyOp14
 70
     1
102
RTVSPropertyOp15
 70
     1
102
RTVSPropertyOp16
 70
     1
102
RTVSPropertyOp17
 70
     1
102
RTVSPropertyOp18
 70
     1
102
RTVSPropertyOp19
 70
     1
102
RTVSPropertyOp20
 70
     1
102
RTVSPropertyOp21
 70
     1
102
RTVSPropertyOp22
 70
     1
102
RTVSPropertyOp23
 70
     1
102
RTVSPropertyOp24
 70
     1
102
RTVSPropertyOp25
 70
     1
102
RTVSPropertyOp26
 70
     1
102
RTVSPropertyOp27
 70
     1
102
RTVSPropertyOp28
 70
     1
102
RTVSPropertyOp29
 70
     1
102
RTVSPropertyOp30
 70
     1
102
RTVSPropertyOp31
 70
     1
102
RTVSPropertyOp32
 70
     1
102
RTVSPropertyOp33
 70
     1
102
RTVSPropertyOp34
 70
     1
102
RTVSPropertyOp35
 70
     1
102
RTVSPropertyOp36
 70
     1
102
RTVSPropertyOp37
 70
     1
102
RTVSPropertyOp38
 70
     1
102
RTVSPropertyOp39
 70
     1
102
RTVSPropertyOp40
 70
     1
102
RTVSPropertyOp41
 70
     1
102
RTVSPropertyOp42
 70
     1
102
RTVSPropertyOp43
 70
     1
102
RTVSPropertyOp44
 70
     1
102
RTVSPropertyOp45
 70
     1
102
RTVSPropertyOp46
 70
     1
102
RTVSPropertyOp47
 70
     1
102
RTVSPropertyOp48
 70
     1
102
RTVSPropertyOp49
 70
     1
102
RTVSPropertyOp50
 70
     1
102
RTVSPropertyOp51
 70
     0
102
RTVSPropertyOp52
 70
     0
102
RTVSPropertyOp53
 70
     1
102
RTVSPropertyOp54
 70
     1
102
RTVSPropertyOp55
 70
     1
102
RTVSPropertyOp56
 70
     1
102
RTVSPropertyOp57
 70
     1
102
RTVSPost2010Prop28
280
     0
102
RTVSPost2010PropOp28
 70
     1
102
RTVSPost2010Prop29
280
     1
102
RTVSPost2010PropOp29
 70
     1
102
RTVSPost2010Prop30
280
     1
102
RTVSPost2010PropOp30
 70
     1
102
RTVSPost2010Prop31
280
     0
102
RTVSPost2010PropOp31
 70
     1
102
RTVSPost2010Prop32
280
     0
102
RTVSPost2010PropOp32
 70
     1
102
RTVSPost2010Prop33
280
     0
102
RTVSPost2010PropOp33
 70
     1
102
RTVSPost2010Prop34
280
     0
102
RTVSPost2010PropOp34
 70
     1
102
RTVSPost2010Prop35
280
     0
102
RTVSPost2010PropOp35
 70
     1
102
RTVSPost2010Prop36
280
     0
102
RTVSPost2010PropOp36
 70
     1
102
RTVSPost2010Prop37
 90
       50
102
RTVSPost2010PropOp37
 70
     1
102
RTVSPost2010Prop38
140
0.0
102
RTVSPost2010PropOp38
 70
     1
102
RTVSPost2010Prop39
140
1.0
102
RTVSPost2010PropOp39
 70
     1
102
RTVSPost2010Prop40
 90
        0
102
RTVSPost2010PropOp40
 70
     1
102
RTVSPost2010Prop41ColorIndex
 90
       18
102
RTVSPost2010Prop41ColorRGB
 90
        0
102
RTVSPost2010PropOp41
 70
     1
102
RTVSPost2010Prop42
 90
       50
102
RTVSPost2010PropOp42
 70
     1
102
RTVSPost2010Prop43
 90
        3
102
RTVSPost2010PropOp43
 70
     1
102
RTVSPost2010Prop44ColorIndex
 90
        5
102
RTVSPost2010Prop44ColorRGB
 90
      255
102
RTVSPost2010PropOp44
 70
     1
102
RTVSPost2010Prop45
280
     0
102
RTVSPost2010PropOp45
 70
     1
102
RTVSPost2010Prop46
 90
       50
102
RTVSPost2010PropOp46
 70
     1
102
RTVSPost2010Prop47
 90
       50
102
RTVSPost2010PropOp47
 70
     1
102
RTVSPost2010Prop48
 90
       50
102
RTVSPost2010PropOp48
 70
     1
102
RTVSPost2010Prop49
280
     0
102
RTVSPost2010PropOp49
 70
     1
102
RTVSPost2010Prop50
 90
       50
102
RTVSPost2010PropOp50
 70
     1
102
RTVSPost2010Prop51ColorIndex
 90
      256
102
RTVSPost2010Prop51ColorRGB
 90
-16777216
102
RTVSPost2010PropOp51
 70
     0
102
RTVSPost2010Prop52
140
1.0
102
RTVSPost2010PropOp52
 70
     0
102
RTVSPost2010Prop53
 90
        2
102
RTVSPost2010PropOp53
 70
     1
102
RTVSPost2010Prop54
  1
strokes_ogs.tif
102
RTVSPost2010PropOp54
 70
     1
102
RTVSPost2010Prop55
280
     0
102
RTVSPost2010PropOp55
 70
     1
102
RTVSPost2010Prop56
140
1.0
102
RTVSPost2010PropOp56
 70
     1
102
RTVSPost2010Prop57
140
1.0
102
RTVSPost2010PropOp57
 70
     1
  0
XRECORD
  5
2B8
102
{ACAD_REACTORS
330
2B7
102
}
330
2B7
100
AcDbXrecord
280
     1
102
RTVSPropertyOp0
 70
     1
102
RTVSPropertyOp1
 70
     1
102
RTVSPropertyOp2
 70
     1
102
RTVSPropertyOp3
 70
     1
102
RTVSPropertyOp4
 70
     1
102
RTVSPropertyOp5
 70
     1
102
RTVSPropertyOp6
 70
     1
102
RTVSPropertyOp7
 70
     1
102
RTVSPropertyOp8
 70
     1
102
RTVSPropertyOp9
 70
     1
102
RTVSPropertyOp10
 70
     1
102
RTVSPropertyOp11
 70
     1
102
RTVSPropertyOp12
 70
     1
102
RTVSPropertyOp13
 70
     1
102
RTVSPropertyOp14
 70
     1
102
RTVSPropertyOp15
 70
     1
102
RTVSPropertyOp16
 70
     1
102
RTVSPropertyOp17
 70
     1
102
RTVSPropertyOp18
 70
     1
102
RTVSPropertyOp19
 70
     1
102
RTVSPropertyOp20
 70
     1
102
RTVSPropertyOp21
 70
     1
102
RTVSPropertyOp22
 70
     1
102
RTVSPropertyOp23
 70
     1
102
RTVSPropertyOp24
 70
     1
102
RTVSPropertyOp25
 70
     1
102
RTVSPropertyOp26
 70
     1
102
RTVSPropertyOp27
 70
     1
102
RTVSPropertyOp28
 70
     1
102
RTVSPropertyOp29
 70
     1
102
RTVSPropertyOp30
 70
     1
102
RTVSPropertyOp31
 70
     1
102
RTVSPropertyOp32
 70
     1
102
RTVSPropertyOp33
 70
     1
102
RTVSPropertyOp34
 70
     1
102
RTVSPropertyOp35
 70
     1
102
RTVSPropertyOp36
 70
     1
102
RTVSPropertyOp37
 70
     1
102
RTVSPropertyOp38
 70
     1
102
RTVSPropertyOp39
 70
     1
102
RTVSPropertyOp40
 70
     1
102
RTVSPropertyOp41
 70
     1
102
RTVSPropertyOp42
 70
     1
102
RTVSPropertyOp43
 70
     1
102
RTVSPropertyOp44
 70
     1
102
RTVSPropertyOp45
 70
     1
102
RTVSPropertyOp46
 70
     1
102
RTVSPropertyOp47
 70
     1
102
RTVSPropertyOp48
 70
     1
102
RTVSPropertyOp49
 70
     1
102
RTVSPropertyOp50
 70
     1
102
RTVSPropertyOp51
 70
     0
102
RTVSPropertyOp52
 70
     0
102
RTVSPropertyOp53
 70
     1
102
RTVSPropertyOp54
 70
     1
102
RTVSPropertyOp55
 70
     1
102
RTVSPropertyOp56
 70
     1
102
RTVSPropertyOp57
 70
     1
102
RTVSPost2010Prop28
280
     0
102
RTVSPost2010PropOp28
 70
     1
102
RTVSPost2010Prop29
280
     1
102
RTVSPost2010PropOp29
 70
     1
102
RTVSPost2010Prop30
280
     1
102
RTVSPost2010PropOp30
 70
     1
102
RTVSPost2010Prop31
280
     0
102
RTVSPost2010PropOp31
 70
     1
102
RTVSPost2010Prop32
280
     0
102
RTVSPost2010PropOp32
 70
     1
102
RTVSPost2010Prop33
280
     0
102
RTVSPost2010PropOp33
 70
     1
102
RTVSPost2010Prop34
280
     0
102
RTVSPost2010PropOp34
 70
     1
102
RTVSPost2010Prop35
280
     0
102
RTVSPost2010PropOp35
 70
     1
102
RTVSPost2010Prop36
280
     0
102
RTVSPost2010PropOp36
 70
     1
102
RTVSPost2010Prop37
 90
       50
102
RTVSPost2010PropOp37
 70
     1
102
RTVSPost2010Prop38
140
0.0
102
RTVSPost2010PropOp38
 70
     1
102
RTVSPost2010Prop39
140
1.0
102
RTVSPost2010PropOp39
 70
     1
102
RTVSPost2010Prop40
 90
        0
102
RTVSPost2010PropOp40
 70
     1
102
RTVSPost2010Prop41ColorIndex
 90
       18
102
RTVSPost2010Prop41ColorRGB
 90
        0
102
RTVSPost2010PropOp41
 70
     1
102
RTVSPost2010Prop42
 90
       50
102
RTVSPost2010PropOp42
 70
     1
102
RTVSPost2010Prop43
 90
        3
102
RTVSPost2010PropOp43
 70
     1
102
RTVSPost2010Prop44ColorIndex
 90
        5
102
RTVSPost2010Prop44ColorRGB
 90
      255
102
RTVSPost2010PropOp44
 70
     1
102
RTVSPost2010Prop45
280
     0
102
RTVSPost2010PropOp45
 70
     1
102
RTVSPost2010Prop46
 90
       50
102
RTVSPost2010PropOp46
 70
     1
102
RTVSPost2010Prop47
 90
       50
102
RTVSPost2010PropOp47
 70
     1
102
RTVSPost2010Prop48
 90
       50
102
RTVSPost2010PropOp48
 70
     1
102
RTVSPost2010Prop49
280
     0
102
RTVSPost2010PropOp49
 70
     1
102
RTVSPost2010Prop50
 90
       50
102
RTVSPost2010PropOp50
 70
     1
102
RTVSPost2010Prop51ColorIndex
 90
      256
102
RTVSPost2010Prop51ColorRGB
 90
-16777216
102
RTVSPost2010PropOp51
 70
     0
102
RTVSPost2010Prop52
140
1.0
102
RTVSPost2010PropOp52
 70
     0
102
RTVSPost2010Prop53
 90
        2
102
RTVSPost2010PropOp53
 70
     1
102
RTVSPost2010Prop54
  1
strokes_ogs.tif
102
RTVSPost2010PropOp54
 70
     1
102
RTVSPost2010Prop55
280
     0
102
RTVSPost2010PropOp55
 70
     1
102
RTVSPost2010Prop56
140
1.0
102
RTVSPost2010PropOp56
 70
     1
102
RTVSPost2010Prop57
140
1.0
102
RTVSPost2010PropOp57
 70
     1
  0
XRECORD
  5
2D8
102
{ACAD_REACTORS
330
2D7
102
}
330
2D7
100
AcDbXrecord
280
     1
102
RTVSPropertyOp0
 70
     1
102
RTVSPropertyOp1
 70
     1
102
RTVSPropertyOp2
 70
     1
102
RTVSPropertyOp3
 70
     1
102
RTVSPropertyOp4
 70
     1
102
RTVSPropertyOp5
 70
     1
102
RTVSPropertyOp6
 70
     1
102
RTVSPropertyOp7
 70
     1
102
RTVSPropertyOp8
 70
     1
102
RTVSPropertyOp9
 70
     1
102
RTVSPropertyOp10
 70
     1
102
RTVSPropertyOp11
 70
     1
102
RTVSPropertyOp12
 70
     1
102
RTVSPropertyOp13
 70
     1
102
RTVSPropertyOp14
 70
     1
102
RTVSPropertyOp15
 70
     1
102
RTVSPropertyOp16
 70
     1
102
RTVSPropertyOp17
 70
     1
102
RTVSPropertyOp18
 70
     1
102
RTVSPropertyOp19
 70
     1
102
RTVSPropertyOp20
 70
     1
102
RTVSPropertyOp21
 70
     1
102
RTVSPropertyOp22
 70
     1
102
RTVSPropertyOp23
 70
     1
102
RTVSPropertyOp24
 70
     1
102
RTVSPropertyOp25
 70
     1
102
RTVSPropertyOp26
 70
     1
102
RTVSPropertyOp27
 70
     1
102
RTVSPropertyOp28
 70
     1
102
RTVSPropertyOp29
 70
     1
102
RTVSPropertyOp30
 70
     1
102
RTVSPropertyOp31
 70
     1
102
RTVSPropertyOp32
 70
     1
102
RTVSPropertyOp33
 70
     1
102
RTVSPropertyOp34
 70
     1
102
RTVSPropertyOp35
 70
     1
102
RTVSPropertyOp36
 70
     1
102
RTVSPropertyOp37
 70
     1
102
RTVSPropertyOp38
 70
     1
102
RTVSPropertyOp39
 70
     1
102
RTVSPropertyOp40
 70
     1
102
RTVSPropertyOp41
 70
     1
102
RTVSPropertyOp42
 70
     1
102
RTVSPropertyOp43
 70
     1
102
RTVSPropertyOp44
 70
     1
102
RTVSPropertyOp45
 70
     1
102
RTVSPropertyOp46
 70
     1
102
RTVSPropertyOp47
 70
     1
102
RTVSPropertyOp48
 70
     1
102
RTVSPropertyOp49
 70
     1
102
RTVSPropertyOp50
 70
     1
102
RTVSPropertyOp51
 70
     0
102
RTVSPropertyOp52
 70
     0
102
RTVSPropertyOp53
 70
     1
102
RTVSPropertyOp54
 70
     1
102
RTVSPropertyOp55
 70
     1
102
RTVSPropertyOp56
 70
     1
102
RTVSPropertyOp57
 70
     1
102
RTVSPost2010Prop28
280
     0
102
RTVSPost2010PropOp28
 70
     1
102
RTVSPost2010Prop29
280
     1
102
RTVSPost2010PropOp29
 70
     1
102
RTVSPost2010Prop30
280
     1
102
RTVSPost2010PropOp30
 70
     1
102
RTVSPost2010Prop31
280
     0
102
RTVSPost2010PropOp31
 70
     1
102
RTVSPost2010Prop32
280
     0
102
RTVSPost2010PropOp32
 70
     1
102
RTVSPost2010Prop33
280
     0
102
RTVSPost2010PropOp33
 70
     1
102
RTVSPost2010Prop34
280
     0
102
RTVSPost2010PropOp34
 70
     1
102
RTVSPost2010Prop35
280
     0
102
RTVSPost2010PropOp35
 70
     1
102
RTVSPost2010Prop36
280
     0
102
RTVSPost2010PropOp36
 70
     1
102
RTVSPost2010Prop37
 90
       50
102
RTVSPost2010PropOp37
 70
     1
102
RTVSPost2010Prop38
140
0.0
102
RTVSPost2010PropOp38
 70
     1
102
RTVSPost2010Prop39
140
1.0
102
RTVSPost2010PropOp39
 70
     1
102
RTVSPost2010Prop40
 90
        0
102
RTVSPost2010PropOp40
 70
     1
102
RTVSPost2010Prop41ColorIndex
 90
       18
102
RTVSPost2010Prop41ColorRGB
 90
        0
102
RTVSPost2010PropOp41
 70
     1
102
RTVSPost2010Prop42
 90
       50
102
RTVSPost2010PropOp42
 70
     1
102
RTVSPost2010Prop43
 90
        3
102
RTVSPost2010PropOp43
 70
     1
102
RTVSPost2010Prop44ColorIndex
 90
        5
102
RTVSPost2010Prop44ColorRGB
 90
      255
102
RTVSPost2010PropOp44
 70
     1
102
RTVSPost2010Prop45
280
     0
102
RTVSPost2010PropOp45
 70
     1
102
RTVSPost2010Prop46
 90
       50
102
RTVSPost2010PropOp46
 70
     1
102
RTVSPost2010Prop47
 90
       50
102
RTVSPost2010PropOp47
 70
     1
102
RTVSPost2010Prop48
 90
       50
102
RTVSPost2010PropOp48
 70
     1
102
RTVSPost2010Prop49
280
     0
102
RTVSPost2010PropOp49
 70
     1
102
RTVSPost2010Prop50
 90
       50
102
RTVSPost2010PropOp50
 70
     1
102
RTVSPost2010Prop51ColorIndex
 90
      256
102
RTVSPost2010Prop51ColorRGB
 90
-16777216
102
RTVSPost2010PropOp51
 70
     0
102
RTVSPost2010Prop52
140
1.0
102
RTVSPost2010PropOp52
 70
     0
102
RTVSPost2010Prop53
 90
        2
102
RTVSPost2010PropOp53
 70
     1
102
RTVSPost2010Prop54
  1
strokes_ogs.tif
102
RTVSPost2010PropOp54
 70
     1
102
RTVSPost2010Prop55
280
     0
102
RTVSPost2010PropOp55
 70
     1
102
RTVSPost2010Prop56
140
1.0
102
RTVSPost2010PropOp56
 70
     1
102
RTVSPost2010Prop57
140
1.0
102
RTVSPost2010PropOp57
 70
     1
  0
ENDSEC
  0
EOF
