  0
SECTION
  2
HEADER
  9
$ACADVER
  1
AC1018
  9
$ACADMAINTVER
 70
     0
  9
$DWGCODEPAGE
  3
ANSI_932
  9
$INSBASE
 10
0.0
 20
0.0
 30
0.0
  9
$EXTMIN
 10
-3150.0
 20
-2227.5
 30
0.0
  9
$EXTMAX
 10
3150.0
 20
2227.5
 30
0.0
  9
$LIMMIN
 10
-3150.0
 20
-2227.5
  9
$LIMMAX
 10
3150.0
 20
2227.5
  9
$ORTHOMODE
 70
     0
  9
$REGENMODE
 70
     1
  9
$FILLMODE
 70
     1
  9
$QTEXTMODE
 70
     0
  9
$MIRRTEXT
 70
     1
  9
$LTSCALE
 40
15.0
  9
$ATTMODE
 70
     1
  9
$TEXTSIZE
 40
2.5
  9
$TRACEWID
 40
1.0
  9
$TEXTSTYLE
  7
Standard
  9
$CLAYER
  8
0
  9
$CELTYPE
  6
ByLayer
  9
$CECOLOR
 62
   256
  9
$CELTSCALE
 40
1.0
  9
$DISPSILH
 70
     0
  9
$DIMSCALE
 40
1.0
  9
$DIMASZ
 40
2.5
  9
$DIMEXO
 40
0.625
  9
$DIMDLI
 40
3.75
  9
$DIMRND
 40
0.0
  9
$DIMDLE
 40
0.0
  9
$DIMEXE
 40
1.25
  9
$DIMTP
 40
0.0
  9
$DIMTM
 40
0.0
  9
$DIMTXT
 40
2.5
  9
$DIMCEN
 40
2.5
  9
$DIMTSZ
 40
0.0
  9
$DIMTOL
 70
     0
  9
$DIMLIM
 70
     0
  9
$DIMTIH
 70
     0
  9
$DIMTOH
 70
     0
  9
$DIMSE1
 70
     0
  9
$DIMSE2
 70
     0
  9
$DIMTAD
 70
     1
  9
$DIMZIN
 70
     8
  9
$DIMBLK
  1

  9
$DIMASO
 70
     1
  9
$DIMSHO
 70
     1
  9
$DIMPOST
  1

  9
$DIMAPOST
  1

  9
$DIMALT
 70
     0
  9
$DIMALTD
 70
     3
  9
$DIMALTF
 40
0.03937007874016
  9
$DIMLFAC
 40
1.0
  9
$DIMTOFL
 70
     1
  9
$DIMTVP
 40
0.0
  9
$DIMTIX
 70
     0
  9
$DIMSOXD
 70
     0
  9
$DIMSAH
 70
     0
  9
$DIMBLK1
  1

  9
$DIMBLK2
  1

  9
$DIMSTYLE
  2
ISO-25
  9
$DIMCLRD
 70
     0
  9
$DIMCLRE
 70
     0
  9
$DIMCLRT
 70
     0
  9
$DIMTFAC
 40
1.0
  9
$DIMGAP
 40
0.625
  9
$DIMJUST
 70
     0
  9
$DIMSD1
 70
     0
  9
$DIMSD2
 70
     0
  9
$DIMTOLJ
 70
     0
  9
$DIMTZIN
 70
     8
  9
$DIMALTZ
 70
     0
  9
$DIMALTTZ
 70
     0
  9
$DIMUPT
 70
     0
  9
$DIMDEC
 70
     2
  9
$DIMTDEC
 70
     2
  9
$DIMALTU
 70
     2
  9
$DIMALTTD
 70
     3
  9
$DIMTXSTY
  7
Standard
  9
$DIMAUNIT
 70
     0
  9
$DIMADEC
 70
     0
  9
$DIMALTRND
 40
0.0
  9
$DIMAZIN
 70
     0
  9
$DIMDSEP
 70
    44
  9
$DIMATFIT
 70
     3
  9
$DIMFRAC
 70
     0
  9
$DIMLDRBLK
  1

  9
$DIMLUNIT
 70
     2
  9
$DIMLWD
 70
    -2
  9
$DIMLWE
 70
    -2
  9
$DIMTMOVE
 70
     0
  9
$LUNITS
 70
     2
  9
$LUPREC
 70
     4
  9
$SKETCHINC
 40
1.0
  9
$FILLETRAD
 40
10.0
  9
$AUNITS
 70
     0
  9
$AUPREC
 70
     0
  9
$MENU
  1
.
  9
$ELEVATION
 40
0.0
  9
$PELEVATION
 40
0.0
  9
$THICKNESS
 40
0.0
  9
$LIMCHECK
 70
     0
  9
$CHAMFERA
 40
0.0
  9
$CHAMFERB
 40
0.0
  9
$CHAMFERC
 40
0.0
  9
$CHAMFERD
 40
0.0
  9
$SKPOLY
 70
     0
  9
$TDCREATE
 40
2459145.672904676
  9
$TDUCREATE
 40
2459145.297904676
  9
$TDUPDATE
 40
2459145.672904803
  9
$TDUUPDATE
 40
2459145.297904803
  9
$TDINDWG
 40
0.0000000116
  9
$TDUSRTIMER
 40
0.0000000116
  9
$USRTIMER
 70
     1
  9
$ANGBASE
 50
0.0
  9
$ANGDIR
 70
     0
  9
$PDMODE
 70
     0
  9
$PDSIZE
 40
0.0
  9
$PLINEWID
 40
0.0
  9
$SPLFRAME
 70
     0
  9
$SPLINETYPE
 70
     6
  9
$SPLINESEGS
 70
     8
  9
$HANDSEED
  5
2F5
  9
$SURFTAB1
 70
     6
  9
$SURFTAB2
 70
     6
  9
$SURFTYPE
 70
     6
  9
$SURFU
 70
     6
  9
$SURFV
 70
     6
  9
$UCSBASE
  2

  9
$UCSNAME
  2

  9
$UCSORG
 10
0.0
 20
0.0
 30
0.0
  9
$UCSXDIR
 10
1.0
 20
0.0
 30
0.0
  9
$UCSYDIR
 10
0.0
 20
1.0
 30
0.0
  9
$UCSORTHOREF
  2

  9
$UCSORTHOVIEW
 70
     0
  9
$UCSORGTOP
 10
0.0
 20
0.0
 30
0.0
  9
$UCSORGBOTTOM
 10
0.0
 20
0.0
 30
0.0
  9
$UCSORGLEFT
 10
0.0
 20
0.0
 30
0.0
  9
$UCSORGRIGHT
 10
0.0
 20
0.0
 30
0.0
  9
$UCSORGFRONT
 10
0.0
 20
0.0
 30
0.0
  9
$UCSORGBACK
 10
0.0
 20
0.0
 30
0.0
  9
$PUCSBASE
  2

  9
$PUCSNAME
  2

  9
$PUCSORG
 10
0.0
 20
0.0
 30
0.0
  9
$PUCSXDIR
 10
1.0
 20
0.0
 30
0.0
  9
$PUCSYDIR
 10
0.0
 20
1.0
 30
0.0
  9
$PUCSORTHOREF
  2

  9
$PUCSORTHOVIEW
 70
     0
  9
$PUCSORGTOP
 10
0.0
 20
0.0
 30
0.0
  9
$PUCSORGBOTTOM
 10
0.0
 20
0.0
 30
0.0
  9
$PUCSORGLEFT
 10
0.0
 20
0.0
 30
0.0
  9
$PUCSORGRIGHT
 10
0.0
 20
0.0
 30
0.0
  9
$PUCSORGFRONT
 10
0.0
 20
0.0
 30
0.0
  9
$PUCSORGBACK
 10
0.0
 20
0.0
 30
0.0
  9
$USERI1
 70
     0
  9
$USERI2
 70
     0
  9
$USERI3
 70
     0
  9
$USERI4
 70
     0
  9
$USERI5
 70
     0
  9
$USERR1
 40
0.0
  9
$USERR2
 40
0.0
  9
$USERR3
 40
0.0
  9
$USERR4
 40
0.0
  9
$USERR5
 40
0.0
  9
$WORLDVIEW
 70
     1
  9
$SHADEDGE
 70
     3
  9
$SHADEDIF
 70
    70
  9
$TILEMODE
 70
     1
  9
$MAXACTVP
 70
    64
  9
$PINSBASE
 10
0.0
 20
0.0
 30
0.0
  9
$PLIMCHECK
 70
     0
  9
$PEXTMIN
 10
1.000000000000000E+20
 20
1.000000000000000E+20
 30
1.000000000000000E+20
  9
$PEXTMAX
 10
-1.000000000000000E+20
 20
-1.000000000000000E+20
 30
-1.000000000000000E+20
  9
$PLIMMIN
 10
0.0
 20
0.0
  9
$PLIMMAX
 10
420.0
 20
297.0
  9
$UNITMODE
 70
     0
  9
$VISRETAIN
 70
     1
  9
$PLINEGEN
 70
     0
  9
$PSLTSCALE
 70
     1
  9
$TREEDEPTH
 70
  3020
  9
$CMLSTYLE
  2
Standard
  9
$CMLJUST
 70
     0
  9
$CMLSCALE
 40
20.0
  9
$PROXYGRAPHICS
 70
     1
  9
$MEASUREMENT
 70
     1
  9
$CELWEIGHT
370
    -1
  9
$ENDCAPS
280
     0
  9
$JOINSTYLE
280
     0
  9
$LWDISPLAY
290
     0
  9
$INSUNITS
 70
     4
  9
$HYPERLINKBASE
  1

  9
$STYLESHEET
  1

  9
$XEDIT
290
     1
  9
$CEPSNTYPE
380
     0
  9
$PSTYLEMODE
290
     1
  9
$FINGERPRINTGUID
  2
{1F6256F1-9F88-4BB7-8504-D1C7EDC46946}
  9
$VERSIONGUID
  2
{FAEB1C32-E019-11D5-929B-00C0DF256EC4}
  9
$EXTNAMES
290
     1
  9
$PSVPSCALE
 40
0.0
  9
$OLESTARTUP
290
     0
  9
$SORTENTS
280
   127
  9
$INDEXCTL
280
     0
  9
$HIDETEXT
280
     1
  9
$XCLIPFRAME
290
     0
  9
$HALOGAP
280
     0
  9
$OBSCOLOR
 70
   257
  9
$OBSLTYPE
280
     0
  9
$INTERSECTIONDISPLAY
280
     0
  9
$INTERSECTIONCOLOR
 70
   257
  9
$DIMASSOC
280
     2
  9
$PROJECTNAME
  1

  0
ENDSEC
  0
SECTION
  2
CLASSES
  0
CLASS
  1
ACDBDICTIONARYWDFLT
  2
AcDbDictionaryWithDefault
  3
ObjectDBX Classes
 90
        0
 91
        4
280
     0
281
     0
  0
CLASS
  1
VISUALSTYLE
  2
AcDbVisualStyle
  3
ObjectDBX Classes
 90
     4095
 91
        4
280
     0
281
     0
  0
CLASS
  1
MATERIAL
  2
AcDbMaterial
  3
ObjectDBX Classes
 90
     1153
 91
        4
280
     0
281
     0
  0
CLASS
  1
SCALE
  2
AcDbScale
  3
ObjectDBX Classes
 90
     1153
 91
        4
280
     0
281
     0
  0
CLASS
  1
TABLESTYLE
  2
AcDbTableStyle
  3
ObjectDBX Classes
 90
     4095
 91
        4
280
     0
281
     0
  0
CLASS
  1
MLEADERSTYLE
  2
AcDbMLeaderStyle
  3
ACDB_MLEADERSTYLE_CLASS
 90
     4095
 91
        4
280
     0
281
     0
  0
CLASS
  1
SUN
  2
AcDbSun
  3
SCENEOE
 90
     1153
 91
        4
280
     0
281
     0
  0
CLASS
  1
DICTIONARYVAR
  2
AcDbDictionaryVar
  3
ObjectDBX Classes
 90
        0
 91
        4
280
     0
281
     0
  0
CLASS
  1
CELLSTYLEMAP
  2
AcDbCellStyleMap
  3
ObjectDBX Classes
 90
     1152
 91
        4
280
     0
281
     0
  0
ENDSEC
  0
SECTION
  2
TABLES
  0
TABLE
  2
VPORT
  5
8
102
{ACAD_XDICTIONARY
360
2AC
102
}
330
0
100
AcDbSymbolTable
 70
     1
  0
VPORT
  5
29
330
8
100
AcDbSymbolTableRecord
100
AcDbViewportTableRecord
  2
*Active
 70
     0
 10
0.0
 20
0.0
 11
1.0
 21
1.0
 12
0.0
 22
0.0
 13
0.0
 23
0.0
 14
10.0
 24
10.0
 15
10.0
 25
10.0
 16
0.0
 26
0.0
 36
1.0
 17
0.0
 27
0.0
 37
0.0
 40
4900.5
 41
1.414141414141414
 42
50.0
 43
0.0
 44
0.0
 50
0.0
 51
0.0
 71
     0
 72
 10000
 73
     1
 74
     3
 75
     0
 76
     0
 77
     0
 78
     0
281
     0
 65
     1
110
0.0
120
0.0
130
0.0
111
1.0
121
0.0
131
0.0
112
0.0
122
1.0
132
0.0
 79
     0
146
0.0
  0
ENDTAB
  0
TABLE
  2
LTYPE
  5
5
330
0
100
AcDbSymbolTable
 70
     6
  0
LTYPE
  5
14
330
5
100
AcDbSymbolTableRecord
100
AcDbLinetypeTableRecord
  2
ByBlock
 70
     0
  3

 72
    65
 73
     0
 40
0.0
  0
LTYPE
  5
15
330
5
100
AcDbSymbolTableRecord
100
AcDbLinetypeTableRecord
  2
ByLayer
 70
     0
  3

 72
    65
 73
     0
 40
0.0
  0
LTYPE
  5
16
330
5
100
AcDbSymbolTableRecord
100
AcDbLinetypeTableRecord
  2
Continuous
 70
     0
  3
Solid line
 72
    65
 73
     0
 40
0.0
  0
LTYPE
  5
6F
330
5
100
AcDbSymbolTableRecord
100
AcDbLinetypeTableRecord
  2
JWW_DASHED2
 70
     0
  3
--    ----    ----    ----    --
 72
    65
 73
     2
 40
3.386666666666667
 49
1.693333333333333
 74
     0
 49
-1.693333333333333
 74
     0
  0
LTYPE
  5
70
330
5
100
AcDbSymbolTableRecord
100
AcDbLinetypeTableRecord
  2
JWW_CENTER2
 70
     0
  3
-------------  --  -------------
 72
    65
 73
     4
 40
13.54666666666667
 49
11.00666666666667
 74
     0
 49
-0.8466666666666667
 74
     0
 49
0.8466666666666667
 74
     0
 49
-0.8466666666666667
 74
     0
  0
LTYPE
  5
71
330
5
100
AcDbSymbolTableRecord
100
AcDbLinetypeTableRecord
  2
JWW_PHANTOM1
 70
     0
  3
----  -  -  --------  -  -  ----
 72
    65
 73
     6
 40
6.773333333333333
 49
3.386666666666667
 74
     0
 49
-0.8466666666666667
 74
     0
 49
0.4233333333333333
 74
     0
 49
-0.8466666666666667
 74
     0
 49
0.4233333333333333
 74
     0
 49
-0.8466666666666667
 74
     0
  0
LTYPE
  5
72
330
5
100
AcDbSymbolTableRecord
100
AcDbLinetypeTableRecord
  2
JWW_CENTER1
 70
     0
  3
-----  --  ----------  --  -----
 72
    65
 73
     4
 40
6.773333333333333
 49
4.233333333333333
 74
     0
 49
-0.8466666666666667
 74
     0
 49
0.8466666666666667
 74
     0
 49
-0.8466666666666667
 74
     0
  0
LTYPE
  5
73
330
5
100
AcDbSymbolTableRecord
100
AcDbLinetypeTableRecord
  2
JWW_DASHED1
 70
     0
  3
-  --  --  --  --  --  --  --  -
 72
    65
 73
     2
 40
1.693333333333333
 49
0.8466666666666667
 74
     0
 49
-0.8466666666666667
 74
     0
  0
ENDTAB
  0
TABLE
  2
LAYER
  5
2
330
0
100
AcDbSymbolTable
 70
    23
  0
LAYER
  5
10
330
2
100
AcDbSymbolTableRecord
100
AcDbLayerTableRecord
  2
0
 70
     0
 62
     7
  6
Continuous
370
    -3
390
F
  0
LAYER
  5
74
330
2
100
AcDbSymbolTableRecord
100
AcDbLayerTableRecord
  2
A-2_仕上
 70
     0
 62
     7
  6
Continuous
370
    -3
390
F
  0
LAYER
  5
75
330
2
100
AcDbSymbolTableRecord
100
AcDbLayerTableRecord
  2
A-4_文字
 70
     0
 62
     7
  6
Continuous
370
    -3
390
F
  0
LAYER
  5
76
330
2
100
AcDbSymbolTableRecord
100
AcDbLayerTableRecord
  2
A-0_通り芯
 70
     0
 62
     7
  6
Continuous
370
    -3
390
F
  0
LAYER
  5
77
330
2
100
AcDbSymbolTableRecord
100
AcDbLayerTableRecord
  2
A-1_躯体
 70
     0
 62
     7
  6
Continuous
370
    -3
390
F
  0
LAYER
  5
78
330
2
100
AcDbSymbolTableRecord
100
AcDbLayerTableRecord
  2
A-3_寸法
 70
     0
 62
     7
  6
Continuous
370
    -3
390
F
  0
LAYER
  5
79
330
2
100
AcDbSymbolTableRecord
100
AcDbLayerTableRecord
  2
A-E_見え係り
 70
     0
 62
     7
  6
Continuous
370
    -3
390
F
  0
LAYER
  5
7A
330
2
100
AcDbSymbolTableRecord
100
AcDbLayerTableRecord
  2
A-6_間仕切
 70
     0
 62
     7
  6
Continuous
370
    -3
390
F
  0
LAYER
  5
7B
330
2
100
AcDbSymbolTableRecord
100
AcDbLayerTableRecord
  2
A-B_衛生陶器
 70
     0
 62
     7
  6
Continuous
370
    -3
390
F
  0
LAYER
  5
7C
330
2
100
AcDbSymbolTableRecord
100
AcDbLayerTableRecord
  2
A-9_記号
 70
     0
 62
     7
  6
Continuous
370
    -3
390
F
  0
LAYER
  5
7D
330
2
100
AcDbSymbolTableRecord
100
AcDbLayerTableRecord
  2
D-0_通り芯
 70
     0
 62
     7
  6
Continuous
370
    -3
390
F
  0
LAYER
  5
7E
330
2
100
AcDbSymbolTableRecord
100
AcDbLayerTableRecord
  2
D-5_建具
 70
     0
 62
     7
  6
Continuous
370
    -3
390
F
  0
LAYER
  5
7F
330
2
100
AcDbSymbolTableRecord
100
AcDbLayerTableRecord
  2
D-1_躯体
 70
     0
 62
     7
  6
Continuous
370
    -3
390
F
  0
LAYER
  5
80
330
2
100
AcDbSymbolTableRecord
100
AcDbLayerTableRecord
  2
D-E_見え係り
 70
     0
 62
     7
  6
Continuous
370
    -3
390
F
  0
LAYER
  5
81
330
2
100
AcDbSymbolTableRecord
100
AcDbLayerTableRecord
  2
D-6_間仕切
 70
     0
 62
     7
  6
Continuous
370
    -3
390
F
  0
LAYER
  5
82
330
2
100
AcDbSymbolTableRecord
100
AcDbLayerTableRecord
  2
D-B_衛生陶器
 70
     0
 62
     7
  6
Continuous
370
    -3
390
F
  0
LAYER
  5
83
330
2
100
AcDbSymbolTableRecord
100
AcDbLayerTableRecord
  2
D-9_記号
 70
     0
 62
     7
  6
Continuous
370
    -3
390
F
  0
LAYER
  5
84
330
2
100
AcDbSymbolTableRecord
100
AcDbLayerTableRecord
  2
D-4_文字
 70
     0
 62
     7
  6
Continuous
370
    -3
390
F
  0
LAYER
  5
85
330
2
100
AcDbSymbolTableRecord
100
AcDbLayerTableRecord
  2
F-5ﾚｲﾔ
 70
     0
 62
     7
  6
Continuous
370
    -3
390
F
  0
LAYER
  5
86
330
2
100
AcDbSymbolTableRecord
100
AcDbLayerTableRecord
  2
F-Fﾚｲﾔ
 70
     0
 62
     7
  6
Continuous
370
    -3
390
F
  0
LAYER
  5
87
330
2
100
AcDbSymbolTableRecord
100
AcDbLayerTableRecord
  2
A-A_インテリア
 70
     0
 62
     7
  6
Continuous
370
    -3
390
F
  0
LAYER
  5
88
330
2
100
AcDbSymbolTableRecord
100
AcDbLayerTableRecord
  2
A-5_建具
 70
     0
 62
     7
  6
Continuous
370
    -3
390
F
  0
LAYER
  5
89
330
2
100
AcDbSymbolTableRecord
100
AcDbLayerTableRecord
  2
D-A_インテリア
 70
     0
 62
     7
  6
Continuous
370
    -3
390
F
  0
ENDTAB
  0
TABLE
  2
STYLE
  5
3
330
0
100
AcDbSymbolTable
 70
     2
  0
STYLE
  5
11
330
3
100
AcDbSymbolTableRecord
100
AcDbTextStyleTableRecord
  2
Standard
 70
     0
 40
0.0
 41
1.0
 50
0.0
 71
     0
 42
2.5
  3
txt
  4

  0
STYLE
  5
6E
330
3
100
AcDbSymbolTableRecord
100
AcDbTextStyleTableRecord
  2
ＭＳ ゴシック
 70
     0
 40
1.0
 41
1.0
 50
0.0
 71
     0
 42
2.5
  3

  4

1001
ACAD
1000
MS Gothic
1071
    32817
  0
ENDTAB
  0
TABLE
  2
VIEW
  5
6
330
0
100
AcDbSymbolTable
 70
     0
  0
ENDTAB
  0
TABLE
  2
UCS
  5
7
330
0
100
AcDbSymbolTable
 70
     0
  0
ENDTAB
  0
TABLE
  2
APPID
  5
9
330
0
100
AcDbSymbolTable
 70
     2
  0
APPID
  5
12
330
9
100
AcDbSymbolTableRecord
100
AcDbRegAppTableRecord
  2
ACAD
 70
     0
  0
APPID
  5
2EB
330
9
100
AcDbSymbolTableRecord
100
AcDbRegAppTableRecord
  2
ACAD_MLEADERVER
 70
     0
  0
ENDTAB
  0
TABLE
  2
DIMSTYLE
  5
A
330
0
100
AcDbSymbolTable
 70
     1
100
AcDbDimStyleTable
  0
DIMSTYLE
105
27
330
A
100
AcDbSymbolTableRecord
100
AcDbDimStyleTableRecord
  2
ISO-25
 70
     0
 41
2.5
 42
0.625
 43
3.75
 44
1.25
 73
     0
 74
     0
 77
     1
 78
     8
140
2.5
141
2.5
143
0.03937007874016
147
0.625
171
     3
172
     1
178
     0
271
     2
272
     2
274
     3
278
    44
283
     0
284
     8
340
11
  0
ENDTAB
  0
TABLE
  2
BLOCK_RECORD
  5
1
330
0
100
AcDbSymbolTable
 70
     1
  0
BLOCK_RECORD
  5
1F
330
1
100
AcDbSymbolTableRecord
100
AcDbBlockTableRecord
  2
*Model_Space
340
22
  0
BLOCK_RECORD
  5
1B
330
1
100
AcDbSymbolTableRecord
100
AcDbBlockTableRecord
  2
*Paper_Space
340
1E
  0
BLOCK_RECORD
  5
23
330
1
100
AcDbSymbolTableRecord
100
AcDbBlockTableRecord
  2
*Paper_Space0
340
26
  0
ENDTAB
  0
ENDSEC
  0
SECTION
  2
BLOCKS
  0
BLOCK
  5
20
330
1F
100
AcDbEntity
  8
0
100
AcDbBlockBegin
  2
*Model_Space
 70
     0
 10
0.0
 20
0.0
 30
0.0
  3
*Model_Space
  1

  0
ENDBLK
  5
21
330
1F
100
AcDbEntity
  8
0
100
AcDbBlockEnd
  0
BLOCK
  5
1C
330
1B
100
AcDbEntity
 67
     1
  8
0
100
AcDbBlockBegin
  2
*Paper_Space
 70
     0
 10
0.0
 20
0.0
 30
0.0
  3
*Paper_Space
  1

  0
ENDBLK
  5
1D
330
1B
100
AcDbEntity
 67
     1
  8
0
100
AcDbBlockEnd
  0
BLOCK
  5
24
330
23
100
AcDbEntity
  8
0
100
AcDbBlockBegin
  2
*Paper_Space0
 70
     0
 10
0.0
 20
0.0
 30
0.0
  3
*Paper_Space0
  1

  0
ENDBLK
  5
25
330
23
100
AcDbEntity
  8
0
100
AcDbBlockEnd
  0
ENDSEC
  0
SECTION
  2
ENTITIES
  0
LINE
  5
8A
330
1F
100
AcDbEntity
  8
A-2_仕上
  6
Continuous
 62
     3
370
     9
100
AcDbLine
 10
-2100.919898706712
 20
1216.865409388037
 30
0.0
 11
-2100.919898706712
 21
772.1165888511915
 31
0.0
  0
TEXT
  5
8B
330
1F
100
AcDbEntity
  8
A-4_文字
  6
Continuous
 62
     2
370
   211
100
AcDbText
 10
-1785.909606976644
 20
563.8665946247875
 30
0.0
 40
45.72
  1
251.5
 50
90.0
 41
1.1
  7
ＭＳ ゴシック
100
AcDbText
  0
LINE
  5
8C
330
1F
100
AcDbEntity
  8
A-4_文字
  6
Continuous
 62
     7
370
     9
100
AcDbLine
 10
-1763.949606976644
 20
520.6166003983832
 30
0.0
 11
-1901.169973763457
 21
520.6166003983832
 31
0.0
  0
LINE
  5
8D
330
1F
100
AcDbEntity
  8
A-4_文字
  6
Continuous
 62
     7
370
     9
100
AcDbLine
 10
-1768.449606976644
 20
772.1165888511915
 30
0.0
 11
-1763.554874768392
 21
734.9374065496736
 31
0.0
  0
LINE
  5
8E
330
1F
100
AcDbEntity
  8
A-4_文字
  6
Continuous
 62
     7
370
     9
100
AcDbLine
 10
-1768.449606976644
 20
772.1165888511915
 30
0.0
 11
-1773.344339184896
 21
734.9374065496736
 31
0.0
  0
LINE
  5
8F
330
1F
100
AcDbEntity
  8
A-4_文字
  6
Continuous
 62
     7
370
     9
100
AcDbLine
 10
-1768.449606976644
 20
520.6166003983832
 30
0.0
 11
-1763.554874768392
 21
557.7957826999011
 31
0.0
  0
LINE
  5
90
330
1F
100
AcDbEntity
  8
A-4_文字
  6
Continuous
 62
     7
370
     9
100
AcDbLine
 10
-1768.449606976644
 20
520.6166003983832
 30
0.0
 11
-1773.344339184896
 21
557.7957826999011
 31
0.0
  0
LINE
  5
91
330
1F
100
AcDbEntity
  8
A-4_文字
  6
Continuous
 62
     7
370
     9
100
AcDbLine
 10
-1768.449606976644
 20
520.6166003983832
 30
0.0
 11
-1768.449606976644
 21
772.1165888511915
 31
0.0
  0
LINE
  5
92
330
1F
100
AcDbEntity
  8
A-0_通り芯
  6
Continuous
 62
     4
370
     9
100
AcDbLine
 10
-2168.670023251422
 20
772.1165888511915
 30
0.0
 11
-2131.169973763457
 21
772.1165888511915
 31
0.0
  0
LINE
  5
93
330
1F
100
AcDbEntity
  8
A-0_通り芯
  6
Continuous
 62
     4
370
     9
100
AcDbLine
 10
-2093.669924275492
 20
772.1165888511915
 30
0.0
 11
-2131.169973763457
 21
772.1165888511915
 31
0.0
  0
LINE
  5
94
330
1F
100
AcDbEntity
  8
A-0_通り芯
  6
Continuous
 62
     4
370
     9
100
AcDbLine
 10
-2093.669924275492
 20
772.1165888511915
 30
0.0
 11
-2093.669924275492
 21
770.6165839023953
 31
0.0
  0
LINE
  5
95
330
1F
100
AcDbEntity
  8
A-0_通り芯
  6
Continuous
 62
     4
370
     9
100
AcDbLine
 10
-2097.169960566667
 20
770.6165839023953
 30
0.0
 11
-2097.169960566667
 21
522.1165682312061
 31
0.0
  0
LINE
  5
96
330
1F
100
AcDbEntity
  8
A-1_躯体
  6
Continuous
 62
     7
370
     9
100
AcDbLine
 10
-2091.16994077148
 20
522.1165682312061
 30
0.0
 11
-2171.170006755434
 21
522.1165682312061
 31
0.0
  0
LINE
  5
97
330
1F
100
AcDbEntity
  8
A-3_寸法
  6
JWW_DASHED2
 62
     3
370
     9
100
AcDbLine
 10
-2100.919861590738
 20
772.1165888511915
 30
0.0
 11
-2100.919861590738
 21
522.1165682312061
 31
0.0
  0
LINE
  5
98
330
1F
100
AcDbEntity
  8
A-0_通り芯
  6
JWW_DASHED2
 62
     4
370
     9
100
AcDbLine
 10
-2098.670039745839
 20
770.6165839023953
 30
0.0
 11
-2098.670039745839
 21
522.1165682312061
 31
0.0
  0
ARC
  5
99
330
1F
100
AcDbEntity
  8
A-0_通り芯
  6
JWW_DASHED2
 62
     4
370
     9
100
AcDbCircle
 10
-2097.169960565096
 20
770.6165839023953
 30
0.0
 40
1.499999874346965
100
AcDbArc
 50
90.0
 51
180.0
  0
LINE
  5
9A
330
1F
100
AcDbEntity
  8
A-0_通り芯
  6
Continuous
 62
     4
370
     9
100
AcDbLine
 10
-2168.669874787528
 20
772.1165888511915
 30
0.0
 11
-2168.669874787528
 21
770.6165839023953
 31
0.0
  0
LINE
  5
9B
330
1F
100
AcDbEntity
  8
A-0_通り芯
  6
Continuous
 62
     4
370
     9
100
AcDbLine
 10
-2165.169986960248
 20
770.6165839023953
 30
0.0
 11
-2165.169986960248
 21
522.1165682312061
 31
0.0
  0
LINE
  5
9C
330
1F
100
AcDbEntity
  8
A-0_通り芯
  6
Continuous
 62
     4
370
     9
100
AcDbLine
 10
-2165.169986960248
 20
770.6165839023953
 30
0.0
 11
-2168.670023251422
 21
770.6165839023953
 31
0.0
  0
LINE
  5
9D
330
1F
100
AcDbEntity
  8
A-0_通り芯
  6
Continuous
 62
     4
370
     9
100
AcDbLine
 10
-2168.670023251422
 20
772.1165888511915
 30
0.0
 11
-2168.670023251422
 21
770.6165839023953
 31
0.0
  0
LINE
  5
9E
330
1F
100
AcDbEntity
  8
A-3_寸法
  6
JWW_DASHED2
 62
     3
370
     9
100
AcDbLine
 10
-2161.420085936177
 20
772.1165888511915
 30
0.0
 11
-2161.420085936177
 21
522.1165682312061
 31
0.0
  0
LINE
  5
9F
330
1F
100
AcDbEntity
  8
A-0_通り芯
  6
JWW_DASHED2
 62
     4
370
     9
100
AcDbLine
 10
-2163.669907781076
 20
770.6165839023953
 30
0.0
 11
-2163.669907781076
 21
522.1165682312061
 31
0.0
  0
ARC
  5
A0
330
1F
100
AcDbEntity
  8
A-0_通り芯
  6
JWW_DASHED2
 62
     4
370
     9
100
AcDbCircle
 10
-2165.16998696182
 20
770.6165839023953
 30
0.0
 40
1.499999874346965
100
AcDbArc
 50
0.0000000000000127
 51
90.00000000000001
  0
LINE
  5
A1
330
1F
100
AcDbEntity
  8
A-0_通り芯
  6
Continuous
 62
     4
370
     9
100
AcDbLine
 10
-2093.669924275492
 20
770.6165839023953
 30
0.0
 11
-2097.169960566667
 21
770.6165839023953
 31
0.0
  0
LINE
  5
A2
330
1F
100
AcDbEntity
  8
A-E_見え係り
  6
Continuous
 62
     6
370
     9
100
AcDbLine
 10
-2165.169986960248
 20
737.9251492506625
 30
0.0
 11
-2281.169973763457
 21
621.9251624474531
 31
0.0
  0
LINE
  5
A3
330
1F
100
AcDbEntity
  8
A-E_見え係り
  6
Continuous
 62
     6
370
     9
100
AcDbLine
 10
-2165.169986960248
 20
723.7830136269314
 30
0.0
 11
-2281.169973763457
 21
607.783026823722
 31
0.0
  0
LINE
  5
A4
330
1F
100
AcDbEntity
  8
A-E_見え係り
  6
Continuous
 62
     6
370
     9
100
AcDbLine
 10
-2165.169986960248
 20
709.6408780032009
 30
0.0
 11
-2281.169973763457
 21
593.640891199991
 31
0.0
  0
LINE
  5
A5
330
1F
100
AcDbEntity
  8
A-E_見え係り
  6
Continuous
 62
     6
370
     9
100
AcDbLine
 10
-1981.169973763457
 20
723.0440008650628
 30
0.0
 11
-2097.169960566667
 21
607.0440140618529
 31
0.0
  0
LINE
  5
A6
330
1F
100
AcDbEntity
  8
A-E_見え係り
  6
Continuous
 62
     6
370
     9
100
AcDbLine
 10
-1981.169973763457
 20
708.9018652413318
 30
0.0
 11
-2097.169960566667
 21
592.9018784381224
 31
0.0
  0
LINE
  5
A7
330
1F
100
AcDbEntity
  8
A-E_見え係り
  6
Continuous
 62
     6
370
     9
100
AcDbLine
 10
-1981.169973763457
 20
694.7597296176007
 30
0.0
 11
-2097.169960566667
 21
578.7597428143907
 31
0.0
  0
LINE
  5
A8
330
1F
100
AcDbEntity
  8
A-E_見え係り
  6
Continuous
 62
     6
370
     9
100
AcDbLine
 10
-2281.169973763457
 20
520.6166003983832
 30
0.0
 11
-2281.169973763457
 21
772.1166003983835
 31
0.0
  0
LINE
  5
A9
330
1F
100
AcDbEntity
  8
A-E_見え係り
  6
Continuous
 62
     6
370
     9
100
AcDbLine
 10
-1981.169973763457
 20
520.6166003983832
 30
0.0
 11
-1981.169973763457
 21
772.1166003983835
 31
0.0
  0
LINE
  5
AA
330
1F
100
AcDbEntity
  8
A-E_見え係り
  6
Continuous
 62
     6
370
     9
100
AcDbLine
 10
-1931.169973763457
 20
420.6166003983832
 30
0.0
 11
-1931.169973763457
 21
520.6166003983832
 31
0.0
  0
LINE
  5
AB
330
1F
100
AcDbEntity
  8
A-E_見え係り
  6
Continuous
 62
     6
370
     9
100
AcDbLine
 10
-2331.169973763457
 20
520.6166003983832
 30
0.0
 11
-1931.169973763457
 21
520.6166003983832
 31
0.0
  0
LINE
  5
AC
330
1F
100
AcDbEntity
  8
A-E_見え係り
  6
Continuous
 62
     6
370
     9
100
AcDbLine
 10
-2331.169973763457
 20
420.6166003983832
 30
0.0
 11
-2331.169973763457
 21
520.6166003983832
 31
0.0
  0
LINE
  5
AD
330
1F
100
AcDbEntity
  8
A-E_見え係り
  6
Continuous
 62
     6
370
     9
100
AcDbLine
 10
-2331.169973763457
 20
420.6166003983832
 30
0.0
 11
-1931.169973763457
 21
420.6166003983832
 31
0.0
  0
LINE
  5
AE
330
1F
100
AcDbEntity
  8
A-E_見え係り
  6
Continuous
 62
     6
370
     9
100
AcDbLine
 10
-2131.169973763457
 20
520.6166003983832
 30
0.0
 11
-2157.964893006569
 21
420.6166003983832
 31
0.0
  0
LINE
  5
AF
330
1F
100
AcDbEntity
  8
A-E_見え係り
  6
Continuous
 62
     6
370
     9
100
AcDbLine
 10
-2144.915524193031
 20
420.6166003983832
 30
0.0
 11
-2151.4402085998
 21
444.9670541078012
 31
0.0
  0
LINE
  5
B0
330
1F
100
AcDbEntity
  8
A-E_見え係り
  6
Continuous
 62
     6
370
     9
100
AcDbLine
 10
-2144.219342576997
 20
520.6166003983832
 30
0.0
 11
-2137.694658170227
 21
496.2661466889653
 31
0.0
  0
LINE
  5
B1
330
1F
100
AcDbEntity
  8
A-E_見え係り
  6
Continuous
 62
     6
370
     9
100
AcDbLine
 10
-2181.169973763457
 20
520.6166003983832
 30
0.0
 11
-2207.96489300657
 21
420.6166003983832
 31
0.0
  0
LINE
  5
B2
330
1F
100
AcDbEntity
  8
A-E_見え係り
  6
Continuous
 62
     6
370
     9
100
AcDbLine
 10
-2194.915524193031
 20
420.6166003983832
 30
0.0
 11
-2201.440208599799
 21
444.9670541078012
 31
0.0
  0
LINE
  5
B3
330
1F
100
AcDbEntity
  8
A-E_見え係り
  6
Continuous
 62
     6
370
     9
100
AcDbLine
 10
-2194.219342576997
 20
520.6166003983832
 30
0.0
 11
-2187.694658170227
 21
496.2661466889653
 31
0.0
  0
LINE
  5
B4
330
1F
100
AcDbEntity
  8
A-E_見え係り
  6
Continuous
 62
     6
370
     9
100
AcDbLine
 10
-2231.169973763457
 20
520.6166003983832
 30
0.0
 11
-2257.964893006571
 21
420.6166003983832
 31
0.0
  0
LINE
  5
B5
330
1F
100
AcDbEntity
  8
A-E_見え係り
  6
Continuous
 62
     6
370
     9
100
AcDbLine
 10
-2244.915524193029
 20
420.6166003983832
 30
0.0
 11
-2251.440208599801
 21
444.9670541078012
 31
0.0
  0
LINE
  5
B6
330
1F
100
AcDbEntity
  8
A-E_見え係り
  6
Continuous
 62
     6
370
     9
100
AcDbLine
 10
-2244.219342576997
 20
520.6166003983832
 30
0.0
 11
-2237.694658170228
 21
496.2661466889653
 31
0.0
  0
LINE
  5
B7
330
1F
100
AcDbEntity
  8
A-E_見え係り
  6
Continuous
 62
     6
370
     9
100
AcDbLine
 10
-2281.169973763457
 20
520.6166003983832
 30
0.0
 11
-2307.964893006569
 21
420.6166003983832
 31
0.0
  0
LINE
  5
B8
330
1F
100
AcDbEntity
  8
A-E_見え係り
  6
Continuous
 62
     6
370
     9
100
AcDbLine
 10
-2294.915524193031
 20
420.6166003983832
 30
0.0
 11
-2301.440208599799
 21
444.9670541078012
 31
0.0
  0
LINE
  5
B9
330
1F
100
AcDbEntity
  8
A-E_見え係り
  6
Continuous
 62
     6
370
     9
100
AcDbLine
 10
-2294.219342576997
 20
520.6166003983832
 30
0.0
 11
-2287.694658170227
 21
496.2661466889653
 31
0.0
  0
LINE
  5
BA
330
1F
100
AcDbEntity
  8
A-E_見え係り
  6
Continuous
 62
     6
370
     9
100
AcDbLine
 10
-2081.169973763457
 20
520.6166003983832
 30
0.0
 11
-2107.96489300657
 21
420.6166003983832
 31
0.0
  0
LINE
  5
BB
330
1F
100
AcDbEntity
  8
A-E_見え係り
  6
Continuous
 62
     6
370
     9
100
AcDbLine
 10
-2094.91552419303
 20
420.6166003983832
 30
0.0
 11
-2101.440208599801
 21
444.9670541078012
 31
0.0
  0
LINE
  5
BC
330
1F
100
AcDbEntity
  8
A-E_見え係り
  6
Continuous
 62
     6
370
     9
100
AcDbLine
 10
-2094.219342576997
 20
520.6166003983832
 30
0.0
 11
-2087.694658170227
 21
496.2661466889653
 31
0.0
  0
LINE
  5
BD
330
1F
100
AcDbEntity
  8
A-E_見え係り
  6
Continuous
 62
     6
370
     9
100
AcDbLine
 10
-2031.169973763457
 20
520.6166003983832
 30
0.0
 11
-2057.96489300657
 21
420.6166003983832
 31
0.0
  0
LINE
  5
BE
330
1F
100
AcDbEntity
  8
A-E_見え係り
  6
Continuous
 62
     6
370
     9
100
AcDbLine
 10
-2044.915524193031
 20
420.6166003983832
 30
0.0
 11
-2051.440208599799
 21
444.9670541078012
 31
0.0
  0
LINE
  5
BF
330
1F
100
AcDbEntity
  8
A-E_見え係り
  6
Continuous
 62
     6
370
     9
100
AcDbLine
 10
-2044.219342576997
 20
520.6166003983832
 30
0.0
 11
-2037.694658170227
 21
496.2661466889653
 31
0.0
  0
LINE
  5
C0
330
1F
100
AcDbEntity
  8
A-E_見え係り
  6
Continuous
 62
     6
370
     9
100
AcDbLine
 10
-1981.169973763457
 20
520.6166003983832
 30
0.0
 11
-2007.96489300657
 21
420.6166003983832
 31
0.0
  0
LINE
  5
C1
330
1F
100
AcDbEntity
  8
A-E_見え係り
  6
Continuous
 62
     6
370
     9
100
AcDbLine
 10
-1994.91552419303
 20
420.6166003983832
 30
0.0
 11
-2001.440208599799
 21
444.9670541078012
 31
0.0
  0
LINE
  5
C2
330
1F
100
AcDbEntity
  8
A-E_見え係り
  6
Continuous
 62
     6
370
     9
100
AcDbLine
 10
-1994.219342576997
 20
520.6166003983832
 30
0.0
 11
-1987.694658170227
 21
496.2661466889653
 31
0.0
  0
LINE
  5
C3
330
1F
100
AcDbEntity
  8
A-E_見え係り
  6
Continuous
 62
     6
370
     9
100
AcDbLine
 10
-1931.169973763457
 20
520.6166003983832
 30
0.0
 11
-1957.964893006569
 21
420.6166003983832
 31
0.0
  0
LINE
  5
C4
330
1F
100
AcDbEntity
  8
A-E_見え係り
  6
Continuous
 62
     6
370
     9
100
AcDbLine
 10
-1944.915524193031
 20
420.6166003983832
 30
0.0
 11
-1951.440208599799
 21
444.9670541078012
 31
0.0
  0
LINE
  5
C5
330
1F
100
AcDbEntity
  8
A-E_見え係り
  6
Continuous
 62
     6
370
     9
100
AcDbLine
 10
-1944.219342576997
 20
520.6166003983832
 30
0.0
 11
-1937.694658170227
 21
496.2661466889653
 31
0.0
  0
LINE
  5
C6
330
1F
100
AcDbEntity
  8
A-1_躯体
  6
Continuous
 62
     7
370
     9
100
AcDbLine
 10
-2171.170006755434
 20
522.1165682312061
 30
0.0
 11
-2171.170006755434
 21
520.6166003983832
 31
0.0
  0
LINE
  5
C7
330
1F
100
AcDbEntity
  8
A-1_躯体
  6
Continuous
 62
     7
370
     9
100
AcDbLine
 10
-2143.67003974741
 20
522.1165682312061
 30
0.0
 11
-2143.67003974741
 21
520.6166003983832
 31
0.0
  0
LINE
  5
C8
330
1F
100
AcDbEntity
  8
A-1_躯体
  6
Continuous
 62
     7
370
     9
100
AcDbLine
 10
-2118.669907779505
 20
522.1165682312061
 30
0.0
 11
-2118.669907779505
 21
520.6166003983832
 31
0.0
  0
LINE
  5
C9
330
1F
100
AcDbEntity
  8
A-1_躯体
  6
Continuous
 62
     7
370
     9
100
AcDbLine
 10
-2091.16994077148
 20
522.1165682312061
 30
0.0
 11
-2091.16994077148
 21
520.6166003983832
 31
0.0
  0
ARC
  5
CA
330
1F
100
AcDbEntity
  8
A-0_通り芯
  6
JWW_CENTER2
 62
     7
370
     9
100
AcDbCircle
 10
-1956.170015003427
 20
1216.865780547771
 30
0.0
 40
175.0000051549963
100
AcDbArc
 50
89.999755859375
 51
180.0
  0
ARC
  5
CB
330
1F
100
AcDbEntity
  8
A-2_仕上
  6
Continuous
 62
     3
370
     9
100
AcDbCircle
 10
-1956.170015003427
 20
1216.865780547771
 30
0.0
 40
205.2500106192924
100
AcDbArc
 50
89.99977111816406
 51
180.0
  0
ARC
  5
CC
330
1F
100
AcDbEntity
  8
A-2_仕上
  6
Continuous
 62
     3
370
     9
100
AcDbCircle
 10
-1956.16982942356
 20
1216.865409388037
 30
0.0
 40
144.7500112894419
100
AcDbArc
 50
89.9998016357422
 51
180.0
  0
ARC
  5
CD
330
1F
100
AcDbEntity
  8
A-0_通り芯
  6
JWW_CENTER2
 62
     7
370
     9
100
AcDbCircle
 10
633.330082322903
 20
1216.865780547771
 30
0.0
 40
175.0000051549963
100
AcDbArc
 50
0.0000000000000127
 51
90.000244140625
  0
ARC
  5
CE
330
1F
100
AcDbEntity
  8
A-2_仕上
  6
Continuous
 62
     3
370
     9
100
AcDbCircle
 10
633.330082322903
 20
1216.865780547771
 30
0.0
 40
205.2500106192924
100
AcDbArc
 50
0.0
 51
90.00022888183592
  0
ARC
  5
CF
330
1F
100
AcDbEntity
  8
A-2_仕上
  6
Continuous
 62
     3
370
     9
100
AcDbCircle
 10
633.3298967430363
 20
1216.865409388037
 30
0.0
 40
144.7500112894419
100
AcDbArc
 50
0.0
 51
90.0001983642578
  0
LINE
  5
D0
330
1F
100
AcDbEntity
  8
A-4_文字
  6
Continuous
 62
     7
370
     9
100
AcDbLine
 10
-2161.420048820203
 20
1580.525029749918
 30
0.0
 11
838.5801161396791
 21
1580.525029749918
 31
0.0
  0
LINE
  5
D1
330
1F
100
AcDbEntity
  8
A-4_文字
  6
Continuous
 62
     7
370
     9
100
AcDbLine
 10
-2161.420048820203
 20
1580.525029749918
 30
0.0
 11
-2124.240866518684
 21
1585.41976195817
 31
0.0
  0
LINE
  5
D2
330
1F
100
AcDbEntity
  8
A-4_文字
  6
Continuous
 62
     7
370
     9
100
AcDbLine
 10
-2161.420048820203
 20
1580.525029749918
 30
0.0
 11
-2124.240866518684
 21
1575.630297541666
 31
0.0
  0
LINE
  5
D3
330
1F
100
AcDbEntity
  8
A-4_文字
  6
Continuous
 62
     7
370
     9
100
AcDbLine
 10
838.5801161396791
 20
1580.525029749918
 30
0.0
 11
801.4009338381613
 21
1585.41976195817
 31
0.0
  0
LINE
  5
D4
330
1F
100
AcDbEntity
  8
A-4_文字
  6
Continuous
 62
     7
370
     9
100
AcDbLine
 10
838.5801161396791
 20
1580.525029749918
 30
0.0
 11
801.4009338381613
 21
1575.630297541666
 31
0.0
  0
TEXT
  5
D5
330
1F
100
AcDbEntity
  8
A-4_文字
  6
Continuous
 62
     2
370
   211
100
AcDbText
 10
-727.0449663402617
 20
1597.985029749918
 30
0.0
 40
45.72
  1
3000
 41
1.09375
  7
ＭＳ ゴシック
100
AcDbText
  0
LINE
  5
D6
330
1F
100
AcDbEntity
  8
A-4_文字
  6
Continuous
 62
     7
370
     9
100
AcDbLine
 10
-2331.169973763457
 20
123.8556110516837
 30
0.0
 11
-1931.169973763457
 21
123.8556110516837
 31
0.0
  0
LINE
  5
D7
330
1F
100
AcDbEntity
  8
A-4_文字
  6
Continuous
 62
     7
370
     9
100
AcDbLine
 10
-2331.169973763457
 20
123.8556110516837
 30
0.0
 11
-2293.990791461939
 21
128.7503432599357
 31
0.0
  0
LINE
  5
D8
330
1F
100
AcDbEntity
  8
A-4_文字
  6
Continuous
 62
     7
370
     9
100
AcDbLine
 10
-2331.169973763457
 20
123.8556110516837
 30
0.0
 11
-2293.990791461939
 21
118.9608788434316
 31
0.0
  0
LINE
  5
D9
330
1F
100
AcDbEntity
  8
A-4_文字
  6
Continuous
 62
     7
370
     9
100
AcDbLine
 10
-1931.169973763457
 20
123.8556110516837
 30
0.0
 11
-1968.349156064975
 21
128.7503432599357
 31
0.0
  0
LINE
  5
DA
330
1F
100
AcDbEntity
  8
A-4_文字
  6
Continuous
 62
     7
370
     9
100
AcDbLine
 10
-1931.169973763457
 20
123.8556110516837
 30
0.0
 11
-1968.349156064975
 21
118.9608788434316
 31
0.0
  0
LINE
  5
DB
330
1F
100
AcDbEntity
  8
A-4_文字
  6
Continuous
 62
     7
370
     9
100
AcDbLine
 10
-2331.169973763457
 20
119.3556110516835
 30
0.0
 11
-2331.169973763457
 21
392.1165888511914
 31
0.0
  0
LINE
  5
DC
330
1F
100
AcDbEntity
  8
A-4_文字
  6
Continuous
 62
     7
370
     9
100
AcDbLine
 10
-1931.169973763457
 20
119.3556110516835
 30
0.0
 11
-1931.169973763457
 21
392.1165888511914
 31
0.0
  0
TEXT
  5
DD
330
1F
100
AcDbEntity
  8
A-4_文字
  6
Continuous
 62
     2
370
   211
100
AcDbText
 10
-2213.669973763457
 20
141.315611051684
 30
0.0
 40
45.72
  1
□400
 41
1.1
  7
ＭＳ ゴシック
100
AcDbText
  0
LINE
  5
DE
330
1F
100
AcDbEntity
  8
A-4_文字
  6
Continuous
 62
     7
370
     9
100
AcDbLine
 10
-2281.169973763457
 20
256.908802541046
 30
0.0
 11
-1981.169973763457
 21
256.908802541046
 31
0.0
  0
LINE
  5
DF
330
1F
100
AcDbEntity
  8
A-4_文字
  6
Continuous
 62
     7
370
     9
100
AcDbLine
 10
-2281.169973763457
 20
256.908802541046
 30
0.0
 11
-2243.990791461939
 21
261.8035347492981
 31
0.0
  0
LINE
  5
E0
330
1F
100
AcDbEntity
  8
A-4_文字
  6
Continuous
 62
     7
370
     9
100
AcDbLine
 10
-2281.169973763457
 20
256.908802541046
 30
0.0
 11
-2243.990791461939
 21
252.014070332794
 31
0.0
  0
LINE
  5
E1
330
1F
100
AcDbEntity
  8
A-4_文字
  6
Continuous
 62
     7
370
     9
100
AcDbLine
 10
-1981.169973763457
 20
256.908802541046
 30
0.0
 11
-2018.349156064975
 21
261.8035347492981
 31
0.0
  0
LINE
  5
E2
330
1F
100
AcDbEntity
  8
A-4_文字
  6
Continuous
 62
     7
370
     9
100
AcDbLine
 10
-1981.169973763457
 20
256.908802541046
 30
0.0
 11
-2018.349156064975
 21
252.014070332794
 31
0.0
  0
TEXT
  5
E3
330
1F
100
AcDbEntity
  8
A-4_文字
  6
Continuous
 62
     2
370
   211
100
AcDbText
 10
-2213.669973763457
 20
274.3688025410464
 30
0.0
 40
45.72
  1
□300
 41
1.1
  7
ＭＳ ゴシック
100
AcDbText
  0
LINE
  5
E4
330
1F
100
AcDbEntity
  8
A-4_文字
  6
Continuous
 62
     7
370
     9
100
AcDbLine
 10
-2281.169973763457
 20
252.4088025410458
 30
0.0
 11
-2281.169973763457
 21
392.1165888511914
 31
0.0
  0
LINE
  5
E5
330
1F
100
AcDbEntity
  8
A-4_文字
  6
Continuous
 62
     7
370
     9
100
AcDbLine
 10
-1981.169973763457
 20
252.4088025410458
 30
0.0
 11
-1981.169973763457
 21
392.1165888511914
 31
0.0
  0
LINE
  5
E6
330
1F
100
AcDbEntity
  8
A-4_文字
  6
Continuous
 62
     7
370
     9
100
AcDbLine
 10
-2161.420048820203
 20
1585.025029749918
 30
0.0
 11
-2161.420048820203
 21
1289.611761428405
 31
0.0
  0
LINE
  5
E7
330
1F
100
AcDbEntity
  8
A-4_文字
  6
Continuous
 62
     7
370
     9
100
AcDbLine
 10
838.5801161396791
 20
1585.025029749918
 30
0.0
 11
838.5801161396791
 21
1289.611761428405
 31
0.0
  0
LINE
  5
E8
330
1F
100
AcDbEntity
  8
A-4_文字
  6
Continuous
 62
     7
370
     9
100
AcDbLine
 10
-2079.913890936073
 20
1340.609842060283
 30
0.0
 11
-2050.170296676522
 21
1317.771965615149
 31
0.0
  0
LINE
  5
E9
330
1F
100
AcDbEntity
  8
A-4_文字
  6
Continuous
 62
     7
370
     9
100
AcDbLine
 10
-2079.913890936073
 20
1340.609842060283
 30
0.0
 11
-2057.094662447809
 21
1310.851938720155
 31
0.0
  0
LINE
  5
EA
330
1F
100
AcDbEntity
  8
A-4_文字
  6
Continuous
 62
     7
370
     9
100
AcDbLine
 10
-1933.198558606655
 20
1193.80251880555
 30
0.0
 11
-2079.913890936073
 21
1340.609842060283
 31
0.0
  0
TEXT
  5
EB
330
1F
100
AcDbEntity
  8
A-4_文字
  6
Continuous
 62
     2
370
   211
100
AcDbText
 10
-2016.881003124766
 20
1296.961189955114
 30
0.0
 40
45.72000000000106
  1
R175
 50
314.9999999999961
 41
1.093749999999958
  7
ＭＳ ゴシック
100
AcDbText
  0
LINE
  5
EC
330
1F
100
AcDbEntity
  8
A-E_見え係り
  6
Continuous
 62
     6
370
     9
100
AcDbLine
 10
1174.069174705812
 20
772.1165888511915
 30
0.0
 11
838.580116139679
 21
772.1165888511915
 31
0.0
  0
LINE
  5
ED
330
1F
100
AcDbEntity
  8
A-0_通り芯
  6
Continuous
 62
     4
370
     9
100
AcDbLine
 10
770.8299915949682
 20
772.1165888511915
 30
0.0
 11
808.3300410829331
 21
772.1165888511915
 31
0.0
  0
LINE
  5
EE
330
1F
100
AcDbEntity
  8
A-0_通り芯
  6
Continuous
 62
     4
370
     9
100
AcDbLine
 10
845.8300905708979
 20
772.1165888511915
 30
0.0
 11
808.3300410829331
 21
772.1165888511915
 31
0.0
  0
LINE
  5
EF
330
1F
100
AcDbEntity
  8
A-0_通り芯
  6
Continuous
 62
     4
370
     9
100
AcDbLine
 10
845.8300905708979
 20
772.1165888511915
 30
0.0
 11
845.8300905708979
 21
770.6165839023953
 31
0.0
  0
LINE
  5
F0
330
1F
100
AcDbEntity
  8
A-0_通り芯
  6
Continuous
 62
     4
370
     9
100
AcDbLine
 10
842.3300542797228
 20
770.6165839023953
 30
0.0
 11
842.3300542797228
 21
522.1165682312061
 31
0.0
  0
LINE
  5
F1
330
1F
100
AcDbEntity
  8
A-1_躯体
  6
Continuous
 62
     7
370
     9
100
AcDbLine
 10
848.3300740749097
 20
522.1165682312061
 30
0.0
 11
768.3300080909556
 21
522.1165682312061
 31
0.0
  0
LINE
  5
F2
330
1F
100
AcDbEntity
  8
A-3_寸法
  6
JWW_DASHED2
 62
     3
370
     9
100
AcDbLine
 10
838.5801532556518
 20
772.1165888511915
 30
0.0
 11
838.5801532556518
 21
522.1165682312061
 31
0.0
  0
LINE
  5
F3
330
1F
100
AcDbEntity
  8
A-0_通り芯
  6
JWW_DASHED2
 62
     4
370
     9
100
AcDbLine
 10
840.8299751005513
 20
770.6165839023953
 30
0.0
 11
840.8299751005513
 21
522.1165682312061
 31
0.0
  0
ARC
  5
F4
330
1F
100
AcDbEntity
  8
A-0_通り芯
  6
JWW_DASHED2
 62
     4
370
     9
100
AcDbCircle
 10
842.3300542812943
 20
770.6165839023953
 30
0.0
 40
1.499999874346965
100
AcDbArc
 50
90.0
 51
180.0
  0
LINE
  5
F5
330
1F
100
AcDbEntity
  8
A-0_通り芯
  6
Continuous
 62
     4
370
     9
100
AcDbLine
 10
770.8301400588629
 20
772.1165888511915
 30
0.0
 11
770.8301400588629
 21
770.6165839023953
 31
0.0
  0
LINE
  5
F6
330
1F
100
AcDbEntity
  8
A-0_通り芯
  6
Continuous
 62
     4
370
     9
100
AcDbLine
 10
774.3300278861416
 20
770.6165839023953
 30
0.0
 11
774.3300278861416
 21
522.1165682312061
 31
0.0
  0
LINE
  5
F7
330
1F
100
AcDbEntity
  8
A-0_通り芯
  6
Continuous
 62
     4
370
     9
100
AcDbLine
 10
774.3300278861425
 20
770.6165839023953
 30
0.0
 11
770.8299915949682
 21
770.6165839023953
 31
0.0
  0
LINE
  5
F8
330
1F
100
AcDbEntity
  8
A-0_通り芯
  6
Continuous
 62
     4
370
     9
100
AcDbLine
 10
770.8299915949682
 20
772.1165888511915
 30
0.0
 11
770.8299915949682
 21
770.6165839023953
 31
0.0
  0
LINE
  5
F9
330
1F
100
AcDbEntity
  8
A-3_寸法
  6
JWW_DASHED2
 62
     3
370
     9
100
AcDbLine
 10
778.0799289102135
 20
772.1165888511915
 30
0.0
 11
778.0799289102135
 21
522.1165682312061
 31
0.0
  0
LINE
  5
FA
330
1F
100
AcDbEntity
  8
A-0_通り芯
  6
JWW_DASHED2
 62
     4
370
     9
100
AcDbLine
 10
775.830107065314
 20
770.6165839023953
 30
0.0
 11
775.830107065314
 21
522.1165682312061
 31
0.0
  0
ARC
  5
FB
330
1F
100
AcDbEntity
  8
A-0_通り芯
  6
JWW_DASHED2
 62
     4
370
     9
100
AcDbCircle
 10
774.3300278845702
 20
770.6165839023953
 30
0.0
 40
1.499999874346965
100
AcDbArc
 50
0.0000000000000127
 51
90.00000000000001
  0
LINE
  5
FC
330
1F
100
AcDbEntity
  8
A-0_通り芯
  6
Continuous
 62
     4
370
     9
100
AcDbLine
 10
845.8300905708979
 20
770.6165839023953
 30
0.0
 11
842.3300542797228
 21
770.6165839023953
 31
0.0
  0
LINE
  5
FD
330
1F
100
AcDbEntity
  8
A-E_見え係り
  6
Continuous
 62
     6
370
     9
100
AcDbLine
 10
774.3300278861416
 20
737.9251492506625
 30
0.0
 11
658.3300410829331
 21
621.9251624474531
 31
0.0
  0
LINE
  5
FE
330
1F
100
AcDbEntity
  8
A-E_見え係り
  6
Continuous
 62
     6
370
     9
100
AcDbLine
 10
774.3300278861416
 20
723.7830136269314
 30
0.0
 11
658.3300410829331
 21
607.783026823722
 31
0.0
  0
LINE
  5
FF
330
1F
100
AcDbEntity
  8
A-E_見え係り
  6
Continuous
 62
     6
370
     9
100
AcDbLine
 10
774.3300278861425
 20
709.6408780032009
 30
0.0
 11
658.3300410829331
 21
593.640891199991
 31
0.0
  0
LINE
  5
100
330
1F
100
AcDbEntity
  8
A-E_見え係り
  6
Continuous
 62
     6
370
     9
100
AcDbLine
 10
958.3300410829333
 20
723.0440008650628
 30
0.0
 11
842.3300542797228
 21
607.0440140618529
 31
0.0
  0
LINE
  5
101
330
1F
100
AcDbEntity
  8
A-E_見え係り
  6
Continuous
 62
     6
370
     9
100
AcDbLine
 10
958.3300410829333
 20
708.9018652413318
 30
0.0
 11
842.3300542797228
 21
592.9018784381224
 31
0.0
  0
LINE
  5
102
330
1F
100
AcDbEntity
  8
A-E_見え係り
  6
Continuous
 62
     6
370
     9
100
AcDbLine
 10
958.3300410829333
 20
694.7597296176007
 30
0.0
 11
842.3300542797228
 21
578.7597428143907
 31
0.0
  0
LINE
  5
103
330
1F
100
AcDbEntity
  8
A-E_見え係り
  6
Continuous
 62
     6
370
     9
100
AcDbLine
 10
658.3300410829331
 20
520.6166003983832
 30
0.0
 11
658.3300410829331
 21
772.1166003983835
 31
0.0
  0
LINE
  5
104
330
1F
100
AcDbEntity
  8
A-E_見え係り
  6
Continuous
 62
     6
370
     9
100
AcDbLine
 10
958.3300410829333
 20
520.6166003983832
 30
0.0
 11
958.3300410829333
 21
772.1166003983835
 31
0.0
  0
LINE
  5
105
330
1F
100
AcDbEntity
  8
A-E_見え係り
  6
Continuous
 62
     6
370
     9
100
AcDbLine
 10
1008.330041082933
 20
420.6166003983832
 30
0.0
 11
1008.330041082933
 21
520.6166003983832
 31
0.0
  0
LINE
  5
106
330
1F
100
AcDbEntity
  8
A-E_見え係り
  6
Continuous
 62
     6
370
     9
100
AcDbLine
 10
608.3300410829333
 20
520.6166003983832
 30
0.0
 11
1008.330041082933
 21
520.6166003983832
 31
0.0
  0
LINE
  5
107
330
1F
100
AcDbEntity
  8
A-E_見え係り
  6
Continuous
 62
     6
370
     9
100
AcDbLine
 10
608.3300410829333
 20
420.6166003983832
 30
0.0
 11
608.3300410829333
 21
520.6166003983832
 31
0.0
  0
LINE
  5
108
330
1F
100
AcDbEntity
  8
A-E_見え係り
  6
Continuous
 62
     6
370
     9
100
AcDbLine
 10
608.3300410829333
 20
420.6166003983832
 30
0.0
 11
1008.330041082933
 21
420.6166003983832
 31
0.0
  0
LINE
  5
109
330
1F
100
AcDbEntity
  8
A-E_見え係り
  6
Continuous
 62
     6
370
     9
100
AcDbLine
 10
808.3300410829331
 20
520.6166003983832
 30
0.0
 11
781.535121839821
 21
420.6166003983832
 31
0.0
  0
LINE
  5
10A
330
1F
100
AcDbEntity
  8
A-E_見え係り
  6
Continuous
 62
     6
370
     9
100
AcDbLine
 10
794.5844906533592
 20
420.6166003983832
 30
0.0
 11
788.0598062465897
 21
444.9670541078012
 31
0.0
  0
LINE
  5
10B
330
1F
100
AcDbEntity
  8
A-E_見え係り
  6
Continuous
 62
     6
370
     9
100
AcDbLine
 10
795.2806722693931
 20
520.6166003983832
 30
0.0
 11
801.8053566761627
 21
496.2661466889653
 31
0.0
  0
LINE
  5
10C
330
1F
100
AcDbEntity
  8
A-E_見え係り
  6
Continuous
 62
     6
370
     9
100
AcDbLine
 10
758.3300410829333
 20
520.6166003983832
 30
0.0
 11
731.5351218398205
 21
420.6166003983832
 31
0.0
  0
LINE
  5
10D
330
1F
100
AcDbEntity
  8
A-E_見え係り
  6
Continuous
 62
     6
370
     9
100
AcDbLine
 10
744.5844906533596
 20
420.6166003983832
 30
0.0
 11
738.0598062465908
 21
444.9670541078012
 31
0.0
  0
LINE
  5
10E
330
1F
100
AcDbEntity
  8
A-E_見え係り
  6
Continuous
 62
     6
370
     9
100
AcDbLine
 10
745.2806722693934
 20
520.6166003983832
 30
0.0
 11
751.805356676163
 21
496.2661466889653
 31
0.0
  0
LINE
  5
10F
330
1F
100
AcDbEntity
  8
A-E_見え係り
  6
Continuous
 62
     6
370
     9
100
AcDbLine
 10
708.3300410829337
 20
520.6166003983832
 30
0.0
 11
681.535121839819
 21
420.6166003983832
 31
0.0
  0
LINE
  5
110
330
1F
100
AcDbEntity
  8
A-E_見え係り
  6
Continuous
 62
     6
370
     9
100
AcDbLine
 10
694.5844906533607
 20
420.6166003983832
 30
0.0
 11
688.0598062465895
 21
444.9670541078012
 31
0.0
  0
LINE
  5
111
330
1F
100
AcDbEntity
  8
A-E_見え係り
  6
Continuous
 62
     6
370
     9
100
AcDbLine
 10
695.2806722693929
 20
520.6166003983832
 30
0.0
 11
701.8053566761624
 21
496.2661466889653
 31
0.0
  0
LINE
  5
112
330
1F
100
AcDbEntity
  8
A-E_見え係り
  6
Continuous
 62
     6
370
     9
100
AcDbLine
 10
658.3300410829331
 20
520.6166003983832
 30
0.0
 11
631.535121839821
 21
420.6166003983832
 31
0.0
  0
LINE
  5
113
330
1F
100
AcDbEntity
  8
A-E_見え係り
  6
Continuous
 62
     6
370
     9
100
AcDbLine
 10
644.5844906533592
 20
420.6166003983832
 30
0.0
 11
638.0598062465906
 21
444.9670541078012
 31
0.0
  0
LINE
  5
114
330
1F
100
AcDbEntity
  8
A-E_見え係り
  6
Continuous
 62
     6
370
     9
100
AcDbLine
 10
645.2806722693931
 20
520.6166003983832
 30
0.0
 11
651.8053566761627
 21
496.2661466889653
 31
0.0
  0
LINE
  5
115
330
1F
100
AcDbEntity
  8
A-E_見え係り
  6
Continuous
 62
     6
370
     9
100
AcDbLine
 10
858.3300410829337
 20
520.6166003983832
 30
0.0
 11
831.5351218398207
 21
420.6166003983832
 31
0.0
  0
LINE
  5
116
330
1F
100
AcDbEntity
  8
A-E_見え係り
  6
Continuous
 62
     6
370
     9
100
AcDbLine
 10
844.5844906533598
 20
420.6166003983832
 30
0.0
 11
838.0598062465895
 21
444.9670541078012
 31
0.0
  0
LINE
  5
117
330
1F
100
AcDbEntity
  8
A-E_見え係り
  6
Continuous
 62
     6
370
     9
100
AcDbLine
 10
845.2806722693929
 20
520.6166003983832
 30
0.0
 11
851.8053566761632
 21
496.2661466889653
 31
0.0
  0
LINE
  5
118
330
1F
100
AcDbEntity
  8
A-E_見え係り
  6
Continuous
 62
     6
370
     9
100
AcDbLine
 10
908.3300410829333
 20
520.6166003983832
 30
0.0
 11
881.5351218398205
 21
420.6166003983832
 31
0.0
  0
LINE
  5
119
330
1F
100
AcDbEntity
  8
A-E_見え係り
  6
Continuous
 62
     6
370
     9
100
AcDbLine
 10
894.5844906533596
 20
420.6166003983832
 30
0.0
 11
888.0598062465908
 21
444.9670541078012
 31
0.0
  0
LINE
  5
11A
330
1F
100
AcDbEntity
  8
A-E_見え係り
  6
Continuous
 62
     6
370
     9
100
AcDbLine
 10
895.2806722693934
 20
520.6166003983832
 30
0.0
 11
901.805356676163
 21
496.2661466889653
 31
0.0
  0
LINE
  5
11B
330
1F
100
AcDbEntity
  8
A-E_見え係り
  6
Continuous
 62
     6
370
     9
100
AcDbLine
 10
958.3300410829333
 20
520.6166003983832
 30
0.0
 11
931.5351218398208
 21
420.6166003983832
 31
0.0
  0
LINE
  5
11C
330
1F
100
AcDbEntity
  8
A-E_見え係り
  6
Continuous
 62
     6
370
     9
100
AcDbLine
 10
944.5844906533595
 20
420.6166003983832
 30
0.0
 11
938.0598062465908
 21
444.9670541078012
 31
0.0
  0
LINE
  5
11D
330
1F
100
AcDbEntity
  8
A-E_見え係り
  6
Continuous
 62
     6
370
     9
100
AcDbLine
 10
945.2806722693931
 20
520.6166003983832
 30
0.0
 11
951.8053566761629
 21
496.2661466889653
 31
0.0
  0
LINE
  5
11E
330
1F
100
AcDbEntity
  8
A-E_見え係り
  6
Continuous
 62
     6
370
     9
100
AcDbLine
 10
1008.330041082933
 20
520.6166003983832
 30
0.0
 11
981.5351218398207
 21
420.6166003983832
 31
0.0
  0
LINE
  5
11F
330
1F
100
AcDbEntity
  8
A-E_見え係り
  6
Continuous
 62
     6
370
     9
100
AcDbLine
 10
994.5844906533596
 20
420.6166003983832
 30
0.0
 11
988.0598062465909
 21
444.9670541078012
 31
0.0
  0
LINE
  5
120
330
1F
100
AcDbEntity
  8
A-E_見え係り
  6
Continuous
 62
     6
370
     9
100
AcDbLine
 10
995.2806722693931
 20
520.6166003983832
 30
0.0
 11
1001.805356676163
 21
496.2661466889653
 31
0.0
  0
LINE
  5
121
330
1F
100
AcDbEntity
  8
A-1_躯体
  6
Continuous
 62
     7
370
     9
100
AcDbLine
 10
768.3300080909556
 20
522.1165682312061
 30
0.0
 11
768.3300080909556
 21
520.6166003983832
 31
0.0
  0
LINE
  5
122
330
1F
100
AcDbEntity
  8
A-1_躯体
  6
Continuous
 62
     7
370
     9
100
AcDbLine
 10
795.82997509898
 20
522.1165682312061
 30
0.0
 11
795.82997509898
 21
520.6166003983832
 31
0.0
  0
LINE
  5
123
330
1F
100
AcDbEntity
  8
A-1_躯体
  6
Continuous
 62
     7
370
     9
100
AcDbLine
 10
820.8301070668854
 20
522.1165682312061
 30
0.0
 11
820.8301070668854
 21
520.6166003983832
 31
0.0
  0
LINE
  5
124
330
1F
100
AcDbEntity
  8
A-1_躯体
  6
Continuous
 62
     7
370
     9
100
AcDbLine
 10
848.3300740749097
 20
522.1165682312061
 30
0.0
 11
848.3300740749097
 21
520.6166003983832
 31
0.0
  0
LINE
  5
125
330
1F
100
AcDbEntity
  8
A-4_文字
  6
Continuous
 62
     7
370
     9
100
AcDbLine
 10
-2578.640931537285
 20
522.1165888511913
 30
0.0
 11
-2578.640931537285
 21
1422.115999944413
 31
0.0
  0
LINE
  5
126
330
1F
100
AcDbEntity
  8
A-4_文字
  6
Continuous
 62
     7
370
     9
100
AcDbLine
 10
-2578.640931537285
 20
522.1165888511913
 30
0.0
 11
-2583.535663745537
 21
559.2957711527093
 31
0.0
  0
LINE
  5
127
330
1F
100
AcDbEntity
  8
A-4_文字
  6
Continuous
 62
     7
370
     9
100
AcDbLine
 10
-2578.640931537285
 20
522.1165888511913
 30
0.0
 11
-2573.746199329034
 21
559.2957711527093
 31
0.0
  0
LINE
  5
128
330
1F
100
AcDbEntity
  8
A-4_文字
  6
Continuous
 62
     7
370
     9
100
AcDbLine
 10
-2578.640931537285
 20
1422.115999944413
 30
0.0
 11
-2583.535663745537
 21
1384.936817642895
 31
0.0
  0
LINE
  5
129
330
1F
100
AcDbEntity
  8
A-4_文字
  6
Continuous
 62
     7
370
     9
100
AcDbLine
 10
-2578.640931537285
 20
1422.115999944413
 30
0.0
 11
-2573.746199329034
 21
1384.936817642895
 31
0.0
  0
TEXT
  5
12A
330
1F
100
AcDbEntity
  8
A-4_文字
  6
Continuous
 62
     2
370
   211
100
AcDbText
 10
-2596.100931537285
 20
923.3662943978024
 30
0.0
 40
45.72
  1
900
 50
90.0
 41
1.083333333333335
  7
ＭＳ ゴシック
100
AcDbText
  0
LINE
  5
12B
330
1F
100
AcDbEntity
  8
A-4_文字
  6
Continuous
 62
     7
370
     9
100
AcDbLine
 10
-2446.542091505567
 20
522.1165888511913
 30
0.0
 11
-2446.542091505567
 21
1422.115999944413
 31
0.0
  0
LINE
  5
12C
330
1F
100
AcDbEntity
  8
A-4_文字
  6
Continuous
 62
     7
370
     9
100
AcDbLine
 10
-2446.542091505567
 20
772.1165888511915
 30
0.0
 11
-2451.436823713819
 21
809.2957711527097
 31
0.0
  0
LINE
  5
12D
330
1F
100
AcDbEntity
  8
A-4_文字
  6
Continuous
 62
     7
370
     9
100
AcDbLine
 10
-2446.542091505567
 20
772.1165888511915
 30
0.0
 11
-2441.647359297315
 21
809.2957711527097
 31
0.0
  0
LINE
  5
12E
330
1F
100
AcDbEntity
  8
A-4_文字
  6
Continuous
 62
     7
370
     9
100
AcDbLine
 10
-2446.542091505567
 20
1422.115999944413
 30
0.0
 11
-2451.436823713819
 21
1384.936817642895
 31
0.0
  0
LINE
  5
12F
330
1F
100
AcDbEntity
  8
A-4_文字
  6
Continuous
 62
     7
370
     9
100
AcDbLine
 10
-2446.542091505567
 20
1422.115999944413
 30
0.0
 11
-2441.647359297315
 21
1384.936817642895
 31
0.0
  0
TEXT
  5
130
330
1F
100
AcDbEntity
  8
A-4_文字
  6
Continuous
 62
     2
370
   211
100
AcDbText
 10
-2464.002091505567
 20
1048.366294397802
 30
0.0
 40
45.72
  1
650
 50
90.0
 41
1.083333333333333
  7
ＭＳ ゴシック
100
AcDbText
  0
LINE
  5
131
330
1F
100
AcDbEntity
  8
A-4_文字
  6
Continuous
 62
     7
370
     9
100
AcDbLine
 10
-2446.542091505567
 20
522.1165888511913
 30
0.0
 11
-2451.436823713819
 21
559.2957711527093
 31
0.0
  0
LINE
  5
132
330
1F
100
AcDbEntity
  8
A-4_文字
  6
Continuous
 62
     7
370
     9
100
AcDbLine
 10
-2446.542091505567
 20
522.1165888511913
 30
0.0
 11
-2441.647359297315
 21
559.2957711527093
 31
0.0
  0
LINE
  5
133
330
1F
100
AcDbEntity
  8
A-4_文字
  6
Continuous
 62
     7
370
     9
100
AcDbLine
 10
-2446.542091505567
 20
772.1166134029992
 30
0.0
 11
-2451.436823713819
 21
734.937431101481
 31
0.0
  0
LINE
  5
134
330
1F
100
AcDbEntity
  8
A-4_文字
  6
Continuous
 62
     7
370
     9
100
AcDbLine
 10
-2446.542091505567
 20
772.1166134029992
 30
0.0
 11
-2441.647359297315
 21
734.937431101481
 31
0.0
  0
TEXT
  5
135
330
1F
100
AcDbEntity
  8
A-4_文字
  6
Continuous
 62
     2
370
   211
100
AcDbText
 10
-2464.002091505567
 20
598.366601127095
 30
0.0
 40
45.72
  1
250
 50
90.0
 41
1.083333333333333
  7
ＭＳ ゴシック
100
AcDbText
  0
LINE
  5
136
330
1F
100
AcDbEntity
  8
A-4_文字
  6
Continuous
 62
     7
370
     9
100
AcDbLine
 10
-2583.140931537286
 20
1422.115999944413
 30
0.0
 11
-2026.642590445276
 21
1422.115999944413
 31
0.0
  0
LINE
  5
137
330
1F
100
AcDbEntity
  8
A-E_見え係り
  6
Continuous
 62
     6
370
     9
100
AcDbLine
 10
-2168.669874787528
 20
772.1165888511915
 30
0.0
 11
-2514.078555914654
 21
772.1165888511915
 31
0.0
  0
LINE
  5
138
330
1F
100
AcDbEntity
  8
A-4_文字
  6
Continuous
 62
     7
370
     9
100
AcDbLine
 10
-2446.542091505567
 20
522.1165888511913
 30
0.0
 11
-2446.542091505567
 21
520.6166003983832
 31
0.0
  0
LINE
  5
139
330
1F
100
AcDbEntity
  8
A-4_文字
  6
Continuous
 62
     7
370
     9
100
AcDbLine
 10
-2446.542091505567
 20
520.6166003983832
 30
0.0
 11
-2451.436823713819
 21
483.4374180968654
 31
0.0
  0
LINE
  5
13A
330
1F
100
AcDbEntity
  8
A-4_文字
  6
Continuous
 62
     7
370
     9
100
AcDbLine
 10
-2446.542091505567
 20
520.6166003983832
 30
0.0
 11
-2441.647359297315
 21
483.4374180968654
 31
0.0
  0
LINE
  5
13B
330
1F
100
AcDbEntity
  8
A-4_文字
  6
Continuous
 62
     7
370
     9
100
AcDbLine
 10
-2451.042091505567
 20
520.6166003983832
 30
0.0
 11
-2361.169973763457
 21
520.6166003983832
 31
0.0
  0
LINE
  5
13C
330
1F
100
AcDbEntity
  8
A-4_文字
  6
Continuous
 62
     7
370
     9
100
AcDbLine
 10
-2446.542091505567
 20
520.6166003983832
 30
0.0
 11
-2446.542091505567
 21
389.8614502402915
 31
0.0
  0
TEXT
  5
13D
330
1F
100
AcDbEntity
  8
A-4_文字
  6
Continuous
 62
     2
370
   211
100
AcDbText
 10
-2464.002091505567
 20
399.570079081899
 30
0.0
 40
45.72
  1
1.5
 50
90.0
 41
1.083333333333333
  7
ＭＳ ゴシック
100
AcDbText
  0
LINE
  5
13E
330
1F
100
AcDbEntity
  8
A-4_文字
  6
Continuous
 62
     7
370
     9
100
AcDbLine
 10
-2583.140931537286
 20
522.1165888511913
 30
0.0
 11
-2185.123305645765
 21
522.1165888511913
 31
0.0
  0
LINE
  5
13F
330
1F
100
AcDbEntity
  8
A-4_文字
  6
Continuous
 62
     7
370
     9
100
AcDbLine
 10
-1768.449606976644
 20
420.6166003983832
 30
0.0
 11
-1768.449606976644
 21
520.6166003983832
 31
0.0
  0
LINE
  5
140
330
1F
100
AcDbEntity
  8
A-4_文字
  6
Continuous
 62
     7
370
     9
100
AcDbLine
 10
-1768.449606976644
 20
420.6166003983832
 30
0.0
 11
-1773.344339184896
 21
457.7957826999012
 31
0.0
  0
LINE
  5
141
330
1F
100
AcDbEntity
  8
A-4_文字
  6
Continuous
 62
     7
370
     9
100
AcDbLine
 10
-1768.449606976644
 20
420.6166003983832
 30
0.0
 11
-1763.554874768392
 21
457.7957826999012
 31
0.0
  0
LINE
  5
142
330
1F
100
AcDbEntity
  8
A-4_文字
  6
Continuous
 62
     7
370
     9
100
AcDbLine
 10
-1768.449606976644
 20
520.6166003983832
 30
0.0
 11
-1773.344339184896
 21
483.4374180968654
 31
0.0
  0
LINE
  5
143
330
1F
100
AcDbEntity
  8
A-4_文字
  6
Continuous
 62
     7
370
     9
100
AcDbLine
 10
-1768.449606976644
 20
520.6166003983832
 30
0.0
 11
-1763.554874768392
 21
483.4374180968654
 31
0.0
  0
LINE
  5
144
330
1F
100
AcDbEntity
  8
A-4_文字
  6
Continuous
 62
     7
370
     9
100
AcDbLine
 10
-1763.949606976644
 20
420.6166003983832
 30
0.0
 11
-1901.169973763457
 21
420.6166003983832
 31
0.0
  0
TEXT
  5
145
330
1F
100
AcDbEntity
  8
A-4_文字
  6
Continuous
 62
     2
370
   211
100
AcDbText
 10
-1785.909606976644
 20
421.8666003983832
 30
0.0
 40
45.72
  1
100
 50
90.0
 41
1.083333333333335
  7
ＭＳ ゴシック
100
AcDbText
  0
ARC
  5
146
330
1F
100
AcDbEntity
  8
A-0_通り芯
  6
Continuous
 62
     4
370
     9
100
AcDbCircle
 10
-2080.593121138529
 20
780.931789782931
 30
0.0
 40
0.2
100
AcDbArc
 50
186.0
 51
297.2060231130038
  0
LINE
  5
147
330
1F
100
AcDbEntity
  8
A-1_躯体
  6
Continuous
 62
     3
370
     9
100
AcDbLine
 10
-2069.919923450694
 20
774.4165888511917
 30
0.0
 11
-2100.919923450695
 21
774.4165888511917
 31
0.0
  0
ELLIPSE
  5
148
330
1F
100
AcDbEntity
  8
A-1_躯体
  6
Continuous
 62
     3
370
     9
100
AcDbEllipse
 10
-2069.919923450694
 20
772.9165888511914
 30
0.0
 11
-1.060660171779821
 21
-1.060660171779821
 31
0.0
210
0.0
220
0.0
230
1.0
 40
0.9999999999999999
 41
2.356194490192345
 42
3.926990816987241
  0
LINE
  5
149
330
1F
100
AcDbEntity
  8
A-1_躯体
  6
Continuous
 62
     3
370
     9
100
AcDbLine
 10
-2068.419923450695
 20
755.4165888511914
 30
0.0
 11
-2068.419923450695
 21
772.9165888511914
 31
0.0
  0
ELLIPSE
  5
14A
330
1F
100
AcDbEntity
  8
A-1_躯体
  6
Continuous
 62
     3
370
     9
100
AcDbEllipse
 10
-2069.919923450694
 20
755.4165888511914
 30
0.0
 11
-1.060660171779821
 21
-1.060660171779821
 31
0.0
210
0.0
220
0.0
230
1.0
 40
0.9999999999999999
 41
0.7853981633974483
 42
2.356194490192345
  0
LINE
  5
14B
330
1F
100
AcDbEntity
  8
A-1_躯体
  6
Continuous
 62
     4
370
     9
100
AcDbLine
 10
-2076.440207248632
 20
787.3399602082917
 30
0.0
 11
-2078.353009722061
 21
782.3621218932032
 31
0.0
  0
CIRCLE
  5
14C
330
1F
100
AcDbEntity
  8
A-E_見え係り
  6
Continuous
 62
     4
370
     9
100
AcDbCircle
 10
-2084.819923450694
 20
766.6165888511914
 30
0.0
 40
2.5
  0
ARC
  5
14D
330
1F
100
AcDbEntity
  8
A-0_通り芯
  6
Continuous
 62
     4
370
     9
100
AcDbCircle
 10
-2088.846195914258
 20
847.9744243869674
 30
0.0
 40
1.0
100
AcDbArc
 50
283.1250163489018
 51
5.999999999999996
  0
ARC
  5
14E
330
1F
100
AcDbEntity
  8
A-0_通り芯
  6
Continuous
 62
     4
370
     9
100
AcDbCircle
 10
-2088.517739690176
 20
856.3294988440002
 30
0.0
 40
0.2
100
AcDbArc
 50
74.79397688699622
 51
186.0
  0
LINE
  5
14F
330
1F
100
AcDbEntity
  8
A-0_通り芯
  6
Continuous
 62
     4
370
     9
100
AcDbLine
 10
-2088.465281565623
 20
856.5224966293976
 30
0.0
 11
-2086.079419768178
 21
855.874002994713
 31
0.0
  0
LINE
  5
150
330
1F
100
AcDbEntity
  8
A-0_通り芯
  6
Continuous
 62
     4
370
     9
100
AcDbLine
 10
-2088.619119373336
 20
847.0005474724848
 30
0.0
 11
-2095.611044849866
 21
845.3702570035488
 31
0.0
  0
LINE
  5
151
330
1F
100
AcDbEntity
  8
A-6_間仕切
  6
Continuous
 62
     2
370
     9
100
AcDbLine
 10
-2093.164634002912
 20
791.48054145368
 30
0.0
 11
-2093.62455694851
 21
795.8564159789516
 31
0.0
  0
LINE
  5
152
330
1F
100
AcDbEntity
  8
A-6_間仕切
  6
Continuous
 62
     2
370
     9
100
AcDbLine
 10
-2092.285381662439
 20
790.7685369472152
 30
0.0
 11
-2093.164634002912
 21
791.48054145368
 31
0.0
  0
LINE
  5
153
330
1F
100
AcDbEntity
  8
A-6_間仕切
  6
Continuous
 62
     2
370
     9
100
AcDbLine
 10
-2092.912552442044
 20
796.7356683194253
 30
0.0
 11
-2093.62455694851
 21
795.8564159789516
 31
0.0
  0
LINE
  5
154
330
1F
100
AcDbEntity
  8
A-B_衛生陶器
  6
Continuous
 62
     2
370
     9
100
AcDbLine
 10
-2091.678530473632
 20
788.8213375395951
 30
0.0
 11
-2091.169465730628
 21
788.1206699565574
 31
0.0
  0
LINE
  5
155
330
1F
100
AcDbEntity
  8
A-B_衛生陶器
  6
Continuous
 62
     2
370
     9
100
AcDbLine
 10
-2092.72380792891
 20
798.7664882048783
 30
0.0
 11
-2092.371544453811
 21
799.5576850315927
 31
0.0
  0
LINE
  5
156
330
1F
100
AcDbEntity
  8
A-0_通り芯
  6
Continuous
 62
     4
370
     9
100
AcDbLine
 10
-2095.611044849865
 20
845.3702570035488
 30
0.0
 11
-2090.81901638531
 21
799.777151716762
 31
0.0
  0
LINE
  5
157
330
1F
100
AcDbEntity
  8
A-0_通り芯
  6
Continuous
 62
     4
370
     9
100
AcDbLine
 10
-2090.81901638531
 20
799.777151716762
 30
0.0
 11
-2090.813164772126
 21
799.7214773362895
 31
0.0
  0
LINE
  5
158
330
1F
100
AcDbEntity
  8
A-B_衛生陶器
  6
Continuous
 62
     2
370
     9
100
AcDbLine
 10
-2091.169465730628
 20
788.1206699565574
 30
0.0
 11
-2089.611086048942
 21
788.2844622612548
 31
0.0
  0
LINE
  5
159
330
1F
100
AcDbEntity
  8
A-B_衛生陶器
  6
Continuous
 62
     2
370
     9
100
AcDbLine
 10
-2092.371544453811
 20
799.5576850315927
 30
0.0
 11
-2090.813164772126
 21
799.7214773362895
 31
0.0
  0
ARC
  5
15A
330
1F
100
AcDbEntity
  8
A-0_通り芯
  6
Continuous
 62
     4
370
     9
100
AcDbCircle
 10
-2082.316741212749
 20
785.8508126694646
 30
0.0
 40
1.0
100
AcDbArc
 50
6.000000000000009
 51
88.87498365109819
  0
LINE
  5
15B
330
1F
100
AcDbEntity
  8
A-0_通り芯
  6
Continuous
 62
     4
370
     9
100
AcDbLine
 10
-2082.297107235001
 20
786.850619904344
 30
0.0
 11
-2089.475198812298
 21
786.9915815671361
 31
0.0
  0
LINE
  5
15C
330
1F
100
AcDbEntity
  8
A-1_躯体
  6
Continuous
 62
     4
370
     9
100
AcDbLine
 10
-2090.813164772126
 20
799.7214773362895
 30
0.0
 11
-2089.475198812298
 21
786.9915815671361
 31
0.0
  0
LINE
  5
15D
330
1F
100
AcDbEntity
  8
A-B_衛生陶器
  6
Continuous
 62
     2
370
     9
100
AcDbLine
 10
-2092.72380792891
 20
798.7664882048783
 30
0.0
 11
-2091.678530473632
 21
788.8213375395951
 31
0.0
  0
LINE
  5
15E
330
1F
100
AcDbEntity
  8
A-6_間仕切
  6
Continuous
 62
     2
370
     9
100
AcDbLine
 10
-2092.285381662439
 20
790.7685369472152
 30
0.0
 11
-2091.887583811468
 21
790.8103471861317
 31
0.0
  0
LINE
  5
15F
330
1F
100
AcDbEntity
  8
A-6_間仕切
  6
Continuous
 62
     2
370
     9
100
AcDbLine
 10
-2093.164632856522
 20
791.4805305465056
 30
0.0
 11
-2091.971206582082
 21
791.6059647024263
 31
0.0
  0
LINE
  5
160
330
1F
100
AcDbEntity
  8
A-6_間仕切
  6
Continuous
 62
     2
370
     9
100
AcDbLine
 10
-2093.6245580949
 20
795.8564268861265
 30
0.0
 11
-2092.431131820461
 21
795.9818610420472
 31
0.0
  0
LINE
  5
161
330
1F
100
AcDbEntity
  8
A-6_間仕切
  6
Continuous
 62
     2
370
     9
100
AcDbLine
 10
-2092.912552442044
 20
796.7356683194253
 30
0.0
 11
-2092.514754591074
 21
796.7774785583417
 31
0.0
  0
LINE
  5
162
330
1F
100
AcDbEntity
  8
A-9_記号
  6
Continuous
 62
     7
370
     9
100
AcDbLine
 10
-2080.109447582909
 20
774.4165888511917
 30
0.0
 11
-2080.792025517602
 21
780.9108840902774
 31
0.0
  0
LINE
  5
163
330
1F
100
AcDbEntity
  8
A-9_記号
  6
Continuous
 62
     7
370
     9
100
AcDbLine
 10
-2076.891821088304
 20
774.4165888511917
 30
0.0
 11
-2077.861396786841
 21
783.6414854130242
 31
0.0
  0
LINE
  5
164
330
1F
100
AcDbEntity
  8
A-6_間仕切
  6
Continuous
 62
     2
370
     9
100
AcDbLine
 10
-2075.283007841002
 20
774.4165888511917
 30
0.0
 11
-2076.59811719732
 21
786.9290185643739
 31
0.0
  0
LINE
  5
165
330
1F
100
AcDbEntity
  8
A-1_躯体
  6
Continuous
 62
     4
370
     9
100
AcDbLine
 10
-2078.353009722061
 20
782.3621218932032
 30
0.0
 11
-2080.501682853971
 21
780.7539161195705
 31
0.0
  0
LINE
  5
166
330
1F
100
AcDbEntity
  8
A-0_通り芯
  6
Continuous
 62
     4
370
     9
100
AcDbLine
 10
-2080.792025517602
 20
780.9108840902774
 30
0.0
 11
-2088.71664406925
 21
856.3085931513466
 31
0.0
  0
LINE
  5
167
330
1F
100
AcDbEntity
  8
A-0_通り芯
  6
Continuous
 62
     4
370
     9
100
AcDbLine
 10
-2086.079419768178
 20
855.874002994713
 30
0.0
 11
-2081.468068444815
 21
849.5270224042979
 31
0.0
  0
LINE
  5
168
330
1F
100
AcDbEntity
  8
A-0_通り芯
  6
Continuous
 62
     4
370
     9
100
AcDbLine
 10
-2075.255882633457
 20
790.422022537678
 30
0.0
 11
-2076.440207248632
 21
787.3399602082917
 31
0.0
  0
LINE
  5
169
330
1F
100
AcDbEntity
  8
A-0_通り芯
  6
Continuous
 62
     4
370
     9
100
AcDbLine
 10
-2075.255882633457
 20
790.422022537678
 30
0.0
 11
-2081.468068444815
 21
849.5270224042979
 31
0.0
  0
LINE
  5
16A
330
1F
100
AcDbEntity
  8
A-1_躯体
  6
Continuous
 62
     3
370
     9
100
AcDbLine
 10
-2069.919923450694
 20
753.9165888511916
 30
0.0
 11
-2097.169923450695
 21
753.9165888511916
 31
0.0
  0
ARC
  5
16B
330
1F
100
AcDbEntity
  8
A-0_通り芯
  6
Continuous
 62
     4
370
     9
100
AcDbCircle
 10
757.7531884580044
 20
780.931789782931
 30
0.0
 40
0.2
100
AcDbArc
 50
242.7939768869962
 51
354.0
  0
LINE
  5
16C
330
1F
100
AcDbEntity
  8
A-1_躯体
  6
Continuous
 62
     3
370
     9
100
AcDbLine
 10
747.0799907701686
 20
774.4165888511917
 30
0.0
 11
778.0799907701698
 21
774.4165888511917
 31
0.0
  0
ARC
  5
16D
330
1F
100
AcDbEntity
  8
A-1_躯体
  6
Continuous
 62
     3
370
     9
100
AcDbCircle
 10
747.0799907701686
 20
772.9165888511914
 30
0.0
 40
1.5
100
AcDbArc
 50
90.0
 51
180.0
  0
LINE
  5
16E
330
1F
100
AcDbEntity
  8
A-1_躯体
  6
Continuous
 62
     3
370
     9
100
AcDbLine
 10
745.57999077017
 20
755.4165888511914
 30
0.0
 11
745.57999077017
 21
772.9165888511914
 31
0.0
  0
ARC
  5
16F
330
1F
100
AcDbEntity
  8
A-1_躯体
  6
Continuous
 62
     3
370
     9
100
AcDbCircle
 10
747.0799907701686
 20
755.4165888511914
 30
0.0
 40
1.5
100
AcDbArc
 50
180.0
 51
270.0
  0
LINE
  5
170
330
1F
100
AcDbEntity
  8
A-1_躯体
  6
Continuous
 62
     4
370
     9
100
AcDbLine
 10
753.6002745681068
 20
787.3399602082917
 30
0.0
 11
755.5130770415367
 21
782.3621218932032
 31
0.0
  0
CIRCLE
  5
171
330
1F
100
AcDbEntity
  8
A-E_見え係り
  6
Continuous
 62
     4
370
     9
100
AcDbCircle
 10
761.9799907701687
 20
766.6165888511914
 30
0.0
 40
2.5
  0
ARC
  5
172
330
1F
100
AcDbEntity
  8
A-0_通り芯
  6
Continuous
 62
     4
370
     9
100
AcDbCircle
 10
766.0062632337333
 20
847.9744243869674
 30
0.0
 40
0.9999999999999998
100
AcDbArc
 50
174.0
 51
256.8749836510982
  0
ARC
  5
173
330
1F
100
AcDbEntity
  8
A-0_通り芯
  6
Continuous
 62
     4
370
     9
100
AcDbCircle
 10
765.6778070096512
 20
856.3294988440002
 30
0.0
 40
0.2
100
AcDbArc
 50
354.0
 51
105.2060231130038
  0
LINE
  5
174
330
1F
100
AcDbEntity
  8
A-0_通り芯
  6
Continuous
 62
     4
370
     9
100
AcDbLine
 10
765.7791866928114
 20
847.0005474724848
 30
0.0
 11
772.7711121693411
 21
845.3702570035488
 31
0.0
  0
LINE
  5
175
330
1F
100
AcDbEntity
  8
A-6_間仕切
  6
Continuous
 62
     2
370
     9
100
AcDbLine
 10
770.3247013223877
 20
791.48054145368
 30
0.0
 11
770.7846242679848
 21
795.8564159789516
 31
0.0
  0
LINE
  5
176
330
1F
100
AcDbEntity
  8
A-6_間仕切
  6
Continuous
 62
     2
370
     9
100
AcDbLine
 10
769.4454489819141
 20
790.7685369472152
 30
0.0
 11
770.3247013223877
 21
791.48054145368
 31
0.0
  0
LINE
  5
177
330
1F
100
AcDbEntity
  8
A-6_間仕切
  6
Continuous
 62
     2
370
     9
100
AcDbLine
 10
770.0726197615195
 20
796.7356683194253
 30
0.0
 11
770.7846242679848
 21
795.8564159789516
 31
0.0
  0
LINE
  5
178
330
1F
100
AcDbEntity
  8
A-B_衛生陶器
  6
Continuous
 62
     2
370
     9
100
AcDbLine
 10
768.8385977931075
 20
788.8213375395951
 30
0.0
 11
768.3295330501024
 21
788.1206699565574
 31
0.0
  0
LINE
  5
179
330
1F
100
AcDbEntity
  8
A-B_衛生陶器
  6
Continuous
 62
     2
370
     9
100
AcDbLine
 10
769.8838752483854
 20
798.7664882048783
 30
0.0
 11
769.5316117732859
 21
799.5576850315927
 31
0.0
  0
LINE
  5
17A
330
1F
100
AcDbEntity
  8
A-0_通り芯
  6
Continuous
 62
     4
370
     9
100
AcDbLine
 10
772.7711121693399
 20
845.3702570035488
 30
0.0
 11
767.9790837047854
 21
799.777151716762
 31
0.0
  0
LINE
  5
17B
330
1F
100
AcDbEntity
  8
A-0_通り芯
  6
Continuous
 62
     4
370
     9
100
AcDbLine
 10
767.9790837047854
 20
799.777151716762
 30
0.0
 11
767.973232091601
 21
799.7214773362895
 31
0.0
  0
LINE
  5
17C
330
1F
100
AcDbEntity
  8
A-B_衛生陶器
  6
Continuous
 62
     2
370
     9
100
AcDbLine
 10
768.3295330501024
 20
788.1206699565574
 30
0.0
 11
766.7711533684173
 21
788.2844622612548
 31
0.0
  0
LINE
  5
17D
330
1F
100
AcDbEntity
  8
A-B_衛生陶器
  6
Continuous
 62
     2
370
     9
100
AcDbLine
 10
769.5316117732859
 20
799.5576850315927
 30
0.0
 11
767.973232091601
 21
799.7214773362895
 31
0.0
  0
ARC
  5
17E
330
1F
100
AcDbEntity
  8
A-0_通り芯
  6
Continuous
 62
     4
370
     9
100
AcDbCircle
 10
759.4768085322239
 20
785.8508126694646
 30
0.0
 40
1.0
100
AcDbArc
 50
91.12501634890181
 51
174.0
  0
LINE
  5
17F
330
1F
100
AcDbEntity
  8
A-0_通り芯
  6
Continuous
 62
     4
370
     9
100
AcDbLine
 10
759.4571745544757
 20
786.850619904344
 30
0.0
 11
766.6352661317725
 21
786.9915815671361
 31
0.0
  0
LINE
  5
180
330
1F
100
AcDbEntity
  8
A-1_躯体
  6
Continuous
 62
     4
370
     9
100
AcDbLine
 10
767.973232091601
 20
799.7214773362895
 30
0.0
 11
766.6352661317725
 21
786.9915815671361
 31
0.0
  0
LINE
  5
181
330
1F
100
AcDbEntity
  8
A-B_衛生陶器
  6
Continuous
 62
     2
370
     9
100
AcDbLine
 10
769.8838752483854
 20
798.7664882048783
 30
0.0
 11
768.8385977931075
 21
788.8213375395951
 31
0.0
  0
LINE
  5
182
330
1F
100
AcDbEntity
  8
A-6_間仕切
  6
Continuous
 62
     2
370
     9
100
AcDbLine
 10
769.4454489819141
 20
790.7685369472152
 30
0.0
 11
769.0476511309427
 21
790.8103471861317
 31
0.0
  0
LINE
  5
183
330
1F
100
AcDbEntity
  8
A-6_間仕切
  6
Continuous
 62
     2
370
     9
100
AcDbLine
 10
770.3247001759969
 20
791.4805305465056
 30
0.0
 11
769.131273901557
 21
791.6059647024263
 31
0.0
  0
LINE
  5
184
330
1F
100
AcDbEntity
  8
A-6_間仕切
  6
Continuous
 62
     2
370
     9
100
AcDbLine
 10
770.7846254143756
 20
795.8564268861265
 30
0.0
 11
769.5911991399358
 21
795.9818610420472
 31
0.0
  0
LINE
  5
185
330
1F
100
AcDbEntity
  8
A-6_間仕切
  6
Continuous
 62
     2
370
     9
100
AcDbLine
 10
770.0726197615195
 20
796.7356683194253
 30
0.0
 11
769.6748219105491
 21
796.7774785583417
 31
0.0
  0
LINE
  5
186
330
1F
100
AcDbEntity
  8
A-9_記号
  6
Continuous
 62
     7
370
     9
100
AcDbLine
 10
757.2695149023839
 20
774.4165888511917
 30
0.0
 11
757.9520928370773
 21
780.9108840902774
 31
0.0
  0
LINE
  5
187
330
1F
100
AcDbEntity
  8
A-9_記号
  6
Continuous
 62
     7
370
     9
100
AcDbLine
 10
754.0518884077796
 20
774.4165888511917
 30
0.0
 11
755.0214641063162
 21
783.6414854130242
 31
0.0
  0
LINE
  5
188
330
1F
100
AcDbEntity
  8
A-6_間仕切
  6
Continuous
 62
     2
370
     9
100
AcDbLine
 10
752.4430751604765
 20
774.4165888511917
 30
0.0
 11
753.7581845167956
 21
786.9290185643739
 31
0.0
  0
LINE
  5
189
330
1F
100
AcDbEntity
  8
A-1_躯体
  6
Continuous
 62
     4
370
     9
100
AcDbLine
 10
755.5130770415367
 20
782.3621218932032
 30
0.0
 11
757.6617501734468
 21
780.7539161195705
 31
0.0
  0
LINE
  5
18A
330
1F
100
AcDbEntity
  8
A-0_通り芯
  6
Continuous
 62
     4
370
     9
100
AcDbLine
 10
763.2394870876528
 20
855.874002994713
 30
0.0
 11
758.6281357642902
 21
849.5270224042979
 31
0.0
  0
LINE
  5
18B
330
1F
100
AcDbEntity
  8
A-0_通り芯
  6
Continuous
 62
     4
370
     9
100
AcDbLine
 10
752.4159499529317
 20
790.422022537678
 30
0.0
 11
753.6002745681068
 21
787.3399602082917
 31
0.0
  0
LINE
  5
18C
330
1F
100
AcDbEntity
  8
A-0_通り芯
  6
Continuous
 62
     4
370
     9
100
AcDbLine
 10
752.4159499529317
 20
790.422022537678
 30
0.0
 11
758.6281357642902
 21
849.5270224042979
 31
0.0
  0
LINE
  5
18D
330
1F
100
AcDbEntity
  8
A-0_通り芯
  6
Continuous
 62
     4
370
     9
100
AcDbLine
 10
757.9520928370773
 20
780.9108840902774
 30
0.0
 11
765.9072468256633
 21
856.5991184271408
 31
0.0
  0
LINE
  5
18E
330
1F
100
AcDbEntity
  8
A-0_通り芯
  6
Continuous
 62
     4
370
     9
100
AcDbLine
 10
765.9072468256633
 20
856.5991184271408
 30
0.0
 11
763.2394870876528
 21
855.874002994713
 31
0.0
  0
LINE
  5
18F
330
1F
100
AcDbEntity
  8
A-1_躯体
  6
Continuous
 62
     3
370
     9
100
AcDbLine
 10
747.0799907701686
 20
753.9165888511916
 30
0.0
 11
774.3299907701698
 21
753.9165888511916
 31
0.0
  0
LINE
  5
190
330
1F
100
AcDbEntity
  8
A-E_見え係り
  6
Continuous
 62
     6
370
     9
100
AcDbLine
 10
-2068.419923450695
 20
772.1165888511915
 30
0.0
 11
745.5799907701701
 21
772.1165888511915
 31
0.0
  0
LINE
  5
191
330
1F
100
AcDbEntity
  8
A-0_通り芯
  6
JWW_CENTER2
 62
     7
370
     9
100
AcDbLine
 10
-2131.169973763457
 20
1216.865780547771
 30
0.0
 11
-2131.169973763457
 21
480.2133650402218
 31
0.0
  0
LINE
  5
192
330
1F
100
AcDbEntity
  8
A-0_通り芯
  6
JWW_CENTER2
 62
     7
370
     9
100
AcDbLine
 10
808.3300410829326
 20
1216.865780547771
 30
0.0
 11
808.3300410829326
 21
480.2133650402218
 31
0.0
  0
LINE
  5
193
330
1F
100
AcDbEntity
  8
A-0_通り芯
  6
JWW_CENTER2
 62
     7
370
     9
100
AcDbLine
 10
-1956.169272683959
 20
1391.8657393078
 30
0.0
 11
-161.4199663402621
 21
1391.864625828598
 31
0.0
  0
LINE
  5
194
330
1F
100
AcDbEntity
  8
A-0_通り芯
  6
JWW_CENTER2
 62
     7
370
     9
100
AcDbLine
 10
633.3293400034353
 20
1391.8657393078
 30
0.0
 11
-161.4199663402622
 21
1391.864625828598
 31
0.0
  0
LINE
  5
195
330
1F
100
AcDbEntity
  8
A-2_仕上
  6
Continuous
 62
     3
370
     9
100
AcDbLine
 10
-1956.169458263827
 20
1361.615478671187
 30
0.0
 11
633.329395601698
 21
1361.613872122123
 31
0.0
  0
LINE
  5
196
330
1F
100
AcDbEntity
  8
A-2_仕上
  6
Continuous
 62
     3
370
     9
100
AcDbLine
 10
-1956.169087104093
 20
1422.115999944413
 30
0.0
 11
633.3292624005411
 21
1422.113857878969
 31
0.0
  0
LINE
  5
197
330
1F
100
AcDbEntity
  8
A-4_文字
  6
Continuous
 62
     7
370
     9
100
AcDbLine
 10
-2100.919898706712
 20
1025.791445274009
 30
0.0
 11
-2161.420048820203
 21
1025.791445274009
 31
0.0
  0
LINE
  5
198
330
1F
100
AcDbEntity
  8
A-4_文字
  6
Continuous
 62
     7
370
     9
100
AcDbLine
 10
-2100.919898706712
 20
1025.791445274009
 30
0.0
 11
-2063.740716405193
 21
1030.686177482261
 31
0.0
  0
LINE
  5
199
330
1F
100
AcDbEntity
  8
A-4_文字
  6
Continuous
 62
     7
370
     9
100
AcDbLine
 10
-2100.919898706712
 20
1025.791445274009
 30
0.0
 11
-2063.740716405193
 21
1020.896713065757
 31
0.0
  0
LINE
  5
19A
330
1F
100
AcDbEntity
  8
A-4_文字
  6
Continuous
 62
     7
370
     9
100
AcDbLine
 10
-2161.420048820203
 20
1025.791445274009
 30
0.0
 11
-2198.599231121721
 21
1030.686177482261
 31
0.0
  0
LINE
  5
19B
330
1F
100
AcDbEntity
  8
A-4_文字
  6
Continuous
 62
     7
370
     9
100
AcDbLine
 10
-2161.420048820203
 20
1025.791445274009
 30
0.0
 11
-2198.599231121721
 21
1020.896713065757
 31
0.0
  0
TEXT
  5
19C
330
1F
100
AcDbEntity
  8
A-4_文字
  6
Continuous
 62
     2
370
     9
100
AcDbText
 10
-2051.1044698779
 20
1041.740806976137
 30
0.0
 40
45.71999999999903
  1
φ60.5
 41
1.10416666666669
  7
ＭＳ ゴシック
100
AcDbText
  0
LINE
  5
19D
330
1F
100
AcDbEntity
  8
A-4_文字
  6
Continuous
 62
     7
370
     9
100
AcDbLine
 10
-2100.919898706712
 20
1025.791445274009
 30
0.0
 11
-1840.32521455875
 21
1025.791445274009
 31
0.0
  0
LINE
  5
19E
330
1F
100
AcDbEntity
  8
A-4_文字
  6
Continuous
 62
     7
370
     9
100
AcDbLine
 10
-2161.420048820203
 20
1025.791445274009
 30
0.0
 11
-2207.403622754179
 21
1025.791445274009
 31
0.0
  0
LINE
  5
19F
330
1F
100
AcDbEntity
  8
A-2_仕上
  6
Continuous
 62
     3
370
     9
100
AcDbLine
 10
778.0799660261868
 20
1216.865409388037
 30
0.0
 11
778.0799660261868
 21
772.1165888511915
 31
0.0
  0
LINE
  5
1A0
330
1F
100
AcDbEntity
  8
A-2_仕上
  6
Continuous
 62
     3
370
     9
100
AcDbLine
 10
838.580116139679
 20
1216.865780547771
 30
0.0
 11
838.580116139679
 21
772.1165888511915
 31
0.0
  0
LINE
  5
1A1
330
1F
100
AcDbEntity
  8
A-2_仕上
  6
Continuous
 62
     3
370
     9
100
AcDbLine
 10
-2161.420048820203
 20
1216.865780547771
 30
0.0
 11
-2161.420048820203
 21
772.1165888511915
 31
0.0
  0
LINE
  5
1A2
330
1F
100
AcDbEntity
  8
A-E_見え係り
  6
Continuous
 62
     6
370
     9
100
AcDbLine
 10
1727.924109771851
 20
520.6165888511912
 30
0.0
 11
1727.924109771851
 21
772.1165888511915
 31
0.0
  0
LINE
  5
1A3
330
1F
100
AcDbEntity
  8
A-E_見え係り
  6
Continuous
 62
     6
370
     9
100
AcDbLine
 10
2027.924109771851
 20
520.6165888511912
 30
0.0
 11
2027.924109771851
 21
772.1165888511915
 31
0.0
  0
LINE
  5
1A4
330
1F
100
AcDbEntity
  8
A-E_見え係り
  6
Continuous
 62
     6
370
     9
100
AcDbLine
 10
2077.924109771851
 20
420.6165888511912
 30
0.0
 11
2077.924109771851
 21
520.6165888511912
 31
0.0
  0
LINE
  5
1A5
330
1F
100
AcDbEntity
  8
A-E_見え係り
  6
Continuous
 62
     6
370
     9
100
AcDbLine
 10
1677.924109771851
 20
520.6165888511912
 30
0.0
 11
2077.924109771851
 21
520.6165888511912
 31
0.0
  0
LINE
  5
1A6
330
1F
100
AcDbEntity
  8
A-E_見え係り
  6
Continuous
 62
     6
370
     9
100
AcDbLine
 10
1677.924109771851
 20
420.6165888511912
 30
0.0
 11
1677.924109771851
 21
520.6165888511912
 31
0.0
  0
LINE
  5
1A7
330
1F
100
AcDbEntity
  8
A-E_見え係り
  6
Continuous
 62
     6
370
     9
100
AcDbLine
 10
1677.924109771851
 20
420.6165888511912
 30
0.0
 11
2077.924109771851
 21
420.6165888511912
 31
0.0
  0
LINE
  5
1A8
330
1F
100
AcDbEntity
  8
A-E_見え係り
  6
Continuous
 62
     6
370
     9
100
AcDbLine
 10
1877.92410977185
 20
520.6165888511912
 30
0.0
 11
1851.129190528738
 21
420.6165888511912
 31
0.0
  0
LINE
  5
1A9
330
1F
100
AcDbEntity
  8
A-E_見え係り
  6
Continuous
 62
     6
370
     9
100
AcDbLine
 10
1864.178559342279
 20
420.6165888511912
 30
0.0
 11
1857.653874935508
 21
444.9670425606092
 31
0.0
  0
LINE
  5
1AA
330
1F
100
AcDbEntity
  8
A-E_見え係り
  6
Continuous
 62
     6
370
     9
100
AcDbLine
 10
1864.874740958311
 20
520.6165888511912
 30
0.0
 11
1871.399425365081
 21
496.2661351417732
 31
0.0
  0
LINE
  5
1AB
330
1F
100
AcDbEntity
  8
A-E_見え係り
  6
Continuous
 62
     6
370
     9
100
AcDbLine
 10
1827.924109771851
 20
520.6165888511912
 30
0.0
 11
1801.129190528738
 21
420.6165888511912
 31
0.0
  0
LINE
  5
1AC
330
1F
100
AcDbEntity
  8
A-E_見え係り
  6
Continuous
 62
     6
370
     9
100
AcDbLine
 10
1814.178559342278
 20
420.6165888511912
 30
0.0
 11
1807.653874935508
 21
444.9670425606092
 31
0.0
  0
LINE
  5
1AD
330
1F
100
AcDbEntity
  8
A-E_見え係り
  6
Continuous
 62
     6
370
     9
100
AcDbLine
 10
1814.87474095831
 20
520.6165888511912
 30
0.0
 11
1821.39942536508
 21
496.2661351417732
 31
0.0
  0
LINE
  5
1AE
330
1F
100
AcDbEntity
  8
A-E_見え係り
  6
Continuous
 62
     6
370
     9
100
AcDbLine
 10
1777.924109771851
 20
520.6165888511912
 30
0.0
 11
1751.129190528738
 21
420.6165888511912
 31
0.0
  0
LINE
  5
1AF
330
1F
100
AcDbEntity
  8
A-E_見え係り
  6
Continuous
 62
     6
370
     9
100
AcDbLine
 10
1764.178559342278
 20
420.6165888511912
 30
0.0
 11
1757.653874935508
 21
444.9670425606092
 31
0.0
  0
LINE
  5
1B0
330
1F
100
AcDbEntity
  8
A-E_見え係り
  6
Continuous
 62
     6
370
     9
100
AcDbLine
 10
1764.87474095831
 20
520.6165888511912
 30
0.0
 11
1771.399425365081
 21
496.2661351417732
 31
0.0
  0
LINE
  5
1B1
330
1F
100
AcDbEntity
  8
A-E_見え係り
  6
Continuous
 62
     6
370
     9
100
AcDbLine
 10
1727.924109771851
 20
520.6165888511912
 30
0.0
 11
1701.129190528738
 21
420.6165888511912
 31
0.0
  0
LINE
  5
1B2
330
1F
100
AcDbEntity
  8
A-E_見え係り
  6
Continuous
 62
     6
370
     9
100
AcDbLine
 10
1714.178559342278
 20
420.6165888511912
 30
0.0
 11
1707.653874935508
 21
444.9670425606092
 31
0.0
  0
LINE
  5
1B3
330
1F
100
AcDbEntity
  8
A-E_見え係り
  6
Continuous
 62
     6
370
     9
100
AcDbLine
 10
1714.87474095831
 20
520.6165888511912
 30
0.0
 11
1721.399425365081
 21
496.2661351417732
 31
0.0
  0
LINE
  5
1B4
330
1F
100
AcDbEntity
  8
A-E_見え係り
  6
Continuous
 62
     6
370
     9
100
AcDbLine
 10
1927.924109771851
 20
520.6165888511912
 30
0.0
 11
1901.129190528738
 21
420.6165888511912
 31
0.0
  0
LINE
  5
1B5
330
1F
100
AcDbEntity
  8
A-E_見え係り
  6
Continuous
 62
     6
370
     9
100
AcDbLine
 10
1914.178559342278
 20
420.6165888511912
 30
0.0
 11
1907.653874935508
 21
444.9670425606092
 31
0.0
  0
LINE
  5
1B6
330
1F
100
AcDbEntity
  8
A-E_見え係り
  6
Continuous
 62
     6
370
     9
100
AcDbLine
 10
1914.87474095831
 20
520.6165888511912
 30
0.0
 11
1921.399425365081
 21
496.2661351417732
 31
0.0
  0
LINE
  5
1B7
330
1F
100
AcDbEntity
  8
A-E_見え係り
  6
Continuous
 62
     6
370
     9
100
AcDbLine
 10
1977.924109771851
 20
520.6165888511912
 30
0.0
 11
1951.129190528738
 21
420.6165888511912
 31
0.0
  0
LINE
  5
1B8
330
1F
100
AcDbEntity
  8
A-E_見え係り
  6
Continuous
 62
     6
370
     9
100
AcDbLine
 10
1964.178559342279
 20
420.6165888511912
 30
0.0
 11
1957.653874935508
 21
444.9670425606092
 31
0.0
  0
LINE
  5
1B9
330
1F
100
AcDbEntity
  8
A-E_見え係り
  6
Continuous
 62
     6
370
     9
100
AcDbLine
 10
1964.874740958311
 20
520.6165888511912
 30
0.0
 11
1971.399425365081
 21
496.2661351417732
 31
0.0
  0
LINE
  5
1BA
330
1F
100
AcDbEntity
  8
A-E_見え係り
  6
Continuous
 62
     6
370
     9
100
AcDbLine
 10
2027.924109771851
 20
520.6165888511912
 30
0.0
 11
2001.129190528738
 21
420.6165888511912
 31
0.0
  0
LINE
  5
1BB
330
1F
100
AcDbEntity
  8
A-E_見え係り
  6
Continuous
 62
     6
370
     9
100
AcDbLine
 10
2014.178559342279
 20
420.6165888511912
 30
0.0
 11
2007.653874935508
 21
444.9670425606092
 31
0.0
  0
LINE
  5
1BC
330
1F
100
AcDbEntity
  8
A-E_見え係り
  6
Continuous
 62
     6
370
     9
100
AcDbLine
 10
2014.874740958311
 20
520.6165888511912
 30
0.0
 11
2021.399425365081
 21
496.2661351417732
 31
0.0
  0
LINE
  5
1BD
330
1F
100
AcDbEntity
  8
A-E_見え係り
  6
Continuous
 62
     6
370
     9
100
AcDbLine
 10
2077.924109771851
 20
520.6165888511912
 30
0.0
 11
2051.129190528738
 21
420.6165888511912
 31
0.0
  0
LINE
  5
1BE
330
1F
100
AcDbEntity
  8
A-E_見え係り
  6
Continuous
 62
     6
370
     9
100
AcDbLine
 10
2064.178559342279
 20
420.6165888511912
 30
0.0
 11
2057.653874935509
 21
444.9670425606092
 31
0.0
  0
LINE
  5
1BF
330
1F
100
AcDbEntity
  8
A-E_見え係り
  6
Continuous
 62
     6
370
     9
100
AcDbLine
 10
2064.874740958311
 20
520.6165888511912
 30
0.0
 11
2071.399425365081
 21
496.2661351417732
 31
0.0
  0
LINE
  5
1C0
330
1F
100
AcDbEntity
  8
A-1_躯体
  6
Continuous
 62
     7
370
     9
100
AcDbLine
 10
1837.924076779874
 20
522.1165566840141
 30
0.0
 11
1837.924076779874
 21
520.6165888511912
 31
0.0
  0
LINE
  5
1C1
330
1F
100
AcDbEntity
  8
A-1_躯体
  6
Continuous
 62
     7
370
     9
100
AcDbLine
 10
1865.424043787898
 20
522.1165566840141
 30
0.0
 11
1865.424043787898
 21
520.6165888511912
 31
0.0
  0
LINE
  5
1C2
330
1F
100
AcDbEntity
  8
A-1_躯体
  6
Continuous
 62
     7
370
     9
100
AcDbLine
 10
1890.424175755803
 20
522.1165566840141
 30
0.0
 11
1890.424175755803
 21
520.6165888511912
 31
0.0
  0
LINE
  5
1C3
330
1F
100
AcDbEntity
  8
A-1_躯体
  6
Continuous
 62
     7
370
     9
100
AcDbLine
 10
1917.924142763827
 20
522.1165566840141
 30
0.0
 11
1917.924142763827
 21
520.6165888511912
 31
0.0
  0
LINE
  5
1C4
330
1F
100
AcDbEntity
  8
A-E_見え係り
  6
Continuous
 62
     6
370
     9
100
AcDbLine
 10
2027.924109771851
 20
723.0439893178708
 30
0.0
 11
1911.924122968641
 21
607.0440025146609
 31
0.0
  0
LINE
  5
1C5
330
1F
100
AcDbEntity
  8
A-E_見え係り
  6
Continuous
 62
     6
370
     9
100
AcDbLine
 10
2027.924109771851
 20
708.9018536941397
 30
0.0
 11
1911.924122968641
 21
592.9018668909305
 31
0.0
  0
LINE
  5
1C6
330
1F
100
AcDbEntity
  8
A-E_見え係り
  6
Continuous
 62
     6
370
     9
100
AcDbLine
 10
2027.924109771851
 20
694.7597180704087
 30
0.0
 11
1911.924122968641
 21
578.7597312671988
 31
0.0
  0
LINE
  5
1C7
330
1F
100
AcDbEntity
  8
A-E_見え係り
  6
Continuous
 62
     6
370
     9
100
AcDbLine
 10
1843.92409657506
 20
709.6408664560083
 30
0.0
 11
1727.924109771851
 21
593.6408796527991
 31
0.0
  0
LINE
  5
1C8
330
1F
100
AcDbEntity
  8
A-E_見え係り
  6
Continuous
 62
     6
370
     9
100
AcDbLine
 10
1843.92409657506
 20
723.7830020797394
 30
0.0
 11
1727.924109771851
 21
607.78301527653
 31
0.0
  0
LINE
  5
1C9
330
1F
100
AcDbEntity
  8
A-E_見え係り
  6
Continuous
 62
     6
370
     9
100
AcDbLine
 10
1843.92409657506
 20
737.9251377034705
 30
0.0
 11
1727.924109771851
 21
621.9251509002611
 31
0.0
  0
LINE
  5
1CA
330
1F
100
AcDbEntity
  8
A-3_寸法
  6
JWW_DASHED2
 62
     3
370
     9
100
AcDbLine
 10
1847.673997599131
 20
772.1165773039995
 30
0.0
 11
1847.673997599131
 21
522.1165566840141
 31
0.0
  0
LINE
  5
1CB
330
1F
100
AcDbEntity
  8
A-0_通り芯
  6
Continuous
 62
     4
370
     9
100
AcDbLine
 10
1843.92409657506
 20
770.6165723552032
 30
0.0
 11
1843.92409657506
 21
522.1165566840141
 31
0.0
  0
LINE
  5
1CC
330
1F
100
AcDbEntity
  8
A-0_通り芯
  6
JWW_DASHED2
 62
     4
370
     9
100
AcDbLine
 10
1910.424043789469
 20
770.6165723552032
 30
0.0
 11
1910.424043789469
 21
522.1165566840141
 31
0.0
  0
LINE
  5
1CD
330
1F
100
AcDbEntity
  8
A-3_寸法
  6
JWW_DASHED2
 62
     3
370
     9
100
AcDbLine
 10
1908.17422194457
 20
772.1165773039995
 30
0.0
 11
1908.17422194457
 21
522.1165566840141
 31
0.0
  0
LINE
  5
1CE
330
1F
100
AcDbEntity
  8
A-1_躯体
  6
Continuous
 62
     7
370
     9
100
AcDbLine
 10
1917.924142763827
 20
522.1165566840141
 30
0.0
 11
1837.924076779874
 21
522.1165566840141
 31
0.0
  0
LINE
  5
1CF
330
1F
100
AcDbEntity
  8
A-0_通り芯
  6
Continuous
 62
     4
370
     9
100
AcDbLine
 10
1911.924122968641
 20
770.6165723552032
 30
0.0
 11
1911.924122968641
 21
522.1165566840141
 31
0.0
  0
LINE
  5
1D0
330
1F
100
AcDbEntity
  8
A-0_通り芯
  6
JWW_DASHED2
 62
     4
370
     9
100
AcDbLine
 10
1845.424175754231
 20
770.6165723552032
 30
0.0
 11
1845.424175754231
 21
522.1165566840141
 31
0.0
  0
LINE
  5
1D1
330
1F
100
AcDbEntity
  8
A-0_通り芯
  6
Continuous
 62
     4
370
     9
100
AcDbLine
 10
1915.424159259815
 20
770.6165723552032
 30
0.0
 11
1911.924122968641
 21
770.6165723552032
 31
0.0
  0
LINE
  5
1D2
330
1F
100
AcDbEntity
  8
A-0_通り芯
  6
Continuous
 62
     4
370
     9
100
AcDbLine
 10
1840.424060283886
 20
770.6165723552032
 30
0.0
 11
1843.92409657506
 21
770.6165723552032
 31
0.0
  0
ARC
  5
1D3
330
1F
100
AcDbEntity
  8
A-0_通り芯
  6
JWW_DASHED2
 62
     4
370
     9
100
AcDbCircle
 10
1843.924096573489
 20
770.6165723552032
 30
0.0
 40
1.499999874346965
100
AcDbArc
 50
0.0000000000000127
 51
90.00000000000001
  0
LINE
  5
1D4
330
1F
100
AcDbEntity
  8
A-0_通り芯
  6
Continuous
 62
     4
370
     9
100
AcDbLine
 10
1840.424060283886
 20
772.1165773039995
 30
0.0
 11
1840.424060283886
 21
770.6165723552032
 31
0.0
  0
LINE
  5
1D5
330
1F
100
AcDbEntity
  8
A-0_通り芯
  6
Continuous
 62
     4
370
     9
100
AcDbLine
 10
1840.42420874778
 20
772.1165773039995
 30
0.0
 11
1840.42420874778
 21
770.6165723552032
 31
0.0
  0
ARC
  5
1D6
330
1F
100
AcDbEntity
  8
A-0_通り芯
  6
JWW_DASHED2
 62
     4
370
     9
100
AcDbCircle
 10
1911.924122970213
 20
770.6165723552032
 30
0.0
 40
1.499999874346965
100
AcDbArc
 50
90.0
 51
180.0
  0
LINE
  5
1D7
330
1F
100
AcDbEntity
  8
A-0_通り芯
  6
Continuous
 62
     4
370
     9
100
AcDbLine
 10
1915.424159259815
 20
772.1165773039995
 30
0.0
 11
1915.424159259815
 21
770.6165723552032
 31
0.0
  0
LINE
  5
1D8
330
1F
100
AcDbEntity
  8
A-1_躯体
  6
Continuous
 62
     3
370
     9
100
AcDbLine
 10
1847.67409657506
 20
877.0948293054845
 30
0.0
 11
1847.67409657506
 21
772.1165773039995
 31
0.0
  0
LINE
  5
1D9
330
1F
100
AcDbEntity
  8
A-1_躯体
  6
Continuous
 62
     3
370
     9
100
AcDbLine
 10
1908.174122968641
 20
861.5990077681606
 30
0.0
 11
1908.174122968641
 21
772.1165773039995
 31
0.0
  0
LINE
  5
1DA
330
1F
100
AcDbEntity
  8
A-0_通り芯
  6
Continuous
 62
     4
370
     9
100
AcDbLine
 10
1840.424060283886
 20
772.1165773039995
 30
0.0
 11
1915.424159259815
 21
772.1165773039995
 31
0.0
  0
ELLIPSE
  5
1DB
330
1F
100
AcDbEntity
  8
A-0_通り芯
  6
Continuous
 62
     4
370
     9
100
AcDbEllipse
 10
1877.981105836092
 20
817.0946731633716
 30
0.0
 11
-3.345514096583813
 21
31.83044040163792
 31
0.0
210
0.0
220
0.0
230
1.0
 40
0.9945
 41
1.154744950481671
 42
1.776258424061158
  0
ELLIPSE
  5
1DC
330
1F
100
AcDbEntity
  8
A-0_通り芯
  6
Continuous
 62
     4
370
     9
100
AcDbEllipse
 10
1877.981105836092
 20
817.0946731633716
 30
0.0
 11
-3.345514096583813
 21
31.83044040163792
 31
0.0
210
0.0
220
0.0
230
1.0
 40
0.9945
 41
4.284832074319628
 42
4.929356607402788
  0
ELLIPSE
  5
1DD
330
1F
100
AcDbEntity
  8
A-0_通り芯
  6
Continuous
 62
     4
370
     9
100
AcDbEllipse
 10
1877.981105836092
 20
817.0946731633716
 30
0.0
 11
-4.160232838052568
 21
39.58197143565729
 31
0.0
210
0.0
220
0.0
230
1.0
 40
0.9944999999999998
 41
0.7667625057856567
 42
2.16425058662961
  0
ELLIPSE
  5
1DE
330
1F
100
AcDbEntity
  8
A-0_通り芯
  6
Continuous
 62
     4
370
     9
100
AcDbEllipse
 10
1877.981105836092
 20
817.0946731633716
 30
0.0
 11
-4.055704374784915
 21
38.58744954028901
 31
0.0
210
0.0
220
0.0
230
1.0
 40
0.9945
 41
0.7980163469981315
 42
2.132987027544697
  0
ELLIPSE
  5
1DF
330
1F
100
AcDbEntity
  8
A-0_通り芯
  6
Continuous
 62
     4
370
     9
100
AcDbEllipse
 10
1877.981105836092
 20
817.0946731633716
 30
0.0
 11
-4.160232838052568
 21
39.58197143565729
 31
0.0
210
0.0
220
0.0
230
1.0
 40
0.9944999999999998
 41
3.903880426896705
 42
5.31030825482571
  0
ELLIPSE
  5
1E0
330
1F
100
AcDbEntity
  8
A-0_通り芯
  6
Continuous
 62
     4
370
     9
100
AcDbEllipse
 10
1877.981105836092
 20
817.0946731633716
 30
0.0
 11
-4.055704374784915
 21
38.58744954028901
 31
0.0
210
0.0
220
0.0
230
1.0
 40
0.9945
 41
3.934851212666703
 42
5.279337469055712
  0
LINE
  5
1E1
330
1F
100
AcDbEntity
  8
A-2_仕上
  6
Continuous
 62
     3
370
     9
100
AcDbLine
 10
1847.673849135237
 20
1391.866612436311
 30
0.0
 11
1847.673849135237
 21
842.729537505824
 31
0.0
  0
LINE
  5
1E2
330
1F
100
AcDbEntity
  8
A-2_仕上
  6
Continuous
 62
     3
370
     9
100
AcDbLine
 10
1908.173875528819
 20
1391.866612436311
 30
0.0
 11
1908.173875528819
 21
842.796175388343
 31
0.0
  0
LINE
  5
1E3
330
1F
100
AcDbEntity
  8
A-0_通り芯
  6
JWW_CENTER2
 62
     7
370
     9
100
AcDbLine
 10
1826.035236645794
 20
1391.866364996489
 30
0.0
 11
1933.06236264875
 21
1391.866859876134
 31
0.0
  0
ARC
  5
1E4
330
1F
100
AcDbEntity
  8
A-2_仕上
  6
Continuous
 62
     3
370
     9
100
AcDbCircle
 10
1877.923862332028
 20
1391.866612436311
 30
0.0
 40
30.24996486870018
100
AcDbArc
 50
0.0
 51
180.0
  0
ARC
  5
1E5
330
1F
100
AcDbEntity
  8
A-2_仕上
  6
JWW_DASHED2
 62
     3
370
     9
100
AcDbCircle
 10
1877.923862332028
 20
1391.866612436311
 30
0.0
 40
30.24996486870018
100
AcDbArc
 50
180.0004730224609
 51
0.0004730224609375
  0
LINE
  5
1E6
330
1F
100
AcDbEntity
  8
A-0_通り芯
  6
JWW_CENTER2
 62
     7
370
     9
100
AcDbLine
 10
1877.92410977185
 20
1448.38409488458
 30
0.0
 11
1877.92410977185
 21
481.1005258527392
 31
0.0
  0
LINE
  5
1E7
330
1F
100
AcDbEntity
  8
D-0_通り芯
  6
JWW_CENTER2
 62
     7
370
     9
100
AcDbLine
 10
1800.836881240729
 20
-115.5593184339095
 30
0.0
 11
1800.836881240729
 21
-1027.096552476464
 31
0.0
  0
TEXT
  5
1E8
330
1F
100
AcDbEntity
  8
D-5_建具
  6
Continuous
 62
     7
370
     9
100
AcDbText
 10
1403.752045897498
 20
-236.8669672580991
 30
0.0
 40
34.29
  1
蓋
  7
ＭＳ ゴシック
100
AcDbText
  0
ARC
  5
1E9
330
1F
100
AcDbEntity
  8
D-0_通り芯
  6
Continuous
 62
     4
370
     9
100
AcDbCircle
 10
1547.952803695949
 20
-659.9583437770289
 30
0.0
 40
1.0
100
AcDbArc
 50
242.7939768869962
 51
354.0
  0
LINE
  5
1EA
330
1F
100
AcDbEntity
  8
D-0_通り芯
  6
Continuous
 62
     4
370
     9
100
AcDbLine
 10
1613.336633800907
 20
-704.0343484357254
 30
0.0
 11
1613.336633800907
 21
-711.5343731797075
 31
0.0
  0
LINE
  5
1EB
330
1F
100
AcDbEntity
  8
D-0_通り芯
  6
Continuous
 62
     4
370
     9
100
AcDbLine
 10
1988.336386361084
 20
-704.0343484357254
 30
0.0
 11
1988.336386361084
 21
-711.5343731797075
 31
0.0
  0
LINE
  5
1EC
330
1F
100
AcDbEntity
  8
D-0_通り芯
  6
Continuous
 62
     4
370
     9
100
AcDbLine
 10
1970.83694722468
 20
-711.5343731797075
 30
0.0
 11
1988.337128680551
 21
-711.5343731797075
 31
0.0
  0
LINE
  5
1ED
330
1F
100
AcDbEntity
  8
D-0_通り芯
  6
Continuous
 62
     4
370
     9
100
AcDbLine
 10
1988.337128680551
 20
-704.0343484357254
 30
0.0
 11
1988.337128680551
 21
-711.5343731797075
 31
0.0
  0
LINE
  5
1EE
330
1F
100
AcDbEntity
  8
D-0_通り芯
  6
Continuous
 62
     4
370
     9
100
AcDbLine
 10
1613.336633800907
 20
-711.5343731797075
 30
0.0
 11
1630.836815256778
 21
-711.5343731797075
 31
0.0
  0
LINE
  5
1EF
330
1F
100
AcDbEntity
  8
D-1_躯体
  6
Continuous
 62
     3
370
     9
100
AcDbLine
 10
1494.586815256777
 20
-692.5343484357256
 30
0.0
 11
1649.586815256776
 21
-692.5343484357256
 31
0.0
  0
ARC
  5
1F0
330
1F
100
AcDbEntity
  8
D-1_躯体
  6
Continuous
 62
     3
370
     9
100
AcDbCircle
 10
1494.586815256777
 20
-700.0343484357256
 30
0.0
 40
7.499999999999997
100
AcDbArc
 50
90.0
 51
180.0
  0
LINE
  5
1F1
330
1F
100
AcDbEntity
  8
D-1_躯体
  6
Continuous
 62
     3
370
     9
100
AcDbLine
 10
1487.086815256777
 20
-787.5343484357254
 30
0.0
 11
1487.086815256777
 21
-700.0343484357256
 31
0.0
  0
LINE
  5
1F2
330
1F
100
AcDbEntity
  8
D-1_躯体
  6
Continuous
 62
     3
370
     9
100
AcDbLine
 10
1494.586815256777
 20
-795.0343484357254
 30
0.0
 11
1630.836815256778
 21
-795.0343484357254
 31
0.0
  0
ARC
  5
1F3
330
1F
100
AcDbEntity
  8
D-1_躯体
  6
Continuous
 62
     3
370
     9
100
AcDbCircle
 10
1494.586815256777
 20
-787.5343484357254
 30
0.0
 40
7.499999999999997
100
AcDbArc
 50
180.0
 51
270.0
  0
LINE
  5
1F4
330
1F
100
AcDbEntity
  8
D-1_躯体
  6
Continuous
 62
     4
370
     9
100
AcDbLine
 10
1527.188234246459
 20
-627.9174916502234
 30
0.0
 11
1536.752246613616
 21
-652.8066832256684
 31
0.0
  0
CIRCLE
  5
1F5
330
1F
100
AcDbEntity
  8
D-E_見え係り
  6
Continuous
 62
     4
370
     9
100
AcDbCircle
 10
1569.086815256776
 20
-731.5343484357252
 30
0.0
 40
12.5
  0
ARC
  5
1F6
330
1F
100
AcDbEntity
  8
D-0_通り芯
  6
Continuous
 62
     4
370
     9
100
AcDbCircle
 10
1589.218177574599
 20
-324.7451707568473
 30
0.0
 40
4.999999999999999
100
AcDbArc
 50
174.0
 51
256.8749836510982
  0
ARC
  5
1F7
330
1F
100
AcDbEntity
  8
D-0_通り芯
  6
Continuous
 62
     4
370
     9
100
AcDbCircle
 10
1587.575896454189
 20
-282.9697984716823
 30
0.0
 40
1.0
100
AcDbArc
 50
354.0
 51
105.2060231130038
  0
LINE
  5
1F8
330
1F
100
AcDbEntity
  8
D-0_通り芯
  6
Continuous
 62
     4
370
     9
100
AcDbLine
 10
1587.313605831418
 20
-282.0048095446957
 30
0.0
 11
1575.384296844193
 21
-285.2472777181179
 31
0.0
  0
LINE
  5
1F9
330
1F
100
AcDbEntity
  8
D-0_通り芯
  6
Continuous
 62
     4
370
     9
100
AcDbLine
 10
1588.082794869985
 20
-329.614555329261
 30
0.0
 11
1623.042422252631
 21
-337.7660076739403
 31
0.0
  0
LINE
  5
1FA
330
1F
100
AcDbEntity
  8
D-6_間仕切
  6
Continuous
 62
     2
370
     9
100
AcDbLine
 10
1610.810368017869
 20
-607.2145854232826
 30
0.0
 11
1613.109982745854
 21
-585.3352127969259
 31
0.0
  0
LINE
  5
1FB
330
1F
100
AcDbEntity
  8
D-6_間仕切
  6
Continuous
 62
     2
370
     9
100
AcDbLine
 10
1606.414106315499
 20
-610.7746079556063
 30
0.0
 11
1610.810368017869
 21
-607.2145854232826
 31
0.0
  0
LINE
  5
1FC
330
1F
100
AcDbEntity
  8
D-6_間仕切
  6
Continuous
 62
     2
370
     9
100
AcDbLine
 10
1609.549960213528
 20
-580.9389510945579
 30
0.0
 11
1613.109982745854
 21
-585.3352127969259
 31
0.0
  0
LINE
  5
1FD
330
1F
100
AcDbEntity
  8
D-B_衛生陶器
  6
Continuous
 62
     2
370
     9
100
AcDbLine
 10
1603.379850371469
 20
-620.5106049937081
 30
0.0
 11
1600.834526656446
 21
-624.0139429088958
 31
0.0
  0
LINE
  5
1FE
330
1F
100
AcDbEntity
  8
D-B_衛生陶器
  6
Continuous
 62
     2
370
     9
100
AcDbLine
 10
1608.606237647852
 20
-570.7848516672905
 30
0.0
 11
1606.844920272364
 21
-566.8288675337205
 31
0.0
  0
LINE
  5
1FF
330
1F
100
AcDbEntity
  8
D-0_通り芯
  6
Continuous
 62
     4
370
     9
100
AcDbLine
 10
1623.042422252631
 20
-337.7660076739403
 30
0.0
 11
1599.082279929855
 21
-565.7315341078737
 31
0.0
  0
LINE
  5
200
330
1F
100
AcDbEntity
  8
D-0_通り芯
  6
Continuous
 62
     4
370
     9
100
AcDbLine
 10
1599.082279929855
 20
-565.7315341078737
 30
0.0
 11
1599.053021863938
 21
-566.0099060102357
 31
0.0
  0
LINE
  5
201
330
1F
100
AcDbEntity
  8
D-B_衛生陶器
  6
Continuous
 62
     2
370
     9
100
AcDbLine
 10
1600.834526656446
 20
-624.0139429088958
 30
0.0
 11
1593.042628248019
 21
-623.1949813854101
 31
0.0
  0
LINE
  5
202
330
1F
100
AcDbEntity
  8
D-B_衛生陶器
  6
Continuous
 62
     2
370
     9
100
AcDbLine
 10
1606.844920272364
 20
-566.8288675337205
 30
0.0
 11
1599.053021863938
 21
-566.0099060102357
 31
0.0
  0
ARC
  5
203
330
1F
100
AcDbEntity
  8
D-0_通り芯
  6
Continuous
 62
     4
370
     9
100
AcDbCircle
 10
1556.570904067048
 20
-635.3632293443616
 30
0.0
 40
5.0
100
AcDbArc
 50
91.12501634890181
 51
174.0
  0
LINE
  5
204
330
1F
100
AcDbEntity
  8
D-0_通り芯
  6
Continuous
 62
     4
370
     9
100
AcDbLine
 10
1556.472734178309
 20
-630.3641931699627
 30
0.0
 11
1592.363192064795
 21
-629.6593848560021
 31
0.0
  0
LINE
  5
205
330
1F
100
AcDbEntity
  8
D-1_躯体
  6
Continuous
 62
     4
370
     9
100
AcDbLine
 10
1599.053021863938
 20
-566.0099060102357
 30
0.0
 11
1592.363192064795
 21
-629.6593848560021
 31
0.0
  0
LINE
  5
206
330
1F
100
AcDbEntity
  8
D-B_衛生陶器
  6
Continuous
 62
     2
370
     9
100
AcDbLine
 10
1608.606237647852
 20
-570.7848516672905
 30
0.0
 11
1603.379850371469
 21
-620.5106049937081
 31
0.0
  0
LINE
  5
207
330
1F
100
AcDbEntity
  8
D-6_間仕切
  6
Continuous
 62
     2
370
     9
100
AcDbLine
 10
1606.414106315499
 20
-610.7746079556063
 30
0.0
 11
1604.425117060646
 21
-610.5655567610239
 31
0.0
  0
LINE
  5
208
330
1F
100
AcDbEntity
  8
D-6_間仕切
  6
Continuous
 62
     2
370
     9
100
AcDbLine
 10
1610.810362285917
 20
-607.2146399591563
 30
0.0
 11
1604.843230913717
 21
-606.5874691795517
 31
0.0
  0
LINE
  5
209
330
1F
100
AcDbEntity
  8
D-6_間仕切
  6
Continuous
 62
     2
370
     9
100
AcDbLine
 10
1613.109988477806
 20
-585.3351582610514
 30
0.0
 11
1607.142857105606
 21
-584.7079874814469
 31
0.0
  0
LINE
  5
20A
330
1F
100
AcDbEntity
  8
D-6_間仕切
  6
Continuous
 62
     2
370
     9
100
AcDbLine
 10
1609.549960213528
 20
-580.9389510945579
 30
0.0
 11
1607.560970958676
 21
-580.7298998999747
 31
0.0
  0
LINE
  5
20B
330
1F
100
AcDbEntity
  8
D-9_記号
  6
Continuous
 62
     7
370
     9
100
AcDbLine
 10
1545.53443591785
 20
-692.5343484357256
 30
0.0
 11
1548.947325591319
 21
-660.0628722402968
 31
0.0
  0
LINE
  5
20C
330
1F
100
AcDbEntity
  8
D-9_記号
  6
Continuous
 62
     7
370
     9
100
AcDbLine
 10
1529.446303444832
 20
-692.5343484357256
 30
0.0
 11
1534.294181937515
 21
-646.4098656265626
 31
0.0
  0
LINE
  5
20D
330
1F
100
AcDbEntity
  8
D-6_間仕切
  6
Continuous
 62
     2
370
     9
100
AcDbLine
 10
1521.402237208311
 20
-692.5343484357256
 30
0.0
 11
1527.977783989909
 21
-629.9721998698141
 31
0.0
  0
LINE
  5
20E
330
1F
100
AcDbEntity
  8
D-1_躯体
  6
Continuous
 62
     4
370
     9
100
AcDbLine
 10
1536.752246613616
 20
-652.8066832256684
 30
0.0
 11
1547.495612273164
 21
-660.8477120938301
 31
0.0
  0
LINE
  5
20F
330
1F
100
AcDbEntity
  8
D-0_通り芯
  6
Continuous
 62
     4
370
     9
100
AcDbLine
 10
1548.947325591319
 20
-660.0628722402968
 30
0.0
 11
1588.570418349557
 21
-283.0743269349493
 31
0.0
  0
LINE
  5
210
330
1F
100
AcDbEntity
  8
D-0_通り芯
  6
Continuous
 62
     4
370
     9
100
AcDbLine
 10
1630.836815256778
 20
-711.5343731797075
 30
0.0
 11
1630.836815256778
 21
-929.386540491961
 31
0.0
  0
LINE
  5
211
330
1F
100
AcDbEntity
  8
D-0_通り芯
  6
Continuous
 62
     4
370
     9
100
AcDbLine
 10
1970.836947224682
 20
-711.5343731797075
 30
0.0
 11
1970.836947224682
 21
-929.386540491961
 31
0.0
  0
LINE
  5
212
330
1F
100
AcDbEntity
  8
D-1_躯体
  6
Continuous
 62
     3
370
     9
100
AcDbLine
 10
1649.586815256776
 20
-704.0343484357254
 30
0.0
 11
1649.586815256776
 21
-212.650408859442
 31
0.0
  0
LINE
  5
213
330
1F
100
AcDbEntity
  8
D-1_躯体
  6
Continuous
 62
     3
370
     9
100
AcDbLine
 10
1952.086947224682
 20
-704.0343484357254
 30
0.0
 11
1952.086947224682
 21
-212.650408859442
 31
0.0
  0
ARC
  5
214
330
1F
100
AcDbEntity
  8
D-0_通り芯
  6
Continuous
 62
     4
370
     9
100
AcDbCircle
 10
1715.836848248752
 20
-843.6721746542895
 30
0.0
 40
120.7143658376711
100
AcDbArc
 50
225.2397455553737
 51
314.7602544446263
  0
ARC
  5
215
330
1F
100
AcDbEntity
  8
D-0_通り芯
  6
Continuous
 62
     4
370
     9
100
AcDbCircle
 10
1885.836914232704
 20
-843.6721746542895
 30
0.0
 40
120.7143658376711
100
AcDbArc
 50
225.2397455553737
 51
314.7602544446263
  0
ARC
  5
216
330
1F
100
AcDbEntity
  8
D-0_通り芯
  6
Continuous
 62
     4
370
     9
100
AcDbCircle
 10
1715.836848248752
 20
-1015.100906329632
 30
0.0
 40
120.7143658376711
100
AcDbArc
 50
45.23974555537367
 51
134.7602544446263
  0
ARC
  5
217
330
1F
100
AcDbEntity
  8
D-1_躯体
  6
Continuous
 62
     3
370
     9
100
AcDbCircle
 10
1876.461914232706
 20
-276.8524890742644
 30
0.0
 40
99.20208021482202
100
AcDbArc
 50
40.32968394453118
 51
139.6703160554688
  0
ARC
  5
218
330
1F
100
AcDbEntity
  8
D-1_躯体
  6
Continuous
 62
     3
370
     9
100
AcDbCircle
 10
1725.211848248752
 20
-276.8524890742644
 30
0.0
 40
99.20208021482202
100
AcDbArc
 50
40.32968394453118
 51
139.6703160554688
  0
ARC
  5
219
330
1F
100
AcDbEntity
  8
D-1_躯体
  6
Continuous
 62
     3
370
     9
100
AcDbCircle
 10
1876.461914232706
 20
-148.4483286446196
 30
0.0
 40
99.20208021482202
100
AcDbArc
 50
220.3296839445312
 51
319.6703160554688
  0
LINE
  5
21A
330
1F
100
AcDbEntity
  8
D-6_間仕切
  6
Continuous
 62
     6
370
     9
100
AcDbLine
 10
1487.086815256777
 20
-704.034381427706
 30
0.0
 11
1220.950302395666
 21
-704.034381427706
 31
0.0
  0
LINE
  5
21B
330
1F
100
AcDbEntity
  8
D-0_通り芯
  6
Continuous
 62
     4
370
     9
100
AcDbLine
 10
1575.384296844193
 20
-285.2472777181179
 30
0.0
 11
1552.327540227386
 21
-316.982180670193
 31
0.0
  0
LINE
  5
21C
330
1F
100
AcDbEntity
  8
D-0_通り芯
  6
Continuous
 62
     4
370
     9
100
AcDbLine
 10
1521.26661117059
 20
-612.5071800032933
 30
0.0
 11
1527.188234246459
 21
-627.9174916502234
 31
0.0
  0
LINE
  5
21D
330
1F
100
AcDbEntity
  8
D-0_通り芯
  6
Continuous
 62
     4
370
     9
100
AcDbLine
 10
1521.26661117059
 20
-612.5071800032933
 30
0.0
 11
1552.327540227386
 21
-316.982180670193
 31
0.0
  0
LINE
  5
21E
330
1F
100
AcDbEntity
  8
D-5_建具
  6
Continuous
 62
     7
370
     9
100
AcDbLine
 10
1491.955513073841
 20
-253.2119672580994
 30
0.0
 11
1403.752045897498
 21
-253.2119672580994
 31
0.0
  0
LINE
  5
21F
330
1F
100
AcDbEntity
  8
D-5_建具
  6
Continuous
 62
     7
370
     9
100
AcDbLine
 10
1548.699972714346
 20
-351.4962544034938
 30
0.0
 11
1491.955513073841
 21
-253.2119672580994
 31
0.0
  0
LINE
  5
220
330
1F
100
AcDbEntity
  8
D-5_建具
  6
Continuous
 62
     7
370
     9
100
AcDbLine
 10
1548.699972714346
 20
-351.4962544034938
 30
0.0
 11
1534.349344000653
 21
-316.8507719343211
 31
0.0
  0
LINE
  5
221
330
1F
100
AcDbEntity
  8
D-5_建具
  6
Continuous
 62
     7
370
     9
100
AcDbLine
 10
1548.699972714346
 20
-351.4962544034938
 30
0.0
 11
1525.871419126518
 21
-321.7455041425723
 31
0.0
  0
TEXT
  5
222
330
1F
100
AcDbEntity
  8
D-4_文字
  6
Continuous
 62
     2
370
   211
100
AcDbText
 10
2140.691205896169
 20
-809.9897418687323
 30
0.0
 40
45.71999999999984
  1
6.5
 50
90.0
 41
1.083333333333337
  7
ＭＳ ゴシック
100
AcDbText
  0
LWPOLYLINE
  5
223
330
1F
100
AcDbEntity
  8
D-4_文字
  6
Continuous
 62
     7
370
     9
100
AcDbPolyline
 90
        4
 70
     1
 43
3.0
 10
2159.522951765382
 20
-674.0343814276923
 42
0.4142135623731
 10
2158.022951765382
 20
-672.5343814276923
 42
0.4142135623731
 10
2156.522951765383
 20
-674.0343814276923
 42
0.4142135623731
 10
2158.022951765382
 20
-675.5343814276923
 42
0.4142135623731
  0
LWPOLYLINE
  5
224
330
1F
100
AcDbEntity
  8
D-4_文字
  6
Continuous
 62
     7
370
     9
100
AcDbPolyline
 90
        4
 70
     1
 43
3.0
 10
2159.522951765382
 20
-704.0343814277051
 42
0.4142135623731
 10
2158.022951765382
 20
-702.5343814277051
 42
0.4142135623731
 10
2156.522951765383
 20
-704.0343814277051
 42
0.4142135623731
 10
2158.022951765382
 20
-705.5343814277052
 42
0.4142135623731
  0
LINE
  5
225
330
1F
100
AcDbEntity
  8
D-4_文字
  6
Continuous
 62
     7
370
     9
100
AcDbLine
 10
2162.522951765384
 20
-674.0343814276923
 30
0.0
 11
2013.9463286266
 21
-674.0343814276923
 31
0.0
  0
LINE
  5
226
330
1F
100
AcDbEntity
  8
D-4_文字
  6
Continuous
 62
     7
370
     9
100
AcDbLine
 10
2162.522951765384
 20
-704.0343814277051
 30
0.0
 11
2047.12671692683
 21
-704.0343814277051
 31
0.0
  0
LINE
  5
227
330
1F
100
AcDbEntity
  8
D-4_文字
  6
Continuous
 62
     7
370
     9
100
AcDbLine
 10
2158.022951765382
 20
-674.0343814276923
 30
0.0
 11
2158.022951765382
 21
-816.8833588900087
 31
0.0
  0
LINE
  5
228
330
1F
100
AcDbEntity
  8
D-6_間仕切
  6
Continuous
 62
     6
370
     9
100
AcDbLine
 10
1987.209902238664
 20
-704.0343484357254
 30
0.0
 11
2400.863971853616
 21
-704.0343484357254
 31
0.0
  0
ARC
  5
229
330
1F
100
AcDbEntity
  8
D-0_通り芯
  6
Continuous
 62
     4
370
     9
100
AcDbCircle
 10
1611.308390930223
 20
-703.0343814277052
 30
0.0
 40
1.0
100
AcDbArc
 50
158.7939768869962
 51
270.0
  0
LINE
  5
22A
330
1F
100
AcDbEntity
  8
D-0_通り芯
  6
JWW_PHANTOM1
 62
     4
370
     9
100
AcDbLine
 10
1641.00323138162
 20
-679.0343814276912
 30
0.0
 11
1617.250096917235
 21
-691.1476300817562
 31
0.0
  0
LINE
  5
22B
330
1F
100
AcDbEntity
  8
D-0_通り芯
  6
JWW_PHANTOM1
 62
     4
370
     9
100
AcDbLine
 10
1617.250096917235
 20
-691.1476300817562
 30
0.0
 11
1610.376105149275
 21
-702.6726588508038
 31
0.0
  0
LINE
  5
22C
330
1F
100
AcDbEntity
  8
D-0_通り芯
  6
JWW_PHANTOM1
 62
     4
370
     9
100
AcDbLine
 10
1611.308390930223
 20
-704.0343814277051
 30
0.0
 11
1990.373494535358
 21
-704.0343814277051
 31
0.0
  0
ARC
  5
22D
330
1F
100
AcDbEntity
  8
D-0_通り芯
  6
JWW_PHANTOM1
 62
     4
370
     9
100
AcDbCircle
 10
1990.373494535358
 20
-703.0343814277052
 30
0.0
 40
1.0
100
AcDbArc
 50
270.0
 51
21.20602311300377
  0
LINE
  5
22E
330
1F
100
AcDbEntity
  8
D-0_通り芯
  6
JWW_PHANTOM1
 62
     4
370
     9
100
AcDbLine
 10
1991.305780316306
 20
-702.6726588508029
 30
0.0
 11
1986.834122386523
 21
-691.1476300817554
 31
0.0
  0
LINE
  5
22F
330
1F
100
AcDbEntity
  8
D-0_通り芯
  6
JWW_PHANTOM1
 62
     4
370
     9
100
AcDbLine
 10
1986.834122386523
 20
-691.1476300817554
 30
0.0
 11
1957.193106235128
 21
-674.0343814276923
 31
0.0
  0
LINE
  5
230
330
1F
100
AcDbEntity
  8
D-0_通り芯
  6
JWW_PHANTOM1
 62
     4
370
     9
100
AcDbLine
 10
1650.807840839717
 20
-674.0343814276923
 30
0.0
 11
1641.00323138162
 21
-679.0343814276912
 31
0.0
  0
LINE
  5
231
330
1F
100
AcDbEntity
  8
D-0_通り芯
  6
JWW_PHANTOM1
 62
     4
370
     9
100
AcDbLine
 10
1650.807840839717
 20
-674.0343814276923
 30
0.0
 11
1957.193106235128
 21
-674.0343814276923
 31
0.0
  0
ARC
  5
232
330
1F
100
AcDbEntity
  8
D-0_通り芯
  6
JWW_PHANTOM1
 62
     4
370
     9
100
AcDbCircle
 10
1568.352045636471
 20
-704.0343814283412
 30
0.0
 40
422.0295718830112
100
AcDbArc
 50
0.0000044791591712
 51
87.2397372696237
  0
LINE
  5
233
330
1F
100
AcDbEntity
  8
D-0_通り芯
  6
Continuous
 62
     4
370
     9
100
AcDbLine
 10
1613.336633800907
 20
-704.0343814277051
 30
0.0
 11
1987.209902238664
 21
-704.0343814277051
 31
0.0
  0
LINE
  5
234
330
1F
100
AcDbEntity
  8
D-6_間仕切
  6
JWW_PHANTOM1
 62
     2
370
     9
100
AcDbLine
 10
1517.790650636526
 20
-680.0343814276912
 30
0.0
 11
1639.042309489999
 21
-680.0343814276912
 31
0.0
  0
LINE
  5
235
330
1F
100
AcDbEntity
  8
D-6_間仕切
  6
JWW_PHANTOM1
 62
     2
370
     9
100
AcDbLine
 10
1517.790650636526
 20
-680.0343814276912
 30
0.0
 11
1517.790650636526
 21
-692.5343484357256
 31
0.0
  0
LINE
  5
236
330
1F
100
AcDbEntity
  8
D-9_記号
  6
JWW_PHANTOM1
 62
     7
370
     9
100
AcDbLine
 10
1517.790650636526
 20
-688.0343814277044
 30
0.0
 11
1623.354934357018
 21
-688.0343814277044
 31
0.0
  0
TEXT
  5
237
330
1F
100
AcDbEntity
  8
F-5ﾚｲﾔ
  6
Continuous
 62
     2
370
     9
100
AcDbText
 10
1779.423763934562
 20
-1606.395847422029
 30
0.0
 40
45.72
  1
本体色は、黄または白です。
 41
1.115384615384615
  7
ＭＳ ゴシック
100
AcDbText
  0
TEXT
  5
238
330
1F
100
AcDbEntity
  8
F-5ﾚｲﾔ
  6
Continuous
 62
     2
370
     9
100
AcDbText
 10
1779.423763934562
 20
-1695.602314589921
 30
0.0
 40
45.72
  1
ご注文の際にご指示ください。
 41
1.116071428571429
  7
ＭＳ ゴシック
100
AcDbText
  0
TEXT
  5
239
330
1F
100
AcDbEntity
  8
F-5ﾚｲﾔ
  6
Continuous
 62
     2
370
     9
100
AcDbText
 10
2049.423763934562
 20
-1471.392202950213
 30
0.0
 40
45.72
  1
支柱質量：18.5kg／本
 41
1.1125
  7
ＭＳ ゴシック
100
AcDbText
  0
TEXT
  5
23A
330
1F
100
AcDbEntity
  8
F-Fﾚｲﾔ
  6
Continuous
 62
     2
370
     9
100
AcDbText
 10
-1420.284818720889
 20
-2071.444825950976
 30
0.0
 40
40.005
  1
車止め　スチール製　アーチ型　脱着式　鋳鉄製蓋　鍵付　ＹＢ６Ｌ３０－ＨＤＬ
 41
1.027799227799228
  7
ＭＳ ゴシック
100
AcDbText
  0
LINE
  5
23B
330
1F
100
AcDbEntity
  8
D-5_建具
  6
Continuous
 62
     7
370
     9
100
AcDbLine
 10
1338.83688383519
 20
-1102.626487738756
 30
0.0
 11
2262.836883835189
 21
-1102.626487738756
 31
0.0
  0
LINE
  5
23C
330
1F
100
AcDbEntity
  8
D-5_建具
  6
Continuous
 62
     7
370
     9
100
AcDbLine
 10
1338.83688383519
 20
-1207.626487738756
 30
0.0
 11
2262.836883835189
 21
-1207.626487738756
 31
0.0
  0
LINE
  5
23D
330
1F
100
AcDbEntity
  8
D-5_建具
  6
Continuous
 62
     7
370
     9
100
AcDbLine
 10
1338.83688383519
 20
-1102.626487738756
 30
0.0
 11
1338.83688383519
 21
-1207.626487738756
 31
0.0
  0
LINE
  5
23E
330
1F
100
AcDbEntity
  8
D-5_建具
  6
Continuous
 62
     7
370
     9
100
AcDbLine
 10
2262.836883835189
 20
-1102.626487738756
 30
0.0
 11
2262.836883835189
 21
-1207.626487738756
 31
0.0
  0
TEXT
  5
23F
330
1F
100
AcDbEntity
  8
D-5_建具
  6
Continuous
 62
     2
370
     9
100
AcDbText
 10
1365.83688383519
 20
-1176.666487738756
 30
0.0
 40
45.72
  1
南京錠部詳細図　Ｓ＝１：３
 41
1.115384615384615
  7
ＭＳ ゴシック
100
AcDbText
  0
LINE
  5
240
330
1F
100
AcDbEntity
  8
A-A_インテリア
  6
Continuous
 62
     2
370
     9
100
AcDbLine
 10
858.0117551619733
 20
820.8666713311321
 30
0.0
 11
858.0117551619733
 21
803.1165509104187
 31
0.0
  0
LINE
  5
241
330
1F
100
AcDbEntity
  8
A-A_インテリア
  6
Continuous
 62
     2
370
     9
100
AcDbLine
 10
853.5116660836379
 20
820.8666713311321
 30
0.0
 11
853.5116660836379
 21
803.1165509104187
 31
0.0
  0
LINE
  5
242
330
1F
100
AcDbEntity
  8
A-A_インテリア
  6
Continuous
 62
     2
370
     9
100
AcDbLine
 10
850.7618178467296
 20
803.1165509104187
 30
0.0
 11
860.7617518627765
 21
803.1165509104187
 31
0.0
  0
LINE
  5
243
330
1F
100
AcDbEntity
  8
A-A_インテリア
  6
Continuous
 62
     2
370
     9
100
AcDbLine
 10
850.7618178467296
 20
803.1165509104187
 30
0.0
 11
850.7618178467296
 21
779.61664658715
 31
0.0
  0
ARC
  5
244
330
1F
100
AcDbEntity
  8
A-A_インテリア
  6
Continuous
 62
     2
370
     9
100
AcDbCircle
 10
855.7617848547524
 20
820.8666713311321
 30
0.0
 40
2.250000318965396
100
AcDbArc
 50
0.0000000000000064
 51
180.0
  0
LINE
  5
245
330
1F
100
AcDbEntity
  8
A-6_間仕切
  6
JWW_CENTER1
 62
     7
370
     9
100
AcDbLine
 10
855.7617848547524
 20
826.6328604939281
 30
0.0
 11
855.7617848547524
 21
817.5705501977922
 31
0.0
  0
LINE
  5
246
330
1F
100
AcDbEntity
  8
A-6_間仕切
  6
Continuous
 62
     7
370
     9
100
AcDbLine
 10
863.7616132964754
 20
827.1166300911618
 30
0.0
 11
863.7616132964754
 21
817.1166218431676
 31
0.0
  0
ARC
  5
247
330
1F
100
AcDbEntity
  8
A-6_間仕切
  6
Continuous
 62
     7
370
     9
100
AcDbCircle
 10
862.7617089732066
 20
827.1166300911618
 30
0.0
 40
1.000000012887491
100
AcDbArc
 50
0.0000000000000127
 51
90.00000000000001
  0
ARC
  5
248
330
1F
100
AcDbEntity
  8
A-6_間仕切
  6
Continuous
 62
     7
370
     9
100
AcDbCircle
 10
862.7617089732066
 20
817.1166218431676
 30
0.0
 40
1.000000012887491
100
AcDbArc
 50
270.0
 51
0.0
  0
ARC
  5
249
330
1F
100
AcDbEntity
  8
A-6_間仕切
  6
Continuous
 62
     7
370
     9
100
AcDbCircle
 10
855.7617848547524
 20
822.1165888511915
 30
0.0
 40
3.500000045106217
100
AcDbArc
 50
310.0047302246094
 51
229.9922332763672
  0
LINE
  5
24A
330
1F
100
AcDbEntity
  8
A-6_間仕切
  6
Continuous
 62
     7
370
     9
100
AcDbLine
 10
845.7617023748118
 20
828.1166086463775
 30
0.0
 11
845.7617023748118
 21
816.1166432879525
 31
0.0
  0
LINE
  5
24B
330
1F
100
AcDbEntity
  8
A-0_通り芯
  6
JWW_CENTER2
 62
     7
370
     9
100
AcDbLine
 10
746.947104085116
 20
822.1165888511915
 30
0.0
 11
865.5517909252765
 21
822.1165888511915
 31
0.0
  0
ARC
  5
24C
330
1F
100
AcDbEntity
  8
A-6_間仕切
  6
Continuous
 62
     7
370
     9
100
AcDbCircle
 10
752.7616924772192
 20
813.1166333903599
 30
0.0
 40
1.000000012887491
100
AcDbArc
 50
180.0
 51
270.0
  0
LINE
  5
24D
330
1F
100
AcDbEntity
  8
A-6_間仕切
  6
Continuous
 62
     7
370
     9
100
AcDbLine
 10
751.7616396900567
 20
813.1166333903599
 30
0.0
 11
751.7616396900567
 21
831.1166185439703
 31
0.0
  0
ARC
  5
24E
330
1F
100
AcDbEntity
  8
A-6_間仕切
  6
Continuous
 62
     7
370
     9
100
AcDbCircle
 10
752.7616924772192
 20
831.1166185439703
 30
0.0
 40
1.000000012887491
100
AcDbArc
 50
90.0
 51
180.0
  0
LINE
  5
24F
330
1F
100
AcDbEntity
  8
A-6_間仕切
  6
Continuous
 62
     7
370
     9
100
AcDbLine
 10
862.7617089732066
 20
828.1166086463775
 30
0.0
 11
838.5800542797234
 21
828.1166086463775
 31
0.0
  0
LINE
  5
250
330
1F
100
AcDbEntity
  8
A-6_間仕切
  6
Continuous
 62
     7
370
     9
100
AcDbLine
 10
862.7617089732066
 20
816.1166432879525
 30
0.0
 11
838.5800542797234
 21
816.1166432879525
 31
0.0
  0
LINE
  5
251
330
1F
100
AcDbEntity
  8
A-6_間仕切
  6
JWW_DASHED1
 62
     7
370
     9
100
AcDbLine
 10
838.5800542797234
 20
828.1166086463775
 30
0.0
 11
778.0800278861434
 21
828.1166086463775
 31
0.0
  0
LINE
  5
252
330
1F
100
AcDbEntity
  8
A-6_間仕切
  6
JWW_DASHED1
 62
     7
370
     9
100
AcDbLine
 10
838.5800542797234
 20
816.1166432879525
 30
0.0
 11
778.0800278861434
 21
816.1166432879525
 31
0.0
  0
LINE
  5
253
330
1F
100
AcDbEntity
  8
A-A_インテリア
  6
Continuous
 62
     2
370
     9
100
AcDbLine
 10
853.0119366178442
 20
803.1165509104187
 30
0.0
 11
853.0119366178442
 21
779.61664658715
 31
0.0
  0
LINE
  5
254
330
1F
100
AcDbEntity
  8
A-A_インテリア
  6
Continuous
 62
     2
370
     9
100
AcDbLine
 10
858.5117815555545
 20
803.1165509104187
 30
0.0
 11
858.5117815555545
 21
779.61664658715
 31
0.0
  0
LINE
  5
255
330
1F
100
AcDbEntity
  8
A-A_インテリア
  6
Continuous
 62
     2
370
     9
100
AcDbLine
 10
860.7617518627765
 20
803.1165509104187
 30
0.0
 11
860.7617518627765
 21
779.61664658715
 31
0.0
  0
LINE
  5
256
330
1F
100
AcDbEntity
  8
A-A_インテリア
  6
Continuous
 62
     2
370
     9
100
AcDbLine
 10
850.7618178467296
 20
779.61664658715
 30
0.0
 11
860.7617518627765
 21
779.61664658715
 31
0.0
  0
ARC
  5
257
330
1F
100
AcDbEntity
  8
A-5_建具
  6
Continuous
 62
     7
370
     9
100
AcDbCircle
 10
1877.92410977185
 20
822.1166259671647
 30
0.0
 40
6.000019795185811
100
AcDbArc
 50
349.8367004394531
 51
190.1632995605469
  0
LINE
  5
258
330
1F
100
AcDbEntity
  8
A-5_建具
  6
Continuous
 62
     7
370
     9
100
AcDbLine
 10
1875.424126267838
 20
817.3468893421119
 30
0.0
 11
1875.424126267838
 21
826.8863625922176
 31
0.0
  0
ARC
  5
259
330
1F
100
AcDbEntity
  8
A-5_建具
  6
Continuous
 62
     7
370
     9
100
AcDbCircle
 10
1877.92410977185
 20
822.1166259671647
 30
0.0
 40
6.000019795185811
100
AcDbArc
 50
234.7026977539062
 51
305.2973022460938
  0
ARC
  5
25A
330
1F
100
AcDbEntity
  8
A-5_建具
  6
Continuous
 62
     7
370
     9
100
AcDbCircle
 10
1876.424179055001
 20
817.3468893421119
 30
0.0
 40
1.000000012887491
100
AcDbArc
 50
180.0
 51
252.5401763916015
  0
ARC
  5
25B
330
1F
100
AcDbEntity
  8
A-5_建具
  6
Continuous
 62
     7
370
     9
100
AcDbCircle
 10
1879.4240404887
 20
817.3468893421119
 30
0.0
 40
1.000000012887491
100
AcDbArc
 50
287.4598236083985
 51
0.0000000000000127
  0
LINE
  5
25C
330
1F
100
AcDbEntity
  8
A-5_建具
  6
Continuous
 62
     7
370
     9
100
AcDbLine
 10
1880.424093275862
 20
817.3468893421119
 30
0.0
 11
1880.424093275862
 21
826.8863625922176
 31
0.0
  0
ARC
  5
25D
330
1F
100
AcDbEntity
  8
A-5_建具
  6
Continuous
 62
     7
370
     9
100
AcDbCircle
 10
1879.4240404887
 20
826.8863625922176
 30
0.0
 40
1.000000012887491
100
AcDbArc
 50
0.0
 51
72.54017639160156
  0
ARC
  5
25E
330
1F
100
AcDbEntity
  8
A-5_建具
  6
Continuous
 62
     7
370
     9
100
AcDbCircle
 10
1876.424179055001
 20
826.8863625922176
 30
0.0
 40
1.000000012887491
100
AcDbArc
 50
107.4598236083985
 51
180.0
  0
ARC
  5
25F
330
1F
100
AcDbEntity
  8
A-6_間仕切
  6
Continuous
 62
     2
370
     9
100
AcDbCircle
 10
1877.92410977185
 20
813.6166597839405
 30
0.0
 40
9.500056666296882
100
AcDbArc
 50
105.2573547363281
 51
180.0
  0
ARC
  5
260
330
1F
100
AcDbEntity
  8
A-6_間仕切
  6
Continuous
 62
     2
370
     9
100
AcDbCircle
 10
1877.92410977185
 20
813.6166597839405
 30
0.0
 40
5.00011547191723
100
AcDbArc
 50
119.9991455078125
 51
180.0
  0
LINE
  5
261
330
1F
100
AcDbEntity
  8
A-6_間仕切
  6
Continuous
 62
     2
370
     9
100
AcDbLine
 10
1872.923994299933
 20
813.6166597839405
 30
0.0
 11
1872.923994299933
 21
803.1165509104186
 31
0.0
  0
LINE
  5
262
330
1F
100
AcDbEntity
  8
A-6_間仕切
  6
Continuous
 62
     2
370
     9
100
AcDbLine
 10
1868.424053685491
 20
813.6166597839405
 30
0.0
 11
1868.424053685491
 21
803.1165509104186
 31
0.0
  0
ARC
  5
263
330
1F
100
AcDbEntity
  8
A-6_間仕切
  6
Continuous
 62
     2
370
     9
100
AcDbCircle
 10
1877.92410977185
 20
813.6166597839405
 30
0.0
 40
5.00011547191723
100
AcDbArc
 50
0.0
 51
60.00085449218751
  0
LINE
  5
264
330
1F
100
AcDbEntity
  8
A-6_間仕切
  6
Continuous
 62
     2
370
     9
100
AcDbLine
 10
1882.924225243768
 20
813.6166597839405
 30
0.0
 11
1882.924225243768
 21
803.1165509104186
 31
0.0
  0
ARC
  5
265
330
1F
100
AcDbEntity
  8
A-6_間仕切
  6
Continuous
 62
     2
370
     9
100
AcDbCircle
 10
1877.92410977185
 20
813.6166597839405
 30
0.0
 40
9.500056666296882
100
AcDbArc
 50
0.0
 51
74.74270629882814
  0
LINE
  5
266
330
1F
100
AcDbEntity
  8
A-6_間仕切
  6
Continuous
 62
     2
370
     9
100
AcDbLine
 10
1889.924149362223
 20
803.1165509104186
 30
0.0
 11
1889.924149362223
 21
779.61664658715
 31
0.0
  0
LINE
  5
267
330
1F
100
AcDbEntity
  8
A-6_間仕切
  6
Continuous
 62
     2
370
     9
100
AcDbLine
 10
1887.42416585821
 20
813.6166597839405
 30
0.0
 11
1887.42416585821
 21
803.1165509104186
 31
0.0
  0
LINE
  5
268
330
1F
100
AcDbEntity
  8
A-6_間仕切
  6
Continuous
 62
     2
370
     9
100
AcDbLine
 10
1865.924070181479
 20
803.1165509104186
 30
0.0
 11
1889.924149362223
 21
803.1165509104186
 31
0.0
  0
LINE
  5
269
330
1F
100
AcDbEntity
  8
A-6_間仕切
  6
Continuous
 62
     2
370
     9
100
AcDbLine
 10
1865.924070181479
 20
803.1165509104186
 30
0.0
 11
1865.924070181479
 21
779.61664658715
 31
0.0
  0
LINE
  5
26A
330
1F
100
AcDbEntity
  8
A-6_間仕切
  6
Continuous
 62
     2
370
     9
100
AcDbLine
 10
1865.924070181479
 20
779.61664658715
 30
0.0
 11
1889.924149362223
 21
779.61664658715
 31
0.0
  0
ARC
  5
26B
330
1F
100
AcDbEntity
  8
A-0_通り芯
  6
Continuous
 62
     4
370
     9
100
AcDbCircle
 10
1877.924258235744
 20
822.9570800687272
 30
0.0
 40
6.999924118454395
100
AcDbArc
 50
359.9993896484376
 51
180.0006103515626
  0
LINE
  5
26C
330
1F
100
AcDbEntity
  8
A-0_通り芯
  6
Continuous
 62
     4
370
     9
100
AcDbLine
 10
1884.924182354199
 20
822.9570058367804
 30
0.0
 11
1884.924182354199
 21
821.0446424235624
 31
0.0
  0
ARC
  5
26D
330
1F
100
AcDbEntity
  8
A-0_通り芯
  6
Continuous
 62
     4
370
     9
100
AcDbCircle
 10
1877.924258235744
 20
821.0445681916157
 30
0.0
 40
6.999924118454395
100
AcDbArc
 50
229.5813903808594
 51
310.4159698486328
  0
ARC
  5
26E
330
1F
100
AcDbEntity
  8
A-0_通り芯
  6
Continuous
 62
     4
370
     9
100
AcDbCircle
 10
1877.924258235744
 20
821.0445681916157
 30
0.0
 40
6.999924118454395
100
AcDbArc
 50
352.3052215576173
 51
0.0006103515625301
  0
LINE
  5
26F
330
1F
100
AcDbEntity
  8
A-0_通り芯
  6
Continuous
 62
     4
370
     9
100
AcDbLine
 10
1870.92433411729
 20
822.9570058367804
 30
0.0
 11
1870.92433411729
 21
821.0446424235624
 31
0.0
  0
ARC
  5
270
330
1F
100
AcDbEntity
  8
A-0_通り芯
  6
Continuous
 62
     4
370
     9
100
AcDbCircle
 10
1877.924258235744
 20
821.0445681916157
 30
0.0
 40
6.999924118454395
100
AcDbArc
 50
179.9993896484375
 51
187.6925048828125
  0
TEXT
  5
271
330
1F
100
AcDbEntity
  8
D-5_建具
  6
Continuous
 62
     7
370
     9
100
AcDbText
 10
2137.237697662437
 20
-456.7971002746131
 30
0.0
 40
34.29
  1
南京錠：CAC202
 41
1.154761904761905
  7
ＭＳ ゴシック
100
AcDbText
  0
LINE
  5
272
330
1F
100
AcDbEntity
  8
D-A_インテリア
  6
Continuous
 62
     2
370
     9
100
AcDbLine
 10
2049.245451635933
 20
-460.2839690280013
 30
0.0
 11
2049.245451635933
 21
-549.0345711315691
 31
0.0
  0
LINE
  5
273
330
1F
100
AcDbEntity
  8
D-A_インテリア
  6
Continuous
 62
     2
370
     9
100
AcDbLine
 10
2024.246358915283
 20
-549.0345711315691
 30
0.0
 11
2024.246358915283
 21
-666.534092747912
 31
0.0
  0
LINE
  5
274
330
1F
100
AcDbEntity
  8
D-A_インテリア
  6
Continuous
 62
     2
370
     9
100
AcDbLine
 10
2012.995765059708
 20
-549.0345711315691
 30
0.0
 11
2062.995435139945
 21
-549.0345711315691
 31
0.0
  0
LINE
  5
275
330
1F
100
AcDbEntity
  8
D-A_インテリア
  6
Continuous
 62
     2
370
     9
100
AcDbLine
 10
2051.745583603837
 20
-549.0345711315691
 30
0.0
 11
2051.745583603837
 21
-666.534092747912
 31
0.0
  0
LINE
  5
276
330
1F
100
AcDbEntity
  8
D-A_インテリア
  6
Continuous
 62
     2
370
     9
100
AcDbLine
 10
2062.995435139945
 20
-549.0345711315691
 30
0.0
 11
2062.995435139945
 21
-666.534092747912
 31
0.0
  0
LINE
  5
277
330
1F
100
AcDbEntity
  8
D-A_インテリア
  6
Continuous
 62
     2
370
     9
100
AcDbLine
 10
2012.995765059708
 20
-549.0345711315691
 30
0.0
 11
2012.995765059708
 21
-666.534092747912
 31
0.0
  0
LINE
  5
278
330
1F
100
AcDbEntity
  8
D-A_インテリア
  6
Continuous
 62
     2
370
     9
100
AcDbLine
 10
2012.995765059708
 20
-666.534092747912
 30
0.0
 11
2062.995435139945
 21
-666.534092747912
 31
0.0
  0
ARC
  5
279
330
1F
100
AcDbEntity
  8
D-A_インテリア
  6
Continuous
 62
     2
370
     9
100
AcDbCircle
 10
2037.995600099826
 20
-460.2839690280013
 30
0.0
 40
11.25000159482698
100
AcDbArc
 50
0.0000000000000064
 51
180.0
  0
LINE
  5
27A
330
1F
100
AcDbEntity
  8
D-6_間仕切
  6
JWW_CENTER1
 62
     7
370
     9
100
AcDbLine
 10
2037.995600099826
 20
-431.4530232140231
 30
0.0
 11
2037.995600099826
 21
-476.7645746947028
 31
0.0
  0
LINE
  5
27B
330
1F
100
AcDbEntity
  8
D-6_間仕切
  6
Continuous
 62
     7
370
     9
100
AcDbLine
 10
2077.994742308442
 20
-429.0341752278528
 30
0.0
 11
2077.994742308442
 21
-479.0342164678231
 31
0.0
  0
ARC
  5
27C
330
1F
100
AcDbEntity
  8
D-6_間仕切
  6
Continuous
 62
     7
370
     9
100
AcDbCircle
 10
2072.995220692098
 20
-429.0341752278528
 30
0.0
 40
5.000000064437454
100
AcDbArc
 50
0.0000000000000127
 51
90.00000000000001
  0
ARC
  5
27D
330
1F
100
AcDbEntity
  8
D-6_間仕切
  6
Continuous
 62
     7
370
     9
100
AcDbCircle
 10
2072.995220692098
 20
-479.0342164678231
 30
0.0
 40
5.000000064437454
100
AcDbArc
 50
270.0
 51
0.0
  0
ARC
  5
27E
330
1F
100
AcDbEntity
  8
D-6_間仕切
  6
Continuous
 62
     7
370
     9
100
AcDbCircle
 10
2037.995600099826
 20
-454.0343814277051
 30
0.0
 40
17.50000022553109
100
AcDbArc
 50
310.0047302246094
 51
229.9922332763672
  0
LINE
  5
27F
330
1F
100
AcDbEntity
  8
D-6_間仕切
  6
Continuous
 62
     7
370
     9
100
AcDbLine
 10
1987.995187700122
 20
-424.0342824517762
 30
0.0
 11
1987.995187700122
 21
-484.0341092438995
 31
0.0
  0
LINE
  5
280
330
1F
100
AcDbEntity
  8
D-0_通り芯
  6
JWW_CENTER2
 62
     7
370
     9
100
AcDbLine
 10
1493.922196251642
 20
-454.0343814277051
 30
0.0
 11
2086.945630452445
 21
-454.0343814277051
 31
0.0
  0
ARC
  5
281
330
1F
100
AcDbEntity
  8
D-6_間仕切
  6
Continuous
 62
     7
370
     9
100
AcDbCircle
 10
1522.995138212158
 20
-499.0341587318644
 30
0.0
 40
5.000000064437454
100
AcDbArc
 50
180.0
 51
270.0
  0
LINE
  5
282
330
1F
100
AcDbEntity
  8
D-6_間仕切
  6
Continuous
 62
     7
370
     9
100
AcDbLine
 10
1517.994874276347
 20
-499.0341587318644
 30
0.0
 11
1517.994874276347
 21
-409.0342329638113
 31
0.0
  0
ARC
  5
283
330
1F
100
AcDbEntity
  8
D-6_間仕切
  6
Continuous
 62
     7
370
     9
100
AcDbCircle
 10
1522.995138212158
 20
-409.0342329638113
 30
0.0
 40
5.000000064437454
100
AcDbArc
 50
90.0
 51
180.0
  0
LINE
  5
284
330
1F
100
AcDbEntity
  8
D-6_間仕切
  6
Continuous
 62
     7
370
     9
100
AcDbLine
 10
2072.995220692098
 20
-424.0342824517762
 30
0.0
 11
1952.086947224682
 21
-424.0342824517762
 31
0.0
  0
LINE
  5
285
330
1F
100
AcDbEntity
  8
D-6_間仕切
  6
Continuous
 62
     7
370
     9
100
AcDbLine
 10
2072.995220692098
 20
-484.0341092438995
 30
0.0
 11
1952.086947224682
 21
-484.0341092438995
 31
0.0
  0
LINE
  5
286
330
1F
100
AcDbEntity
  8
D-6_間仕切
  6
JWW_DASHED1
 62
     7
370
     9
100
AcDbLine
 10
1952.086947224682
 20
-424.0342824517762
 30
0.0
 11
1649.586815256778
 21
-424.0342824517762
 31
0.0
  0
LINE
  5
287
330
1F
100
AcDbEntity
  8
D-6_間仕切
  6
JWW_DASHED1
 62
     7
370
     9
100
AcDbLine
 10
1952.086947224682
 20
-484.0341092438995
 30
0.0
 11
1649.586815256778
 21
-484.0341092438995
 31
0.0
  0
LINE
  5
288
330
1F
100
AcDbEntity
  8
D-5_建具
  6
Continuous
 62
     7
370
     9
100
AcDbLine
 10
2077.995220756535
 20
-429.0341752278528
 30
0.0
 11
2173.656652511154
 21
-263.3437151040699
 31
0.0
  0
LINE
  5
289
330
1F
100
AcDbEntity
  8
D-5_建具
  6
Continuous
 62
     7
370
     9
100
AcDbLine
 10
2077.995220756535
 20
-429.0341752278528
 30
0.0
 11
2100.823774344363
 21
-399.2834249669312
 31
0.0
  0
LINE
  5
28A
330
1F
100
AcDbEntity
  8
D-5_建具
  6
Continuous
 62
     7
370
     9
100
AcDbLine
 10
2077.995220756535
 20
-429.0341752278528
 30
0.0
 11
2092.345849470226
 21
-394.38869275868
 31
0.0
  0
LINE
  5
28B
330
1F
100
AcDbEntity
  8
D-5_建具
  6
Continuous
 62
     7
370
     9
100
AcDbLine
 10
2062.994800108837
 20
-601.5800580076265
 30
0.0
 11
2077.34542882253
 21
-566.9345755384537
 31
0.0
  0
LINE
  5
28C
330
1F
100
AcDbEntity
  8
D-5_建具
  6
Continuous
 62
     7
370
     9
100
AcDbLine
 10
2062.994800108837
 20
-601.5800580076265
 30
0.0
 11
2085.823353696665
 21
-571.8293077467057
 31
0.0
  0
LINE
  5
28D
330
1F
100
AcDbEntity
  8
D-5_建具
  6
Continuous
 62
     7
370
     9
100
AcDbLine
 10
2062.994800108837
 20
-601.5800580076265
 30
0.0
 11
2137.237697662437
 21
-473.1421002746134
 31
0.0
  0
LINE
  5
28E
330
1F
100
AcDbEntity
  8
D-5_建具
  6
Continuous
 62
     7
370
     9
100
AcDbLine
 10
2137.237697662437
 20
-473.1421002746134
 30
0.0
 11
2502.63500250575
 21
-473.1421002746134
 31
0.0
  0
LINE
  5
28F
330
1F
100
AcDbEntity
  8
D-5_建具
  6
Continuous
 62
     7
370
     9
100
AcDbLine
 10
2173.656652511154
 20
-263.3437151040699
 30
0.0
 11
2645.217943319052
 21
-263.3437151040699
 31
0.0
  0
TEXT
  5
290
330
1F
100
AcDbEntity
  8
D-5_建具
  6
Continuous
 62
     7
370
     9
100
AcDbText
 10
2173.656655445744
 20
-246.9987151040703
 30
0.0
 40
34.29000000000026
  1
ロックピン：SCS13A
 50
359.9999735004548
 41
1.157407407407396
  7
ＭＳ ゴシック
100
AcDbText
  0
LINE
  5
291
330
1F
100
AcDbEntity
  8
D-A_インテリア
  6
Continuous
 62
     2
370
     9
100
AcDbLine
 10
2026.745006244251
 20
-460.2839690280013
 30
0.0
 11
2026.745006244251
 21
-549.0345711315691
 31
0.0
  0
LINE
  5
292
330
1F
100
AcDbEntity
  8
D-6_間仕切
  6
Continuous
 62
     7
370
     9
100
AcDbLine
 10
1522.995138212158
 20
-404.0339690280013
 30
0.0
 11
1543.178028583529
 21
-404.0339690280013
 31
0.0
  0
LINE
  5
293
330
1F
100
AcDbEntity
  8
D-6_間仕切
  6
Continuous
 62
     7
370
     9
100
AcDbLine
 10
1532.66759638797
 20
-504.0340515079409
 30
0.0
 11
1522.995138212158
 21
-504.0340515079409
 31
0.0
  0
LINE
  5
294
330
1F
100
AcDbEntity
  8
D-6_間仕切
  6
Continuous
 62
     7
370
     9
100
AcDbLine
 10
1649.586815256778
 20
-424.0342824517762
 30
0.0
 11
1613.975261204417
 21
-424.0342824517762
 31
0.0
  0
LINE
  5
295
330
1F
100
AcDbEntity
  8
D-6_間仕切
  6
Continuous
 62
     7
370
     9
100
AcDbLine
 10
1649.586815256778
 20
-484.0341092438995
 30
0.0
 11
1607.669025293358
 21
-484.0341092438995
 31
0.0
  0
LINE
  5
296
330
1F
100
AcDbEntity
  8
A-6_間仕切
  6
Continuous
 62
     7
370
     9
100
AcDbLine
 10
778.0800278861434
 20
828.1166086463775
 30
0.0
 11
770.9576806532168
 21
828.1166086463775
 31
0.0
  0
LINE
  5
297
330
1F
100
AcDbEntity
  8
A-6_間仕切
  6
Continuous
 62
     7
370
     9
100
AcDbLine
 10
778.0800278861434
 20
816.1166432879525
 30
0.0
 11
769.6964334710051
 21
816.1166432879525
 31
0.0
  0
LINE
  5
298
330
1F
100
AcDbEntity
  8
A-6_間仕切
  6
Continuous
 62
     7
370
     9
100
AcDbLine
 10
754.6961476899266
 20
812.1166548351442
 30
0.0
 11
752.7616924772192
 21
812.1166548351442
 31
0.0
  0
LINE
  5
299
330
1F
100
AcDbEntity
  8
A-6_間仕切
  6
Continuous
 62
     7
370
     9
100
AcDbLine
 10
752.7616924772192
 20
832.1166713311321
 30
0.0
 11
756.7982341290383
 21
832.1166713311321
 31
0.0
  0
TEXT
  5
29A
330
1F
100
AcDbEntity
  8
A-5_建具
  6
Continuous
 62
     2
370
     9
100
AcDbText
 10
1978.872929208047
 20
788.6535843861103
 30
0.0
 40
45.71999999999984
  1
▽G.L.
 41
1.104166666666671
  7
ＭＳ ゴシック
100
AcDbText
  0
TEXT
  5
29B
330
1F
100
AcDbEntity
  8
A-5_建具
  6
Continuous
 62
     2
370
     9
100
AcDbText
 10
967.3815335158592
 20
788.6535843861103
 30
0.0
 40
45.71999999999984
  1
▽G.L.
 41
1.104166666666671
  7
ＭＳ ゴシック
100
AcDbText
  0
TEXT
  5
29C
330
1F
100
AcDbEntity
  8
D-4_文字
  6
Continuous
 62
     2
370
     9
100
AcDbText
 10
2202.601862578557
 20
-686.0692982174501
 30
0.0
 40
45.72000000000009
  1
▽G.L.
 41
1.104166666666664
  7
ＭＳ ゴシック
100
AcDbText
  0
LINE
  5
29D
330
1F
100
AcDbEntity
  8
A-E_見え係り
  6
Continuous
 62
     6
370
     9
100
AcDbLine
 10
1915.424159259815
 20
772.1165888511915
 30
0.0
 11
2177.622929208047
 21
772.1165888511915
 31
0.0
  0
LINE
  5
29E
330
1F
100
AcDbEntity
  8
A-E_見え係り
  6
Continuous
 62
     6
370
     9
100
AcDbLine
 10
1582.925065551545
 20
772.1165888511915
 30
0.0
 11
1840.424060283886
 21
772.1165888511915
 31
0.0
  0
TEXT
  5
29F
330
1F
100
AcDbEntity
  8
A-5_建具
  6
Continuous
 62
     7
370
     9
100
AcDbText
 10
476.8248341517732
 20
1688.722410202295
 30
0.0
 40
34.29
  1
本体：φ60.5×2.8
 41
1.156862745098039
  7
ＭＳ ゴシック
100
AcDbText
  0
TEXT
  5
2A0
330
1F
100
AcDbEntity
  8
A-5_建具
  6
Continuous
 62
     7
370
     9
100
AcDbText
 10
476.8248341517732
 20
1620.902079233027
 30
0.0
 40
34.29
  1
STK　溶融亜鉛めっき＋焼付塗装
 41
1.155172413793103
  7
ＭＳ ゴシック
100
AcDbText
  0
LINE
  5
2A1
330
1F
100
AcDbEntity
  8
A-5_建具
  6
Continuous
 62
     7
370
     9
100
AcDbLine
 10
465.1701977763893
 20
1670.66119150461
 30
0.0
 11
1230.574834151773
 21
1670.66119150461
 31
0.0
  0
LINE
  5
2A2
330
1F
100
AcDbEntity
  8
A-5_建具
  6
Continuous
 62
     7
370
     9
100
AcDbLine
 10
321.6705480436369
 20
1422.114115686958
 30
0.0
 11
465.1701977763893
 21
1670.66119150461
 31
0.0
  0
LINE
  5
2A3
330
1F
100
AcDbEntity
  8
A-4_文字
  6
Continuous
 62
     7
370
     9
100
AcDbLine
 10
321.6705480436369
 20
1422.114115686958
 30
0.0
 11
344.4991849956482
 21
1451.864801980105
 31
0.0
  0
LINE
  5
2A4
330
1F
100
AcDbEntity
  8
A-4_文字
  6
Continuous
 62
     7
370
     9
100
AcDbLine
 10
321.6705480436369
 20
1422.114115686958
 30
0.0
 11
336.0212738370245
 21
1456.759557944244
 31
0.0
  0
LINE
  5
2A5
330
1F
100
AcDbEntity
  8
A-5_建具
  6
Continuous
 62
     7
370
     9
100
AcDbLine
 10
842.3300542797228
 20
674.9730962844106
 30
0.0
 11
1066.379628397749
 21
284.1262573293738
 31
0.0
  0
TEXT
  5
2A6
330
1F
100
AcDbEntity
  8
A-5_建具
  6
Continuous
 62
     7
370
     9
100
AcDbText
 10
1078.159882721696
 20
303.146190981017
 30
0.0
 40
34.29000000000049
  1
脱着用埋設管
 41
1.138888888888898
  7
ＭＳ ゴシック
100
AcDbText
  0
LINE
  5
2A7
330
1F
100
AcDbEntity
  8
A-4_文字
  6
Continuous
 62
     7
370
     9
100
AcDbLine
 10
842.3300542797228
 20
674.9730962844106
 30
0.0
 11
865.0666537939819
 21
645.1520124253657
 31
0.0
  0
LINE
  5
2A8
330
1F
100
AcDbEntity
  8
A-4_文字
  6
Continuous
 62
     7
370
     9
100
AcDbLine
 10
842.3300542797228
 20
674.9730962844106
 30
0.0
 11
856.5736585042167
 21
640.2834762418681
 31
0.0
  0
TEXT
  5
2A9
330
1F
100
AcDbEntity
  8
A-5_建具
  6
Continuous
 62
     7
370
     9
100
AcDbText
 10
1078.159882721696
 20
169.9300928423517
 30
0.0
 40
34.29000000000008
  1
埋設管本体：SUS
 41
1.155555555555553
  7
ＭＳ ゴシック
100
AcDbText
  0
TEXT
  5
2AA
330
1F
100
AcDbEntity
  8
A-5_建具
  6
Continuous
 62
     7
370
     9
100
AcDbText
 10
1078.159882721696
 20
227.3485325586609
 30
0.0
 40
34.28999999999968
  1
蓋：FCD500　溶融亜鉛めっき
 41
1.153846153846165
  7
ＭＳ ゴシック
100
AcDbText
  0
LINE
  5
2AB
330
1F
100
AcDbEntity
  8
A-5_建具
  6
Continuous
 62
     7
370
     9
100
AcDbLine
 10
1753.159882721696
 20
284.1262573293738
 30
0.0
 11
1066.379628397749
 21
284.1262573293738
 31
0.0
  0
ENDSEC
  0
SECTION
  2
OBJECTS
  0
DICTIONARY
  5
C
330
0
100
AcDbDictionary
281
     1
  3
ACAD_DETAILVIEWSTYLE
350
2F1
  3
ACAD_GROUP
350
D
  3
ACAD_LAYOUT
350
1A
  3
ACAD_MATERIAL
350
43
  3
ACAD_MLEADERSTYLE
350
6B
  3
ACAD_MLINESTYLE
350
17
  3
ACAD_PLOTSETTINGS
350
19
  3
ACAD_PLOTSTYLENAME
350
E
  3
ACAD_SCALELIST
350
47
  3
ACAD_SECTIONVIEWSTYLE
350
2F2
  3
ACAD_TABLESTYLE
350
69
  3
ACAD_VISUALSTYLE
350
2A
  3
ACDB_RECOMPOSE_DATA
350
2EE
  3
AcDbVariableDictionary
350
2AE
  0
DICTIONARY
  5
2AC
330
8
100
AcDbDictionary
280
     1
281
     1
  3
ACAD_XREC_ROUNDTRIP
360
2AD
  0
DICTIONARY
  5
2F1
102
{ACAD_REACTORS
330
C
102
}
330
C
100
AcDbDictionary
281
     1
  0
DICTIONARY
  5
D
102
{ACAD_REACTORS
330
C
102
}
330
C
100
AcDbDictionary
281
     1
  0
DICTIONARY
  5
1A
102
{ACAD_REACTORS
330
C
102
}
330
C
100
AcDbDictionary
281
     1
  3
Layout1
350
1E
  3
Layout2
350
26
  3
Model
350
22
  0
DICTIONARY
  5
43
102
{ACAD_REACTORS
330
C
102
}
330
C
100
AcDbDictionary
281
     1
  3
ByBlock
350
45
  3
ByLayer
350
44
  3
Global
350
46
  0
DICTIONARY
  5
6B
102
{ACAD_REACTORS
330
C
102
}
330
C
100
AcDbDictionary
281
     1
  3
Standard
350
6C
  0
DICTIONARY
  5
17
102
{ACAD_REACTORS
330
C
102
}
330
C
100
AcDbDictionary
281
     1
  3
Standard
350
18
  0
DICTIONARY
  5
19
102
{ACAD_REACTORS
330
C
102
}
330
C
100
AcDbDictionary
281
     1
  0
ACDBDICTIONARYWDFLT
  5
E
102
{ACAD_REACTORS
330
C
102
}
330
C
100
AcDbDictionary
281
     1
  3
Normal
350
F
100
AcDbDictionaryWithDefault
340
F
  0
DICTIONARY
  5
47
102
{ACAD_REACTORS
330
C
102
}
330
C
100
AcDbDictionary
281
     1
  3
A0
350
48
  3
A1
350
49
  3
A2
350
4A
  3
A3
350
4B
  3
A4
350
4C
  3
A5
350
4D
  3
A6
350
4E
  3
A7
350
4F
  3
A8
350
50
  3
A9
350
51
  3
B0
350
52
  3
B1
350
53
  3
B2
350
54
  3
B3
350
55
  3
B4
350
56
  3
B5
350
57
  3
B6
350
58
  3
B7
350
59
  3
B8
350
5A
  3
B9
350
5B
  3
C0
350
5C
  3
C1
350
5D
  3
C2
350
5E
  3
C3
350
5F
  3
C4
350
60
  3
C5
350
61
  3
C6
350
62
  3
C7
350
63
  3
C8
350
64
  3
C9
350
65
  3
D0
350
66
  3
D1
350
67
  3
D2
350
68
  0
DICTIONARY
  5
2F2
102
{ACAD_REACTORS
330
C
102
}
330
C
100
AcDbDictionary
281
     1
  0
DICTIONARY
  5
69
102
{ACAD_REACTORS
330
C
102
}
330
C
100
AcDbDictionary
281
     1
  3
Standard
350
6A
  0
DICTIONARY
  5
2A
102
{ACAD_REACTORS
330
C
102
}
330
C
100
AcDbDictionary
281
     1
  3
2dWireframe
350
2F
  3
Basic
350
32
  3
Brighten
350
36
  3
ColorChange
350
3A
  3
Conceptual
350
34
  3
Dim
350
35
  3
EdgeColorOff
350
3D
  3
Facepattern
350
39
  3
Flat
350
2B
  3
FlatWithEdges
350
2C
  3
Gouraud
350
2D
  3
GouraudWithEdges
350
2E
  3
Hidden
350
31
  3
JitterOff
350
3B
  3
Linepattern
350
38
  3
OverhangOff
350
3C
  3
Realistic
350
33
  3
Shaded
350
42
  3
Shaded with edges
350
41
  3
Shades of Gray
350
3E
  3
Sketchy
350
3F
  3
Thicken
350
37
  3
Wireframe
350
30
  3
X-Ray
350
40
  0
XRECORD
  5
2EE
102
{ACAD_REACTORS
330
C
102
}
330
C
100
AcDbXrecord
280
     1
 90
        1
330
6A
  0
DICTIONARY
  5
2AE
102
{ACAD_REACTORS
330
C
102
}
330
C
100
AcDbDictionary
281
     1
  3
CANNOSCALE
350
2AF
  3
CENTEREXE
350
2F3
  3
CENTERLTYPEFILE
350
2F4
  3
CMLEADERSTYLE
350
2F0
  3
CTABLESTYLE
350
2EF
  3
MSLTSCALE
350
2B0
  3
XCLIPFRAME
350
2B1
  0
XRECORD
  5
2AD
102
{ACAD_REACTORS
330
2AC
102
}
330
2AC
100
AcDbXrecord
280
     1
102
VTR_0.000_0.000_1.000_1.000_VISUALSTYLE
340
2F
102
VTR_0.000_0.000_1.000_1.000_GRIDDISPLAY
 70
     3
102
VTR_0.000_0.000_1.000_1.000_GRIDMAJOR
 70
     5
102
VTR_0.000_0.000_1.000_1.000_DEFAULTLIGHTING
280
     1
102
VTR_0.000_0.000_1.000_1.000_DEFAULTLIGHTINGTYPE
 70
     1
102
VTR_0.000_0.000_1.000_1.000_BRIGHTNESS
141
0.0
102
VTR_0.000_0.000_1.000_1.000_CONTRAST
142
0.0
  0
LAYOUT
  5
1E
102
{ACAD_REACTORS
330
1A
102
}
330
1A
100
AcDbPlotSettings
  1

  2
none_device
  4

  6

 40
0.0
 41
0.0
 42
0.0
 43
0.0
 44
0.0
 45
0.0
 46
0.0
 47
0.0
 48
0.0
 49
0.0
140
0.0
141
0.0
142
1.0
143
1.0
 70
   688
 72
     1
 73
     0
 74
     5
  7

 75
    16
 76
     0
 77
     5
 78
   300
147
1.0
148
0.0
149
0.0
100
AcDbLayout
  1
Layout1
 70
     1
 71
     1
 10
0.0
 20
0.0
 11
420.0
 21
297.0
 12
0.0
 22
0.0
 32
0.0
 14
1.000000000000000E+20
 24
1.000000000000000E+20
 34
1.000000000000000E+20
 15
-1.000000000000000E+20
 25
-1.000000000000000E+20
 35
-1.000000000000000E+20
146
0.0
 13
0.0
 23
0.0
 33
0.0
 16
1.0
 26
0.0
 36
0.0
 17
0.0
 27
1.0
 37
0.0
 76
     0
330
1B
  0
LAYOUT
  5
26
102
{ACAD_REACTORS
330
1A
102
}
330
1A
100
AcDbPlotSettings
  1

  2
none_device
  4

  6

 40
0.0
 41
0.0
 42
0.0
 43
0.0
 44
0.0
 45
0.0
 46
0.0
 47
0.0
 48
0.0
 49
0.0
140
0.0
141
0.0
142
1.0
143
1.0
 70
   688
 72
     1
 73
     0
 74
     5
  7

 75
    16
 76
     0
 77
     5
 78
   300
147
1.0
148
0.0
149
0.0
100
AcDbLayout
  1
Layout2
 70
     1
 71
     2
 10
0.0
 20
0.0
 11
0.0
 21
0.0
 12
0.0
 22
0.0
 32
0.0
 14
0.0
 24
0.0
 34
0.0
 15
0.0
 25
0.0
 35
0.0
146
0.0
 13
0.0
 23
0.0
 33
0.0
 16
1.0
 26
0.0
 36
0.0
 17
0.0
 27
1.0
 37
0.0
 76
     0
330
23
  0
LAYOUT
  5
22
102
{ACAD_REACTORS
330
1A
102
}
330
1A
100
AcDbPlotSettings
  1

  2
none_device
  4
Letter_(8.50_x_11.00_Inches)
  6

 40
6.35
 41
6.35
 42
6.35000508
 43
6.35000508
 44
215.9
 45
279.4
 46
0.0
 47
0.0
 48
0.0
 49
0.0
140
0.0
141
0.0
142
1.0
143
1.0
 70
  1712
 72
     1
 73
     0
 74
     0
  7

 75
     0
 76
     0
 77
     5
 78
   300
147
1.0
148
0.0
149
0.0
100
AcDbLayout
  1
Model
 70
     1
 71
     0
 10
-3150.0
 20
-2227.5
 11
3150.0
 21
2227.5
 12
0.0
 22
0.0
 32
0.0
 14
-3150.0
 24
-2227.5
 34
0.0
 15
3150.0
 25
2227.5
 35
0.0
146
0.0
 13
0.0
 23
0.0
 33
0.0
 16
1.0
 26
0.0
 36
0.0
 17
0.0
 27
1.0
 37
0.0
 76
     0
330
1F
331
29
  0
MATERIAL
  5
45
102
{ACAD_REACTORS
330
43
102
}
102
{ACAD_XDICTIONARY
360
2E4
102
}
330
43
100
AcDbMaterial
  1
ByBlock
  0
MATERIAL
  5
44
102
{ACAD_REACTORS
330
43
102
}
102
{ACAD_XDICTIONARY
360
2E2
102
}
330
43
100
AcDbMaterial
  1
ByLayer
  0
MATERIAL
  5
46
102
{ACAD_REACTORS
330
43
102
}
102
{ACAD_XDICTIONARY
360
2E6
102
}
330
43
100
AcDbMaterial
  1
Global
  0
MLEADERSTYLE
  5
6C
102
{ACAD_REACTORS
330
6B
102
}
102
{ACAD_XDICTIONARY
360
2EC
102
}
330
6B
100
AcDbMLeaderStyle
170
     2
171
     1
172
     0
 90
        2
 40
0.0
 41
0.0
173
     1
 91
-1056964608
340
14
 92
       -2
290
     1
 42
2.0
291
     1
 43
8.0
  3
Standard
341
0
 44
4.0
300

342
11
174
     1
178
     6
175
     1
176
     0
 93
-1056964608
 45
4.0
292
     0
297
     0
 46
4.0
343
0
 94
-1056964608
 47
1.0
 49
1.0
140
1.0
293
     1
141
0.0
294
     1
177
     0
142
1.0
295
     0
296
     0
143
3.75
1001
ACAD_MLEADERVER
1070
     2
  0
MLINESTYLE
  5
18
102
{ACAD_REACTORS
330
17
102
}
330
17
100
AcDbMlineStyle
  2
Standard
 70
     0
  3

 62
   256
 51
90.0
 52
90.0
 71
     2
 49
0.5
 62
   256
  6
BYLAYER
 49
-0.5
 62
   256
  6
BYLAYER
  0
ACDBPLACEHOLDER
  5
F
102
{ACAD_REACTORS
330
E
102
}
330
E
  0
SCALE
  5
48
102
{ACAD_REACTORS
330
47
102
}
330
47
100
AcDbScale
 70
     0
300
1:1
140
1.0
141
1.0
290
     1
  0
SCALE
  5
49
102
{ACAD_REACTORS
330
47
102
}
330
47
100
AcDbScale
 70
     0
300
1:2
140
1.0
141
2.0
290
     0
  0
SCALE
  5
4A
102
{ACAD_REACTORS
330
47
102
}
330
47
100
AcDbScale
 70
     0
300
1:4
140
1.0
141
4.0
290
     0
  0
SCALE
  5
4B
102
{ACAD_REACTORS
330
47
102
}
330
47
100
AcDbScale
 70
     0
300
1:5
140
1.0
141
5.0
290
     0
  0
SCALE
  5
4C
102
{ACAD_REACTORS
330
47
102
}
330
47
100
AcDbScale
 70
     0
300
1:8
140
1.0
141
8.0
290
     0
  0
SCALE
  5
4D
102
{ACAD_REACTORS
330
47
102
}
330
47
100
AcDbScale
 70
     0
300
1:10
140
1.0
141
10.0
290
     0
  0
SCALE
  5
4E
102
{ACAD_REACTORS
330
47
102
}
330
47
100
AcDbScale
 70
     0
300
1:16
140
1.0
141
16.0
290
     0
  0
SCALE
  5
4F
102
{ACAD_REACTORS
330
47
102
}
330
47
100
AcDbScale
 70
     0
300
1:20
140
1.0
141
20.0
290
     0
  0
SCALE
  5
50
102
{ACAD_REACTORS
330
47
102
}
330
47
100
AcDbScale
 70
     0
300
1:30
140
1.0
141
30.0
290
     0
  0
SCALE
  5
51
102
{ACAD_REACTORS
330
47
102
}
330
47
100
AcDbScale
 70
     0
300
1:40
140
1.0
141
40.0
290
     0
  0
SCALE
  5
52
102
{ACAD_REACTORS
330
47
102
}
330
47
100
AcDbScale
 70
     0
300
1:50
140
1.0
141
50.0
290
     0
  0
SCALE
  5
53
102
{ACAD_REACTORS
330
47
102
}
330
47
100
AcDbScale
 70
     0
300
1:100
140
1.0
141
100.0
290
     0
  0
SCALE
  5
54
102
{ACAD_REACTORS
330
47
102
}
330
47
100
AcDbScale
 70
     0
300
2:1
140
2.0
141
1.0
290
     0
  0
SCALE
  5
55
102
{ACAD_REACTORS
330
47
102
}
330
47
100
AcDbScale
 70
     0
300
4:1
140
4.0
141
1.0
290
     0
  0
SCALE
  5
56
102
{ACAD_REACTORS
330
47
102
}
330
47
100
AcDbScale
 70
     0
300
8:1
140
8.0
141
1.0
290
     0
  0
SCALE
  5
57
102
{ACAD_REACTORS
330
47
102
}
330
47
100
AcDbScale
 70
     0
300
10:1
140
10.0
141
1.0
290
     0
  0
SCALE
  5
58
102
{ACAD_REACTORS
330
47
102
}
330
47
100
AcDbScale
 70
     0
300
100:1
140
100.0
141
1.0
290
     0
  0
SCALE
  5
59
102
{ACAD_REACTORS
330
47
102
}
330
47
100
AcDbScale
 70
     0
300
1/128" = 1'-0"
140
0.0078125
141
12.0
290
     0
  0
SCALE
  5
5A
102
{ACAD_REACTORS
330
47
102
}
330
47
100
AcDbScale
 70
     0
300
1/64" = 1'-0"
140
0.015625
141
12.0
290
     0
  0
SCALE
  5
5B
102
{ACAD_REACTORS
330
47
102
}
330
47
100
AcDbScale
 70
     0
300
1/32" = 1'-0"
140
0.03125
141
12.0
290
     0
  0
SCALE
  5
5C
102
{ACAD_REACTORS
330
47
102
}
330
47
100
AcDbScale
 70
     0
300
1/16" = 1'-0"
140
0.0625
141
12.0
290
     0
  0
SCALE
  5
5D
102
{ACAD_REACTORS
330
47
102
}
330
47
100
AcDbScale
 70
     0
300
3/32" = 1'-0"
140
0.09375
141
12.0
290
     0
  0
SCALE
  5
5E
102
{ACAD_REACTORS
330
47
102
}
330
47
100
AcDbScale
 70
     0
300
1/8" = 1'-0"
140
0.125
141
12.0
290
     0
  0
SCALE
  5
5F
102
{ACAD_REACTORS
330
47
102
}
330
47
100
AcDbScale
 70
     0
300
3/16" = 1'-0"
140
0.1875
141
12.0
290
     0
  0
SCALE
  5
60
102
{ACAD_REACTORS
330
47
102
}
330
47
100
AcDbScale
 70
     0
300
1/4" = 1'-0"
140
0.25
141
12.0
290
     0
  0
SCALE
  5
61
102
{ACAD_REACTORS
330
47
102
}
330
47
100
AcDbScale
 70
     0
300
3/8" = 1'-0"
140
0.375
141
12.0
290
     0
  0
SCALE
  5
62
102
{ACAD_REACTORS
330
47
102
}
330
47
100
AcDbScale
 70
     0
300
1/2" = 1'-0"
140
0.5
141
12.0
290
     0
  0
SCALE
  5
63
102
{ACAD_REACTORS
330
47
102
}
330
47
100
AcDbScale
 70
     0
300
3/4" = 1'-0"
140
0.75
141
12.0
290
     0
  0
SCALE
  5
64
102
{ACAD_REACTORS
330
47
102
}
330
47
100
AcDbScale
 70
     0
300
1" = 1'-0"
140
1.0
141
12.0
290
     0
  0
SCALE
  5
65
102
{ACAD_REACTORS
330
47
102
}
330
47
100
AcDbScale
 70
     0
300
1-1/2" = 1'-0"
140
1.5
141
12.0
290
     0
  0
SCALE
  5
66
102
{ACAD_REACTORS
330
47
102
}
330
47
100
AcDbScale
 70
     0
300
3" = 1'-0"
140
3.0
141
12.0
290
     0
  0
SCALE
  5
67
102
{ACAD_REACTORS
330
47
102
}
330
47
100
AcDbScale
 70
     0
300
6" = 1'-0"
140
6.0
141
12.0
290
     0
  0
SCALE
  5
68
102
{ACAD_REACTORS
330
47
102
}
330
47
100
AcDbScale
 70
     0
300
1'-0" = 1'-0"
140
12.0
141
12.0
290
     0
  0
TABLESTYLE
  5
6A
102
{ACAD_REACTORS
330
69
102
}
102
{ACAD_XDICTIONARY
360
2E8
102
}
330
69
100
AcDbTableStyle
  3
Standard
 70
     0
 71
     0
 40
0.06
 41
0.06
280
     0
281
     0
  7
Standard
140
4.5
170
     2
 62
     0
 63
   257
283
     0
274
    -2
284
     1
 64
     0
275
    -2
285
     1
 65
     0
276
    -2
286
     1
 66
     0
277
    -2
287
     1
 67
     0
278
    -2
288
     1
 68
     0
279
    -2
289
     1
 69
     0
  7
Standard
140
6.0
170
     5
 62
     0
 63
   257
283
     0
274
    -2
284
     1
 64
     0
275
    -2
285
     1
 65
     0
276
    -2
286
     1
 66
     0
277
    -2
287
     1
 67
     0
278
    -2
288
     1
 68
     0
279
    -2
289
     1
 69
     0
  7
Standard
140
4.5
170
     5
 62
     0
 63
   257
283
     0
274
    -2
284
     1
 64
     0
275
    -2
285
     1
 65
     0
276
    -2
286
     1
 66
     0
277
    -2
287
     1
 67
     0
278
    -2
288
     1
 68
     0
279
    -2
289
     1
 69
     0
  0
VISUALSTYLE
  5
2F
102
{ACAD_REACTORS
330
2A
102
}
102
{ACAD_XDICTIONARY
360
2BA
102
}
330
2A
100
AcDbVisualStyle
  2
2dWireframe
 70
     4
 71
     0
 72
     2
 73
     0
 90
        0
 40
0.6
 41
30.0
 62
     5
 63
     7
421
 16777215
 74
     1
 91
        4
 64
     7
 65
   257
 75
     1
175
     1
 42
1.0
 92
        0
 66
   257
 43
1.0
 76
     1
 77
     6
 78
     2
 67
     7
 79
     5
170
     0
171
     0
290
     0
174
     0
 93
        1
 44
0.0
173
     0
291
     0
 45
0.0
1001
ACAD
1000
AcDbSavedByObjectVersion
1070
     0
  0
VISUALSTYLE
  5
32
102
{ACAD_REACTORS
330
2A
102
}
102
{ACAD_XDICTIONARY
360
2C0
102
}
330
2A
100
AcDbVisualStyle
  2
Basic
 70
     7
 71
     1
 72
     0
 73
     1
 90
        0
 40
0.6
 41
30.0
 62
     5
 63
     7
421
 16777215
 74
     0
 91
        4
 64
     7
 65
   257
 75
     1
175
     1
 42
1.0
 92
        8
 66
     7
 43
1.0
 76
     1
 77
     6
 78
     2
 67
     7
 79
     5
170
     0
171
     0
290
     0
174
     0
 93
        1
 44
0.0
173
     0
291
     1
 45
0.0
1001
ACAD
1000
AcDbSavedByObjectVersion
1070
     0
  0
VISUALSTYLE
  5
36
102
{ACAD_REACTORS
330
2A
102
}
102
{ACAD_XDICTIONARY
360
2C8
102
}
330
2A
100
AcDbVisualStyle
  2
Brighten
 70
    12
 71
     2
 72
     2
 73
     0
 90
        0
 40
0.6
 41
30.0
 62
     5
 63
     7
421
 16777215
 74
     1
 91
        4
 64
     7
 65
   257
 75
     1
175
     1
 42
1.0
 92
        8
 66
     7
 43
1.0
 76
     1
 77
     6
 78
     2
 67
     7
 79
     5
170
     0
171
     0
290
     0
174
     0
 93
        1
 44
50.0
173
     0
291
     1
 45
0.0
1001
ACAD
1000
AcDbSavedByObjectVersion
1070
     0
  0
VISUALSTYLE
  5
3A
102
{ACAD_REACTORS
330
2A
102
}
102
{ACAD_XDICTIONARY
360
2D0
102
}
330
2A
100
AcDbVisualStyle
  2
ColorChange
 70
    16
 71
     2
 72
     2
 73
     3
 90
        0
 40
0.6
 41
30.0
 62
     5
 63
     8
421
  8421504
 74
     1
 91
        4
 64
     7
 65
   257
 75
     1
175
     1
 42
1.0
 92
        8
 66
     8
424
  8421504
 43
1.0
 76
     1
 77
     6
 78
     2
 67
     7
 79
     5
170
     0
171
     0
290
     0
174
     0
 93
        1
 44
0.0
173
     0
291
     1
 45
0.0
1001
ACAD
1000
AcDbSavedByObjectVersion
1070
     0
  0
VISUALSTYLE
  5
34
102
{ACAD_REACTORS
330
2A
102
}
102
{ACAD_XDICTIONARY
360
2C4
102
}
330
2A
100
AcDbVisualStyle
  2
Conceptual
 70
     9
 71
     3
 72
     2
 73
     0
 90
        0
 40
0.6
 41
30.0
 62
     5
 63
     7
421
 16777215
 74
     2
 91
        2
 64
     7
 65
   257
 75
     1
175
     1
 42
179.0
 92
        8
 66
     7
 43
1.0
 76
     1
 77
     6
 78
     2
 67
     7
 79
     3
170
     0
171
     0
290
     0
174
     0
 93
        1
 44
0.0
173
     0
291
     0
 45
0.0
1001
ACAD
1000
AcDbSavedByObjectVersion
1070
     0
  0
VISUALSTYLE
  5
35
102
{ACAD_REACTORS
330
2A
102
}
102
{ACAD_XDICTIONARY
360
2C6
102
}
330
2A
100
AcDbVisualStyle
  2
Dim
 70
    11
 71
     2
 72
     2
 73
     0
 90
        0
 40
0.6
 41
30.0
 62
     5
 63
     7
421
 16777215
 74
     1
 91
        4
 64
     7
 65
   257
 75
     1
175
     1
 42
1.0
 92
        8
 66
     7
 43
1.0
 76
     1
 77
     6
 78
     2
 67
     7
 79
     5
170
     0
171
     0
290
     0
174
     0
 93
        1
 44
-50.0
173
     0
291
     1
 45
0.0
1001
ACAD
1000
AcDbSavedByObjectVersion
1070
     0
  0
VISUALSTYLE
  5
3D
102
{ACAD_REACTORS
330
2A
102
}
102
{ACAD_XDICTIONARY
360
2D6
102
}
330
2A
100
AcDbVisualStyle
  2
EdgeColorOff
 70
    22
 71
     2
 72
     2
 73
     0
 90
        0
 40
0.6
 41
30.0
 62
     5
 63
     7
421
 16777215
 74
     1
 91
        4
 64
     7
 65
   257
 75
     1
175
     1
 42
1.0
 92
        8
 66
     7
 43
1.0
 76
     1
 77
     6
 78
     2
 67
     7
 79
     5
170
     0
171
     0
290
     0
174
     0
 93
        1
 44
0.0
173
     0
291
     1
 45
0.0
1001
ACAD
1000
AcDbSavedByObjectVersion
1070
     0
  0
VISUALSTYLE
  5
39
102
{ACAD_REACTORS
330
2A
102
}
102
{ACAD_XDICTIONARY
360
2CE
102
}
330
2A
100
AcDbVisualStyle
  2
Facepattern
 70
    15
 71
     2
 72
     2
 73
     0
 90
        0
 40
0.6
 41
30.0
 62
     5
 63
     7
421
 16777215
 74
     1
 91
        4
 64
     7
 65
   257
 75
     1
175
     1
 42
1.0
 92
        8
 66
     7
 43
1.0
 76
     1
 77
     6
 78
     2
 67
     7
 79
     5
170
     0
171
     0
290
     0
174
     0
 93
        1
 44
0.0
173
     0
291
     1
 45
0.0
1001
ACAD
1000
AcDbSavedByObjectVersion
1070
     0
  0
VISUALSTYLE
  5
2B
102
{ACAD_REACTORS
330
2A
102
}
102
{ACAD_XDICTIONARY
360
2B2
102
}
330
2A
100
AcDbVisualStyle
  2
Flat
 70
     0
 71
     2
 72
     1
 73
     1
 90
        2
 40
0.6
 41
30.0
 62
     5
 63
     7
421
 16777215
 74
     0
 91
        0
 64
     7
 65
   257
 75
     1
175
     1
 42
1.0
 92
        8
 66
     7
 43
1.0
 76
     1
 77
     6
 78
     2
 67
     7
 79
     5
170
     0
171
     0
290
     0
174
     0
 93
       13
 44
0.0
173
     0
291
     1
 45
0.0
1001
ACAD
1000
AcDbSavedByObjectVersion
1070
     0
  0
VISUALSTYLE
  5
2C
102
{ACAD_REACTORS
330
2A
102
}
102
{ACAD_XDICTIONARY
360
2B4
102
}
330
2A
100
AcDbVisualStyle
  2
FlatWithEdges
 70
     1
 71
     2
 72
     1
 73
     1
 90
        2
 40
0.6
 41
30.0
 62
     5
 63
     7
421
 16777215
 74
     1
 91
        0
 64
     7
 65
   257
 75
     1
175
     1
 42
1.0
 92
        0
 66
   257
 43
1.0
 76
     1
 77
     6
 78
     2
 67
     7
 79
     5
170
     0
171
     0
290
     0
174
     0
 93
       13
 44
0.0
173
     0
291
     1
 45
0.0
1001
ACAD
1000
AcDbSavedByObjectVersion
1070
     0
  0
VISUALSTYLE
  5
2D
102
{ACAD_REACTORS
330
2A
102
}
102
{ACAD_XDICTIONARY
360
2B6
102
}
330
2A
100
AcDbVisualStyle
  2
Gouraud
 70
     2
 71
     2
 72
     2
 73
     1
 90
        2
 40
0.6
 41
30.0
 62
     5
 63
     7
421
 16777215
 74
     0
 91
        0
 64
     7
 65
   257
 75
     1
175
     1
 42
1.0
 92
        0
 66
     7
 43
1.0
 76
     1
 77
     6
 78
     2
 67
     7
 79
     5
170
     0
171
     0
290
     0
174
     0
 93
       13
 44
0.0
173
     0
291
     1
 45
0.0
1001
ACAD
1000
AcDbSavedByObjectVersion
1070
     0
  0
VISUALSTYLE
  5
2E
102
{ACAD_REACTORS
330
2A
102
}
102
{ACAD_XDICTIONARY
360
2B8
102
}
330
2A
100
AcDbVisualStyle
  2
GouraudWithEdges
 70
     3
 71
     2
 72
     2
 73
     1
 90
        2
 40
0.6
 41
30.0
 62
     5
 63
     7
421
 16777215
 74
     1
 91
        0
 64
     7
 65
   257
 75
     1
175
     1
 42
1.0
 92
        0
 66
   257
 43
1.0
 76
     1
 77
     6
 78
     2
 67
     7
 79
     5
170
     0
171
     0
290
     0
174
     0
 93
       13
 44
0.0
173
     0
291
     1
 45
0.0
1001
ACAD
1000
AcDbSavedByObjectVersion
1070
     0
  0
VISUALSTYLE
  5
31
102
{ACAD_REACTORS
330
2A
102
}
102
{ACAD_XDICTIONARY
360
2BE
102
}
330
2A
100
AcDbVisualStyle
  2
Hidden
 70
     6
 71
     1
 72
     2
 73
     2
 90
        0
 40
0.6
 41
30.0
 62
     5
 63
     7
421
 16777215
 74
     2
 91
        2
 64
     7
 65
   257
 75
     2
175
     1
 42
40.0
 92
        0
 66
   257
 43
1.0
 76
     1
 77
     6
 78
     2
 67
     7
 79
     3
170
     0
171
     0
290
     0
174
     0
 93
        1
 44
0.0
173
     0
291
     0
 45
0.0
1001
ACAD
1000
AcDbSavedByObjectVersion
1070
     0
  0
VISUALSTYLE
  5
3B
102
{ACAD_REACTORS
330
2A
102
}
102
{ACAD_XDICTIONARY
360
2D2
102
}
330
2A
100
AcDbVisualStyle
  2
JitterOff
 70
    20
 71
     2
 72
     2
 73
     0
 90
        0
 40
0.6
 41
30.0
 62
     5
 63
     7
421
 16777215
 74
     1
 91
        4
 64
     7
 65
   257
 75
     1
175
     1
 42
1.0
 92
       10
 66
     7
 43
1.0
 76
     1
 77
     6
 78
     2
 67
     7
 79
     5
170
     0
171
     0
290
     0
174
     0
 93
        1
 44
0.0
173
     0
291
     1
 45
0.0
1001
ACAD
1000
AcDbSavedByObjectVersion
1070
     0
  0
VISUALSTYLE
  5
38
102
{ACAD_REACTORS
330
2A
102
}
102
{ACAD_XDICTIONARY
360
2CC
102
}
330
2A
100
AcDbVisualStyle
  2
Linepattern
 70
    14
 71
     2
 72
     2
 73
     0
 90
        0
 40
0.6
 41
30.0
 62
     5
 63
     7
421
 16777215
 74
     1
 91
        4
 64
     7
 65
   257
 75
     7
175
     7
 42
1.0
 92
        8
 66
     7
 43
1.0
 76
     1
 77
     6
 78
     2
 67
     7
 79
     5
170
     0
171
     0
290
     0
174
     0
 93
        1
 44
0.0
173
     0
291
     1
 45
0.0
1001
ACAD
1000
AcDbSavedByObjectVersion
1070
     0
  0
VISUALSTYLE
  5
3C
102
{ACAD_REACTORS
330
2A
102
}
102
{ACAD_XDICTIONARY
360
2D4
102
}
330
2A
100
AcDbVisualStyle
  2
OverhangOff
 70
    21
 71
     2
 72
     2
 73
     0
 90
        0
 40
0.6
 41
30.0
 62
     5
 63
     7
421
 16777215
 74
     1
 91
        4
 64
     7
 65
   257
 75
     1
175
     1
 42
1.0
 92
        9
 66
     7
 43
1.0
 76
     1
 77
     6
 78
     2
 67
     7
 79
     5
170
     0
171
     0
290
     0
174
     0
 93
        1
 44
0.0
173
     0
291
     1
 45
0.0
1001
ACAD
1000
AcDbSavedByObjectVersion
1070
     0
  0
VISUALSTYLE
  5
33
102
{ACAD_REACTORS
330
2A
102
}
102
{ACAD_XDICTIONARY
360
2C2
102
}
330
2A
100
AcDbVisualStyle
  2
Realistic
 70
     8
 71
     2
 72
     3
 73
     0
 90
        2
 40
0.6
 41
30.0
 62
     5
 63
     7
421
 16777215
 74
     0
 91
        0
 64
     7
 65
   257
 75
     1
175
     1
 42
1.0
 92
        8
 66
   257
 43
1.0
 76
     1
 77
     6
 78
     2
 67
     7
 79
     3
170
     0
171
     0
290
     0
174
     0
 93
       13
 44
0.0
173
     0
291
     0
 45
0.0
1001
ACAD
1000
AcDbSavedByObjectVersion
1070
     0
  0
VISUALSTYLE
  5
42
102
{ACAD_REACTORS
330
2A
102
}
102
{ACAD_XDICTIONARY
360
2E0
102
}
330
2A
100
AcDbVisualStyle
  2
Shaded
 70
    27
 71
     2
 72
     2
 73
     1
 90
        2
 40
0.6
 41
30.0
 62
     5
 63
     7
421
 16777215
 74
     0
 91
        4
 64
     7
 65
   257
 75
     1
175
     1
 42
1.0
 92
        8
 66
   257
 43
1.0
 76
     1
 77
     6
 78
     2
 67
     8
425
  7895160
 79
     3
170
     0
171
     0
290
     0
174
     0
 93
        5
 44
0.0
173
     0
291
     0
 45
0.0
1001
ACAD
1000
AcDbSavedByObjectVersion
1070
     0
  0
VISUALSTYLE
  5
41
102
{ACAD_REACTORS
330
2A
102
}
102
{ACAD_XDICTIONARY
360
2DE
102
}
330
2A
100
AcDbVisualStyle
  2
Shaded with edges
 70
    26
 71
     2
 72
     2
 73
     1
 90
        2
 40
0.6
 41
30.0
 62
     5
 63
     7
421
 16777215
 74
     1
 91
       10
 64
     7
 65
   257
 75
     2
175
     1
 42
1.0
 92
        8
 66
   257
 43
1.0
 76
     1
 77
     6
 78
     2
 67
     7
 79
     3
170
     0
171
     0
290
     0
174
     0
 93
        5
 44
0.0
173
     0
291
     0
 45
0.0
1001
ACAD
1000
AcDbSavedByObjectVersion
1070
     0
  0
VISUALSTYLE
  5
3E
102
{ACAD_REACTORS
330
2A
102
}
102
{ACAD_XDICTIONARY
360
2D8
102
}
330
2A
100
AcDbVisualStyle
  2
Shades of Gray
 70
    23
 71
     2
 72
     2
 73
     3
 90
        0
 40
0.6
 41
30.0
 62
     5
 63
     7
421
 16777215
 74
     2
 91
        2
 64
     7
 65
     7
 75
     1
175
     1
 42
40.0
 92
        8
 66
     7
 43
1.0
 76
     1
 77
     6
 78
     2
 67
     7
 79
     3
170
     0
171
     0
290
     0
174
     0
 93
        1
 44
0.0
173
     0
291
     0
 45
0.0
1001
ACAD
1000
AcDbSavedByObjectVersion
1070
     0
  0
VISUALSTYLE
  5
3F
102
{ACAD_REACTORS
330
2A
102
}
102
{ACAD_XDICTIONARY
360
2DA
102
}
330
2A
100
AcDbVisualStyle
  2
Sketchy
 70
    24
 71
     1
 72
     2
 73
     2
 90
        0
 40
0.6
 41
30.0
 62
     5
 63
     7
421
 16777215
 74
     2
 91
        2
 64
     7
 65
     7
 75
     1
175
     1
 42
40.0
 92
       11
 66
     7
 43
1.0
 76
     1
 77
     6
 78
     2
 67
     7
 79
     6
170
     0
171
     0
290
     0
174
     0
 93
        1
 44
0.0
173
     0
291
     0
 45
0.0
1001
ACAD
1000
AcDbSavedByObjectVersion
1070
     0
  0
VISUALSTYLE
  5
37
102
{ACAD_REACTORS
330
2A
102
}
102
{ACAD_XDICTIONARY
360
2CA
102
}
330
2A
100
AcDbVisualStyle
  2
Thicken
 70
    13
 71
     2
 72
     2
 73
     0
 90
        0
 40
0.6
 41
30.0
 62
     5
 63
     7
421
 16777215
 74
     1
 91
        4
 64
     7
 65
   257
 75
     1
175
     1
 42
1.0
 92
       12
 66
     7
 43
1.0
 76
     1
 77
     6
 78
     2
 67
     7
 79
     5
170
     0
171
     0
290
     0
174
     0
 93
        1
 44
0.0
173
     0
291
     1
 45
0.0
1001
ACAD
1000
AcDbSavedByObjectVersion
1070
     0
  0
VISUALSTYLE
  5
30
102
{ACAD_REACTORS
330
2A
102
}
102
{ACAD_XDICTIONARY
360
2BC
102
}
330
2A
100
AcDbVisualStyle
  2
Wireframe
 70
     5
 71
     0
 72
     2
 73
     0
 90
        0
 40
0.6
 41
30.0
 62
     5
 63
     7
421
 16777215
 74
     1
 91
        4
 64
     7
 65
   257
 75
     1
175
     1
 42
1.0
 92
        0
 66
   257
 43
1.0
 76
     1
 77
     6
 78
     2
 67
     7
 79
     3
170
     0
171
     0
290
     0
174
     0
 93
        1
 44
0.0
173
     0
291
     0
 45
0.0
1001
ACAD
1000
AcDbSavedByObjectVersion
1070
     0
  0
VISUALSTYLE
  5
40
102
{ACAD_REACTORS
330
2A
102
}
102
{ACAD_XDICTIONARY
360
2DC
102
}
330
2A
100
AcDbVisualStyle
  2
X-Ray
 70
    25
 71
     2
 72
     2
 73
     1
 90
        1
 40
0.5
 41
30.0
 62
     5
 63
     7
421
 16777215
 74
     1
 91
        0
 64
     7
 65
   257
 75
     1
175
     1
 42
1.0
 92
        8
 66
     7
 43
1.0
 76
     1
 77
     6
 78
     2
 67
     7
 79
     3
170
     0
171
     0
290
     0
174
     0
 93
       13
 44
0.0
173
     0
291
     0
 45
0.0
1001
ACAD
1000
AcDbSavedByObjectVersion
1070
     0
  0
DICTIONARYVAR
  5
2AF
102
{ACAD_REACTORS
330
2AE
102
}
330
2AE
100
DictionaryVariables
280
     0
  1
1:1
  0
DICTIONARYVAR
  5
2F3
102
{ACAD_REACTORS
330
2AE
102
}
330
2AE
100
DictionaryVariables
280
     0
  1
3.500000
  0
DICTIONARYVAR
  5
2F4
102
{ACAD_REACTORS
330
2AE
102
}
330
2AE
100
DictionaryVariables
280
     0
  1
acadiso.lin
  0
DICTIONARYVAR
  5
2F0
102
{ACAD_REACTORS
330
2AE
102
}
330
2AE
100
DictionaryVariables
280
     0
  1
Standard
  0
DICTIONARYVAR
  5
2EF
102
{ACAD_REACTORS
330
2AE
102
}
330
2AE
100
DictionaryVariables
280
     0
  1
Standard
  0
DICTIONARYVAR
  5
2B0
102
{ACAD_REACTORS
330
2AE
102
}
330
2AE
100
DictionaryVariables
280
     0
  1
1
  0
DICTIONARYVAR
  5
2B1
102
{ACAD_REACTORS
330
2AE
102
}
330
2AE
100
DictionaryVariables
280
     0
  1
2
  0
DICTIONARY
  5
2E4
330
45
100
AcDbDictionary
280
     1
281
     1
  3
ACAD_XREC_ROUNDTRIP
360
2E5
  0
DICTIONARY
  5
2E2
330
44
100
AcDbDictionary
280
     1
281
     1
  3
ACAD_XREC_ROUNDTRIP
360
2E3
  0
DICTIONARY
  5
2E6
330
46
100
AcDbDictionary
280
     1
281
     1
  3
ACAD_XREC_ROUNDTRIP
360
2E7
  0
DICTIONARY
  5
2EC
330
6C
100
AcDbDictionary
280
     1
281
     1
  3
ACAD_XREC_ROUNDTRIP
360
2ED
  0
DICTIONARY
  5
2E8
330
6A
100
AcDbDictionary
280
     1
281
     1
  3
ACAD_ROUNDTRIP_2008_TABLESTYLE_CELLSTYLEMAP
360
2EA
  3
ACAD_XREC_ROUNDTRIP
360
2E9
  0
DICTIONARY
  5
2BA
330
2F
100
AcDbDictionary
280
     1
281
     1
  3
ACAD_XREC_ROUNDTRIP
360
2BB
  0
DICTIONARY
  5
2C0
330
32
100
AcDbDictionary
280
     1
281
     1
  3
ACAD_XREC_ROUNDTRIP
360
2C1
  0
DICTIONARY
  5
2C8
330
36
100
AcDbDictionary
280
     1
281
     1
  3
ACAD_XREC_ROUNDTRIP
360
2C9
  0
DICTIONARY
  5
2D0
330
3A
100
AcDbDictionary
280
     1
281
     1
  3
ACAD_XREC_ROUNDTRIP
360
2D1
  0
DICTIONARY
  5
2C4
330
34
100
AcDbDictionary
280
     1
281
     1
  3
ACAD_XREC_ROUNDTRIP
360
2C5
  0
DICTIONARY
  5
2C6
330
35
100
AcDbDictionary
280
     1
281
     1
  3
ACAD_XREC_ROUNDTRIP
360
2C7
  0
DICTIONARY
  5
2D6
330
3D
100
AcDbDictionary
280
     1
281
     1
  3
ACAD_XREC_ROUNDTRIP
360
2D7
  0
DICTIONARY
  5
2CE
330
39
100
AcDbDictionary
280
     1
281
     1
  3
ACAD_XREC_ROUNDTRIP
360
2CF
  0
DICTIONARY
  5
2B2
330
2B
100
AcDbDictionary
280
     1
281
     1
  3
ACAD_XREC_ROUNDTRIP
360
2B3
  0
DICTIONARY
  5
2B4
330
2C
100
AcDbDictionary
280
     1
281
     1
  3
ACAD_XREC_ROUNDTRIP
360
2B5
  0
DICTIONARY
  5
2B6
330
2D
100
AcDbDictionary
280
     1
281
     1
  3
ACAD_XREC_ROUNDTRIP
360
2B7
  0
DICTIONARY
  5
2B8
330
2E
100
AcDbDictionary
280
     1
281
     1
  3
ACAD_XREC_ROUNDTRIP
360
2B9
  0
DICTIONARY
  5
2BE
330
31
100
AcDbDictionary
280
     1
281
     1
  3
ACAD_XREC_ROUNDTRIP
360
2BF
  0
DICTIONARY
  5
2D2
330
3B
100
AcDbDictionary
280
     1
281
     1
  3
ACAD_XREC_ROUNDTRIP
360
2D3
  0
DICTIONARY
  5
2CC
330
38
100
AcDbDictionary
280
     1
281
     1
  3
ACAD_XREC_ROUNDTRIP
360
2CD
  0
DICTIONARY
  5
2D4
330
3C
100
AcDbDictionary
280
     1
281
     1
  3
ACAD_XREC_ROUNDTRIP
360
2D5
  0
DICTIONARY
  5
2C2
330
33
100
AcDbDictionary
280
     1
281
     1
  3
ACAD_XREC_ROUNDTRIP
360
2C3
  0
DICTIONARY
  5
2E0
330
42
100
AcDbDictionary
280
     1
281
     1
  3
ACAD_XREC_ROUNDTRIP
360
2E1
  0
DICTIONARY
  5
2DE
330
41
100
AcDbDictionary
280
     1
281
     1
  3
ACAD_XREC_ROUNDTRIP
360
2DF
  0
DICTIONARY
  5
2D8
330
3E
100
AcDbDictionary
280
     1
281
     1
  3
ACAD_XREC_ROUNDTRIP
360
2D9
  0
DICTIONARY
  5
2DA
330
3F
100
AcDbDictionary
280
     1
281
     1
  3
ACAD_XREC_ROUNDTRIP
360
2DB
  0
DICTIONARY
  5
2CA
330
37
100
AcDbDictionary
280
     1
281
     1
  3
ACAD_XREC_ROUNDTRIP
360
2CB
  0
DICTIONARY
  5
2BC
330
30
100
AcDbDictionary
280
     1
281
     1
  3
ACAD_XREC_ROUNDTRIP
360
2BD
  0
DICTIONARY
  5
2DC
330
40
100
AcDbDictionary
280
     1
281
     1
  3
ACAD_XREC_ROUNDTRIP
360
2DD
  0
XRECORD
  5
2E5
102
{ACAD_REACTORS
330
2E4
102
}
330
2E4
100
AcDbXrecord
280
     1
102
MATERIAL
148
0.0
149
0.0
149
0.0
 93
        0
 94
      127
282
     0
 72
     1
 77
     1
171
     1
175
     1
179
     1
273
     0
  0
XRECORD
  5
2E3
102
{ACAD_REACTORS
330
2E2
102
}
330
2E2
100
AcDbXrecord
280
     1
102
MATERIAL
148
0.0
149
0.0
149
0.0
 93
        0
 94
      127
282
     0
 72
     1
 77
     1
171
     1
175
     1
179
     1
273
     0
  0
XRECORD
  5
2E7
102
{ACAD_REACTORS
330
2E6
102
}
330
2E6
100
AcDbXrecord
280
     1
102
MATERIAL
148
0.0
149
0.0
149
0.0
 93
        0
 94
      127
282
     0
 72
     1
 77
     1
171
     1
175
     1
179
     1
273
     0
  0
XRECORD
  5
2ED
102
{ACAD_REACTORS
330
2EC
102
}
330
2EC
100
AcDbXrecord
280
     1
102
ACAD_ROUNDTRIP_2010_MLEADER_STYLE
  0
CELLSTYLEMAP
  5
2EA
102
{ACAD_REACTORS
330
2E8
102
}
330
2E8
100
AcDbCellStyleMap
 90
        3
300
CELLSTYLE
  1
TABLEFORMAT_BEGIN
 90
        5
170
     1
 91
        0
 92
    32768
 62
   257
 93
        1
300
CONTENTFORMAT
  1
CONTENTFORMAT_BEGIN
 90
        0
 91
        0
 92
        4
 93
        0
300

 40
0.0
140
1.0
 94
        5
 62
     0
340
11
144
6.0
309
CONTENTFORMAT_END
171
     1
301
MARGIN
  1
CELLMARGIN_BEGIN
 40
1.5
 40
1.5
 40
1.5
 40
1.5
 40
1.5
 40
1.5
309
CELLMARGIN_END
 94
        6
 95
        1
302
GRIDFORMAT
  1
GRIDFORMAT_BEGIN
 90
        0
 91
        1
 62
     0
 92
       -2
340
14
 93
        0
 40
0.045
309
GRIDFORMAT_END
 95
        2
302
GRIDFORMAT
  1
GRIDFORMAT_BEGIN
 90
        0
 91
        1
 62
     0
 92
       -2
340
14
 93
        0
 40
0.045
309
GRIDFORMAT_END
 95
        4
302
GRIDFORMAT
  1
GRIDFORMAT_BEGIN
 90
        0
 91
        1
 62
     0
 92
       -2
340
14
 93
        0
 40
0.045
309
GRIDFORMAT_END
 95
        8
302
GRIDFORMAT
  1
GRIDFORMAT_BEGIN
 90
        0
 91
        1
 62
     0
 92
       -2
340
14
 93
        0
 40
0.045
309
GRIDFORMAT_END
 95
       16
302
GRIDFORMAT
  1
GRIDFORMAT_BEGIN
 90
        0
 91
        1
 62
     0
 92
       -2
340
14
 93
        0
 40
0.045
309
GRIDFORMAT_END
 95
       32
302
GRIDFORMAT
  1
GRIDFORMAT_BEGIN
 90
        0
 91
        1
 62
     0
 92
       -2
340
14
 93
        0
 40
0.045
309
GRIDFORMAT_END
309
TABLEFORMAT_END
  1
CELLSTYLE_BEGIN
 90
        1
 91
        1
300
_TITLE
309
CELLSTYLE_END
300
CELLSTYLE
  1
TABLEFORMAT_BEGIN
 90
        5
170
     1
 91
        0
 92
        0
 62
   257
 93
        1
300
CONTENTFORMAT
  1
CONTENTFORMAT_BEGIN
 90
        0
 91
        0
 92
        4
 93
        0
300

 40
0.0
140
1.0
 94
        5
 62
     0
340
11
144
4.5
309
CONTENTFORMAT_END
171
     1
301
MARGIN
  1
CELLMARGIN_BEGIN
 40
1.5
 40
1.5
 40
1.5
 40
1.5
 40
1.5
 40
1.5
309
CELLMARGIN_END
 94
        6
 95
        1
302
GRIDFORMAT
  1
GRIDFORMAT_BEGIN
 90
        0
 91
        1
 62
     0
 92
       -2
340
14
 93
        0
 40
0.045
309
GRIDFORMAT_END
 95
        2
302
GRIDFORMAT
  1
GRIDFORMAT_BEGIN
 90
        0
 91
        1
 62
     0
 92
       -2
340
14
 93
        0
 40
0.045
309
GRIDFORMAT_END
 95
        4
302
GRIDFORMAT
  1
GRIDFORMAT_BEGIN
 90
        0
 91
        1
 62
     0
 92
       -2
340
14
 93
        0
 40
0.045
309
GRIDFORMAT_END
 95
        8
302
GRIDFORMAT
  1
GRIDFORMAT_BEGIN
 90
        0
 91
        1
 62
     0
 92
       -2
340
14
 93
        0
 40
0.045
309
GRIDFORMAT_END
 95
       16
302
GRIDFORMAT
  1
GRIDFORMAT_BEGIN
 90
        0
 91
        1
 62
     0
 92
       -2
340
14
 93
        0
 40
0.045
309
GRIDFORMAT_END
 95
       32
302
GRIDFORMAT
  1
GRIDFORMAT_BEGIN
 90
        0
 91
        1
 62
     0
 92
       -2
340
14
 93
        0
 40
0.045
309
GRIDFORMAT_END
309
TABLEFORMAT_END
  1
CELLSTYLE_BEGIN
 90
        2
 91
        1
300
_HEADER
309
CELLSTYLE_END
300
CELLSTYLE
  1
TABLEFORMAT_BEGIN
 90
        5
170
     1
 91
        0
 92
        0
 62
   257
 93
        1
300
CONTENTFORMAT
  1
CONTENTFORMAT_BEGIN
 90
        0
 91
        0
 92
        4
 93
        0
300

 40
0.0
140
1.0
 94
        2
 62
     0
340
11
144
4.5
309
CONTENTFORMAT_END
171
     1
301
MARGIN
  1
CELLMARGIN_BEGIN
 40
1.5
 40
1.5
 40
1.5
 40
1.5
 40
1.5
 40
1.5
309
CELLMARGIN_END
 94
        6
 95
        1
302
GRIDFORMAT
  1
GRIDFORMAT_BEGIN
 90
        0
 91
        1
 62
     0
 92
       -2
340
14
 93
        0
 40
0.045
309
GRIDFORMAT_END
 95
        2
302
GRIDFORMAT
  1
GRIDFORMAT_BEGIN
 90
        0
 91
        1
 62
     0
 92
       -2
340
14
 93
        0
 40
0.045
309
GRIDFORMAT_END
 95
        4
302
GRIDFORMAT
  1
GRIDFORMAT_BEGIN
 90
        0
 91
        1
 62
     0
 92
       -2
340
14
 93
        0
 40
0.045
309
GRIDFORMAT_END
 95
        8
302
GRIDFORMAT
  1
GRIDFORMAT_BEGIN
 90
        0
 91
        1
 62
     0
 92
       -2
340
14
 93
        0
 40
0.045
309
GRIDFORMAT_END
 95
       16
302
GRIDFORMAT
  1
GRIDFORMAT_BEGIN
 90
        0
 91
        1
 62
     0
 92
       -2
340
14
 93
        0
 40
0.045
309
GRIDFORMAT_END
 95
       32
302
GRIDFORMAT
  1
GRIDFORMAT_BEGIN
 90
        0
 91
        1
 62
     0
 92
       -2
340
14
 93
        0
 40
0.045
309
GRIDFORMAT_END
309
TABLEFORMAT_END
  1
CELLSTYLE_BEGIN
 90
        3
 91
        2
300
_DATA
309
CELLSTYLE_END
  0
XRECORD
  5
2E9
102
{ACAD_REACTORS
330
2E8
102
}
330
2E8
100
AcDbXrecord
280
     1
102
ACAD_ROUNDTRIP_PRE2007_TABLESTYLE
 90
        4
 91
        0
  1

 92
        4
 93
        0
  2

 94
        4
 95
        0
  3

  0
XRECORD
  5
2BB
102
{ACAD_REACTORS
330
2BA
102
}
330
2BA
100
AcDbXrecord
280
     1
102
RTVSPropertyOp0
 70
     1
102
RTVSPropertyOp1
 70
     1
102
RTVSPropertyOp2
 70
     1
102
RTVSPropertyOp3
 70
     1
102
RTVSPropertyOp4
 70
     1
102
RTVSPropertyOp5
 70
     1
102
RTVSPropertyOp6
 70
     1
102
RTVSPropertyOp7
 70
     1
102
RTVSPropertyOp8
 70
     1
102
RTVSPropertyOp9
 70
     1
102
RTVSPropertyOp10
 70
     1
102
RTVSPropertyOp11
 70
     1
102
RTVSPropertyOp12
 70
     1
102
RTVSPropertyOp13
 70
     1
102
RTVSPropertyOp14
 70
     1
102
RTVSPropertyOp15
 70
     1
102
RTVSPropertyOp16
 70
     1
102
RTVSPropertyOp17
 70
     1
102
RTVSPropertyOp18
 70
     1
102
RTVSPropertyOp19
 70
     1
102
RTVSPropertyOp20
 70
     1
102
RTVSPropertyOp21
 70
     1
102
RTVSPropertyOp22
 70
     1
102
RTVSPropertyOp23
 70
     1
102
RTVSPropertyOp24
 70
     1
102
RTVSPropertyOp25
 70
     1
102
RTVSPropertyOp26
 70
     1
102
RTVSPropertyOp27
 70
     1
102
RTVSPropertyOp28
 70
     1
102
RTVSPropertyOp29
 70
     1
102
RTVSPropertyOp30
 70
     1
102
RTVSPropertyOp31
 70
     1
102
RTVSPropertyOp32
 70
     1
102
RTVSPropertyOp33
 70
     1
102
RTVSPropertyOp34
 70
     1
102
RTVSPropertyOp35
 70
     1
102
RTVSPropertyOp36
 70
     1
102
RTVSPropertyOp37
 70
     1
102
RTVSPropertyOp38
 70
     1
102
RTVSPropertyOp39
 70
     1
102
RTVSPropertyOp40
 70
     1
102
RTVSPropertyOp41
 70
     1
102
RTVSPropertyOp42
 70
     1
102
RTVSPropertyOp43
 70
     1
102
RTVSPropertyOp44
 70
     1
102
RTVSPropertyOp45
 70
     1
102
RTVSPropertyOp46
 70
     1
102
RTVSPropertyOp47
 70
     1
102
RTVSPropertyOp48
 70
     1
102
RTVSPropertyOp49
 70
     1
102
RTVSPropertyOp50
 70
     1
102
RTVSPropertyOp51
 70
     0
102
RTVSPropertyOp52
 70
     0
102
RTVSPropertyOp53
 70
     1
102
RTVSPropertyOp54
 70
     1
102
RTVSPropertyOp55
 70
     1
102
RTVSPropertyOp56
 70
     1
102
RTVSPropertyOp57
 70
     1
102
RTVSPost2010Prop28
280
     1
102
RTVSPost2010PropOp28
 70
     1
102
RTVSPost2010Prop29
280
     1
102
RTVSPost2010PropOp29
 70
     1
102
RTVSPost2010Prop30
280
     0
102
RTVSPost2010PropOp30
 70
     1
102
RTVSPost2010Prop31
280
     0
102
RTVSPost2010PropOp31
 70
     1
102
RTVSPost2010Prop32
280
     0
102
RTVSPost2010PropOp32
 70
     1
102
RTVSPost2010Prop33
280
     0
102
RTVSPost2010PropOp33
 70
     1
102
RTVSPost2010Prop34
280
     0
102
RTVSPost2010PropOp34
 70
     1
102
RTVSPost2010Prop35
280
     0
102
RTVSPost2010PropOp35
 70
     1
102
RTVSPost2010Prop36
280
     0
102
RTVSPost2010PropOp36
 70
     1
102
RTVSPost2010Prop37
 90
       50
102
RTVSPost2010PropOp37
 70
     1
102
RTVSPost2010Prop38
140
0.0
102
RTVSPost2010PropOp38
 70
     1
102
RTVSPost2010Prop39
140
1.0
102
RTVSPost2010PropOp39
 70
     1
102
RTVSPost2010Prop40
 90
        0
102
RTVSPost2010PropOp40
 70
     1
102
RTVSPost2010Prop41ColorIndex
 90
       18
102
RTVSPost2010Prop41ColorRGB
 90
        0
102
RTVSPost2010PropOp41
 70
     1
102
RTVSPost2010Prop42
 90
       50
102
RTVSPost2010PropOp42
 70
     1
102
RTVSPost2010Prop43
 90
        3
102
RTVSPost2010PropOp43
 70
     1
102
RTVSPost2010Prop44ColorIndex
 90
        5
102
RTVSPost2010Prop44ColorRGB
 90
      255
102
RTVSPost2010PropOp44
 70
     1
102
RTVSPost2010Prop45
280
     0
102
RTVSPost2010PropOp45
 70
     1
102
RTVSPost2010Prop46
 90
       50
102
RTVSPost2010PropOp46
 70
     1
102
RTVSPost2010Prop47
 90
       50
102
RTVSPost2010PropOp47
 70
     1
102
RTVSPost2010Prop48
 90
       50
102
RTVSPost2010PropOp48
 70
     1
102
RTVSPost2010Prop49
280
     0
102
RTVSPost2010PropOp49
 70
     1
102
RTVSPost2010Prop50
 90
       50
102
RTVSPost2010PropOp50
 70
     1
102
RTVSPost2010Prop51ColorIndex
 90
      256
102
RTVSPost2010Prop51ColorRGB
 90
-16777216
102
RTVSPost2010PropOp51
 70
     0
102
RTVSPost2010Prop52
140
1.0
102
RTVSPost2010PropOp52
 70
     0
102
RTVSPost2010Prop53
 90
        2
102
RTVSPost2010PropOp53
 70
     1
102
RTVSPost2010Prop54
  1
strokes_ogs.tif
102
RTVSPost2010PropOp54
 70
     1
102
RTVSPost2010Prop55
280
     0
102
RTVSPost2010PropOp55
 70
     1
102
RTVSPost2010Prop56
140
1.0
102
RTVSPost2010PropOp56
 70
     1
102
RTVSPost2010Prop57
140
1.0
102
RTVSPost2010PropOp57
 70
     1
  0
XRECORD
  5
2C1
102
{ACAD_REACTORS
330
2C0
102
}
330
2C0
100
AcDbXrecord
280
     1
102
RTVSPropertyOp0
 70
     1
102
RTVSPropertyOp1
 70
     1
102
RTVSPropertyOp2
 70
     1
102
RTVSPropertyOp3
 70
     1
102
RTVSPropertyOp4
 70
     1
102
RTVSPropertyOp5
 70
     1
102
RTVSPropertyOp6
 70
     1
102
RTVSPropertyOp7
 70
     1
102
RTVSPropertyOp8
 70
     1
102
RTVSPropertyOp9
 70
     1
102
RTVSPropertyOp10
 70
     1
102
RTVSPropertyOp11
 70
     1
102
RTVSPropertyOp12
 70
     1
102
RTVSPropertyOp13
 70
     1
102
RTVSPropertyOp14
 70
     1
102
RTVSPropertyOp15
 70
     1
102
RTVSPropertyOp16
 70
     1
102
RTVSPropertyOp17
 70
     1
102
RTVSPropertyOp18
 70
     1
102
RTVSPropertyOp19
 70
     1
102
RTVSPropertyOp20
 70
     1
102
RTVSPropertyOp21
 70
     1
102
RTVSPropertyOp22
 70
     1
102
RTVSPropertyOp23
 70
     1
102
RTVSPropertyOp24
 70
     1
102
RTVSPropertyOp25
 70
     1
102
RTVSPropertyOp26
 70
     1
102
RTVSPropertyOp27
 70
     1
102
RTVSPropertyOp28
 70
     1
102
RTVSPropertyOp29
 70
     1
102
RTVSPropertyOp30
 70
     1
102
RTVSPropertyOp31
 70
     1
102
RTVSPropertyOp32
 70
     1
102
RTVSPropertyOp33
 70
     1
102
RTVSPropertyOp34
 70
     1
102
RTVSPropertyOp35
 70
     1
102
RTVSPropertyOp36
 70
     1
102
RTVSPropertyOp37
 70
     1
102
RTVSPropertyOp38
 70
     1
102
RTVSPropertyOp39
 70
     1
102
RTVSPropertyOp40
 70
     1
102
RTVSPropertyOp41
 70
     1
102
RTVSPropertyOp42
 70
     1
102
RTVSPropertyOp43
 70
     1
102
RTVSPropertyOp44
 70
     1
102
RTVSPropertyOp45
 70
     1
102
RTVSPropertyOp46
 70
     1
102
RTVSPropertyOp47
 70
     1
102
RTVSPropertyOp48
 70
     1
102
RTVSPropertyOp49
 70
     1
102
RTVSPropertyOp50
 70
     1
102
RTVSPropertyOp51
 70
     0
102
RTVSPropertyOp52
 70
     0
102
RTVSPropertyOp53
 70
     1
102
RTVSPropertyOp54
 70
     1
102
RTVSPropertyOp55
 70
     1
102
RTVSPropertyOp56
 70
     1
102
RTVSPropertyOp57
 70
     1
102
RTVSPost2010Prop28
280
     0
102
RTVSPost2010PropOp28
 70
     1
102
RTVSPost2010Prop29
280
     1
102
RTVSPost2010PropOp29
 70
     1
102
RTVSPost2010Prop30
280
     1
102
RTVSPost2010PropOp30
 70
     1
102
RTVSPost2010Prop31
280
     0
102
RTVSPost2010PropOp31
 70
     1
102
RTVSPost2010Prop32
280
     0
102
RTVSPost2010PropOp32
 70
     1
102
RTVSPost2010Prop33
280
     0
102
RTVSPost2010PropOp33
 70
     1
102
RTVSPost2010Prop34
280
     0
102
RTVSPost2010PropOp34
 70
     1
102
RTVSPost2010Prop35
280
     0
102
RTVSPost2010PropOp35
 70
     1
102
RTVSPost2010Prop36
280
     0
102
RTVSPost2010PropOp36
 70
     1
102
RTVSPost2010Prop37
 90
       50
102
RTVSPost2010PropOp37
 70
     1
102
RTVSPost2010Prop38
140
0.0
102
RTVSPost2010PropOp38
 70
     1
102
RTVSPost2010Prop39
140
1.0
102
RTVSPost2010PropOp39
 70
     1
102
RTVSPost2010Prop40
 90
        0
102
RTVSPost2010PropOp40
 70
     1
102
RTVSPost2010Prop41ColorIndex
 90
       18
102
RTVSPost2010Prop41ColorRGB
 90
        0
102
RTVSPost2010PropOp41
 70
     1
102
RTVSPost2010Prop42
 90
       50
102
RTVSPost2010PropOp42
 70
     1
102
RTVSPost2010Prop43
 90
        3
102
RTVSPost2010PropOp43
 70
     1
102
RTVSPost2010Prop44ColorIndex
 90
        5
102
RTVSPost2010Prop44ColorRGB
 90
      255
102
RTVSPost2010PropOp44
 70
     1
102
RTVSPost2010Prop45
280
     0
102
RTVSPost2010PropOp45
 70
     1
102
RTVSPost2010Prop46
 90
       50
102
RTVSPost2010PropOp46
 70
     1
102
RTVSPost2010Prop47
 90
       50
102
RTVSPost2010PropOp47
 70
     1
102
RTVSPost2010Prop48
 90
       50
102
RTVSPost2010PropOp48
 70
     1
102
RTVSPost2010Prop49
280
     0
102
RTVSPost2010PropOp49
 70
     1
102
RTVSPost2010Prop50
 90
       50
102
RTVSPost2010PropOp50
 70
     1
102
RTVSPost2010Prop51ColorIndex
 90
      256
102
RTVSPost2010Prop51ColorRGB
 90
-16777216
102
RTVSPost2010PropOp51
 70
     0
102
RTVSPost2010Prop52
140
1.0
102
RTVSPost2010PropOp52
 70
     0
102
RTVSPost2010Prop53
 90
        2
102
RTVSPost2010PropOp53
 70
     1
102
RTVSPost2010Prop54
  1
strokes_ogs.tif
102
RTVSPost2010PropOp54
 70
     1
102
RTVSPost2010Prop55
280
     0
102
RTVSPost2010PropOp55
 70
     1
102
RTVSPost2010Prop56
140
1.0
102
RTVSPost2010PropOp56
 70
     1
102
RTVSPost2010Prop57
140
1.0
102
RTVSPost2010PropOp57
 70
     1
  0
XRECORD
  5
2C9
102
{ACAD_REACTORS
330
2C8
102
}
330
2C8
100
AcDbXrecord
280
     1
102
RTVSPropertyOp0
 70
     1
102
RTVSPropertyOp1
 70
     1
102
RTVSPropertyOp2
 70
     1
102
RTVSPropertyOp3
 70
     1
102
RTVSPropertyOp4
 70
     1
102
RTVSPropertyOp5
 70
     1
102
RTVSPropertyOp6
 70
     1
102
RTVSPropertyOp7
 70
     1
102
RTVSPropertyOp8
 70
     1
102
RTVSPropertyOp9
 70
     1
102
RTVSPropertyOp10
 70
     1
102
RTVSPropertyOp11
 70
     1
102
RTVSPropertyOp12
 70
     1
102
RTVSPropertyOp13
 70
     1
102
RTVSPropertyOp14
 70
     1
102
RTVSPropertyOp15
 70
     1
102
RTVSPropertyOp16
 70
     1
102
RTVSPropertyOp17
 70
     1
102
RTVSPropertyOp18
 70
     1
102
RTVSPropertyOp19
 70
     1
102
RTVSPropertyOp20
 70
     1
102
RTVSPropertyOp21
 70
     1
102
RTVSPropertyOp22
 70
     1
102
RTVSPropertyOp23
 70
     1
102
RTVSPropertyOp24
 70
     1
102
RTVSPropertyOp25
 70
     1
102
RTVSPropertyOp26
 70
     1
102
RTVSPropertyOp27
 70
     1
102
RTVSPropertyOp28
 70
     1
102
RTVSPropertyOp29
 70
     1
102
RTVSPropertyOp30
 70
     1
102
RTVSPropertyOp31
 70
     1
102
RTVSPropertyOp32
 70
     1
102
RTVSPropertyOp33
 70
     1
102
RTVSPropertyOp34
 70
     1
102
RTVSPropertyOp35
 70
     1
102
RTVSPropertyOp36
 70
     1
102
RTVSPropertyOp37
 70
     1
102
RTVSPropertyOp38
 70
     1
102
RTVSPropertyOp39
 70
     1
102
RTVSPropertyOp40
 70
     1
102
RTVSPropertyOp41
 70
     1
102
RTVSPropertyOp42
 70
     1
102
RTVSPropertyOp43
 70
     1
102
RTVSPropertyOp44
 70
     1
102
RTVSPropertyOp45
 70
     1
102
RTVSPropertyOp46
 70
     1
102
RTVSPropertyOp47
 70
     1
102
RTVSPropertyOp48
 70
     1
102
RTVSPropertyOp49
 70
     1
102
RTVSPropertyOp50
 70
     1
102
RTVSPropertyOp51
 70
     0
102
RTVSPropertyOp52
 70
     0
102
RTVSPropertyOp53
 70
     1
102
RTVSPropertyOp54
 70
     1
102
RTVSPropertyOp55
 70
     1
102
RTVSPropertyOp56
 70
     1
102
RTVSPropertyOp57
 70
     1
102
RTVSPost2010Prop28
280
     0
102
RTVSPost2010PropOp28
 70
     1
102
RTVSPost2010Prop29
280
     1
102
RTVSPost2010PropOp29
 70
     1
102
RTVSPost2010Prop30
280
     1
102
RTVSPost2010PropOp30
 70
     1
102
RTVSPost2010Prop31
280
     0
102
RTVSPost2010PropOp31
 70
     1
102
RTVSPost2010Prop32
280
     0
102
RTVSPost2010PropOp32
 70
     1
102
RTVSPost2010Prop33
280
     0
102
RTVSPost2010PropOp33
 70
     1
102
RTVSPost2010Prop34
280
     0
102
RTVSPost2010PropOp34
 70
     1
102
RTVSPost2010Prop35
280
     0
102
RTVSPost2010PropOp35
 70
     1
102
RTVSPost2010Prop36
280
     0
102
RTVSPost2010PropOp36
 70
     1
102
RTVSPost2010Prop37
 90
       50
102
RTVSPost2010PropOp37
 70
     1
102
RTVSPost2010Prop38
140
0.0
102
RTVSPost2010PropOp38
 70
     1
102
RTVSPost2010Prop39
140
1.0
102
RTVSPost2010PropOp39
 70
     1
102
RTVSPost2010Prop40
 90
        0
102
RTVSPost2010PropOp40
 70
     1
102
RTVSPost2010Prop41ColorIndex
 90
       18
102
RTVSPost2010Prop41ColorRGB
 90
        0
102
RTVSPost2010PropOp41
 70
     1
102
RTVSPost2010Prop42
 90
       50
102
RTVSPost2010PropOp42
 70
     1
102
RTVSPost2010Prop43
 90
        3
102
RTVSPost2010PropOp43
 70
     1
102
RTVSPost2010Prop44ColorIndex
 90
        5
102
RTVSPost2010Prop44ColorRGB
 90
      255
102
RTVSPost2010PropOp44
 70
     1
102
RTVSPost2010Prop45
280
     0
102
RTVSPost2010PropOp45
 70
     1
102
RTVSPost2010Prop46
 90
       50
102
RTVSPost2010PropOp46
 70
     1
102
RTVSPost2010Prop47
 90
       50
102
RTVSPost2010PropOp47
 70
     1
102
RTVSPost2010Prop48
 90
       50
102
RTVSPost2010PropOp48
 70
     1
102
RTVSPost2010Prop49
280
     0
102
RTVSPost2010PropOp49
 70
     1
102
RTVSPost2010Prop50
 90
       50
102
RTVSPost2010PropOp50
 70
     1
102
RTVSPost2010Prop51ColorIndex
 90
      256
102
RTVSPost2010Prop51ColorRGB
 90
-16777216
102
RTVSPost2010PropOp51
 70
     0
102
RTVSPost2010Prop52
140
1.0
102
RTVSPost2010PropOp52
 70
     0
102
RTVSPost2010Prop53
 90
        2
102
RTVSPost2010PropOp53
 70
     1
102
RTVSPost2010Prop54
  1
strokes_ogs.tif
102
RTVSPost2010PropOp54
 70
     1
102
RTVSPost2010Prop55
280
     0
102
RTVSPost2010PropOp55
 70
     1
102
RTVSPost2010Prop56
140
1.0
102
RTVSPost2010PropOp56
 70
     1
102
RTVSPost2010Prop57
140
1.0
102
RTVSPost2010PropOp57
 70
     1
  0
XRECORD
  5
2D1
102
{ACAD_REACTORS
330
2D0
102
}
330
2D0
100
AcDbXrecord
280
     1
102
RTVSPropertyOp0
 70
     1
102
RTVSPropertyOp1
 70
     1
102
RTVSPropertyOp2
 70
     1
102
RTVSPropertyOp3
 70
     1
102
RTVSPropertyOp4
 70
     1
102
RTVSPropertyOp5
 70
     1
102
RTVSPropertyOp6
 70
     1
102
RTVSPropertyOp7
 70
     1
102
RTVSPropertyOp8
 70
     1
102
RTVSPropertyOp9
 70
     1
102
RTVSPropertyOp10
 70
     1
102
RTVSPropertyOp11
 70
     1
102
RTVSPropertyOp12
 70
     1
102
RTVSPropertyOp13
 70
     1
102
RTVSPropertyOp14
 70
     1
102
RTVSPropertyOp15
 70
     1
102
RTVSPropertyOp16
 70
     1
102
RTVSPropertyOp17
 70
     1
102
RTVSPropertyOp18
 70
     1
102
RTVSPropertyOp19
 70
     1
102
RTVSPropertyOp20
 70
     1
102
RTVSPropertyOp21
 70
     1
102
RTVSPropertyOp22
 70
     1
102
RTVSPropertyOp23
 70
     1
102
RTVSPropertyOp24
 70
     1
102
RTVSPropertyOp25
 70
     1
102
RTVSPropertyOp26
 70
     1
102
RTVSPropertyOp27
 70
     1
102
RTVSPropertyOp28
 70
     1
102
RTVSPropertyOp29
 70
     1
102
RTVSPropertyOp30
 70
     1
102
RTVSPropertyOp31
 70
     1
102
RTVSPropertyOp32
 70
     1
102
RTVSPropertyOp33
 70
     1
102
RTVSPropertyOp34
 70
     1
102
RTVSPropertyOp35
 70
     1
102
RTVSPropertyOp36
 70
     1
102
RTVSPropertyOp37
 70
     1
102
RTVSPropertyOp38
 70
     1
102
RTVSPropertyOp39
 70
     1
102
RTVSPropertyOp40
 70
     1
102
RTVSPropertyOp41
 70
     1
102
RTVSPropertyOp42
 70
     1
102
RTVSPropertyOp43
 70
     1
102
RTVSPropertyOp44
 70
     1
102
RTVSPropertyOp45
 70
     1
102
RTVSPropertyOp46
 70
     1
102
RTVSPropertyOp47
 70
     1
102
RTVSPropertyOp48
 70
     1
102
RTVSPropertyOp49
 70
     1
102
RTVSPropertyOp50
 70
     1
102
RTVSPropertyOp51
 70
     0
102
RTVSPropertyOp52
 70
     0
102
RTVSPropertyOp53
 70
     1
102
RTVSPropertyOp54
 70
     1
102
RTVSPropertyOp55
 70
     1
102
RTVSPropertyOp56
 70
     1
102
RTVSPropertyOp57
 70
     1
102
RTVSPost2010Prop28
280
     0
102
RTVSPost2010PropOp28
 70
     1
102
RTVSPost2010Prop29
280
     1
102
RTVSPost2010PropOp29
 70
     1
102
RTVSPost2010Prop30
280
     1
102
RTVSPost2010PropOp30
 70
     1
102
RTVSPost2010Prop31
280
     0
102
RTVSPost2010PropOp31
 70
     1
102
RTVSPost2010Prop32
280
     0
102
RTVSPost2010PropOp32
 70
     1
102
RTVSPost2010Prop33
280
     0
102
RTVSPost2010PropOp33
 70
     1
102
RTVSPost2010Prop34
280
     0
102
RTVSPost2010PropOp34
 70
     1
102
RTVSPost2010Prop35
280
     0
102
RTVSPost2010PropOp35
 70
     1
102
RTVSPost2010Prop36
280
     0
102
RTVSPost2010PropOp36
 70
     1
102
RTVSPost2010Prop37
 90
       50
102
RTVSPost2010PropOp37
 70
     1
102
RTVSPost2010Prop38
140
0.0
102
RTVSPost2010PropOp38
 70
     1
102
RTVSPost2010Prop39
140
1.0
102
RTVSPost2010PropOp39
 70
     1
102
RTVSPost2010Prop40
 90
        0
102
RTVSPost2010PropOp40
 70
     1
102
RTVSPost2010Prop41ColorIndex
 90
       18
102
RTVSPost2010Prop41ColorRGB
 90
        0
102
RTVSPost2010PropOp41
 70
     1
102
RTVSPost2010Prop42
 90
       50
102
RTVSPost2010PropOp42
 70
     1
102
RTVSPost2010Prop43
 90
        3
102
RTVSPost2010PropOp43
 70
     1
102
RTVSPost2010Prop44ColorIndex
 90
        5
102
RTVSPost2010Prop44ColorRGB
 90
      255
102
RTVSPost2010PropOp44
 70
     1
102
RTVSPost2010Prop45
280
     0
102
RTVSPost2010PropOp45
 70
     1
102
RTVSPost2010Prop46
 90
       50
102
RTVSPost2010PropOp46
 70
     1
102
RTVSPost2010Prop47
 90
       50
102
RTVSPost2010PropOp47
 70
     1
102
RTVSPost2010Prop48
 90
       50
102
RTVSPost2010PropOp48
 70
     1
102
RTVSPost2010Prop49
280
     0
102
RTVSPost2010PropOp49
 70
     1
102
RTVSPost2010Prop50
 90
       50
102
RTVSPost2010PropOp50
 70
     1
102
RTVSPost2010Prop51ColorIndex
 90
      256
102
RTVSPost2010Prop51ColorRGB
 90
-16777216
102
RTVSPost2010PropOp51
 70
     0
102
RTVSPost2010Prop52
140
1.0
102
RTVSPost2010PropOp52
 70
     0
102
RTVSPost2010Prop53
 90
        2
102
RTVSPost2010PropOp53
 70
     1
102
RTVSPost2010Prop54
  1
strokes_ogs.tif
102
RTVSPost2010PropOp54
 70
     1
102
RTVSPost2010Prop55
280
     0
102
RTVSPost2010PropOp55
 70
     1
102
RTVSPost2010Prop56
140
1.0
102
RTVSPost2010PropOp56
 70
     1
102
RTVSPost2010Prop57
140
1.0
102
RTVSPost2010PropOp57
 70
     1
  0
XRECORD
  5
2C5
102
{ACAD_REACTORS
330
2C4
102
}
330
2C4
100
AcDbXrecord
280
     1
102
RTVSPropertyOp0
 70
     1
102
RTVSPropertyOp1
 70
     1
102
RTVSPropertyOp2
 70
     1
102
RTVSPropertyOp3
 70
     1
102
RTVSPropertyOp4
 70
     1
102
RTVSPropertyOp5
 70
     1
102
RTVSPropertyOp6
 70
     1
102
RTVSPropertyOp7
 70
     1
102
RTVSPropertyOp8
 70
     1
102
RTVSPropertyOp9
 70
     1
102
RTVSPropertyOp10
 70
     1
102
RTVSPropertyOp11
 70
     1
102
RTVSPropertyOp12
 70
     1
102
RTVSPropertyOp13
 70
     1
102
RTVSPropertyOp14
 70
     1
102
RTVSPropertyOp15
 70
     1
102
RTVSPropertyOp16
 70
     1
102
RTVSPropertyOp17
 70
     1
102
RTVSPropertyOp18
 70
     1
102
RTVSPropertyOp19
 70
     1
102
RTVSPropertyOp20
 70
     1
102
RTVSPropertyOp21
 70
     1
102
RTVSPropertyOp22
 70
     1
102
RTVSPropertyOp23
 70
     1
102
RTVSPropertyOp24
 70
     1
102
RTVSPropertyOp25
 70
     1
102
RTVSPropertyOp26
 70
     1
102
RTVSPropertyOp27
 70
     1
102
RTVSPropertyOp28
 70
     1
102
RTVSPropertyOp29
 70
     1
102
RTVSPropertyOp30
 70
     1
102
RTVSPropertyOp31
 70
     1
102
RTVSPropertyOp32
 70
     1
102
RTVSPropertyOp33
 70
     1
102
RTVSPropertyOp34
 70
     1
102
RTVSPropertyOp35
 70
     1
102
RTVSPropertyOp36
 70
     1
102
RTVSPropertyOp37
 70
     1
102
RTVSPropertyOp38
 70
     1
102
RTVSPropertyOp39
 70
     1
102
RTVSPropertyOp40
 70
     1
102
RTVSPropertyOp41
 70
     1
102
RTVSPropertyOp42
 70
     1
102
RTVSPropertyOp43
 70
     1
102
RTVSPropertyOp44
 70
     1
102
RTVSPropertyOp45
 70
     1
102
RTVSPropertyOp46
 70
     1
102
RTVSPropertyOp47
 70
     1
102
RTVSPropertyOp48
 70
     1
102
RTVSPropertyOp49
 70
     1
102
RTVSPropertyOp50
 70
     1
102
RTVSPropertyOp51
 70
     0
102
RTVSPropertyOp52
 70
     0
102
RTVSPropertyOp53
 70
     1
102
RTVSPropertyOp54
 70
     1
102
RTVSPropertyOp55
 70
     1
102
RTVSPropertyOp56
 70
     1
102
RTVSPropertyOp57
 70
     1
102
RTVSPost2010Prop28
280
     0
102
RTVSPost2010PropOp28
 70
     1
102
RTVSPost2010Prop29
280
     1
102
RTVSPost2010PropOp29
 70
     1
102
RTVSPost2010Prop30
280
     1
102
RTVSPost2010PropOp30
 70
     1
102
RTVSPost2010Prop31
280
     0
102
RTVSPost2010PropOp31
 70
     1
102
RTVSPost2010Prop32
280
     0
102
RTVSPost2010PropOp32
 70
     1
102
RTVSPost2010Prop33
280
     0
102
RTVSPost2010PropOp33
 70
     1
102
RTVSPost2010Prop34
280
     0
102
RTVSPost2010PropOp34
 70
     1
102
RTVSPost2010Prop35
280
     0
102
RTVSPost2010PropOp35
 70
     1
102
RTVSPost2010Prop36
280
     0
102
RTVSPost2010PropOp36
 70
     1
102
RTVSPost2010Prop37
 90
       50
102
RTVSPost2010PropOp37
 70
     1
102
RTVSPost2010Prop38
140
0.0
102
RTVSPost2010PropOp38
 70
     1
102
RTVSPost2010Prop39
140
1.0
102
RTVSPost2010PropOp39
 70
     1
102
RTVSPost2010Prop40
 90
        0
102
RTVSPost2010PropOp40
 70
     1
102
RTVSPost2010Prop41ColorIndex
 90
       18
102
RTVSPost2010Prop41ColorRGB
 90
        0
102
RTVSPost2010PropOp41
 70
     1
102
RTVSPost2010Prop42
 90
       50
102
RTVSPost2010PropOp42
 70
     1
102
RTVSPost2010Prop43
 90
        3
102
RTVSPost2010PropOp43
 70
     1
102
RTVSPost2010Prop44ColorIndex
 90
        5
102
RTVSPost2010Prop44ColorRGB
 90
      255
102
RTVSPost2010PropOp44
 70
     1
102
RTVSPost2010Prop45
280
     0
102
RTVSPost2010PropOp45
 70
     1
102
RTVSPost2010Prop46
 90
       50
102
RTVSPost2010PropOp46
 70
     1
102
RTVSPost2010Prop47
 90
       50
102
RTVSPost2010PropOp47
 70
     1
102
RTVSPost2010Prop48
 90
       50
102
RTVSPost2010PropOp48
 70
     1
102
RTVSPost2010Prop49
280
     0
102
RTVSPost2010PropOp49
 70
     1
102
RTVSPost2010Prop50
 90
       50
102
RTVSPost2010PropOp50
 70
     1
102
RTVSPost2010Prop51ColorIndex
 90
      256
102
RTVSPost2010Prop51ColorRGB
 90
-16777216
102
RTVSPost2010PropOp51
 70
     0
102
RTVSPost2010Prop52
140
1.0
102
RTVSPost2010PropOp52
 70
     0
102
RTVSPost2010Prop53
 90
        2
102
RTVSPost2010PropOp53
 70
     1
102
RTVSPost2010Prop54
  1
strokes_ogs.tif
102
RTVSPost2010PropOp54
 70
     1
102
RTVSPost2010Prop55
280
     0
102
RTVSPost2010PropOp55
 70
     1
102
RTVSPost2010Prop56
140
1.0
102
RTVSPost2010PropOp56
 70
     1
102
RTVSPost2010Prop57
140
1.0
102
RTVSPost2010PropOp57
 70
     1
  0
XRECORD
  5
2C7
102
{ACAD_REACTORS
330
2C6
102
}
330
2C6
100
AcDbXrecord
280
     1
102
RTVSPropertyOp0
 70
     1
102
RTVSPropertyOp1
 70
     1
102
RTVSPropertyOp2
 70
     1
102
RTVSPropertyOp3
 70
     1
102
RTVSPropertyOp4
 70
     1
102
RTVSPropertyOp5
 70
     1
102
RTVSPropertyOp6
 70
     1
102
RTVSPropertyOp7
 70
     1
102
RTVSPropertyOp8
 70
     1
102
RTVSPropertyOp9
 70
     1
102
RTVSPropertyOp10
 70
     1
102
RTVSPropertyOp11
 70
     1
102
RTVSPropertyOp12
 70
     1
102
RTVSPropertyOp13
 70
     1
102
RTVSPropertyOp14
 70
     1
102
RTVSPropertyOp15
 70
     1
102
RTVSPropertyOp16
 70
     1
102
RTVSPropertyOp17
 70
     1
102
RTVSPropertyOp18
 70
     1
102
RTVSPropertyOp19
 70
     1
102
RTVSPropertyOp20
 70
     1
102
RTVSPropertyOp21
 70
     1
102
RTVSPropertyOp22
 70
     1
102
RTVSPropertyOp23
 70
     1
102
RTVSPropertyOp24
 70
     1
102
RTVSPropertyOp25
 70
     1
102
RTVSPropertyOp26
 70
     1
102
RTVSPropertyOp27
 70
     1
102
RTVSPropertyOp28
 70
     1
102
RTVSPropertyOp29
 70
     1
102
RTVSPropertyOp30
 70
     1
102
RTVSPropertyOp31
 70
     1
102
RTVSPropertyOp32
 70
     1
102
RTVSPropertyOp33
 70
     1
102
RTVSPropertyOp34
 70
     1
102
RTVSPropertyOp35
 70
     1
102
RTVSPropertyOp36
 70
     1
102
RTVSPropertyOp37
 70
     1
102
RTVSPropertyOp38
 70
     1
102
RTVSPropertyOp39
 70
     1
102
RTVSPropertyOp40
 70
     1
102
RTVSPropertyOp41
 70
     1
102
RTVSPropertyOp42
 70
     1
102
RTVSPropertyOp43
 70
     1
102
RTVSPropertyOp44
 70
     1
102
RTVSPropertyOp45
 70
     1
102
RTVSPropertyOp46
 70
     1
102
RTVSPropertyOp47
 70
     1
102
RTVSPropertyOp48
 70
     1
102
RTVSPropertyOp49
 70
     1
102
RTVSPropertyOp50
 70
     1
102
RTVSPropertyOp51
 70
     0
102
RTVSPropertyOp52
 70
     0
102
RTVSPropertyOp53
 70
     1
102
RTVSPropertyOp54
 70
     1
102
RTVSPropertyOp55
 70
     1
102
RTVSPropertyOp56
 70
     1
102
RTVSPropertyOp57
 70
     1
102
RTVSPost2010Prop28
280
     0
102
RTVSPost2010PropOp28
 70
     1
102
RTVSPost2010Prop29
280
     1
102
RTVSPost2010PropOp29
 70
     1
102
RTVSPost2010Prop30
280
     1
102
RTVSPost2010PropOp30
 70
     1
102
RTVSPost2010Prop31
280
     0
102
RTVSPost2010PropOp31
 70
     1
102
RTVSPost2010Prop32
280
     0
102
RTVSPost2010PropOp32
 70
     1
102
RTVSPost2010Prop33
280
     0
102
RTVSPost2010PropOp33
 70
     1
102
RTVSPost2010Prop34
280
     0
102
RTVSPost2010PropOp34
 70
     1
102
RTVSPost2010Prop35
280
     0
102
RTVSPost2010PropOp35
 70
     1
102
RTVSPost2010Prop36
280
     0
102
RTVSPost2010PropOp36
 70
     1
102
RTVSPost2010Prop37
 90
       50
102
RTVSPost2010PropOp37
 70
     1
102
RTVSPost2010Prop38
140
0.0
102
RTVSPost2010PropOp38
 70
     1
102
RTVSPost2010Prop39
140
1.0
102
RTVSPost2010PropOp39
 70
     1
102
RTVSPost2010Prop40
 90
        0
102
RTVSPost2010PropOp40
 70
     1
102
RTVSPost2010Prop41ColorIndex
 90
       18
102
RTVSPost2010Prop41ColorRGB
 90
        0
102
RTVSPost2010PropOp41
 70
     1
102
RTVSPost2010Prop42
 90
       50
102
RTVSPost2010PropOp42
 70
     1
102
RTVSPost2010Prop43
 90
        3
102
RTVSPost2010PropOp43
 70
     1
102
RTVSPost2010Prop44ColorIndex
 90
        5
102
RTVSPost2010Prop44ColorRGB
 90
      255
102
RTVSPost2010PropOp44
 70
     1
102
RTVSPost2010Prop45
280
     0
102
RTVSPost2010PropOp45
 70
     1
102
RTVSPost2010Prop46
 90
       50
102
RTVSPost2010PropOp46
 70
     1
102
RTVSPost2010Prop47
 90
       50
102
RTVSPost2010PropOp47
 70
     1
102
RTVSPost2010Prop48
 90
       50
102
RTVSPost2010PropOp48
 70
     1
102
RTVSPost2010Prop49
280
     0
102
RTVSPost2010PropOp49
 70
     1
102
RTVSPost2010Prop50
 90
       50
102
RTVSPost2010PropOp50
 70
     1
102
RTVSPost2010Prop51ColorIndex
 90
      256
102
RTVSPost2010Prop51ColorRGB
 90
-16777216
102
RTVSPost2010PropOp51
 70
     0
102
RTVSPost2010Prop52
140
1.0
102
RTVSPost2010PropOp52
 70
     0
102
RTVSPost2010Prop53
 90
        2
102
RTVSPost2010PropOp53
 70
     1
102
RTVSPost2010Prop54
  1
strokes_ogs.tif
102
RTVSPost2010PropOp54
 70
     1
102
RTVSPost2010Prop55
280
     0
102
RTVSPost2010PropOp55
 70
     1
102
RTVSPost2010Prop56
140
1.0
102
RTVSPost2010PropOp56
 70
     1
102
RTVSPost2010Prop57
140
1.0
102
RTVSPost2010PropOp57
 70
     1
  0
XRECORD
  5
2D7
102
{ACAD_REACTORS
330
2D6
102
}
330
2D6
100
AcDbXrecord
280
     1
102
RTVSPropertyOp0
 70
     0
102
RTVSPropertyOp1
 70
     0
102
RTVSPropertyOp2
 70
     0
102
RTVSPropertyOp3
 70
     0
102
RTVSPropertyOp4
 70
     0
102
RTVSPropertyOp5
 70
     0
102
RTVSPropertyOp6
 70
     0
102
RTVSPropertyOp7
 70
     0
102
RTVSPropertyOp8
 70
     0
102
RTVSPropertyOp9
 70
     0
102
RTVSPropertyOp10
 70
     0
102
RTVSPropertyOp11
 70
     0
102
RTVSPropertyOp12
 70
     0
102
RTVSPropertyOp13
 70
     0
102
RTVSPropertyOp14
 70
     2
102
RTVSPropertyOp15
 70
     0
102
RTVSPropertyOp16
 70
     0
102
RTVSPropertyOp17
 70
     0
102
RTVSPropertyOp18
 70
     0
102
RTVSPropertyOp19
 70
     0
102
RTVSPropertyOp20
 70
     0
102
RTVSPropertyOp21
 70
     0
102
RTVSPropertyOp22
 70
     0
102
RTVSPropertyOp23
 70
     0
102
RTVSPropertyOp24
 70
     0
102
RTVSPropertyOp25
 70
     0
102
RTVSPropertyOp26
 70
     0
102
RTVSPropertyOp27
 70
     0
102
RTVSPropertyOp28
 70
     0
102
RTVSPropertyOp29
 70
     0
102
RTVSPropertyOp30
 70
     0
102
RTVSPropertyOp31
 70
     0
102
RTVSPropertyOp32
 70
     0
102
RTVSPropertyOp33
 70
     0
102
RTVSPropertyOp34
 70
     0
102
RTVSPropertyOp35
 70
     0
102
RTVSPropertyOp36
 70
     0
102
RTVSPropertyOp37
 70
     0
102
RTVSPropertyOp38
 70
     0
102
RTVSPropertyOp39
 70
     0
102
RTVSPropertyOp40
 70
     0
102
RTVSPropertyOp41
 70
     0
102
RTVSPropertyOp42
 70
     0
102
RTVSPropertyOp43
 70
     0
102
RTVSPropertyOp44
 70
     0
102
RTVSPropertyOp45
 70
     0
102
RTVSPropertyOp46
 70
     0
102
RTVSPropertyOp47
 70
     0
102
RTVSPropertyOp48
 70
     0
102
RTVSPropertyOp49
 70
     0
102
RTVSPropertyOp50
 70
     0
102
RTVSPropertyOp51
 70
     0
102
RTVSPropertyOp52
 70
     0
102
RTVSPropertyOp53
 70
     0
102
RTVSPropertyOp54
 70
     0
102
RTVSPropertyOp55
 70
     0
102
RTVSPropertyOp56
 70
     0
102
RTVSPropertyOp57
 70
     0
102
RTVSPost2010Prop28
280
     0
102
RTVSPost2010PropOp28
 70
     0
102
RTVSPost2010Prop29
280
     1
102
RTVSPost2010PropOp29
 70
     0
102
RTVSPost2010Prop30
280
     1
102
RTVSPost2010PropOp30
 70
     0
102
RTVSPost2010Prop31
280
     0
102
RTVSPost2010PropOp31
 70
     0
102
RTVSPost2010Prop32
280
     0
102
RTVSPost2010PropOp32
 70
     0
102
RTVSPost2010Prop33
280
     0
102
RTVSPost2010PropOp33
 70
     0
102
RTVSPost2010Prop34
280
     0
102
RTVSPost2010PropOp34
 70
     0
102
RTVSPost2010Prop35
280
     0
102
RTVSPost2010PropOp35
 70
     0
102
RTVSPost2010Prop36
280
     0
102
RTVSPost2010PropOp36
 70
     0
102
RTVSPost2010Prop37
 90
       50
102
RTVSPost2010PropOp37
 70
     0
102
RTVSPost2010Prop38
140
0.0
102
RTVSPost2010PropOp38
 70
     0
102
RTVSPost2010Prop39
140
1.0
102
RTVSPost2010PropOp39
 70
     0
102
RTVSPost2010Prop40
 90
        0
102
RTVSPost2010PropOp40
 70
     0
102
RTVSPost2010Prop41ColorIndex
 90
       18
102
RTVSPost2010Prop41ColorRGB
 90
        0
102
RTVSPost2010PropOp41
 70
     0
102
RTVSPost2010Prop42
 90
       50
102
RTVSPost2010PropOp42
 70
     0
102
RTVSPost2010Prop43
 90
        3
102
RTVSPost2010PropOp43
 70
     0
102
RTVSPost2010Prop44ColorIndex
 90
        5
102
RTVSPost2010Prop44ColorRGB
 90
      255
102
RTVSPost2010PropOp44
 70
     0
102
RTVSPost2010Prop45
280
     0
102
RTVSPost2010PropOp45
 70
     0
102
RTVSPost2010Prop46
 90
       50
102
RTVSPost2010PropOp46
 70
     0
102
RTVSPost2010Prop47
 90
       50
102
RTVSPost2010PropOp47
 70
     0
102
RTVSPost2010Prop48
 90
       50
102
RTVSPost2010PropOp48
 70
     0
102
RTVSPost2010Prop49
280
     0
102
RTVSPost2010PropOp49
 70
     0
102
RTVSPost2010Prop50
 90
       50
102
RTVSPost2010PropOp50
 70
     0
102
RTVSPost2010Prop51ColorIndex
 90
      256
102
RTVSPost2010Prop51ColorRGB
 90
-16777216
102
RTVSPost2010PropOp51
 70
     0
102
RTVSPost2010Prop52
140
1.0
102
RTVSPost2010PropOp52
 70
     0
102
RTVSPost2010Prop53
 90
        2
102
RTVSPost2010PropOp53
 70
     0
102
RTVSPost2010Prop54
  1
strokes_ogs.tif
102
RTVSPost2010PropOp54
 70
     0
102
RTVSPost2010Prop55
280
     0
102
RTVSPost2010PropOp55
 70
     0
102
RTVSPost2010Prop56
140
1.0
102
RTVSPost2010PropOp56
 70
     0
102
RTVSPost2010Prop57
140
1.0
102
RTVSPost2010PropOp57
 70
     0
  0
XRECORD
  5
2CF
102
{ACAD_REACTORS
330
2CE
102
}
330
2CE
100
AcDbXrecord
280
     1
102
RTVSPropertyOp0
 70
     1
102
RTVSPropertyOp1
 70
     1
102
RTVSPropertyOp2
 70
     1
102
RTVSPropertyOp3
 70
     1
102
RTVSPropertyOp4
 70
     1
102
RTVSPropertyOp5
 70
     1
102
RTVSPropertyOp6
 70
     1
102
RTVSPropertyOp7
 70
     1
102
RTVSPropertyOp8
 70
     1
102
RTVSPropertyOp9
 70
     1
102
RTVSPropertyOp10
 70
     1
102
RTVSPropertyOp11
 70
     1
102
RTVSPropertyOp12
 70
     1
102
RTVSPropertyOp13
 70
     1
102
RTVSPropertyOp14
 70
     1
102
RTVSPropertyOp15
 70
     1
102
RTVSPropertyOp16
 70
     1
102
RTVSPropertyOp17
 70
     1
102
RTVSPropertyOp18
 70
     1
102
RTVSPropertyOp19
 70
     1
102
RTVSPropertyOp20
 70
     1
102
RTVSPropertyOp21
 70
     1
102
RTVSPropertyOp22
 70
     1
102
RTVSPropertyOp23
 70
     1
102
RTVSPropertyOp24
 70
     1
102
RTVSPropertyOp25
 70
     1
102
RTVSPropertyOp26
 70
     1
102
RTVSPropertyOp27
 70
     1
102
RTVSPropertyOp28
 70
     1
102
RTVSPropertyOp29
 70
     1
102
RTVSPropertyOp30
 70
     1
102
RTVSPropertyOp31
 70
     1
102
RTVSPropertyOp32
 70
     1
102
RTVSPropertyOp33
 70
     1
102
RTVSPropertyOp34
 70
     1
102
RTVSPropertyOp35
 70
     1
102
RTVSPropertyOp36
 70
     1
102
RTVSPropertyOp37
 70
     1
102
RTVSPropertyOp38
 70
     1
102
RTVSPropertyOp39
 70
     1
102
RTVSPropertyOp40
 70
     1
102
RTVSPropertyOp41
 70
     1
102
RTVSPropertyOp42
 70
     1
102
RTVSPropertyOp43
 70
     1
102
RTVSPropertyOp44
 70
     1
102
RTVSPropertyOp45
 70
     1
102
RTVSPropertyOp46
 70
     1
102
RTVSPropertyOp47
 70
     1
102
RTVSPropertyOp48
 70
     1
102
RTVSPropertyOp49
 70
     1
102
RTVSPropertyOp50
 70
     1
102
RTVSPropertyOp51
 70
     0
102
RTVSPropertyOp52
 70
     0
102
RTVSPropertyOp53
 70
     1
102
RTVSPropertyOp54
 70
     1
102
RTVSPropertyOp55
 70
     1
102
RTVSPropertyOp56
 70
     1
102
RTVSPropertyOp57
 70
     1
102
RTVSPost2010Prop28
280
     0
102
RTVSPost2010PropOp28
 70
     1
102
RTVSPost2010Prop29
280
     1
102
RTVSPost2010PropOp29
 70
     1
102
RTVSPost2010Prop30
280
     1
102
RTVSPost2010PropOp30
 70
     1
102
RTVSPost2010Prop31
280
     0
102
RTVSPost2010PropOp31
 70
     1
102
RTVSPost2010Prop32
280
     0
102
RTVSPost2010PropOp32
 70
     1
102
RTVSPost2010Prop33
280
     0
102
RTVSPost2010PropOp33
 70
     1
102
RTVSPost2010Prop34
280
     0
102
RTVSPost2010PropOp34
 70
     1
102
RTVSPost2010Prop35
280
     0
102
RTVSPost2010PropOp35
 70
     1
102
RTVSPost2010Prop36
280
     0
102
RTVSPost2010PropOp36
 70
     1
102
RTVSPost2010Prop37
 90
       50
102
RTVSPost2010PropOp37
 70
     1
102
RTVSPost2010Prop38
140
0.0
102
RTVSPost2010PropOp38
 70
     1
102
RTVSPost2010Prop39
140
1.0
102
RTVSPost2010PropOp39
 70
     1
102
RTVSPost2010Prop40
 90
        0
102
RTVSPost2010PropOp40
 70
     1
102
RTVSPost2010Prop41ColorIndex
 90
       18
102
RTVSPost2010Prop41ColorRGB
 90
        0
102
RTVSPost2010PropOp41
 70
     1
102
RTVSPost2010Prop42
 90
       50
102
RTVSPost2010PropOp42
 70
     1
102
RTVSPost2010Prop43
 90
        3
102
RTVSPost2010PropOp43
 70
     1
102
RTVSPost2010Prop44ColorIndex
 90
        5
102
RTVSPost2010Prop44ColorRGB
 90
      255
102
RTVSPost2010PropOp44
 70
     1
102
RTVSPost2010Prop45
280
     0
102
RTVSPost2010PropOp45
 70
     1
102
RTVSPost2010Prop46
 90
       50
102
RTVSPost2010PropOp46
 70
     1
102
RTVSPost2010Prop47
 90
       50
102
RTVSPost2010PropOp47
 70
     1
102
RTVSPost2010Prop48
 90
       50
102
RTVSPost2010PropOp48
 70
     1
102
RTVSPost2010Prop49
280
     0
102
RTVSPost2010PropOp49
 70
     1
102
RTVSPost2010Prop50
 90
       50
102
RTVSPost2010PropOp50
 70
     1
102
RTVSPost2010Prop51ColorIndex
 90
      256
102
RTVSPost2010Prop51ColorRGB
 90
-16777216
102
RTVSPost2010PropOp51
 70
     0
102
RTVSPost2010Prop52
140
1.0
102
RTVSPost2010PropOp52
 70
     0
102
RTVSPost2010Prop53
 90
        2
102
RTVSPost2010PropOp53
 70
     1
102
RTVSPost2010Prop54
  1
strokes_ogs.tif
102
RTVSPost2010PropOp54
 70
     1
102
RTVSPost2010Prop55
280
     0
102
RTVSPost2010PropOp55
 70
     1
102
RTVSPost2010Prop56
140
1.0
102
RTVSPost2010PropOp56
 70
     1
102
RTVSPost2010Prop57
140
1.0
102
RTVSPost2010PropOp57
 70
     1
  0
XRECORD
  5
2B3
102
{ACAD_REACTORS
330
2B2
102
}
330
2B2
100
AcDbXrecord
280
     1
102
RTVSPropertyOp0
 70
     1
102
RTVSPropertyOp1
 70
     1
102
RTVSPropertyOp2
 70
     1
102
RTVSPropertyOp3
 70
     1
102
RTVSPropertyOp4
 70
     1
102
RTVSPropertyOp5
 70
     1
102
RTVSPropertyOp6
 70
     1
102
RTVSPropertyOp7
 70
     1
102
RTVSPropertyOp8
 70
     1
102
RTVSPropertyOp9
 70
     1
102
RTVSPropertyOp10
 70
     1
102
RTVSPropertyOp11
 70
     1
102
RTVSPropertyOp12
 70
     1
102
RTVSPropertyOp13
 70
     1
102
RTVSPropertyOp14
 70
     1
102
RTVSPropertyOp15
 70
     1
102
RTVSPropertyOp16
 70
     1
102
RTVSPropertyOp17
 70
     1
102
RTVSPropertyOp18
 70
     1
102
RTVSPropertyOp19
 70
     1
102
RTVSPropertyOp20
 70
     1
102
RTVSPropertyOp21
 70
     1
102
RTVSPropertyOp22
 70
     1
102
RTVSPropertyOp23
 70
     1
102
RTVSPropertyOp24
 70
     1
102
RTVSPropertyOp25
 70
     1
102
RTVSPropertyOp26
 70
     1
102
RTVSPropertyOp27
 70
     1
102
RTVSPropertyOp28
 70
     1
102
RTVSPropertyOp29
 70
     1
102
RTVSPropertyOp30
 70
     1
102
RTVSPropertyOp31
 70
     1
102
RTVSPropertyOp32
 70
     1
102
RTVSPropertyOp33
 70
     1
102
RTVSPropertyOp34
 70
     1
102
RTVSPropertyOp35
 70
     1
102
RTVSPropertyOp36
 70
     1
102
RTVSPropertyOp37
 70
     1
102
RTVSPropertyOp38
 70
     1
102
RTVSPropertyOp39
 70
     1
102
RTVSPropertyOp40
 70
     1
102
RTVSPropertyOp41
 70
     1
102
RTVSPropertyOp42
 70
     1
102
RTVSPropertyOp43
 70
     1
102
RTVSPropertyOp44
 70
     1
102
RTVSPropertyOp45
 70
     1
102
RTVSPropertyOp46
 70
     1
102
RTVSPropertyOp47
 70
     1
102
RTVSPropertyOp48
 70
     1
102
RTVSPropertyOp49
 70
     1
102
RTVSPropertyOp50
 70
     1
102
RTVSPropertyOp51
 70
     0
102
RTVSPropertyOp52
 70
     0
102
RTVSPropertyOp53
 70
     1
102
RTVSPropertyOp54
 70
     1
102
RTVSPropertyOp55
 70
     1
102
RTVSPropertyOp56
 70
     1
102
RTVSPropertyOp57
 70
     1
102
RTVSPost2010Prop28
280
     0
102
RTVSPost2010PropOp28
 70
     1
102
RTVSPost2010Prop29
280
     1
102
RTVSPost2010PropOp29
 70
     1
102
RTVSPost2010Prop30
280
     1
102
RTVSPost2010PropOp30
 70
     1
102
RTVSPost2010Prop31
280
     0
102
RTVSPost2010PropOp31
 70
     1
102
RTVSPost2010Prop32
280
     0
102
RTVSPost2010PropOp32
 70
     1
102
RTVSPost2010Prop33
280
     0
102
RTVSPost2010PropOp33
 70
     1
102
RTVSPost2010Prop34
280
     0
102
RTVSPost2010PropOp34
 70
     1
102
RTVSPost2010Prop35
280
     0
102
RTVSPost2010PropOp35
 70
     1
102
RTVSPost2010Prop36
280
     0
102
RTVSPost2010PropOp36
 70
     1
102
RTVSPost2010Prop37
 90
       50
102
RTVSPost2010PropOp37
 70
     1
102
RTVSPost2010Prop38
140
0.0
102
RTVSPost2010PropOp38
 70
     1
102
RTVSPost2010Prop39
140
1.0
102
RTVSPost2010PropOp39
 70
     1
102
RTVSPost2010Prop40
 90
        0
102
RTVSPost2010PropOp40
 70
     1
102
RTVSPost2010Prop41ColorIndex
 90
       18
102
RTVSPost2010Prop41ColorRGB
 90
        0
102
RTVSPost2010PropOp41
 70
     1
102
RTVSPost2010Prop42
 90
       50
102
RTVSPost2010PropOp42
 70
     1
102
RTVSPost2010Prop43
 90
        3
102
RTVSPost2010PropOp43
 70
     1
102
RTVSPost2010Prop44ColorIndex
 90
        5
102
RTVSPost2010Prop44ColorRGB
 90
      255
102
RTVSPost2010PropOp44
 70
     1
102
RTVSPost2010Prop45
280
     0
102
RTVSPost2010PropOp45
 70
     1
102
RTVSPost2010Prop46
 90
       50
102
RTVSPost2010PropOp46
 70
     1
102
RTVSPost2010Prop47
 90
       50
102
RTVSPost2010PropOp47
 70
     1
102
RTVSPost2010Prop48
 90
       50
102
RTVSPost2010PropOp48
 70
     1
102
RTVSPost2010Prop49
280
     0
102
RTVSPost2010PropOp49
 70
     1
102
RTVSPost2010Prop50
 90
       50
102
RTVSPost2010PropOp50
 70
     1
102
RTVSPost2010Prop51ColorIndex
 90
      256
102
RTVSPost2010Prop51ColorRGB
 90
-16777216
102
RTVSPost2010PropOp51
 70
     0
102
RTVSPost2010Prop52
140
1.0
102
RTVSPost2010PropOp52
 70
     0
102
RTVSPost2010Prop53
 90
        2
102
RTVSPost2010PropOp53
 70
     1
102
RTVSPost2010Prop54
  1
strokes_ogs.tif
102
RTVSPost2010PropOp54
 70
     1
102
RTVSPost2010Prop55
280
     0
102
RTVSPost2010PropOp55
 70
     1
102
RTVSPost2010Prop56
140
1.0
102
RTVSPost2010PropOp56
 70
     1
102
RTVSPost2010Prop57
140
1.0
102
RTVSPost2010PropOp57
 70
     1
  0
XRECORD
  5
2B5
102
{ACAD_REACTORS
330
2B4
102
}
330
2B4
100
AcDbXrecord
280
     1
102
RTVSPropertyOp0
 70
     1
102
RTVSPropertyOp1
 70
     1
102
RTVSPropertyOp2
 70
     1
102
RTVSPropertyOp3
 70
     1
102
RTVSPropertyOp4
 70
     1
102
RTVSPropertyOp5
 70
     1
102
RTVSPropertyOp6
 70
     1
102
RTVSPropertyOp7
 70
     1
102
RTVSPropertyOp8
 70
     1
102
RTVSPropertyOp9
 70
     1
102
RTVSPropertyOp10
 70
     1
102
RTVSPropertyOp11
 70
     1
102
RTVSPropertyOp12
 70
     1
102
RTVSPropertyOp13
 70
     1
102
RTVSPropertyOp14
 70
     1
102
RTVSPropertyOp15
 70
     1
102
RTVSPropertyOp16
 70
     1
102
RTVSPropertyOp17
 70
     1
102
RTVSPropertyOp18
 70
     1
102
RTVSPropertyOp19
 70
     1
102
RTVSPropertyOp20
 70
     1
102
RTVSPropertyOp21
 70
     1
102
RTVSPropertyOp22
 70
     1
102
RTVSPropertyOp23
 70
     1
102
RTVSPropertyOp24
 70
     1
102
RTVSPropertyOp25
 70
     1
102
RTVSPropertyOp26
 70
     1
102
RTVSPropertyOp27
 70
     1
102
RTVSPropertyOp28
 70
     1
102
RTVSPropertyOp29
 70
     1
102
RTVSPropertyOp30
 70
     1
102
RTVSPropertyOp31
 70
     1
102
RTVSPropertyOp32
 70
     1
102
RTVSPropertyOp33
 70
     1
102
RTVSPropertyOp34
 70
     1
102
RTVSPropertyOp35
 70
     1
102
RTVSPropertyOp36
 70
     1
102
RTVSPropertyOp37
 70
     1
102
RTVSPropertyOp38
 70
     1
102
RTVSPropertyOp39
 70
     1
102
RTVSPropertyOp40
 70
     1
102
RTVSPropertyOp41
 70
     1
102
RTVSPropertyOp42
 70
     1
102
RTVSPropertyOp43
 70
     1
102
RTVSPropertyOp44
 70
     1
102
RTVSPropertyOp45
 70
     1
102
RTVSPropertyOp46
 70
     1
102
RTVSPropertyOp47
 70
     1
102
RTVSPropertyOp48
 70
     1
102
RTVSPropertyOp49
 70
     1
102
RTVSPropertyOp50
 70
     1
102
RTVSPropertyOp51
 70
     0
102
RTVSPropertyOp52
 70
     0
102
RTVSPropertyOp53
 70
     1
102
RTVSPropertyOp54
 70
     1
102
RTVSPropertyOp55
 70
     1
102
RTVSPropertyOp56
 70
     1
102
RTVSPropertyOp57
 70
     1
102
RTVSPost2010Prop28
280
     0
102
RTVSPost2010PropOp28
 70
     1
102
RTVSPost2010Prop29
280
     1
102
RTVSPost2010PropOp29
 70
     1
102
RTVSPost2010Prop30
280
     1
102
RTVSPost2010PropOp30
 70
     1
102
RTVSPost2010Prop31
280
     0
102
RTVSPost2010PropOp31
 70
     1
102
RTVSPost2010Prop32
280
     0
102
RTVSPost2010PropOp32
 70
     1
102
RTVSPost2010Prop33
280
     0
102
RTVSPost2010PropOp33
 70
     1
102
RTVSPost2010Prop34
280
     0
102
RTVSPost2010PropOp34
 70
     1
102
RTVSPost2010Prop35
280
     0
102
RTVSPost2010PropOp35
 70
     1
102
RTVSPost2010Prop36
280
     0
102
RTVSPost2010PropOp36
 70
     1
102
RTVSPost2010Prop37
 90
       50
102
RTVSPost2010PropOp37
 70
     1
102
RTVSPost2010Prop38
140
0.0
102
RTVSPost2010PropOp38
 70
     1
102
RTVSPost2010Prop39
140
1.0
102
RTVSPost2010PropOp39
 70
     1
102
RTVSPost2010Prop40
 90
        0
102
RTVSPost2010PropOp40
 70
     1
102
RTVSPost2010Prop41ColorIndex
 90
       18
102
RTVSPost2010Prop41ColorRGB
 90
        0
102
RTVSPost2010PropOp41
 70
     1
102
RTVSPost2010Prop42
 90
       50
102
RTVSPost2010PropOp42
 70
     1
102
RTVSPost2010Prop43
 90
        3
102
RTVSPost2010PropOp43
 70
     1
102
RTVSPost2010Prop44ColorIndex
 90
        5
102
RTVSPost2010Prop44ColorRGB
 90
      255
102
RTVSPost2010PropOp44
 70
     1
102
RTVSPost2010Prop45
280
     0
102
RTVSPost2010PropOp45
 70
     1
102
RTVSPost2010Prop46
 90
       50
102
RTVSPost2010PropOp46
 70
     1
102
RTVSPost2010Prop47
 90
       50
102
RTVSPost2010PropOp47
 70
     1
102
RTVSPost2010Prop48
 90
       50
102
RTVSPost2010PropOp48
 70
     1
102
RTVSPost2010Prop49
280
     0
102
RTVSPost2010PropOp49
 70
     1
102
RTVSPost2010Prop50
 90
       50
102
RTVSPost2010PropOp50
 70
     1
102
RTVSPost2010Prop51ColorIndex
 90
      256
102
RTVSPost2010Prop51ColorRGB
 90
-16777216
102
RTVSPost2010PropOp51
 70
     0
102
RTVSPost2010Prop52
140
1.0
102
RTVSPost2010PropOp52
 70
     0
102
RTVSPost2010Prop53
 90
        2
102
RTVSPost2010PropOp53
 70
     1
102
RTVSPost2010Prop54
  1
strokes_ogs.tif
102
RTVSPost2010PropOp54
 70
     1
102
RTVSPost2010Prop55
280
     0
102
RTVSPost2010PropOp55
 70
     1
102
RTVSPost2010Prop56
140
1.0
102
RTVSPost2010PropOp56
 70
     1
102
RTVSPost2010Prop57
140
1.0
102
RTVSPost2010PropOp57
 70
     1
  0
XRECORD
  5
2B7
102
{ACAD_REACTORS
330
2B6
102
}
330
2B6
100
AcDbXrecord
280
     1
102
RTVSPropertyOp0
 70
     1
102
RTVSPropertyOp1
 70
     1
102
RTVSPropertyOp2
 70
     1
102
RTVSPropertyOp3
 70
     1
102
RTVSPropertyOp4
 70
     1
102
RTVSPropertyOp5
 70
     1
102
RTVSPropertyOp6
 70
     1
102
RTVSPropertyOp7
 70
     1
102
RTVSPropertyOp8
 70
     1
102
RTVSPropertyOp9
 70
     1
102
RTVSPropertyOp10
 70
     1
102
RTVSPropertyOp11
 70
     1
102
RTVSPropertyOp12
 70
     1
102
RTVSPropertyOp13
 70
     1
102
RTVSPropertyOp14
 70
     1
102
RTVSPropertyOp15
 70
     1
102
RTVSPropertyOp16
 70
     1
102
RTVSPropertyOp17
 70
     1
102
RTVSPropertyOp18
 70
     1
102
RTVSPropertyOp19
 70
     1
102
RTVSPropertyOp20
 70
     1
102
RTVSPropertyOp21
 70
     1
102
RTVSPropertyOp22
 70
     1
102
RTVSPropertyOp23
 70
     1
102
RTVSPropertyOp24
 70
     1
102
RTVSPropertyOp25
 70
     1
102
RTVSPropertyOp26
 70
     1
102
RTVSPropertyOp27
 70
     1
102
RTVSPropertyOp28
 70
     1
102
RTVSPropertyOp29
 70
     1
102
RTVSPropertyOp30
 70
     1
102
RTVSPropertyOp31
 70
     1
102
RTVSPropertyOp32
 70
     1
102
RTVSPropertyOp33
 70
     1
102
RTVSPropertyOp34
 70
     1
102
RTVSPropertyOp35
 70
     1
102
RTVSPropertyOp36
 70
     1
102
RTVSPropertyOp37
 70
     1
102
RTVSPropertyOp38
 70
     1
102
RTVSPropertyOp39
 70
     1
102
RTVSPropertyOp40
 70
     1
102
RTVSPropertyOp41
 70
     1
102
RTVSPropertyOp42
 70
     1
102
RTVSPropertyOp43
 70
     1
102
RTVSPropertyOp44
 70
     1
102
RTVSPropertyOp45
 70
     1
102
RTVSPropertyOp46
 70
     1
102
RTVSPropertyOp47
 70
     1
102
RTVSPropertyOp48
 70
     1
102
RTVSPropertyOp49
 70
     1
102
RTVSPropertyOp50
 70
     1
102
RTVSPropertyOp51
 70
     0
102
RTVSPropertyOp52
 70
     0
102
RTVSPropertyOp53
 70
     1
102
RTVSPropertyOp54
 70
     1
102
RTVSPropertyOp55
 70
     1
102
RTVSPropertyOp56
 70
     1
102
RTVSPropertyOp57
 70
     1
102
RTVSPost2010Prop28
280
     0
102
RTVSPost2010PropOp28
 70
     1
102
RTVSPost2010Prop29
280
     1
102
RTVSPost2010PropOp29
 70
     1
102
RTVSPost2010Prop30
280
     1
102
RTVSPost2010PropOp30
 70
     1
102
RTVSPost2010Prop31
280
     0
102
RTVSPost2010PropOp31
 70
     1
102
RTVSPost2010Prop32
280
     0
102
RTVSPost2010PropOp32
 70
     1
102
RTVSPost2010Prop33
280
     0
102
RTVSPost2010PropOp33
 70
     1
102
RTVSPost2010Prop34
280
     0
102
RTVSPost2010PropOp34
 70
     1
102
RTVSPost2010Prop35
280
     0
102
RTVSPost2010PropOp35
 70
     1
102
RTVSPost2010Prop36
280
     0
102
RTVSPost2010PropOp36
 70
     1
102
RTVSPost2010Prop37
 90
       50
102
RTVSPost2010PropOp37
 70
     1
102
RTVSPost2010Prop38
140
0.0
102
RTVSPost2010PropOp38
 70
     1
102
RTVSPost2010Prop39
140
1.0
102
RTVSPost2010PropOp39
 70
     1
102
RTVSPost2010Prop40
 90
        0
102
RTVSPost2010PropOp40
 70
     1
102
RTVSPost2010Prop41ColorIndex
 90
       18
102
RTVSPost2010Prop41ColorRGB
 90
        0
102
RTVSPost2010PropOp41
 70
     1
102
RTVSPost2010Prop42
 90
       50
102
RTVSPost2010PropOp42
 70
     1
102
RTVSPost2010Prop43
 90
        3
102
RTVSPost2010PropOp43
 70
     1
102
RTVSPost2010Prop44ColorIndex
 90
        5
102
RTVSPost2010Prop44ColorRGB
 90
      255
102
RTVSPost2010PropOp44
 70
     1
102
RTVSPost2010Prop45
280
     0
102
RTVSPost2010PropOp45
 70
     1
102
RTVSPost2010Prop46
 90
       50
102
RTVSPost2010PropOp46
 70
     1
102
RTVSPost2010Prop47
 90
       50
102
RTVSPost2010PropOp47
 70
     1
102
RTVSPost2010Prop48
 90
       50
102
RTVSPost2010PropOp48
 70
     1
102
RTVSPost2010Prop49
280
     0
102
RTVSPost2010PropOp49
 70
     1
102
RTVSPost2010Prop50
 90
       50
102
RTVSPost2010PropOp50
 70
     1
102
RTVSPost2010Prop51ColorIndex
 90
      256
102
RTVSPost2010Prop51ColorRGB
 90
-16777216
102
RTVSPost2010PropOp51
 70
     0
102
RTVSPost2010Prop52
140
1.0
102
RTVSPost2010PropOp52
 70
     0
102
RTVSPost2010Prop53
 90
        2
102
RTVSPost2010PropOp53
 70
     1
102
RTVSPost2010Prop54
  1
strokes_ogs.tif
102
RTVSPost2010PropOp54
 70
     1
102
RTVSPost2010Prop55
280
     0
102
RTVSPost2010PropOp55
 70
     1
102
RTVSPost2010Prop56
140
1.0
102
RTVSPost2010PropOp56
 70
     1
102
RTVSPost2010Prop57
140
1.0
102
RTVSPost2010PropOp57
 70
     1
  0
XRECORD
  5
2B9
102
{ACAD_REACTORS
330
2B8
102
}
330
2B8
100
AcDbXrecord
280
     1
102
RTVSPropertyOp0
 70
     1
102
RTVSPropertyOp1
 70
     1
102
RTVSPropertyOp2
 70
     1
102
RTVSPropertyOp3
 70
     1
102
RTVSPropertyOp4
 70
     1
102
RTVSPropertyOp5
 70
     1
102
RTVSPropertyOp6
 70
     1
102
RTVSPropertyOp7
 70
     1
102
RTVSPropertyOp8
 70
     1
102
RTVSPropertyOp9
 70
     1
102
RTVSPropertyOp10
 70
     1
102
RTVSPropertyOp11
 70
     1
102
RTVSPropertyOp12
 70
     1
102
RTVSPropertyOp13
 70
     1
102
RTVSPropertyOp14
 70
     1
102
RTVSPropertyOp15
 70
     1
102
RTVSPropertyOp16
 70
     1
102
RTVSPropertyOp17
 70
     1
102
RTVSPropertyOp18
 70
     1
102
RTVSPropertyOp19
 70
     1
102
RTVSPropertyOp20
 70
     1
102
RTVSPropertyOp21
 70
     1
102
RTVSPropertyOp22
 70
     1
102
RTVSPropertyOp23
 70
     1
102
RTVSPropertyOp24
 70
     1
102
RTVSPropertyOp25
 70
     1
102
RTVSPropertyOp26
 70
     1
102
RTVSPropertyOp27
 70
     1
102
RTVSPropertyOp28
 70
     1
102
RTVSPropertyOp29
 70
     1
102
RTVSPropertyOp30
 70
     1
102
RTVSPropertyOp31
 70
     1
102
RTVSPropertyOp32
 70
     1
102
RTVSPropertyOp33
 70
     1
102
RTVSPropertyOp34
 70
     1
102
RTVSPropertyOp35
 70
     1
102
RTVSPropertyOp36
 70
     1
102
RTVSPropertyOp37
 70
     1
102
RTVSPropertyOp38
 70
     1
102
RTVSPropertyOp39
 70
     1
102
RTVSPropertyOp40
 70
     1
102
RTVSPropertyOp41
 70
     1
102
RTVSPropertyOp42
 70
     1
102
RTVSPropertyOp43
 70
     1
102
RTVSPropertyOp44
 70
     1
102
RTVSPropertyOp45
 70
     1
102
RTVSPropertyOp46
 70
     1
102
RTVSPropertyOp47
 70
     1
102
RTVSPropertyOp48
 70
     1
102
RTVSPropertyOp49
 70
     1
102
RTVSPropertyOp50
 70
     1
102
RTVSPropertyOp51
 70
     0
102
RTVSPropertyOp52
 70
     0
102
RTVSPropertyOp53
 70
     1
102
RTVSPropertyOp54
 70
     1
102
RTVSPropertyOp55
 70
     1
102
RTVSPropertyOp56
 70
     1
102
RTVSPropertyOp57
 70
     1
102
RTVSPost2010Prop28
280
     0
102
RTVSPost2010PropOp28
 70
     1
102
RTVSPost2010Prop29
280
     1
102
RTVSPost2010PropOp29
 70
     1
102
RTVSPost2010Prop30
280
     1
102
RTVSPost2010PropOp30
 70
     1
102
RTVSPost2010Prop31
280
     0
102
RTVSPost2010PropOp31
 70
     1
102
RTVSPost2010Prop32
280
     0
102
RTVSPost2010PropOp32
 70
     1
102
RTVSPost2010Prop33
280
     0
102
RTVSPost2010PropOp33
 70
     1
102
RTVSPost2010Prop34
280
     0
102
RTVSPost2010PropOp34
 70
     1
102
RTVSPost2010Prop35
280
     0
102
RTVSPost2010PropOp35
 70
     1
102
RTVSPost2010Prop36
280
     0
102
RTVSPost2010PropOp36
 70
     1
102
RTVSPost2010Prop37
 90
       50
102
RTVSPost2010PropOp37
 70
     1
102
RTVSPost2010Prop38
140
0.0
102
RTVSPost2010PropOp38
 70
     1
102
RTVSPost2010Prop39
140
1.0
102
RTVSPost2010PropOp39
 70
     1
102
RTVSPost2010Prop40
 90
        0
102
RTVSPost2010PropOp40
 70
     1
102
RTVSPost2010Prop41ColorIndex
 90
       18
102
RTVSPost2010Prop41ColorRGB
 90
        0
102
RTVSPost2010PropOp41
 70
     1
102
RTVSPost2010Prop42
 90
       50
102
RTVSPost2010PropOp42
 70
     1
102
RTVSPost2010Prop43
 90
        3
102
RTVSPost2010PropOp43
 70
     1
102
RTVSPost2010Prop44ColorIndex
 90
        5
102
RTVSPost2010Prop44ColorRGB
 90
      255
102
RTVSPost2010PropOp44
 70
     1
102
RTVSPost2010Prop45
280
     0
102
RTVSPost2010PropOp45
 70
     1
102
RTVSPost2010Prop46
 90
       50
102
RTVSPost2010PropOp46
 70
     1
102
RTVSPost2010Prop47
 90
       50
102
RTVSPost2010PropOp47
 70
     1
102
RTVSPost2010Prop48
 90
       50
102
RTVSPost2010PropOp48
 70
     1
102
RTVSPost2010Prop49
280
     0
102
RTVSPost2010PropOp49
 70
     1
102
RTVSPost2010Prop50
 90
       50
102
RTVSPost2010PropOp50
 70
     1
102
RTVSPost2010Prop51ColorIndex
 90
      256
102
RTVSPost2010Prop51ColorRGB
 90
-16777216
102
RTVSPost2010PropOp51
 70
     0
102
RTVSPost2010Prop52
140
1.0
102
RTVSPost2010PropOp52
 70
     0
102
RTVSPost2010Prop53
 90
        2
102
RTVSPost2010PropOp53
 70
     1
102
RTVSPost2010Prop54
  1
strokes_ogs.tif
102
RTVSPost2010PropOp54
 70
     1
102
RTVSPost2010Prop55
280
     0
102
RTVSPost2010PropOp55
 70
     1
102
RTVSPost2010Prop56
140
1.0
102
RTVSPost2010PropOp56
 70
     1
102
RTVSPost2010Prop57
140
1.0
102
RTVSPost2010PropOp57
 70
     1
  0
XRECORD
  5
2BF
102
{ACAD_REACTORS
330
2BE
102
}
330
2BE
100
AcDbXrecord
280
     1
102
RTVSPropertyOp0
 70
     1
102
RTVSPropertyOp1
 70
     1
102
RTVSPropertyOp2
 70
     1
102
RTVSPropertyOp3
 70
     1
102
RTVSPropertyOp4
 70
     1
102
RTVSPropertyOp5
 70
     1
102
RTVSPropertyOp6
 70
     1
102
RTVSPropertyOp7
 70
     1
102
RTVSPropertyOp8
 70
     1
102
RTVSPropertyOp9
 70
     1
102
RTVSPropertyOp10
 70
     1
102
RTVSPropertyOp11
 70
     1
102
RTVSPropertyOp12
 70
     1
102
RTVSPropertyOp13
 70
     1
102
RTVSPropertyOp14
 70
     1
102
RTVSPropertyOp15
 70
     1
102
RTVSPropertyOp16
 70
     1
102
RTVSPropertyOp17
 70
     1
102
RTVSPropertyOp18
 70
     1
102
RTVSPropertyOp19
 70
     1
102
RTVSPropertyOp20
 70
     1
102
RTVSPropertyOp21
 70
     1
102
RTVSPropertyOp22
 70
     1
102
RTVSPropertyOp23
 70
     1
102
RTVSPropertyOp24
 70
     1
102
RTVSPropertyOp25
 70
     1
102
RTVSPropertyOp26
 70
     1
102
RTVSPropertyOp27
 70
     1
102
RTVSPropertyOp28
 70
     1
102
RTVSPropertyOp29
 70
     1
102
RTVSPropertyOp30
 70
     1
102
RTVSPropertyOp31
 70
     1
102
RTVSPropertyOp32
 70
     1
102
RTVSPropertyOp33
 70
     1
102
RTVSPropertyOp34
 70
     1
102
RTVSPropertyOp35
 70
     1
102
RTVSPropertyOp36
 70
     1
102
RTVSPropertyOp37
 70
     1
102
RTVSPropertyOp38
 70
     1
102
RTVSPropertyOp39
 70
     1
102
RTVSPropertyOp40
 70
     1
102
RTVSPropertyOp41
 70
     1
102
RTVSPropertyOp42
 70
     1
102
RTVSPropertyOp43
 70
     1
102
RTVSPropertyOp44
 70
     1
102
RTVSPropertyOp45
 70
     1
102
RTVSPropertyOp46
 70
     1
102
RTVSPropertyOp47
 70
     1
102
RTVSPropertyOp48
 70
     1
102
RTVSPropertyOp49
 70
     1
102
RTVSPropertyOp50
 70
     1
102
RTVSPropertyOp51
 70
     0
102
RTVSPropertyOp52
 70
     0
102
RTVSPropertyOp53
 70
     1
102
RTVSPropertyOp54
 70
     1
102
RTVSPropertyOp55
 70
     1
102
RTVSPropertyOp56
 70
     1
102
RTVSPropertyOp57
 70
     1
102
RTVSPost2010Prop28
280
     0
102
RTVSPost2010PropOp28
 70
     1
102
RTVSPost2010Prop29
280
     1
102
RTVSPost2010PropOp29
 70
     1
102
RTVSPost2010Prop30
280
     1
102
RTVSPost2010PropOp30
 70
     1
102
RTVSPost2010Prop31
280
     0
102
RTVSPost2010PropOp31
 70
     1
102
RTVSPost2010Prop32
280
     0
102
RTVSPost2010PropOp32
 70
     1
102
RTVSPost2010Prop33
280
     0
102
RTVSPost2010PropOp33
 70
     1
102
RTVSPost2010Prop34
280
     0
102
RTVSPost2010PropOp34
 70
     1
102
RTVSPost2010Prop35
280
     0
102
RTVSPost2010PropOp35
 70
     1
102
RTVSPost2010Prop36
280
     0
102
RTVSPost2010PropOp36
 70
     1
102
RTVSPost2010Prop37
 90
       50
102
RTVSPost2010PropOp37
 70
     1
102
RTVSPost2010Prop38
140
0.0
102
RTVSPost2010PropOp38
 70
     1
102
RTVSPost2010Prop39
140
1.0
102
RTVSPost2010PropOp39
 70
     1
102
RTVSPost2010Prop40
 90
        0
102
RTVSPost2010PropOp40
 70
     1
102
RTVSPost2010Prop41ColorIndex
 90
       18
102
RTVSPost2010Prop41ColorRGB
 90
        0
102
RTVSPost2010PropOp41
 70
     1
102
RTVSPost2010Prop42
 90
       50
102
RTVSPost2010PropOp42
 70
     1
102
RTVSPost2010Prop43
 90
        3
102
RTVSPost2010PropOp43
 70
     1
102
RTVSPost2010Prop44ColorIndex
 90
        5
102
RTVSPost2010Prop44ColorRGB
 90
      255
102
RTVSPost2010PropOp44
 70
     1
102
RTVSPost2010Prop45
280
     0
102
RTVSPost2010PropOp45
 70
     1
102
RTVSPost2010Prop46
 90
       50
102
RTVSPost2010PropOp46
 70
     1
102
RTVSPost2010Prop47
 90
       50
102
RTVSPost2010PropOp47
 70
     1
102
RTVSPost2010Prop48
 90
       50
102
RTVSPost2010PropOp48
 70
     1
102
RTVSPost2010Prop49
280
     0
102
RTVSPost2010PropOp49
 70
     1
102
RTVSPost2010Prop50
 90
       50
102
RTVSPost2010PropOp50
 70
     1
102
RTVSPost2010Prop51ColorIndex
 90
      256
102
RTVSPost2010Prop51ColorRGB
 90
-16777216
102
RTVSPost2010PropOp51
 70
     0
102
RTVSPost2010Prop52
140
1.0
102
RTVSPost2010PropOp52
 70
     0
102
RTVSPost2010Prop53
 90
        2
102
RTVSPost2010PropOp53
 70
     1
102
RTVSPost2010Prop54
  1
strokes_ogs.tif
102
RTVSPost2010PropOp54
 70
     1
102
RTVSPost2010Prop55
280
     0
102
RTVSPost2010PropOp55
 70
     1
102
RTVSPost2010Prop56
140
1.0
102
RTVSPost2010PropOp56
 70
     1
102
RTVSPost2010Prop57
140
1.0
102
RTVSPost2010PropOp57
 70
     1
  0
XRECORD
  5
2D3
102
{ACAD_REACTORS
330
2D2
102
}
330
2D2
100
AcDbXrecord
280
     1
102
RTVSPropertyOp0
 70
     0
102
RTVSPropertyOp1
 70
     0
102
RTVSPropertyOp2
 70
     0
102
RTVSPropertyOp3
 70
     0
102
RTVSPropertyOp4
 70
     0
102
RTVSPropertyOp5
 70
     0
102
RTVSPropertyOp6
 70
     0
102
RTVSPropertyOp7
 70
     0
102
RTVSPropertyOp8
 70
     0
102
RTVSPropertyOp9
 70
     0
102
RTVSPropertyOp10
 70
     0
102
RTVSPropertyOp11
 70
     0
102
RTVSPropertyOp12
 70
     0
102
RTVSPropertyOp13
 70
     0
102
RTVSPropertyOp14
 70
     2
102
RTVSPropertyOp15
 70
     0
102
RTVSPropertyOp16
 70
     0
102
RTVSPropertyOp17
 70
     0
102
RTVSPropertyOp18
 70
     0
102
RTVSPropertyOp19
 70
     0
102
RTVSPropertyOp20
 70
     0
102
RTVSPropertyOp21
 70
     0
102
RTVSPropertyOp22
 70
     0
102
RTVSPropertyOp23
 70
     0
102
RTVSPropertyOp24
 70
     0
102
RTVSPropertyOp25
 70
     0
102
RTVSPropertyOp26
 70
     0
102
RTVSPropertyOp27
 70
     0
102
RTVSPropertyOp28
 70
     0
102
RTVSPropertyOp29
 70
     0
102
RTVSPropertyOp30
 70
     0
102
RTVSPropertyOp31
 70
     0
102
RTVSPropertyOp32
 70
     0
102
RTVSPropertyOp33
 70
     0
102
RTVSPropertyOp34
 70
     0
102
RTVSPropertyOp35
 70
     0
102
RTVSPropertyOp36
 70
     0
102
RTVSPropertyOp37
 70
     0
102
RTVSPropertyOp38
 70
     0
102
RTVSPropertyOp39
 70
     0
102
RTVSPropertyOp40
 70
     0
102
RTVSPropertyOp41
 70
     0
102
RTVSPropertyOp42
 70
     0
102
RTVSPropertyOp43
 70
     0
102
RTVSPropertyOp44
 70
     0
102
RTVSPropertyOp45
 70
     0
102
RTVSPropertyOp46
 70
     0
102
RTVSPropertyOp47
 70
     0
102
RTVSPropertyOp48
 70
     0
102
RTVSPropertyOp49
 70
     0
102
RTVSPropertyOp50
 70
     0
102
RTVSPropertyOp51
 70
     0
102
RTVSPropertyOp52
 70
     0
102
RTVSPropertyOp53
 70
     0
102
RTVSPropertyOp54
 70
     0
102
RTVSPropertyOp55
 70
     0
102
RTVSPropertyOp56
 70
     0
102
RTVSPropertyOp57
 70
     0
102
RTVSPost2010Prop28
280
     0
102
RTVSPost2010PropOp28
 70
     0
102
RTVSPost2010Prop29
280
     1
102
RTVSPost2010PropOp29
 70
     0
102
RTVSPost2010Prop30
280
     1
102
RTVSPost2010PropOp30
 70
     0
102
RTVSPost2010Prop31
280
     0
102
RTVSPost2010PropOp31
 70
     0
102
RTVSPost2010Prop32
280
     0
102
RTVSPost2010PropOp32
 70
     0
102
RTVSPost2010Prop33
280
     0
102
RTVSPost2010PropOp33
 70
     0
102
RTVSPost2010Prop34
280
     0
102
RTVSPost2010PropOp34
 70
     0
102
RTVSPost2010Prop35
280
     0
102
RTVSPost2010PropOp35
 70
     0
102
RTVSPost2010Prop36
280
     0
102
RTVSPost2010PropOp36
 70
     0
102
RTVSPost2010Prop37
 90
       50
102
RTVSPost2010PropOp37
 70
     0
102
RTVSPost2010Prop38
140
0.0
102
RTVSPost2010PropOp38
 70
     0
102
RTVSPost2010Prop39
140
1.0
102
RTVSPost2010PropOp39
 70
     0
102
RTVSPost2010Prop40
 90
        0
102
RTVSPost2010PropOp40
 70
     0
102
RTVSPost2010Prop41ColorIndex
 90
       18
102
RTVSPost2010Prop41ColorRGB
 90
        0
102
RTVSPost2010PropOp41
 70
     0
102
RTVSPost2010Prop42
 90
       50
102
RTVSPost2010PropOp42
 70
     0
102
RTVSPost2010Prop43
 90
        3
102
RTVSPost2010PropOp43
 70
     0
102
RTVSPost2010Prop44ColorIndex
 90
        5
102
RTVSPost2010Prop44ColorRGB
 90
      255
102
RTVSPost2010PropOp44
 70
     0
102
RTVSPost2010Prop45
280
     0
102
RTVSPost2010PropOp45
 70
     0
102
RTVSPost2010Prop46
 90
       50
102
RTVSPost2010PropOp46
 70
     0
102
RTVSPost2010Prop47
 90
       50
102
RTVSPost2010PropOp47
 70
     0
102
RTVSPost2010Prop48
 90
       50
102
RTVSPost2010PropOp48
 70
     0
102
RTVSPost2010Prop49
280
     0
102
RTVSPost2010PropOp49
 70
     0
102
RTVSPost2010Prop50
 90
       50
102
RTVSPost2010PropOp50
 70
     0
102
RTVSPost2010Prop51ColorIndex
 90
      256
102
RTVSPost2010Prop51ColorRGB
 90
-16777216
102
RTVSPost2010PropOp51
 70
     0
102
RTVSPost2010Prop52
140
1.0
102
RTVSPost2010PropOp52
 70
     0
102
RTVSPost2010Prop53
 90
        2
102
RTVSPost2010PropOp53
 70
     0
102
RTVSPost2010Prop54
  1
strokes_ogs.tif
102
RTVSPost2010PropOp54
 70
     0
102
RTVSPost2010Prop55
280
     0
102
RTVSPost2010PropOp55
 70
     0
102
RTVSPost2010Prop56
140
1.0
102
RTVSPost2010PropOp56
 70
     0
102
RTVSPost2010Prop57
140
1.0
102
RTVSPost2010PropOp57
 70
     0
  0
XRECORD
  5
2CD
102
{ACAD_REACTORS
330
2CC
102
}
330
2CC
100
AcDbXrecord
280
     1
102
RTVSPropertyOp0
 70
     1
102
RTVSPropertyOp1
 70
     1
102
RTVSPropertyOp2
 70
     1
102
RTVSPropertyOp3
 70
     1
102
RTVSPropertyOp4
 70
     1
102
RTVSPropertyOp5
 70
     1
102
RTVSPropertyOp6
 70
     1
102
RTVSPropertyOp7
 70
     1
102
RTVSPropertyOp8
 70
     1
102
RTVSPropertyOp9
 70
     1
102
RTVSPropertyOp10
 70
     1
102
RTVSPropertyOp11
 70
     1
102
RTVSPropertyOp12
 70
     1
102
RTVSPropertyOp13
 70
     1
102
RTVSPropertyOp14
 70
     1
102
RTVSPropertyOp15
 70
     1
102
RTVSPropertyOp16
 70
     1
102
RTVSPropertyOp17
 70
     1
102
RTVSPropertyOp18
 70
     1
102
RTVSPropertyOp19
 70
     1
102
RTVSPropertyOp20
 70
     1
102
RTVSPropertyOp21
 70
     1
102
RTVSPropertyOp22
 70
     1
102
RTVSPropertyOp23
 70
     1
102
RTVSPropertyOp24
 70
     1
102
RTVSPropertyOp25
 70
     1
102
RTVSPropertyOp26
 70
     1
102
RTVSPropertyOp27
 70
     1
102
RTVSPropertyOp28
 70
     1
102
RTVSPropertyOp29
 70
     1
102
RTVSPropertyOp30
 70
     1
102
RTVSPropertyOp31
 70
     1
102
RTVSPropertyOp32
 70
     1
102
RTVSPropertyOp33
 70
     1
102
RTVSPropertyOp34
 70
     1
102
RTVSPropertyOp35
 70
     1
102
RTVSPropertyOp36
 70
     1
102
RTVSPropertyOp37
 70
     1
102
RTVSPropertyOp38
 70
     1
102
RTVSPropertyOp39
 70
     1
102
RTVSPropertyOp40
 70
     1
102
RTVSPropertyOp41
 70
     1
102
RTVSPropertyOp42
 70
     1
102
RTVSPropertyOp43
 70
     1
102
RTVSPropertyOp44
 70
     1
102
RTVSPropertyOp45
 70
     1
102
RTVSPropertyOp46
 70
     1
102
RTVSPropertyOp47
 70
     1
102
RTVSPropertyOp48
 70
     1
102
RTVSPropertyOp49
 70
     1
102
RTVSPropertyOp50
 70
     1
102
RTVSPropertyOp51
 70
     0
102
RTVSPropertyOp52
 70
     0
102
RTVSPropertyOp53
 70
     1
102
RTVSPropertyOp54
 70
     1
102
RTVSPropertyOp55
 70
     1
102
RTVSPropertyOp56
 70
     1
102
RTVSPropertyOp57
 70
     1
102
RTVSPost2010Prop28
280
     0
102
RTVSPost2010PropOp28
 70
     1
102
RTVSPost2010Prop29
280
     1
102
RTVSPost2010PropOp29
 70
     1
102
RTVSPost2010Prop30
280
     1
102
RTVSPost2010PropOp30
 70
     1
102
RTVSPost2010Prop31
280
     0
102
RTVSPost2010PropOp31
 70
     1
102
RTVSPost2010Prop32
280
     0
102
RTVSPost2010PropOp32
 70
     1
102
RTVSPost2010Prop33
280
     0
102
RTVSPost2010PropOp33
 70
     1
102
RTVSPost2010Prop34
280
     0
102
RTVSPost2010PropOp34
 70
     1
102
RTVSPost2010Prop35
280
     0
102
RTVSPost2010PropOp35
 70
     1
102
RTVSPost2010Prop36
280
     0
102
RTVSPost2010PropOp36
 70
     1
102
RTVSPost2010Prop37
 90
       50
102
RTVSPost2010PropOp37
 70
     1
102
RTVSPost2010Prop38
140
0.0
102
RTVSPost2010PropOp38
 70
     1
102
RTVSPost2010Prop39
140
1.0
102
RTVSPost2010PropOp39
 70
     1
102
RTVSPost2010Prop40
 90
        0
102
RTVSPost2010PropOp40
 70
     1
102
RTVSPost2010Prop41ColorIndex
 90
       18
102
RTVSPost2010Prop41ColorRGB
 90
        0
102
RTVSPost2010PropOp41
 70
     1
102
RTVSPost2010Prop42
 90
       50
102
RTVSPost2010PropOp42
 70
     1
102
RTVSPost2010Prop43
 90
        3
102
RTVSPost2010PropOp43
 70
     1
102
RTVSPost2010Prop44ColorIndex
 90
        5
102
RTVSPost2010Prop44ColorRGB
 90
      255
102
RTVSPost2010PropOp44
 70
     1
102
RTVSPost2010Prop45
280
     0
102
RTVSPost2010PropOp45
 70
     1
102
RTVSPost2010Prop46
 90
       50
102
RTVSPost2010PropOp46
 70
     1
102
RTVSPost2010Prop47
 90
       50
102
RTVSPost2010PropOp47
 70
     1
102
RTVSPost2010Prop48
 90
       50
102
RTVSPost2010PropOp48
 70
     1
102
RTVSPost2010Prop49
280
     0
102
RTVSPost2010PropOp49
 70
     1
102
RTVSPost2010Prop50
 90
       50
102
RTVSPost2010PropOp50
 70
     1
102
RTVSPost2010Prop51ColorIndex
 90
      256
102
RTVSPost2010Prop51ColorRGB
 90
-16777216
102
RTVSPost2010PropOp51
 70
     0
102
RTVSPost2010Prop52
140
1.0
102
RTVSPost2010PropOp52
 70
     0
102
RTVSPost2010Prop53
 90
        2
102
RTVSPost2010PropOp53
 70
     1
102
RTVSPost2010Prop54
  1
strokes_ogs.tif
102
RTVSPost2010PropOp54
 70
     1
102
RTVSPost2010Prop55
280
     0
102
RTVSPost2010PropOp55
 70
     1
102
RTVSPost2010Prop56
140
1.0
102
RTVSPost2010PropOp56
 70
     1
102
RTVSPost2010Prop57
140
1.0
102
RTVSPost2010PropOp57
 70
     1
  0
XRECORD
  5
2D5
102
{ACAD_REACTORS
330
2D4
102
}
330
2D4
100
AcDbXrecord
280
     1
102
RTVSPropertyOp0
 70
     0
102
RTVSPropertyOp1
 70
     0
102
RTVSPropertyOp2
 70
     0
102
RTVSPropertyOp3
 70
     0
102
RTVSPropertyOp4
 70
     0
102
RTVSPropertyOp5
 70
     0
102
RTVSPropertyOp6
 70
     0
102
RTVSPropertyOp7
 70
     0
102
RTVSPropertyOp8
 70
     0
102
RTVSPropertyOp9
 70
     0
102
RTVSPropertyOp10
 70
     0
102
RTVSPropertyOp11
 70
     0
102
RTVSPropertyOp12
 70
     0
102
RTVSPropertyOp13
 70
     0
102
RTVSPropertyOp14
 70
     2
102
RTVSPropertyOp15
 70
     0
102
RTVSPropertyOp16
 70
     0
102
RTVSPropertyOp17
 70
     0
102
RTVSPropertyOp18
 70
     0
102
RTVSPropertyOp19
 70
     0
102
RTVSPropertyOp20
 70
     0
102
RTVSPropertyOp21
 70
     0
102
RTVSPropertyOp22
 70
     0
102
RTVSPropertyOp23
 70
     0
102
RTVSPropertyOp24
 70
     0
102
RTVSPropertyOp25
 70
     0
102
RTVSPropertyOp26
 70
     0
102
RTVSPropertyOp27
 70
     0
102
RTVSPropertyOp28
 70
     0
102
RTVSPropertyOp29
 70
     0
102
RTVSPropertyOp30
 70
     0
102
RTVSPropertyOp31
 70
     0
102
RTVSPropertyOp32
 70
     0
102
RTVSPropertyOp33
 70
     0
102
RTVSPropertyOp34
 70
     0
102
RTVSPropertyOp35
 70
     0
102
RTVSPropertyOp36
 70
     0
102
RTVSPropertyOp37
 70
     0
102
RTVSPropertyOp38
 70
     0
102
RTVSPropertyOp39
 70
     0
102
RTVSPropertyOp40
 70
     0
102
RTVSPropertyOp41
 70
     0
102
RTVSPropertyOp42
 70
     0
102
RTVSPropertyOp43
 70
     0
102
RTVSPropertyOp44
 70
     0
102
RTVSPropertyOp45
 70
     0
102
RTVSPropertyOp46
 70
     0
102
RTVSPropertyOp47
 70
     0
102
RTVSPropertyOp48
 70
     0
102
RTVSPropertyOp49
 70
     0
102
RTVSPropertyOp50
 70
     0
102
RTVSPropertyOp51
 70
     0
102
RTVSPropertyOp52
 70
     0
102
RTVSPropertyOp53
 70
     0
102
RTVSPropertyOp54
 70
     0
102
RTVSPropertyOp55
 70
     0
102
RTVSPropertyOp56
 70
     0
102
RTVSPropertyOp57
 70
     0
102
RTVSPost2010Prop28
280
     0
102
RTVSPost2010PropOp28
 70
     0
102
RTVSPost2010Prop29
280
     1
102
RTVSPost2010PropOp29
 70
     0
102
RTVSPost2010Prop30
280
     1
102
RTVSPost2010PropOp30
 70
     0
102
RTVSPost2010Prop31
280
     0
102
RTVSPost2010PropOp31
 70
     0
102
RTVSPost2010Prop32
280
     0
102
RTVSPost2010PropOp32
 70
     0
102
RTVSPost2010Prop33
280
     0
102
RTVSPost2010PropOp33
 70
     0
102
RTVSPost2010Prop34
280
     0
102
RTVSPost2010PropOp34
 70
     0
102
RTVSPost2010Prop35
280
     0
102
RTVSPost2010PropOp35
 70
     0
102
RTVSPost2010Prop36
280
     0
102
RTVSPost2010PropOp36
 70
     0
102
RTVSPost2010Prop37
 90
       50
102
RTVSPost2010PropOp37
 70
     0
102
RTVSPost2010Prop38
140
0.0
102
RTVSPost2010PropOp38
 70
     0
102
RTVSPost2010Prop39
140
1.0
102
RTVSPost2010PropOp39
 70
     0
102
RTVSPost2010Prop40
 90
        0
102
RTVSPost2010PropOp40
 70
     0
102
RTVSPost2010Prop41ColorIndex
 90
       18
102
RTVSPost2010Prop41ColorRGB
 90
        0
102
RTVSPost2010PropOp41
 70
     0
102
RTVSPost2010Prop42
 90
       50
102
RTVSPost2010PropOp42
 70
     0
102
RTVSPost2010Prop43
 90
        3
102
RTVSPost2010PropOp43
 70
     0
102
RTVSPost2010Prop44ColorIndex
 90
        5
102
RTVSPost2010Prop44ColorRGB
 90
      255
102
RTVSPost2010PropOp44
 70
     0
102
RTVSPost2010Prop45
280
     0
102
RTVSPost2010PropOp45
 70
     0
102
RTVSPost2010Prop46
 90
       50
102
RTVSPost2010PropOp46
 70
     0
102
RTVSPost2010Prop47
 90
       50
102
RTVSPost2010PropOp47
 70
     0
102
RTVSPost2010Prop48
 90
       50
102
RTVSPost2010PropOp48
 70
     0
102
RTVSPost2010Prop49
280
     0
102
RTVSPost2010PropOp49
 70
     0
102
RTVSPost2010Prop50
 90
       50
102
RTVSPost2010PropOp50
 70
     0
102
RTVSPost2010Prop51ColorIndex
 90
      256
102
RTVSPost2010Prop51ColorRGB
 90
-16777216
102
RTVSPost2010PropOp51
 70
     0
102
RTVSPost2010Prop52
140
1.0
102
RTVSPost2010PropOp52
 70
     0
102
RTVSPost2010Prop53
 90
        2
102
RTVSPost2010PropOp53
 70
     0
102
RTVSPost2010Prop54
  1
strokes_ogs.tif
102
RTVSPost2010PropOp54
 70
     0
102
RTVSPost2010Prop55
280
     0
102
RTVSPost2010PropOp55
 70
     0
102
RTVSPost2010Prop56
140
1.0
102
RTVSPost2010PropOp56
 70
     0
102
RTVSPost2010Prop57
140
1.0
102
RTVSPost2010PropOp57
 70
     0
  0
XRECORD
  5
2C3
102
{ACAD_REACTORS
330
2C2
102
}
330
2C2
100
AcDbXrecord
280
     1
102
RTVSPropertyOp0
 70
     1
102
RTVSPropertyOp1
 70
     1
102
RTVSPropertyOp2
 70
     1
102
RTVSPropertyOp3
 70
     1
102
RTVSPropertyOp4
 70
     1
102
RTVSPropertyOp5
 70
     1
102
RTVSPropertyOp6
 70
     1
102
RTVSPropertyOp7
 70
     1
102
RTVSPropertyOp8
 70
     1
102
RTVSPropertyOp9
 70
     1
102
RTVSPropertyOp10
 70
     1
102
RTVSPropertyOp11
 70
     1
102
RTVSPropertyOp12
 70
     1
102
RTVSPropertyOp13
 70
     1
102
RTVSPropertyOp14
 70
     1
102
RTVSPropertyOp15
 70
     1
102
RTVSPropertyOp16
 70
     1
102
RTVSPropertyOp17
 70
     1
102
RTVSPropertyOp18
 70
     1
102
RTVSPropertyOp19
 70
     1
102
RTVSPropertyOp20
 70
     1
102
RTVSPropertyOp21
 70
     1
102
RTVSPropertyOp22
 70
     1
102
RTVSPropertyOp23
 70
     1
102
RTVSPropertyOp24
 70
     1
102
RTVSPropertyOp25
 70
     1
102
RTVSPropertyOp26
 70
     1
102
RTVSPropertyOp27
 70
     1
102
RTVSPropertyOp28
 70
     1
102
RTVSPropertyOp29
 70
     1
102
RTVSPropertyOp30
 70
     1
102
RTVSPropertyOp31
 70
     1
102
RTVSPropertyOp32
 70
     1
102
RTVSPropertyOp33
 70
     1
102
RTVSPropertyOp34
 70
     1
102
RTVSPropertyOp35
 70
     1
102
RTVSPropertyOp36
 70
     1
102
RTVSPropertyOp37
 70
     1
102
RTVSPropertyOp38
 70
     1
102
RTVSPropertyOp39
 70
     1
102
RTVSPropertyOp40
 70
     1
102
RTVSPropertyOp41
 70
     1
102
RTVSPropertyOp42
 70
     1
102
RTVSPropertyOp43
 70
     1
102
RTVSPropertyOp44
 70
     1
102
RTVSPropertyOp45
 70
     1
102
RTVSPropertyOp46
 70
     1
102
RTVSPropertyOp47
 70
     1
102
RTVSPropertyOp48
 70
     1
102
RTVSPropertyOp49
 70
     1
102
RTVSPropertyOp50
 70
     1
102
RTVSPropertyOp51
 70
     0
102
RTVSPropertyOp52
 70
     0
102
RTVSPropertyOp53
 70
     1
102
RTVSPropertyOp54
 70
     1
102
RTVSPropertyOp55
 70
     1
102
RTVSPropertyOp56
 70
     1
102
RTVSPropertyOp57
 70
     1
102
RTVSPost2010Prop28
280
     0
102
RTVSPost2010PropOp28
 70
     1
102
RTVSPost2010Prop29
280
     1
102
RTVSPost2010PropOp29
 70
     1
102
RTVSPost2010Prop30
280
     1
102
RTVSPost2010PropOp30
 70
     1
102
RTVSPost2010Prop31
280
     0
102
RTVSPost2010PropOp31
 70
     1
102
RTVSPost2010Prop32
280
     0
102
RTVSPost2010PropOp32
 70
     1
102
RTVSPost2010Prop33
280
     0
102
RTVSPost2010PropOp33
 70
     1
102
RTVSPost2010Prop34
280
     0
102
RTVSPost2010PropOp34
 70
     1
102
RTVSPost2010Prop35
280
     0
102
RTVSPost2010PropOp35
 70
     1
102
RTVSPost2010Prop36
280
     0
102
RTVSPost2010PropOp36
 70
     1
102
RTVSPost2010Prop37
 90
       50
102
RTVSPost2010PropOp37
 70
     1
102
RTVSPost2010Prop38
140
0.0
102
RTVSPost2010PropOp38
 70
     1
102
RTVSPost2010Prop39
140
1.0
102
RTVSPost2010PropOp39
 70
     1
102
RTVSPost2010Prop40
 90
        0
102
RTVSPost2010PropOp40
 70
     1
102
RTVSPost2010Prop41ColorIndex
 90
       18
102
RTVSPost2010Prop41ColorRGB
 90
        0
102
RTVSPost2010PropOp41
 70
     1
102
RTVSPost2010Prop42
 90
       50
102
RTVSPost2010PropOp42
 70
     1
102
RTVSPost2010Prop43
 90
        3
102
RTVSPost2010PropOp43
 70
     1
102
RTVSPost2010Prop44ColorIndex
 90
        5
102
RTVSPost2010Prop44ColorRGB
 90
      255
102
RTVSPost2010PropOp44
 70
     1
102
RTVSPost2010Prop45
280
     0
102
RTVSPost2010PropOp45
 70
     1
102
RTVSPost2010Prop46
 90
       50
102
RTVSPost2010PropOp46
 70
     1
102
RTVSPost2010Prop47
 90
       50
102
RTVSPost2010PropOp47
 70
     1
102
RTVSPost2010Prop48
 90
       50
102
RTVSPost2010PropOp48
 70
     1
102
RTVSPost2010Prop49
280
     0
102
RTVSPost2010PropOp49
 70
     1
102
RTVSPost2010Prop50
 90
       50
102
RTVSPost2010PropOp50
 70
     1
102
RTVSPost2010Prop51ColorIndex
 90
      256
102
RTVSPost2010Prop51ColorRGB
 90
-16777216
102
RTVSPost2010PropOp51
 70
     0
102
RTVSPost2010Prop52
140
1.0
102
RTVSPost2010PropOp52
 70
     0
102
RTVSPost2010Prop53
 90
        2
102
RTVSPost2010PropOp53
 70
     1
102
RTVSPost2010Prop54
  1
strokes_ogs.tif
102
RTVSPost2010PropOp54
 70
     1
102
RTVSPost2010Prop55
280
     0
102
RTVSPost2010PropOp55
 70
     1
102
RTVSPost2010Prop56
140
1.0
102
RTVSPost2010PropOp56
 70
     1
102
RTVSPost2010Prop57
140
1.0
102
RTVSPost2010PropOp57
 70
     1
  0
XRECORD
  5
2E1
102
{ACAD_REACTORS
330
2E0
102
}
330
2E0
100
AcDbXrecord
280
     1
102
RTVSPropertyOp0
 70
     1
102
RTVSPropertyOp1
 70
     1
102
RTVSPropertyOp2
 70
     1
102
RTVSPropertyOp3
 70
     1
102
RTVSPropertyOp4
 70
     1
102
RTVSPropertyOp5
 70
     1
102
RTVSPropertyOp6
 70
     1
102
RTVSPropertyOp7
 70
     1
102
RTVSPropertyOp8
 70
     1
102
RTVSPropertyOp9
 70
     1
102
RTVSPropertyOp10
 70
     1
102
RTVSPropertyOp11
 70
     1
102
RTVSPropertyOp12
 70
     1
102
RTVSPropertyOp13
 70
     1
102
RTVSPropertyOp14
 70
     1
102
RTVSPropertyOp15
 70
     1
102
RTVSPropertyOp16
 70
     1
102
RTVSPropertyOp17
 70
     1
102
RTVSPropertyOp18
 70
     1
102
RTVSPropertyOp19
 70
     1
102
RTVSPropertyOp20
 70
     1
102
RTVSPropertyOp21
 70
     1
102
RTVSPropertyOp22
 70
     1
102
RTVSPropertyOp23
 70
     1
102
RTVSPropertyOp24
 70
     1
102
RTVSPropertyOp25
 70
     1
102
RTVSPropertyOp26
 70
     1
102
RTVSPropertyOp27
 70
     1
102
RTVSPropertyOp28
 70
     1
102
RTVSPropertyOp29
 70
     1
102
RTVSPropertyOp30
 70
     1
102
RTVSPropertyOp31
 70
     1
102
RTVSPropertyOp32
 70
     1
102
RTVSPropertyOp33
 70
     1
102
RTVSPropertyOp34
 70
     1
102
RTVSPropertyOp35
 70
     1
102
RTVSPropertyOp36
 70
     1
102
RTVSPropertyOp37
 70
     1
102
RTVSPropertyOp38
 70
     1
102
RTVSPropertyOp39
 70
     1
102
RTVSPropertyOp40
 70
     1
102
RTVSPropertyOp41
 70
     1
102
RTVSPropertyOp42
 70
     1
102
RTVSPropertyOp43
 70
     1
102
RTVSPropertyOp44
 70
     1
102
RTVSPropertyOp45
 70
     1
102
RTVSPropertyOp46
 70
     1
102
RTVSPropertyOp47
 70
     1
102
RTVSPropertyOp48
 70
     1
102
RTVSPropertyOp49
 70
     1
102
RTVSPropertyOp50
 70
     1
102
RTVSPropertyOp51
 70
     0
102
RTVSPropertyOp52
 70
     0
102
RTVSPropertyOp53
 70
     1
102
RTVSPropertyOp54
 70
     1
102
RTVSPropertyOp55
 70
     1
102
RTVSPropertyOp56
 70
     1
102
RTVSPropertyOp57
 70
     1
102
RTVSPost2010Prop28
280
     0
102
RTVSPost2010PropOp28
 70
     1
102
RTVSPost2010Prop29
280
     1
102
RTVSPost2010PropOp29
 70
     1
102
RTVSPost2010Prop30
280
     1
102
RTVSPost2010PropOp30
 70
     1
102
RTVSPost2010Prop31
280
     0
102
RTVSPost2010PropOp31
 70
     1
102
RTVSPost2010Prop32
280
     0
102
RTVSPost2010PropOp32
 70
     1
102
RTVSPost2010Prop33
280
     0
102
RTVSPost2010PropOp33
 70
     1
102
RTVSPost2010Prop34
280
     0
102
RTVSPost2010PropOp34
 70
     1
102
RTVSPost2010Prop35
280
     0
102
RTVSPost2010PropOp35
 70
     1
102
RTVSPost2010Prop36
280
     0
102
RTVSPost2010PropOp36
 70
     1
102
RTVSPost2010Prop37
 90
       50
102
RTVSPost2010PropOp37
 70
     1
102
RTVSPost2010Prop38
140
0.0
102
RTVSPost2010PropOp38
 70
     1
102
RTVSPost2010Prop39
140
1.0
102
RTVSPost2010PropOp39
 70
     1
102
RTVSPost2010Prop40
 90
        0
102
RTVSPost2010PropOp40
 70
     1
102
RTVSPost2010Prop41ColorIndex
 90
       18
102
RTVSPost2010Prop41ColorRGB
 90
        0
102
RTVSPost2010PropOp41
 70
     1
102
RTVSPost2010Prop42
 90
       50
102
RTVSPost2010PropOp42
 70
     1
102
RTVSPost2010Prop43
 90
        3
102
RTVSPost2010PropOp43
 70
     1
102
RTVSPost2010Prop44ColorIndex
 90
        5
102
RTVSPost2010Prop44ColorRGB
 90
      255
102
RTVSPost2010PropOp44
 70
     1
102
RTVSPost2010Prop45
280
     0
102
RTVSPost2010PropOp45
 70
     1
102
RTVSPost2010Prop46
 90
       50
102
RTVSPost2010PropOp46
 70
     1
102
RTVSPost2010Prop47
 90
       50
102
RTVSPost2010PropOp47
 70
     1
102
RTVSPost2010Prop48
 90
       50
102
RTVSPost2010PropOp48
 70
     1
102
RTVSPost2010Prop49
280
     0
102
RTVSPost2010PropOp49
 70
     1
102
RTVSPost2010Prop50
 90
       50
102
RTVSPost2010PropOp50
 70
     1
102
RTVSPost2010Prop51ColorIndex
 90
      256
102
RTVSPost2010Prop51ColorRGB
 90
-16777216
102
RTVSPost2010PropOp51
 70
     0
102
RTVSPost2010Prop52
140
1.0
102
RTVSPost2010PropOp52
 70
     0
102
RTVSPost2010Prop53
 90
        2
102
RTVSPost2010PropOp53
 70
     1
102
RTVSPost2010Prop54
  1
strokes_ogs.tif
102
RTVSPost2010PropOp54
 70
     1
102
RTVSPost2010Prop55
280
     0
102
RTVSPost2010PropOp55
 70
     1
102
RTVSPost2010Prop56
140
1.0
102
RTVSPost2010PropOp56
 70
     1
102
RTVSPost2010Prop57
140
1.0
102
RTVSPost2010PropOp57
 70
     1
  0
XRECORD
  5
2DF
102
{ACAD_REACTORS
330
2DE
102
}
330
2DE
100
AcDbXrecord
280
     1
102
RTVSPropertyOp0
 70
     1
102
RTVSPropertyOp1
 70
     1
102
RTVSPropertyOp2
 70
     1
102
RTVSPropertyOp3
 70
     1
102
RTVSPropertyOp4
 70
     1
102
RTVSPropertyOp5
 70
     1
102
RTVSPropertyOp6
 70
     1
102
RTVSPropertyOp7
 70
     1
102
RTVSPropertyOp8
 70
     1
102
RTVSPropertyOp9
 70
     1
102
RTVSPropertyOp10
 70
     1
102
RTVSPropertyOp11
 70
     1
102
RTVSPropertyOp12
 70
     1
102
RTVSPropertyOp13
 70
     1
102
RTVSPropertyOp14
 70
     1
102
RTVSPropertyOp15
 70
     1
102
RTVSPropertyOp16
 70
     1
102
RTVSPropertyOp17
 70
     1
102
RTVSPropertyOp18
 70
     1
102
RTVSPropertyOp19
 70
     1
102
RTVSPropertyOp20
 70
     1
102
RTVSPropertyOp21
 70
     1
102
RTVSPropertyOp22
 70
     1
102
RTVSPropertyOp23
 70
     1
102
RTVSPropertyOp24
 70
     1
102
RTVSPropertyOp25
 70
     1
102
RTVSPropertyOp26
 70
     1
102
RTVSPropertyOp27
 70
     1
102
RTVSPropertyOp28
 70
     1
102
RTVSPropertyOp29
 70
     1
102
RTVSPropertyOp30
 70
     1
102
RTVSPropertyOp31
 70
     1
102
RTVSPropertyOp32
 70
     1
102
RTVSPropertyOp33
 70
     1
102
RTVSPropertyOp34
 70
     1
102
RTVSPropertyOp35
 70
     1
102
RTVSPropertyOp36
 70
     1
102
RTVSPropertyOp37
 70
     1
102
RTVSPropertyOp38
 70
     1
102
RTVSPropertyOp39
 70
     1
102
RTVSPropertyOp40
 70
     1
102
RTVSPropertyOp41
 70
     1
102
RTVSPropertyOp42
 70
     1
102
RTVSPropertyOp43
 70
     1
102
RTVSPropertyOp44
 70
     1
102
RTVSPropertyOp45
 70
     1
102
RTVSPropertyOp46
 70
     1
102
RTVSPropertyOp47
 70
     1
102
RTVSPropertyOp48
 70
     1
102
RTVSPropertyOp49
 70
     1
102
RTVSPropertyOp50
 70
     1
102
RTVSPropertyOp51
 70
     0
102
RTVSPropertyOp52
 70
     0
102
RTVSPropertyOp53
 70
     1
102
RTVSPropertyOp54
 70
     1
102
RTVSPropertyOp55
 70
     1
102
RTVSPropertyOp56
 70
     1
102
RTVSPropertyOp57
 70
     1
102
RTVSPost2010Prop28
280
     0
102
RTVSPost2010PropOp28
 70
     1
102
RTVSPost2010Prop29
280
     1
102
RTVSPost2010PropOp29
 70
     1
102
RTVSPost2010Prop30
280
     1
102
RTVSPost2010PropOp30
 70
     1
102
RTVSPost2010Prop31
280
     0
102
RTVSPost2010PropOp31
 70
     1
102
RTVSPost2010Prop32
280
     0
102
RTVSPost2010PropOp32
 70
     1
102
RTVSPost2010Prop33
280
     0
102
RTVSPost2010PropOp33
 70
     1
102
RTVSPost2010Prop34
280
     0
102
RTVSPost2010PropOp34
 70
     1
102
RTVSPost2010Prop35
280
     0
102
RTVSPost2010PropOp35
 70
     1
102
RTVSPost2010Prop36
280
     0
102
RTVSPost2010PropOp36
 70
     1
102
RTVSPost2010Prop37
 90
       50
102
RTVSPost2010PropOp37
 70
     1
102
RTVSPost2010Prop38
140
0.0
102
RTVSPost2010PropOp38
 70
     1
102
RTVSPost2010Prop39
140
1.0
102
RTVSPost2010PropOp39
 70
     1
102
RTVSPost2010Prop40
 90
        0
102
RTVSPost2010PropOp40
 70
     1
102
RTVSPost2010Prop41ColorIndex
 90
       18
102
RTVSPost2010Prop41ColorRGB
 90
        0
102
RTVSPost2010PropOp41
 70
     1
102
RTVSPost2010Prop42
 90
       50
102
RTVSPost2010PropOp42
 70
     1
102
RTVSPost2010Prop43
 90
        3
102
RTVSPost2010PropOp43
 70
     1
102
RTVSPost2010Prop44ColorIndex
 90
        5
102
RTVSPost2010Prop44ColorRGB
 90
      255
102
RTVSPost2010PropOp44
 70
     1
102
RTVSPost2010Prop45
280
     0
102
RTVSPost2010PropOp45
 70
     1
102
RTVSPost2010Prop46
 90
       50
102
RTVSPost2010PropOp46
 70
     1
102
RTVSPost2010Prop47
 90
       50
102
RTVSPost2010PropOp47
 70
     1
102
RTVSPost2010Prop48
 90
       50
102
RTVSPost2010PropOp48
 70
     1
102
RTVSPost2010Prop49
280
     0
102
RTVSPost2010PropOp49
 70
     1
102
RTVSPost2010Prop50
 90
       50
102
RTVSPost2010PropOp50
 70
     1
102
RTVSPost2010Prop51ColorIndex
 90
      256
102
RTVSPost2010Prop51ColorRGB
 90
-16777216
102
RTVSPost2010PropOp51
 70
     0
102
RTVSPost2010Prop52
140
1.0
102
RTVSPost2010PropOp52
 70
     0
102
RTVSPost2010Prop53
 90
        2
102
RTVSPost2010PropOp53
 70
     1
102
RTVSPost2010Prop54
  1
strokes_ogs.tif
102
RTVSPost2010PropOp54
 70
     1
102
RTVSPost2010Prop55
280
     0
102
RTVSPost2010PropOp55
 70
     1
102
RTVSPost2010Prop56
140
1.0
102
RTVSPost2010PropOp56
 70
     1
102
RTVSPost2010Prop57
140
1.0
102
RTVSPost2010PropOp57
 70
     1
  0
XRECORD
  5
2D9
102
{ACAD_REACTORS
330
2D8
102
}
330
2D8
100
AcDbXrecord
280
     1
102
RTVSPropertyOp0
 70
     1
102
RTVSPropertyOp1
 70
     1
102
RTVSPropertyOp2
 70
     1
102
RTVSPropertyOp3
 70
     1
102
RTVSPropertyOp4
 70
     1
102
RTVSPropertyOp5
 70
     1
102
RTVSPropertyOp6
 70
     1
102
RTVSPropertyOp7
 70
     1
102
RTVSPropertyOp8
 70
     1
102
RTVSPropertyOp9
 70
     1
102
RTVSPropertyOp10
 70
     1
102
RTVSPropertyOp11
 70
     1
102
RTVSPropertyOp12
 70
     1
102
RTVSPropertyOp13
 70
     1
102
RTVSPropertyOp14
 70
     1
102
RTVSPropertyOp15
 70
     1
102
RTVSPropertyOp16
 70
     1
102
RTVSPropertyOp17
 70
     1
102
RTVSPropertyOp18
 70
     1
102
RTVSPropertyOp19
 70
     1
102
RTVSPropertyOp20
 70
     1
102
RTVSPropertyOp21
 70
     1
102
RTVSPropertyOp22
 70
     1
102
RTVSPropertyOp23
 70
     1
102
RTVSPropertyOp24
 70
     1
102
RTVSPropertyOp25
 70
     1
102
RTVSPropertyOp26
 70
     1
102
RTVSPropertyOp27
 70
     1
102
RTVSPropertyOp28
 70
     1
102
RTVSPropertyOp29
 70
     1
102
RTVSPropertyOp30
 70
     1
102
RTVSPropertyOp31
 70
     1
102
RTVSPropertyOp32
 70
     1
102
RTVSPropertyOp33
 70
     1
102
RTVSPropertyOp34
 70
     1
102
RTVSPropertyOp35
 70
     1
102
RTVSPropertyOp36
 70
     1
102
RTVSPropertyOp37
 70
     1
102
RTVSPropertyOp38
 70
     1
102
RTVSPropertyOp39
 70
     1
102
RTVSPropertyOp40
 70
     1
102
RTVSPropertyOp41
 70
     1
102
RTVSPropertyOp42
 70
     1
102
RTVSPropertyOp43
 70
     1
102
RTVSPropertyOp44
 70
     1
102
RTVSPropertyOp45
 70
     1
102
RTVSPropertyOp46
 70
     1
102
RTVSPropertyOp47
 70
     1
102
RTVSPropertyOp48
 70
     1
102
RTVSPropertyOp49
 70
     1
102
RTVSPropertyOp50
 70
     1
102
RTVSPropertyOp51
 70
     0
102
RTVSPropertyOp52
 70
     0
102
RTVSPropertyOp53
 70
     1
102
RTVSPropertyOp54
 70
     1
102
RTVSPropertyOp55
 70
     1
102
RTVSPropertyOp56
 70
     1
102
RTVSPropertyOp57
 70
     1
102
RTVSPost2010Prop28
280
     0
102
RTVSPost2010PropOp28
 70
     1
102
RTVSPost2010Prop29
280
     1
102
RTVSPost2010PropOp29
 70
     1
102
RTVSPost2010Prop30
280
     1
102
RTVSPost2010PropOp30
 70
     1
102
RTVSPost2010Prop31
280
     0
102
RTVSPost2010PropOp31
 70
     1
102
RTVSPost2010Prop32
280
     0
102
RTVSPost2010PropOp32
 70
     1
102
RTVSPost2010Prop33
280
     0
102
RTVSPost2010PropOp33
 70
     1
102
RTVSPost2010Prop34
280
     0
102
RTVSPost2010PropOp34
 70
     1
102
RTVSPost2010Prop35
280
     0
102
RTVSPost2010PropOp35
 70
     1
102
RTVSPost2010Prop36
280
     0
102
RTVSPost2010PropOp36
 70
     1
102
RTVSPost2010Prop37
 90
       50
102
RTVSPost2010PropOp37
 70
     1
102
RTVSPost2010Prop38
140
0.0
102
RTVSPost2010PropOp38
 70
     1
102
RTVSPost2010Prop39
140
1.0
102
RTVSPost2010PropOp39
 70
     1
102
RTVSPost2010Prop40
 90
        0
102
RTVSPost2010PropOp40
 70
     1
102
RTVSPost2010Prop41ColorIndex
 90
       18
102
RTVSPost2010Prop41ColorRGB
 90
        0
102
RTVSPost2010PropOp41
 70
     1
102
RTVSPost2010Prop42
 90
       50
102
RTVSPost2010PropOp42
 70
     1
102
RTVSPost2010Prop43
 90
        3
102
RTVSPost2010PropOp43
 70
     1
102
RTVSPost2010Prop44ColorIndex
 90
        5
102
RTVSPost2010Prop44ColorRGB
 90
      255
102
RTVSPost2010PropOp44
 70
     1
102
RTVSPost2010Prop45
280
     0
102
RTVSPost2010PropOp45
 70
     1
102
RTVSPost2010Prop46
 90
       50
102
RTVSPost2010PropOp46
 70
     1
102
RTVSPost2010Prop47
 90
       50
102
RTVSPost2010PropOp47
 70
     1
102
RTVSPost2010Prop48
 90
       50
102
RTVSPost2010PropOp48
 70
     1
102
RTVSPost2010Prop49
280
     0
102
RTVSPost2010PropOp49
 70
     1
102
RTVSPost2010Prop50
 90
       50
102
RTVSPost2010PropOp50
 70
     1
102
RTVSPost2010Prop51ColorIndex
 90
      256
102
RTVSPost2010Prop51ColorRGB
 90
-16777216
102
RTVSPost2010PropOp51
 70
     0
102
RTVSPost2010Prop52
140
1.0
102
RTVSPost2010PropOp52
 70
     0
102
RTVSPost2010Prop53
 90
        2
102
RTVSPost2010PropOp53
 70
     1
102
RTVSPost2010Prop54
  1
strokes_ogs.tif
102
RTVSPost2010PropOp54
 70
     1
102
RTVSPost2010Prop55
280
     0
102
RTVSPost2010PropOp55
 70
     1
102
RTVSPost2010Prop56
140
1.0
102
RTVSPost2010PropOp56
 70
     1
102
RTVSPost2010Prop57
140
1.0
102
RTVSPost2010PropOp57
 70
     1
  0
XRECORD
  5
2DB
102
{ACAD_REACTORS
330
2DA
102
}
330
2DA
100
AcDbXrecord
280
     1
102
RTVSPropertyOp0
 70
     1
102
RTVSPropertyOp1
 70
     1
102
RTVSPropertyOp2
 70
     1
102
RTVSPropertyOp3
 70
     1
102
RTVSPropertyOp4
 70
     1
102
RTVSPropertyOp5
 70
     1
102
RTVSPropertyOp6
 70
     1
102
RTVSPropertyOp7
 70
     1
102
RTVSPropertyOp8
 70
     1
102
RTVSPropertyOp9
 70
     1
102
RTVSPropertyOp10
 70
     1
102
RTVSPropertyOp11
 70
     1
102
RTVSPropertyOp12
 70
     1
102
RTVSPropertyOp13
 70
     1
102
RTVSPropertyOp14
 70
     1
102
RTVSPropertyOp15
 70
     1
102
RTVSPropertyOp16
 70
     1
102
RTVSPropertyOp17
 70
     1
102
RTVSPropertyOp18
 70
     1
102
RTVSPropertyOp19
 70
     1
102
RTVSPropertyOp20
 70
     1
102
RTVSPropertyOp21
 70
     1
102
RTVSPropertyOp22
 70
     1
102
RTVSPropertyOp23
 70
     1
102
RTVSPropertyOp24
 70
     1
102
RTVSPropertyOp25
 70
     1
102
RTVSPropertyOp26
 70
     1
102
RTVSPropertyOp27
 70
     1
102
RTVSPropertyOp28
 70
     1
102
RTVSPropertyOp29
 70
     1
102
RTVSPropertyOp30
 70
     1
102
RTVSPropertyOp31
 70
     1
102
RTVSPropertyOp32
 70
     1
102
RTVSPropertyOp33
 70
     1
102
RTVSPropertyOp34
 70
     1
102
RTVSPropertyOp35
 70
     1
102
RTVSPropertyOp36
 70
     1
102
RTVSPropertyOp37
 70
     1
102
RTVSPropertyOp38
 70
     1
102
RTVSPropertyOp39
 70
     1
102
RTVSPropertyOp40
 70
     1
102
RTVSPropertyOp41
 70
     1
102
RTVSPropertyOp42
 70
     1
102
RTVSPropertyOp43
 70
     1
102
RTVSPropertyOp44
 70
     1
102
RTVSPropertyOp45
 70
     1
102
RTVSPropertyOp46
 70
     1
102
RTVSPropertyOp47
 70
     1
102
RTVSPropertyOp48
 70
     1
102
RTVSPropertyOp49
 70
     1
102
RTVSPropertyOp50
 70
     1
102
RTVSPropertyOp51
 70
     0
102
RTVSPropertyOp52
 70
     0
102
RTVSPropertyOp53
 70
     1
102
RTVSPropertyOp54
 70
     1
102
RTVSPropertyOp55
 70
     1
102
RTVSPropertyOp56
 70
     1
102
RTVSPropertyOp57
 70
     1
102
RTVSPost2010Prop28
280
     0
102
RTVSPost2010PropOp28
 70
     1
102
RTVSPost2010Prop29
280
     1
102
RTVSPost2010PropOp29
 70
     1
102
RTVSPost2010Prop30
280
     1
102
RTVSPost2010PropOp30
 70
     1
102
RTVSPost2010Prop31
280
     0
102
RTVSPost2010PropOp31
 70
     1
102
RTVSPost2010Prop32
280
     0
102
RTVSPost2010PropOp32
 70
     1
102
RTVSPost2010Prop33
280
     0
102
RTVSPost2010PropOp33
 70
     1
102
RTVSPost2010Prop34
280
     0
102
RTVSPost2010PropOp34
 70
     1
102
RTVSPost2010Prop35
280
     0
102
RTVSPost2010PropOp35
 70
     1
102
RTVSPost2010Prop36
280
     0
102
RTVSPost2010PropOp36
 70
     1
102
RTVSPost2010Prop37
 90
       50
102
RTVSPost2010PropOp37
 70
     1
102
RTVSPost2010Prop38
140
0.0
102
RTVSPost2010PropOp38
 70
     1
102
RTVSPost2010Prop39
140
1.0
102
RTVSPost2010PropOp39
 70
     1
102
RTVSPost2010Prop40
 90
        0
102
RTVSPost2010PropOp40
 70
     1
102
RTVSPost2010Prop41ColorIndex
 90
       18
102
RTVSPost2010Prop41ColorRGB
 90
        0
102
RTVSPost2010PropOp41
 70
     1
102
RTVSPost2010Prop42
 90
       50
102
RTVSPost2010PropOp42
 70
     1
102
RTVSPost2010Prop43
 90
        3
102
RTVSPost2010PropOp43
 70
     1
102
RTVSPost2010Prop44ColorIndex
 90
        5
102
RTVSPost2010Prop44ColorRGB
 90
      255
102
RTVSPost2010PropOp44
 70
     1
102
RTVSPost2010Prop45
280
     0
102
RTVSPost2010PropOp45
 70
     1
102
RTVSPost2010Prop46
 90
       50
102
RTVSPost2010PropOp46
 70
     1
102
RTVSPost2010Prop47
 90
       50
102
RTVSPost2010PropOp47
 70
     1
102
RTVSPost2010Prop48
 90
       50
102
RTVSPost2010PropOp48
 70
     1
102
RTVSPost2010Prop49
280
     0
102
RTVSPost2010PropOp49
 70
     1
102
RTVSPost2010Prop50
 90
       50
102
RTVSPost2010PropOp50
 70
     1
102
RTVSPost2010Prop51ColorIndex
 90
      256
102
RTVSPost2010Prop51ColorRGB
 90
-16777216
102
RTVSPost2010PropOp51
 70
     0
102
RTVSPost2010Prop52
140
1.0
102
RTVSPost2010PropOp52
 70
     0
102
RTVSPost2010Prop53
 90
        2
102
RTVSPost2010PropOp53
 70
     1
102
RTVSPost2010Prop54
  1
strokes_ogs.tif
102
RTVSPost2010PropOp54
 70
     1
102
RTVSPost2010Prop55
280
     0
102
RTVSPost2010PropOp55
 70
     1
102
RTVSPost2010Prop56
140
1.0
102
RTVSPost2010PropOp56
 70
     1
102
RTVSPost2010Prop57
140
1.0
102
RTVSPost2010PropOp57
 70
     1
  0
XRECORD
  5
2CB
102
{ACAD_REACTORS
330
2CA
102
}
330
2CA
100
AcDbXrecord
280
     1
102
RTVSPropertyOp0
 70
     1
102
RTVSPropertyOp1
 70
     1
102
RTVSPropertyOp2
 70
     1
102
RTVSPropertyOp3
 70
     1
102
RTVSPropertyOp4
 70
     1
102
RTVSPropertyOp5
 70
     1
102
RTVSPropertyOp6
 70
     1
102
RTVSPropertyOp7
 70
     1
102
RTVSPropertyOp8
 70
     1
102
RTVSPropertyOp9
 70
     1
102
RTVSPropertyOp10
 70
     1
102
RTVSPropertyOp11
 70
     1
102
RTVSPropertyOp12
 70
     1
102
RTVSPropertyOp13
 70
     1
102
RTVSPropertyOp14
 70
     1
102
RTVSPropertyOp15
 70
     1
102
RTVSPropertyOp16
 70
     1
102
RTVSPropertyOp17
 70
     1
102
RTVSPropertyOp18
 70
     1
102
RTVSPropertyOp19
 70
     1
102
RTVSPropertyOp20
 70
     1
102
RTVSPropertyOp21
 70
     1
102
RTVSPropertyOp22
 70
     1
102
RTVSPropertyOp23
 70
     1
102
RTVSPropertyOp24
 70
     1
102
RTVSPropertyOp25
 70
     1
102
RTVSPropertyOp26
 70
     1
102
RTVSPropertyOp27
 70
     1
102
RTVSPropertyOp28
 70
     1
102
RTVSPropertyOp29
 70
     1
102
RTVSPropertyOp30
 70
     1
102
RTVSPropertyOp31
 70
     1
102
RTVSPropertyOp32
 70
     1
102
RTVSPropertyOp33
 70
     1
102
RTVSPropertyOp34
 70
     1
102
RTVSPropertyOp35
 70
     1
102
RTVSPropertyOp36
 70
     1
102
RTVSPropertyOp37
 70
     1
102
RTVSPropertyOp38
 70
     1
102
RTVSPropertyOp39
 70
     1
102
RTVSPropertyOp40
 70
     1
102
RTVSPropertyOp41
 70
     1
102
RTVSPropertyOp42
 70
     1
102
RTVSPropertyOp43
 70
     1
102
RTVSPropertyOp44
 70
     1
102
RTVSPropertyOp45
 70
     1
102
RTVSPropertyOp46
 70
     1
102
RTVSPropertyOp47
 70
     1
102
RTVSPropertyOp48
 70
     1
102
RTVSPropertyOp49
 70
     1
102
RTVSPropertyOp50
 70
     1
102
RTVSPropertyOp51
 70
     0
102
RTVSPropertyOp52
 70
     0
102
RTVSPropertyOp53
 70
     1
102
RTVSPropertyOp54
 70
     1
102
RTVSPropertyOp55
 70
     1
102
RTVSPropertyOp56
 70
     1
102
RTVSPropertyOp57
 70
     1
102
RTVSPost2010Prop28
280
     0
102
RTVSPost2010PropOp28
 70
     1
102
RTVSPost2010Prop29
280
     1
102
RTVSPost2010PropOp29
 70
     1
102
RTVSPost2010Prop30
280
     1
102
RTVSPost2010PropOp30
 70
     1
102
RTVSPost2010Prop31
280
     0
102
RTVSPost2010PropOp31
 70
     1
102
RTVSPost2010Prop32
280
     0
102
RTVSPost2010PropOp32
 70
     1
102
RTVSPost2010Prop33
280
     0
102
RTVSPost2010PropOp33
 70
     1
102
RTVSPost2010Prop34
280
     0
102
RTVSPost2010PropOp34
 70
     1
102
RTVSPost2010Prop35
280
     0
102
RTVSPost2010PropOp35
 70
     1
102
RTVSPost2010Prop36
280
     0
102
RTVSPost2010PropOp36
 70
     1
102
RTVSPost2010Prop37
 90
       50
102
RTVSPost2010PropOp37
 70
     1
102
RTVSPost2010Prop38
140
0.0
102
RTVSPost2010PropOp38
 70
     1
102
RTVSPost2010Prop39
140
1.0
102
RTVSPost2010PropOp39
 70
     1
102
RTVSPost2010Prop40
 90
        0
102
RTVSPost2010PropOp40
 70
     1
102
RTVSPost2010Prop41ColorIndex
 90
       18
102
RTVSPost2010Prop41ColorRGB
 90
        0
102
RTVSPost2010PropOp41
 70
     1
102
RTVSPost2010Prop42
 90
       50
102
RTVSPost2010PropOp42
 70
     1
102
RTVSPost2010Prop43
 90
        3
102
RTVSPost2010PropOp43
 70
     1
102
RTVSPost2010Prop44ColorIndex
 90
        5
102
RTVSPost2010Prop44ColorRGB
 90
      255
102
RTVSPost2010PropOp44
 70
     1
102
RTVSPost2010Prop45
280
     0
102
RTVSPost2010PropOp45
 70
     1
102
RTVSPost2010Prop46
 90
       50
102
RTVSPost2010PropOp46
 70
     1
102
RTVSPost2010Prop47
 90
       50
102
RTVSPost2010PropOp47
 70
     1
102
RTVSPost2010Prop48
 90
       50
102
RTVSPost2010PropOp48
 70
     1
102
RTVSPost2010Prop49
280
     0
102
RTVSPost2010PropOp49
 70
     1
102
RTVSPost2010Prop50
 90
       50
102
RTVSPost2010PropOp50
 70
     1
102
RTVSPost2010Prop51ColorIndex
 90
      256
102
RTVSPost2010Prop51ColorRGB
 90
-16777216
102
RTVSPost2010PropOp51
 70
     0
102
RTVSPost2010Prop52
140
1.0
102
RTVSPost2010PropOp52
 70
     0
102
RTVSPost2010Prop53
 90
        2
102
RTVSPost2010PropOp53
 70
     1
102
RTVSPost2010Prop54
  1
strokes_ogs.tif
102
RTVSPost2010PropOp54
 70
     1
102
RTVSPost2010Prop55
280
     0
102
RTVSPost2010PropOp55
 70
     1
102
RTVSPost2010Prop56
140
1.0
102
RTVSPost2010PropOp56
 70
     1
102
RTVSPost2010Prop57
140
1.0
102
RTVSPost2010PropOp57
 70
     1
  0
XRECORD
  5
2BD
102
{ACAD_REACTORS
330
2BC
102
}
330
2BC
100
AcDbXrecord
280
     1
102
RTVSPropertyOp0
 70
     1
102
RTVSPropertyOp1
 70
     1
102
RTVSPropertyOp2
 70
     1
102
RTVSPropertyOp3
 70
     1
102
RTVSPropertyOp4
 70
     1
102
RTVSPropertyOp5
 70
     1
102
RTVSPropertyOp6
 70
     1
102
RTVSPropertyOp7
 70
     1
102
RTVSPropertyOp8
 70
     1
102
RTVSPropertyOp9
 70
     1
102
RTVSPropertyOp10
 70
     1
102
RTVSPropertyOp11
 70
     1
102
RTVSPropertyOp12
 70
     1
102
RTVSPropertyOp13
 70
     1
102
RTVSPropertyOp14
 70
     1
102
RTVSPropertyOp15
 70
     1
102
RTVSPropertyOp16
 70
     1
102
RTVSPropertyOp17
 70
     1
102
RTVSPropertyOp18
 70
     1
102
RTVSPropertyOp19
 70
     1
102
RTVSPropertyOp20
 70
     1
102
RTVSPropertyOp21
 70
     1
102
RTVSPropertyOp22
 70
     1
102
RTVSPropertyOp23
 70
     1
102
RTVSPropertyOp24
 70
     1
102
RTVSPropertyOp25
 70
     1
102
RTVSPropertyOp26
 70
     1
102
RTVSPropertyOp27
 70
     1
102
RTVSPropertyOp28
 70
     1
102
RTVSPropertyOp29
 70
     1
102
RTVSPropertyOp30
 70
     1
102
RTVSPropertyOp31
 70
     1
102
RTVSPropertyOp32
 70
     1
102
RTVSPropertyOp33
 70
     1
102
RTVSPropertyOp34
 70
     1
102
RTVSPropertyOp35
 70
     1
102
RTVSPropertyOp36
 70
     1
102
RTVSPropertyOp37
 70
     1
102
RTVSPropertyOp38
 70
     1
102
RTVSPropertyOp39
 70
     1
102
RTVSPropertyOp40
 70
     1
102
RTVSPropertyOp41
 70
     1
102
RTVSPropertyOp42
 70
     1
102
RTVSPropertyOp43
 70
     1
102
RTVSPropertyOp44
 70
     1
102
RTVSPropertyOp45
 70
     1
102
RTVSPropertyOp46
 70
     1
102
RTVSPropertyOp47
 70
     1
102
RTVSPropertyOp48
 70
     1
102
RTVSPropertyOp49
 70
     1
102
RTVSPropertyOp50
 70
     1
102
RTVSPropertyOp51
 70
     0
102
RTVSPropertyOp52
 70
     0
102
RTVSPropertyOp53
 70
     1
102
RTVSPropertyOp54
 70
     1
102
RTVSPropertyOp55
 70
     1
102
RTVSPropertyOp56
 70
     1
102
RTVSPropertyOp57
 70
     1
102
RTVSPost2010Prop28
280
     0
102
RTVSPost2010PropOp28
 70
     1
102
RTVSPost2010Prop29
280
     1
102
RTVSPost2010PropOp29
 70
     1
102
RTVSPost2010Prop30
280
     1
102
RTVSPost2010PropOp30
 70
     1
102
RTVSPost2010Prop31
280
     0
102
RTVSPost2010PropOp31
 70
     1
102
RTVSPost2010Prop32
280
     0
102
RTVSPost2010PropOp32
 70
     1
102
RTVSPost2010Prop33
280
     0
102
RTVSPost2010PropOp33
 70
     1
102
RTVSPost2010Prop34
280
     0
102
RTVSPost2010PropOp34
 70
     1
102
RTVSPost2010Prop35
280
     0
102
RTVSPost2010PropOp35
 70
     1
102
RTVSPost2010Prop36
280
     0
102
RTVSPost2010PropOp36
 70
     1
102
RTVSPost2010Prop37
 90
       50
102
RTVSPost2010PropOp37
 70
     1
102
RTVSPost2010Prop38
140
0.0
102
RTVSPost2010PropOp38
 70
     1
102
RTVSPost2010Prop39
140
1.0
102
RTVSPost2010PropOp39
 70
     1
102
RTVSPost2010Prop40
 90
        0
102
RTVSPost2010PropOp40
 70
     1
102
RTVSPost2010Prop41ColorIndex
 90
       18
102
RTVSPost2010Prop41ColorRGB
 90
        0
102
RTVSPost2010PropOp41
 70
     1
102
RTVSPost2010Prop42
 90
       50
102
RTVSPost2010PropOp42
 70
     1
102
RTVSPost2010Prop43
 90
        3
102
RTVSPost2010PropOp43
 70
     1
102
RTVSPost2010Prop44ColorIndex
 90
        5
102
RTVSPost2010Prop44ColorRGB
 90
      255
102
RTVSPost2010PropOp44
 70
     1
102
RTVSPost2010Prop45
280
     0
102
RTVSPost2010PropOp45
 70
     1
102
RTVSPost2010Prop46
 90
       50
102
RTVSPost2010PropOp46
 70
     1
102
RTVSPost2010Prop47
 90
       50
102
RTVSPost2010PropOp47
 70
     1
102
RTVSPost2010Prop48
 90
       50
102
RTVSPost2010PropOp48
 70
     1
102
RTVSPost2010Prop49
280
     0
102
RTVSPost2010PropOp49
 70
     1
102
RTVSPost2010Prop50
 90
       50
102
RTVSPost2010PropOp50
 70
     1
102
RTVSPost2010Prop51ColorIndex
 90
      256
102
RTVSPost2010Prop51ColorRGB
 90
-16777216
102
RTVSPost2010PropOp51
 70
     0
102
RTVSPost2010Prop52
140
1.0
102
RTVSPost2010PropOp52
 70
     0
102
RTVSPost2010Prop53
 90
        2
102
RTVSPost2010PropOp53
 70
     1
102
RTVSPost2010Prop54
  1
strokes_ogs.tif
102
RTVSPost2010PropOp54
 70
     1
102
RTVSPost2010Prop55
280
     0
102
RTVSPost2010PropOp55
 70
     1
102
RTVSPost2010Prop56
140
1.0
102
RTVSPost2010PropOp56
 70
     1
102
RTVSPost2010Prop57
140
1.0
102
RTVSPost2010PropOp57
 70
     1
  0
XRECORD
  5
2DD
102
{ACAD_REACTORS
330
2DC
102
}
330
2DC
100
AcDbXrecord
280
     1
102
RTVSPropertyOp0
 70
     1
102
RTVSPropertyOp1
 70
     1
102
RTVSPropertyOp2
 70
     1
102
RTVSPropertyOp3
 70
     1
102
RTVSPropertyOp4
 70
     1
102
RTVSPropertyOp5
 70
     1
102
RTVSPropertyOp6
 70
     1
102
RTVSPropertyOp7
 70
     1
102
RTVSPropertyOp8
 70
     1
102
RTVSPropertyOp9
 70
     1
102
RTVSPropertyOp10
 70
     1
102
RTVSPropertyOp11
 70
     1
102
RTVSPropertyOp12
 70
     1
102
RTVSPropertyOp13
 70
     1
102
RTVSPropertyOp14
 70
     1
102
RTVSPropertyOp15
 70
     1
102
RTVSPropertyOp16
 70
     1
102
RTVSPropertyOp17
 70
     1
102
RTVSPropertyOp18
 70
     1
102
RTVSPropertyOp19
 70
     1
102
RTVSPropertyOp20
 70
     1
102
RTVSPropertyOp21
 70
     1
102
RTVSPropertyOp22
 70
     1
102
RTVSPropertyOp23
 70
     1
102
RTVSPropertyOp24
 70
     1
102
RTVSPropertyOp25
 70
     1
102
RTVSPropertyOp26
 70
     1
102
RTVSPropertyOp27
 70
     1
102
RTVSPropertyOp28
 70
     1
102
RTVSPropertyOp29
 70
     1
102
RTVSPropertyOp30
 70
     1
102
RTVSPropertyOp31
 70
     1
102
RTVSPropertyOp32
 70
     1
102
RTVSPropertyOp33
 70
     1
102
RTVSPropertyOp34
 70
     1
102
RTVSPropertyOp35
 70
     1
102
RTVSPropertyOp36
 70
     1
102
RTVSPropertyOp37
 70
     1
102
RTVSPropertyOp38
 70
     1
102
RTVSPropertyOp39
 70
     1
102
RTVSPropertyOp40
 70
     1
102
RTVSPropertyOp41
 70
     1
102
RTVSPropertyOp42
 70
     1
102
RTVSPropertyOp43
 70
     1
102
RTVSPropertyOp44
 70
     1
102
RTVSPropertyOp45
 70
     1
102
RTVSPropertyOp46
 70
     1
102
RTVSPropertyOp47
 70
     1
102
RTVSPropertyOp48
 70
     1
102
RTVSPropertyOp49
 70
     1
102
RTVSPropertyOp50
 70
     1
102
RTVSPropertyOp51
 70
     0
102
RTVSPropertyOp52
 70
     0
102
RTVSPropertyOp53
 70
     1
102
RTVSPropertyOp54
 70
     1
102
RTVSPropertyOp55
 70
     1
102
RTVSPropertyOp56
 70
     1
102
RTVSPropertyOp57
 70
     1
102
RTVSPost2010Prop28
280
     0
102
RTVSPost2010PropOp28
 70
     1
102
RTVSPost2010Prop29
280
     1
102
RTVSPost2010PropOp29
 70
     1
102
RTVSPost2010Prop30
280
     1
102
RTVSPost2010PropOp30
 70
     1
102
RTVSPost2010Prop31
280
     0
102
RTVSPost2010PropOp31
 70
     1
102
RTVSPost2010Prop32
280
     0
102
RTVSPost2010PropOp32
 70
     1
102
RTVSPost2010Prop33
280
     0
102
RTVSPost2010PropOp33
 70
     1
102
RTVSPost2010Prop34
280
     0
102
RTVSPost2010PropOp34
 70
     1
102
RTVSPost2010Prop35
280
     0
102
RTVSPost2010PropOp35
 70
     1
102
RTVSPost2010Prop36
280
     0
102
RTVSPost2010PropOp36
 70
     1
102
RTVSPost2010Prop37
 90
       50
102
RTVSPost2010PropOp37
 70
     1
102
RTVSPost2010Prop38
140
0.0
102
RTVSPost2010PropOp38
 70
     1
102
RTVSPost2010Prop39
140
1.0
102
RTVSPost2010PropOp39
 70
     1
102
RTVSPost2010Prop40
 90
        0
102
RTVSPost2010PropOp40
 70
     1
102
RTVSPost2010Prop41ColorIndex
 90
       18
102
RTVSPost2010Prop41ColorRGB
 90
        0
102
RTVSPost2010PropOp41
 70
     1
102
RTVSPost2010Prop42
 90
       50
102
RTVSPost2010PropOp42
 70
     1
102
RTVSPost2010Prop43
 90
        3
102
RTVSPost2010PropOp43
 70
     1
102
RTVSPost2010Prop44ColorIndex
 90
        5
102
RTVSPost2010Prop44ColorRGB
 90
      255
102
RTVSPost2010PropOp44
 70
     1
102
RTVSPost2010Prop45
280
     0
102
RTVSPost2010PropOp45
 70
     1
102
RTVSPost2010Prop46
 90
       50
102
RTVSPost2010PropOp46
 70
     1
102
RTVSPost2010Prop47
 90
       50
102
RTVSPost2010PropOp47
 70
     1
102
RTVSPost2010Prop48
 90
       50
102
RTVSPost2010PropOp48
 70
     1
102
RTVSPost2010Prop49
280
     0
102
RTVSPost2010PropOp49
 70
     1
102
RTVSPost2010Prop50
 90
       50
102
RTVSPost2010PropOp50
 70
     1
102
RTVSPost2010Prop51ColorIndex
 90
      256
102
RTVSPost2010Prop51ColorRGB
 90
-16777216
102
RTVSPost2010PropOp51
 70
     0
102
RTVSPost2010Prop52
140
1.0
102
RTVSPost2010PropOp52
 70
     0
102
RTVSPost2010Prop53
 90
        2
102
RTVSPost2010PropOp53
 70
     1
102
RTVSPost2010Prop54
  1
strokes_ogs.tif
102
RTVSPost2010PropOp54
 70
     1
102
RTVSPost2010Prop55
280
     0
102
RTVSPost2010PropOp55
 70
     1
102
RTVSPost2010Prop56
140
1.0
102
RTVSPost2010PropOp56
 70
     1
102
RTVSPost2010Prop57
140
1.0
102
RTVSPost2010PropOp57
 70
     1
  0
ENDSEC
  0
EOF
