  0
SECTION
  2
HEADER
  9
$ACADVER
  1
AC1018
  9
$ACADMAINTVER
 70
     0
  9
$DWGCODEPAGE
  3
ANSI_932
  9
$INSBASE
 10
0.0
 20
0.0
 30
0.0
  9
$EXTMIN
 10
-2100.0
 20
-1485.0
 30
0.0
  9
$EXTMAX
 10
2100.0
 20
1485.0
 30
0.0
  9
$LIMMIN
 10
-2100.0
 20
-1485.0
  9
$LIMMAX
 10
2100.0
 20
1485.0
  9
$ORTHOMODE
 70
     0
  9
$REGENMODE
 70
     1
  9
$FILLMODE
 70
     1
  9
$QTEXTMODE
 70
     0
  9
$MIRRTEXT
 70
     1
  9
$LTSCALE
 40
10.0
  9
$ATTMODE
 70
     1
  9
$TEXTSIZE
 40
2.5
  9
$TRACEWID
 40
1.0
  9
$TEXTSTYLE
  7
Standard
  9
$CLAYER
  8
0
  9
$CELTYPE
  6
ByLayer
  9
$CECOLOR
 62
   256
  9
$CELTSCALE
 40
1.0
  9
$DISPSILH
 70
     0
  9
$DIMSCALE
 40
1.0
  9
$DIMASZ
 40
2.5
  9
$DIMEXO
 40
0.625
  9
$DIMDLI
 40
3.75
  9
$DIMRND
 40
0.0
  9
$DIMDLE
 40
0.0
  9
$DIMEXE
 40
1.25
  9
$DIMTP
 40
0.0
  9
$DIMTM
 40
0.0
  9
$DIMTXT
 40
2.5
  9
$DIMCEN
 40
2.5
  9
$DIMTSZ
 40
0.0
  9
$DIMTOL
 70
     0
  9
$DIMLIM
 70
     0
  9
$DIMTIH
 70
     0
  9
$DIMTOH
 70
     0
  9
$DIMSE1
 70
     0
  9
$DIMSE2
 70
     0
  9
$DIMTAD
 70
     1
  9
$DIMZIN
 70
     8
  9
$DIMBLK
  1

  9
$DIMASO
 70
     1
  9
$DIMSHO
 70
     1
  9
$DIMPOST
  1

  9
$DIMAPOST
  1

  9
$DIMALT
 70
     0
  9
$DIMALTD
 70
     3
  9
$DIMALTF
 40
0.03937007874016
  9
$DIMLFAC
 40
1.0
  9
$DIMTOFL
 70
     1
  9
$DIMTVP
 40
0.0
  9
$DIMTIX
 70
     0
  9
$DIMSOXD
 70
     0
  9
$DIMSAH
 70
     0
  9
$DIMBLK1
  1

  9
$DIMBLK2
  1

  9
$DIMSTYLE
  2
ISO-25
  9
$DIMCLRD
 70
     0
  9
$DIMCLRE
 70
     0
  9
$DIMCLRT
 70
     0
  9
$DIMTFAC
 40
1.0
  9
$DIMGAP
 40
0.625
  9
$DIMJUST
 70
     0
  9
$DIMSD1
 70
     0
  9
$DIMSD2
 70
     0
  9
$DIMTOLJ
 70
     0
  9
$DIMTZIN
 70
     8
  9
$DIMALTZ
 70
     0
  9
$DIMALTTZ
 70
     0
  9
$DIMUPT
 70
     0
  9
$DIMDEC
 70
     2
  9
$DIMTDEC
 70
     2
  9
$DIMALTU
 70
     2
  9
$DIMALTTD
 70
     3
  9
$DIMTXSTY
  7
Standard
  9
$DIMAUNIT
 70
     0
  9
$DIMADEC
 70
     0
  9
$DIMALTRND
 40
0.0
  9
$DIMAZIN
 70
     0
  9
$DIMDSEP
 70
    44
  9
$DIMATFIT
 70
     3
  9
$DIMFRAC
 70
     0
  9
$DIMLDRBLK
  1

  9
$DIMLUNIT
 70
     2
  9
$DIMLWD
 70
    -2
  9
$DIMLWE
 70
    -2
  9
$DIMTMOVE
 70
     0
  9
$LUNITS
 70
     2
  9
$LUPREC
 70
     4
  9
$SKETCHINC
 40
1.0
  9
$FILLETRAD
 40
10.0
  9
$AUNITS
 70
     0
  9
$AUPREC
 70
     0
  9
$MENU
  1
.
  9
$ELEVATION
 40
0.0
  9
$PELEVATION
 40
0.0
  9
$THICKNESS
 40
0.0
  9
$LIMCHECK
 70
     0
  9
$CHAMFERA
 40
0.0
  9
$CHAMFERB
 40
0.0
  9
$CHAMFERC
 40
0.0
  9
$CHAMFERD
 40
0.0
  9
$SKPOLY
 70
     0
  9
$TDCREATE
 40
2459145.672913102
  9
$TDUCREATE
 40
2459145.297913102
  9
$TDUPDATE
 40
2459145.672913264
  9
$TDUUPDATE
 40
2459145.297913264
  9
$TDINDWG
 40
0.0000000116
  9
$TDUSRTIMER
 40
0.0000000116
  9
$USRTIMER
 70
     1
  9
$ANGBASE
 50
0.0
  9
$ANGDIR
 70
     0
  9
$PDMODE
 70
     0
  9
$PDSIZE
 40
0.0
  9
$PLINEWID
 40
0.0
  9
$SPLFRAME
 70
     0
  9
$SPLINETYPE
 70
     6
  9
$SPLINESEGS
 70
     8
  9
$HANDSEED
  5
2E7
  9
$SURFTAB1
 70
     6
  9
$SURFTAB2
 70
     6
  9
$SURFTYPE
 70
     6
  9
$SURFU
 70
     6
  9
$SURFV
 70
     6
  9
$UCSBASE
  2

  9
$UCSNAME
  2

  9
$UCSORG
 10
0.0
 20
0.0
 30
0.0
  9
$UCSXDIR
 10
1.0
 20
0.0
 30
0.0
  9
$UCSYDIR
 10
0.0
 20
1.0
 30
0.0
  9
$UCSORTHOREF
  2

  9
$UCSORTHOVIEW
 70
     0
  9
$UCSORGTOP
 10
0.0
 20
0.0
 30
0.0
  9
$UCSORGBOTTOM
 10
0.0
 20
0.0
 30
0.0
  9
$UCSORGLEFT
 10
0.0
 20
0.0
 30
0.0
  9
$UCSORGRIGHT
 10
0.0
 20
0.0
 30
0.0
  9
$UCSORGFRONT
 10
0.0
 20
0.0
 30
0.0
  9
$UCSORGBACK
 10
0.0
 20
0.0
 30
0.0
  9
$PUCSBASE
  2

  9
$PUCSNAME
  2

  9
$PUCSORG
 10
0.0
 20
0.0
 30
0.0
  9
$PUCSXDIR
 10
1.0
 20
0.0
 30
0.0
  9
$PUCSYDIR
 10
0.0
 20
1.0
 30
0.0
  9
$PUCSORTHOREF
  2

  9
$PUCSORTHOVIEW
 70
     0
  9
$PUCSORGTOP
 10
0.0
 20
0.0
 30
0.0
  9
$PUCSORGBOTTOM
 10
0.0
 20
0.0
 30
0.0
  9
$PUCSORGLEFT
 10
0.0
 20
0.0
 30
0.0
  9
$PUCSORGRIGHT
 10
0.0
 20
0.0
 30
0.0
  9
$PUCSORGFRONT
 10
0.0
 20
0.0
 30
0.0
  9
$PUCSORGBACK
 10
0.0
 20
0.0
 30
0.0
  9
$USERI1
 70
     0
  9
$USERI2
 70
     0
  9
$USERI3
 70
     0
  9
$USERI4
 70
     0
  9
$USERI5
 70
     0
  9
$USERR1
 40
0.0
  9
$USERR2
 40
0.0
  9
$USERR3
 40
0.0
  9
$USERR4
 40
0.0
  9
$USERR5
 40
0.0
  9
$WORLDVIEW
 70
     1
  9
$SHADEDGE
 70
     3
  9
$SHADEDIF
 70
    70
  9
$TILEMODE
 70
     1
  9
$MAXACTVP
 70
    64
  9
$PINSBASE
 10
0.0
 20
0.0
 30
0.0
  9
$PLIMCHECK
 70
     0
  9
$PEXTMIN
 10
1.000000000000000E+20
 20
1.000000000000000E+20
 30
1.000000000000000E+20
  9
$PEXTMAX
 10
-1.000000000000000E+20
 20
-1.000000000000000E+20
 30
-1.000000000000000E+20
  9
$PLIMMIN
 10
0.0
 20
0.0
  9
$PLIMMAX
 10
420.0
 20
297.0
  9
$UNITMODE
 70
     0
  9
$VISRETAIN
 70
     1
  9
$PLINEGEN
 70
     0
  9
$PSLTSCALE
 70
     1
  9
$TREEDEPTH
 70
  3020
  9
$CMLSTYLE
  2
Standard
  9
$CMLJUST
 70
     0
  9
$CMLSCALE
 40
20.0
  9
$PROXYGRAPHICS
 70
     1
  9
$MEASUREMENT
 70
     1
  9
$CELWEIGHT
370
    -1
  9
$ENDCAPS
280
     0
  9
$JOINSTYLE
280
     0
  9
$LWDISPLAY
290
     0
  9
$INSUNITS
 70
     4
  9
$HYPERLINKBASE
  1

  9
$STYLESHEET
  1

  9
$XEDIT
290
     1
  9
$CEPSNTYPE
380
     0
  9
$PSTYLEMODE
290
     1
  9
$FINGERPRINTGUID
  2
{BF096C64-CC81-4934-B63F-535432D8A802}
  9
$VERSIONGUID
  2
{FAEB1C32-E019-11D5-929B-00C0DF256EC4}
  9
$EXTNAMES
290
     1
  9
$PSVPSCALE
 40
0.0
  9
$OLESTARTUP
290
     0
  9
$SORTENTS
280
   127
  9
$INDEXCTL
280
     0
  9
$HIDETEXT
280
     1
  9
$XCLIPFRAME
290
     0
  9
$HALOGAP
280
     0
  9
$OBSCOLOR
 70
   257
  9
$OBSLTYPE
280
     0
  9
$INTERSECTIONDISPLAY
280
     0
  9
$INTERSECTIONCOLOR
 70
   257
  9
$DIMASSOC
280
     2
  9
$PROJECTNAME
  1

  0
ENDSEC
  0
SECTION
  2
CLASSES
  0
CLASS
  1
ACDBDICTIONARYWDFLT
  2
AcDbDictionaryWithDefault
  3
ObjectDBX Classes
 90
        0
 91
        4
280
     0
281
     0
  0
CLASS
  1
VISUALSTYLE
  2
AcDbVisualStyle
  3
ObjectDBX Classes
 90
     4095
 91
        4
280
     0
281
     0
  0
CLASS
  1
MATERIAL
  2
AcDbMaterial
  3
ObjectDBX Classes
 90
     1153
 91
        4
280
     0
281
     0
  0
CLASS
  1
SCALE
  2
AcDbScale
  3
ObjectDBX Classes
 90
     1153
 91
        4
280
     0
281
     0
  0
CLASS
  1
TABLESTYLE
  2
AcDbTableStyle
  3
ObjectDBX Classes
 90
     4095
 91
        4
280
     0
281
     0
  0
CLASS
  1
MLEADERSTYLE
  2
AcDbMLeaderStyle
  3
ACDB_MLEADERSTYLE_CLASS
 90
     4095
 91
        4
280
     0
281
     0
  0
CLASS
  1
SUN
  2
AcDbSun
  3
SCENEOE
 90
     1153
 91
        4
280
     0
281
     0
  0
CLASS
  1
DICTIONARYVAR
  2
AcDbDictionaryVar
  3
ObjectDBX Classes
 90
        0
 91
        4
280
     0
281
     0
  0
CLASS
  1
CELLSTYLEMAP
  2
AcDbCellStyleMap
  3
ObjectDBX Classes
 90
     1152
 91
        4
280
     0
281
     0
  0
ENDSEC
  0
SECTION
  2
TABLES
  0
TABLE
  2
VPORT
  5
8
102
{ACAD_XDICTIONARY
360
29E
102
}
330
0
100
AcDbSymbolTable
 70
     1
  0
VPORT
  5
29
330
8
100
AcDbSymbolTableRecord
100
AcDbViewportTableRecord
  2
*Active
 70
     0
 10
0.0
 20
0.0
 11
1.0
 21
1.0
 12
0.0
 22
0.0
 13
0.0
 23
0.0
 14
10.0
 24
10.0
 15
10.0
 25
10.0
 16
0.0
 26
0.0
 36
1.0
 17
0.0
 27
0.0
 37
0.0
 40
3267.0
 41
1.414141414141414
 42
50.0
 43
0.0
 44
0.0
 50
0.0
 51
0.0
 71
     0
 72
 10000
 73
     1
 74
     3
 75
     0
 76
     0
 77
     0
 78
     0
281
     0
 65
     1
110
0.0
120
0.0
130
0.0
111
1.0
121
0.0
131
0.0
112
0.0
122
1.0
132
0.0
 79
     0
146
0.0
  0
ENDTAB
  0
TABLE
  2
LTYPE
  5
5
330
0
100
AcDbSymbolTable
 70
     6
  0
LTYPE
  5
14
330
5
100
AcDbSymbolTableRecord
100
AcDbLinetypeTableRecord
  2
ByBlock
 70
     0
  3

 72
    65
 73
     0
 40
0.0
  0
LTYPE
  5
15
330
5
100
AcDbSymbolTableRecord
100
AcDbLinetypeTableRecord
  2
ByLayer
 70
     0
  3

 72
    65
 73
     0
 40
0.0
  0
LTYPE
  5
16
330
5
100
AcDbSymbolTableRecord
100
AcDbLinetypeTableRecord
  2
Continuous
 70
     0
  3
Solid line
 72
    65
 73
     0
 40
0.0
  0
LTYPE
  5
6F
330
5
100
AcDbSymbolTableRecord
100
AcDbLinetypeTableRecord
  2
JWW_DASHED1
 70
     0
  3
-  --  --  --  --  --  --  --  -
 72
    65
 73
     2
 40
1.693333333333333
 49
0.8466666666666667
 74
     0
 49
-0.8466666666666667
 74
     0
  0
LTYPE
  5
70
330
5
100
AcDbSymbolTableRecord
100
AcDbLinetypeTableRecord
  2
JWW_PHANTOM1
 70
     0
  3
----  -  -  --------  -  -  ----
 72
    65
 73
     6
 40
6.773333333333333
 49
3.386666666666667
 74
     0
 49
-0.8466666666666667
 74
     0
 49
0.4233333333333333
 74
     0
 49
-0.8466666666666667
 74
     0
 49
0.4233333333333333
 74
     0
 49
-0.8466666666666667
 74
     0
  0
LTYPE
  5
71
330
5
100
AcDbSymbolTableRecord
100
AcDbLinetypeTableRecord
  2
JWW_CENTER2
 70
     0
  3
-------------  --  -------------
 72
    65
 73
     4
 40
13.54666666666667
 49
11.00666666666667
 74
     0
 49
-0.8466666666666667
 74
     0
 49
0.8466666666666667
 74
     0
 49
-0.8466666666666667
 74
     0
  0
LTYPE
  5
72
330
5
100
AcDbSymbolTableRecord
100
AcDbLinetypeTableRecord
  2
JWW_CENTER1
 70
     0
  3
-----  --  ----------  --  -----
 72
    65
 73
     4
 40
6.773333333333333
 49
4.233333333333333
 74
     0
 49
-0.8466666666666667
 74
     0
 49
0.8466666666666667
 74
     0
 49
-0.8466666666666667
 74
     0
  0
LTYPE
  5
73
330
5
100
AcDbSymbolTableRecord
100
AcDbLinetypeTableRecord
  2
JWW_DASHED2
 70
     0
  3
--    ----    ----    ----    --
 72
    65
 73
     2
 40
3.386666666666667
 49
1.693333333333333
 74
     0
 49
-1.693333333333333
 74
     0
  0
ENDTAB
  0
TABLE
  2
LAYER
  5
2
330
0
100
AcDbSymbolTable
 70
    24
  0
LAYER
  5
10
330
2
100
AcDbSymbolTableRecord
100
AcDbLayerTableRecord
  2
0
 70
     0
 62
     7
  6
Continuous
370
    -3
390
F
  0
LAYER
  5
74
330
2
100
AcDbSymbolTableRecord
100
AcDbLayerTableRecord
  2
B-6_間仕切
 70
     0
 62
     7
  6
Continuous
370
    -3
390
F
  0
LAYER
  5
75
330
2
100
AcDbSymbolTableRecord
100
AcDbLayerTableRecord
  2
B-0_通り芯
 70
     0
 62
     7
  6
Continuous
370
    -3
390
F
  0
LAYER
  5
76
330
2
100
AcDbSymbolTableRecord
100
AcDbLayerTableRecord
  2
B-2_仕上
 70
     0
 62
     7
  6
Continuous
370
    -3
390
F
  0
LAYER
  5
77
330
2
100
AcDbSymbolTableRecord
100
AcDbLayerTableRecord
  2
B-4_文字
 70
     0
 62
     7
  6
Continuous
370
    -3
390
F
  0
LAYER
  5
78
330
2
100
AcDbSymbolTableRecord
100
AcDbLayerTableRecord
  2
B-1_躯体
 70
     0
 62
     7
  6
Continuous
370
    -3
390
F
  0
LAYER
  5
79
330
2
100
AcDbSymbolTableRecord
100
AcDbLayerTableRecord
  2
B-E_見え係り
 70
     0
 62
     7
  6
Continuous
370
    -3
390
F
  0
LAYER
  5
7A
330
2
100
AcDbSymbolTableRecord
100
AcDbLayerTableRecord
  2
B-9_記号
 70
     0
 62
     7
  6
Continuous
370
    -3
390
F
  0
LAYER
  5
7B
330
2
100
AcDbSymbolTableRecord
100
AcDbLayerTableRecord
  2
B-5_建具
 70
     0
 62
     7
  6
Continuous
370
    -3
390
F
  0
LAYER
  5
7C
330
2
100
AcDbSymbolTableRecord
100
AcDbLayerTableRecord
  2
B-B_衛生陶器
 70
     0
 62
     7
  6
Continuous
370
    -3
390
F
  0
LAYER
  5
7D
330
2
100
AcDbSymbolTableRecord
100
AcDbLayerTableRecord
  2
B-A_インテリア
 70
     0
 62
     7
  6
Continuous
370
    -3
390
F
  0
LAYER
  5
7E
330
2
100
AcDbSymbolTableRecord
100
AcDbLayerTableRecord
  2
C-0_通り芯
 70
     0
 62
     7
  6
Continuous
370
    -3
390
F
  0
LAYER
  5
7F
330
2
100
AcDbSymbolTableRecord
100
AcDbLayerTableRecord
  2
C-2_仕上
 70
     0
 62
     7
  6
Continuous
370
    -3
390
F
  0
LAYER
  5
80
330
2
100
AcDbSymbolTableRecord
100
AcDbLayerTableRecord
  2
C-4_文字
 70
     0
 62
     7
  6
Continuous
370
    -3
390
F
  0
LAYER
  5
81
330
2
100
AcDbSymbolTableRecord
100
AcDbLayerTableRecord
  2
C-5_建具
 70
     0
 62
     7
  6
Continuous
370
    -3
390
F
  0
LAYER
  5
82
330
2
100
AcDbSymbolTableRecord
100
AcDbLayerTableRecord
  2
C-1_躯体
 70
     0
 62
     7
  6
Continuous
370
    -3
390
F
  0
LAYER
  5
83
330
2
100
AcDbSymbolTableRecord
100
AcDbLayerTableRecord
  2
C-E_見え係り
 70
     0
 62
     7
  6
Continuous
370
    -3
390
F
  0
LAYER
  5
84
330
2
100
AcDbSymbolTableRecord
100
AcDbLayerTableRecord
  2
C-6_間仕切
 70
     0
 62
     7
  6
Continuous
370
    -3
390
F
  0
LAYER
  5
85
330
2
100
AcDbSymbolTableRecord
100
AcDbLayerTableRecord
  2
C-9_記号
 70
     0
 62
     7
  6
Continuous
370
    -3
390
F
  0
LAYER
  5
86
330
2
100
AcDbSymbolTableRecord
100
AcDbLayerTableRecord
  2
C-B_衛生陶器
 70
     0
 62
     7
  6
Continuous
370
    -3
390
F
  0
LAYER
  5
87
330
2
100
AcDbSymbolTableRecord
100
AcDbLayerTableRecord
  2
C-3_寸法
 70
     0
 62
     7
  6
Continuous
370
    -3
390
F
  0
LAYER
  5
88
330
2
100
AcDbSymbolTableRecord
100
AcDbLayerTableRecord
  2
C-A_インテリア
 70
     0
 62
     7
  6
Continuous
370
    -3
390
F
  0
LAYER
  5
89
330
2
100
AcDbSymbolTableRecord
100
AcDbLayerTableRecord
  2
F-5ﾚｲﾔ
 70
     0
 62
     7
  6
Continuous
370
    -3
390
F
  0
LAYER
  5
8A
330
2
100
AcDbSymbolTableRecord
100
AcDbLayerTableRecord
  2
F-Fﾚｲﾔ
 70
     0
 62
     7
  6
Continuous
370
    -3
390
F
  0
ENDTAB
  0
TABLE
  2
STYLE
  5
3
330
0
100
AcDbSymbolTable
 70
     2
  0
STYLE
  5
11
330
3
100
AcDbSymbolTableRecord
100
AcDbTextStyleTableRecord
  2
Standard
 70
     0
 40
0.0
 41
1.0
 50
0.0
 71
     0
 42
2.5
  3
txt
  4

  0
STYLE
  5
6E
330
3
100
AcDbSymbolTableRecord
100
AcDbTextStyleTableRecord
  2
ＭＳ ゴシック
 70
     0
 40
1.0
 41
1.0
 50
0.0
 71
     0
 42
2.5
  3

  4

1001
ACAD
1000
MS Gothic
1071
    32817
  0
ENDTAB
  0
TABLE
  2
VIEW
  5
6
330
0
100
AcDbSymbolTable
 70
     0
  0
ENDTAB
  0
TABLE
  2
UCS
  5
7
330
0
100
AcDbSymbolTable
 70
     0
  0
ENDTAB
  0
TABLE
  2
APPID
  5
9
330
0
100
AcDbSymbolTable
 70
     2
  0
APPID
  5
12
330
9
100
AcDbSymbolTableRecord
100
AcDbRegAppTableRecord
  2
ACAD
 70
     0
  0
APPID
  5
2DD
330
9
100
AcDbSymbolTableRecord
100
AcDbRegAppTableRecord
  2
ACAD_MLEADERVER
 70
     0
  0
ENDTAB
  0
TABLE
  2
DIMSTYLE
  5
A
330
0
100
AcDbSymbolTable
 70
     1
100
AcDbDimStyleTable
  0
DIMSTYLE
105
27
330
A
100
AcDbSymbolTableRecord
100
AcDbDimStyleTableRecord
  2
ISO-25
 70
     0
 41
2.5
 42
0.625
 43
3.75
 44
1.25
 73
     0
 74
     0
 77
     1
 78
     8
140
2.5
141
2.5
143
0.03937007874016
147
0.625
171
     3
172
     1
178
     0
271
     2
272
     2
274
     3
278
    44
283
     0
284
     8
340
11
  0
ENDTAB
  0
TABLE
  2
BLOCK_RECORD
  5
1
330
0
100
AcDbSymbolTable
 70
     1
  0
BLOCK_RECORD
  5
1F
330
1
100
AcDbSymbolTableRecord
100
AcDbBlockTableRecord
  2
*Model_Space
340
22
  0
BLOCK_RECORD
  5
1B
330
1
100
AcDbSymbolTableRecord
100
AcDbBlockTableRecord
  2
*Paper_Space
340
1E
  0
BLOCK_RECORD
  5
23
330
1
100
AcDbSymbolTableRecord
100
AcDbBlockTableRecord
  2
*Paper_Space0
340
26
  0
ENDTAB
  0
ENDSEC
  0
SECTION
  2
BLOCKS
  0
BLOCK
  5
20
330
1F
100
AcDbEntity
  8
0
100
AcDbBlockBegin
  2
*Model_Space
 70
     0
 10
0.0
 20
0.0
 30
0.0
  3
*Model_Space
  1

  0
ENDBLK
  5
21
330
1F
100
AcDbEntity
  8
0
100
AcDbBlockEnd
  0
BLOCK
  5
1C
330
1B
100
AcDbEntity
 67
     1
  8
0
100
AcDbBlockBegin
  2
*Paper_Space
 70
     0
 10
0.0
 20
0.0
 30
0.0
  3
*Paper_Space
  1

  0
ENDBLK
  5
1D
330
1B
100
AcDbEntity
 67
     1
  8
0
100
AcDbBlockEnd
  0
BLOCK
  5
24
330
23
100
AcDbEntity
  8
0
100
AcDbBlockBegin
  2
*Paper_Space0
 70
     0
 10
0.0
 20
0.0
 30
0.0
  3
*Paper_Space0
  1

  0
ENDBLK
  5
25
330
23
100
AcDbEntity
  8
0
100
AcDbBlockEnd
  0
ENDSEC
  0
SECTION
  2
ENTITIES
  0
LINE
  5
8B
330
1F
100
AcDbEntity
  8
B-6_間仕切
  6
JWW_DASHED1
 62
     2
370
     9
100
AcDbLine
 10
1119.267238112883
 20
-278.7862700766182
 30
0.0
 11
1119.267238112883
 21
-276.4531105010234
 31
0.0
  0
ARC
  5
8C
330
1F
100
AcDbEntity
  8
B-6_間仕切
  6
JWW_PHANTOM1
 62
     2
370
     9
100
AcDbCircle
 10
1124.267238112883
 20
-276.453110501023
 30
0.0
 40
5.0
100
AcDbArc
 50
90.0
 51
180.0
  0
ARC
  5
8D
330
1F
100
AcDbEntity
  8
B-6_間仕切
  6
JWW_PHANTOM1
 62
     2
370
     9
100
AcDbCircle
 10
1129.987314445901
 20
-287.4531105010272
 30
0.0
 40
10.66666666666667
100
AcDbArc
 50
90.0
 51
125.6574866387932
  0
LINE
  5
8E
330
1F
100
AcDbEntity
  8
B-0_通り芯
  6
Continuous
 62
     4
370
     9
100
AcDbLine
 10
1428.431022107999
 20
-287.4531489916671
 30
0.0
 11
1131.431022107999
 21
-287.4531489916671
 31
0.0
  0
LINE
  5
8F
330
1F
100
AcDbEntity
  8
B-0_通り芯
  6
Continuous
 62
     4
370
     9
100
AcDbLine
 10
1428.431022107999
 20
-287.453110501027
 30
0.0
 11
1428.431022107999
 21
-438.7704717403592
 31
0.0
  0
LINE
  5
90
330
1F
100
AcDbEntity
  8
B-0_通り芯
  6
JWW_CENTER2
 62
     7
370
     9
100
AcDbLine
 10
1279.931022107999
 20
153.9776510376157
 30
0.0
 11
1279.931022107999
 21
-481.3421310591491
 31
0.0
  0
ARC
  5
91
330
1F
100
AcDbEntity
  8
B-2_仕上
  6
Continuous
 62
     3
370
     9
100
AcDbCircle
 10
1216.347648084562
 20
20.89985114927629
 30
0.0
 40
98.29906921390048
100
AcDbArc
 50
49.69652964871275
 51
130.3034703512872
  0
ARC
  5
92
330
1F
100
AcDbEntity
  8
B-2_仕上
  6
Continuous
 62
     3
370
     9
100
AcDbCircle
 10
1343.514396131437
 20
20.89985114927629
 30
0.0
 40
98.29906921390048
100
AcDbArc
 50
49.69652964871275
 51
130.3034703512872
  0
ARC
  5
93
330
1F
100
AcDbEntity
  8
B-2_仕上
  6
Continuous
 62
     3
370
     9
100
AcDbCircle
 10
1343.514396131437
 20
170.8313229104092
 30
0.0
 40
98.29906921390048
100
AcDbArc
 50
229.6965296487128
 51
310.3034703512872
  0
LINE
  5
94
330
1F
100
AcDbEntity
  8
B-4_文字
  6
Continuous
 62
     7
370
     9
100
AcDbLine
 10
1514.206694618487
 20
-287.4535060564822
 30
0.0
 11
1451.26424991317
 21
-287.4535060564822
 31
0.0
  0
LWPOLYLINE
  5
95
330
1F
100
AcDbEntity
  8
B-4_文字
  6
Continuous
 62
     7
370
     9
100
AcDbPolyline
 90
        4
 70
     1
 43
2.0
 10
1512.206694618487
 20
-287.4535060564822
 42
0.4142135623731
 10
1511.206694618487
 20
-286.4535060564822
 42
0.4142135623731
 10
1510.206694618487
 20
-287.4535060564822
 42
0.4142135623731
 10
1511.206694618487
 20
-288.4535060564822
 42
0.4142135623731
  0
ARC
  5
96
330
1F
100
AcDbEntity
  8
B-0_通り芯
  6
Continuous
 62
     4
370
     9
100
AcDbCircle
 10
1205.681022107999
 20
-332.7181143108022
 30
0.0
 40
129.4610559835141
100
AcDbArc
 50
235.0031395815678
 51
304.996860418432
  0
ARC
  5
97
330
1F
100
AcDbEntity
  8
B-0_通り芯
  6
Continuous
 62
     4
370
     9
100
AcDbCircle
 10
1205.681022107999
 20
-544.8228291699165
 30
0.0
 40
129.4610559835141
100
AcDbArc
 50
55.00313958156796
 51
124.9968604184322
  0
ARC
  5
98
330
1F
100
AcDbEntity
  8
B-0_通り芯
  6
Continuous
 62
     4
370
     9
100
AcDbCircle
 10
1354.181022107999
 20
-332.7181143108022
 30
0.0
 40
129.4610559835141
100
AcDbArc
 50
235.0031395815679
 51
304.9968604184322
  0
LINE
  5
99
330
1F
100
AcDbEntity
  8
B-0_通り芯
  6
Continuous
 62
     4
370
     9
100
AcDbLine
 10
1131.431022107999
 20
-438.7704717403594
 30
0.0
 11
1131.431022107999
 21
-287.4531489916671
 31
0.0
  0
LWPOLYLINE
  5
9A
330
1F
100
AcDbEntity
  8
B-4_文字
  6
Continuous
 62
     7
370
     9
100
AcDbPolyline
 90
        4
 70
     1
 43
2.0
 10
1512.206694618487
 20
-265.7864438343546
 42
0.4142135623731
 10
1511.206694618487
 20
-264.7864438343546
 42
0.4142135623731
 10
1510.206694618487
 20
-265.7864438343546
 42
0.4142135623731
 10
1511.206694618487
 20
-266.7864438343546
 42
0.4142135623731
  0
LINE
  5
9B
330
1F
100
AcDbEntity
  8
B-4_文字
  6
Continuous
 62
     7
370
     9
100
AcDbLine
 10
1511.206694618487
 20
-265.7864438343546
 30
0.0
 11
1511.206694618487
 21
-287.4535060564822
 31
0.0
  0
TEXT
  5
9C
330
1F
100
AcDbEntity
  8
B-4_文字
  6
Continuous
 62
     2
370
   211
100
AcDbText
 10
1499.566694618488
 20
-355.9621933163871
 30
0.0
 40
30.48
  1
6.5
 50
90.0
 41
1.083333333333333
  7
ＭＳ ゴシック
100
AcDbText
  0
LINE
  5
9D
330
1F
100
AcDbEntity
  8
B-4_文字
  6
Continuous
 62
     7
370
     9
100
AcDbLine
 10
1511.206694618487
 20
-287.4535060564822
 30
0.0
 11
1511.206694618487
 21
-358.3503792611149
 31
0.0
  0
LINE
  5
9E
330
1F
100
AcDbEntity
  8
B-2_仕上
  6
Continuous
 62
     3
370
     9
100
AcDbLine
 10
1407.097770154874
 20
95.86558702984276
 30
0.0
 11
1407.097770154874
 21
-265.7864438343546
 31
0.0
  0
LINE
  5
9F
330
1F
100
AcDbEntity
  8
B-1_躯体
  6
Continuous
 62
     3
370
     9
100
AcDbLine
 10
1037.764355441332
 20
-362.1193834634432
 30
0.0
 11
1131.431022107999
 21
-362.1193834634432
 31
0.0
  0
CIRCLE
  5
A0
330
1F
100
AcDbEntity
  8
B-E_見え係り
  6
Continuous
 62
     4
370
     9
100
AcDbCircle
 10
1089.98739142718
 20
-306.4530885063736
 30
0.0
 40
8.333333333333332
  0
LINE
  5
A1
330
1F
100
AcDbEntity
  8
B-0_通り芯
  6
Continuous
 62
     4
370
     9
100
AcDbLine
 10
1115.87016913839
 20
14.23292046528516
 30
0.0
 11
1141.813407301631
 21
7.22074421054419
 31
0.0
  0
LINE
  5
A2
330
1F
100
AcDbEntity
  8
B-0_通り芯
  6
Continuous
 62
     4
370
     9
100
AcDbLine
 10
1113.846564117024
 20
35.2182217968285
 30
0.0
 11
1118.955095278372
 21
36.18331051750751
 31
0.0
  0
LINE
  5
A3
330
1F
100
AcDbEntity
  8
B-0_通り芯
  6
Continuous
 62
     4
370
     9
100
AcDbLine
 10
1118.955095278372
 20
36.18331051750751
 30
0.0
 11
1115.87016913839
 21
14.23292046528516
 31
0.0
  0
LINE
  5
A4
330
1F
100
AcDbEntity
  8
B-0_通り芯
  6
Continuous
 62
     4
370
     9
100
AcDbLine
 10
1113.846564117024
 20
35.2182217968285
 30
0.0
 11
1094.878196117123
 21
20.54869612713674
 31
0.0
  0
LINE
  5
A5
330
1F
100
AcDbEntity
  8
B-0_通り芯
  6
Continuous
 62
     4
370
     9
100
AcDbLine
 10
1059.077221870278
 20
-234.1884720607231
 30
0.0
 11
1094.878196117123
 21
20.54869612713674
 31
0.0
  0
LINE
  5
A6
330
1F
100
AcDbEntity
  8
B-0_通り芯
  6
Continuous
 62
     4
370
     9
100
AcDbLine
 10
1096.328648606161
 20
-244.5671652978845
 30
0.0
 11
1106.616794483016
 21
-243.2161689695124
 31
0.0
  0
LINE
  5
A7
330
1F
100
AcDbEntity
  8
B-0_通り芯
  6
Continuous
 62
     4
370
     9
100
AcDbLine
 10
1096.154682229977
 20
-245.8050003836939
 30
0.0
 11
1079.360270457284
 21
-245.5485071775711
 31
0.0
  0
ARC
  5
A8
330
1F
100
AcDbEntity
  8
B-9_記号
  6
Continuous
 62
     7
370
     9
100
AcDbCircle
 10
1076.739233226373
 20
-264.1981561316365
 30
0.0
 40
10.66666666666667
100
AcDbArc
 50
172.0
 51
262.0
  0
ARC
  5
A9
330
1F
100
AcDbEntity
  8
B-6_間仕切
  6
Continuous
 62
     2
370
     9
100
AcDbCircle
 10
1065.050203709217
 20
-268.3316609644276
 30
0.0
 40
5.0
100
AcDbArc
 50
172.0
 51
262.0
  0
LINE
  5
AA
330
1F
100
AcDbEntity
  8
B-6_間仕切
  6
JWW_DASHED1
 62
     2
370
     9
100
AcDbLine
 10
1096.703095116639
 20
-277.8293226061642
 30
0.0
 11
1064.354338204417
 21
-273.2830013081356
 31
0.0
  0
LINE
  5
AB
330
1F
100
AcDbEntity
  8
B-9_記号
  6
Continuous
 62
     7
370
     9
100
AcDbLine
 10
1074.689007515811
 20
-278.7862700766182
 30
0.0
 11
1077.523295792329
 21
-258.6192610893787
 31
0.0
  0
LINE
  5
AC
330
1F
100
AcDbEntity
  8
B-6_間仕切
  6
JWW_DASHED1
 62
     2
370
     9
100
AcDbLine
 10
1063.917513408937
 20
-278.7862700766182
 30
0.0
 11
1064.691860749546
 21
-273.2765024546406
 31
0.0
  0
ARC
  5
AD
330
1F
100
AcDbEntity
  8
B-6_間仕切
  6
JWW_DASHED1
 62
     2
370
     9
100
AcDbCircle
 10
1094.383543433971
 20
-294.3337904185236
 30
0.0
 40
16.66666666666666
100
AcDbArc
 50
68.8837220195549
 51
82.00000000000001
  0
LINE
  5
AE
330
1F
100
AcDbEntity
  8
B-9_記号
  6
Continuous
 62
     7
370
     9
100
AcDbLine
 10
1103.895894464353
 20
-278.7862700766182
 30
0.0
 11
1075.254720149465
 21
-274.7610155315475
 31
0.0
  0
LINE
  5
AF
330
1F
100
AcDbEntity
  8
B-0_通り芯
  6
Continuous
 62
     4
370
     9
100
AcDbLine
 10
1077.523295792329
 20
-258.6192610893787
 30
0.0
 11
1115.87016913839
 21
14.23292046528491
 31
0.0
  0
LINE
  5
B0
330
1F
100
AcDbEntity
  8
B-6_間仕切
  6
Continuous
 62
     2
370
     9
100
AcDbLine
 10
1058.531766355504
 20
-278.7862700766182
 30
0.0
 11
1063.77658055736
 21
-241.467477905205
 31
0.0
  0
LINE
  5
B1
330
1F
100
AcDbEntity
  8
B-6_間仕切
  6
Continuous
 62
     2
370
     9
100
AcDbLine
 10
1064.691860749545
 20
-273.2765024546463
 30
0.0
 11
1068.199506380499
 21
-248.3183069353063
 31
0.0
  0
LINE
  5
B2
330
1F
100
AcDbEntity
  8
B-0_通り芯
  6
Continuous
 62
     4
370
     9
100
AcDbLine
 10
1072.961476367146
 20
-255.6942936756508
 30
0.0
 11
1059.077221870275
 21
-234.1884720607226
 31
0.0
  0
LINE
  5
B3
330
1F
100
AcDbEntity
  8
B-0_通り芯
  6
Continuous
 62
     4
370
     9
100
AcDbLine
 10
1077.523295792329
 20
-258.6192610893787
 30
0.0
 11
1072.961476367146
 21
-255.6942936756503
 31
0.0
  0
LINE
  5
B4
330
1F
100
AcDbEntity
  8
B-0_通り芯
  6
Continuous
 62
     4
370
     9
100
AcDbLine
 10
1141.813407301631
 20
7.22074421054419
 30
0.0
 11
1106.616794483016
 21
-243.2161689695125
 31
0.0
  0
LINE
  5
B5
330
1F
100
AcDbEntity
  8
B-0_通り芯
  6
Continuous
 62
     4
370
     9
100
AcDbLine
 10
1096.32864860616
 20
-244.5671652978845
 30
0.0
 11
1096.154682229977
 21
-245.8050003836939
 31
0.0
  0
LINE
  5
B6
330
1F
100
AcDbEntity
  8
B-5_建具
  6
Continuous
 62
     7
370
     9
100
AcDbLine
 10
1055.492234554229
 20
74.9977491918604
 30
0.0
 11
996.689923103334
 21
74.9977491918604
 31
0.0
  0
TEXT
  5
B7
330
1F
100
AcDbEntity
  8
B-5_建具
  6
Continuous
 62
     7
370
     9
100
AcDbText
 10
996.689923103334
 20
85.89441585852695
 30
0.0
 40
22.86
  1
蓋
  7
ＭＳ ゴシック
100
AcDbText
  0
LINE
  5
B8
330
1F
100
AcDbEntity
  8
B-5_建具
  6
Continuous
 62
     7
370
     9
100
AcDbLine
 10
1055.492234554229
 20
74.9977491918604
 30
0.0
 11
1093.321874314566
 21
9.474891094930204
 31
0.0
  0
LINE
  5
B9
330
1F
100
AcDbEntity
  8
B-5_建具
  6
Continuous
 62
     7
370
     9
100
AcDbLine
 10
1083.754788505438
 20
32.57187940771261
 30
0.0
 11
1093.321874314566
 21
9.474891094930204
 31
0.0
  0
LINE
  5
BA
330
1F
100
AcDbEntity
  8
B-5_建具
  6
Continuous
 62
     7
370
     9
100
AcDbLine
 10
1078.102838589348
 20
29.30872460221125
 30
0.0
 11
1093.321874314566
 21
9.474891094930204
 31
0.0
  0
LINE
  5
BB
330
1F
100
AcDbEntity
  8
B-1_躯体
  6
Continuous
 62
     3
370
     9
100
AcDbLine
 10
1037.820957641765
 20
-278.7862700766182
 30
0.0
 11
1142.211095896444
 21
-278.7862700766182
 31
0.0
  0
LINE
  5
BC
330
1F
100
AcDbEntity
  8
B-1_躯体
  6
Continuous
 62
     3
370
     9
100
AcDbLine
 10
1026.821432726227
 20
-351.1195286281375
 30
0.0
 11
1026.821432726227
 21
-289.78579499216
 31
0.0
  0
ARC
  5
BD
330
1F
100
AcDbEntity
  8
B-1_躯体
  6
Continuous
 62
     3
370
     9
100
AcDbCircle
 10
1037.820957641765
 20
-289.78579499216
 30
0.0
 40
11.00000046394967
100
AcDbArc
 50
90.0
 51
180.0
  0
ARC
  5
BE
330
1F
100
AcDbEntity
  8
B-1_躯体
  6
Continuous
 62
     3
370
     9
100
AcDbCircle
 10
1037.820957641765
 20
-351.1195286281375
 30
0.0
 40
11.00000046394967
100
AcDbArc
 50
180.0
 51
270.0
  0
LINE
  5
BF
330
1F
100
AcDbEntity
  8
B-0_通り芯
  6
Continuous
 62
     4
370
     9
100
AcDbLine
 10
1135.62103648376
 20
-287.4531105010271
 30
0.0
 11
1411.154692639516
 21
-287.4531105010271
 31
0.0
  0
LINE
  5
C0
330
1F
100
AcDbEntity
  8
B-2_仕上
  6
Continuous
 62
     3
370
     9
100
AcDbLine
 10
1152.764274061124
 20
95.86558702984276
 30
0.0
 11
1152.764274061124
 21
-269.66206492655
 31
0.0
  0
LINE
  5
C1
330
1F
100
AcDbEntity
  8
B-0_通り芯
  6
JWW_PHANTOM1
 62
     4
370
     9
100
AcDbLine
 10
1157.24686944473
 20
-265.7864438343546
 30
0.0
 11
1414.487485626143
 21
-265.7864438343546
 31
0.0
  0
LINE
  5
C2
330
1F
100
AcDbEntity
  8
B-0_通り芯
  6
JWW_PHANTOM1
 62
     4
370
     9
100
AcDbLine
 10
1431.654135075121
 20
-282.5286096037314
 30
0.0
 11
1414.487485626143
 21
-265.7864438343547
 31
0.0
  0
LINE
  5
C3
330
1F
100
AcDbEntity
  8
B-0_通り芯
  6
JWW_PHANTOM1
 62
     4
370
     9
100
AcDbLine
 10
1431.654135075121
 20
-282.5286096037314
 30
0.0
 11
1433.320801741788
 21
-287.4531105010269
 31
0.0
  0
LINE
  5
C4
330
1F
100
AcDbEntity
  8
B-0_通り芯
  6
JWW_PHANTOM1
 62
     4
370
     9
100
AcDbLine
 10
1433.320801741788
 20
-287.4531105010269
 30
0.0
 11
1411.154692639516
 21
-287.4531105010269
 31
0.0
  0
LINE
  5
C5
330
1F
100
AcDbEntity
  8
B-0_通り芯
  6
JWW_PHANTOM1
 62
     4
370
     9
100
AcDbLine
 10
1137.882655760262
 20
-282.5286096037275
 30
0.0
 11
1157.24686944473
 21
-265.7864438343513
 31
0.0
  0
LINE
  5
C6
330
1F
100
AcDbEntity
  8
B-0_通り芯
  6
JWW_PHANTOM1
 62
     4
370
     9
100
AcDbLine
 10
1135.62103648376
 20
-287.4531105010273
 30
0.0
 11
1137.882655760263
 21
-282.5286096037282
 31
0.0
  0
LINE
  5
C7
330
1F
100
AcDbEntity
  8
B-6_間仕切
  6
JWW_PHANTOM1
 62
     2
370
     9
100
AcDbLine
 10
1065.600725408776
 20
-271.4531105010175
 30
0.0
 11
1150.692726705761
 21
-271.4531105010175
 31
0.0
  0
LINE
  5
C8
330
1F
100
AcDbEntity
  8
B-6_間仕切
  6
JWW_PHANTOM1
 62
     2
370
     9
100
AcDbLine
 10
1119.320647779226
 20
-276.7864438343516
 30
0.0
 11
1144.524121774966
 21
-276.7864438343516
 31
0.0
  0
LINE
  5
C9
330
1F
100
AcDbEntity
  8
B-6_間仕切
  6
JWW_PHANTOM1
 62
     2
370
     9
100
AcDbLine
 10
1065.600725408776
 20
-276.7864438343514
 30
0.0
 11
1119.320647779232
 21
-276.7864438343514
 31
0.0
  0
LINE
  5
CA
330
1F
100
AcDbEntity
  8
B-6_間仕切
  6
JWW_PHANTOM1
 62
     2
370
     9
100
AcDbLine
 10
1065.600725408776
 20
-278.7862700766182
 30
0.0
 11
1065.600725408776
 21
-271.4531105010175
 31
0.0
  0
LINE
  5
CB
330
1F
100
AcDbEntity
  8
B-B_衛生陶器
  6
Continuous
 62
     2
370
     9
100
AcDbLine
 10
1116.346374383192
 20
-226.6785226447178
 30
0.0
 11
1119.129836402393
 21
-206.8731612698866
 31
0.0
  0
LINE
  5
CC
330
1F
100
AcDbEntity
  8
B-B_衛生陶器
  6
Continuous
 62
     2
370
     9
100
AcDbLine
 10
1111.496778497475
 20
-208.4932784673126
 30
0.0
 11
1121.399459184885
 21
-209.8850094769124
 31
0.0
  0
LINE
  5
CD
330
1F
100
AcDbEntity
  8
B-B_衛生陶器
  6
Continuous
 62
     2
370
     9
100
AcDbLine
 10
1109.455573016727
 20
-223.0172101421907
 30
0.0
 11
1119.358253704137
 21
-224.4089411517905
 31
0.0
  0
LINE
  5
CE
330
1F
100
AcDbEntity
  8
B-B_衛生陶器
  6
Continuous
 62
     2
370
     9
100
AcDbLine
 10
1114.758427126474
 20
-233.1874194629915
 30
0.0
 11
1112.981068524735
 21
-235.4623349695165
 31
0.0
  0
LINE
  5
CF
330
1F
100
AcDbEntity
  8
B-B_衛生陶器
  6
Continuous
 62
     2
370
     9
100
AcDbLine
 10
1119.397498637615
 20
-200.1787104926458
 30
0.0
 11
1118.316043588743
 21
-197.5020149294055
 31
0.0
  0
LINE
  5
D0
330
1F
100
AcDbEntity
  8
B-B_衛生陶器
  6
Continuous
 62
     2
370
     9
100
AcDbLine
 10
1119.397498637615
 20
-200.1787104926458
 30
0.0
 11
1118.469693891645
 21
-206.7803842904036
 31
0.0
  0
LINE
  5
D1
330
1F
100
AcDbEntity
  8
B-B_衛生陶器
  6
Continuous
 62
     2
370
     9
100
AcDbLine
 10
1115.686231872444
 20
-226.5857456652349
 30
0.0
 11
1114.758427126474
 21
-233.1874194629915
 31
0.0
  0
LINE
  5
D2
330
1F
100
AcDbEntity
  8
B-B_衛生陶器
  6
Continuous
 62
     2
370
     9
100
AcDbLine
 10
1119.358222590219
 20
-224.4088998622274
 30
0.0
 11
1121.399417895321
 21
-209.8850405908299
 31
0.0
  0
LINE
  5
D3
330
1F
100
AcDbEntity
  8
B-B_衛生陶器
  6
Continuous
 62
     2
370
     9
100
AcDbLine
 10
1116.346338181451
 20
-226.678517556895
 30
0.0
 11
1119.358222590219
 21
-224.4088998622274
 31
0.0
  0
LINE
  5
D4
330
1F
100
AcDbEntity
  8
B-B_衛生陶器
  6
Continuous
 62
     2
370
     9
100
AcDbLine
 10
1119.129800200652
 20
-206.8731561820638
 30
0.0
 11
1121.399417895321
 21
-209.8850405908299
 31
0.0
  0
LINE
  5
D5
330
1F
100
AcDbEntity
  8
B-B_衛生陶器
  6
Continuous
 62
     2
370
     9
100
AcDbLine
 10
1113.143663289104
 20
-196.7750842846961
 30
0.0
 11
1118.316043588743
 21
-197.5020149294055
 31
0.0
  0
LINE
  5
D6
330
1F
100
AcDbEntity
  8
B-B_衛生陶器
  6
Continuous
 62
     2
370
     9
100
AcDbLine
 10
1107.808688225097
 20
-234.7354043248072
 30
0.0
 11
1112.981068524735
 21
-235.4623349695165
 31
0.0
  0
LINE
  5
D7
330
1F
100
AcDbEntity
  8
B-B_衛生陶器
  6
Continuous
 62
     2
370
     9
100
AcDbLine
 10
1109.0844447475
 20
-225.6579249921676
 30
0.0
 11
1116.346374383192
 21
-226.6785226447178
 31
0.0
  0
LINE
  5
D8
330
1F
100
AcDbEntity
  8
B-B_衛生陶器
  6
Continuous
 62
     2
370
     9
100
AcDbLine
 10
1111.867906766701
 20
-205.8525636173364
 30
0.0
 11
1119.129836402393
 21
-206.8731612698866
 31
0.0
  0
LINE
  5
D9
330
1F
100
AcDbEntity
  8
B-4_文字
  6
Continuous
 62
     7
370
     9
100
AcDbLine
 10
1514.206694618487
 20
-265.7864438343546
 30
0.0
 11
1429.421861292133
 21
-265.7864438343546
 31
0.0
  0
ARC
  5
DA
330
1F
100
AcDbEntity
  8
B-0_通り芯
  6
JWW_PHANTOM1
 62
     4
370
     9
100
AcDbCircle
 10
1089.98739142718
 20
-306.4530885063736
 30
0.0
 40
343.8587352423411
100
AcDbArc
 50
3.167502091309579
 51
85.16750209130961
  0
LINE
  5
DB
330
1F
100
AcDbEntity
  8
B-6_間仕切
  6
Continuous
 62
     7
370
     9
100
AcDbLine
 10
1070.173700353136
 20
-98.1186847665349
 30
0.0
 11
1070.173700353136
 21
-38.11873425450027
 31
0.0
  0
LINE
  5
DC
330
1F
100
AcDbEntity
  8
B-6_間仕切
  6
Continuous
 62
     7
370
     9
100
AcDbLine
 10
1073.507209643676
 20
-34.78522496395851
 30
0.0
 11
1087.045091576852
 21
-34.78522496395851
 31
0.0
  0
ARC
  5
DD
330
1F
100
AcDbEntity
  8
B-6_間仕切
  6
Continuous
 62
     7
370
     9
100
AcDbCircle
 10
1073.507209643676
 20
-98.1186847665349
 30
0.0
 40
3.333333376291636
100
AcDbArc
 50
180.0
 51
270.0
  0
ARC
  5
DE
330
1F
100
AcDbEntity
  8
B-6_間仕切
  6
Continuous
 62
     7
370
     9
100
AcDbCircle
 10
1073.507209643676
 20
-38.11873425450027
 30
0.0
 40
3.333333376291636
100
AcDbArc
 50
90.0
 51
180.0
  0
LINE
  5
DF
330
1F
100
AcDbEntity
  8
B-A_インテリア
  6
Continuous
 62
     2
370
     9
100
AcDbLine
 10
1474.340839904796
 20
-72.28522496395851
 30
0.0
 11
1474.340839904796
 21
-131.4522930330036
 31
0.0
  0
LINE
  5
E0
330
1F
100
AcDbEntity
  8
B-A_インテリア
  6
Continuous
 62
     2
370
     9
100
AcDbLine
 10
1459.340542977008
 20
-72.28522496395851
 30
0.0
 11
1459.340542977008
 21
-131.4522930330036
 31
0.0
  0
LINE
  5
E1
330
1F
100
AcDbEntity
  8
B-A_インテリア
  6
Continuous
 62
     2
370
     9
100
AcDbLine
 10
1457.67477809103
 20
-131.4522930330036
 30
0.0
 11
1457.67477809103
 21
-209.7853074438995
 31
0.0
  0
LINE
  5
E2
330
1F
100
AcDbEntity
  8
B-A_インテリア
  6
Continuous
 62
     2
370
     9
100
AcDbLine
 10
1450.174382187313
 20
-131.4522930330036
 30
0.0
 11
1483.507495574138
 21
-131.4522930330036
 31
0.0
  0
LINE
  5
E3
330
1F
100
AcDbEntity
  8
B-A_インテリア
  6
Continuous
 62
     2
370
     9
100
AcDbLine
 10
1476.007594550067
 20
-131.4522930330036
 30
0.0
 11
1476.007594550067
 21
-209.7853074438995
 31
0.0
  0
LINE
  5
E4
330
1F
100
AcDbEntity
  8
B-A_インテリア
  6
Continuous
 62
     2
370
     9
100
AcDbLine
 10
1483.507495574138
 20
-131.4522930330036
 30
0.0
 11
1483.507495574138
 21
-209.7853074438995
 31
0.0
  0
LINE
  5
E5
330
1F
100
AcDbEntity
  8
B-A_インテリア
  6
Continuous
 62
     2
370
     9
100
AcDbLine
 10
1450.174382187313
 20
-131.4522930330036
 30
0.0
 11
1450.174382187313
 21
-209.7853074438995
 31
0.0
  0
LINE
  5
E6
330
1F
100
AcDbEntity
  8
B-A_インテリア
  6
Continuous
 62
     2
370
     9
100
AcDbLine
 10
1450.174382187313
 20
-209.7853074438995
 30
0.0
 11
1483.507495574138
 21
-209.7853074438995
 31
0.0
  0
ARC
  5
E7
330
1F
100
AcDbEntity
  8
B-A_インテリア
  6
Continuous
 62
     2
370
     9
100
AcDbCircle
 10
1466.840938880727
 20
-72.28522496395851
 30
0.0
 40
7.500001063217987
100
AcDbArc
 50
0.0000000000000064
 51
180.0
  0
LINE
  5
E8
330
1F
100
AcDbEntity
  8
B-6_間仕切
  6
JWW_CENTER1
 62
     7
370
     9
100
AcDbLine
 10
1466.840938880727
 20
-53.06459442130755
 30
0.0
 11
1466.840938880727
 21
-83.2722954084273
 31
0.0
  0
LINE
  5
E9
330
1F
100
AcDbEntity
  8
B-6_間仕切
  6
Continuous
 62
     7
370
     9
100
AcDbLine
 10
1493.507033686469
 20
-51.45202909719472
 30
0.0
 11
1493.507033686469
 21
-84.78538992384046
 31
0.0
  0
ARC
  5
EA
330
1F
100
AcDbEntity
  8
B-6_間仕切
  6
Continuous
 62
     7
370
     9
100
AcDbCircle
 10
1490.174019275573
 20
-51.45202909719472
 30
0.0
 40
3.333333376291636
100
AcDbArc
 50
0.0000000000000127
 51
90.00000000000001
  0
ARC
  5
EB
330
1F
100
AcDbEntity
  8
B-6_間仕切
  6
Continuous
 62
     7
370
     9
100
AcDbCircle
 10
1490.174019275573
 20
-84.78538992384046
 30
0.0
 40
3.333333376291636
100
AcDbArc
 50
270.0
 51
0.0
  0
ARC
  5
EC
330
1F
100
AcDbEntity
  8
B-6_間仕切
  6
Continuous
 62
     7
370
     9
100
AcDbCircle
 10
1466.840938880727
 20
-68.11883323042906
 30
0.0
 40
11.66666681702072
100
AcDbArc
 50
310.0047302246094
 51
229.9922332763672
  0
LINE
  5
ED
330
1F
100
AcDbEntity
  8
B-6_間仕切
  6
Continuous
 62
     7
370
     9
100
AcDbLine
 10
1433.507330614256
 20
-48.1187672464759
 30
0.0
 11
1433.507330614256
 21
-88.11865177455928
 31
0.0
  0
LINE
  5
EE
330
1F
100
AcDbEntity
  8
B-6_間仕切
  6
Continuous
 62
     7
370
     9
100
AcDbLine
 10
1490.174019275573
 20
-88.11865177455928
 30
0.0
 11
1474.340839904796
 21
-88.11865177455928
 31
0.0
  0
LINE
  5
EF
330
1F
100
AcDbEntity
  8
B-0_通り芯
  6
JWW_CENTER2
 62
     7
370
     9
100
AcDbLine
 10
1056.434452420344
 20
-68.11967819176566
 30
0.0
 11
1501.783496532814
 21
-68.11967819176566
 31
0.0
  0
LINE
  5
F0
330
1F
100
AcDbEntity
  8
B-6_間仕切
  6
Continuous
 62
     7
370
     9
100
AcDbLine
 10
1077.675694868826
 20
-101.4519466172537
 30
0.0
 11
1073.507209643676
 21
-101.4519466172537
 31
0.0
  0
LINE
  5
F1
330
1F
100
AcDbEntity
  8
B-6_間仕切
  6
Continuous
 62
     7
370
     9
100
AcDbLine
 10
1152.764274061124
 20
-48.1187672464759
 30
0.0
 11
1133.979517086666
 21
-48.1187672464759
 31
0.0
  0
LINE
  5
F2
330
1F
100
AcDbEntity
  8
B-6_間仕切
  6
Continuous
 62
     7
370
     9
100
AcDbLine
 10
1152.764274061124
 20
-88.11865177455928
 30
0.0
 11
1128.35789992709
 21
-88.11865177455928
 31
0.0
  0
LINE
  5
F3
330
1F
100
AcDbEntity
  8
B-6_間仕切
  6
Continuous
 62
     7
370
     9
100
AcDbLine
 10
1490.174019275573
 20
-48.1187672464759
 30
0.0
 11
1407.097770154874
 21
-48.1187672464759
 31
0.0
  0
LINE
  5
F4
330
1F
100
AcDbEntity
  8
B-6_間仕切
  6
Continuous
 62
     7
370
     9
100
AcDbLine
 10
1459.340542977008
 20
-88.11865177455928
 30
0.0
 11
1407.097770154874
 21
-88.11865177455928
 31
0.0
  0
LINE
  5
F5
330
1F
100
AcDbEntity
  8
B-6_間仕切
  6
JWW_DASHED1
 62
     7
370
     9
100
AcDbLine
 10
1407.097770154874
 20
-48.1187672464759
 30
0.0
 11
1152.764274061124
 21
-48.1187672464759
 31
0.0
  0
LINE
  5
F6
330
1F
100
AcDbEntity
  8
B-6_間仕切
  6
JWW_DASHED1
 62
     7
370
     9
100
AcDbLine
 10
1407.097770154874
 20
-88.11865177455928
 30
0.0
 11
1152.764274061124
 21
-88.11865177455928
 31
0.0
  0
TEXT
  5
F7
330
1F
100
AcDbEntity
  8
B-5_建具
  6
Continuous
 62
     7
370
     9
100
AcDbText
 10
1557.281642444671
 20
69.90494431866199
 30
0.0
 40
22.86
  1
ロックピン：SCS13A
 50
359.9999735004548
 41
1.157407407407409
  7
ＭＳ ゴシック
100
AcDbText
  0
TEXT
  5
F8
330
1F
100
AcDbEntity
  8
B-5_建具
  6
Continuous
 62
     7
370
     9
100
AcDbText
 10
1523.676246149482
 20
-80.08706706920799
 30
0.0
 40
22.86
  1
南京錠：CAC202
 41
1.154761904761905
  7
ＭＳ ゴシック
100
AcDbText
  0
LINE
  5
F9
330
1F
100
AcDbEntity
  8
B-5_建具
  6
Continuous
 62
     7
370
     9
100
AcDbLine
 10
1493.507352651866
 20
-51.45202909719323
 30
0.0
 11
1557.281640488278
 21
59.00827765199555
 31
0.0
  0
LINE
  5
FA
330
1F
100
AcDbEntity
  8
B-5_建具
  6
Continuous
 62
     7
370
     9
100
AcDbLine
 10
1557.281640488278
 20
59.00827765199555
 30
0.0
 11
1871.655834360212
 21
59.00827765199555
 31
0.0
  0
LINE
  5
FB
330
1F
100
AcDbEntity
  8
B-5_建具
  6
Continuous
 62
     7
370
     9
100
AcDbLine
 10
1493.507352651866
 20
-51.45202909719323
 30
0.0
 11
1503.074438460993
 21
-28.35504078441083
 31
0.0
  0
LINE
  5
FC
330
1F
100
AcDbEntity
  8
B-5_建具
  6
Continuous
 62
     7
370
     9
100
AcDbLine
 10
1493.507352651866
 20
-51.45202909719323
 30
0.0
 11
1508.726388377083
 21
-31.61819558991219
 31
0.0
  0
LINE
  5
FD
330
1F
100
AcDbEntity
  8
B-5_建具
  6
Continuous
 62
     7
370
     9
100
AcDbLine
 10
1483.507072220067
 20
-157.9409585998081
 30
0.0
 11
1498.726107945284
 21
-138.1071250925276
 31
0.0
  0
LINE
  5
FE
330
1F
100
AcDbEntity
  8
B-5_建具
  6
Continuous
 62
     7
370
     9
100
AcDbLine
 10
1483.507072220067
 20
-157.9409585998081
 30
0.0
 11
1493.074158029194
 21
-134.8439702870263
 31
0.0
  0
LINE
  5
FF
330
1F
100
AcDbEntity
  8
B-5_建具
  6
Continuous
 62
     7
370
     9
100
AcDbLine
 10
1483.507072220067
 20
-157.9409585998081
 30
0.0
 11
1523.676246149482
 21
-88.4495077900987
 31
0.0
  0
LINE
  5
100
330
1F
100
AcDbEntity
  8
B-5_建具
  6
Continuous
 62
     7
370
     9
100
AcDbLine
 10
1523.676246149482
 20
-88.4495077900987
 30
0.0
 11
1767.274449378358
 21
-88.4495077900987
 31
0.0
  0
LINE
  5
101
330
1F
100
AcDbEntity
  8
B-E_見え係り
  6
Continuous
 62
     6
370
     9
100
AcDbLine
 10
1428.431022107999
 20
-287.4531105010271
 30
0.0
 11
1673.764436821541
 21
-287.4531105010271
 31
0.0
  0
LINE
  5
102
330
1F
100
AcDbEntity
  8
B-E_見え係り
  6
Continuous
 62
     6
370
     9
100
AcDbLine
 10
852.7642740611241
 20
-287.4531105010271
 30
0.0
 11
1027.071139351593
 21
-287.4531105010271
 31
0.0
  0
ARC
  5
103
330
1F
100
AcDbEntity
  8
C-0_通り芯
  6
JWW_CENTER2
 62
     7
370
     9
100
AcDbCircle
 10
-1316.423334034419
 20
274.3969723088335
 30
0.0
 40
199.9999979380015
100
AcDbArc
 50
90.0
 51
180.0
  0
ARC
  5
104
330
1F
100
AcDbEntity
  8
C-2_仕上
  6
Continuous
 62
     3
370
     9
100
AcDbCircle
 10
-1316.423334034419
 20
274.3969723088335
 30
0.0
 40
161.8499920819257
100
AcDbArc
 50
90.0
 51
180.0
  0
ARC
  5
105
330
1F
100
AcDbEntity
  8
C-2_仕上
  6
Continuous
 62
     3
370
     9
100
AcDbCircle
 10
-1316.423334034419
 20
274.3969723088335
 30
0.0
 40
238.1500037940773
100
AcDbArc
 50
90.0
 51
180.0
  0
LINE
  5
106
330
1F
100
AcDbEntity
  8
C-4_文字
  6
Continuous
 62
     7
370
     9
100
AcDbLine
 10
-1554.573337828496
 20
641.6195175983412
 30
0.0
 11
-1529.787216294151
 21
644.8826724038427
 31
0.0
  0
LINE
  5
107
330
1F
100
AcDbEntity
  8
C-4_文字
  6
Continuous
 62
     7
370
     9
100
AcDbLine
 10
-1554.573337828496
 20
641.6195175983412
 30
0.0
 11
-1529.787216294151
 21
638.35636279284
 31
0.0
  0
LINE
  5
108
330
1F
100
AcDbEntity
  8
C-4_文字
  6
Continuous
 62
     7
370
     9
100
AcDbLine
 10
-1554.573337828496
 20
644.6195175983414
 30
0.0
 11
-1554.573337828496
 21
350.610589026912
 31
0.0
  0
LINE
  5
109
330
1F
100
AcDbEntity
  8
C-4_文字
  6
Continuous
 62
     7
370
     9
100
AcDbLine
 10
-1329.319960881757
 20
287.1522533084431
 30
0.0
 11
-1457.875056273549
 21
415.7879531060001
 31
0.0
  0
LINE
  5
10A
330
1F
100
AcDbEntity
  8
C-5_建具
  6
Continuous
 62
     7
370
     9
100
AcDbLine
 10
-1457.875056273549
 20
415.7879531060001
 30
0.0
 11
-1438.045993433848
 21
400.5627021425772
 31
0.0
  0
LINE
  5
10B
330
1F
100
AcDbEntity
  8
C-5_建具
  6
Continuous
 62
     7
370
     9
100
AcDbLine
 10
-1457.875056273549
 20
415.7879531060001
 30
0.0
 11
-1442.662237281372
 21
395.949350879248
 31
0.0
  0
TEXT
  5
10C
330
1F
100
AcDbEntity
  8
C-4_文字
  6
Continuous
 62
     2
370
   211
100
AcDbText
 10
-1386.146529168871
 20
358.9772298179746
 30
0.0
 40
30.4800000000007
  1
R200
 50
315.0
 41
1.093749999999943
  7
ＭＳ ゴシック
100
AcDbText
  0
LINE
  5
10D
330
1F
100
AcDbEntity
  8
C-1_躯体
  6
Continuous
 62
     7
370
     9
100
AcDbLine
 10
-1466.423350530407
 20
-537.4531426682045
 30
0.0
 11
-1566.423350530407
 21
-537.4531426682045
 31
0.0
  0
LINE
  5
10E
330
1F
100
AcDbEntity
  8
C-4_文字
  6
Continuous
 62
     7
370
     9
100
AcDbLine
 10
-1175.292913680411
 20
-287.4531138002254
 30
0.0
 11
-1178.556068485913
 21
-312.2392353345706
 31
0.0
  0
LINE
  5
10F
330
1F
100
AcDbEntity
  8
C-4_文字
  6
Continuous
 62
     7
370
     9
100
AcDbLine
 10
-1175.292913680411
 20
-287.4531138002254
 30
0.0
 11
-1172.02975887491
 21
-312.2392353345706
 31
0.0
  0
LINE
  5
110
330
1F
100
AcDbEntity
  8
C-4_文字
  6
Continuous
 62
     7
370
     9
100
AcDbLine
 10
-1666.422596034012
 20
-764.1426989310171
 30
0.0
 11
-1366.422596034012
 21
-764.1426989310171
 31
0.0
  0
LINE
  5
111
330
1F
100
AcDbEntity
  8
C-4_文字
  6
Continuous
 62
     7
370
     9
100
AcDbLine
 10
-1666.422596034012
 20
-764.1426989310171
 30
0.0
 11
-1641.636474499667
 21
-760.8795441255156
 31
0.0
  0
LINE
  5
112
330
1F
100
AcDbEntity
  8
C-4_文字
  6
Continuous
 62
     7
370
     9
100
AcDbLine
 10
-1666.422596034012
 20
-764.1426989310171
 30
0.0
 11
-1641.636474499667
 21
-767.4058537365183
 31
0.0
  0
LINE
  5
113
330
1F
100
AcDbEntity
  8
C-4_文字
  6
Continuous
 62
     7
370
     9
100
AcDbLine
 10
-1366.422596034012
 20
-764.1426989310171
 30
0.0
 11
-1391.208717568357
 21
-760.8795441255156
 31
0.0
  0
LINE
  5
114
330
1F
100
AcDbEntity
  8
C-4_文字
  6
Continuous
 62
     7
370
     9
100
AcDbLine
 10
-1366.422596034012
 20
-764.1426989310171
 30
0.0
 11
-1391.208717568357
 21
-767.4058537365183
 31
0.0
  0
LINE
  5
115
330
1F
100
AcDbEntity
  8
C-4_文字
  6
Continuous
 62
     7
370
     9
100
AcDbLine
 10
-1666.422596034012
 20
-767.1426989310171
 30
0.0
 11
-1666.422596034012
 21
-659.151482591881
 31
0.0
  0
LINE
  5
116
330
1F
100
AcDbEntity
  8
C-4_文字
  6
Continuous
 62
     7
370
     9
100
AcDbLine
 10
-1366.422596034012
 20
-767.1426989310171
 30
0.0
 11
-1366.422596034012
 21
-659.151482591881
 31
0.0
  0
TEXT
  5
117
330
1F
100
AcDbEntity
  8
C-4_文字
  6
Continuous
 62
     2
370
   211
100
AcDbText
 10
-1571.422596034012
 20
-752.5026989310173
 30
0.0
 40
30.48000000000003
  1
□300
 41
1.099999999999999
  7
ＭＳ ゴシック
100
AcDbText
  0
LINE
  5
118
330
1F
100
AcDbEntity
  8
C-4_文字
  6
Continuous
 62
     7
370
     9
100
AcDbLine
 10
-1716.422596034012
 20
-868.2561938798644
 30
0.0
 11
-1316.422596034012
 21
-868.2561938798644
 31
0.0
  0
LINE
  5
119
330
1F
100
AcDbEntity
  8
C-4_文字
  6
Continuous
 62
     7
370
     9
100
AcDbLine
 10
-1716.422596034012
 20
-868.2561938798644
 30
0.0
 11
-1691.636474499667
 21
-864.9930390743632
 31
0.0
  0
LINE
  5
11A
330
1F
100
AcDbEntity
  8
C-4_文字
  6
Continuous
 62
     7
370
     9
100
AcDbLine
 10
-1716.422596034012
 20
-868.2561938798644
 30
0.0
 11
-1691.636474499667
 21
-871.5193486853659
 31
0.0
  0
LINE
  5
11B
330
1F
100
AcDbEntity
  8
C-4_文字
  6
Continuous
 62
     7
370
     9
100
AcDbLine
 10
-1316.422596034012
 20
-868.2561938798644
 30
0.0
 11
-1341.208717568357
 21
-864.9930390743632
 31
0.0
  0
LINE
  5
11C
330
1F
100
AcDbEntity
  8
C-4_文字
  6
Continuous
 62
     7
370
     9
100
AcDbLine
 10
-1316.422596034012
 20
-868.2561938798644
 30
0.0
 11
-1341.208717568357
 21
-871.5193486853659
 31
0.0
  0
LINE
  5
11D
330
1F
100
AcDbEntity
  8
C-4_文字
  6
Continuous
 62
     7
370
     9
100
AcDbLine
 10
-1716.422596034012
 20
-871.2561938798647
 30
0.0
 11
-1716.422596034012
 21
-659.151482591881
 31
0.0
  0
LINE
  5
11E
330
1F
100
AcDbEntity
  8
C-4_文字
  6
Continuous
 62
     7
370
     9
100
AcDbLine
 10
-1316.422596034012
 20
-871.2561938798647
 30
0.0
 11
-1316.422596034012
 21
-659.151482591881
 31
0.0
  0
TEXT
  5
11F
330
1F
100
AcDbEntity
  8
C-4_文字
  6
Continuous
 62
     2
370
   211
100
AcDbText
 10
-1571.422596034012
 20
-856.6161938798642
 30
0.0
 40
30.47999999999989
  1
□400
 41
1.100000000000004
  7
ＭＳ ゴシック
100
AcDbText
  0
LINE
  5
120
330
1F
100
AcDbEntity
  8
C-E_見え係り
  6
Continuous
 62
     6
370
     9
100
AcDbLine
 10
-1366.423350530406
 20
-540.6531426682045
 30
0.0
 11
-1366.423350530406
 21
-287.4531105010271
 31
0.0
  0
LINE
  5
121
330
1F
100
AcDbEntity
  8
C-E_見え係り
  6
Continuous
 62
     6
370
     9
100
AcDbLine
 10
-1316.423350530406
 20
-640.6531426682045
 30
0.0
 11
-1316.423350530406
 21
-540.6531426682045
 31
0.0
  0
LINE
  5
122
330
1F
100
AcDbEntity
  8
C-E_見え係り
  6
Continuous
 62
     6
370
     9
100
AcDbLine
 10
-1716.423350530407
 20
-540.6531426682045
 30
0.0
 11
-1316.423350530406
 21
-540.6531426682045
 31
0.0
  0
LINE
  5
123
330
1F
100
AcDbEntity
  8
C-E_見え係り
  6
Continuous
 62
     6
370
     9
100
AcDbLine
 10
-1716.423350530407
 20
-640.6531426682045
 30
0.0
 11
-1316.423350530406
 21
-640.6531426682045
 31
0.0
  0
LINE
  5
124
330
1F
100
AcDbEntity
  8
C-E_見え係り
  6
Continuous
 62
     6
370
     9
100
AcDbLine
 10
-1416.423350530406
 20
-540.6531426682045
 30
0.0
 11
-1443.21826977352
 21
-640.6531426682045
 31
0.0
  0
LINE
  5
125
330
1F
100
AcDbEntity
  8
C-E_見え係り
  6
Continuous
 62
     6
370
     9
100
AcDbLine
 10
-1430.16890095998
 20
-640.6531426682045
 30
0.0
 11
-1436.69358536675
 21
-616.3026889587866
 31
0.0
  0
LINE
  5
126
330
1F
100
AcDbEntity
  8
C-E_見え係り
  6
Continuous
 62
     6
370
     9
100
AcDbLine
 10
-1429.472719343947
 20
-540.6531426682045
 30
0.0
 11
-1422.948034937177
 21
-565.0035963776224
 31
0.0
  0
LINE
  5
127
330
1F
100
AcDbEntity
  8
C-E_見え係り
  6
Continuous
 62
     6
370
     9
100
AcDbLine
 10
-1366.423350530406
 20
-540.6531426682045
 30
0.0
 11
-1393.218269773519
 21
-640.6531426682045
 31
0.0
  0
LINE
  5
128
330
1F
100
AcDbEntity
  8
C-E_見え係り
  6
Continuous
 62
     6
370
     9
100
AcDbLine
 10
-1380.168900959979
 20
-640.6531426682045
 30
0.0
 11
-1386.693585366749
 21
-616.3026889587866
 31
0.0
  0
LINE
  5
129
330
1F
100
AcDbEntity
  8
C-E_見え係り
  6
Continuous
 62
     6
370
     9
100
AcDbLine
 10
-1379.472719343946
 20
-540.6531426682045
 30
0.0
 11
-1372.948034937176
 21
-565.0035963776224
 31
0.0
  0
LINE
  5
12A
330
1F
100
AcDbEntity
  8
C-E_見え係り
  6
Continuous
 62
     6
370
     9
100
AcDbLine
 10
-1316.423350530406
 20
-540.6531426682045
 30
0.0
 11
-1343.218269773519
 21
-640.6531426682045
 31
0.0
  0
LINE
  5
12B
330
1F
100
AcDbEntity
  8
C-E_見え係り
  6
Continuous
 62
     6
370
     9
100
AcDbLine
 10
-1330.168900959979
 20
-640.6531426682045
 30
0.0
 11
-1336.693585366749
 21
-616.3026889587866
 31
0.0
  0
LINE
  5
12C
330
1F
100
AcDbEntity
  8
C-E_見え係り
  6
Continuous
 62
     6
370
     9
100
AcDbLine
 10
-1329.472719343946
 20
-540.6531426682045
 30
0.0
 11
-1322.948034937177
 21
-565.0035963776224
 31
0.0
  0
LINE
  5
12D
330
1F
100
AcDbEntity
  8
C-E_見え係り
  6
Continuous
 62
     6
370
     9
100
AcDbLine
 10
-1666.423350530407
 20
-540.6531426682045
 30
0.0
 11
-1666.423350530407
 21
-287.4531105010271
 31
0.0
  0
LINE
  5
12E
330
1F
100
AcDbEntity
  8
C-E_見え係り
  6
Continuous
 62
     6
370
     9
100
AcDbLine
 10
-1716.423350530407
 20
-640.6531426682045
 30
0.0
 11
-1716.423350530407
 21
-540.6531426682045
 31
0.0
  0
LINE
  5
12F
330
1F
100
AcDbEntity
  8
C-E_見え係り
  6
Continuous
 62
     6
370
     9
100
AcDbLine
 10
-1516.423350530407
 20
-540.6531426682045
 30
0.0
 11
-1543.21826977352
 21
-640.6531426682045
 31
0.0
  0
LINE
  5
130
330
1F
100
AcDbEntity
  8
C-E_見え係り
  6
Continuous
 62
     6
370
     9
100
AcDbLine
 10
-1530.16890095998
 20
-640.6531426682045
 30
0.0
 11
-1536.69358536675
 21
-616.3026889587866
 31
0.0
  0
LINE
  5
131
330
1F
100
AcDbEntity
  8
C-E_見え係り
  6
Continuous
 62
     6
370
     9
100
AcDbLine
 10
-1529.472719343947
 20
-540.6531426682045
 30
0.0
 11
-1522.948034937177
 21
-565.0035963776224
 31
0.0
  0
LINE
  5
132
330
1F
100
AcDbEntity
  8
C-E_見え係り
  6
Continuous
 62
     6
370
     9
100
AcDbLine
 10
-1566.423350530407
 20
-540.6531426682045
 30
0.0
 11
-1593.21826977352
 21
-640.6531426682045
 31
0.0
  0
LINE
  5
133
330
1F
100
AcDbEntity
  8
C-E_見え係り
  6
Continuous
 62
     6
370
     9
100
AcDbLine
 10
-1580.16890095998
 20
-640.6531426682045
 30
0.0
 11
-1586.69358536675
 21
-616.3026889587866
 31
0.0
  0
LINE
  5
134
330
1F
100
AcDbEntity
  8
C-E_見え係り
  6
Continuous
 62
     6
370
     9
100
AcDbLine
 10
-1579.472719343947
 20
-540.6531426682045
 30
0.0
 11
-1572.948034937177
 21
-565.0035963776224
 31
0.0
  0
LINE
  5
135
330
1F
100
AcDbEntity
  8
C-E_見え係り
  6
Continuous
 62
     6
370
     9
100
AcDbLine
 10
-1616.423350530407
 20
-540.6531426682045
 30
0.0
 11
-1643.21826977352
 21
-640.6531426682045
 31
0.0
  0
LINE
  5
136
330
1F
100
AcDbEntity
  8
C-E_見え係り
  6
Continuous
 62
     6
370
     9
100
AcDbLine
 10
-1630.16890095998
 20
-640.6531426682045
 30
0.0
 11
-1636.69358536675
 21
-616.3026889587866
 31
0.0
  0
LINE
  5
137
330
1F
100
AcDbEntity
  8
C-E_見え係り
  6
Continuous
 62
     6
370
     9
100
AcDbLine
 10
-1629.472719343947
 20
-540.6531426682045
 30
0.0
 11
-1622.948034937177
 21
-565.0035963776224
 31
0.0
  0
LINE
  5
138
330
1F
100
AcDbEntity
  8
C-E_見え係り
  6
Continuous
 62
     6
370
     9
100
AcDbLine
 10
-1666.423350530407
 20
-540.6531426682045
 30
0.0
 11
-1693.21826977352
 21
-640.6531426682045
 31
0.0
  0
LINE
  5
139
330
1F
100
AcDbEntity
  8
C-E_見え係り
  6
Continuous
 62
     6
370
     9
100
AcDbLine
 10
-1680.16890095998
 20
-640.6531426682045
 30
0.0
 11
-1686.69358536675
 21
-616.3026889587866
 31
0.0
  0
LINE
  5
13A
330
1F
100
AcDbEntity
  8
C-E_見え係り
  6
Continuous
 62
     6
370
     9
100
AcDbLine
 10
-1679.472719343947
 20
-540.6531426682045
 30
0.0
 11
-1672.948034937177
 21
-565.0035963776224
 31
0.0
  0
LINE
  5
13B
330
1F
100
AcDbEntity
  8
C-E_見え係り
  6
Continuous
 62
     6
370
     9
100
AcDbLine
 10
-1466.423350530407
 20
-540.6531426682045
 30
0.0
 11
-1493.21826977352
 21
-640.6531426682045
 31
0.0
  0
LINE
  5
13C
330
1F
100
AcDbEntity
  8
C-E_見え係り
  6
Continuous
 62
     6
370
     9
100
AcDbLine
 10
-1480.16890095998
 20
-640.6531426682045
 30
0.0
 11
-1486.69358536675
 21
-616.3026889587866
 31
0.0
  0
LINE
  5
13D
330
1F
100
AcDbEntity
  8
C-E_見え係り
  6
Continuous
 62
     6
370
     9
100
AcDbLine
 10
-1479.472719343947
 20
-540.6531426682045
 30
0.0
 11
-1472.948034937177
 21
-565.0035963776224
 31
0.0
  0
LINE
  5
13E
330
1F
100
AcDbEntity
  8
C-1_躯体
  6
Continuous
 62
     7
370
     9
100
AcDbLine
 10
-1466.423350530407
 20
-537.4531426682045
 30
0.0
 11
-1466.423350530407
 21
-540.6531426682045
 31
0.0
  0
LINE
  5
13F
330
1F
100
AcDbEntity
  8
C-1_躯体
  6
Continuous
 62
     7
370
     9
100
AcDbLine
 10
-1503.923350530407
 20
-537.4531426682045
 30
0.0
 11
-1503.923350530407
 21
-540.6531426682045
 31
0.0
  0
LINE
  5
140
330
1F
100
AcDbEntity
  8
C-1_躯体
  6
Continuous
 62
     7
370
     9
100
AcDbLine
 10
-1566.423350530407
 20
-537.4531426682045
 30
0.0
 11
-1566.423350530407
 21
-540.6531426682045
 31
0.0
  0
LINE
  5
141
330
1F
100
AcDbEntity
  8
C-1_躯体
  6
Continuous
 62
     7
370
     9
100
AcDbLine
 10
-1528.923350530407
 20
-537.4531426682045
 30
0.0
 11
-1528.923350530407
 21
-540.6531426682045
 31
0.0
  0
LINE
  5
142
330
1F
100
AcDbEntity
  8
C-4_文字
  6
Continuous
 62
     7
370
     9
100
AcDbLine
 10
-1175.292913680411
 20
-640.6531426682045
 30
0.0
 11
-1175.292913680411
 21
-540.6531426682045
 31
0.0
  0
LINE
  5
143
330
1F
100
AcDbEntity
  8
C-4_文字
  6
Continuous
 62
     7
370
     9
100
AcDbLine
 10
-1175.292913680411
 20
-640.6531426682045
 30
0.0
 11
-1178.556068485913
 21
-615.8670211338592
 31
0.0
  0
LINE
  5
144
330
1F
100
AcDbEntity
  8
C-4_文字
  6
Continuous
 62
     7
370
     9
100
AcDbLine
 10
-1175.292913680411
 20
-640.6531426682045
 30
0.0
 11
-1172.02975887491
 21
-615.8670211338592
 31
0.0
  0
LINE
  5
145
330
1F
100
AcDbEntity
  8
C-4_文字
  6
Continuous
 62
     7
370
     9
100
AcDbLine
 10
-1175.292913680411
 20
-540.6531426682045
 30
0.0
 11
-1178.556068485913
 21
-565.4392642025498
 31
0.0
  0
LINE
  5
146
330
1F
100
AcDbEntity
  8
C-4_文字
  6
Continuous
 62
     7
370
     9
100
AcDbLine
 10
-1175.292913680411
 20
-540.6531426682045
 30
0.0
 11
-1172.02975887491
 21
-565.4392642025498
 31
0.0
  0
LINE
  5
147
330
1F
100
AcDbEntity
  8
C-4_文字
  6
Continuous
 62
     7
370
     9
100
AcDbLine
 10
-1172.292913680411
 20
-640.6531426682045
 30
0.0
 11
-1296.423350530406
 21
-640.6531426682045
 31
0.0
  0
LINE
  5
148
330
1F
100
AcDbEntity
  8
C-4_文字
  6
Continuous
 62
     7
370
     9
100
AcDbLine
 10
-1172.292913680411
 20
-540.6531426682045
 30
0.0
 11
-1296.423350530406
 21
-540.6531426682045
 31
0.0
  0
TEXT
  5
149
330
1F
100
AcDbEntity
  8
C-4_文字
  6
Continuous
 62
     2
370
   211
100
AcDbText
 10
-1185.932913680412
 20
-623.1531426682045
 30
0.0
 40
30.48
  1
100
 50
90.0
 41
1.083333333333333
  7
ＭＳ ゴシック
100
AcDbText
  0
LINE
  5
14A
330
1F
100
AcDbEntity
  8
C-4_文字
  6
Continuous
 62
     7
370
     9
100
AcDbLine
 10
-1175.292913680411
 20
-540.6531426682045
 30
0.0
 11
-1175.292913680411
 21
-287.4531138002254
 31
0.0
  0
TEXT
  5
14B
330
1F
100
AcDbEntity
  8
C-4_文字
  6
Continuous
 62
     2
370
   211
100
AcDbText
 10
-1185.932913680412
 20
-469.053128234215
 30
0.0
 40
30.48
  1
253.2
 50
90.0
 41
1.1
  7
ＭＳ ゴシック
100
AcDbText
  0
LINE
  5
14C
330
1F
100
AcDbEntity
  8
C-4_文字
  6
Continuous
 62
     7
370
     9
100
AcDbLine
 10
-1175.292913680411
 20
-540.6531426682045
 30
0.0
 11
-1178.556068485913
 21
-515.8670211338592
 31
0.0
  0
LINE
  5
14D
330
1F
100
AcDbEntity
  8
C-4_文字
  6
Continuous
 62
     7
370
     9
100
AcDbLine
 10
-1175.292913680411
 20
-540.6531426682045
 30
0.0
 11
-1172.02975887491
 21
-515.8670211338592
 31
0.0
  0
LINE
  5
14E
330
1F
100
AcDbEntity
  8
C-0_通り芯
  6
Continuous
 62
     4
370
     9
100
AcDbLine
 10
-1471.873350530407
 20
-287.4531220482191
 30
0.0
 11
-1560.973350530407
 21
-287.4531220482191
 31
0.0
  0
LINE
  5
14F
330
1F
100
AcDbEntity
  8
C-E_見え係り
  6
Continuous
 62
     6
370
     9
100
AcDbLine
 10
-1560.973350530407
 20
-332.1945484519574
 30
0.0
 11
-1666.423350530407
 21
-437.6445484519576
 31
0.0
  0
LINE
  5
150
330
1F
100
AcDbEntity
  8
C-E_見え係り
  6
Continuous
 62
     6
370
     9
100
AcDbLine
 10
-1560.973350530407
 20
-360.4788196994195
 30
0.0
 11
-1666.423350530407
 21
-465.9288196994197
 31
0.0
  0
LINE
  5
151
330
1F
100
AcDbEntity
  8
C-E_見え係り
  6
Continuous
 62
     6
370
     9
100
AcDbLine
 10
-1560.973350530407
 20
-346.3366840756885
 30
0.0
 11
-1666.423350530407
 21
-451.7866840756886
 31
0.0
  0
LINE
  5
152
330
1F
100
AcDbEntity
  8
C-E_見え係り
  6
Continuous
 62
     6
370
     9
100
AcDbLine
 10
-1366.423350530406
 20
-336.5257100343479
 30
0.0
 11
-1471.873350530407
 21
-441.9757100343483
 31
0.0
  0
LINE
  5
153
330
1F
100
AcDbEntity
  8
C-E_見え係り
  6
Continuous
 62
     6
370
     9
100
AcDbLine
 10
-1366.423350530406
 20
-364.80998128181
 30
0.0
 11
-1471.873350530407
 21
-470.2599812818104
 31
0.0
  0
LINE
  5
154
330
1F
100
AcDbEntity
  8
C-E_見え係り
  6
Continuous
 62
     6
370
     9
100
AcDbLine
 10
-1366.423350530406
 20
-350.6678456580789
 30
0.0
 11
-1471.873350530407
 21
-456.1178456580789
 31
0.0
  0
LINE
  5
155
330
1F
100
AcDbEntity
  8
C-0_通り芯
  6
Continuous
 62
     4
370
     9
100
AcDbLine
 10
-1471.873350530407
 20
-537.4531426682045
 30
0.0
 11
-1471.873350530407
 21
-287.4531220482191
 31
0.0
  0
LINE
  5
156
330
1F
100
AcDbEntity
  8
C-0_通り芯
  6
Continuous
 62
     4
370
     9
100
AcDbLine
 10
-1560.973350530407
 20
-537.4531426682045
 30
0.0
 11
-1560.973350530407
 21
-287.4531220482191
 31
0.0
  0
CIRCLE
  5
157
330
1F
100
AcDbEntity
  8
C-E_見え係り
  6
Continuous
 62
     4
370
     9
100
AcDbCircle
 10
-1459.423332601329
 20
-293.1531039026311
 30
0.0
 40
2.5
  0
LINE
  5
158
330
1F
100
AcDbEntity
  8
C-6_間仕切
  6
Continuous
 62
     2
370
     9
100
AcDbLine
 10
-1467.331027488133
 20
-269.2207341441344
 30
0.0
 11
-1468.166066093893
 21
-263.279125731685
 31
0.0
  0
LINE
  5
159
330
1F
100
AcDbEntity
  8
C-6_間仕切
  6
Continuous
 62
     2
370
     9
100
AcDbLine
 10
-1465.876148722418
 20
-263.7651608909129
 30
0.0
 11
-1468.846952928641
 21
-264.1826801937927
 31
0.0
  0
LINE
  5
15A
330
1F
100
AcDbEntity
  8
C-6_間仕切
  6
Continuous
 62
     2
370
     9
100
AcDbLine
 10
-1465.263787078193
 20
-268.1223403933762
 30
0.0
 11
-1468.234591284416
 21
-268.5398596962562
 31
0.0
  0
ARC
  5
15B
330
1F
100
AcDbEntity
  8
C-1_躯体
  6
Continuous
 62
     3
370
     9
100
AcDbCircle
 10
-1443.773402465705
 20
-288.1529158483671
 30
0.0
 40
3.3000001391849
100
AcDbArc
 50
0.0
 51
90.0
  0
LINE
  5
15C
330
1F
100
AcDbEntity
  8
C-1_躯体
  6
Continuous
 62
     3
370
     9
100
AcDbLine
 10
-1440.473544991043
 20
-306.5530359391603
 30
0.0
 11
-1440.473544991043
 21
-288.1529158483671
 31
0.0
  0
ARC
  5
15D
330
1F
100
AcDbEntity
  8
C-1_躯体
  6
Continuous
 62
     3
370
     9
100
AcDbCircle
 10
-1443.773402465705
 20
-306.5530359391603
 30
0.0
 40
3.3000001391849
100
AcDbArc
 50
270.0
 51
0.0
  0
LINE
  5
15E
330
1F
100
AcDbEntity
  8
C-0_通り芯
  6
Continuous
 62
     4
370
     9
100
AcDbLine
 10
-1467.188165914692
 20
-196.9473012111335
 30
0.0
 11
-1474.971137363664
 21
-199.0509540875558
 31
0.0
  0
LINE
  5
15F
330
1F
100
AcDbEntity
  8
C-0_通り芯
  6
Continuous
 62
     4
370
     9
100
AcDbLine
 10
-1466.581084408283
 20
-190.6517108116705
 30
0.0
 11
-1468.113643756687
 21
-190.3621841954668
 31
0.0
  0
LINE
  5
160
330
1F
100
AcDbEntity
  8
C-0_通り芯
  6
Continuous
 62
     4
370
     9
100
AcDbLine
 10
-1468.113643756687
 20
-190.3621841954668
 30
0.0
 11
-1467.188165914692
 21
-196.9473012111335
 31
0.0
  0
LINE
  5
161
330
1F
100
AcDbEntity
  8
C-0_通り芯
  6
Continuous
 62
     4
370
     9
100
AcDbLine
 10
-1466.581084408283
 20
-190.6517108116705
 30
0.0
 11
-1460.890574008312
 21
-195.052568512578
 31
0.0
  0
LINE
  5
162
330
1F
100
AcDbEntity
  8
C-0_通り芯
  6
Continuous
 62
     4
370
     9
100
AcDbLine
 10
-1450.150281734259
 20
-271.4737189689359
 30
0.0
 11
-1460.890574008312
 21
-195.052568512578
 31
0.0
  0
LINE
  5
163
330
1F
100
AcDbEntity
  8
C-0_通り芯
  6
Continuous
 62
     4
370
     9
100
AcDbLine
 10
-1461.325709755024
 20
-274.5873269400844
 30
0.0
 11
-1464.41215351808
 21
-274.1820280415727
 31
0.0
  0
LINE
  5
164
330
1F
100
AcDbEntity
  8
C-0_通り芯
  6
Continuous
 62
     4
370
     9
100
AcDbLine
 10
-1461.273519842168
 20
-274.9586774658272
 30
0.0
 11
-1456.23519631036
 21
-274.8817295039904
 31
0.0
  0
ARC
  5
165
330
1F
100
AcDbEntity
  8
C-9_記号
  6
Continuous
 62
     7
370
     9
100
AcDbCircle
 10
-1455.448885141087
 20
-280.47662419021
 30
0.0
 40
3.200000000000001
100
AcDbArc
 50
278.0
 51
8.00000000000001
  0
ARC
  5
166
330
1F
100
AcDbEntity
  8
C-6_間仕切
  6
Continuous
 62
     2
370
     9
100
AcDbCircle
 10
-1451.94217628594
 20
-281.7166756400473
 30
0.0
 40
1.5
100
AcDbArc
 50
278.0
 51
7.999999999999999
  0
LINE
  5
167
330
1F
100
AcDbEntity
  8
C-B_衛生陶器
  6
Continuous
 62
     2
370
     9
100
AcDbLine
 10
-1466.854643311117
 20
-271.1734031896165
 30
0.0
 11
-1466.321435730596
 21
-271.855877841574
 31
0.0
  0
LINE
  5
168
330
1F
100
AcDbEntity
  8
C-B_衛生陶器
  6
Continuous
 62
     2
370
     9
100
AcDbLine
 10
-1468.246364764459
 20
-261.2707904985128
 30
0.0
 11
-1467.921928249798
 21
-260.4677818295407
 31
0.0
  0
LINE
  5
169
330
1F
100
AcDbEntity
  8
C-B_衛生陶器
  6
Continuous
 62
     2
370
     9
100
AcDbLine
 10
-1468.246364764459
 20
-261.2707904985128
 30
0.0
 11
-1467.968023340668
 21
-263.2512926378401
 31
0.0
  0
LINE
  5
16A
330
1F
100
AcDbEntity
  8
C-B_衛生陶器
  6
Continuous
 62
     2
370
     9
100
AcDbLine
 10
-1467.132984734908
 20
-269.1929010502895
 30
0.0
 11
-1466.854643311117
 21
-271.1734031896165
 31
0.0
  0
LINE
  5
16B
330
1F
100
AcDbEntity
  8
C-6_間仕切
  6
Continuous
 62
     2
370
     9
100
AcDbLine
 10
-1468.234581950241
 20
-268.5398473093873
 30
0.0
 11
-1468.846940541771
 21
-264.182689527968
 31
0.0
  0
LINE
  5
16C
330
1F
100
AcDbEntity
  8
C-6_間仕切
  6
Continuous
 62
     2
370
     9
100
AcDbLine
 10
-1467.331016627611
 20
-269.2207326177875
 30
0.0
 11
-1468.234581950241
 21
-268.5398473093873
 31
0.0
  0
LINE
  5
16D
330
1F
100
AcDbEntity
  8
C-6_間仕切
  6
Continuous
 62
     2
370
     9
100
AcDbLine
 10
-1468.166055233371
 20
-263.2791242053382
 30
0.0
 11
-1468.846940541771
 21
-264.182689527968
 31
0.0
  0
LINE
  5
16E
330
1F
100
AcDbEntity
  8
C-6_間仕切
  6
JWW_DASHED1
 62
     2
370
     9
100
AcDbLine
 10
-1461.438043708167
 20
-284.5659741325683
 30
0.0
 11
-1451.7334166345
 21
-283.2020777431597
 31
0.0
  0
LINE
  5
16F
330
1F
100
AcDbEntity
  8
C-9_記号
  6
Continuous
 62
     7
370
     9
100
AcDbLine
 10
-1454.833817427919
 20
-284.8530583737045
 30
0.0
 11
-1455.684103910874
 21
-278.8029556775326
 31
0.0
  0
LINE
  5
170
330
1F
100
AcDbEntity
  8
C-6_間仕切
  6
JWW_DASHED1
 62
     2
370
     9
100
AcDbLine
 10
-1451.602369195856
 20
-284.8530583737045
 30
0.0
 11
-1451.834673398039
 21
-283.2001280871112
 31
0.0
  0
ARC
  5
171
330
1F
100
AcDbEntity
  8
C-6_間仕切
  6
JWW_DASHED1
 62
     2
370
     9
100
AcDbCircle
 10
-1460.742178203367
 20
-289.5173144762761
 30
0.0
 40
5.0
100
AcDbArc
 50
98.00000000000001
 51
111.1162779804451
  0
LINE
  5
172
330
1F
100
AcDbEntity
  8
C-9_記号
  6
Continuous
 62
     7
370
     9
100
AcDbLine
 10
-1463.595883512481
 20
-284.8530583737045
 30
0.0
 11
-1455.003531218015
 21
-283.6454820101833
 31
0.0
  0
LINE
  5
173
330
1F
100
AcDbEntity
  8
C-0_通り芯
  6
Continuous
 62
     4
370
     9
100
AcDbLine
 10
-1455.684103910874
 20
-278.8029556775326
 30
0.0
 11
-1467.188165914692
 21
-196.9473012111335
 31
0.0
  0
LINE
  5
174
330
1F
100
AcDbEntity
  8
C-6_間仕切
  6
Continuous
 62
     2
370
     9
100
AcDbLine
 10
-1449.986645079826
 20
-284.8530583737045
 30
0.0
 11
-1451.560089340383
 21
-273.6574207222805
 31
0.0
  0
LINE
  5
175
330
1F
100
AcDbEntity
  8
C-6_間仕切
  6
Continuous
 62
     2
370
     9
100
AcDbLine
 10
-1451.834673398039
 20
-283.2001280871129
 30
0.0
 11
-1452.886967087325
 21
-275.7126694313109
 31
0.0
  0
LINE
  5
176
330
1F
100
AcDbEntity
  8
C-0_通り芯
  6
Continuous
 62
     4
370
     9
100
AcDbLine
 10
-1454.315558083319
 20
-277.9254654534143
 30
0.0
 11
-1450.150281734258
 21
-271.4737189689358
 31
0.0
  0
LINE
  5
177
330
1F
100
AcDbEntity
  8
C-0_通り芯
  6
Continuous
 62
     4
370
     9
100
AcDbLine
 10
-1455.684103910874
 20
-278.8029556775326
 30
0.0
 11
-1454.315558083319
 21
-277.9254654534141
 31
0.0
  0
LINE
  5
178
330
1F
100
AcDbEntity
  8
C-0_通り芯
  6
Continuous
 62
     4
370
     9
100
AcDbLine
 10
-1474.971137363664
 20
-199.0509540875558
 30
0.0
 11
-1464.41215351808
 21
-274.1820280415728
 31
0.0
  0
LINE
  5
179
330
1F
100
AcDbEntity
  8
C-B_衛生陶器
  6
Continuous
 62
     2
370
     9
100
AcDbLine
 10
-1466.370214159906
 20
-260.2497026361278
 30
0.0
 11
-1467.921928249798
 21
-260.4677818295407
 31
0.0
  0
LINE
  5
17A
330
1F
100
AcDbEntity
  8
C-B_衛生陶器
  6
Continuous
 62
     2
370
     9
100
AcDbLine
 10
-1464.769721640705
 20
-271.6377986481612
 30
0.0
 11
-1466.321435730596
 21
-271.855877841574
 31
0.0
  0
LINE
  5
17B
330
1F
100
AcDbEntity
  8
C-6_間仕切
  6
Continuous
 62
     2
370
     9
100
AcDbLine
 10
-1465.152448597425
 20
-268.9145548483693
 30
0.0
 11
-1467.331027488133
 21
-269.2207341441344
 31
0.0
  0
LINE
  5
17C
330
1F
100
AcDbEntity
  8
C-6_間仕切
  6
Continuous
 62
     2
370
     9
100
AcDbLine
 10
-1465.987487203186
 20
-262.97294643592
 30
0.0
 11
-1468.166066093893
 21
-263.279125731685
 31
0.0
  0
LINE
  5
17D
330
1F
100
AcDbEntity
  8
C-0_通り芯
  6
Continuous
 62
     4
370
     9
100
AcDbLine
 10
-1461.325709755023
 20
-274.5873269400844
 30
0.0
 11
-1461.273519842168
 21
-274.9586774658272
 31
0.0
  0
LINE
  5
17E
330
1F
100
AcDbEntity
  8
C-1_躯体
  6
Continuous
 62
     3
370
     9
100
AcDbLine
 10
-1443.773402465705
 20
-284.8530583737045
 30
0.0
 11
-1478.273326116344
 21
-284.8530583737045
 31
0.0
  0
LINE
  5
17F
330
1F
100
AcDbEntity
  8
C-1_躯体
  6
Continuous
 62
     3
370
     9
100
AcDbLine
 10
-1443.773402465705
 20
-309.852992389752
 30
0.0
 11
-1471.873350530407
 21
-309.852992389752
 31
0.0
  0
LINE
  5
180
330
1F
100
AcDbEntity
  8
C-3_寸法
  6
JWW_DASHED1
 62
     3
370
     9
100
AcDbLine
 10
-1554.57337494447
 20
-287.4531220482191
 30
0.0
 11
-1554.57337494447
 21
-537.4531426682045
 31
0.0
  0
LINE
  5
181
330
1F
100
AcDbEntity
  8
C-3_寸法
  6
JWW_DASHED1
 62
     3
370
     9
100
AcDbLine
 10
-1478.273326116345
 20
-287.4531220482191
 30
0.0
 11
-1478.273326116345
 21
-537.4531426682045
 31
0.0
  0
LINE
  5
182
330
1F
100
AcDbEntity
  8
C-0_通り芯
  6
JWW_DASHED1
 62
     4
370
     9
100
AcDbLine
 10
-1556.773350530407
 20
-287.4531220482191
 30
0.0
 11
-1556.773350530407
 21
-537.4531426682045
 31
0.0
  0
LINE
  5
183
330
1F
100
AcDbEntity
  8
C-0_通り芯
  6
JWW_DASHED1
 62
     4
370
     9
100
AcDbLine
 10
-1476.073350530407
 20
-287.4531220482191
 30
0.0
 11
-1476.073350530407
 21
-537.4531426682045
 31
0.0
  0
CIRCLE
  5
184
330
1F
100
AcDbEntity
  8
C-E_見え係り
  6
Continuous
 62
     4
370
     9
100
AcDbCircle
 10
-149.7233430556629
 20
-293.1531039026311
 30
0.0
 40
2.5
  0
ARC
  5
185
330
1F
100
AcDbEntity
  8
C-0_通り芯
  6
JWW_CENTER2
 62
     7
370
     9
100
AcDbCircle
 10
-292.7233416225735
 20
274.3969723088335
 30
0.0
 40
199.9999979380015
100
AcDbArc
 50
0.0
 51
90.0
  0
ARC
  5
186
330
1F
100
AcDbEntity
  8
C-2_仕上
  6
Continuous
 62
     3
370
     9
100
AcDbCircle
 10
-292.7233416225735
 20
274.3969723088335
 30
0.0
 40
161.8499920819257
100
AcDbArc
 50
0.0
 51
90.0
  0
ARC
  5
187
330
1F
100
AcDbEntity
  8
C-2_仕上
  6
Continuous
 62
     3
370
     9
100
AcDbCircle
 10
-292.7233416225735
 20
274.3969723088335
 30
0.0
 40
238.1500037940773
100
AcDbArc
 50
0.0
 51
90.0
  0
LINE
  5
188
330
1F
100
AcDbEntity
  8
C-4_文字
  6
Continuous
 62
     7
370
     9
100
AcDbLine
 10
-54.57333782849616
 20
641.6195175983412
 30
0.0
 11
-79.35945936284142
 21
644.8826724038427
 31
0.0
  0
LINE
  5
189
330
1F
100
AcDbEntity
  8
C-4_文字
  6
Continuous
 62
     7
370
     9
100
AcDbLine
 10
-54.57333782849616
 20
641.6195175983412
 30
0.0
 11
-79.35945936284142
 21
638.35636279284
 31
0.0
  0
LINE
  5
18A
330
1F
100
AcDbEntity
  8
C-4_文字
  6
Continuous
 62
     7
370
     9
100
AcDbLine
 10
-54.57333782849616
 20
644.6195175983414
 30
0.0
 11
-54.57333782849616
 21
350.610589026912
 31
0.0
  0
LINE
  5
18B
330
1F
100
AcDbEntity
  8
C-0_通り芯
  6
JWW_CENTER2
 62
     7
370
     9
100
AcDbLine
 10
-292.7233416225735
 20
474.3969888048218
 30
0.0
 11
-1316.423334034419
 21
474.3969888048218
 31
0.0
  0
LINE
  5
18C
330
1F
100
AcDbEntity
  8
C-2_仕上
  6
Continuous
 62
     3
370
     9
100
AcDbLine
 10
-1316.423334034419
 20
512.5468647549906
 30
0.0
 11
-292.7233416225735
 21
512.5468647549906
 31
0.0
  0
LINE
  5
18D
330
1F
100
AcDbEntity
  8
C-2_仕上
  6
Continuous
 62
     3
370
     9
100
AcDbLine
 10
-1316.423334034419
 20
436.2468159268656
 30
0.0
 11
-292.7233416225735
 21
436.2468159268656
 31
0.0
  0
LINE
  5
18E
330
1F
100
AcDbEntity
  8
C-1_躯体
  6
Continuous
 62
     7
370
     9
100
AcDbLine
 10
-42.72332512658537
 20
-537.4531426682045
 30
0.0
 11
-142.7233251265854
 21
-537.4531426682045
 31
0.0
  0
LINE
  5
18F
330
1F
100
AcDbEntity
  8
C-E_見え係り
  6
Continuous
 62
     6
370
     9
100
AcDbLine
 10
57.2766748734152
 20
-540.6531426682045
 30
0.0
 11
57.2766748734152
 21
-287.4531105010271
 31
0.0
  0
LINE
  5
190
330
1F
100
AcDbEntity
  8
C-E_見え係り
  6
Continuous
 62
     6
370
     9
100
AcDbLine
 10
107.2766748734152
 20
-640.6531426682045
 30
0.0
 11
107.2766748734152
 21
-540.6531426682045
 31
0.0
  0
LINE
  5
191
330
1F
100
AcDbEntity
  8
C-E_見え係り
  6
Continuous
 62
     6
370
     9
100
AcDbLine
 10
-292.7233251265853
 20
-540.6531426682045
 30
0.0
 11
107.2766748734152
 21
-540.6531426682045
 31
0.0
  0
LINE
  5
192
330
1F
100
AcDbEntity
  8
C-E_見え係り
  6
Continuous
 62
     6
370
     9
100
AcDbLine
 10
-292.7233251265853
 20
-640.6531426682045
 30
0.0
 11
107.2766748734152
 21
-640.6531426682045
 31
0.0
  0
LINE
  5
193
330
1F
100
AcDbEntity
  8
C-E_見え係り
  6
Continuous
 62
     6
370
     9
100
AcDbLine
 10
7.276674873415203
 20
-540.6531426682045
 30
0.0
 11
-19.51824436969801
 21
-640.6531426682045
 31
0.0
  0
LINE
  5
194
330
1F
100
AcDbEntity
  8
C-E_見え係り
  6
Continuous
 62
     6
370
     9
100
AcDbLine
 10
-6.468875556157769
 20
-640.6531426682045
 30
0.0
 11
-12.99355996292789
 21
-616.3026889587866
 31
0.0
  0
LINE
  5
195
330
1F
100
AcDbEntity
  8
C-E_見え係り
  6
Continuous
 62
     6
370
     9
100
AcDbLine
 10
-5.772693940125038
 20
-540.6531426682045
 30
0.0
 11
0.7519904666450827
 21
-565.0035963776224
 31
0.0
  0
LINE
  5
196
330
1F
100
AcDbEntity
  8
C-E_見え係り
  6
Continuous
 62
     6
370
     9
100
AcDbLine
 10
57.2766748734152
 20
-540.6531426682045
 30
0.0
 11
30.48175563030256
 21
-640.6531426682045
 31
0.0
  0
LINE
  5
197
330
1F
100
AcDbEntity
  8
C-E_見え係り
  6
Continuous
 62
     6
370
     9
100
AcDbLine
 10
43.5311244438428
 20
-640.6531426682045
 30
0.0
 11
37.00644003707268
 21
-616.3026889587866
 31
0.0
  0
LINE
  5
198
330
1F
100
AcDbEntity
  8
C-E_見え係り
  6
Continuous
 62
     6
370
     9
100
AcDbLine
 10
44.22730605987496
 20
-540.6531426682045
 30
0.0
 11
50.75199046664508
 21
-565.0035963776224
 31
0.0
  0
LINE
  5
199
330
1F
100
AcDbEntity
  8
C-E_見え係り
  6
Continuous
 62
     6
370
     9
100
AcDbLine
 10
107.2766748734152
 20
-540.6531426682045
 30
0.0
 11
80.48175563030256
 21
-640.6531426682045
 31
0.0
  0
LINE
  5
19A
330
1F
100
AcDbEntity
  8
C-E_見え係り
  6
Continuous
 62
     6
370
     9
100
AcDbLine
 10
93.5311244438428
 20
-640.6531426682045
 30
0.0
 11
87.00644003707268
 21
-616.3026889587866
 31
0.0
  0
LINE
  5
19B
330
1F
100
AcDbEntity
  8
C-E_見え係り
  6
Continuous
 62
     6
370
     9
100
AcDbLine
 10
94.22730605987496
 20
-540.6531426682045
 30
0.0
 11
100.7519904666451
 21
-565.0035963776224
 31
0.0
  0
LINE
  5
19C
330
1F
100
AcDbEntity
  8
C-E_見え係り
  6
Continuous
 62
     6
370
     9
100
AcDbLine
 10
-242.7233251265854
 20
-540.6531426682045
 30
0.0
 11
-242.7233251265854
 21
-287.4531105010271
 31
0.0
  0
LINE
  5
19D
330
1F
100
AcDbEntity
  8
C-E_見え係り
  6
Continuous
 62
     6
370
     9
100
AcDbLine
 10
-292.7233251265853
 20
-640.6531426682045
 30
0.0
 11
-292.7233251265853
 21
-540.6531426682045
 31
0.0
  0
LINE
  5
19E
330
1F
100
AcDbEntity
  8
C-E_見え係り
  6
Continuous
 62
     6
370
     9
100
AcDbLine
 10
-92.72332512658537
 20
-540.6531426682045
 30
0.0
 11
-119.518244369698
 21
-640.6531426682045
 31
0.0
  0
LINE
  5
19F
330
1F
100
AcDbEntity
  8
C-E_見え係り
  6
Continuous
 62
     6
370
     9
100
AcDbLine
 10
-106.4688755561578
 20
-640.6531426682045
 30
0.0
 11
-112.9935599629279
 21
-616.3026889587866
 31
0.0
  0
LINE
  5
1A0
330
1F
100
AcDbEntity
  8
C-E_見え係り
  6
Continuous
 62
     6
370
     9
100
AcDbLine
 10
-105.7726939401256
 20
-540.6531426682045
 30
0.0
 11
-99.24800953335549
 21
-565.0035963776224
 31
0.0
  0
LINE
  5
1A1
330
1F
100
AcDbEntity
  8
C-E_見え係り
  6
Continuous
 62
     6
370
     9
100
AcDbLine
 10
-142.7233251265854
 20
-540.6531426682045
 30
0.0
 11
-169.518244369698
 21
-640.6531426682045
 31
0.0
  0
LINE
  5
1A2
330
1F
100
AcDbEntity
  8
C-E_見え係り
  6
Continuous
 62
     6
370
     9
100
AcDbLine
 10
-156.4688755561578
 20
-640.6531426682045
 30
0.0
 11
-162.9935599629279
 21
-616.3026889587866
 31
0.0
  0
LINE
  5
1A3
330
1F
100
AcDbEntity
  8
C-E_見え係り
  6
Continuous
 62
     6
370
     9
100
AcDbLine
 10
-155.7726939401256
 20
-540.6531426682045
 30
0.0
 11
-149.2480095333555
 21
-565.0035963776224
 31
0.0
  0
LINE
  5
1A4
330
1F
100
AcDbEntity
  8
C-E_見え係り
  6
Continuous
 62
     6
370
     9
100
AcDbLine
 10
-192.7233251265854
 20
-540.6531426682045
 30
0.0
 11
-219.518244369698
 21
-640.6531426682045
 31
0.0
  0
LINE
  5
1A5
330
1F
100
AcDbEntity
  8
C-E_見え係り
  6
Continuous
 62
     6
370
     9
100
AcDbLine
 10
-206.4688755561578
 20
-640.6531426682045
 30
0.0
 11
-212.9935599629279
 21
-616.3026889587866
 31
0.0
  0
LINE
  5
1A6
330
1F
100
AcDbEntity
  8
C-E_見え係り
  6
Continuous
 62
     6
370
     9
100
AcDbLine
 10
-205.7726939401256
 20
-540.6531426682045
 30
0.0
 11
-199.2480095333555
 21
-565.0035963776224
 31
0.0
  0
LINE
  5
1A7
330
1F
100
AcDbEntity
  8
C-E_見え係り
  6
Continuous
 62
     6
370
     9
100
AcDbLine
 10
-242.7233251265854
 20
-540.6531426682045
 30
0.0
 11
-269.518244369698
 21
-640.6531426682045
 31
0.0
  0
LINE
  5
1A8
330
1F
100
AcDbEntity
  8
C-E_見え係り
  6
Continuous
 62
     6
370
     9
100
AcDbLine
 10
-256.4688755561577
 20
-640.6531426682045
 30
0.0
 11
-262.9935599629279
 21
-616.3026889587866
 31
0.0
  0
LINE
  5
1A9
330
1F
100
AcDbEntity
  8
C-E_見え係り
  6
Continuous
 62
     6
370
     9
100
AcDbLine
 10
-255.7726939401256
 20
-540.6531426682045
 30
0.0
 11
-249.2480095333555
 21
-565.0035963776224
 31
0.0
  0
LINE
  5
1AA
330
1F
100
AcDbEntity
  8
C-E_見え係り
  6
Continuous
 62
     6
370
     9
100
AcDbLine
 10
-42.72332512658537
 20
-540.6531426682045
 30
0.0
 11
-69.51824436969801
 21
-640.6531426682045
 31
0.0
  0
LINE
  5
1AB
330
1F
100
AcDbEntity
  8
C-E_見え係り
  6
Continuous
 62
     6
370
     9
100
AcDbLine
 10
-56.46887555615777
 20
-640.6531426682045
 30
0.0
 11
-62.99355996292789
 21
-616.3026889587866
 31
0.0
  0
LINE
  5
1AC
330
1F
100
AcDbEntity
  8
C-E_見え係り
  6
Continuous
 62
     6
370
     9
100
AcDbLine
 10
-55.77269394012561
 20
-540.6531426682045
 30
0.0
 11
-49.24800953335549
 21
-565.0035963776224
 31
0.0
  0
LINE
  5
1AD
330
1F
100
AcDbEntity
  8
C-1_躯体
  6
Continuous
 62
     7
370
     9
100
AcDbLine
 10
-42.72332512658537
 20
-537.4531426682045
 30
0.0
 11
-42.72332512658537
 21
-540.6531426682045
 31
0.0
  0
LINE
  5
1AE
330
1F
100
AcDbEntity
  8
C-1_躯体
  6
Continuous
 62
     7
370
     9
100
AcDbLine
 10
-80.22332512658537
 20
-537.4531426682045
 30
0.0
 11
-80.22332512658537
 21
-540.6531426682045
 31
0.0
  0
LINE
  5
1AF
330
1F
100
AcDbEntity
  8
C-1_躯体
  6
Continuous
 62
     7
370
     9
100
AcDbLine
 10
-142.7233251265854
 20
-537.4531426682045
 30
0.0
 11
-142.7233251265854
 21
-540.6531426682045
 31
0.0
  0
LINE
  5
1B0
330
1F
100
AcDbEntity
  8
C-1_躯体
  6
Continuous
 62
     7
370
     9
100
AcDbLine
 10
-105.2233251265854
 20
-537.4531426682045
 30
0.0
 11
-105.2233251265854
 21
-540.6531426682045
 31
0.0
  0
LINE
  5
1B1
330
1F
100
AcDbEntity
  8
C-0_通り芯
  6
Continuous
 62
     4
370
     9
100
AcDbLine
 10
-48.17332512658524
 20
-287.4531220482191
 30
0.0
 11
-137.2733251265852
 21
-287.4531220482191
 31
0.0
  0
LINE
  5
1B2
330
1F
100
AcDbEntity
  8
C-0_通り芯
  6
Continuous
 62
     4
370
     9
100
AcDbLine
 10
-48.17332512658524
 20
-537.4531426682045
 30
0.0
 11
-48.17332512658524
 21
-287.4531220482191
 31
0.0
  0
LINE
  5
1B3
330
1F
100
AcDbEntity
  8
C-0_通り芯
  6
Continuous
 62
     4
370
     9
100
AcDbLine
 10
-137.2733251265852
 20
-537.4531426682045
 30
0.0
 11
-137.2733251265852
 21
-287.4531220482191
 31
0.0
  0
LINE
  5
1B4
330
1F
100
AcDbEntity
  8
C-E_見え係り
  6
Continuous
 62
     6
370
     9
100
AcDbLine
 10
-137.2733251265852
 20
-360.4788196994195
 30
0.0
 11
-242.7233251265854
 21
-465.9288196994197
 31
0.0
  0
LINE
  5
1B5
330
1F
100
AcDbEntity
  8
C-E_見え係り
  6
Continuous
 62
     6
370
     9
100
AcDbLine
 10
-137.2733251265852
 20
-332.1945484519574
 30
0.0
 11
-242.7233251265854
 21
-437.6445484519576
 31
0.0
  0
LINE
  5
1B6
330
1F
100
AcDbEntity
  8
C-E_見え係り
  6
Continuous
 62
     6
370
     9
100
AcDbLine
 10
-137.2733251265852
 20
-346.3366840756885
 30
0.0
 11
-242.7233251265854
 21
-451.7866840756886
 31
0.0
  0
LINE
  5
1B7
330
1F
100
AcDbEntity
  8
C-E_見え係り
  6
Continuous
 62
     6
370
     9
100
AcDbLine
 10
57.2766748734152
 20
-336.5257100343479
 30
0.0
 11
-48.17332512658524
 21
-441.9757100343483
 31
0.0
  0
LINE
  5
1B8
330
1F
100
AcDbEntity
  8
C-E_見え係り
  6
Continuous
 62
     6
370
     9
100
AcDbLine
 10
57.2766748734152
 20
-364.80998128181
 30
0.0
 11
-48.17332512658524
 21
-470.2599812818104
 31
0.0
  0
LINE
  5
1B9
330
1F
100
AcDbEntity
  8
C-E_見え係り
  6
Continuous
 62
     6
370
     9
100
AcDbLine
 10
57.2766748734152
 20
-350.6678456580789
 30
0.0
 11
-48.17332512658524
 21
-456.1178456580789
 31
0.0
  0
LINE
  5
1BA
330
1F
100
AcDbEntity
  8
C-6_間仕切
  6
Continuous
 62
     2
370
     9
100
AcDbLine
 10
-141.8156481688595
 20
-269.2207341441343
 30
0.0
 11
-140.9806095630991
 21
-263.279125731685
 31
0.0
  0
LINE
  5
1BB
330
1F
100
AcDbEntity
  8
C-6_間仕切
  6
Continuous
 62
     2
370
     9
100
AcDbLine
 10
-143.2705269345746
 20
-263.7651608909128
 30
0.0
 11
-140.2997227283517
 21
-264.1826801937927
 31
0.0
  0
LINE
  5
1BC
330
1F
100
AcDbEntity
  8
C-6_間仕切
  6
Continuous
 62
     2
370
     9
100
AcDbLine
 10
-143.882888578799
 20
-268.1223403933762
 30
0.0
 11
-140.9120843725761
 21
-268.5398596962561
 31
0.0
  0
ARC
  5
1BD
330
1F
100
AcDbEntity
  8
C-1_躯体
  6
Continuous
 62
     3
370
     9
100
AcDbCircle
 10
-165.3732731912875
 20
-288.152915848367
 30
0.0
 40
3.3000001391849
100
AcDbArc
 50
90.0
 51
180.0
  0
LINE
  5
1BE
330
1F
100
AcDbEntity
  8
C-1_躯体
  6
Continuous
 62
     3
370
     9
100
AcDbLine
 10
-168.6731306659489
 20
-306.5530359391602
 30
0.0
 11
-168.6731306659489
 21
-288.152915848367
 31
0.0
  0
ARC
  5
1BF
330
1F
100
AcDbEntity
  8
C-1_躯体
  6
Continuous
 62
     3
370
     9
100
AcDbCircle
 10
-165.3732731912875
 20
-306.5530359391602
 30
0.0
 40
3.3000001391849
100
AcDbArc
 50
180.0
 51
270.0
  0
LINE
  5
1C0
330
1F
100
AcDbEntity
  8
C-0_通り芯
  6
Continuous
 62
     4
370
     9
100
AcDbLine
 10
-141.9585097423001
 20
-196.9473012111334
 30
0.0
 11
-134.1755382933277
 21
-199.0509540875557
 31
0.0
  0
LINE
  5
1C1
330
1F
100
AcDbEntity
  8
C-0_通り芯
  6
Continuous
 62
     4
370
     9
100
AcDbLine
 10
-142.5655912487098
 20
-190.6517108116705
 30
0.0
 11
-141.0330319003054
 21
-190.3621841954667
 31
0.0
  0
LINE
  5
1C2
330
1F
100
AcDbEntity
  8
C-0_通り芯
  6
Continuous
 62
     4
370
     9
100
AcDbLine
 10
-141.0330319003054
 20
-190.3621841954667
 30
0.0
 11
-141.9585097423001
 21
-196.9473012111334
 31
0.0
  0
LINE
  5
1C3
330
1F
100
AcDbEntity
  8
C-0_通り芯
  6
Continuous
 62
     4
370
     9
100
AcDbLine
 10
-142.5655912487098
 20
-190.6517108116705
 30
0.0
 11
-148.25610164868
 21
-195.052568512578
 31
0.0
  0
LINE
  5
1C4
330
1F
100
AcDbEntity
  8
C-0_通り芯
  6
Continuous
 62
     4
370
     9
100
AcDbLine
 10
-158.9963939227336
 20
-271.4737189689359
 30
0.0
 11
-148.25610164868
 21
-195.052568512578
 31
0.0
  0
LINE
  5
1C5
330
1F
100
AcDbEntity
  8
C-0_通り芯
  6
Continuous
 62
     4
370
     9
100
AcDbLine
 10
-147.8209659019689
 20
-274.5873269400844
 30
0.0
 11
-144.7345221389124
 21
-274.1820280415727
 31
0.0
  0
LINE
  5
1C6
330
1F
100
AcDbEntity
  8
C-0_通り芯
  6
Continuous
 62
     4
370
     9
100
AcDbLine
 10
-147.873155814824
 20
-274.9586774658272
 30
0.0
 11
-152.9114793466319
 21
-274.8817295039903
 31
0.0
  0
ARC
  5
1C7
330
1F
100
AcDbEntity
  8
C-9_記号
  6
Continuous
 62
     7
370
     9
100
AcDbCircle
 10
-153.6977905159051
 20
-280.4766241902099
 30
0.0
 40
3.200000000000001
100
AcDbArc
 50
172.0
 51
262.0
  0
ARC
  5
1C8
330
1F
100
AcDbEntity
  8
C-6_間仕切
  6
Continuous
 62
     2
370
     9
100
AcDbCircle
 10
-157.2044993710519
 20
-281.7166756400473
 30
0.0
 40
1.5
100
AcDbArc
 50
172.0
 51
262.0
  0
LINE
  5
1C9
330
1F
100
AcDbEntity
  8
C-B_衛生陶器
  6
Continuous
 62
     2
370
     9
100
AcDbLine
 10
-142.2920323458747
 20
-271.1734031896165
 30
0.0
 11
-142.8252399263965
 21
-271.8558778415739
 31
0.0
  0
LINE
  5
1CA
330
1F
100
AcDbEntity
  8
C-B_衛生陶器
  6
Continuous
 62
     2
370
     9
100
AcDbLine
 10
-140.9003108925326
 20
-261.2707904985127
 30
0.0
 11
-141.2247474071943
 21
-260.4677818295406
 31
0.0
  0
LINE
  5
1CB
330
1F
100
AcDbEntity
  8
C-B_衛生陶器
  6
Continuous
 62
     2
370
     9
100
AcDbLine
 10
-140.9003108925326
 20
-261.2707904985127
 30
0.0
 11
-141.1786523163235
 21
-263.25129263784
 31
0.0
  0
LINE
  5
1CC
330
1F
100
AcDbEntity
  8
C-B_衛生陶器
  6
Continuous
 62
     2
370
     9
100
AcDbLine
 10
-142.013690922084
 20
-269.1929010502894
 30
0.0
 11
-142.2920323458747
 21
-271.1734031896165
 31
0.0
  0
LINE
  5
1CD
330
1F
100
AcDbEntity
  8
C-6_間仕切
  6
Continuous
 62
     2
370
     9
100
AcDbLine
 10
-140.9120937067513
 20
-268.5398473093872
 30
0.0
 11
-140.2997351152206
 21
-264.182689527968
 31
0.0
  0
LINE
  5
1CE
330
1F
100
AcDbEntity
  8
C-6_間仕切
  6
Continuous
 62
     2
370
     9
100
AcDbLine
 10
-141.8156590293817
 20
-269.2207326177875
 30
0.0
 11
-140.9120937067513
 21
-268.5398473093872
 31
0.0
  0
LINE
  5
1CF
330
1F
100
AcDbEntity
  8
C-6_間仕切
  6
Continuous
 62
     2
370
     9
100
AcDbLine
 10
-140.9806204236213
 20
-263.2791242053381
 30
0.0
 11
-140.2997351152206
 21
-264.182689527968
 31
0.0
  0
LINE
  5
1D0
330
1F
100
AcDbEntity
  8
C-6_間仕切
  6
JWW_DASHED1
 62
     2
370
     9
100
AcDbLine
 10
-147.7086319488252
 20
-284.5659741325683
 30
0.0
 11
-157.4132590224919
 21
-283.2020777431597
 31
0.0
  0
LINE
  5
1D1
330
1F
100
AcDbEntity
  8
C-9_記号
  6
Continuous
 62
     7
370
     9
100
AcDbLine
 10
-154.3128582290736
 20
-284.8530583737045
 30
0.0
 11
-153.4625717461184
 21
-278.8029556775326
 31
0.0
  0
LINE
  5
1D2
330
1F
100
AcDbEntity
  8
C-6_間仕切
  6
JWW_DASHED1
 62
     2
370
     9
100
AcDbLine
 10
-157.5443064611359
 20
-284.8530583737045
 30
0.0
 11
-157.3120022589532
 21
-283.2001280871112
 31
0.0
  0
ARC
  5
1D3
330
1F
100
AcDbEntity
  8
C-6_間仕切
  6
JWW_DASHED1
 62
     2
370
     9
100
AcDbCircle
 10
-148.4044974536256
 20
-289.5173144762761
 30
0.0
 40
5.0
100
AcDbArc
 50
68.8837220195549
 51
82.00000000000001
  0
LINE
  5
1D4
330
1F
100
AcDbEntity
  8
C-9_記号
  6
Continuous
 62
     7
370
     9
100
AcDbLine
 10
-145.5507921445113
 20
-284.8530583737045
 30
0.0
 11
-154.1431444389774
 21
-283.6454820101832
 31
0.0
  0
LINE
  5
1D5
330
1F
100
AcDbEntity
  8
C-0_通り芯
  6
Continuous
 62
     4
370
     9
100
AcDbLine
 10
-153.4625717461184
 20
-278.8029556775326
 30
0.0
 11
-141.9585097423001
 21
-196.9473012111335
 31
0.0
  0
LINE
  5
1D6
330
1F
100
AcDbEntity
  8
C-6_間仕切
  6
Continuous
 62
     2
370
     9
100
AcDbLine
 10
-159.1600305771659
 20
-284.8530583737045
 30
0.0
 11
-157.5865863166092
 21
-273.6574207222805
 31
0.0
  0
LINE
  5
1D7
330
1F
100
AcDbEntity
  8
C-6_間仕切
  6
Continuous
 62
     2
370
     9
100
AcDbLine
 10
-157.3120022589534
 20
-283.2001280871129
 30
0.0
 11
-156.2597085696673
 21
-275.7126694313109
 31
0.0
  0
LINE
  5
1D8
330
1F
100
AcDbEntity
  8
C-0_通り芯
  6
Continuous
 62
     4
370
     9
100
AcDbLine
 10
-154.8311175736733
 20
-277.9254654534142
 30
0.0
 11
-158.9963939227346
 21
-271.4737189689358
 31
0.0
  0
LINE
  5
1D9
330
1F
100
AcDbEntity
  8
C-0_通り芯
  6
Continuous
 62
     4
370
     9
100
AcDbLine
 10
-153.4625717461184
 20
-278.8029556775326
 30
0.0
 11
-154.8311175736731
 21
-277.9254654534141
 31
0.0
  0
LINE
  5
1DA
330
1F
100
AcDbEntity
  8
C-0_通り芯
  6
Continuous
 62
     4
370
     9
100
AcDbLine
 10
-134.1755382933277
 20
-199.0509540875557
 30
0.0
 11
-144.7345221389123
 21
-274.1820280415727
 31
0.0
  0
LINE
  5
1DB
330
1F
100
AcDbEntity
  8
C-B_衛生陶器
  6
Continuous
 62
     2
370
     9
100
AcDbLine
 10
-142.7764614970857
 20
-260.2497026361278
 30
0.0
 11
-141.2247474071943
 21
-260.4677818295406
 31
0.0
  0
LINE
  5
1DC
330
1F
100
AcDbEntity
  8
C-B_衛生陶器
  6
Continuous
 62
     2
370
     9
100
AcDbLine
 10
-144.3769540162879
 20
-271.6377986481612
 30
0.0
 11
-142.8252399263965
 21
-271.8558778415739
 31
0.0
  0
LINE
  5
1DD
330
1F
100
AcDbEntity
  8
C-6_間仕切
  6
Continuous
 62
     2
370
     9
100
AcDbLine
 10
-143.994227059567
 20
-268.9145548483693
 30
0.0
 11
-141.8156481688595
 21
-269.2207341441343
 31
0.0
  0
LINE
  5
1DE
330
1F
100
AcDbEntity
  8
C-6_間仕切
  6
Continuous
 62
     2
370
     9
100
AcDbLine
 10
-143.1591884538066
 20
-262.9729464359199
 30
0.0
 11
-140.9806095630991
 21
-263.279125731685
 31
0.0
  0
LINE
  5
1DF
330
1F
100
AcDbEntity
  8
C-0_通り芯
  6
Continuous
 62
     4
370
     9
100
AcDbLine
 10
-147.8209659019689
 20
-274.5873269400844
 30
0.0
 11
-147.873155814824
 21
-274.9586774658272
 31
0.0
  0
LINE
  5
1E0
330
1F
100
AcDbEntity
  8
C-1_躯体
  6
Continuous
 62
     3
370
     9
100
AcDbLine
 10
-165.3732731912875
 20
-284.8530583737045
 30
0.0
 11
-130.8733495406479
 21
-284.8530583737045
 31
0.0
  0
LINE
  5
1E1
330
1F
100
AcDbEntity
  8
C-1_躯体
  6
Continuous
 62
     3
370
     9
100
AcDbLine
 10
-165.3732731912875
 20
-309.8529923897519
 30
0.0
 11
-137.2733251265852
 21
-309.8529923897519
 31
0.0
  0
LINE
  5
1E2
330
1F
100
AcDbEntity
  8
C-E_見え係り
  6
Continuous
 62
     6
370
     9
100
AcDbLine
 10
-1440.548456978653
 20
-287.4531105010271
 30
0.0
 11
-168.5982186783392
 21
-287.4531105010271
 31
0.0
  0
LINE
  5
1E3
330
1F
100
AcDbEntity
  8
C-3_寸法
  6
JWW_DASHED1
 62
     3
370
     9
100
AcDbLine
 10
-130.8733495406477
 20
-287.4531220482191
 30
0.0
 11
-130.8733495406477
 21
-537.4531426682045
 31
0.0
  0
LINE
  5
1E4
330
1F
100
AcDbEntity
  8
C-3_寸法
  6
JWW_DASHED1
 62
     3
370
     9
100
AcDbLine
 10
-54.57330071252272
 20
-287.4531220482191
 30
0.0
 11
-54.57330071252272
 21
-537.4531426682045
 31
0.0
  0
LINE
  5
1E5
330
1F
100
AcDbEntity
  8
C-0_通り芯
  6
JWW_DASHED1
 62
     4
370
     9
100
AcDbLine
 10
-133.0733251265852
 20
-287.4531220482191
 30
0.0
 11
-133.0733251265852
 21
-537.4531426682045
 31
0.0
  0
LINE
  5
1E6
330
1F
100
AcDbEntity
  8
C-0_通り芯
  6
JWW_DASHED1
 62
     4
370
     9
100
AcDbLine
 10
-52.37332512658526
 20
-287.4531220482191
 30
0.0
 11
-52.37332512658526
 21
-537.4531426682045
 31
0.0
  0
LINE
  5
1E7
330
1F
100
AcDbEntity
  8
C-5_建具
  6
Continuous
 62
     7
370
     9
100
AcDbLine
 10
-48.17332512658524
 20
-394.5453076444793
 30
0.0
 11
144.8964422263182
 21
-731.3489305244541
 31
0.0
  0
LINE
  5
1E8
330
1F
100
AcDbEntity
  8
C-5_建具
  6
Continuous
 62
     7
370
     9
100
AcDbLine
 10
-48.17332512658524
 20
-394.5453076444793
 30
0.0
 11
-38.60622936732867
 21
-417.6422918357802
 31
0.0
  0
LINE
  5
1E9
330
1F
100
AcDbEntity
  8
C-5_建具
  6
Continuous
 62
     7
370
     9
100
AcDbLine
 10
-48.17332512658524
 20
-394.5453076444793
 30
0.0
 11
-32.95428085699783
 21
-414.3791345954319
 31
0.0
  0
LINE
  5
1EA
330
1F
100
AcDbEntity
  8
C-E_見え係り
  6
Continuous
 62
     6
370
     9
100
AcDbLine
 10
-54.57330071252272
 20
-287.4531105010271
 30
0.0
 11
195.4266992874771
 21
-287.4531105010271
 31
0.0
  0
LINE
  5
1EB
330
1F
100
AcDbEntity
  8
C-6_間仕切
  6
Continuous
 62
     7
370
     9
100
AcDbLine
 10
-155.6505216530443
 20
-230.6527827806795
 30
0.0
 11
-155.6505216530443
 21
-212.6527976270691
 31
0.0
  0
LINE
  5
1EC
330
1F
100
AcDbEntity
  8
C-6_間仕切
  6
Continuous
 62
     7
370
     9
100
AcDbLine
 10
-154.6504688658823
 20
-211.6527448399065
 30
0.0
 11
-150.5891042859296
 21
-211.6527448399065
 31
0.0
  0
ARC
  5
1ED
330
1F
100
AcDbEntity
  8
C-6_間仕切
  6
Continuous
 62
     7
370
     9
100
AcDbCircle
 10
-154.6504688658823
 20
-230.6527827806795
 30
0.0
 40
1.000000012887491
100
AcDbArc
 50
180.0
 51
270.0
  0
ARC
  5
1EE
330
1F
100
AcDbEntity
  8
C-6_間仕切
  6
Continuous
 62
     7
370
     9
100
AcDbCircle
 10
-154.6504688658823
 20
-212.6527976270691
 30
0.0
 40
1.000000012887491
100
AcDbArc
 50
90.0
 51
180.0
  0
LINE
  5
1EF
330
1F
100
AcDbEntity
  8
C-A_インテリア
  6
Continuous
 62
     2
370
     9
100
AcDbLine
 10
-34.40037978754638
 20
-222.9027448399065
 30
0.0
 11
-34.40037978754638
 21
-240.6528652606201
 31
0.0
  0
LINE
  5
1F0
330
1F
100
AcDbEntity
  8
C-A_インテリア
  6
Continuous
 62
     2
370
     9
100
AcDbLine
 10
-38.90046886588287
 20
-222.9027448399065
 30
0.0
 11
-38.90046886588287
 21
-240.6528652606201
 31
0.0
  0
LINE
  5
1F1
330
1F
100
AcDbEntity
  8
C-A_インテリア
  6
Continuous
 62
     2
370
     9
100
AcDbLine
 10
-39.40019833167604
 20
-240.6528652606201
 30
0.0
 11
-39.40019833167604
 21
-264.1527695838888
 31
0.0
  0
LINE
  5
1F2
330
1F
100
AcDbEntity
  8
C-A_インテリア
  6
Continuous
 62
     2
370
     9
100
AcDbLine
 10
-41.65031710279116
 20
-240.6528652606201
 30
0.0
 11
-31.65038308674376
 21
-240.6528652606201
 31
0.0
  0
LINE
  5
1F3
330
1F
100
AcDbEntity
  8
C-A_インテリア
  6
Continuous
 62
     2
370
     9
100
AcDbLine
 10
-33.90035339396512
 20
-240.6528652606201
 30
0.0
 11
-33.90035339396512
 21
-264.1527695838888
 31
0.0
  0
LINE
  5
1F4
330
1F
100
AcDbEntity
  8
C-A_インテリア
  6
Continuous
 62
     2
370
     9
100
AcDbLine
 10
-31.65038308674376
 20
-240.6528652606201
 30
0.0
 11
-31.65038308674376
 21
-264.1527695838888
 31
0.0
  0
LINE
  5
1F5
330
1F
100
AcDbEntity
  8
C-A_インテリア
  6
Continuous
 62
     2
370
     9
100
AcDbLine
 10
-41.65031710279116
 20
-240.6528652606201
 30
0.0
 11
-41.65031710279116
 21
-264.1527695838888
 31
0.0
  0
LINE
  5
1F6
330
1F
100
AcDbEntity
  8
C-A_インテリア
  6
Continuous
 62
     2
370
     9
100
AcDbLine
 10
-41.65031710279116
 20
-264.1527695838888
 30
0.0
 11
-31.65038308674376
 21
-264.1527695838888
 31
0.0
  0
ARC
  5
1F7
330
1F
100
AcDbEntity
  8
C-A_インテリア
  6
Continuous
 62
     2
370
     9
100
AcDbCircle
 10
-36.65035009476718
 20
-222.9027448399065
 30
0.0
 40
2.250000318965396
100
AcDbArc
 50
0.0000000000000064
 51
180.0
  0
LINE
  5
1F8
330
1F
100
AcDbEntity
  8
C-6_間仕切
  6
JWW_CENTER1
 62
     7
370
     9
100
AcDbLine
 10
-36.65035009476718
 20
-217.1365556771113
 30
0.0
 11
-36.65035009476718
 21
-226.1988659732472
 31
0.0
  0
LINE
  5
1F9
330
1F
100
AcDbEntity
  8
C-6_間仕切
  6
Continuous
 62
     7
370
     9
100
AcDbLine
 10
-28.65052165304427
 20
-216.6527860798774
 30
0.0
 11
-28.65052165304427
 21
-226.6527943278711
 31
0.0
  0
ARC
  5
1FA
330
1F
100
AcDbEntity
  8
C-6_間仕切
  6
Continuous
 62
     7
370
     9
100
AcDbCircle
 10
-29.65042597631303
 20
-216.6527860798774
 30
0.0
 40
1.000000012887491
100
AcDbArc
 50
0.0000000000000127
 51
90.00000000000001
  0
ARC
  5
1FB
330
1F
100
AcDbEntity
  8
C-6_間仕切
  6
Continuous
 62
     7
370
     9
100
AcDbCircle
 10
-29.65042597631303
 20
-226.6527943278711
 30
0.0
 40
1.000000012887491
100
AcDbArc
 50
270.0
 51
0.0
  0
ARC
  5
1FC
330
1F
100
AcDbEntity
  8
C-6_間仕切
  6
Continuous
 62
     7
370
     9
100
AcDbCircle
 10
-36.65035009476718
 20
-221.6528273198477
 30
0.0
 40
3.500000045106217
100
AcDbArc
 50
310.0047302246094
 51
229.9922332763672
  0
LINE
  5
1FD
330
1F
100
AcDbEntity
  8
C-6_間仕切
  6
Continuous
 62
     7
370
     9
100
AcDbLine
 10
-46.65043257470835
 20
-215.6528075246618
 30
0.0
 11
-46.65043257470835
 21
-227.6527728830868
 31
0.0
  0
LINE
  5
1FE
330
1F
100
AcDbEntity
  8
C-6_間仕切
  6
Continuous
 62
     7
370
     9
100
AcDbLine
 10
-29.65042597631303
 20
-227.6527728830868
 30
0.0
 11
-34.40037978754638
 21
-227.6527728830868
 31
0.0
  0
LINE
  5
1FF
330
1F
100
AcDbEntity
  8
C-0_通り芯
  6
JWW_CENTER2
 62
     7
370
     9
100
AcDbLine
 10
-159.7722960328819
 20
-221.6530808082487
 30
0.0
 11
-26.16758279914073
 21
-221.6530808082487
 31
0.0
  0
LINE
  5
200
330
1F
100
AcDbEntity
  8
C-6_間仕切
  6
Continuous
 62
     7
370
     9
100
AcDbLine
 10
-153.3999232983374
 20
-231.6527613358951
 30
0.0
 11
-154.6504688658823
 21
-231.6527613358951
 31
0.0
  0
LINE
  5
201
330
1F
100
AcDbEntity
  8
C-6_間仕切
  6
Continuous
 62
     7
370
     9
100
AcDbLine
 10
-130.8733495406479
 20
-215.6528075246618
 30
0.0
 11
-136.5087766329854
 21
-215.6528075246618
 31
0.0
  0
LINE
  5
202
330
1F
100
AcDbEntity
  8
C-6_間仕切
  6
Continuous
 62
     7
370
     9
100
AcDbLine
 10
-130.8733495406479
 20
-227.6527728830868
 30
0.0
 11
-138.1952617808582
 21
-227.6527728830868
 31
0.0
  0
LINE
  5
203
330
1F
100
AcDbEntity
  8
C-6_間仕切
  6
Continuous
 62
     7
370
     9
100
AcDbLine
 10
-29.65042597631303
 20
-215.6528075246618
 30
0.0
 11
-54.57330071252287
 21
-215.6528075246618
 31
0.0
  0
LINE
  5
204
330
1F
100
AcDbEntity
  8
C-6_間仕切
  6
Continuous
 62
     7
370
     9
100
AcDbLine
 10
-38.90046886588287
 20
-227.6527728830868
 30
0.0
 11
-54.57330071252287
 21
-227.6527728830868
 31
0.0
  0
LINE
  5
205
330
1F
100
AcDbEntity
  8
C-6_間仕切
  6
JWW_DASHED1
 62
     7
370
     9
100
AcDbLine
 10
-54.57330071252287
 20
-215.6528075246618
 30
0.0
 11
-130.8733495406479
 21
-215.6528075246618
 31
0.0
  0
LINE
  5
206
330
1F
100
AcDbEntity
  8
C-6_間仕切
  6
JWW_DASHED1
 62
     7
370
     9
100
AcDbLine
 10
-54.57330071252287
 20
-227.6527728830868
 30
0.0
 11
-130.8733495406479
 21
-227.6527728830868
 31
0.0
  0
LINE
  5
207
330
1F
100
AcDbEntity
  8
C-4_文字
  6
Continuous
 62
     7
370
     9
100
AcDbLine
 10
-1554.573337828496
 20
641.6195175983412
 30
0.0
 11
-54.57333782849616
 21
641.6195175983412
 31
0.0
  0
TEXT
  5
208
330
1F
100
AcDbEntity
  8
C-4_文字
  6
Continuous
 62
     2
370
   211
100
AcDbText
 10
-848.3233378284962
 20
652.2595175983412
 30
0.0
 40
30.48
  1
1500
 41
1.09375
  7
ＭＳ ゴシック
100
AcDbText
  0
LINE
  5
209
330
1F
100
AcDbEntity
  8
C-4_文字
  6
Continuous
 62
     7
370
     9
100
AcDbLine
 10
-1765.121525702596
 20
-537.4531105010271
 30
0.0
 11
-1765.121525702596
 21
-287.4531105010271
 31
0.0
  0
LINE
  5
20A
330
1F
100
AcDbEntity
  8
C-4_文字
  6
Continuous
 62
     7
370
     9
100
AcDbLine
 10
-1765.121525702596
 20
-537.4531105010271
 30
0.0
 11
-1768.384680508098
 21
-512.6669889666817
 31
0.0
  0
LINE
  5
20B
330
1F
100
AcDbEntity
  8
C-4_文字
  6
Continuous
 62
     7
370
     9
100
AcDbLine
 10
-1765.121525702596
 20
-537.4531105010271
 30
0.0
 11
-1761.858370897095
 21
-512.6669889666817
 31
0.0
  0
LINE
  5
20C
330
1F
100
AcDbEntity
  8
C-4_文字
  6
Continuous
 62
     7
370
     9
100
AcDbLine
 10
-1765.121525702596
 20
-287.4531105010271
 30
0.0
 11
-1768.384680508098
 21
-312.2392320353725
 31
0.0
  0
LINE
  5
20D
330
1F
100
AcDbEntity
  8
C-4_文字
  6
Continuous
 62
     7
370
     9
100
AcDbLine
 10
-1765.121525702596
 20
-287.4531105010271
 30
0.0
 11
-1761.858370897095
 21
-312.2392320353725
 31
0.0
  0
TEXT
  5
20E
330
1F
100
AcDbEntity
  8
C-4_文字
  6
Continuous
 62
     2
370
   211
100
AcDbText
 10
-1775.761525702596
 20
-444.9531105010271
 30
0.0
 40
30.48
  1
250
 50
90.0
 41
1.083333333333333
  7
ＭＳ ゴシック
100
AcDbText
  0
LINE
  5
20F
330
1F
100
AcDbEntity
  8
C-4_文字
  6
Continuous
 62
     7
370
     9
100
AcDbLine
 10
-1765.121525702596
 20
-287.4531105010271
 30
0.0
 11
-1765.121525702596
 21
512.5468647549906
 31
0.0
  0
LINE
  5
210
330
1F
100
AcDbEntity
  8
C-4_文字
  6
Continuous
 62
     7
370
     9
100
AcDbLine
 10
-1765.121525702596
 20
-287.4531105010271
 30
0.0
 11
-1768.384680508098
 21
-262.6669889666817
 31
0.0
  0
LINE
  5
211
330
1F
100
AcDbEntity
  8
C-4_文字
  6
Continuous
 62
     7
370
     9
100
AcDbLine
 10
-1765.121525702596
 20
-287.4531105010271
 30
0.0
 11
-1761.858370897095
 21
-262.6669889666817
 31
0.0
  0
LINE
  5
212
330
1F
100
AcDbEntity
  8
C-4_文字
  6
Continuous
 62
     7
370
     9
100
AcDbLine
 10
-1765.121525702596
 20
512.5468647549906
 30
0.0
 11
-1768.384680508098
 21
487.7607432206452
 31
0.0
  0
LINE
  5
213
330
1F
100
AcDbEntity
  8
C-4_文字
  6
Continuous
 62
     7
370
     9
100
AcDbLine
 10
-1765.121525702596
 20
512.5468647549906
 30
0.0
 11
-1761.858370897095
 21
487.7607432206452
 31
0.0
  0
TEXT
  5
214
330
1F
100
AcDbEntity
  8
C-4_文字
  6
Continuous
 62
     2
370
   211
100
AcDbText
 10
-1775.761525702596
 20
80.04687712698171
 30
0.0
 40
30.48
  1
800
 50
90.0
 41
1.083333333333333
  7
ＭＳ ゴシック
100
AcDbText
  0
LINE
  5
215
330
1F
100
AcDbEntity
  8
C-4_文字
  6
Continuous
 62
     7
370
     9
100
AcDbLine
 10
-1768.121525702596
 20
-540.6531426682045
 30
0.0
 11
-1736.423350530407
 21
-540.6531426682045
 31
0.0
  0
LINE
  5
216
330
1F
100
AcDbEntity
  8
C-4_文字
  6
Continuous
 62
     7
370
     9
100
AcDbLine
 10
-1765.121525702596
 20
-540.6531426682045
 30
0.0
 11
-1768.384680508098
 21
-565.4392642025498
 31
0.0
  0
LINE
  5
217
330
1F
100
AcDbEntity
  8
C-4_文字
  6
Continuous
 62
     7
370
     9
100
AcDbLine
 10
-1765.121525702596
 20
-540.6531426682045
 30
0.0
 11
-1761.858370897095
 21
-565.4392642025498
 31
0.0
  0
LINE
  5
218
330
1F
100
AcDbEntity
  8
C-4_文字
  6
Continuous
 62
     7
370
     9
100
AcDbLine
 10
-1765.121525702596
 20
-540.6531426682045
 30
0.0
 11
-1765.121525702596
 21
-620.8815383342472
 31
0.0
  0
LINE
  5
219
330
1F
100
AcDbEntity
  8
C-4_文字
  6
Continuous
 62
     7
370
     9
100
AcDbLine
 10
-1765.121525702596
 20
-540.6531426682045
 30
0.0
 11
-1765.121525702596
 21
-537.4531138002253
 31
0.0
  0
TEXT
  5
21A
330
1F
100
AcDbEntity
  8
C-4_文字
  6
Continuous
 62
     2
370
   211
100
AcDbText
 10
-1775.761525702596
 20
-620.6559147514809
 30
0.0
 40
30.48
  1
3.2
 50
90.0
 41
1.083333333333333
  7
ＭＳ ゴシック
100
AcDbText
  0
LINE
  5
21B
330
1F
100
AcDbEntity
  8
C-E_見え係り
  6
Continuous
 62
     6
370
     9
100
AcDbLine
 10
-1804.57337494447
 20
-287.4531105010271
 30
0.0
 11
-1560.973350530407
 21
-287.4531105010271
 31
0.0
  0
LINE
  5
21C
330
1F
100
AcDbEntity
  8
C-4_文字
  6
Continuous
 62
     7
370
     9
100
AcDbLine
 10
-1845.121525702596
 20
-537.4531105010271
 30
0.0
 11
-1845.121525702596
 21
512.5468647549906
 31
0.0
  0
LINE
  5
21D
330
1F
100
AcDbEntity
  8
C-4_文字
  6
Continuous
 62
     7
370
     9
100
AcDbLine
 10
-1845.121525702596
 20
-537.4531105010271
 30
0.0
 11
-1848.384680508098
 21
-512.6669889666817
 31
0.0
  0
LINE
  5
21E
330
1F
100
AcDbEntity
  8
C-4_文字
  6
Continuous
 62
     7
370
     9
100
AcDbLine
 10
-1845.121525702596
 20
-537.4531105010271
 30
0.0
 11
-1841.858370897095
 21
-512.6669889666817
 31
0.0
  0
LINE
  5
21F
330
1F
100
AcDbEntity
  8
C-4_文字
  6
Continuous
 62
     7
370
     9
100
AcDbLine
 10
-1845.121525702596
 20
512.5468647549906
 30
0.0
 11
-1848.384680508098
 21
487.7607432206452
 31
0.0
  0
LINE
  5
220
330
1F
100
AcDbEntity
  8
C-4_文字
  6
Continuous
 62
     7
370
     9
100
AcDbLine
 10
-1845.121525702596
 20
512.5468647549906
 30
0.0
 11
-1841.858370897095
 21
487.7607432206452
 31
0.0
  0
TEXT
  5
221
330
1F
100
AcDbEntity
  8
C-4_文字
  6
Continuous
 62
     2
370
   211
100
AcDbText
 10
-1855.761525702596
 20
-56.20312287301829
 30
0.0
 40
30.48
  1
1050
 50
90.0
 41
1.09375
  7
ＭＳ ゴシック
100
AcDbText
  0
LINE
  5
222
330
1F
100
AcDbEntity
  8
C-4_文字
  6
Continuous
 62
     7
370
     9
100
AcDbLine
 10
-1848.121525702596
 20
512.5468647549906
 30
0.0
 11
-1391.824687012859
 21
512.5468647549906
 31
0.0
  0
LINE
  5
223
330
1F
100
AcDbEntity
  8
C-4_文字
  6
Continuous
 62
     7
370
     9
100
AcDbLine
 10
-1848.121525702596
 20
-537.4531105010271
 30
0.0
 11
-1678.415055577017
 21
-537.4531105010271
 31
0.0
  0
TEXT
  5
224
330
1F
100
AcDbEntity
  8
C-5_建具
  6
Continuous
 62
     7
370
     9
100
AcDbText
 10
148.46100902655
 20
-715.2575632222618
 30
0.0
 40
22.86000000000032
  1
脱着用埋設管
 41
1.138888888888898
  7
ＭＳ ゴシック
100
AcDbText
  0
LINE
  5
225
330
1F
100
AcDbEntity
  8
C-0_通り芯
  6
JWW_CENTER2
 62
     7
370
     9
100
AcDbLine
 10
591.4367787720624
 20
474.3968403409281
 30
0.0
 11
463.9192105446551
 21
474.3968403409281
 31
0.0
  0
LINE
  5
226
330
1F
100
AcDbEntity
  8
C-2_仕上
  6
Continuous
 62
     3
370
     9
100
AcDbLine
 10
562.2456595522565
 20
474.3968403409281
 30
0.0
 11
562.2456595522565
 21
-287.4531269970151
 31
0.0
  0
LINE
  5
227
330
1F
100
AcDbEntity
  8
C-2_仕上
  6
Continuous
 62
     3
370
     9
100
AcDbLine
 10
485.9456107241313
 20
474.3968403409281
 30
0.0
 11
485.9456107241313
 21
-287.4531269970151
 31
0.0
  0
ARC
  5
228
330
1F
100
AcDbEntity
  8
C-2_仕上
  6
Continuous
 62
     3
370
     9
100
AcDbCircle
 10
524.0954866743006
 20
474.3968403409281
 30
0.0
 40
38.15000121657913
100
AcDbArc
 50
0.0
 51
180.0
  0
ARC
  5
229
330
1F
100
AcDbEntity
  8
C-2_仕上
  6
JWW_DASHED2
 62
     3
370
     9
100
AcDbCircle
 10
524.0954866743006
 20
474.3968403409281
 30
0.0
 40
38.1500012165791
100
AcDbArc
 50
180.1468276291587
 51
0.0
  0
LINE
  5
22A
330
1F
100
AcDbEntity
  8
C-1_躯体
  6
Continuous
 62
     7
370
     9
100
AcDbLine
 10
574.0956351381938
 20
-537.4531426682045
 30
0.0
 11
474.0956351381938
 21
-537.4531426682045
 31
0.0
  0
LINE
  5
22B
330
1F
100
AcDbEntity
  8
C-E_見え係り
  6
Continuous
 62
     6
370
     9
100
AcDbLine
 10
674.0956351381942
 20
-540.6531426682045
 30
0.0
 11
674.0956351381942
 21
-287.4531105010271
 31
0.0
  0
LINE
  5
22C
330
1F
100
AcDbEntity
  8
C-E_見え係り
  6
Continuous
 62
     6
370
     9
100
AcDbLine
 10
724.0956351381942
 20
-640.6531426682045
 30
0.0
 11
724.0956351381942
 21
-540.6531426682045
 31
0.0
  0
LINE
  5
22D
330
1F
100
AcDbEntity
  8
C-E_見え係り
  6
Continuous
 62
     6
370
     9
100
AcDbLine
 10
324.0956351381938
 20
-540.6531426682045
 30
0.0
 11
724.0956351381942
 21
-540.6531426682045
 31
0.0
  0
LINE
  5
22E
330
1F
100
AcDbEntity
  8
C-E_見え係り
  6
Continuous
 62
     6
370
     9
100
AcDbLine
 10
324.0956351381938
 20
-640.6531426682045
 30
0.0
 11
724.0956351381942
 21
-640.6531426682045
 31
0.0
  0
LINE
  5
22F
330
1F
100
AcDbEntity
  8
C-E_見え係り
  6
Continuous
 62
     6
370
     9
100
AcDbLine
 10
624.0956351381942
 20
-540.6531426682045
 30
0.0
 11
597.3007158950811
 21
-640.6531426682045
 31
0.0
  0
LINE
  5
230
330
1F
100
AcDbEntity
  8
C-E_見え係り
  6
Continuous
 62
     6
370
     9
100
AcDbLine
 10
610.3500847086212
 20
-640.6531426682045
 30
0.0
 11
603.8254003018511
 21
-616.3026889587866
 31
0.0
  0
LINE
  5
231
330
1F
100
AcDbEntity
  8
C-E_見え係り
  6
Continuous
 62
     6
370
     9
100
AcDbLine
 10
611.046266324654
 20
-540.6531426682045
 30
0.0
 11
617.5709507314241
 21
-565.0035963776224
 31
0.0
  0
LINE
  5
232
330
1F
100
AcDbEntity
  8
C-E_見え係り
  6
Continuous
 62
     6
370
     9
100
AcDbLine
 10
674.0956351381942
 20
-540.6531426682045
 30
0.0
 11
647.3007158950816
 21
-640.6531426682045
 31
0.0
  0
LINE
  5
233
330
1F
100
AcDbEntity
  8
C-E_見え係り
  6
Continuous
 62
     6
370
     9
100
AcDbLine
 10
660.3500847086218
 20
-640.6531426682045
 30
0.0
 11
653.8254003018517
 21
-616.3026889587866
 31
0.0
  0
LINE
  5
234
330
1F
100
AcDbEntity
  8
C-E_見え係り
  6
Continuous
 62
     6
370
     9
100
AcDbLine
 10
661.046266324654
 20
-540.6531426682045
 30
0.0
 11
667.5709507314241
 21
-565.0035963776224
 31
0.0
  0
LINE
  5
235
330
1F
100
AcDbEntity
  8
C-E_見え係り
  6
Continuous
 62
     6
370
     9
100
AcDbLine
 10
724.0956351381942
 20
-540.6531426682045
 30
0.0
 11
697.3007158950816
 21
-640.6531426682045
 31
0.0
  0
LINE
  5
236
330
1F
100
AcDbEntity
  8
C-E_見え係り
  6
Continuous
 62
     6
370
     9
100
AcDbLine
 10
710.3500847086218
 20
-640.6531426682045
 30
0.0
 11
703.8254003018517
 21
-616.3026889587866
 31
0.0
  0
LINE
  5
237
330
1F
100
AcDbEntity
  8
C-E_見え係り
  6
Continuous
 62
     6
370
     9
100
AcDbLine
 10
711.046266324654
 20
-540.6531426682045
 30
0.0
 11
717.5709507314241
 21
-565.0035963776224
 31
0.0
  0
LINE
  5
238
330
1F
100
AcDbEntity
  8
C-E_見え係り
  6
Continuous
 62
     6
370
     9
100
AcDbLine
 10
374.0956351381938
 20
-540.6531426682045
 30
0.0
 11
374.0956351381938
 21
-287.4531105010271
 31
0.0
  0
LINE
  5
239
330
1F
100
AcDbEntity
  8
C-E_見え係り
  6
Continuous
 62
     6
370
     9
100
AcDbLine
 10
324.0956351381938
 20
-640.6531426682045
 30
0.0
 11
324.0956351381938
 21
-540.6531426682045
 31
0.0
  0
LINE
  5
23A
330
1F
100
AcDbEntity
  8
C-E_見え係り
  6
Continuous
 62
     6
370
     9
100
AcDbLine
 10
524.0956351381938
 20
-540.6531426682045
 30
0.0
 11
497.3007158950811
 21
-640.6531426682045
 31
0.0
  0
LINE
  5
23B
330
1F
100
AcDbEntity
  8
C-E_見え係り
  6
Continuous
 62
     6
370
     9
100
AcDbLine
 10
510.3500847086214
 20
-640.6531426682045
 30
0.0
 11
503.8254003018512
 21
-616.3026889587866
 31
0.0
  0
LINE
  5
23C
330
1F
100
AcDbEntity
  8
C-E_見え係り
  6
Continuous
 62
     6
370
     9
100
AcDbLine
 10
511.0462663246535
 20
-540.6531426682045
 30
0.0
 11
517.5709507314236
 21
-565.0035963776224
 31
0.0
  0
LINE
  5
23D
330
1F
100
AcDbEntity
  8
C-E_見え係り
  6
Continuous
 62
     6
370
     9
100
AcDbLine
 10
474.0956351381938
 20
-540.6531426682045
 30
0.0
 11
447.3007158950811
 21
-640.6531426682045
 31
0.0
  0
LINE
  5
23E
330
1F
100
AcDbEntity
  8
C-E_見え係り
  6
Continuous
 62
     6
370
     9
100
AcDbLine
 10
460.3500847086214
 20
-640.6531426682045
 30
0.0
 11
453.8254003018512
 21
-616.3026889587866
 31
0.0
  0
LINE
  5
23F
330
1F
100
AcDbEntity
  8
C-E_見え係り
  6
Continuous
 62
     6
370
     9
100
AcDbLine
 10
461.0462663246535
 20
-540.6531426682045
 30
0.0
 11
467.5709507314236
 21
-565.0035963776224
 31
0.0
  0
LINE
  5
240
330
1F
100
AcDbEntity
  8
C-E_見え係り
  6
Continuous
 62
     6
370
     9
100
AcDbLine
 10
424.0956351381938
 20
-540.6531426682045
 30
0.0
 11
397.3007158950811
 21
-640.6531426682045
 31
0.0
  0
LINE
  5
241
330
1F
100
AcDbEntity
  8
C-E_見え係り
  6
Continuous
 62
     6
370
     9
100
AcDbLine
 10
410.3500847086214
 20
-640.6531426682045
 30
0.0
 11
403.8254003018512
 21
-616.3026889587866
 31
0.0
  0
LINE
  5
242
330
1F
100
AcDbEntity
  8
C-E_見え係り
  6
Continuous
 62
     6
370
     9
100
AcDbLine
 10
411.0462663246535
 20
-540.6531426682045
 30
0.0
 11
417.5709507314236
 21
-565.0035963776224
 31
0.0
  0
LINE
  5
243
330
1F
100
AcDbEntity
  8
C-E_見え係り
  6
Continuous
 62
     6
370
     9
100
AcDbLine
 10
374.0956351381938
 20
-540.6531426682045
 30
0.0
 11
347.3007158950811
 21
-640.6531426682045
 31
0.0
  0
LINE
  5
244
330
1F
100
AcDbEntity
  8
C-E_見え係り
  6
Continuous
 62
     6
370
     9
100
AcDbLine
 10
360.3500847086214
 20
-640.6531426682045
 30
0.0
 11
353.8254003018512
 21
-616.3026889587866
 31
0.0
  0
LINE
  5
245
330
1F
100
AcDbEntity
  8
C-E_見え係り
  6
Continuous
 62
     6
370
     9
100
AcDbLine
 10
361.0462663246535
 20
-540.6531426682045
 30
0.0
 11
367.5709507314236
 21
-565.0035963776224
 31
0.0
  0
LINE
  5
246
330
1F
100
AcDbEntity
  8
C-E_見え係り
  6
Continuous
 62
     6
370
     9
100
AcDbLine
 10
574.0956351381938
 20
-540.6531426682045
 30
0.0
 11
547.3007158950811
 21
-640.6531426682045
 31
0.0
  0
LINE
  5
247
330
1F
100
AcDbEntity
  8
C-E_見え係り
  6
Continuous
 62
     6
370
     9
100
AcDbLine
 10
560.3500847086214
 20
-640.6531426682045
 30
0.0
 11
553.8254003018512
 21
-616.3026889587866
 31
0.0
  0
LINE
  5
248
330
1F
100
AcDbEntity
  8
C-E_見え係り
  6
Continuous
 62
     6
370
     9
100
AcDbLine
 10
561.0462663246535
 20
-540.6531426682045
 30
0.0
 11
567.5709507314236
 21
-565.0035963776224
 31
0.0
  0
LINE
  5
249
330
1F
100
AcDbEntity
  8
C-1_躯体
  6
Continuous
 62
     7
370
     9
100
AcDbLine
 10
574.0956351381938
 20
-537.4531426682045
 30
0.0
 11
574.0956351381938
 21
-540.6531426682045
 31
0.0
  0
LINE
  5
24A
330
1F
100
AcDbEntity
  8
C-1_躯体
  6
Continuous
 62
     7
370
     9
100
AcDbLine
 10
536.5956351381938
 20
-537.4531426682045
 30
0.0
 11
536.5956351381938
 21
-540.6531426682045
 31
0.0
  0
LINE
  5
24B
330
1F
100
AcDbEntity
  8
C-1_躯体
  6
Continuous
 62
     7
370
     9
100
AcDbLine
 10
474.0956351381938
 20
-537.4531426682045
 30
0.0
 11
474.0956351381938
 21
-540.6531426682045
 31
0.0
  0
LINE
  5
24C
330
1F
100
AcDbEntity
  8
C-1_躯体
  6
Continuous
 62
     7
370
     9
100
AcDbLine
 10
511.5956351381938
 20
-537.4531426682045
 30
0.0
 11
511.5956351381938
 21
-540.6531426682045
 31
0.0
  0
LINE
  5
24D
330
1F
100
AcDbEntity
  8
C-0_通り芯
  6
JWW_CENTER2
 62
     7
370
     9
100
AcDbLine
 10
524.0954866743006
 20
546.2738528514856
 30
0.0
 11
524.0954866743006
 21
-578.0884668473642
 31
0.0
  0
ARC
  5
24E
330
1F
100
AcDbEntity
  8
C-0_通り芯
  6
Continuous
 62
     4
370
     9
100
AcDbCircle
 10
522.3008971805639
 20
-235.9145153575619
 30
0.0
 40
38.65678554229597
100
AcDbArc
 50
160.1295005406762
 51
199.8704994593237
  0
ARC
  5
24F
330
1F
100
AcDbEntity
  8
C-0_通り芯
  6
Continuous
 62
     4
370
     9
100
AcDbCircle
 10
522.3008971805639
 20
-234.5825699364997
 30
0.0
 40
44.25678554229597
100
AcDbArc
 50
145.2314573660062
 51
214.7685426339939
  0
ARC
  5
250
330
1F
100
AcDbEntity
  8
C-0_通り芯
  6
Continuous
 62
     4
370
     9
100
AcDbCircle
 10
525.8900761680374
 20
-235.9145153575619
 30
0.0
 40
38.65678554229597
100
AcDbArc
 50
340.1307953805581
 51
19.86920461944191
  0
ARC
  5
251
330
1F
100
AcDbEntity
  8
C-0_通り芯
  6
Continuous
 62
     4
370
     9
100
AcDbCircle
 10
525.8900761680374
 20
-234.5825699364997
 30
0.0
 40
44.25678554229597
100
AcDbArc
 50
325.2321314629594
 51
34.76786853704058
  0
LINE
  5
252
330
1F
100
AcDbEntity
  8
C-0_通り芯
  6
Continuous
 62
     4
370
     9
100
AcDbLine
 10
568.6454866743006
 20
-287.4531220482191
 30
0.0
 11
479.5454866743006
 21
-287.4531220482191
 31
0.0
  0
LINE
  5
253
330
1F
100
AcDbEntity
  8
C-0_通り芯
  6
Continuous
 62
     4
370
     9
100
AcDbLine
 10
568.6454866743006
 20
-537.4531426682045
 30
0.0
 11
568.6454866743006
 21
-287.4531220482191
 31
0.0
  0
LINE
  5
254
330
1F
100
AcDbEntity
  8
C-0_通り芯
  6
Continuous
 62
     4
370
     9
100
AcDbLine
 10
479.5454866743006
 20
-537.4531426682045
 30
0.0
 11
479.5454866743006
 21
-287.4531220482191
 31
0.0
  0
LINE
  5
255
330
1F
100
AcDbEntity
  8
C-E_見え係り
  6
Continuous
 62
     6
370
     9
100
AcDbLine
 10
674.0956351381942
 20
-336.5257100343479
 30
0.0
 11
568.6454866743006
 21
-441.9758584982417
 31
0.0
  0
LINE
  5
256
330
1F
100
AcDbEntity
  8
C-E_見え係り
  6
Continuous
 62
     6
370
     9
100
AcDbLine
 10
674.0956351381942
 20
-364.80998128181
 30
0.0
 11
568.6454866743006
 21
-470.2601297457038
 31
0.0
  0
LINE
  5
257
330
1F
100
AcDbEntity
  8
C-E_見え係り
  6
Continuous
 62
     6
370
     9
100
AcDbLine
 10
674.0956351381942
 20
-350.6678456580789
 30
0.0
 11
568.6454866743006
 21
-456.1179941219722
 31
0.0
  0
LINE
  5
258
330
1F
100
AcDbEntity
  8
C-E_見え係り
  6
Continuous
 62
     6
370
     9
100
AcDbLine
 10
479.5454866743006
 20
-332.1946969158507
 30
0.0
 11
374.0956351381938
 21
-437.6445484519576
 31
0.0
  0
LINE
  5
259
330
1F
100
AcDbEntity
  8
C-E_見え係り
  6
Continuous
 62
     6
370
     9
100
AcDbLine
 10
479.5454866743006
 20
-360.4789681633129
 30
0.0
 11
374.0956351381938
 21
-465.9288196994197
 31
0.0
  0
LINE
  5
25A
330
1F
100
AcDbEntity
  8
C-E_見え係り
  6
Continuous
 62
     6
370
     9
100
AcDbLine
 10
479.5454866743006
 20
-346.3368325395818
 30
0.0
 11
374.0956351381938
 21
-451.7866840756886
 31
0.0
  0
LINE
  5
25B
330
1F
100
AcDbEntity
  8
C-3_寸法
  6
JWW_DASHED1
 62
     3
370
     9
100
AcDbLine
 10
485.9456107241314
 20
-287.4531220482191
 30
0.0
 11
485.9456107241314
 21
-537.4531426682045
 31
0.0
  0
LINE
  5
25C
330
1F
100
AcDbEntity
  8
C-3_寸法
  6
JWW_DASHED1
 62
     3
370
     9
100
AcDbLine
 10
562.2456595522565
 20
-287.4531220482191
 30
0.0
 11
562.2456595522565
 21
-537.4531426682045
 31
0.0
  0
LINE
  5
25D
330
1F
100
AcDbEntity
  8
C-0_通り芯
  6
JWW_DASHED1
 62
     4
370
     9
100
AcDbLine
 10
564.4454866743006
 20
-287.4531220482191
 30
0.0
 11
564.4454866743006
 21
-537.4531426682045
 31
0.0
  0
LINE
  5
25E
330
1F
100
AcDbEntity
  8
C-0_通り芯
  6
JWW_DASHED1
 62
     4
370
     9
100
AcDbLine
 10
483.7454866743007
 20
-287.4531220482191
 30
0.0
 11
483.7454866743007
 21
-537.4531426682045
 31
0.0
  0
LINE
  5
25F
330
1F
100
AcDbEntity
  8
C-E_見え係り
  6
Continuous
 62
     6
370
     9
100
AcDbLine
 10
562.2456595522565
 20
-287.4531105010271
 30
0.0
 11
812.2209186135078
 21
-287.4531105010271
 31
0.0
  0
LINE
  5
260
330
1F
100
AcDbEntity
  8
C-E_見え係り
  6
Continuous
 62
     6
370
     9
100
AcDbLine
 10
235.9456107241313
 20
-287.4531105010271
 30
0.0
 11
485.9456107241313
 21
-287.4531105010271
 31
0.0
  0
ARC
  5
261
330
1F
100
AcDbEntity
  8
C-5_建具
  6
Continuous
 62
     7
370
     9
100
AcDbCircle
 10
524.0954866743006
 20
-221.6528314438447
 30
0.0
 40
6.000019795185811
100
AcDbArc
 50
349.8367004394531
 51
190.1632995605469
  0
LINE
  5
262
330
1F
100
AcDbEntity
  8
C-5_建具
  6
Continuous
 62
     7
370
     9
100
AcDbLine
 10
521.5955031702886
 20
-226.4225680688979
 30
0.0
 11
521.5955031702886
 21
-216.8830948187916
 31
0.0
  0
ARC
  5
263
330
1F
100
AcDbEntity
  8
C-5_建具
  6
Continuous
 62
     7
370
     9
100
AcDbCircle
 10
524.0954866743006
 20
-221.6528314438447
 30
0.0
 40
6.000019795185811
100
AcDbArc
 50
234.7026977539062
 51
305.2973022460938
  0
ARC
  5
264
330
1F
100
AcDbEntity
  8
C-5_建具
  6
Continuous
 62
     7
370
     9
100
AcDbCircle
 10
522.5955559574511
 20
-226.4225680688979
 30
0.0
 40
1.000000012887491
100
AcDbArc
 50
180.0
 51
252.5401763916015
  0
ARC
  5
265
330
1F
100
AcDbEntity
  8
C-5_建具
  6
Continuous
 62
     7
370
     9
100
AcDbCircle
 10
525.5954173911506
 20
-226.4225680688979
 30
0.0
 40
1.000000012887491
100
AcDbArc
 50
287.4598236083985
 51
0.0000000000000127
  0
LINE
  5
266
330
1F
100
AcDbEntity
  8
C-5_建具
  6
Continuous
 62
     7
370
     9
100
AcDbLine
 10
526.595470178312
 20
-226.4225680688979
 30
0.0
 11
526.595470178312
 21
-216.8830948187916
 31
0.0
  0
ARC
  5
267
330
1F
100
AcDbEntity
  8
C-5_建具
  6
Continuous
 62
     7
370
     9
100
AcDbCircle
 10
525.5954173911506
 20
-216.8830948187916
 30
0.0
 40
1.000000012887491
100
AcDbArc
 50
0.0
 51
72.54017639160156
  0
ARC
  5
268
330
1F
100
AcDbEntity
  8
C-5_建具
  6
Continuous
 62
     7
370
     9
100
AcDbCircle
 10
522.5955559574511
 20
-216.8830948187916
 30
0.0
 40
1.000000012887491
100
AcDbArc
 50
107.4598236083985
 51
180.0
  0
ARC
  5
269
330
1F
100
AcDbEntity
  8
C-6_間仕切
  6
Continuous
 62
     2
370
     9
100
AcDbCircle
 10
524.0954866743006
 20
-230.1527976270687
 30
0.0
 40
9.500056666296882
100
AcDbArc
 50
105.2573547363281
 51
180.0
  0
ARC
  5
26A
330
1F
100
AcDbEntity
  8
C-6_間仕切
  6
Continuous
 62
     2
370
     9
100
AcDbCircle
 10
524.0954866743006
 20
-230.1527976270687
 30
0.0
 40
5.00011547191723
100
AcDbArc
 50
119.9991455078125
 51
180.0
  0
LINE
  5
26B
330
1F
100
AcDbEntity
  8
C-6_間仕切
  6
Continuous
 62
     2
370
     9
100
AcDbLine
 10
519.0953712023834
 20
-230.1527976270687
 30
0.0
 11
519.0953712023834
 21
-240.6529065005905
 31
0.0
  0
LINE
  5
26C
330
1F
100
AcDbEntity
  8
C-6_間仕切
  6
Continuous
 62
     2
370
     9
100
AcDbLine
 10
514.5954305879407
 20
-230.1527976270687
 30
0.0
 11
514.5954305879407
 21
-240.6529065005905
 31
0.0
  0
ARC
  5
26D
330
1F
100
AcDbEntity
  8
C-6_間仕切
  6
Continuous
 62
     2
370
     9
100
AcDbCircle
 10
524.0954866743006
 20
-230.1527976270687
 30
0.0
 40
5.00011547191723
100
AcDbArc
 50
0.0
 51
60.00085449218751
  0
LINE
  5
26E
330
1F
100
AcDbEntity
  8
C-6_間仕切
  6
Continuous
 62
     2
370
     9
100
AcDbLine
 10
529.0956021462177
 20
-230.1527976270687
 30
0.0
 11
529.0956021462177
 21
-240.6529065005905
 31
0.0
  0
ARC
  5
26F
330
1F
100
AcDbEntity
  8
C-6_間仕切
  6
Continuous
 62
     2
370
     9
100
AcDbCircle
 10
524.0954866743006
 20
-230.1527976270687
 30
0.0
 40
9.500056666296882
100
AcDbArc
 50
0.0
 51
74.74270629882814
  0
LINE
  5
270
330
1F
100
AcDbEntity
  8
C-6_間仕切
  6
Continuous
 62
     2
370
     9
100
AcDbLine
 10
536.0955262646725
 20
-240.6529065005905
 30
0.0
 11
536.0955262646725
 21
-264.1528108238593
 31
0.0
  0
LINE
  5
271
330
1F
100
AcDbEntity
  8
C-6_間仕切
  6
Continuous
 62
     2
370
     9
100
AcDbLine
 10
533.5955427606605
 20
-230.1527976270687
 30
0.0
 11
533.5955427606605
 21
-240.6529065005905
 31
0.0
  0
LINE
  5
272
330
1F
100
AcDbEntity
  8
C-6_間仕切
  6
Continuous
 62
     2
370
     9
100
AcDbLine
 10
512.0954470839287
 20
-240.6529065005905
 30
0.0
 11
536.0955262646725
 21
-240.6529065005905
 31
0.0
  0
LINE
  5
273
330
1F
100
AcDbEntity
  8
C-6_間仕切
  6
Continuous
 62
     2
370
     9
100
AcDbLine
 10
512.0954470839287
 20
-240.6529065005905
 30
0.0
 11
512.0954470839287
 21
-264.1528108238593
 31
0.0
  0
LINE
  5
274
330
1F
100
AcDbEntity
  8
C-6_間仕切
  6
Continuous
 62
     2
370
     9
100
AcDbLine
 10
512.0954470839287
 20
-264.1528108238593
 30
0.0
 11
536.0955262646725
 21
-264.1528108238593
 31
0.0
  0
ARC
  5
275
330
1F
100
AcDbEntity
  8
C-0_通り芯
  6
Continuous
 62
     4
370
     9
100
AcDbCircle
 10
524.0956351381943
 20
-220.8123773422822
 30
0.0
 40
6.999924118454395
100
AcDbArc
 50
359.9993896484376
 51
180.0006103515626
  0
LINE
  5
276
330
1F
100
AcDbEntity
  8
C-0_通り芯
  6
Continuous
 62
     4
370
     9
100
AcDbLine
 10
531.0955592566485
 20
-220.8124515742291
 30
0.0
 11
531.0955592566485
 21
-222.7248149874468
 31
0.0
  0
ARC
  5
277
330
1F
100
AcDbEntity
  8
C-0_通り芯
  6
Continuous
 62
     4
370
     9
100
AcDbCircle
 10
524.0956351381943
 20
-222.7248892193937
 30
0.0
 40
6.999924118454395
100
AcDbArc
 50
229.5813903808594
 51
310.4159698486328
  0
ARC
  5
278
330
1F
100
AcDbEntity
  8
C-0_通り芯
  6
Continuous
 62
     4
370
     9
100
AcDbCircle
 10
524.0956351381943
 20
-222.7248892193937
 30
0.0
 40
6.999924118454395
100
AcDbArc
 50
352.3052215576173
 51
0.0006103515625301
  0
LINE
  5
279
330
1F
100
AcDbEntity
  8
C-0_通り芯
  6
Continuous
 62
     4
370
     9
100
AcDbLine
 10
517.0957110197396
 20
-220.8124515742291
 30
0.0
 11
517.0957110197396
 21
-222.7248149874468
 31
0.0
  0
ARC
  5
27A
330
1F
100
AcDbEntity
  8
C-0_通り芯
  6
Continuous
 62
     4
370
     9
100
AcDbCircle
 10
524.0956351381943
 20
-222.7248892193937
 30
0.0
 40
6.999924118454395
100
AcDbArc
 50
179.9993896484375
 51
187.6925048828125
  0
LINE
  5
27B
330
1F
100
AcDbEntity
  8
C-5_建具
  6
Continuous
 62
     7
370
     9
100
AcDbLine
 10
-462.4264414838915
 20
512.546976102911
 30
0.0
 11
-316.9863486511493
 21
764.4645234212619
 31
0.0
  0
LINE
  5
27C
330
1F
100
AcDbEntity
  8
C-5_建具
  6
Continuous
 62
     7
370
     9
100
AcDbLine
 10
-462.4264414838915
 20
512.546976102911
 30
0.0
 11
-447.2076756688706
 21
532.3810167166529
 31
0.0
  0
LINE
  5
27D
330
1F
100
AcDbEntity
  8
C-5_建具
  6
Continuous
 62
     7
370
     9
100
AcDbLine
 10
-462.4264414838915
 20
512.546976102911
 30
0.0
 11
-452.85966999109
 21
535.6440946072725
 31
0.0
  0
TEXT
  5
27E
330
1F
100
AcDbEntity
  8
C-5_建具
  6
Continuous
 62
     7
370
     9
100
AcDbText
 10
-308.6147260020855
 20
784.0993249024629
 30
0.0
 40
22.85999999999978
  1
本体：φ76.3×2.8
 41
1.15686274509805
  7
ＭＳ ゴシック
100
AcDbText
  0
TEXT
  5
27F
330
1F
100
AcDbEntity
  8
C-5_建具
  6
Continuous
 62
     7
370
     9
100
AcDbText
 10
-308.6147260020858
 20
724.3560046260388
 30
0.0
 40
22.86000000000006
  1
STK　溶融亜鉛めっき＋焼付塗装
 41
1.155172413793102
  7
ＭＳ ゴシック
100
AcDbText
  0
TEXT
  5
280
330
1F
100
AcDbEntity
  8
C-5_建具
  6
Continuous
 62
     7
370
     9
100
AcDbText
 10
148.4610090265534
 20
-806.9572987785397
 30
0.0
 40
22.86000000000006
  1
埋設管本体：SGP　溶融亜鉛めっき
 41
1.155913978494618
  7
ＭＳ ゴシック
100
AcDbText
  0
TEXT
  5
281
330
1F
100
AcDbEntity
  8
C-5_建具
  6
Continuous
 62
     7
370
     9
100
AcDbText
 10
148.4610090265534
 20
-768.2081211933149
 30
0.0
 40
22.86000000000006
  1
蓋：FCD500　溶融亜鉛めっき
 41
1.153846153846149
  7
ＭＳ ゴシック
100
AcDbText
  0
LINE
  5
282
330
1F
100
AcDbEntity
  8
C-5_建具
  6
Continuous
 62
     7
370
     9
100
AcDbLine
 10
-316.9863486511493
 20
764.4645234212619
 30
0.0
 11
193.8845462389457
 21
764.4729071156115
 31
0.0
  0
LINE
  5
283
330
1F
100
AcDbEntity
  8
C-5_建具
  6
Continuous
 62
     7
370
     9
100
AcDbLine
 10
685.9610090265522
 20
-731.3489305244541
 30
0.0
 11
144.8964422263182
 21
-731.3489305244541
 31
0.0
  0
TEXT
  5
284
330
1F
100
AcDbEntity
  8
C-5_建具
  6
Continuous
 62
     2
370
     9
100
AcDbText
 10
61.29798594214643
 20
-276.5885629237808
 30
0.0
 40
30.47999999999989
  1
▽G.L.
 41
1.104166666666671
  7
ＭＳ ゴシック
100
AcDbText
  0
TEXT
  5
285
330
1F
100
AcDbEntity
  8
C-5_建具
  6
Continuous
 62
     2
370
     9
100
AcDbText
 10
678.0922052681769
 20
-276.5885629237808
 30
0.0
 40
30.47999999999989
  1
▽G.L.
 41
1.104166666666671
  7
ＭＳ ゴシック
100
AcDbText
  0
TEXT
  5
286
330
1F
100
AcDbEntity
  8
B-4_文字
  6
Continuous
 62
     2
370
     9
100
AcDbText
 10
1540.835054273663
 20
-277.6811576989343
 30
0.0
 40
30.48000000000005
  1
▽G.L.
 41
1.104166666666665
  7
ＭＳ ゴシック
100
AcDbText
  0
TEXT
  5
287
330
1F
100
AcDbEntity
  8
F-5ﾚｲﾔ
  6
Continuous
 62
     2
370
     9
100
AcDbText
 10
1192.638704563886
 20
-1052.200916680239
 30
0.0
 40
30.48
  1
本体色は、黄または白です。
 41
1.115384615384615
  7
ＭＳ ゴシック
100
AcDbText
  0
TEXT
  5
288
330
1F
100
AcDbEntity
  8
F-5ﾚｲﾔ
  6
Continuous
 62
     2
370
     9
100
AcDbText
 10
1192.638704563886
 20
-1111.671894792166
 30
0.0
 40
30.48
  1
ご注文の際にご指示ください。
 41
1.116071428571428
  7
ＭＳ ゴシック
100
AcDbText
  0
LINE
  5
289
330
1F
100
AcDbEntity
  8
B-5_建具
  6
Continuous
 62
     7
370
     9
100
AcDbLine
 10
971.9310221079992
 20
-531.6954212340106
 30
0.0
 11
1587.931022107999
 21
-531.6954212340106
 31
0.0
  0
LINE
  5
28A
330
1F
100
AcDbEntity
  8
B-5_建具
  6
Continuous
 62
     7
370
     9
100
AcDbLine
 10
971.9310221079992
 20
-601.6954212340106
 30
0.0
 11
1587.931022107999
 21
-601.6954212340106
 31
0.0
  0
LINE
  5
28B
330
1F
100
AcDbEntity
  8
B-5_建具
  6
Continuous
 62
     7
370
     9
100
AcDbLine
 10
971.9310221079992
 20
-531.6954212340106
 30
0.0
 11
971.9310221079992
 21
-601.6954212340106
 31
0.0
  0
LINE
  5
28C
330
1F
100
AcDbEntity
  8
B-5_建具
  6
Continuous
 62
     7
370
     9
100
AcDbLine
 10
1587.931022107999
 20
-531.6954212340106
 30
0.0
 11
1587.931022107999
 21
-601.6954212340106
 31
0.0
  0
TEXT
  5
28D
330
1F
100
AcDbEntity
  8
B-5_建具
  6
Continuous
 62
     2
370
     9
100
AcDbText
 10
989.9310221079993
 20
-581.0554212340109
 30
0.0
 40
30.48
  1
南京錠部詳細図　Ｓ＝１：３
 41
1.115384615384615
  7
ＭＳ ゴシック
100
AcDbText
  0
LINE
  5
28E
330
1F
100
AcDbEntity
  8
C-2_仕上
  6
Continuous
 62
     3
370
     9
100
AcDbLine
 10
-1478.273326116345
 20
274.3969723088335
 30
0.0
 11
-1478.273326116345
 21
-287.4531269970151
 31
0.0
  0
LINE
  5
28F
330
1F
100
AcDbEntity
  8
C-2_仕上
  6
Continuous
 62
     3
370
     9
100
AcDbLine
 10
-1554.57337494447
 20
274.3969723088335
 30
0.0
 11
-1554.57337494447
 21
-287.4531269970151
 31
0.0
  0
LINE
  5
290
330
1F
100
AcDbEntity
  8
C-2_仕上
  6
Continuous
 62
     3
370
     9
100
AcDbLine
 10
-54.57330071252287
 20
274.3969723088335
 30
0.0
 11
-54.57330071252287
 21
-287.4531269970151
 31
0.0
  0
LINE
  5
291
330
1F
100
AcDbEntity
  8
C-2_仕上
  6
Continuous
 62
     3
370
     9
100
AcDbLine
 10
-130.8733495406479
 20
274.3969723088335
 30
0.0
 11
-130.8733495406479
 21
-287.4531269970151
 31
0.0
  0
LINE
  5
292
330
1F
100
AcDbEntity
  8
C-0_通り芯
  6
JWW_CENTER2
 62
     7
370
     9
100
AcDbLine
 10
-1516.423350530407
 20
274.3969723088335
 30
0.0
 11
-1516.423350530407
 21
-578.0884668473642
 31
0.0
  0
LINE
  5
293
330
1F
100
AcDbEntity
  8
C-0_通り芯
  6
JWW_CENTER2
 62
     7
370
     9
100
AcDbLine
 10
-92.72332512658537
 20
274.3969723088335
 30
0.0
 11
-92.72332512658537
 21
-578.0884668473642
 31
0.0
  0
TEXT
  5
294
330
1F
100
AcDbEntity
  8
F-5ﾚｲﾔ
  6
Continuous
 62
     2
370
     0
100
AcDbText
 10
1387.344234791176
 20
-993.3742512140833
 30
0.0
 40
30.48000000000003
  1
支柱質量：18.5kg／本
 41
1.1125
  7
ＭＳ ゴシック
100
AcDbText
  0
TEXT
  5
295
330
1F
100
AcDbEntity
  8
F-Fﾚｲﾔ
  6
Continuous
 62
     2
370
     9
100
AcDbText
 10
-920.5179398148132
 20
-1364.848781415343
 30
0.0
 40
30.48
  1
車止め　スチール製　アーチ型　脱着式　鋳鉄製蓋　鍵付　ＹＢ７Ｈ１５－ＨＤＬ
 41
0.8749999999999999
  7
ＭＳ ゴシック
100
AcDbText
  0
LINE
  5
296
330
1F
100
AcDbEntity
  8
C-4_文字
  6
Continuous
 62
     7
370
     9
100
AcDbLine
 10
-1478.273326116345
 20
99.77484764504118
 30
0.0
 11
-1453.487204581999
 21
103.0380024505425
 31
0.0
  0
LINE
  5
297
330
1F
100
AcDbEntity
  8
C-4_文字
  6
Continuous
 62
     7
370
     9
100
AcDbLine
 10
-1478.273326116345
 20
99.77484764504118
 30
0.0
 11
-1554.57337494447
 21
99.77484764504118
 31
0.0
  0
LINE
  5
298
330
1F
100
AcDbEntity
  8
C-4_文字
  6
Continuous
 62
     7
370
     9
100
AcDbLine
 10
-1478.273326116345
 20
99.77484764504118
 30
0.0
 11
-1453.487204581999
 21
96.51169283953982
 31
0.0
  0
LINE
  5
299
330
1F
100
AcDbEntity
  8
C-4_文字
  6
Continuous
 62
     7
370
     9
100
AcDbLine
 10
-1554.57337494447
 20
99.77484764504118
 30
0.0
 11
-1579.359496478815
 21
103.0380024505425
 31
0.0
  0
LINE
  5
29A
330
1F
100
AcDbEntity
  8
C-4_文字
  6
Continuous
 62
     7
370
     9
100
AcDbLine
 10
-1554.57337494447
 20
99.77484764504118
 30
0.0
 11
-1579.359496478815
 21
96.51169283953982
 31
0.0
  0
LINE
  5
29B
330
1F
100
AcDbEntity
  8
C-4_文字
  6
Continuous
 62
     7
370
     9
100
AcDbLine
 10
-1554.57337494447
 20
99.77484764504118
 30
0.0
 11
-1588.265730096759
 21
99.77484764504118
 31
0.0
  0
TEXT
  5
29C
330
1F
100
AcDbEntity
  8
C-4_文字
  6
Continuous
 62
     2
370
   211
100
AcDbText
 10
-1440.238141283457
 20
109.8703465112545
 30
0.0
 40
30.48
  1
φ76.3
 41
1.104166666666667
  7
ＭＳ ゴシック
100
AcDbText
  0
LINE
  5
29D
330
1F
100
AcDbEntity
  8
C-4_文字
  6
Continuous
 62
     7
370
     9
100
AcDbLine
 10
-1478.273326116345
 20
99.77484764504118
 30
0.0
 11
-1298.991920572951
 21
99.77484764504118
 31
0.0
  0
ENDSEC
  0
SECTION
  2
OBJECTS
  0
DICTIONARY
  5
C
330
0
100
AcDbDictionary
281
     1
  3
ACAD_DETAILVIEWSTYLE
350
2E3
  3
ACAD_GROUP
350
D
  3
ACAD_LAYOUT
350
1A
  3
ACAD_MATERIAL
350
43
  3
ACAD_MLEADERSTYLE
350
6B
  3
ACAD_MLINESTYLE
350
17
  3
ACAD_PLOTSETTINGS
350
19
  3
ACAD_PLOTSTYLENAME
350
E
  3
ACAD_SCALELIST
350
47
  3
ACAD_SECTIONVIEWSTYLE
350
2E4
  3
ACAD_TABLESTYLE
350
69
  3
ACAD_VISUALSTYLE
350
2A
  3
ACDB_RECOMPOSE_DATA
350
2E0
  3
AcDbVariableDictionary
350
2A0
  0
DICTIONARY
  5
29E
330
8
100
AcDbDictionary
280
     1
281
     1
  3
ACAD_XREC_ROUNDTRIP
360
29F
  0
DICTIONARY
  5
2E3
102
{ACAD_REACTORS
330
C
102
}
330
C
100
AcDbDictionary
281
     1
  0
DICTIONARY
  5
D
102
{ACAD_REACTORS
330
C
102
}
330
C
100
AcDbDictionary
281
     1
  0
DICTIONARY
  5
1A
102
{ACAD_REACTORS
330
C
102
}
330
C
100
AcDbDictionary
281
     1
  3
Layout1
350
1E
  3
Layout2
350
26
  3
Model
350
22
  0
DICTIONARY
  5
43
102
{ACAD_REACTORS
330
C
102
}
330
C
100
AcDbDictionary
281
     1
  3
ByBlock
350
45
  3
ByLayer
350
44
  3
Global
350
46
  0
DICTIONARY
  5
6B
102
{ACAD_REACTORS
330
C
102
}
330
C
100
AcDbDictionary
281
     1
  3
Standard
350
6C
  0
DICTIONARY
  5
17
102
{ACAD_REACTORS
330
C
102
}
330
C
100
AcDbDictionary
281
     1
  3
Standard
350
18
  0
DICTIONARY
  5
19
102
{ACAD_REACTORS
330
C
102
}
330
C
100
AcDbDictionary
281
     1
  0
ACDBDICTIONARYWDFLT
  5
E
102
{ACAD_REACTORS
330
C
102
}
330
C
100
AcDbDictionary
281
     1
  3
Normal
350
F
100
AcDbDictionaryWithDefault
340
F
  0
DICTIONARY
  5
47
102
{ACAD_REACTORS
330
C
102
}
330
C
100
AcDbDictionary
281
     1
  3
A0
350
48
  3
A1
350
49
  3
A2
350
4A
  3
A3
350
4B
  3
A4
350
4C
  3
A5
350
4D
  3
A6
350
4E
  3
A7
350
4F
  3
A8
350
50
  3
A9
350
51
  3
B0
350
52
  3
B1
350
53
  3
B2
350
54
  3
B3
350
55
  3
B4
350
56
  3
B5
350
57
  3
B6
350
58
  3
B7
350
59
  3
B8
350
5A
  3
B9
350
5B
  3
C0
350
5C
  3
C1
350
5D
  3
C2
350
5E
  3
C3
350
5F
  3
C4
350
60
  3
C5
350
61
  3
C6
350
62
  3
C7
350
63
  3
C8
350
64
  3
C9
350
65
  3
D0
350
66
  3
D1
350
67
  3
D2
350
68
  0
DICTIONARY
  5
2E4
102
{ACAD_REACTORS
330
C
102
}
330
C
100
AcDbDictionary
281
     1
  0
DICTIONARY
  5
69
102
{ACAD_REACTORS
330
C
102
}
330
C
100
AcDbDictionary
281
     1
  3
Standard
350
6A
  0
DICTIONARY
  5
2A
102
{ACAD_REACTORS
330
C
102
}
330
C
100
AcDbDictionary
281
     1
  3
2dWireframe
350
2F
  3
Basic
350
32
  3
Brighten
350
36
  3
ColorChange
350
3A
  3
Conceptual
350
34
  3
Dim
350
35
  3
EdgeColorOff
350
3D
  3
Facepattern
350
39
  3
Flat
350
2B
  3
FlatWithEdges
350
2C
  3
Gouraud
350
2D
  3
GouraudWithEdges
350
2E
  3
Hidden
350
31
  3
JitterOff
350
3B
  3
Linepattern
350
38
  3
OverhangOff
350
3C
  3
Realistic
350
33
  3
Shaded
350
42
  3
Shaded with edges
350
41
  3
Shades of Gray
350
3E
  3
Sketchy
350
3F
  3
Thicken
350
37
  3
Wireframe
350
30
  3
X-Ray
350
40
  0
XRECORD
  5
2E0
102
{ACAD_REACTORS
330
C
102
}
330
C
100
AcDbXrecord
280
     1
 90
        1
330
6A
  0
DICTIONARY
  5
2A0
102
{ACAD_REACTORS
330
C
102
}
330
C
100
AcDbDictionary
281
     1
  3
CANNOSCALE
350
2A1
  3
CENTEREXE
350
2E5
  3
CENTERLTYPEFILE
350
2E6
  3
CMLEADERSTYLE
350
2E2
  3
CTABLESTYLE
350
2E1
  3
MSLTSCALE
350
2A2
  3
XCLIPFRAME
350
2A3
  0
XRECORD
  5
29F
102
{ACAD_REACTORS
330
29E
102
}
330
29E
100
AcDbXrecord
280
     1
102
VTR_0.000_0.000_1.000_1.000_VISUALSTYLE
340
2F
102
VTR_0.000_0.000_1.000_1.000_GRIDDISPLAY
 70
     3
102
VTR_0.000_0.000_1.000_1.000_GRIDMAJOR
 70
     5
102
VTR_0.000_0.000_1.000_1.000_DEFAULTLIGHTING
280
     1
102
VTR_0.000_0.000_1.000_1.000_DEFAULTLIGHTINGTYPE
 70
     1
102
VTR_0.000_0.000_1.000_1.000_BRIGHTNESS
141
0.0
102
VTR_0.000_0.000_1.000_1.000_CONTRAST
142
0.0
  0
LAYOUT
  5
1E
102
{ACAD_REACTORS
330
1A
102
}
330
1A
100
AcDbPlotSettings
  1

  2
none_device
  4

  6

 40
0.0
 41
0.0
 42
0.0
 43
0.0
 44
0.0
 45
0.0
 46
0.0
 47
0.0
 48
0.0
 49
0.0
140
0.0
141
0.0
142
1.0
143
1.0
 70
   688
 72
     1
 73
     0
 74
     5
  7

 75
    16
 76
     0
 77
     5
 78
   300
147
1.0
148
0.0
149
0.0
100
AcDbLayout
  1
Layout1
 70
     1
 71
     1
 10
0.0
 20
0.0
 11
420.0
 21
297.0
 12
0.0
 22
0.0
 32
0.0
 14
1.000000000000000E+20
 24
1.000000000000000E+20
 34
1.000000000000000E+20
 15
-1.000000000000000E+20
 25
-1.000000000000000E+20
 35
-1.000000000000000E+20
146
0.0
 13
0.0
 23
0.0
 33
0.0
 16
1.0
 26
0.0
 36
0.0
 17
0.0
 27
1.0
 37
0.0
 76
     0
330
1B
  0
LAYOUT
  5
26
102
{ACAD_REACTORS
330
1A
102
}
330
1A
100
AcDbPlotSettings
  1

  2
none_device
  4

  6

 40
0.0
 41
0.0
 42
0.0
 43
0.0
 44
0.0
 45
0.0
 46
0.0
 47
0.0
 48
0.0
 49
0.0
140
0.0
141
0.0
142
1.0
143
1.0
 70
   688
 72
     1
 73
     0
 74
     5
  7

 75
    16
 76
     0
 77
     5
 78
   300
147
1.0
148
0.0
149
0.0
100
AcDbLayout
  1
Layout2
 70
     1
 71
     2
 10
0.0
 20
0.0
 11
0.0
 21
0.0
 12
0.0
 22
0.0
 32
0.0
 14
0.0
 24
0.0
 34
0.0
 15
0.0
 25
0.0
 35
0.0
146
0.0
 13
0.0
 23
0.0
 33
0.0
 16
1.0
 26
0.0
 36
0.0
 17
0.0
 27
1.0
 37
0.0
 76
     0
330
23
  0
LAYOUT
  5
22
102
{ACAD_REACTORS
330
1A
102
}
330
1A
100
AcDbPlotSettings
  1

  2
none_device
  4
Letter_(8.50_x_11.00_Inches)
  6

 40
6.35
 41
6.35
 42
6.35000508
 43
6.35000508
 44
215.9
 45
279.4
 46
0.0
 47
0.0
 48
0.0
 49
0.0
140
0.0
141
0.0
142
1.0
143
1.0
 70
  1712
 72
     1
 73
     0
 74
     0
  7

 75
     0
 76
     0
 77
     5
 78
   300
147
1.0
148
0.0
149
0.0
100
AcDbLayout
  1
Model
 70
     1
 71
     0
 10
-2100.0
 20
-1485.0
 11
2100.0
 21
1485.0
 12
0.0
 22
0.0
 32
0.0
 14
-2100.0
 24
-1485.0
 34
0.0
 15
2100.0
 25
1485.0
 35
0.0
146
0.0
 13
0.0
 23
0.0
 33
0.0
 16
1.0
 26
0.0
 36
0.0
 17
0.0
 27
1.0
 37
0.0
 76
     0
330
1F
331
29
  0
MATERIAL
  5
45
102
{ACAD_REACTORS
330
43
102
}
102
{ACAD_XDICTIONARY
360
2D6
102
}
330
43
100
AcDbMaterial
  1
ByBlock
  0
MATERIAL
  5
44
102
{ACAD_REACTORS
330
43
102
}
102
{ACAD_XDICTIONARY
360
2D4
102
}
330
43
100
AcDbMaterial
  1
ByLayer
  0
MATERIAL
  5
46
102
{ACAD_REACTORS
330
43
102
}
102
{ACAD_XDICTIONARY
360
2D8
102
}
330
43
100
AcDbMaterial
  1
Global
  0
MLEADERSTYLE
  5
6C
102
{ACAD_REACTORS
330
6B
102
}
102
{ACAD_XDICTIONARY
360
2DE
102
}
330
6B
100
AcDbMLeaderStyle
170
     2
171
     1
172
     0
 90
        2
 40
0.0
 41
0.0
173
     1
 91
-1056964608
340
14
 92
       -2
290
     1
 42
2.0
291
     1
 43
8.0
  3
Standard
341
0
 44
4.0
300

342
11
174
     1
178
     6
175
     1
176
     0
 93
-1056964608
 45
4.0
292
     0
297
     0
 46
4.0
343
0
 94
-1056964608
 47
1.0
 49
1.0
140
1.0
293
     1
141
0.0
294
     1
177
     0
142
1.0
295
     0
296
     0
143
3.75
1001
ACAD_MLEADERVER
1070
     2
  0
MLINESTYLE
  5
18
102
{ACAD_REACTORS
330
17
102
}
330
17
100
AcDbMlineStyle
  2
Standard
 70
     0
  3

 62
   256
 51
90.0
 52
90.0
 71
     2
 49
0.5
 62
   256
  6
BYLAYER
 49
-0.5
 62
   256
  6
BYLAYER
  0
ACDBPLACEHOLDER
  5
F
102
{ACAD_REACTORS
330
E
102
}
330
E
  0
SCALE
  5
48
102
{ACAD_REACTORS
330
47
102
}
330
47
100
AcDbScale
 70
     0
300
1:1
140
1.0
141
1.0
290
     1
  0
SCALE
  5
49
102
{ACAD_REACTORS
330
47
102
}
330
47
100
AcDbScale
 70
     0
300
1:2
140
1.0
141
2.0
290
     0
  0
SCALE
  5
4A
102
{ACAD_REACTORS
330
47
102
}
330
47
100
AcDbScale
 70
     0
300
1:4
140
1.0
141
4.0
290
     0
  0
SCALE
  5
4B
102
{ACAD_REACTORS
330
47
102
}
330
47
100
AcDbScale
 70
     0
300
1:5
140
1.0
141
5.0
290
     0
  0
SCALE
  5
4C
102
{ACAD_REACTORS
330
47
102
}
330
47
100
AcDbScale
 70
     0
300
1:8
140
1.0
141
8.0
290
     0
  0
SCALE
  5
4D
102
{ACAD_REACTORS
330
47
102
}
330
47
100
AcDbScale
 70
     0
300
1:10
140
1.0
141
10.0
290
     0
  0
SCALE
  5
4E
102
{ACAD_REACTORS
330
47
102
}
330
47
100
AcDbScale
 70
     0
300
1:16
140
1.0
141
16.0
290
     0
  0
SCALE
  5
4F
102
{ACAD_REACTORS
330
47
102
}
330
47
100
AcDbScale
 70
     0
300
1:20
140
1.0
141
20.0
290
     0
  0
SCALE
  5
50
102
{ACAD_REACTORS
330
47
102
}
330
47
100
AcDbScale
 70
     0
300
1:30
140
1.0
141
30.0
290
     0
  0
SCALE
  5
51
102
{ACAD_REACTORS
330
47
102
}
330
47
100
AcDbScale
 70
     0
300
1:40
140
1.0
141
40.0
290
     0
  0
SCALE
  5
52
102
{ACAD_REACTORS
330
47
102
}
330
47
100
AcDbScale
 70
     0
300
1:50
140
1.0
141
50.0
290
     0
  0
SCALE
  5
53
102
{ACAD_REACTORS
330
47
102
}
330
47
100
AcDbScale
 70
     0
300
1:100
140
1.0
141
100.0
290
     0
  0
SCALE
  5
54
102
{ACAD_REACTORS
330
47
102
}
330
47
100
AcDbScale
 70
     0
300
2:1
140
2.0
141
1.0
290
     0
  0
SCALE
  5
55
102
{ACAD_REACTORS
330
47
102
}
330
47
100
AcDbScale
 70
     0
300
4:1
140
4.0
141
1.0
290
     0
  0
SCALE
  5
56
102
{ACAD_REACTORS
330
47
102
}
330
47
100
AcDbScale
 70
     0
300
8:1
140
8.0
141
1.0
290
     0
  0
SCALE
  5
57
102
{ACAD_REACTORS
330
47
102
}
330
47
100
AcDbScale
 70
     0
300
10:1
140
10.0
141
1.0
290
     0
  0
SCALE
  5
58
102
{ACAD_REACTORS
330
47
102
}
330
47
100
AcDbScale
 70
     0
300
100:1
140
100.0
141
1.0
290
     0
  0
SCALE
  5
59
102
{ACAD_REACTORS
330
47
102
}
330
47
100
AcDbScale
 70
     0
300
1/128" = 1'-0"
140
0.0078125
141
12.0
290
     0
  0
SCALE
  5
5A
102
{ACAD_REACTORS
330
47
102
}
330
47
100
AcDbScale
 70
     0
300
1/64" = 1'-0"
140
0.015625
141
12.0
290
     0
  0
SCALE
  5
5B
102
{ACAD_REACTORS
330
47
102
}
330
47
100
AcDbScale
 70
     0
300
1/32" = 1'-0"
140
0.03125
141
12.0
290
     0
  0
SCALE
  5
5C
102
{ACAD_REACTORS
330
47
102
}
330
47
100
AcDbScale
 70
     0
300
1/16" = 1'-0"
140
0.0625
141
12.0
290
     0
  0
SCALE
  5
5D
102
{ACAD_REACTORS
330
47
102
}
330
47
100
AcDbScale
 70
     0
300
3/32" = 1'-0"
140
0.09375
141
12.0
290
     0
  0
SCALE
  5
5E
102
{ACAD_REACTORS
330
47
102
}
330
47
100
AcDbScale
 70
     0
300
1/8" = 1'-0"
140
0.125
141
12.0
290
     0
  0
SCALE
  5
5F
102
{ACAD_REACTORS
330
47
102
}
330
47
100
AcDbScale
 70
     0
300
3/16" = 1'-0"
140
0.1875
141
12.0
290
     0
  0
SCALE
  5
60
102
{ACAD_REACTORS
330
47
102
}
330
47
100
AcDbScale
 70
     0
300
1/4" = 1'-0"
140
0.25
141
12.0
290
     0
  0
SCALE
  5
61
102
{ACAD_REACTORS
330
47
102
}
330
47
100
AcDbScale
 70
     0
300
3/8" = 1'-0"
140
0.375
141
12.0
290
     0
  0
SCALE
  5
62
102
{ACAD_REACTORS
330
47
102
}
330
47
100
AcDbScale
 70
     0
300
1/2" = 1'-0"
140
0.5
141
12.0
290
     0
  0
SCALE
  5
63
102
{ACAD_REACTORS
330
47
102
}
330
47
100
AcDbScale
 70
     0
300
3/4" = 1'-0"
140
0.75
141
12.0
290
     0
  0
SCALE
  5
64
102
{ACAD_REACTORS
330
47
102
}
330
47
100
AcDbScale
 70
     0
300
1" = 1'-0"
140
1.0
141
12.0
290
     0
  0
SCALE
  5
65
102
{ACAD_REACTORS
330
47
102
}
330
47
100
AcDbScale
 70
     0
300
1-1/2" = 1'-0"
140
1.5
141
12.0
290
     0
  0
SCALE
  5
66
102
{ACAD_REACTORS
330
47
102
}
330
47
100
AcDbScale
 70
     0
300
3" = 1'-0"
140
3.0
141
12.0
290
     0
  0
SCALE
  5
67
102
{ACAD_REACTORS
330
47
102
}
330
47
100
AcDbScale
 70
     0
300
6" = 1'-0"
140
6.0
141
12.0
290
     0
  0
SCALE
  5
68
102
{ACAD_REACTORS
330
47
102
}
330
47
100
AcDbScale
 70
     0
300
1'-0" = 1'-0"
140
12.0
141
12.0
290
     0
  0
TABLESTYLE
  5
6A
102
{ACAD_REACTORS
330
69
102
}
102
{ACAD_XDICTIONARY
360
2DA
102
}
330
69
100
AcDbTableStyle
  3
Standard
 70
     0
 71
     0
 40
0.06
 41
0.06
280
     0
281
     0
  7
Standard
140
4.5
170
     2
 62
     0
 63
   257
283
     0
274
    -2
284
     1
 64
     0
275
    -2
285
     1
 65
     0
276
    -2
286
     1
 66
     0
277
    -2
287
     1
 67
     0
278
    -2
288
     1
 68
     0
279
    -2
289
     1
 69
     0
  7
Standard
140
6.0
170
     5
 62
     0
 63
   257
283
     0
274
    -2
284
     1
 64
     0
275
    -2
285
     1
 65
     0
276
    -2
286
     1
 66
     0
277
    -2
287
     1
 67
     0
278
    -2
288
     1
 68
     0
279
    -2
289
     1
 69
     0
  7
Standard
140
4.5
170
     5
 62
     0
 63
   257
283
     0
274
    -2
284
     1
 64
     0
275
    -2
285
     1
 65
     0
276
    -2
286
     1
 66
     0
277
    -2
287
     1
 67
     0
278
    -2
288
     1
 68
     0
279
    -2
289
     1
 69
     0
  0
VISUALSTYLE
  5
2F
102
{ACAD_REACTORS
330
2A
102
}
102
{ACAD_XDICTIONARY
360
2AC
102
}
330
2A
100
AcDbVisualStyle
  2
2dWireframe
 70
     4
 71
     0
 72
     2
 73
     0
 90
        0
 40
0.6
 41
30.0
 62
     5
 63
     7
421
 16777215
 74
     1
 91
        4
 64
     7
 65
   257
 75
     1
175
     1
 42
1.0
 92
        0
 66
   257
 43
1.0
 76
     1
 77
     6
 78
     2
 67
     7
 79
     5
170
     0
171
     0
290
     0
174
     0
 93
        1
 44
0.0
173
     0
291
     0
 45
0.0
1001
ACAD
1000
AcDbSavedByObjectVersion
1070
     0
  0
VISUALSTYLE
  5
32
102
{ACAD_REACTORS
330
2A
102
}
102
{ACAD_XDICTIONARY
360
2B2
102
}
330
2A
100
AcDbVisualStyle
  2
Basic
 70
     7
 71
     1
 72
     0
 73
     1
 90
        0
 40
0.6
 41
30.0
 62
     5
 63
     7
421
 16777215
 74
     0
 91
        4
 64
     7
 65
   257
 75
     1
175
     1
 42
1.0
 92
        8
 66
     7
 43
1.0
 76
     1
 77
     6
 78
     2
 67
     7
 79
     5
170
     0
171
     0
290
     0
174
     0
 93
        1
 44
0.0
173
     0
291
     1
 45
0.0
1001
ACAD
1000
AcDbSavedByObjectVersion
1070
     0
  0
VISUALSTYLE
  5
36
102
{ACAD_REACTORS
330
2A
102
}
102
{ACAD_XDICTIONARY
360
2BA
102
}
330
2A
100
AcDbVisualStyle
  2
Brighten
 70
    12
 71
     2
 72
     2
 73
     0
 90
        0
 40
0.6
 41
30.0
 62
     5
 63
     7
421
 16777215
 74
     1
 91
        4
 64
     7
 65
   257
 75
     1
175
     1
 42
1.0
 92
        8
 66
     7
 43
1.0
 76
     1
 77
     6
 78
     2
 67
     7
 79
     5
170
     0
171
     0
290
     0
174
     0
 93
        1
 44
50.0
173
     0
291
     1
 45
0.0
1001
ACAD
1000
AcDbSavedByObjectVersion
1070
     0
  0
VISUALSTYLE
  5
3A
102
{ACAD_REACTORS
330
2A
102
}
102
{ACAD_XDICTIONARY
360
2C2
102
}
330
2A
100
AcDbVisualStyle
  2
ColorChange
 70
    16
 71
     2
 72
     2
 73
     3
 90
        0
 40
0.6
 41
30.0
 62
     5
 63
     8
421
  8421504
 74
     1
 91
        4
 64
     7
 65
   257
 75
     1
175
     1
 42
1.0
 92
        8
 66
     8
424
  8421504
 43
1.0
 76
     1
 77
     6
 78
     2
 67
     7
 79
     5
170
     0
171
     0
290
     0
174
     0
 93
        1
 44
0.0
173
     0
291
     1
 45
0.0
1001
ACAD
1000
AcDbSavedByObjectVersion
1070
     0
  0
VISUALSTYLE
  5
34
102
{ACAD_REACTORS
330
2A
102
}
102
{ACAD_XDICTIONARY
360
2B6
102
}
330
2A
100
AcDbVisualStyle
  2
Conceptual
 70
     9
 71
     3
 72
     2
 73
     0
 90
        0
 40
0.6
 41
30.0
 62
     5
 63
     7
421
 16777215
 74
     2
 91
        2
 64
     7
 65
   257
 75
     1
175
     1
 42
179.0
 92
        8
 66
     7
 43
1.0
 76
     1
 77
     6
 78
     2
 67
     7
 79
     3
170
     0
171
     0
290
     0
174
     0
 93
        1
 44
0.0
173
     0
291
     0
 45
0.0
1001
ACAD
1000
AcDbSavedByObjectVersion
1070
     0
  0
VISUALSTYLE
  5
35
102
{ACAD_REACTORS
330
2A
102
}
102
{ACAD_XDICTIONARY
360
2B8
102
}
330
2A
100
AcDbVisualStyle
  2
Dim
 70
    11
 71
     2
 72
     2
 73
     0
 90
        0
 40
0.6
 41
30.0
 62
     5
 63
     7
421
 16777215
 74
     1
 91
        4
 64
     7
 65
   257
 75
     1
175
     1
 42
1.0
 92
        8
 66
     7
 43
1.0
 76
     1
 77
     6
 78
     2
 67
     7
 79
     5
170
     0
171
     0
290
     0
174
     0
 93
        1
 44
-50.0
173
     0
291
     1
 45
0.0
1001
ACAD
1000
AcDbSavedByObjectVersion
1070
     0
  0
VISUALSTYLE
  5
3D
102
{ACAD_REACTORS
330
2A
102
}
102
{ACAD_XDICTIONARY
360
2C8
102
}
330
2A
100
AcDbVisualStyle
  2
EdgeColorOff
 70
    22
 71
     2
 72
     2
 73
     0
 90
        0
 40
0.6
 41
30.0
 62
     5
 63
     7
421
 16777215
 74
     1
 91
        4
 64
     7
 65
   257
 75
     1
175
     1
 42
1.0
 92
        8
 66
     7
 43
1.0
 76
     1
 77
     6
 78
     2
 67
     7
 79
     5
170
     0
171
     0
290
     0
174
     0
 93
        1
 44
0.0
173
     0
291
     1
 45
0.0
1001
ACAD
1000
AcDbSavedByObjectVersion
1070
     0
  0
VISUALSTYLE
  5
39
102
{ACAD_REACTORS
330
2A
102
}
102
{ACAD_XDICTIONARY
360
2C0
102
}
330
2A
100
AcDbVisualStyle
  2
Facepattern
 70
    15
 71
     2
 72
     2
 73
     0
 90
        0
 40
0.6
 41
30.0
 62
     5
 63
     7
421
 16777215
 74
     1
 91
        4
 64
     7
 65
   257
 75
     1
175
     1
 42
1.0
 92
        8
 66
     7
 43
1.0
 76
     1
 77
     6
 78
     2
 67
     7
 79
     5
170
     0
171
     0
290
     0
174
     0
 93
        1
 44
0.0
173
     0
291
     1
 45
0.0
1001
ACAD
1000
AcDbSavedByObjectVersion
1070
     0
  0
VISUALSTYLE
  5
2B
102
{ACAD_REACTORS
330
2A
102
}
102
{ACAD_XDICTIONARY
360
2A4
102
}
330
2A
100
AcDbVisualStyle
  2
Flat
 70
     0
 71
     2
 72
     1
 73
     1
 90
        2
 40
0.6
 41
30.0
 62
     5
 63
     7
421
 16777215
 74
     0
 91
        0
 64
     7
 65
   257
 75
     1
175
     1
 42
1.0
 92
        8
 66
     7
 43
1.0
 76
     1
 77
     6
 78
     2
 67
     7
 79
     5
170
     0
171
     0
290
     0
174
     0
 93
       13
 44
0.0
173
     0
291
     1
 45
0.0
1001
ACAD
1000
AcDbSavedByObjectVersion
1070
     0
  0
VISUALSTYLE
  5
2C
102
{ACAD_REACTORS
330
2A
102
}
102
{ACAD_XDICTIONARY
360
2A6
102
}
330
2A
100
AcDbVisualStyle
  2
FlatWithEdges
 70
     1
 71
     2
 72
     1
 73
     1
 90
        2
 40
0.6
 41
30.0
 62
     5
 63
     7
421
 16777215
 74
     1
 91
        0
 64
     7
 65
   257
 75
     1
175
     1
 42
1.0
 92
        0
 66
   257
 43
1.0
 76
     1
 77
     6
 78
     2
 67
     7
 79
     5
170
     0
171
     0
290
     0
174
     0
 93
       13
 44
0.0
173
     0
291
     1
 45
0.0
1001
ACAD
1000
AcDbSavedByObjectVersion
1070
     0
  0
VISUALSTYLE
  5
2D
102
{ACAD_REACTORS
330
2A
102
}
102
{ACAD_XDICTIONARY
360
2A8
102
}
330
2A
100
AcDbVisualStyle
  2
Gouraud
 70
     2
 71
     2
 72
     2
 73
     1
 90
        2
 40
0.6
 41
30.0
 62
     5
 63
     7
421
 16777215
 74
     0
 91
        0
 64
     7
 65
   257
 75
     1
175
     1
 42
1.0
 92
        0
 66
     7
 43
1.0
 76
     1
 77
     6
 78
     2
 67
     7
 79
     5
170
     0
171
     0
290
     0
174
     0
 93
       13
 44
0.0
173
     0
291
     1
 45
0.0
1001
ACAD
1000
AcDbSavedByObjectVersion
1070
     0
  0
VISUALSTYLE
  5
2E
102
{ACAD_REACTORS
330
2A
102
}
102
{ACAD_XDICTIONARY
360
2AA
102
}
330
2A
100
AcDbVisualStyle
  2
GouraudWithEdges
 70
     3
 71
     2
 72
     2
 73
     1
 90
        2
 40
0.6
 41
30.0
 62
     5
 63
     7
421
 16777215
 74
     1
 91
        0
 64
     7
 65
   257
 75
     1
175
     1
 42
1.0
 92
        0
 66
   257
 43
1.0
 76
     1
 77
     6
 78
     2
 67
     7
 79
     5
170
     0
171
     0
290
     0
174
     0
 93
       13
 44
0.0
173
     0
291
     1
 45
0.0
1001
ACAD
1000
AcDbSavedByObjectVersion
1070
     0
  0
VISUALSTYLE
  5
31
102
{ACAD_REACTORS
330
2A
102
}
102
{ACAD_XDICTIONARY
360
2B0
102
}
330
2A
100
AcDbVisualStyle
  2
Hidden
 70
     6
 71
     1
 72
     2
 73
     2
 90
        0
 40
0.6
 41
30.0
 62
     5
 63
     7
421
 16777215
 74
     2
 91
        2
 64
     7
 65
   257
 75
     2
175
     1
 42
40.0
 92
        0
 66
   257
 43
1.0
 76
     1
 77
     6
 78
     2
 67
     7
 79
     3
170
     0
171
     0
290
     0
174
     0
 93
        1
 44
0.0
173
     0
291
     0
 45
0.0
1001
ACAD
1000
AcDbSavedByObjectVersion
1070
     0
  0
VISUALSTYLE
  5
3B
102
{ACAD_REACTORS
330
2A
102
}
102
{ACAD_XDICTIONARY
360
2C4
102
}
330
2A
100
AcDbVisualStyle
  2
JitterOff
 70
    20
 71
     2
 72
     2
 73
     0
 90
        0
 40
0.6
 41
30.0
 62
     5
 63
     7
421
 16777215
 74
     1
 91
        4
 64
     7
 65
   257
 75
     1
175
     1
 42
1.0
 92
       10
 66
     7
 43
1.0
 76
     1
 77
     6
 78
     2
 67
     7
 79
     5
170
     0
171
     0
290
     0
174
     0
 93
        1
 44
0.0
173
     0
291
     1
 45
0.0
1001
ACAD
1000
AcDbSavedByObjectVersion
1070
     0
  0
VISUALSTYLE
  5
38
102
{ACAD_REACTORS
330
2A
102
}
102
{ACAD_XDICTIONARY
360
2BE
102
}
330
2A
100
AcDbVisualStyle
  2
Linepattern
 70
    14
 71
     2
 72
     2
 73
     0
 90
        0
 40
0.6
 41
30.0
 62
     5
 63
     7
421
 16777215
 74
     1
 91
        4
 64
     7
 65
   257
 75
     7
175
     7
 42
1.0
 92
        8
 66
     7
 43
1.0
 76
     1
 77
     6
 78
     2
 67
     7
 79
     5
170
     0
171
     0
290
     0
174
     0
 93
        1
 44
0.0
173
     0
291
     1
 45
0.0
1001
ACAD
1000
AcDbSavedByObjectVersion
1070
     0
  0
VISUALSTYLE
  5
3C
102
{ACAD_REACTORS
330
2A
102
}
102
{ACAD_XDICTIONARY
360
2C6
102
}
330
2A
100
AcDbVisualStyle
  2
OverhangOff
 70
    21
 71
     2
 72
     2
 73
     0
 90
        0
 40
0.6
 41
30.0
 62
     5
 63
     7
421
 16777215
 74
     1
 91
        4
 64
     7
 65
   257
 75
     1
175
     1
 42
1.0
 92
        9
 66
     7
 43
1.0
 76
     1
 77
     6
 78
     2
 67
     7
 79
     5
170
     0
171
     0
290
     0
174
     0
 93
        1
 44
0.0
173
     0
291
     1
 45
0.0
1001
ACAD
1000
AcDbSavedByObjectVersion
1070
     0
  0
VISUALSTYLE
  5
33
102
{ACAD_REACTORS
330
2A
102
}
102
{ACAD_XDICTIONARY
360
2B4
102
}
330
2A
100
AcDbVisualStyle
  2
Realistic
 70
     8
 71
     2
 72
     3
 73
     0
 90
        2
 40
0.6
 41
30.0
 62
     5
 63
     7
421
 16777215
 74
     0
 91
        0
 64
     7
 65
   257
 75
     1
175
     1
 42
1.0
 92
        8
 66
   257
 43
1.0
 76
     1
 77
     6
 78
     2
 67
     7
 79
     3
170
     0
171
     0
290
     0
174
     0
 93
       13
 44
0.0
173
     0
291
     0
 45
0.0
1001
ACAD
1000
AcDbSavedByObjectVersion
1070
     0
  0
VISUALSTYLE
  5
42
102
{ACAD_REACTORS
330
2A
102
}
102
{ACAD_XDICTIONARY
360
2D2
102
}
330
2A
100
AcDbVisualStyle
  2
Shaded
 70
    27
 71
     2
 72
     2
 73
     1
 90
        2
 40
0.6
 41
30.0
 62
     5
 63
     7
421
 16777215
 74
     0
 91
        4
 64
     7
 65
   257
 75
     1
175
     1
 42
1.0
 92
        8
 66
   257
 43
1.0
 76
     1
 77
     6
 78
     2
 67
     8
425
  7895160
 79
     3
170
     0
171
     0
290
     0
174
     0
 93
        5
 44
0.0
173
     0
291
     0
 45
0.0
1001
ACAD
1000
AcDbSavedByObjectVersion
1070
     0
  0
VISUALSTYLE
  5
41
102
{ACAD_REACTORS
330
2A
102
}
102
{ACAD_XDICTIONARY
360
2D0
102
}
330
2A
100
AcDbVisualStyle
  2
Shaded with edges
 70
    26
 71
     2
 72
     2
 73
     1
 90
        2
 40
0.6
 41
30.0
 62
     5
 63
     7
421
 16777215
 74
     1
 91
       10
 64
     7
 65
   257
 75
     2
175
     1
 42
1.0
 92
        8
 66
   257
 43
1.0
 76
     1
 77
     6
 78
     2
 67
     7
 79
     3
170
     0
171
     0
290
     0
174
     0
 93
        5
 44
0.0
173
     0
291
     0
 45
0.0
1001
ACAD
1000
AcDbSavedByObjectVersion
1070
     0
  0
VISUALSTYLE
  5
3E
102
{ACAD_REACTORS
330
2A
102
}
102
{ACAD_XDICTIONARY
360
2CA
102
}
330
2A
100
AcDbVisualStyle
  2
Shades of Gray
 70
    23
 71
     2
 72
     2
 73
     3
 90
        0
 40
0.6
 41
30.0
 62
     5
 63
     7
421
 16777215
 74
     2
 91
        2
 64
     7
 65
     7
 75
     1
175
     1
 42
40.0
 92
        8
 66
     7
 43
1.0
 76
     1
 77
     6
 78
     2
 67
     7
 79
     3
170
     0
171
     0
290
     0
174
     0
 93
        1
 44
0.0
173
     0
291
     0
 45
0.0
1001
ACAD
1000
AcDbSavedByObjectVersion
1070
     0
  0
VISUALSTYLE
  5
3F
102
{ACAD_REACTORS
330
2A
102
}
102
{ACAD_XDICTIONARY
360
2CC
102
}
330
2A
100
AcDbVisualStyle
  2
Sketchy
 70
    24
 71
     1
 72
     2
 73
     2
 90
        0
 40
0.6
 41
30.0
 62
     5
 63
     7
421
 16777215
 74
     2
 91
        2
 64
     7
 65
     7
 75
     1
175
     1
 42
40.0
 92
       11
 66
     7
 43
1.0
 76
     1
 77
     6
 78
     2
 67
     7
 79
     6
170
     0
171
     0
290
     0
174
     0
 93
        1
 44
0.0
173
     0
291
     0
 45
0.0
1001
ACAD
1000
AcDbSavedByObjectVersion
1070
     0
  0
VISUALSTYLE
  5
37
102
{ACAD_REACTORS
330
2A
102
}
102
{ACAD_XDICTIONARY
360
2BC
102
}
330
2A
100
AcDbVisualStyle
  2
Thicken
 70
    13
 71
     2
 72
     2
 73
     0
 90
        0
 40
0.6
 41
30.0
 62
     5
 63
     7
421
 16777215
 74
     1
 91
        4
 64
     7
 65
   257
 75
     1
175
     1
 42
1.0
 92
       12
 66
     7
 43
1.0
 76
     1
 77
     6
 78
     2
 67
     7
 79
     5
170
     0
171
     0
290
     0
174
     0
 93
        1
 44
0.0
173
     0
291
     1
 45
0.0
1001
ACAD
1000
AcDbSavedByObjectVersion
1070
     0
  0
VISUALSTYLE
  5
30
102
{ACAD_REACTORS
330
2A
102
}
102
{ACAD_XDICTIONARY
360
2AE
102
}
330
2A
100
AcDbVisualStyle
  2
Wireframe
 70
     5
 71
     0
 72
     2
 73
     0
 90
        0
 40
0.6
 41
30.0
 62
     5
 63
     7
421
 16777215
 74
     1
 91
        4
 64
     7
 65
   257
 75
     1
175
     1
 42
1.0
 92
        0
 66
   257
 43
1.0
 76
     1
 77
     6
 78
     2
 67
     7
 79
     3
170
     0
171
     0
290
     0
174
     0
 93
        1
 44
0.0
173
     0
291
     0
 45
0.0
1001
ACAD
1000
AcDbSavedByObjectVersion
1070
     0
  0
VISUALSTYLE
  5
40
102
{ACAD_REACTORS
330
2A
102
}
102
{ACAD_XDICTIONARY
360
2CE
102
}
330
2A
100
AcDbVisualStyle
  2
X-Ray
 70
    25
 71
     2
 72
     2
 73
     1
 90
        1
 40
0.5
 41
30.0
 62
     5
 63
     7
421
 16777215
 74
     1
 91
        0
 64
     7
 65
   257
 75
     1
175
     1
 42
1.0
 92
        8
 66
     7
 43
1.0
 76
     1
 77
     6
 78
     2
 67
     7
 79
     3
170
     0
171
     0
290
     0
174
     0
 93
       13
 44
0.0
173
     0
291
     0
 45
0.0
1001
ACAD
1000
AcDbSavedByObjectVersion
1070
     0
  0
DICTIONARYVAR
  5
2A1
102
{ACAD_REACTORS
330
2A0
102
}
330
2A0
100
DictionaryVariables
280
     0
  1
1:1
  0
DICTIONARYVAR
  5
2E5
102
{ACAD_REACTORS
330
2A0
102
}
330
2A0
100
DictionaryVariables
280
     0
  1
3.500000
  0
DICTIONARYVAR
  5
2E6
102
{ACAD_REACTORS
330
2A0
102
}
330
2A0
100
DictionaryVariables
280
     0
  1
acadiso.lin
  0
DICTIONARYVAR
  5
2E2
102
{ACAD_REACTORS
330
2A0
102
}
330
2A0
100
DictionaryVariables
280
     0
  1
Standard
  0
DICTIONARYVAR
  5
2E1
102
{ACAD_REACTORS
330
2A0
102
}
330
2A0
100
DictionaryVariables
280
     0
  1
Standard
  0
DICTIONARYVAR
  5
2A2
102
{ACAD_REACTORS
330
2A0
102
}
330
2A0
100
DictionaryVariables
280
     0
  1
1
  0
DICTIONARYVAR
  5
2A3
102
{ACAD_REACTORS
330
2A0
102
}
330
2A0
100
DictionaryVariables
280
     0
  1
2
  0
DICTIONARY
  5
2D6
330
45
100
AcDbDictionary
280
     1
281
     1
  3
ACAD_XREC_ROUNDTRIP
360
2D7
  0
DICTIONARY
  5
2D4
330
44
100
AcDbDictionary
280
     1
281
     1
  3
ACAD_XREC_ROUNDTRIP
360
2D5
  0
DICTIONARY
  5
2D8
330
46
100
AcDbDictionary
280
     1
281
     1
  3
ACAD_XREC_ROUNDTRIP
360
2D9
  0
DICTIONARY
  5
2DE
330
6C
100
AcDbDictionary
280
     1
281
     1
  3
ACAD_XREC_ROUNDTRIP
360
2DF
  0
DICTIONARY
  5
2DA
330
6A
100
AcDbDictionary
280
     1
281
     1
  3
ACAD_ROUNDTRIP_2008_TABLESTYLE_CELLSTYLEMAP
360
2DC
  3
ACAD_XREC_ROUNDTRIP
360
2DB
  0
DICTIONARY
  5
2AC
330
2F
100
AcDbDictionary
280
     1
281
     1
  3
ACAD_XREC_ROUNDTRIP
360
2AD
  0
DICTIONARY
  5
2B2
330
32
100
AcDbDictionary
280
     1
281
     1
  3
ACAD_XREC_ROUNDTRIP
360
2B3
  0
DICTIONARY
  5
2BA
330
36
100
AcDbDictionary
280
     1
281
     1
  3
ACAD_XREC_ROUNDTRIP
360
2BB
  0
DICTIONARY
  5
2C2
330
3A
100
AcDbDictionary
280
     1
281
     1
  3
ACAD_XREC_ROUNDTRIP
360
2C3
  0
DICTIONARY
  5
2B6
330
34
100
AcDbDictionary
280
     1
281
     1
  3
ACAD_XREC_ROUNDTRIP
360
2B7
  0
DICTIONARY
  5
2B8
330
35
100
AcDbDictionary
280
     1
281
     1
  3
ACAD_XREC_ROUNDTRIP
360
2B9
  0
DICTIONARY
  5
2C8
330
3D
100
AcDbDictionary
280
     1
281
     1
  3
ACAD_XREC_ROUNDTRIP
360
2C9
  0
DICTIONARY
  5
2C0
330
39
100
AcDbDictionary
280
     1
281
     1
  3
ACAD_XREC_ROUNDTRIP
360
2C1
  0
DICTIONARY
  5
2A4
330
2B
100
AcDbDictionary
280
     1
281
     1
  3
ACAD_XREC_ROUNDTRIP
360
2A5
  0
DICTIONARY
  5
2A6
330
2C
100
AcDbDictionary
280
     1
281
     1
  3
ACAD_XREC_ROUNDTRIP
360
2A7
  0
DICTIONARY
  5
2A8
330
2D
100
AcDbDictionary
280
     1
281
     1
  3
ACAD_XREC_ROUNDTRIP
360
2A9
  0
DICTIONARY
  5
2AA
330
2E
100
AcDbDictionary
280
     1
281
     1
  3
ACAD_XREC_ROUNDTRIP
360
2AB
  0
DICTIONARY
  5
2B0
330
31
100
AcDbDictionary
280
     1
281
     1
  3
ACAD_XREC_ROUNDTRIP
360
2B1
  0
DICTIONARY
  5
2C4
330
3B
100
AcDbDictionary
280
     1
281
     1
  3
ACAD_XREC_ROUNDTRIP
360
2C5
  0
DICTIONARY
  5
2BE
330
38
100
AcDbDictionary
280
     1
281
     1
  3
ACAD_XREC_ROUNDTRIP
360
2BF
  0
DICTIONARY
  5
2C6
330
3C
100
AcDbDictionary
280
     1
281
     1
  3
ACAD_XREC_ROUNDTRIP
360
2C7
  0
DICTIONARY
  5
2B4
330
33
100
AcDbDictionary
280
     1
281
     1
  3
ACAD_XREC_ROUNDTRIP
360
2B5
  0
DICTIONARY
  5
2D2
330
42
100
AcDbDictionary
280
     1
281
     1
  3
ACAD_XREC_ROUNDTRIP
360
2D3
  0
DICTIONARY
  5
2D0
330
41
100
AcDbDictionary
280
     1
281
     1
  3
ACAD_XREC_ROUNDTRIP
360
2D1
  0
DICTIONARY
  5
2CA
330
3E
100
AcDbDictionary
280
     1
281
     1
  3
ACAD_XREC_ROUNDTRIP
360
2CB
  0
DICTIONARY
  5
2CC
330
3F
100
AcDbDictionary
280
     1
281
     1
  3
ACAD_XREC_ROUNDTRIP
360
2CD
  0
DICTIONARY
  5
2BC
330
37
100
AcDbDictionary
280
     1
281
     1
  3
ACAD_XREC_ROUNDTRIP
360
2BD
  0
DICTIONARY
  5
2AE
330
30
100
AcDbDictionary
280
     1
281
     1
  3
ACAD_XREC_ROUNDTRIP
360
2AF
  0
DICTIONARY
  5
2CE
330
40
100
AcDbDictionary
280
     1
281
     1
  3
ACAD_XREC_ROUNDTRIP
360
2CF
  0
XRECORD
  5
2D7
102
{ACAD_REACTORS
330
2D6
102
}
330
2D6
100
AcDbXrecord
280
     1
102
MATERIAL
148
0.0
149
0.0
149
0.0
 93
        0
 94
      127
282
     0
 72
     1
 77
     1
171
     1
175
     1
179
     1
273
     0
  0
XRECORD
  5
2D5
102
{ACAD_REACTORS
330
2D4
102
}
330
2D4
100
AcDbXrecord
280
     1
102
MATERIAL
148
0.0
149
0.0
149
0.0
 93
        0
 94
      127
282
     0
 72
     1
 77
     1
171
     1
175
     1
179
     1
273
     0
  0
XRECORD
  5
2D9
102
{ACAD_REACTORS
330
2D8
102
}
330
2D8
100
AcDbXrecord
280
     1
102
MATERIAL
148
0.0
149
0.0
149
0.0
 93
        0
 94
      127
282
     0
 72
     1
 77
     1
171
     1
175
     1
179
     1
273
     0
  0
XRECORD
  5
2DF
102
{ACAD_REACTORS
330
2DE
102
}
330
2DE
100
AcDbXrecord
280
     1
102
ACAD_ROUNDTRIP_2010_MLEADER_STYLE
  0
CELLSTYLEMAP
  5
2DC
102
{ACAD_REACTORS
330
2DA
102
}
330
2DA
100
AcDbCellStyleMap
 90
        3
300
CELLSTYLE
  1
TABLEFORMAT_BEGIN
 90
        5
170
     1
 91
        0
 92
    32768
 62
   257
 93
        1
300
CONTENTFORMAT
  1
CONTENTFORMAT_BEGIN
 90
        0
 91
        0
 92
        4
 93
        0
300

 40
0.0
140
1.0
 94
        5
 62
     0
340
11
144
6.0
309
CONTENTFORMAT_END
171
     1
301
MARGIN
  1
CELLMARGIN_BEGIN
 40
1.5
 40
1.5
 40
1.5
 40
1.5
 40
1.5
 40
1.5
309
CELLMARGIN_END
 94
        6
 95
        1
302
GRIDFORMAT
  1
GRIDFORMAT_BEGIN
 90
        0
 91
        1
 62
     0
 92
       -2
340
14
 93
        0
 40
0.045
309
GRIDFORMAT_END
 95
        2
302
GRIDFORMAT
  1
GRIDFORMAT_BEGIN
 90
        0
 91
        1
 62
     0
 92
       -2
340
14
 93
        0
 40
0.045
309
GRIDFORMAT_END
 95
        4
302
GRIDFORMAT
  1
GRIDFORMAT_BEGIN
 90
        0
 91
        1
 62
     0
 92
       -2
340
14
 93
        0
 40
0.045
309
GRIDFORMAT_END
 95
        8
302
GRIDFORMAT
  1
GRIDFORMAT_BEGIN
 90
        0
 91
        1
 62
     0
 92
       -2
340
14
 93
        0
 40
0.045
309
GRIDFORMAT_END
 95
       16
302
GRIDFORMAT
  1
GRIDFORMAT_BEGIN
 90
        0
 91
        1
 62
     0
 92
       -2
340
14
 93
        0
 40
0.045
309
GRIDFORMAT_END
 95
       32
302
GRIDFORMAT
  1
GRIDFORMAT_BEGIN
 90
        0
 91
        1
 62
     0
 92
       -2
340
14
 93
        0
 40
0.045
309
GRIDFORMAT_END
309
TABLEFORMAT_END
  1
CELLSTYLE_BEGIN
 90
        1
 91
        1
300
_TITLE
309
CELLSTYLE_END
300
CELLSTYLE
  1
TABLEFORMAT_BEGIN
 90
        5
170
     1
 91
        0
 92
        0
 62
   257
 93
        1
300
CONTENTFORMAT
  1
CONTENTFORMAT_BEGIN
 90
        0
 91
        0
 92
        4
 93
        0
300

 40
0.0
140
1.0
 94
        5
 62
     0
340
11
144
4.5
309
CONTENTFORMAT_END
171
     1
301
MARGIN
  1
CELLMARGIN_BEGIN
 40
1.5
 40
1.5
 40
1.5
 40
1.5
 40
1.5
 40
1.5
309
CELLMARGIN_END
 94
        6
 95
        1
302
GRIDFORMAT
  1
GRIDFORMAT_BEGIN
 90
        0
 91
        1
 62
     0
 92
       -2
340
14
 93
        0
 40
0.045
309
GRIDFORMAT_END
 95
        2
302
GRIDFORMAT
  1
GRIDFORMAT_BEGIN
 90
        0
 91
        1
 62
     0
 92
       -2
340
14
 93
        0
 40
0.045
309
GRIDFORMAT_END
 95
        4
302
GRIDFORMAT
  1
GRIDFORMAT_BEGIN
 90
        0
 91
        1
 62
     0
 92
       -2
340
14
 93
        0
 40
0.045
309
GRIDFORMAT_END
 95
        8
302
GRIDFORMAT
  1
GRIDFORMAT_BEGIN
 90
        0
 91
        1
 62
     0
 92
       -2
340
14
 93
        0
 40
0.045
309
GRIDFORMAT_END
 95
       16
302
GRIDFORMAT
  1
GRIDFORMAT_BEGIN
 90
        0
 91
        1
 62
     0
 92
       -2
340
14
 93
        0
 40
0.045
309
GRIDFORMAT_END
 95
       32
302
GRIDFORMAT
  1
GRIDFORMAT_BEGIN
 90
        0
 91
        1
 62
     0
 92
       -2
340
14
 93
        0
 40
0.045
309
GRIDFORMAT_END
309
TABLEFORMAT_END
  1
CELLSTYLE_BEGIN
 90
        2
 91
        1
300
_HEADER
309
CELLSTYLE_END
300
CELLSTYLE
  1
TABLEFORMAT_BEGIN
 90
        5
170
     1
 91
        0
 92
        0
 62
   257
 93
        1
300
CONTENTFORMAT
  1
CONTENTFORMAT_BEGIN
 90
        0
 91
        0
 92
        4
 93
        0
300

 40
0.0
140
1.0
 94
        2
 62
     0
340
11
144
4.5
309
CONTENTFORMAT_END
171
     1
301
MARGIN
  1
CELLMARGIN_BEGIN
 40
1.5
 40
1.5
 40
1.5
 40
1.5
 40
1.5
 40
1.5
309
CELLMARGIN_END
 94
        6
 95
        1
302
GRIDFORMAT
  1
GRIDFORMAT_BEGIN
 90
        0
 91
        1
 62
     0
 92
       -2
340
14
 93
        0
 40
0.045
309
GRIDFORMAT_END
 95
        2
302
GRIDFORMAT
  1
GRIDFORMAT_BEGIN
 90
        0
 91
        1
 62
     0
 92
       -2
340
14
 93
        0
 40
0.045
309
GRIDFORMAT_END
 95
        4
302
GRIDFORMAT
  1
GRIDFORMAT_BEGIN
 90
        0
 91
        1
 62
     0
 92
       -2
340
14
 93
        0
 40
0.045
309
GRIDFORMAT_END
 95
        8
302
GRIDFORMAT
  1
GRIDFORMAT_BEGIN
 90
        0
 91
        1
 62
     0
 92
       -2
340
14
 93
        0
 40
0.045
309
GRIDFORMAT_END
 95
       16
302
GRIDFORMAT
  1
GRIDFORMAT_BEGIN
 90
        0
 91
        1
 62
     0
 92
       -2
340
14
 93
        0
 40
0.045
309
GRIDFORMAT_END
 95
       32
302
GRIDFORMAT
  1
GRIDFORMAT_BEGIN
 90
        0
 91
        1
 62
     0
 92
       -2
340
14
 93
        0
 40
0.045
309
GRIDFORMAT_END
309
TABLEFORMAT_END
  1
CELLSTYLE_BEGIN
 90
        3
 91
        2
300
_DATA
309
CELLSTYLE_END
  0
XRECORD
  5
2DB
102
{ACAD_REACTORS
330
2DA
102
}
330
2DA
100
AcDbXrecord
280
     1
102
ACAD_ROUNDTRIP_PRE2007_TABLESTYLE
 90
        4
 91
        0
  1

 92
        4
 93
        0
  2

 94
        4
 95
        0
  3

  0
XRECORD
  5
2AD
102
{ACAD_REACTORS
330
2AC
102
}
330
2AC
100
AcDbXrecord
280
     1
102
RTVSPropertyOp0
 70
     1
102
RTVSPropertyOp1
 70
     1
102
RTVSPropertyOp2
 70
     1
102
RTVSPropertyOp3
 70
     1
102
RTVSPropertyOp4
 70
     1
102
RTVSPropertyOp5
 70
     1
102
RTVSPropertyOp6
 70
     1
102
RTVSPropertyOp7
 70
     1
102
RTVSPropertyOp8
 70
     1
102
RTVSPropertyOp9
 70
     1
102
RTVSPropertyOp10
 70
     1
102
RTVSPropertyOp11
 70
     1
102
RTVSPropertyOp12
 70
     1
102
RTVSPropertyOp13
 70
     1
102
RTVSPropertyOp14
 70
     1
102
RTVSPropertyOp15
 70
     1
102
RTVSPropertyOp16
 70
     1
102
RTVSPropertyOp17
 70
     1
102
RTVSPropertyOp18
 70
     1
102
RTVSPropertyOp19
 70
     1
102
RTVSPropertyOp20
 70
     1
102
RTVSPropertyOp21
 70
     1
102
RTVSPropertyOp22
 70
     1
102
RTVSPropertyOp23
 70
     1
102
RTVSPropertyOp24
 70
     1
102
RTVSPropertyOp25
 70
     1
102
RTVSPropertyOp26
 70
     1
102
RTVSPropertyOp27
 70
     1
102
RTVSPropertyOp28
 70
     1
102
RTVSPropertyOp29
 70
     1
102
RTVSPropertyOp30
 70
     1
102
RTVSPropertyOp31
 70
     1
102
RTVSPropertyOp32
 70
     1
102
RTVSPropertyOp33
 70
     1
102
RTVSPropertyOp34
 70
     1
102
RTVSPropertyOp35
 70
     1
102
RTVSPropertyOp36
 70
     1
102
RTVSPropertyOp37
 70
     1
102
RTVSPropertyOp38
 70
     1
102
RTVSPropertyOp39
 70
     1
102
RTVSPropertyOp40
 70
     1
102
RTVSPropertyOp41
 70
     1
102
RTVSPropertyOp42
 70
     1
102
RTVSPropertyOp43
 70
     1
102
RTVSPropertyOp44
 70
     1
102
RTVSPropertyOp45
 70
     1
102
RTVSPropertyOp46
 70
     1
102
RTVSPropertyOp47
 70
     1
102
RTVSPropertyOp48
 70
     1
102
RTVSPropertyOp49
 70
     1
102
RTVSPropertyOp50
 70
     1
102
RTVSPropertyOp51
 70
     0
102
RTVSPropertyOp52
 70
     0
102
RTVSPropertyOp53
 70
     1
102
RTVSPropertyOp54
 70
     1
102
RTVSPropertyOp55
 70
     1
102
RTVSPropertyOp56
 70
     1
102
RTVSPropertyOp57
 70
     1
102
RTVSPost2010Prop28
280
     1
102
RTVSPost2010PropOp28
 70
     1
102
RTVSPost2010Prop29
280
     1
102
RTVSPost2010PropOp29
 70
     1
102
RTVSPost2010Prop30
280
     0
102
RTVSPost2010PropOp30
 70
     1
102
RTVSPost2010Prop31
280
     0
102
RTVSPost2010PropOp31
 70
     1
102
RTVSPost2010Prop32
280
     0
102
RTVSPost2010PropOp32
 70
     1
102
RTVSPost2010Prop33
280
     0
102
RTVSPost2010PropOp33
 70
     1
102
RTVSPost2010Prop34
280
     0
102
RTVSPost2010PropOp34
 70
     1
102
RTVSPost2010Prop35
280
     0
102
RTVSPost2010PropOp35
 70
     1
102
RTVSPost2010Prop36
280
     0
102
RTVSPost2010PropOp36
 70
     1
102
RTVSPost2010Prop37
 90
       50
102
RTVSPost2010PropOp37
 70
     1
102
RTVSPost2010Prop38
140
0.0
102
RTVSPost2010PropOp38
 70
     1
102
RTVSPost2010Prop39
140
1.0
102
RTVSPost2010PropOp39
 70
     1
102
RTVSPost2010Prop40
 90
        0
102
RTVSPost2010PropOp40
 70
     1
102
RTVSPost2010Prop41ColorIndex
 90
       18
102
RTVSPost2010Prop41ColorRGB
 90
        0
102
RTVSPost2010PropOp41
 70
     1
102
RTVSPost2010Prop42
 90
       50
102
RTVSPost2010PropOp42
 70
     1
102
RTVSPost2010Prop43
 90
        3
102
RTVSPost2010PropOp43
 70
     1
102
RTVSPost2010Prop44ColorIndex
 90
        5
102
RTVSPost2010Prop44ColorRGB
 90
      255
102
RTVSPost2010PropOp44
 70
     1
102
RTVSPost2010Prop45
280
     0
102
RTVSPost2010PropOp45
 70
     1
102
RTVSPost2010Prop46
 90
       50
102
RTVSPost2010PropOp46
 70
     1
102
RTVSPost2010Prop47
 90
       50
102
RTVSPost2010PropOp47
 70
     1
102
RTVSPost2010Prop48
 90
       50
102
RTVSPost2010PropOp48
 70
     1
102
RTVSPost2010Prop49
280
     0
102
RTVSPost2010PropOp49
 70
     1
102
RTVSPost2010Prop50
 90
       50
102
RTVSPost2010PropOp50
 70
     1
102
RTVSPost2010Prop51ColorIndex
 90
      256
102
RTVSPost2010Prop51ColorRGB
 90
-16777216
102
RTVSPost2010PropOp51
 70
     0
102
RTVSPost2010Prop52
140
1.0
102
RTVSPost2010PropOp52
 70
     0
102
RTVSPost2010Prop53
 90
        2
102
RTVSPost2010PropOp53
 70
     1
102
RTVSPost2010Prop54
  1
strokes_ogs.tif
102
RTVSPost2010PropOp54
 70
     1
102
RTVSPost2010Prop55
280
     0
102
RTVSPost2010PropOp55
 70
     1
102
RTVSPost2010Prop56
140
1.0
102
RTVSPost2010PropOp56
 70
     1
102
RTVSPost2010Prop57
140
1.0
102
RTVSPost2010PropOp57
 70
     1
  0
XRECORD
  5
2B3
102
{ACAD_REACTORS
330
2B2
102
}
330
2B2
100
AcDbXrecord
280
     1
102
RTVSPropertyOp0
 70
     1
102
RTVSPropertyOp1
 70
     1
102
RTVSPropertyOp2
 70
     1
102
RTVSPropertyOp3
 70
     1
102
RTVSPropertyOp4
 70
     1
102
RTVSPropertyOp5
 70
     1
102
RTVSPropertyOp6
 70
     1
102
RTVSPropertyOp7
 70
     1
102
RTVSPropertyOp8
 70
     1
102
RTVSPropertyOp9
 70
     1
102
RTVSPropertyOp10
 70
     1
102
RTVSPropertyOp11
 70
     1
102
RTVSPropertyOp12
 70
     1
102
RTVSPropertyOp13
 70
     1
102
RTVSPropertyOp14
 70
     1
102
RTVSPropertyOp15
 70
     1
102
RTVSPropertyOp16
 70
     1
102
RTVSPropertyOp17
 70
     1
102
RTVSPropertyOp18
 70
     1
102
RTVSPropertyOp19
 70
     1
102
RTVSPropertyOp20
 70
     1
102
RTVSPropertyOp21
 70
     1
102
RTVSPropertyOp22
 70
     1
102
RTVSPropertyOp23
 70
     1
102
RTVSPropertyOp24
 70
     1
102
RTVSPropertyOp25
 70
     1
102
RTVSPropertyOp26
 70
     1
102
RTVSPropertyOp27
 70
     1
102
RTVSPropertyOp28
 70
     1
102
RTVSPropertyOp29
 70
     1
102
RTVSPropertyOp30
 70
     1
102
RTVSPropertyOp31
 70
     1
102
RTVSPropertyOp32
 70
     1
102
RTVSPropertyOp33
 70
     1
102
RTVSPropertyOp34
 70
     1
102
RTVSPropertyOp35
 70
     1
102
RTVSPropertyOp36
 70
     1
102
RTVSPropertyOp37
 70
     1
102
RTVSPropertyOp38
 70
     1
102
RTVSPropertyOp39
 70
     1
102
RTVSPropertyOp40
 70
     1
102
RTVSPropertyOp41
 70
     1
102
RTVSPropertyOp42
 70
     1
102
RTVSPropertyOp43
 70
     1
102
RTVSPropertyOp44
 70
     1
102
RTVSPropertyOp45
 70
     1
102
RTVSPropertyOp46
 70
     1
102
RTVSPropertyOp47
 70
     1
102
RTVSPropertyOp48
 70
     1
102
RTVSPropertyOp49
 70
     1
102
RTVSPropertyOp50
 70
     1
102
RTVSPropertyOp51
 70
     0
102
RTVSPropertyOp52
 70
     0
102
RTVSPropertyOp53
 70
     1
102
RTVSPropertyOp54
 70
     1
102
RTVSPropertyOp55
 70
     1
102
RTVSPropertyOp56
 70
     1
102
RTVSPropertyOp57
 70
     1
102
RTVSPost2010Prop28
280
     0
102
RTVSPost2010PropOp28
 70
     1
102
RTVSPost2010Prop29
280
     1
102
RTVSPost2010PropOp29
 70
     1
102
RTVSPost2010Prop30
280
     1
102
RTVSPost2010PropOp30
 70
     1
102
RTVSPost2010Prop31
280
     0
102
RTVSPost2010PropOp31
 70
     1
102
RTVSPost2010Prop32
280
     0
102
RTVSPost2010PropOp32
 70
     1
102
RTVSPost2010Prop33
280
     0
102
RTVSPost2010PropOp33
 70
     1
102
RTVSPost2010Prop34
280
     0
102
RTVSPost2010PropOp34
 70
     1
102
RTVSPost2010Prop35
280
     0
102
RTVSPost2010PropOp35
 70
     1
102
RTVSPost2010Prop36
280
     0
102
RTVSPost2010PropOp36
 70
     1
102
RTVSPost2010Prop37
 90
       50
102
RTVSPost2010PropOp37
 70
     1
102
RTVSPost2010Prop38
140
0.0
102
RTVSPost2010PropOp38
 70
     1
102
RTVSPost2010Prop39
140
1.0
102
RTVSPost2010PropOp39
 70
     1
102
RTVSPost2010Prop40
 90
        0
102
RTVSPost2010PropOp40
 70
     1
102
RTVSPost2010Prop41ColorIndex
 90
       18
102
RTVSPost2010Prop41ColorRGB
 90
        0
102
RTVSPost2010PropOp41
 70
     1
102
RTVSPost2010Prop42
 90
       50
102
RTVSPost2010PropOp42
 70
     1
102
RTVSPost2010Prop43
 90
        3
102
RTVSPost2010PropOp43
 70
     1
102
RTVSPost2010Prop44ColorIndex
 90
        5
102
RTVSPost2010Prop44ColorRGB
 90
      255
102
RTVSPost2010PropOp44
 70
     1
102
RTVSPost2010Prop45
280
     0
102
RTVSPost2010PropOp45
 70
     1
102
RTVSPost2010Prop46
 90
       50
102
RTVSPost2010PropOp46
 70
     1
102
RTVSPost2010Prop47
 90
       50
102
RTVSPost2010PropOp47
 70
     1
102
RTVSPost2010Prop48
 90
       50
102
RTVSPost2010PropOp48
 70
     1
102
RTVSPost2010Prop49
280
     0
102
RTVSPost2010PropOp49
 70
     1
102
RTVSPost2010Prop50
 90
       50
102
RTVSPost2010PropOp50
 70
     1
102
RTVSPost2010Prop51ColorIndex
 90
      256
102
RTVSPost2010Prop51ColorRGB
 90
-16777216
102
RTVSPost2010PropOp51
 70
     0
102
RTVSPost2010Prop52
140
1.0
102
RTVSPost2010PropOp52
 70
     0
102
RTVSPost2010Prop53
 90
        2
102
RTVSPost2010PropOp53
 70
     1
102
RTVSPost2010Prop54
  1
strokes_ogs.tif
102
RTVSPost2010PropOp54
 70
     1
102
RTVSPost2010Prop55
280
     0
102
RTVSPost2010PropOp55
 70
     1
102
RTVSPost2010Prop56
140
1.0
102
RTVSPost2010PropOp56
 70
     1
102
RTVSPost2010Prop57
140
1.0
102
RTVSPost2010PropOp57
 70
     1
  0
XRECORD
  5
2BB
102
{ACAD_REACTORS
330
2BA
102
}
330
2BA
100
AcDbXrecord
280
     1
102
RTVSPropertyOp0
 70
     1
102
RTVSPropertyOp1
 70
     1
102
RTVSPropertyOp2
 70
     1
102
RTVSPropertyOp3
 70
     1
102
RTVSPropertyOp4
 70
     1
102
RTVSPropertyOp5
 70
     1
102
RTVSPropertyOp6
 70
     1
102
RTVSPropertyOp7
 70
     1
102
RTVSPropertyOp8
 70
     1
102
RTVSPropertyOp9
 70
     1
102
RTVSPropertyOp10
 70
     1
102
RTVSPropertyOp11
 70
     1
102
RTVSPropertyOp12
 70
     1
102
RTVSPropertyOp13
 70
     1
102
RTVSPropertyOp14
 70
     1
102
RTVSPropertyOp15
 70
     1
102
RTVSPropertyOp16
 70
     1
102
RTVSPropertyOp17
 70
     1
102
RTVSPropertyOp18
 70
     1
102
RTVSPropertyOp19
 70
     1
102
RTVSPropertyOp20
 70
     1
102
RTVSPropertyOp21
 70
     1
102
RTVSPropertyOp22
 70
     1
102
RTVSPropertyOp23
 70
     1
102
RTVSPropertyOp24
 70
     1
102
RTVSPropertyOp25
 70
     1
102
RTVSPropertyOp26
 70
     1
102
RTVSPropertyOp27
 70
     1
102
RTVSPropertyOp28
 70
     1
102
RTVSPropertyOp29
 70
     1
102
RTVSPropertyOp30
 70
     1
102
RTVSPropertyOp31
 70
     1
102
RTVSPropertyOp32
 70
     1
102
RTVSPropertyOp33
 70
     1
102
RTVSPropertyOp34
 70
     1
102
RTVSPropertyOp35
 70
     1
102
RTVSPropertyOp36
 70
     1
102
RTVSPropertyOp37
 70
     1
102
RTVSPropertyOp38
 70
     1
102
RTVSPropertyOp39
 70
     1
102
RTVSPropertyOp40
 70
     1
102
RTVSPropertyOp41
 70
     1
102
RTVSPropertyOp42
 70
     1
102
RTVSPropertyOp43
 70
     1
102
RTVSPropertyOp44
 70
     1
102
RTVSPropertyOp45
 70
     1
102
RTVSPropertyOp46
 70
     1
102
RTVSPropertyOp47
 70
     1
102
RTVSPropertyOp48
 70
     1
102
RTVSPropertyOp49
 70
     1
102
RTVSPropertyOp50
 70
     1
102
RTVSPropertyOp51
 70
     0
102
RTVSPropertyOp52
 70
     0
102
RTVSPropertyOp53
 70
     1
102
RTVSPropertyOp54
 70
     1
102
RTVSPropertyOp55
 70
     1
102
RTVSPropertyOp56
 70
     1
102
RTVSPropertyOp57
 70
     1
102
RTVSPost2010Prop28
280
     0
102
RTVSPost2010PropOp28
 70
     1
102
RTVSPost2010Prop29
280
     1
102
RTVSPost2010PropOp29
 70
     1
102
RTVSPost2010Prop30
280
     1
102
RTVSPost2010PropOp30
 70
     1
102
RTVSPost2010Prop31
280
     0
102
RTVSPost2010PropOp31
 70
     1
102
RTVSPost2010Prop32
280
     0
102
RTVSPost2010PropOp32
 70
     1
102
RTVSPost2010Prop33
280
     0
102
RTVSPost2010PropOp33
 70
     1
102
RTVSPost2010Prop34
280
     0
102
RTVSPost2010PropOp34
 70
     1
102
RTVSPost2010Prop35
280
     0
102
RTVSPost2010PropOp35
 70
     1
102
RTVSPost2010Prop36
280
     0
102
RTVSPost2010PropOp36
 70
     1
102
RTVSPost2010Prop37
 90
       50
102
RTVSPost2010PropOp37
 70
     1
102
RTVSPost2010Prop38
140
0.0
102
RTVSPost2010PropOp38
 70
     1
102
RTVSPost2010Prop39
140
1.0
102
RTVSPost2010PropOp39
 70
     1
102
RTVSPost2010Prop40
 90
        0
102
RTVSPost2010PropOp40
 70
     1
102
RTVSPost2010Prop41ColorIndex
 90
       18
102
RTVSPost2010Prop41ColorRGB
 90
        0
102
RTVSPost2010PropOp41
 70
     1
102
RTVSPost2010Prop42
 90
       50
102
RTVSPost2010PropOp42
 70
     1
102
RTVSPost2010Prop43
 90
        3
102
RTVSPost2010PropOp43
 70
     1
102
RTVSPost2010Prop44ColorIndex
 90
        5
102
RTVSPost2010Prop44ColorRGB
 90
      255
102
RTVSPost2010PropOp44
 70
     1
102
RTVSPost2010Prop45
280
     0
102
RTVSPost2010PropOp45
 70
     1
102
RTVSPost2010Prop46
 90
       50
102
RTVSPost2010PropOp46
 70
     1
102
RTVSPost2010Prop47
 90
       50
102
RTVSPost2010PropOp47
 70
     1
102
RTVSPost2010Prop48
 90
       50
102
RTVSPost2010PropOp48
 70
     1
102
RTVSPost2010Prop49
280
     0
102
RTVSPost2010PropOp49
 70
     1
102
RTVSPost2010Prop50
 90
       50
102
RTVSPost2010PropOp50
 70
     1
102
RTVSPost2010Prop51ColorIndex
 90
      256
102
RTVSPost2010Prop51ColorRGB
 90
-16777216
102
RTVSPost2010PropOp51
 70
     0
102
RTVSPost2010Prop52
140
1.0
102
RTVSPost2010PropOp52
 70
     0
102
RTVSPost2010Prop53
 90
        2
102
RTVSPost2010PropOp53
 70
     1
102
RTVSPost2010Prop54
  1
strokes_ogs.tif
102
RTVSPost2010PropOp54
 70
     1
102
RTVSPost2010Prop55
280
     0
102
RTVSPost2010PropOp55
 70
     1
102
RTVSPost2010Prop56
140
1.0
102
RTVSPost2010PropOp56
 70
     1
102
RTVSPost2010Prop57
140
1.0
102
RTVSPost2010PropOp57
 70
     1
  0
XRECORD
  5
2C3
102
{ACAD_REACTORS
330
2C2
102
}
330
2C2
100
AcDbXrecord
280
     1
102
RTVSPropertyOp0
 70
     1
102
RTVSPropertyOp1
 70
     1
102
RTVSPropertyOp2
 70
     1
102
RTVSPropertyOp3
 70
     1
102
RTVSPropertyOp4
 70
     1
102
RTVSPropertyOp5
 70
     1
102
RTVSPropertyOp6
 70
     1
102
RTVSPropertyOp7
 70
     1
102
RTVSPropertyOp8
 70
     1
102
RTVSPropertyOp9
 70
     1
102
RTVSPropertyOp10
 70
     1
102
RTVSPropertyOp11
 70
     1
102
RTVSPropertyOp12
 70
     1
102
RTVSPropertyOp13
 70
     1
102
RTVSPropertyOp14
 70
     1
102
RTVSPropertyOp15
 70
     1
102
RTVSPropertyOp16
 70
     1
102
RTVSPropertyOp17
 70
     1
102
RTVSPropertyOp18
 70
     1
102
RTVSPropertyOp19
 70
     1
102
RTVSPropertyOp20
 70
     1
102
RTVSPropertyOp21
 70
     1
102
RTVSPropertyOp22
 70
     1
102
RTVSPropertyOp23
 70
     1
102
RTVSPropertyOp24
 70
     1
102
RTVSPropertyOp25
 70
     1
102
RTVSPropertyOp26
 70
     1
102
RTVSPropertyOp27
 70
     1
102
RTVSPropertyOp28
 70
     1
102
RTVSPropertyOp29
 70
     1
102
RTVSPropertyOp30
 70
     1
102
RTVSPropertyOp31
 70
     1
102
RTVSPropertyOp32
 70
     1
102
RTVSPropertyOp33
 70
     1
102
RTVSPropertyOp34
 70
     1
102
RTVSPropertyOp35
 70
     1
102
RTVSPropertyOp36
 70
     1
102
RTVSPropertyOp37
 70
     1
102
RTVSPropertyOp38
 70
     1
102
RTVSPropertyOp39
 70
     1
102
RTVSPropertyOp40
 70
     1
102
RTVSPropertyOp41
 70
     1
102
RTVSPropertyOp42
 70
     1
102
RTVSPropertyOp43
 70
     1
102
RTVSPropertyOp44
 70
     1
102
RTVSPropertyOp45
 70
     1
102
RTVSPropertyOp46
 70
     1
102
RTVSPropertyOp47
 70
     1
102
RTVSPropertyOp48
 70
     1
102
RTVSPropertyOp49
 70
     1
102
RTVSPropertyOp50
 70
     1
102
RTVSPropertyOp51
 70
     0
102
RTVSPropertyOp52
 70
     0
102
RTVSPropertyOp53
 70
     1
102
RTVSPropertyOp54
 70
     1
102
RTVSPropertyOp55
 70
     1
102
RTVSPropertyOp56
 70
     1
102
RTVSPropertyOp57
 70
     1
102
RTVSPost2010Prop28
280
     0
102
RTVSPost2010PropOp28
 70
     1
102
RTVSPost2010Prop29
280
     1
102
RTVSPost2010PropOp29
 70
     1
102
RTVSPost2010Prop30
280
     1
102
RTVSPost2010PropOp30
 70
     1
102
RTVSPost2010Prop31
280
     0
102
RTVSPost2010PropOp31
 70
     1
102
RTVSPost2010Prop32
280
     0
102
RTVSPost2010PropOp32
 70
     1
102
RTVSPost2010Prop33
280
     0
102
RTVSPost2010PropOp33
 70
     1
102
RTVSPost2010Prop34
280
     0
102
RTVSPost2010PropOp34
 70
     1
102
RTVSPost2010Prop35
280
     0
102
RTVSPost2010PropOp35
 70
     1
102
RTVSPost2010Prop36
280
     0
102
RTVSPost2010PropOp36
 70
     1
102
RTVSPost2010Prop37
 90
       50
102
RTVSPost2010PropOp37
 70
     1
102
RTVSPost2010Prop38
140
0.0
102
RTVSPost2010PropOp38
 70
     1
102
RTVSPost2010Prop39
140
1.0
102
RTVSPost2010PropOp39
 70
     1
102
RTVSPost2010Prop40
 90
        0
102
RTVSPost2010PropOp40
 70
     1
102
RTVSPost2010Prop41ColorIndex
 90
       18
102
RTVSPost2010Prop41ColorRGB
 90
        0
102
RTVSPost2010PropOp41
 70
     1
102
RTVSPost2010Prop42
 90
       50
102
RTVSPost2010PropOp42
 70
     1
102
RTVSPost2010Prop43
 90
        3
102
RTVSPost2010PropOp43
 70
     1
102
RTVSPost2010Prop44ColorIndex
 90
        5
102
RTVSPost2010Prop44ColorRGB
 90
      255
102
RTVSPost2010PropOp44
 70
     1
102
RTVSPost2010Prop45
280
     0
102
RTVSPost2010PropOp45
 70
     1
102
RTVSPost2010Prop46
 90
       50
102
RTVSPost2010PropOp46
 70
     1
102
RTVSPost2010Prop47
 90
       50
102
RTVSPost2010PropOp47
 70
     1
102
RTVSPost2010Prop48
 90
       50
102
RTVSPost2010PropOp48
 70
     1
102
RTVSPost2010Prop49
280
     0
102
RTVSPost2010PropOp49
 70
     1
102
RTVSPost2010Prop50
 90
       50
102
RTVSPost2010PropOp50
 70
     1
102
RTVSPost2010Prop51ColorIndex
 90
      256
102
RTVSPost2010Prop51ColorRGB
 90
-16777216
102
RTVSPost2010PropOp51
 70
     0
102
RTVSPost2010Prop52
140
1.0
102
RTVSPost2010PropOp52
 70
     0
102
RTVSPost2010Prop53
 90
        2
102
RTVSPost2010PropOp53
 70
     1
102
RTVSPost2010Prop54
  1
strokes_ogs.tif
102
RTVSPost2010PropOp54
 70
     1
102
RTVSPost2010Prop55
280
     0
102
RTVSPost2010PropOp55
 70
     1
102
RTVSPost2010Prop56
140
1.0
102
RTVSPost2010PropOp56
 70
     1
102
RTVSPost2010Prop57
140
1.0
102
RTVSPost2010PropOp57
 70
     1
  0
XRECORD
  5
2B7
102
{ACAD_REACTORS
330
2B6
102
}
330
2B6
100
AcDbXrecord
280
     1
102
RTVSPropertyOp0
 70
     1
102
RTVSPropertyOp1
 70
     1
102
RTVSPropertyOp2
 70
     1
102
RTVSPropertyOp3
 70
     1
102
RTVSPropertyOp4
 70
     1
102
RTVSPropertyOp5
 70
     1
102
RTVSPropertyOp6
 70
     1
102
RTVSPropertyOp7
 70
     1
102
RTVSPropertyOp8
 70
     1
102
RTVSPropertyOp9
 70
     1
102
RTVSPropertyOp10
 70
     1
102
RTVSPropertyOp11
 70
     1
102
RTVSPropertyOp12
 70
     1
102
RTVSPropertyOp13
 70
     1
102
RTVSPropertyOp14
 70
     1
102
RTVSPropertyOp15
 70
     1
102
RTVSPropertyOp16
 70
     1
102
RTVSPropertyOp17
 70
     1
102
RTVSPropertyOp18
 70
     1
102
RTVSPropertyOp19
 70
     1
102
RTVSPropertyOp20
 70
     1
102
RTVSPropertyOp21
 70
     1
102
RTVSPropertyOp22
 70
     1
102
RTVSPropertyOp23
 70
     1
102
RTVSPropertyOp24
 70
     1
102
RTVSPropertyOp25
 70
     1
102
RTVSPropertyOp26
 70
     1
102
RTVSPropertyOp27
 70
     1
102
RTVSPropertyOp28
 70
     1
102
RTVSPropertyOp29
 70
     1
102
RTVSPropertyOp30
 70
     1
102
RTVSPropertyOp31
 70
     1
102
RTVSPropertyOp32
 70
     1
102
RTVSPropertyOp33
 70
     1
102
RTVSPropertyOp34
 70
     1
102
RTVSPropertyOp35
 70
     1
102
RTVSPropertyOp36
 70
     1
102
RTVSPropertyOp37
 70
     1
102
RTVSPropertyOp38
 70
     1
102
RTVSPropertyOp39
 70
     1
102
RTVSPropertyOp40
 70
     1
102
RTVSPropertyOp41
 70
     1
102
RTVSPropertyOp42
 70
     1
102
RTVSPropertyOp43
 70
     1
102
RTVSPropertyOp44
 70
     1
102
RTVSPropertyOp45
 70
     1
102
RTVSPropertyOp46
 70
     1
102
RTVSPropertyOp47
 70
     1
102
RTVSPropertyOp48
 70
     1
102
RTVSPropertyOp49
 70
     1
102
RTVSPropertyOp50
 70
     1
102
RTVSPropertyOp51
 70
     0
102
RTVSPropertyOp52
 70
     0
102
RTVSPropertyOp53
 70
     1
102
RTVSPropertyOp54
 70
     1
102
RTVSPropertyOp55
 70
     1
102
RTVSPropertyOp56
 70
     1
102
RTVSPropertyOp57
 70
     1
102
RTVSPost2010Prop28
280
     0
102
RTVSPost2010PropOp28
 70
     1
102
RTVSPost2010Prop29
280
     1
102
RTVSPost2010PropOp29
 70
     1
102
RTVSPost2010Prop30
280
     1
102
RTVSPost2010PropOp30
 70
     1
102
RTVSPost2010Prop31
280
     0
102
RTVSPost2010PropOp31
 70
     1
102
RTVSPost2010Prop32
280
     0
102
RTVSPost2010PropOp32
 70
     1
102
RTVSPost2010Prop33
280
     0
102
RTVSPost2010PropOp33
 70
     1
102
RTVSPost2010Prop34
280
     0
102
RTVSPost2010PropOp34
 70
     1
102
RTVSPost2010Prop35
280
     0
102
RTVSPost2010PropOp35
 70
     1
102
RTVSPost2010Prop36
280
     0
102
RTVSPost2010PropOp36
 70
     1
102
RTVSPost2010Prop37
 90
       50
102
RTVSPost2010PropOp37
 70
     1
102
RTVSPost2010Prop38
140
0.0
102
RTVSPost2010PropOp38
 70
     1
102
RTVSPost2010Prop39
140
1.0
102
RTVSPost2010PropOp39
 70
     1
102
RTVSPost2010Prop40
 90
        0
102
RTVSPost2010PropOp40
 70
     1
102
RTVSPost2010Prop41ColorIndex
 90
       18
102
RTVSPost2010Prop41ColorRGB
 90
        0
102
RTVSPost2010PropOp41
 70
     1
102
RTVSPost2010Prop42
 90
       50
102
RTVSPost2010PropOp42
 70
     1
102
RTVSPost2010Prop43
 90
        3
102
RTVSPost2010PropOp43
 70
     1
102
RTVSPost2010Prop44ColorIndex
 90
        5
102
RTVSPost2010Prop44ColorRGB
 90
      255
102
RTVSPost2010PropOp44
 70
     1
102
RTVSPost2010Prop45
280
     0
102
RTVSPost2010PropOp45
 70
     1
102
RTVSPost2010Prop46
 90
       50
102
RTVSPost2010PropOp46
 70
     1
102
RTVSPost2010Prop47
 90
       50
102
RTVSPost2010PropOp47
 70
     1
102
RTVSPost2010Prop48
 90
       50
102
RTVSPost2010PropOp48
 70
     1
102
RTVSPost2010Prop49
280
     0
102
RTVSPost2010PropOp49
 70
     1
102
RTVSPost2010Prop50
 90
       50
102
RTVSPost2010PropOp50
 70
     1
102
RTVSPost2010Prop51ColorIndex
 90
      256
102
RTVSPost2010Prop51ColorRGB
 90
-16777216
102
RTVSPost2010PropOp51
 70
     0
102
RTVSPost2010Prop52
140
1.0
102
RTVSPost2010PropOp52
 70
     0
102
RTVSPost2010Prop53
 90
        2
102
RTVSPost2010PropOp53
 70
     1
102
RTVSPost2010Prop54
  1
strokes_ogs.tif
102
RTVSPost2010PropOp54
 70
     1
102
RTVSPost2010Prop55
280
     0
102
RTVSPost2010PropOp55
 70
     1
102
RTVSPost2010Prop56
140
1.0
102
RTVSPost2010PropOp56
 70
     1
102
RTVSPost2010Prop57
140
1.0
102
RTVSPost2010PropOp57
 70
     1
  0
XRECORD
  5
2B9
102
{ACAD_REACTORS
330
2B8
102
}
330
2B8
100
AcDbXrecord
280
     1
102
RTVSPropertyOp0
 70
     1
102
RTVSPropertyOp1
 70
     1
102
RTVSPropertyOp2
 70
     1
102
RTVSPropertyOp3
 70
     1
102
RTVSPropertyOp4
 70
     1
102
RTVSPropertyOp5
 70
     1
102
RTVSPropertyOp6
 70
     1
102
RTVSPropertyOp7
 70
     1
102
RTVSPropertyOp8
 70
     1
102
RTVSPropertyOp9
 70
     1
102
RTVSPropertyOp10
 70
     1
102
RTVSPropertyOp11
 70
     1
102
RTVSPropertyOp12
 70
     1
102
RTVSPropertyOp13
 70
     1
102
RTVSPropertyOp14
 70
     1
102
RTVSPropertyOp15
 70
     1
102
RTVSPropertyOp16
 70
     1
102
RTVSPropertyOp17
 70
     1
102
RTVSPropertyOp18
 70
     1
102
RTVSPropertyOp19
 70
     1
102
RTVSPropertyOp20
 70
     1
102
RTVSPropertyOp21
 70
     1
102
RTVSPropertyOp22
 70
     1
102
RTVSPropertyOp23
 70
     1
102
RTVSPropertyOp24
 70
     1
102
RTVSPropertyOp25
 70
     1
102
RTVSPropertyOp26
 70
     1
102
RTVSPropertyOp27
 70
     1
102
RTVSPropertyOp28
 70
     1
102
RTVSPropertyOp29
 70
     1
102
RTVSPropertyOp30
 70
     1
102
RTVSPropertyOp31
 70
     1
102
RTVSPropertyOp32
 70
     1
102
RTVSPropertyOp33
 70
     1
102
RTVSPropertyOp34
 70
     1
102
RTVSPropertyOp35
 70
     1
102
RTVSPropertyOp36
 70
     1
102
RTVSPropertyOp37
 70
     1
102
RTVSPropertyOp38
 70
     1
102
RTVSPropertyOp39
 70
     1
102
RTVSPropertyOp40
 70
     1
102
RTVSPropertyOp41
 70
     1
102
RTVSPropertyOp42
 70
     1
102
RTVSPropertyOp43
 70
     1
102
RTVSPropertyOp44
 70
     1
102
RTVSPropertyOp45
 70
     1
102
RTVSPropertyOp46
 70
     1
102
RTVSPropertyOp47
 70
     1
102
RTVSPropertyOp48
 70
     1
102
RTVSPropertyOp49
 70
     1
102
RTVSPropertyOp50
 70
     1
102
RTVSPropertyOp51
 70
     0
102
RTVSPropertyOp52
 70
     0
102
RTVSPropertyOp53
 70
     1
102
RTVSPropertyOp54
 70
     1
102
RTVSPropertyOp55
 70
     1
102
RTVSPropertyOp56
 70
     1
102
RTVSPropertyOp57
 70
     1
102
RTVSPost2010Prop28
280
     0
102
RTVSPost2010PropOp28
 70
     1
102
RTVSPost2010Prop29
280
     1
102
RTVSPost2010PropOp29
 70
     1
102
RTVSPost2010Prop30
280
     1
102
RTVSPost2010PropOp30
 70
     1
102
RTVSPost2010Prop31
280
     0
102
RTVSPost2010PropOp31
 70
     1
102
RTVSPost2010Prop32
280
     0
102
RTVSPost2010PropOp32
 70
     1
102
RTVSPost2010Prop33
280
     0
102
RTVSPost2010PropOp33
 70
     1
102
RTVSPost2010Prop34
280
     0
102
RTVSPost2010PropOp34
 70
     1
102
RTVSPost2010Prop35
280
     0
102
RTVSPost2010PropOp35
 70
     1
102
RTVSPost2010Prop36
280
     0
102
RTVSPost2010PropOp36
 70
     1
102
RTVSPost2010Prop37
 90
       50
102
RTVSPost2010PropOp37
 70
     1
102
RTVSPost2010Prop38
140
0.0
102
RTVSPost2010PropOp38
 70
     1
102
RTVSPost2010Prop39
140
1.0
102
RTVSPost2010PropOp39
 70
     1
102
RTVSPost2010Prop40
 90
        0
102
RTVSPost2010PropOp40
 70
     1
102
RTVSPost2010Prop41ColorIndex
 90
       18
102
RTVSPost2010Prop41ColorRGB
 90
        0
102
RTVSPost2010PropOp41
 70
     1
102
RTVSPost2010Prop42
 90
       50
102
RTVSPost2010PropOp42
 70
     1
102
RTVSPost2010Prop43
 90
        3
102
RTVSPost2010PropOp43
 70
     1
102
RTVSPost2010Prop44ColorIndex
 90
        5
102
RTVSPost2010Prop44ColorRGB
 90
      255
102
RTVSPost2010PropOp44
 70
     1
102
RTVSPost2010Prop45
280
     0
102
RTVSPost2010PropOp45
 70
     1
102
RTVSPost2010Prop46
 90
       50
102
RTVSPost2010PropOp46
 70
     1
102
RTVSPost2010Prop47
 90
       50
102
RTVSPost2010PropOp47
 70
     1
102
RTVSPost2010Prop48
 90
       50
102
RTVSPost2010PropOp48
 70
     1
102
RTVSPost2010Prop49
280
     0
102
RTVSPost2010PropOp49
 70
     1
102
RTVSPost2010Prop50
 90
       50
102
RTVSPost2010PropOp50
 70
     1
102
RTVSPost2010Prop51ColorIndex
 90
      256
102
RTVSPost2010Prop51ColorRGB
 90
-16777216
102
RTVSPost2010PropOp51
 70
     0
102
RTVSPost2010Prop52
140
1.0
102
RTVSPost2010PropOp52
 70
     0
102
RTVSPost2010Prop53
 90
        2
102
RTVSPost2010PropOp53
 70
     1
102
RTVSPost2010Prop54
  1
strokes_ogs.tif
102
RTVSPost2010PropOp54
 70
     1
102
RTVSPost2010Prop55
280
     0
102
RTVSPost2010PropOp55
 70
     1
102
RTVSPost2010Prop56
140
1.0
102
RTVSPost2010PropOp56
 70
     1
102
RTVSPost2010Prop57
140
1.0
102
RTVSPost2010PropOp57
 70
     1
  0
XRECORD
  5
2C9
102
{ACAD_REACTORS
330
2C8
102
}
330
2C8
100
AcDbXrecord
280
     1
102
RTVSPropertyOp0
 70
     0
102
RTVSPropertyOp1
 70
     0
102
RTVSPropertyOp2
 70
     0
102
RTVSPropertyOp3
 70
     0
102
RTVSPropertyOp4
 70
     0
102
RTVSPropertyOp5
 70
     0
102
RTVSPropertyOp6
 70
     0
102
RTVSPropertyOp7
 70
     0
102
RTVSPropertyOp8
 70
     0
102
RTVSPropertyOp9
 70
     0
102
RTVSPropertyOp10
 70
     0
102
RTVSPropertyOp11
 70
     0
102
RTVSPropertyOp12
 70
     0
102
RTVSPropertyOp13
 70
     0
102
RTVSPropertyOp14
 70
     2
102
RTVSPropertyOp15
 70
     0
102
RTVSPropertyOp16
 70
     0
102
RTVSPropertyOp17
 70
     0
102
RTVSPropertyOp18
 70
     0
102
RTVSPropertyOp19
 70
     0
102
RTVSPropertyOp20
 70
     0
102
RTVSPropertyOp21
 70
     0
102
RTVSPropertyOp22
 70
     0
102
RTVSPropertyOp23
 70
     0
102
RTVSPropertyOp24
 70
     0
102
RTVSPropertyOp25
 70
     0
102
RTVSPropertyOp26
 70
     0
102
RTVSPropertyOp27
 70
     0
102
RTVSPropertyOp28
 70
     0
102
RTVSPropertyOp29
 70
     0
102
RTVSPropertyOp30
 70
     0
102
RTVSPropertyOp31
 70
     0
102
RTVSPropertyOp32
 70
     0
102
RTVSPropertyOp33
 70
     0
102
RTVSPropertyOp34
 70
     0
102
RTVSPropertyOp35
 70
     0
102
RTVSPropertyOp36
 70
     0
102
RTVSPropertyOp37
 70
     0
102
RTVSPropertyOp38
 70
     0
102
RTVSPropertyOp39
 70
     0
102
RTVSPropertyOp40
 70
     0
102
RTVSPropertyOp41
 70
     0
102
RTVSPropertyOp42
 70
     0
102
RTVSPropertyOp43
 70
     0
102
RTVSPropertyOp44
 70
     0
102
RTVSPropertyOp45
 70
     0
102
RTVSPropertyOp46
 70
     0
102
RTVSPropertyOp47
 70
     0
102
RTVSPropertyOp48
 70
     0
102
RTVSPropertyOp49
 70
     0
102
RTVSPropertyOp50
 70
     0
102
RTVSPropertyOp51
 70
     0
102
RTVSPropertyOp52
 70
     0
102
RTVSPropertyOp53
 70
     0
102
RTVSPropertyOp54
 70
     0
102
RTVSPropertyOp55
 70
     0
102
RTVSPropertyOp56
 70
     0
102
RTVSPropertyOp57
 70
     0
102
RTVSPost2010Prop28
280
     0
102
RTVSPost2010PropOp28
 70
     0
102
RTVSPost2010Prop29
280
     1
102
RTVSPost2010PropOp29
 70
     0
102
RTVSPost2010Prop30
280
     1
102
RTVSPost2010PropOp30
 70
     0
102
RTVSPost2010Prop31
280
     0
102
RTVSPost2010PropOp31
 70
     0
102
RTVSPost2010Prop32
280
     0
102
RTVSPost2010PropOp32
 70
     0
102
RTVSPost2010Prop33
280
     0
102
RTVSPost2010PropOp33
 70
     0
102
RTVSPost2010Prop34
280
     0
102
RTVSPost2010PropOp34
 70
     0
102
RTVSPost2010Prop35
280
     0
102
RTVSPost2010PropOp35
 70
     0
102
RTVSPost2010Prop36
280
     0
102
RTVSPost2010PropOp36
 70
     0
102
RTVSPost2010Prop37
 90
       50
102
RTVSPost2010PropOp37
 70
     0
102
RTVSPost2010Prop38
140
0.0
102
RTVSPost2010PropOp38
 70
     0
102
RTVSPost2010Prop39
140
1.0
102
RTVSPost2010PropOp39
 70
     0
102
RTVSPost2010Prop40
 90
        0
102
RTVSPost2010PropOp40
 70
     0
102
RTVSPost2010Prop41ColorIndex
 90
       18
102
RTVSPost2010Prop41ColorRGB
 90
        0
102
RTVSPost2010PropOp41
 70
     0
102
RTVSPost2010Prop42
 90
       50
102
RTVSPost2010PropOp42
 70
     0
102
RTVSPost2010Prop43
 90
        3
102
RTVSPost2010PropOp43
 70
     0
102
RTVSPost2010Prop44ColorIndex
 90
        5
102
RTVSPost2010Prop44ColorRGB
 90
      255
102
RTVSPost2010PropOp44
 70
     0
102
RTVSPost2010Prop45
280
     0
102
RTVSPost2010PropOp45
 70
     0
102
RTVSPost2010Prop46
 90
       50
102
RTVSPost2010PropOp46
 70
     0
102
RTVSPost2010Prop47
 90
       50
102
RTVSPost2010PropOp47
 70
     0
102
RTVSPost2010Prop48
 90
       50
102
RTVSPost2010PropOp48
 70
     0
102
RTVSPost2010Prop49
280
     0
102
RTVSPost2010PropOp49
 70
     0
102
RTVSPost2010Prop50
 90
       50
102
RTVSPost2010PropOp50
 70
     0
102
RTVSPost2010Prop51ColorIndex
 90
      256
102
RTVSPost2010Prop51ColorRGB
 90
-16777216
102
RTVSPost2010PropOp51
 70
     0
102
RTVSPost2010Prop52
140
1.0
102
RTVSPost2010PropOp52
 70
     0
102
RTVSPost2010Prop53
 90
        2
102
RTVSPost2010PropOp53
 70
     0
102
RTVSPost2010Prop54
  1
strokes_ogs.tif
102
RTVSPost2010PropOp54
 70
     0
102
RTVSPost2010Prop55
280
     0
102
RTVSPost2010PropOp55
 70
     0
102
RTVSPost2010Prop56
140
1.0
102
RTVSPost2010PropOp56
 70
     0
102
RTVSPost2010Prop57
140
1.0
102
RTVSPost2010PropOp57
 70
     0
  0
XRECORD
  5
2C1
102
{ACAD_REACTORS
330
2C0
102
}
330
2C0
100
AcDbXrecord
280
     1
102
RTVSPropertyOp0
 70
     1
102
RTVSPropertyOp1
 70
     1
102
RTVSPropertyOp2
 70
     1
102
RTVSPropertyOp3
 70
     1
102
RTVSPropertyOp4
 70
     1
102
RTVSPropertyOp5
 70
     1
102
RTVSPropertyOp6
 70
     1
102
RTVSPropertyOp7
 70
     1
102
RTVSPropertyOp8
 70
     1
102
RTVSPropertyOp9
 70
     1
102
RTVSPropertyOp10
 70
     1
102
RTVSPropertyOp11
 70
     1
102
RTVSPropertyOp12
 70
     1
102
RTVSPropertyOp13
 70
     1
102
RTVSPropertyOp14
 70
     1
102
RTVSPropertyOp15
 70
     1
102
RTVSPropertyOp16
 70
     1
102
RTVSPropertyOp17
 70
     1
102
RTVSPropertyOp18
 70
     1
102
RTVSPropertyOp19
 70
     1
102
RTVSPropertyOp20
 70
     1
102
RTVSPropertyOp21
 70
     1
102
RTVSPropertyOp22
 70
     1
102
RTVSPropertyOp23
 70
     1
102
RTVSPropertyOp24
 70
     1
102
RTVSPropertyOp25
 70
     1
102
RTVSPropertyOp26
 70
     1
102
RTVSPropertyOp27
 70
     1
102
RTVSPropertyOp28
 70
     1
102
RTVSPropertyOp29
 70
     1
102
RTVSPropertyOp30
 70
     1
102
RTVSPropertyOp31
 70
     1
102
RTVSPropertyOp32
 70
     1
102
RTVSPropertyOp33
 70
     1
102
RTVSPropertyOp34
 70
     1
102
RTVSPropertyOp35
 70
     1
102
RTVSPropertyOp36
 70
     1
102
RTVSPropertyOp37
 70
     1
102
RTVSPropertyOp38
 70
     1
102
RTVSPropertyOp39
 70
     1
102
RTVSPropertyOp40
 70
     1
102
RTVSPropertyOp41
 70
     1
102
RTVSPropertyOp42
 70
     1
102
RTVSPropertyOp43
 70
     1
102
RTVSPropertyOp44
 70
     1
102
RTVSPropertyOp45
 70
     1
102
RTVSPropertyOp46
 70
     1
102
RTVSPropertyOp47
 70
     1
102
RTVSPropertyOp48
 70
     1
102
RTVSPropertyOp49
 70
     1
102
RTVSPropertyOp50
 70
     1
102
RTVSPropertyOp51
 70
     0
102
RTVSPropertyOp52
 70
     0
102
RTVSPropertyOp53
 70
     1
102
RTVSPropertyOp54
 70
     1
102
RTVSPropertyOp55
 70
     1
102
RTVSPropertyOp56
 70
     1
102
RTVSPropertyOp57
 70
     1
102
RTVSPost2010Prop28
280
     0
102
RTVSPost2010PropOp28
 70
     1
102
RTVSPost2010Prop29
280
     1
102
RTVSPost2010PropOp29
 70
     1
102
RTVSPost2010Prop30
280
     1
102
RTVSPost2010PropOp30
 70
     1
102
RTVSPost2010Prop31
280
     0
102
RTVSPost2010PropOp31
 70
     1
102
RTVSPost2010Prop32
280
     0
102
RTVSPost2010PropOp32
 70
     1
102
RTVSPost2010Prop33
280
     0
102
RTVSPost2010PropOp33
 70
     1
102
RTVSPost2010Prop34
280
     0
102
RTVSPost2010PropOp34
 70
     1
102
RTVSPost2010Prop35
280
     0
102
RTVSPost2010PropOp35
 70
     1
102
RTVSPost2010Prop36
280
     0
102
RTVSPost2010PropOp36
 70
     1
102
RTVSPost2010Prop37
 90
       50
102
RTVSPost2010PropOp37
 70
     1
102
RTVSPost2010Prop38
140
0.0
102
RTVSPost2010PropOp38
 70
     1
102
RTVSPost2010Prop39
140
1.0
102
RTVSPost2010PropOp39
 70
     1
102
RTVSPost2010Prop40
 90
        0
102
RTVSPost2010PropOp40
 70
     1
102
RTVSPost2010Prop41ColorIndex
 90
       18
102
RTVSPost2010Prop41ColorRGB
 90
        0
102
RTVSPost2010PropOp41
 70
     1
102
RTVSPost2010Prop42
 90
       50
102
RTVSPost2010PropOp42
 70
     1
102
RTVSPost2010Prop43
 90
        3
102
RTVSPost2010PropOp43
 70
     1
102
RTVSPost2010Prop44ColorIndex
 90
        5
102
RTVSPost2010Prop44ColorRGB
 90
      255
102
RTVSPost2010PropOp44
 70
     1
102
RTVSPost2010Prop45
280
     0
102
RTVSPost2010PropOp45
 70
     1
102
RTVSPost2010Prop46
 90
       50
102
RTVSPost2010PropOp46
 70
     1
102
RTVSPost2010Prop47
 90
       50
102
RTVSPost2010PropOp47
 70
     1
102
RTVSPost2010Prop48
 90
       50
102
RTVSPost2010PropOp48
 70
     1
102
RTVSPost2010Prop49
280
     0
102
RTVSPost2010PropOp49
 70
     1
102
RTVSPost2010Prop50
 90
       50
102
RTVSPost2010PropOp50
 70
     1
102
RTVSPost2010Prop51ColorIndex
 90
      256
102
RTVSPost2010Prop51ColorRGB
 90
-16777216
102
RTVSPost2010PropOp51
 70
     0
102
RTVSPost2010Prop52
140
1.0
102
RTVSPost2010PropOp52
 70
     0
102
RTVSPost2010Prop53
 90
        2
102
RTVSPost2010PropOp53
 70
     1
102
RTVSPost2010Prop54
  1
strokes_ogs.tif
102
RTVSPost2010PropOp54
 70
     1
102
RTVSPost2010Prop55
280
     0
102
RTVSPost2010PropOp55
 70
     1
102
RTVSPost2010Prop56
140
1.0
102
RTVSPost2010PropOp56
 70
     1
102
RTVSPost2010Prop57
140
1.0
102
RTVSPost2010PropOp57
 70
     1
  0
XRECORD
  5
2A5
102
{ACAD_REACTORS
330
2A4
102
}
330
2A4
100
AcDbXrecord
280
     1
102
RTVSPropertyOp0
 70
     1
102
RTVSPropertyOp1
 70
     1
102
RTVSPropertyOp2
 70
     1
102
RTVSPropertyOp3
 70
     1
102
RTVSPropertyOp4
 70
     1
102
RTVSPropertyOp5
 70
     1
102
RTVSPropertyOp6
 70
     1
102
RTVSPropertyOp7
 70
     1
102
RTVSPropertyOp8
 70
     1
102
RTVSPropertyOp9
 70
     1
102
RTVSPropertyOp10
 70
     1
102
RTVSPropertyOp11
 70
     1
102
RTVSPropertyOp12
 70
     1
102
RTVSPropertyOp13
 70
     1
102
RTVSPropertyOp14
 70
     1
102
RTVSPropertyOp15
 70
     1
102
RTVSPropertyOp16
 70
     1
102
RTVSPropertyOp17
 70
     1
102
RTVSPropertyOp18
 70
     1
102
RTVSPropertyOp19
 70
     1
102
RTVSPropertyOp20
 70
     1
102
RTVSPropertyOp21
 70
     1
102
RTVSPropertyOp22
 70
     1
102
RTVSPropertyOp23
 70
     1
102
RTVSPropertyOp24
 70
     1
102
RTVSPropertyOp25
 70
     1
102
RTVSPropertyOp26
 70
     1
102
RTVSPropertyOp27
 70
     1
102
RTVSPropertyOp28
 70
     1
102
RTVSPropertyOp29
 70
     1
102
RTVSPropertyOp30
 70
     1
102
RTVSPropertyOp31
 70
     1
102
RTVSPropertyOp32
 70
     1
102
RTVSPropertyOp33
 70
     1
102
RTVSPropertyOp34
 70
     1
102
RTVSPropertyOp35
 70
     1
102
RTVSPropertyOp36
 70
     1
102
RTVSPropertyOp37
 70
     1
102
RTVSPropertyOp38
 70
     1
102
RTVSPropertyOp39
 70
     1
102
RTVSPropertyOp40
 70
     1
102
RTVSPropertyOp41
 70
     1
102
RTVSPropertyOp42
 70
     1
102
RTVSPropertyOp43
 70
     1
102
RTVSPropertyOp44
 70
     1
102
RTVSPropertyOp45
 70
     1
102
RTVSPropertyOp46
 70
     1
102
RTVSPropertyOp47
 70
     1
102
RTVSPropertyOp48
 70
     1
102
RTVSPropertyOp49
 70
     1
102
RTVSPropertyOp50
 70
     1
102
RTVSPropertyOp51
 70
     0
102
RTVSPropertyOp52
 70
     0
102
RTVSPropertyOp53
 70
     1
102
RTVSPropertyOp54
 70
     1
102
RTVSPropertyOp55
 70
     1
102
RTVSPropertyOp56
 70
     1
102
RTVSPropertyOp57
 70
     1
102
RTVSPost2010Prop28
280
     0
102
RTVSPost2010PropOp28
 70
     1
102
RTVSPost2010Prop29
280
     1
102
RTVSPost2010PropOp29
 70
     1
102
RTVSPost2010Prop30
280
     1
102
RTVSPost2010PropOp30
 70
     1
102
RTVSPost2010Prop31
280
     0
102
RTVSPost2010PropOp31
 70
     1
102
RTVSPost2010Prop32
280
     0
102
RTVSPost2010PropOp32
 70
     1
102
RTVSPost2010Prop33
280
     0
102
RTVSPost2010PropOp33
 70
     1
102
RTVSPost2010Prop34
280
     0
102
RTVSPost2010PropOp34
 70
     1
102
RTVSPost2010Prop35
280
     0
102
RTVSPost2010PropOp35
 70
     1
102
RTVSPost2010Prop36
280
     0
102
RTVSPost2010PropOp36
 70
     1
102
RTVSPost2010Prop37
 90
       50
102
RTVSPost2010PropOp37
 70
     1
102
RTVSPost2010Prop38
140
0.0
102
RTVSPost2010PropOp38
 70
     1
102
RTVSPost2010Prop39
140
1.0
102
RTVSPost2010PropOp39
 70
     1
102
RTVSPost2010Prop40
 90
        0
102
RTVSPost2010PropOp40
 70
     1
102
RTVSPost2010Prop41ColorIndex
 90
       18
102
RTVSPost2010Prop41ColorRGB
 90
        0
102
RTVSPost2010PropOp41
 70
     1
102
RTVSPost2010Prop42
 90
       50
102
RTVSPost2010PropOp42
 70
     1
102
RTVSPost2010Prop43
 90
        3
102
RTVSPost2010PropOp43
 70
     1
102
RTVSPost2010Prop44ColorIndex
 90
        5
102
RTVSPost2010Prop44ColorRGB
 90
      255
102
RTVSPost2010PropOp44
 70
     1
102
RTVSPost2010Prop45
280
     0
102
RTVSPost2010PropOp45
 70
     1
102
RTVSPost2010Prop46
 90
       50
102
RTVSPost2010PropOp46
 70
     1
102
RTVSPost2010Prop47
 90
       50
102
RTVSPost2010PropOp47
 70
     1
102
RTVSPost2010Prop48
 90
       50
102
RTVSPost2010PropOp48
 70
     1
102
RTVSPost2010Prop49
280
     0
102
RTVSPost2010PropOp49
 70
     1
102
RTVSPost2010Prop50
 90
       50
102
RTVSPost2010PropOp50
 70
     1
102
RTVSPost2010Prop51ColorIndex
 90
      256
102
RTVSPost2010Prop51ColorRGB
 90
-16777216
102
RTVSPost2010PropOp51
 70
     0
102
RTVSPost2010Prop52
140
1.0
102
RTVSPost2010PropOp52
 70
     0
102
RTVSPost2010Prop53
 90
        2
102
RTVSPost2010PropOp53
 70
     1
102
RTVSPost2010Prop54
  1
strokes_ogs.tif
102
RTVSPost2010PropOp54
 70
     1
102
RTVSPost2010Prop55
280
     0
102
RTVSPost2010PropOp55
 70
     1
102
RTVSPost2010Prop56
140
1.0
102
RTVSPost2010PropOp56
 70
     1
102
RTVSPost2010Prop57
140
1.0
102
RTVSPost2010PropOp57
 70
     1
  0
XRECORD
  5
2A7
102
{ACAD_REACTORS
330
2A6
102
}
330
2A6
100
AcDbXrecord
280
     1
102
RTVSPropertyOp0
 70
     1
102
RTVSPropertyOp1
 70
     1
102
RTVSPropertyOp2
 70
     1
102
RTVSPropertyOp3
 70
     1
102
RTVSPropertyOp4
 70
     1
102
RTVSPropertyOp5
 70
     1
102
RTVSPropertyOp6
 70
     1
102
RTVSPropertyOp7
 70
     1
102
RTVSPropertyOp8
 70
     1
102
RTVSPropertyOp9
 70
     1
102
RTVSPropertyOp10
 70
     1
102
RTVSPropertyOp11
 70
     1
102
RTVSPropertyOp12
 70
     1
102
RTVSPropertyOp13
 70
     1
102
RTVSPropertyOp14
 70
     1
102
RTVSPropertyOp15
 70
     1
102
RTVSPropertyOp16
 70
     1
102
RTVSPropertyOp17
 70
     1
102
RTVSPropertyOp18
 70
     1
102
RTVSPropertyOp19
 70
     1
102
RTVSPropertyOp20
 70
     1
102
RTVSPropertyOp21
 70
     1
102
RTVSPropertyOp22
 70
     1
102
RTVSPropertyOp23
 70
     1
102
RTVSPropertyOp24
 70
     1
102
RTVSPropertyOp25
 70
     1
102
RTVSPropertyOp26
 70
     1
102
RTVSPropertyOp27
 70
     1
102
RTVSPropertyOp28
 70
     1
102
RTVSPropertyOp29
 70
     1
102
RTVSPropertyOp30
 70
     1
102
RTVSPropertyOp31
 70
     1
102
RTVSPropertyOp32
 70
     1
102
RTVSPropertyOp33
 70
     1
102
RTVSPropertyOp34
 70
     1
102
RTVSPropertyOp35
 70
     1
102
RTVSPropertyOp36
 70
     1
102
RTVSPropertyOp37
 70
     1
102
RTVSPropertyOp38
 70
     1
102
RTVSPropertyOp39
 70
     1
102
RTVSPropertyOp40
 70
     1
102
RTVSPropertyOp41
 70
     1
102
RTVSPropertyOp42
 70
     1
102
RTVSPropertyOp43
 70
     1
102
RTVSPropertyOp44
 70
     1
102
RTVSPropertyOp45
 70
     1
102
RTVSPropertyOp46
 70
     1
102
RTVSPropertyOp47
 70
     1
102
RTVSPropertyOp48
 70
     1
102
RTVSPropertyOp49
 70
     1
102
RTVSPropertyOp50
 70
     1
102
RTVSPropertyOp51
 70
     0
102
RTVSPropertyOp52
 70
     0
102
RTVSPropertyOp53
 70
     1
102
RTVSPropertyOp54
 70
     1
102
RTVSPropertyOp55
 70
     1
102
RTVSPropertyOp56
 70
     1
102
RTVSPropertyOp57
 70
     1
102
RTVSPost2010Prop28
280
     0
102
RTVSPost2010PropOp28
 70
     1
102
RTVSPost2010Prop29
280
     1
102
RTVSPost2010PropOp29
 70
     1
102
RTVSPost2010Prop30
280
     1
102
RTVSPost2010PropOp30
 70
     1
102
RTVSPost2010Prop31
280
     0
102
RTVSPost2010PropOp31
 70
     1
102
RTVSPost2010Prop32
280
     0
102
RTVSPost2010PropOp32
 70
     1
102
RTVSPost2010Prop33
280
     0
102
RTVSPost2010PropOp33
 70
     1
102
RTVSPost2010Prop34
280
     0
102
RTVSPost2010PropOp34
 70
     1
102
RTVSPost2010Prop35
280
     0
102
RTVSPost2010PropOp35
 70
     1
102
RTVSPost2010Prop36
280
     0
102
RTVSPost2010PropOp36
 70
     1
102
RTVSPost2010Prop37
 90
       50
102
RTVSPost2010PropOp37
 70
     1
102
RTVSPost2010Prop38
140
0.0
102
RTVSPost2010PropOp38
 70
     1
102
RTVSPost2010Prop39
140
1.0
102
RTVSPost2010PropOp39
 70
     1
102
RTVSPost2010Prop40
 90
        0
102
RTVSPost2010PropOp40
 70
     1
102
RTVSPost2010Prop41ColorIndex
 90
       18
102
RTVSPost2010Prop41ColorRGB
 90
        0
102
RTVSPost2010PropOp41
 70
     1
102
RTVSPost2010Prop42
 90
       50
102
RTVSPost2010PropOp42
 70
     1
102
RTVSPost2010Prop43
 90
        3
102
RTVSPost2010PropOp43
 70
     1
102
RTVSPost2010Prop44ColorIndex
 90
        5
102
RTVSPost2010Prop44ColorRGB
 90
      255
102
RTVSPost2010PropOp44
 70
     1
102
RTVSPost2010Prop45
280
     0
102
RTVSPost2010PropOp45
 70
     1
102
RTVSPost2010Prop46
 90
       50
102
RTVSPost2010PropOp46
 70
     1
102
RTVSPost2010Prop47
 90
       50
102
RTVSPost2010PropOp47
 70
     1
102
RTVSPost2010Prop48
 90
       50
102
RTVSPost2010PropOp48
 70
     1
102
RTVSPost2010Prop49
280
     0
102
RTVSPost2010PropOp49
 70
     1
102
RTVSPost2010Prop50
 90
       50
102
RTVSPost2010PropOp50
 70
     1
102
RTVSPost2010Prop51ColorIndex
 90
      256
102
RTVSPost2010Prop51ColorRGB
 90
-16777216
102
RTVSPost2010PropOp51
 70
     0
102
RTVSPost2010Prop52
140
1.0
102
RTVSPost2010PropOp52
 70
     0
102
RTVSPost2010Prop53
 90
        2
102
RTVSPost2010PropOp53
 70
     1
102
RTVSPost2010Prop54
  1
strokes_ogs.tif
102
RTVSPost2010PropOp54
 70
     1
102
RTVSPost2010Prop55
280
     0
102
RTVSPost2010PropOp55
 70
     1
102
RTVSPost2010Prop56
140
1.0
102
RTVSPost2010PropOp56
 70
     1
102
RTVSPost2010Prop57
140
1.0
102
RTVSPost2010PropOp57
 70
     1
  0
XRECORD
  5
2A9
102
{ACAD_REACTORS
330
2A8
102
}
330
2A8
100
AcDbXrecord
280
     1
102
RTVSPropertyOp0
 70
     1
102
RTVSPropertyOp1
 70
     1
102
RTVSPropertyOp2
 70
     1
102
RTVSPropertyOp3
 70
     1
102
RTVSPropertyOp4
 70
     1
102
RTVSPropertyOp5
 70
     1
102
RTVSPropertyOp6
 70
     1
102
RTVSPropertyOp7
 70
     1
102
RTVSPropertyOp8
 70
     1
102
RTVSPropertyOp9
 70
     1
102
RTVSPropertyOp10
 70
     1
102
RTVSPropertyOp11
 70
     1
102
RTVSPropertyOp12
 70
     1
102
RTVSPropertyOp13
 70
     1
102
RTVSPropertyOp14
 70
     1
102
RTVSPropertyOp15
 70
     1
102
RTVSPropertyOp16
 70
     1
102
RTVSPropertyOp17
 70
     1
102
RTVSPropertyOp18
 70
     1
102
RTVSPropertyOp19
 70
     1
102
RTVSPropertyOp20
 70
     1
102
RTVSPropertyOp21
 70
     1
102
RTVSPropertyOp22
 70
     1
102
RTVSPropertyOp23
 70
     1
102
RTVSPropertyOp24
 70
     1
102
RTVSPropertyOp25
 70
     1
102
RTVSPropertyOp26
 70
     1
102
RTVSPropertyOp27
 70
     1
102
RTVSPropertyOp28
 70
     1
102
RTVSPropertyOp29
 70
     1
102
RTVSPropertyOp30
 70
     1
102
RTVSPropertyOp31
 70
     1
102
RTVSPropertyOp32
 70
     1
102
RTVSPropertyOp33
 70
     1
102
RTVSPropertyOp34
 70
     1
102
RTVSPropertyOp35
 70
     1
102
RTVSPropertyOp36
 70
     1
102
RTVSPropertyOp37
 70
     1
102
RTVSPropertyOp38
 70
     1
102
RTVSPropertyOp39
 70
     1
102
RTVSPropertyOp40
 70
     1
102
RTVSPropertyOp41
 70
     1
102
RTVSPropertyOp42
 70
     1
102
RTVSPropertyOp43
 70
     1
102
RTVSPropertyOp44
 70
     1
102
RTVSPropertyOp45
 70
     1
102
RTVSPropertyOp46
 70
     1
102
RTVSPropertyOp47
 70
     1
102
RTVSPropertyOp48
 70
     1
102
RTVSPropertyOp49
 70
     1
102
RTVSPropertyOp50
 70
     1
102
RTVSPropertyOp51
 70
     0
102
RTVSPropertyOp52
 70
     0
102
RTVSPropertyOp53
 70
     1
102
RTVSPropertyOp54
 70
     1
102
RTVSPropertyOp55
 70
     1
102
RTVSPropertyOp56
 70
     1
102
RTVSPropertyOp57
 70
     1
102
RTVSPost2010Prop28
280
     0
102
RTVSPost2010PropOp28
 70
     1
102
RTVSPost2010Prop29
280
     1
102
RTVSPost2010PropOp29
 70
     1
102
RTVSPost2010Prop30
280
     1
102
RTVSPost2010PropOp30
 70
     1
102
RTVSPost2010Prop31
280
     0
102
RTVSPost2010PropOp31
 70
     1
102
RTVSPost2010Prop32
280
     0
102
RTVSPost2010PropOp32
 70
     1
102
RTVSPost2010Prop33
280
     0
102
RTVSPost2010PropOp33
 70
     1
102
RTVSPost2010Prop34
280
     0
102
RTVSPost2010PropOp34
 70
     1
102
RTVSPost2010Prop35
280
     0
102
RTVSPost2010PropOp35
 70
     1
102
RTVSPost2010Prop36
280
     0
102
RTVSPost2010PropOp36
 70
     1
102
RTVSPost2010Prop37
 90
       50
102
RTVSPost2010PropOp37
 70
     1
102
RTVSPost2010Prop38
140
0.0
102
RTVSPost2010PropOp38
 70
     1
102
RTVSPost2010Prop39
140
1.0
102
RTVSPost2010PropOp39
 70
     1
102
RTVSPost2010Prop40
 90
        0
102
RTVSPost2010PropOp40
 70
     1
102
RTVSPost2010Prop41ColorIndex
 90
       18
102
RTVSPost2010Prop41ColorRGB
 90
        0
102
RTVSPost2010PropOp41
 70
     1
102
RTVSPost2010Prop42
 90
       50
102
RTVSPost2010PropOp42
 70
     1
102
RTVSPost2010Prop43
 90
        3
102
RTVSPost2010PropOp43
 70
     1
102
RTVSPost2010Prop44ColorIndex
 90
        5
102
RTVSPost2010Prop44ColorRGB
 90
      255
102
RTVSPost2010PropOp44
 70
     1
102
RTVSPost2010Prop45
280
     0
102
RTVSPost2010PropOp45
 70
     1
102
RTVSPost2010Prop46
 90
       50
102
RTVSPost2010PropOp46
 70
     1
102
RTVSPost2010Prop47
 90
       50
102
RTVSPost2010PropOp47
 70
     1
102
RTVSPost2010Prop48
 90
       50
102
RTVSPost2010PropOp48
 70
     1
102
RTVSPost2010Prop49
280
     0
102
RTVSPost2010PropOp49
 70
     1
102
RTVSPost2010Prop50
 90
       50
102
RTVSPost2010PropOp50
 70
     1
102
RTVSPost2010Prop51ColorIndex
 90
      256
102
RTVSPost2010Prop51ColorRGB
 90
-16777216
102
RTVSPost2010PropOp51
 70
     0
102
RTVSPost2010Prop52
140
1.0
102
RTVSPost2010PropOp52
 70
     0
102
RTVSPost2010Prop53
 90
        2
102
RTVSPost2010PropOp53
 70
     1
102
RTVSPost2010Prop54
  1
strokes_ogs.tif
102
RTVSPost2010PropOp54
 70
     1
102
RTVSPost2010Prop55
280
     0
102
RTVSPost2010PropOp55
 70
     1
102
RTVSPost2010Prop56
140
1.0
102
RTVSPost2010PropOp56
 70
     1
102
RTVSPost2010Prop57
140
1.0
102
RTVSPost2010PropOp57
 70
     1
  0
XRECORD
  5
2AB
102
{ACAD_REACTORS
330
2AA
102
}
330
2AA
100
AcDbXrecord
280
     1
102
RTVSPropertyOp0
 70
     1
102
RTVSPropertyOp1
 70
     1
102
RTVSPropertyOp2
 70
     1
102
RTVSPropertyOp3
 70
     1
102
RTVSPropertyOp4
 70
     1
102
RTVSPropertyOp5
 70
     1
102
RTVSPropertyOp6
 70
     1
102
RTVSPropertyOp7
 70
     1
102
RTVSPropertyOp8
 70
     1
102
RTVSPropertyOp9
 70
     1
102
RTVSPropertyOp10
 70
     1
102
RTVSPropertyOp11
 70
     1
102
RTVSPropertyOp12
 70
     1
102
RTVSPropertyOp13
 70
     1
102
RTVSPropertyOp14
 70
     1
102
RTVSPropertyOp15
 70
     1
102
RTVSPropertyOp16
 70
     1
102
RTVSPropertyOp17
 70
     1
102
RTVSPropertyOp18
 70
     1
102
RTVSPropertyOp19
 70
     1
102
RTVSPropertyOp20
 70
     1
102
RTVSPropertyOp21
 70
     1
102
RTVSPropertyOp22
 70
     1
102
RTVSPropertyOp23
 70
     1
102
RTVSPropertyOp24
 70
     1
102
RTVSPropertyOp25
 70
     1
102
RTVSPropertyOp26
 70
     1
102
RTVSPropertyOp27
 70
     1
102
RTVSPropertyOp28
 70
     1
102
RTVSPropertyOp29
 70
     1
102
RTVSPropertyOp30
 70
     1
102
RTVSPropertyOp31
 70
     1
102
RTVSPropertyOp32
 70
     1
102
RTVSPropertyOp33
 70
     1
102
RTVSPropertyOp34
 70
     1
102
RTVSPropertyOp35
 70
     1
102
RTVSPropertyOp36
 70
     1
102
RTVSPropertyOp37
 70
     1
102
RTVSPropertyOp38
 70
     1
102
RTVSPropertyOp39
 70
     1
102
RTVSPropertyOp40
 70
     1
102
RTVSPropertyOp41
 70
     1
102
RTVSPropertyOp42
 70
     1
102
RTVSPropertyOp43
 70
     1
102
RTVSPropertyOp44
 70
     1
102
RTVSPropertyOp45
 70
     1
102
RTVSPropertyOp46
 70
     1
102
RTVSPropertyOp47
 70
     1
102
RTVSPropertyOp48
 70
     1
102
RTVSPropertyOp49
 70
     1
102
RTVSPropertyOp50
 70
     1
102
RTVSPropertyOp51
 70
     0
102
RTVSPropertyOp52
 70
     0
102
RTVSPropertyOp53
 70
     1
102
RTVSPropertyOp54
 70
     1
102
RTVSPropertyOp55
 70
     1
102
RTVSPropertyOp56
 70
     1
102
RTVSPropertyOp57
 70
     1
102
RTVSPost2010Prop28
280
     0
102
RTVSPost2010PropOp28
 70
     1
102
RTVSPost2010Prop29
280
     1
102
RTVSPost2010PropOp29
 70
     1
102
RTVSPost2010Prop30
280
     1
102
RTVSPost2010PropOp30
 70
     1
102
RTVSPost2010Prop31
280
     0
102
RTVSPost2010PropOp31
 70
     1
102
RTVSPost2010Prop32
280
     0
102
RTVSPost2010PropOp32
 70
     1
102
RTVSPost2010Prop33
280
     0
102
RTVSPost2010PropOp33
 70
     1
102
RTVSPost2010Prop34
280
     0
102
RTVSPost2010PropOp34
 70
     1
102
RTVSPost2010Prop35
280
     0
102
RTVSPost2010PropOp35
 70
     1
102
RTVSPost2010Prop36
280
     0
102
RTVSPost2010PropOp36
 70
     1
102
RTVSPost2010Prop37
 90
       50
102
RTVSPost2010PropOp37
 70
     1
102
RTVSPost2010Prop38
140
0.0
102
RTVSPost2010PropOp38
 70
     1
102
RTVSPost2010Prop39
140
1.0
102
RTVSPost2010PropOp39
 70
     1
102
RTVSPost2010Prop40
 90
        0
102
RTVSPost2010PropOp40
 70
     1
102
RTVSPost2010Prop41ColorIndex
 90
       18
102
RTVSPost2010Prop41ColorRGB
 90
        0
102
RTVSPost2010PropOp41
 70
     1
102
RTVSPost2010Prop42
 90
       50
102
RTVSPost2010PropOp42
 70
     1
102
RTVSPost2010Prop43
 90
        3
102
RTVSPost2010PropOp43
 70
     1
102
RTVSPost2010Prop44ColorIndex
 90
        5
102
RTVSPost2010Prop44ColorRGB
 90
      255
102
RTVSPost2010PropOp44
 70
     1
102
RTVSPost2010Prop45
280
     0
102
RTVSPost2010PropOp45
 70
     1
102
RTVSPost2010Prop46
 90
       50
102
RTVSPost2010PropOp46
 70
     1
102
RTVSPost2010Prop47
 90
       50
102
RTVSPost2010PropOp47
 70
     1
102
RTVSPost2010Prop48
 90
       50
102
RTVSPost2010PropOp48
 70
     1
102
RTVSPost2010Prop49
280
     0
102
RTVSPost2010PropOp49
 70
     1
102
RTVSPost2010Prop50
 90
       50
102
RTVSPost2010PropOp50
 70
     1
102
RTVSPost2010Prop51ColorIndex
 90
      256
102
RTVSPost2010Prop51ColorRGB
 90
-16777216
102
RTVSPost2010PropOp51
 70
     0
102
RTVSPost2010Prop52
140
1.0
102
RTVSPost2010PropOp52
 70
     0
102
RTVSPost2010Prop53
 90
        2
102
RTVSPost2010PropOp53
 70
     1
102
RTVSPost2010Prop54
  1
strokes_ogs.tif
102
RTVSPost2010PropOp54
 70
     1
102
RTVSPost2010Prop55
280
     0
102
RTVSPost2010PropOp55
 70
     1
102
RTVSPost2010Prop56
140
1.0
102
RTVSPost2010PropOp56
 70
     1
102
RTVSPost2010Prop57
140
1.0
102
RTVSPost2010PropOp57
 70
     1
  0
XRECORD
  5
2B1
102
{ACAD_REACTORS
330
2B0
102
}
330
2B0
100
AcDbXrecord
280
     1
102
RTVSPropertyOp0
 70
     1
102
RTVSPropertyOp1
 70
     1
102
RTVSPropertyOp2
 70
     1
102
RTVSPropertyOp3
 70
     1
102
RTVSPropertyOp4
 70
     1
102
RTVSPropertyOp5
 70
     1
102
RTVSPropertyOp6
 70
     1
102
RTVSPropertyOp7
 70
     1
102
RTVSPropertyOp8
 70
     1
102
RTVSPropertyOp9
 70
     1
102
RTVSPropertyOp10
 70
     1
102
RTVSPropertyOp11
 70
     1
102
RTVSPropertyOp12
 70
     1
102
RTVSPropertyOp13
 70
     1
102
RTVSPropertyOp14
 70
     1
102
RTVSPropertyOp15
 70
     1
102
RTVSPropertyOp16
 70
     1
102
RTVSPropertyOp17
 70
     1
102
RTVSPropertyOp18
 70
     1
102
RTVSPropertyOp19
 70
     1
102
RTVSPropertyOp20
 70
     1
102
RTVSPropertyOp21
 70
     1
102
RTVSPropertyOp22
 70
     1
102
RTVSPropertyOp23
 70
     1
102
RTVSPropertyOp24
 70
     1
102
RTVSPropertyOp25
 70
     1
102
RTVSPropertyOp26
 70
     1
102
RTVSPropertyOp27
 70
     1
102
RTVSPropertyOp28
 70
     1
102
RTVSPropertyOp29
 70
     1
102
RTVSPropertyOp30
 70
     1
102
RTVSPropertyOp31
 70
     1
102
RTVSPropertyOp32
 70
     1
102
RTVSPropertyOp33
 70
     1
102
RTVSPropertyOp34
 70
     1
102
RTVSPropertyOp35
 70
     1
102
RTVSPropertyOp36
 70
     1
102
RTVSPropertyOp37
 70
     1
102
RTVSPropertyOp38
 70
     1
102
RTVSPropertyOp39
 70
     1
102
RTVSPropertyOp40
 70
     1
102
RTVSPropertyOp41
 70
     1
102
RTVSPropertyOp42
 70
     1
102
RTVSPropertyOp43
 70
     1
102
RTVSPropertyOp44
 70
     1
102
RTVSPropertyOp45
 70
     1
102
RTVSPropertyOp46
 70
     1
102
RTVSPropertyOp47
 70
     1
102
RTVSPropertyOp48
 70
     1
102
RTVSPropertyOp49
 70
     1
102
RTVSPropertyOp50
 70
     1
102
RTVSPropertyOp51
 70
     0
102
RTVSPropertyOp52
 70
     0
102
RTVSPropertyOp53
 70
     1
102
RTVSPropertyOp54
 70
     1
102
RTVSPropertyOp55
 70
     1
102
RTVSPropertyOp56
 70
     1
102
RTVSPropertyOp57
 70
     1
102
RTVSPost2010Prop28
280
     0
102
RTVSPost2010PropOp28
 70
     1
102
RTVSPost2010Prop29
280
     1
102
RTVSPost2010PropOp29
 70
     1
102
RTVSPost2010Prop30
280
     1
102
RTVSPost2010PropOp30
 70
     1
102
RTVSPost2010Prop31
280
     0
102
RTVSPost2010PropOp31
 70
     1
102
RTVSPost2010Prop32
280
     0
102
RTVSPost2010PropOp32
 70
     1
102
RTVSPost2010Prop33
280
     0
102
RTVSPost2010PropOp33
 70
     1
102
RTVSPost2010Prop34
280
     0
102
RTVSPost2010PropOp34
 70
     1
102
RTVSPost2010Prop35
280
     0
102
RTVSPost2010PropOp35
 70
     1
102
RTVSPost2010Prop36
280
     0
102
RTVSPost2010PropOp36
 70
     1
102
RTVSPost2010Prop37
 90
       50
102
RTVSPost2010PropOp37
 70
     1
102
RTVSPost2010Prop38
140
0.0
102
RTVSPost2010PropOp38
 70
     1
102
RTVSPost2010Prop39
140
1.0
102
RTVSPost2010PropOp39
 70
     1
102
RTVSPost2010Prop40
 90
        0
102
RTVSPost2010PropOp40
 70
     1
102
RTVSPost2010Prop41ColorIndex
 90
       18
102
RTVSPost2010Prop41ColorRGB
 90
        0
102
RTVSPost2010PropOp41
 70
     1
102
RTVSPost2010Prop42
 90
       50
102
RTVSPost2010PropOp42
 70
     1
102
RTVSPost2010Prop43
 90
        3
102
RTVSPost2010PropOp43
 70
     1
102
RTVSPost2010Prop44ColorIndex
 90
        5
102
RTVSPost2010Prop44ColorRGB
 90
      255
102
RTVSPost2010PropOp44
 70
     1
102
RTVSPost2010Prop45
280
     0
102
RTVSPost2010PropOp45
 70
     1
102
RTVSPost2010Prop46
 90
       50
102
RTVSPost2010PropOp46
 70
     1
102
RTVSPost2010Prop47
 90
       50
102
RTVSPost2010PropOp47
 70
     1
102
RTVSPost2010Prop48
 90
       50
102
RTVSPost2010PropOp48
 70
     1
102
RTVSPost2010Prop49
280
     0
102
RTVSPost2010PropOp49
 70
     1
102
RTVSPost2010Prop50
 90
       50
102
RTVSPost2010PropOp50
 70
     1
102
RTVSPost2010Prop51ColorIndex
 90
      256
102
RTVSPost2010Prop51ColorRGB
 90
-16777216
102
RTVSPost2010PropOp51
 70
     0
102
RTVSPost2010Prop52
140
1.0
102
RTVSPost2010PropOp52
 70
     0
102
RTVSPost2010Prop53
 90
        2
102
RTVSPost2010PropOp53
 70
     1
102
RTVSPost2010Prop54
  1
strokes_ogs.tif
102
RTVSPost2010PropOp54
 70
     1
102
RTVSPost2010Prop55
280
     0
102
RTVSPost2010PropOp55
 70
     1
102
RTVSPost2010Prop56
140
1.0
102
RTVSPost2010PropOp56
 70
     1
102
RTVSPost2010Prop57
140
1.0
102
RTVSPost2010PropOp57
 70
     1
  0
XRECORD
  5
2C5
102
{ACAD_REACTORS
330
2C4
102
}
330
2C4
100
AcDbXrecord
280
     1
102
RTVSPropertyOp0
 70
     0
102
RTVSPropertyOp1
 70
     0
102
RTVSPropertyOp2
 70
     0
102
RTVSPropertyOp3
 70
     0
102
RTVSPropertyOp4
 70
     0
102
RTVSPropertyOp5
 70
     0
102
RTVSPropertyOp6
 70
     0
102
RTVSPropertyOp7
 70
     0
102
RTVSPropertyOp8
 70
     0
102
RTVSPropertyOp9
 70
     0
102
RTVSPropertyOp10
 70
     0
102
RTVSPropertyOp11
 70
     0
102
RTVSPropertyOp12
 70
     0
102
RTVSPropertyOp13
 70
     0
102
RTVSPropertyOp14
 70
     2
102
RTVSPropertyOp15
 70
     0
102
RTVSPropertyOp16
 70
     0
102
RTVSPropertyOp17
 70
     0
102
RTVSPropertyOp18
 70
     0
102
RTVSPropertyOp19
 70
     0
102
RTVSPropertyOp20
 70
     0
102
RTVSPropertyOp21
 70
     0
102
RTVSPropertyOp22
 70
     0
102
RTVSPropertyOp23
 70
     0
102
RTVSPropertyOp24
 70
     0
102
RTVSPropertyOp25
 70
     0
102
RTVSPropertyOp26
 70
     0
102
RTVSPropertyOp27
 70
     0
102
RTVSPropertyOp28
 70
     0
102
RTVSPropertyOp29
 70
     0
102
RTVSPropertyOp30
 70
     0
102
RTVSPropertyOp31
 70
     0
102
RTVSPropertyOp32
 70
     0
102
RTVSPropertyOp33
 70
     0
102
RTVSPropertyOp34
 70
     0
102
RTVSPropertyOp35
 70
     0
102
RTVSPropertyOp36
 70
     0
102
RTVSPropertyOp37
 70
     0
102
RTVSPropertyOp38
 70
     0
102
RTVSPropertyOp39
 70
     0
102
RTVSPropertyOp40
 70
     0
102
RTVSPropertyOp41
 70
     0
102
RTVSPropertyOp42
 70
     0
102
RTVSPropertyOp43
 70
     0
102
RTVSPropertyOp44
 70
     0
102
RTVSPropertyOp45
 70
     0
102
RTVSPropertyOp46
 70
     0
102
RTVSPropertyOp47
 70
     0
102
RTVSPropertyOp48
 70
     0
102
RTVSPropertyOp49
 70
     0
102
RTVSPropertyOp50
 70
     0
102
RTVSPropertyOp51
 70
     0
102
RTVSPropertyOp52
 70
     0
102
RTVSPropertyOp53
 70
     0
102
RTVSPropertyOp54
 70
     0
102
RTVSPropertyOp55
 70
     0
102
RTVSPropertyOp56
 70
     0
102
RTVSPropertyOp57
 70
     0
102
RTVSPost2010Prop28
280
     0
102
RTVSPost2010PropOp28
 70
     0
102
RTVSPost2010Prop29
280
     1
102
RTVSPost2010PropOp29
 70
     0
102
RTVSPost2010Prop30
280
     1
102
RTVSPost2010PropOp30
 70
     0
102
RTVSPost2010Prop31
280
     0
102
RTVSPost2010PropOp31
 70
     0
102
RTVSPost2010Prop32
280
     0
102
RTVSPost2010PropOp32
 70
     0
102
RTVSPost2010Prop33
280
     0
102
RTVSPost2010PropOp33
 70
     0
102
RTVSPost2010Prop34
280
     0
102
RTVSPost2010PropOp34
 70
     0
102
RTVSPost2010Prop35
280
     0
102
RTVSPost2010PropOp35
 70
     0
102
RTVSPost2010Prop36
280
     0
102
RTVSPost2010PropOp36
 70
     0
102
RTVSPost2010Prop37
 90
       50
102
RTVSPost2010PropOp37
 70
     0
102
RTVSPost2010Prop38
140
0.0
102
RTVSPost2010PropOp38
 70
     0
102
RTVSPost2010Prop39
140
1.0
102
RTVSPost2010PropOp39
 70
     0
102
RTVSPost2010Prop40
 90
        0
102
RTVSPost2010PropOp40
 70
     0
102
RTVSPost2010Prop41ColorIndex
 90
       18
102
RTVSPost2010Prop41ColorRGB
 90
        0
102
RTVSPost2010PropOp41
 70
     0
102
RTVSPost2010Prop42
 90
       50
102
RTVSPost2010PropOp42
 70
     0
102
RTVSPost2010Prop43
 90
        3
102
RTVSPost2010PropOp43
 70
     0
102
RTVSPost2010Prop44ColorIndex
 90
        5
102
RTVSPost2010Prop44ColorRGB
 90
      255
102
RTVSPost2010PropOp44
 70
     0
102
RTVSPost2010Prop45
280
     0
102
RTVSPost2010PropOp45
 70
     0
102
RTVSPost2010Prop46
 90
       50
102
RTVSPost2010PropOp46
 70
     0
102
RTVSPost2010Prop47
 90
       50
102
RTVSPost2010PropOp47
 70
     0
102
RTVSPost2010Prop48
 90
       50
102
RTVSPost2010PropOp48
 70
     0
102
RTVSPost2010Prop49
280
     0
102
RTVSPost2010PropOp49
 70
     0
102
RTVSPost2010Prop50
 90
       50
102
RTVSPost2010PropOp50
 70
     0
102
RTVSPost2010Prop51ColorIndex
 90
      256
102
RTVSPost2010Prop51ColorRGB
 90
-16777216
102
RTVSPost2010PropOp51
 70
     0
102
RTVSPost2010Prop52
140
1.0
102
RTVSPost2010PropOp52
 70
     0
102
RTVSPost2010Prop53
 90
        2
102
RTVSPost2010PropOp53
 70
     0
102
RTVSPost2010Prop54
  1
strokes_ogs.tif
102
RTVSPost2010PropOp54
 70
     0
102
RTVSPost2010Prop55
280
     0
102
RTVSPost2010PropOp55
 70
     0
102
RTVSPost2010Prop56
140
1.0
102
RTVSPost2010PropOp56
 70
     0
102
RTVSPost2010Prop57
140
1.0
102
RTVSPost2010PropOp57
 70
     0
  0
XRECORD
  5
2BF
102
{ACAD_REACTORS
330
2BE
102
}
330
2BE
100
AcDbXrecord
280
     1
102
RTVSPropertyOp0
 70
     1
102
RTVSPropertyOp1
 70
     1
102
RTVSPropertyOp2
 70
     1
102
RTVSPropertyOp3
 70
     1
102
RTVSPropertyOp4
 70
     1
102
RTVSPropertyOp5
 70
     1
102
RTVSPropertyOp6
 70
     1
102
RTVSPropertyOp7
 70
     1
102
RTVSPropertyOp8
 70
     1
102
RTVSPropertyOp9
 70
     1
102
RTVSPropertyOp10
 70
     1
102
RTVSPropertyOp11
 70
     1
102
RTVSPropertyOp12
 70
     1
102
RTVSPropertyOp13
 70
     1
102
RTVSPropertyOp14
 70
     1
102
RTVSPropertyOp15
 70
     1
102
RTVSPropertyOp16
 70
     1
102
RTVSPropertyOp17
 70
     1
102
RTVSPropertyOp18
 70
     1
102
RTVSPropertyOp19
 70
     1
102
RTVSPropertyOp20
 70
     1
102
RTVSPropertyOp21
 70
     1
102
RTVSPropertyOp22
 70
     1
102
RTVSPropertyOp23
 70
     1
102
RTVSPropertyOp24
 70
     1
102
RTVSPropertyOp25
 70
     1
102
RTVSPropertyOp26
 70
     1
102
RTVSPropertyOp27
 70
     1
102
RTVSPropertyOp28
 70
     1
102
RTVSPropertyOp29
 70
     1
102
RTVSPropertyOp30
 70
     1
102
RTVSPropertyOp31
 70
     1
102
RTVSPropertyOp32
 70
     1
102
RTVSPropertyOp33
 70
     1
102
RTVSPropertyOp34
 70
     1
102
RTVSPropertyOp35
 70
     1
102
RTVSPropertyOp36
 70
     1
102
RTVSPropertyOp37
 70
     1
102
RTVSPropertyOp38
 70
     1
102
RTVSPropertyOp39
 70
     1
102
RTVSPropertyOp40
 70
     1
102
RTVSPropertyOp41
 70
     1
102
RTVSPropertyOp42
 70
     1
102
RTVSPropertyOp43
 70
     1
102
RTVSPropertyOp44
 70
     1
102
RTVSPropertyOp45
 70
     1
102
RTVSPropertyOp46
 70
     1
102
RTVSPropertyOp47
 70
     1
102
RTVSPropertyOp48
 70
     1
102
RTVSPropertyOp49
 70
     1
102
RTVSPropertyOp50
 70
     1
102
RTVSPropertyOp51
 70
     0
102
RTVSPropertyOp52
 70
     0
102
RTVSPropertyOp53
 70
     1
102
RTVSPropertyOp54
 70
     1
102
RTVSPropertyOp55
 70
     1
102
RTVSPropertyOp56
 70
     1
102
RTVSPropertyOp57
 70
     1
102
RTVSPost2010Prop28
280
     0
102
RTVSPost2010PropOp28
 70
     1
102
RTVSPost2010Prop29
280
     1
102
RTVSPost2010PropOp29
 70
     1
102
RTVSPost2010Prop30
280
     1
102
RTVSPost2010PropOp30
 70
     1
102
RTVSPost2010Prop31
280
     0
102
RTVSPost2010PropOp31
 70
     1
102
RTVSPost2010Prop32
280
     0
102
RTVSPost2010PropOp32
 70
     1
102
RTVSPost2010Prop33
280
     0
102
RTVSPost2010PropOp33
 70
     1
102
RTVSPost2010Prop34
280
     0
102
RTVSPost2010PropOp34
 70
     1
102
RTVSPost2010Prop35
280
     0
102
RTVSPost2010PropOp35
 70
     1
102
RTVSPost2010Prop36
280
     0
102
RTVSPost2010PropOp36
 70
     1
102
RTVSPost2010Prop37
 90
       50
102
RTVSPost2010PropOp37
 70
     1
102
RTVSPost2010Prop38
140
0.0
102
RTVSPost2010PropOp38
 70
     1
102
RTVSPost2010Prop39
140
1.0
102
RTVSPost2010PropOp39
 70
     1
102
RTVSPost2010Prop40
 90
        0
102
RTVSPost2010PropOp40
 70
     1
102
RTVSPost2010Prop41ColorIndex
 90
       18
102
RTVSPost2010Prop41ColorRGB
 90
        0
102
RTVSPost2010PropOp41
 70
     1
102
RTVSPost2010Prop42
 90
       50
102
RTVSPost2010PropOp42
 70
     1
102
RTVSPost2010Prop43
 90
        3
102
RTVSPost2010PropOp43
 70
     1
102
RTVSPost2010Prop44ColorIndex
 90
        5
102
RTVSPost2010Prop44ColorRGB
 90
      255
102
RTVSPost2010PropOp44
 70
     1
102
RTVSPost2010Prop45
280
     0
102
RTVSPost2010PropOp45
 70
     1
102
RTVSPost2010Prop46
 90
       50
102
RTVSPost2010PropOp46
 70
     1
102
RTVSPost2010Prop47
 90
       50
102
RTVSPost2010PropOp47
 70
     1
102
RTVSPost2010Prop48
 90
       50
102
RTVSPost2010PropOp48
 70
     1
102
RTVSPost2010Prop49
280
     0
102
RTVSPost2010PropOp49
 70
     1
102
RTVSPost2010Prop50
 90
       50
102
RTVSPost2010PropOp50
 70
     1
102
RTVSPost2010Prop51ColorIndex
 90
      256
102
RTVSPost2010Prop51ColorRGB
 90
-16777216
102
RTVSPost2010PropOp51
 70
     0
102
RTVSPost2010Prop52
140
1.0
102
RTVSPost2010PropOp52
 70
     0
102
RTVSPost2010Prop53
 90
        2
102
RTVSPost2010PropOp53
 70
     1
102
RTVSPost2010Prop54
  1
strokes_ogs.tif
102
RTVSPost2010PropOp54
 70
     1
102
RTVSPost2010Prop55
280
     0
102
RTVSPost2010PropOp55
 70
     1
102
RTVSPost2010Prop56
140
1.0
102
RTVSPost2010PropOp56
 70
     1
102
RTVSPost2010Prop57
140
1.0
102
RTVSPost2010PropOp57
 70
     1
  0
XRECORD
  5
2C7
102
{ACAD_REACTORS
330
2C6
102
}
330
2C6
100
AcDbXrecord
280
     1
102
RTVSPropertyOp0
 70
     0
102
RTVSPropertyOp1
 70
     0
102
RTVSPropertyOp2
 70
     0
102
RTVSPropertyOp3
 70
     0
102
RTVSPropertyOp4
 70
     0
102
RTVSPropertyOp5
 70
     0
102
RTVSPropertyOp6
 70
     0
102
RTVSPropertyOp7
 70
     0
102
RTVSPropertyOp8
 70
     0
102
RTVSPropertyOp9
 70
     0
102
RTVSPropertyOp10
 70
     0
102
RTVSPropertyOp11
 70
     0
102
RTVSPropertyOp12
 70
     0
102
RTVSPropertyOp13
 70
     0
102
RTVSPropertyOp14
 70
     2
102
RTVSPropertyOp15
 70
     0
102
RTVSPropertyOp16
 70
     0
102
RTVSPropertyOp17
 70
     0
102
RTVSPropertyOp18
 70
     0
102
RTVSPropertyOp19
 70
     0
102
RTVSPropertyOp20
 70
     0
102
RTVSPropertyOp21
 70
     0
102
RTVSPropertyOp22
 70
     0
102
RTVSPropertyOp23
 70
     0
102
RTVSPropertyOp24
 70
     0
102
RTVSPropertyOp25
 70
     0
102
RTVSPropertyOp26
 70
     0
102
RTVSPropertyOp27
 70
     0
102
RTVSPropertyOp28
 70
     0
102
RTVSPropertyOp29
 70
     0
102
RTVSPropertyOp30
 70
     0
102
RTVSPropertyOp31
 70
     0
102
RTVSPropertyOp32
 70
     0
102
RTVSPropertyOp33
 70
     0
102
RTVSPropertyOp34
 70
     0
102
RTVSPropertyOp35
 70
     0
102
RTVSPropertyOp36
 70
     0
102
RTVSPropertyOp37
 70
     0
102
RTVSPropertyOp38
 70
     0
102
RTVSPropertyOp39
 70
     0
102
RTVSPropertyOp40
 70
     0
102
RTVSPropertyOp41
 70
     0
102
RTVSPropertyOp42
 70
     0
102
RTVSPropertyOp43
 70
     0
102
RTVSPropertyOp44
 70
     0
102
RTVSPropertyOp45
 70
     0
102
RTVSPropertyOp46
 70
     0
102
RTVSPropertyOp47
 70
     0
102
RTVSPropertyOp48
 70
     0
102
RTVSPropertyOp49
 70
     0
102
RTVSPropertyOp50
 70
     0
102
RTVSPropertyOp51
 70
     0
102
RTVSPropertyOp52
 70
     0
102
RTVSPropertyOp53
 70
     0
102
RTVSPropertyOp54
 70
     0
102
RTVSPropertyOp55
 70
     0
102
RTVSPropertyOp56
 70
     0
102
RTVSPropertyOp57
 70
     0
102
RTVSPost2010Prop28
280
     0
102
RTVSPost2010PropOp28
 70
     0
102
RTVSPost2010Prop29
280
     1
102
RTVSPost2010PropOp29
 70
     0
102
RTVSPost2010Prop30
280
     1
102
RTVSPost2010PropOp30
 70
     0
102
RTVSPost2010Prop31
280
     0
102
RTVSPost2010PropOp31
 70
     0
102
RTVSPost2010Prop32
280
     0
102
RTVSPost2010PropOp32
 70
     0
102
RTVSPost2010Prop33
280
     0
102
RTVSPost2010PropOp33
 70
     0
102
RTVSPost2010Prop34
280
     0
102
RTVSPost2010PropOp34
 70
     0
102
RTVSPost2010Prop35
280
     0
102
RTVSPost2010PropOp35
 70
     0
102
RTVSPost2010Prop36
280
     0
102
RTVSPost2010PropOp36
 70
     0
102
RTVSPost2010Prop37
 90
       50
102
RTVSPost2010PropOp37
 70
     0
102
RTVSPost2010Prop38
140
0.0
102
RTVSPost2010PropOp38
 70
     0
102
RTVSPost2010Prop39
140
1.0
102
RTVSPost2010PropOp39
 70
     0
102
RTVSPost2010Prop40
 90
        0
102
RTVSPost2010PropOp40
 70
     0
102
RTVSPost2010Prop41ColorIndex
 90
       18
102
RTVSPost2010Prop41ColorRGB
 90
        0
102
RTVSPost2010PropOp41
 70
     0
102
RTVSPost2010Prop42
 90
       50
102
RTVSPost2010PropOp42
 70
     0
102
RTVSPost2010Prop43
 90
        3
102
RTVSPost2010PropOp43
 70
     0
102
RTVSPost2010Prop44ColorIndex
 90
        5
102
RTVSPost2010Prop44ColorRGB
 90
      255
102
RTVSPost2010PropOp44
 70
     0
102
RTVSPost2010Prop45
280
     0
102
RTVSPost2010PropOp45
 70
     0
102
RTVSPost2010Prop46
 90
       50
102
RTVSPost2010PropOp46
 70
     0
102
RTVSPost2010Prop47
 90
       50
102
RTVSPost2010PropOp47
 70
     0
102
RTVSPost2010Prop48
 90
       50
102
RTVSPost2010PropOp48
 70
     0
102
RTVSPost2010Prop49
280
     0
102
RTVSPost2010PropOp49
 70
     0
102
RTVSPost2010Prop50
 90
       50
102
RTVSPost2010PropOp50
 70
     0
102
RTVSPost2010Prop51ColorIndex
 90
      256
102
RTVSPost2010Prop51ColorRGB
 90
-16777216
102
RTVSPost2010PropOp51
 70
     0
102
RTVSPost2010Prop52
140
1.0
102
RTVSPost2010PropOp52
 70
     0
102
RTVSPost2010Prop53
 90
        2
102
RTVSPost2010PropOp53
 70
     0
102
RTVSPost2010Prop54
  1
strokes_ogs.tif
102
RTVSPost2010PropOp54
 70
     0
102
RTVSPost2010Prop55
280
     0
102
RTVSPost2010PropOp55
 70
     0
102
RTVSPost2010Prop56
140
1.0
102
RTVSPost2010PropOp56
 70
     0
102
RTVSPost2010Prop57
140
1.0
102
RTVSPost2010PropOp57
 70
     0
  0
XRECORD
  5
2B5
102
{ACAD_REACTORS
330
2B4
102
}
330
2B4
100
AcDbXrecord
280
     1
102
RTVSPropertyOp0
 70
     1
102
RTVSPropertyOp1
 70
     1
102
RTVSPropertyOp2
 70
     1
102
RTVSPropertyOp3
 70
     1
102
RTVSPropertyOp4
 70
     1
102
RTVSPropertyOp5
 70
     1
102
RTVSPropertyOp6
 70
     1
102
RTVSPropertyOp7
 70
     1
102
RTVSPropertyOp8
 70
     1
102
RTVSPropertyOp9
 70
     1
102
RTVSPropertyOp10
 70
     1
102
RTVSPropertyOp11
 70
     1
102
RTVSPropertyOp12
 70
     1
102
RTVSPropertyOp13
 70
     1
102
RTVSPropertyOp14
 70
     1
102
RTVSPropertyOp15
 70
     1
102
RTVSPropertyOp16
 70
     1
102
RTVSPropertyOp17
 70
     1
102
RTVSPropertyOp18
 70
     1
102
RTVSPropertyOp19
 70
     1
102
RTVSPropertyOp20
 70
     1
102
RTVSPropertyOp21
 70
     1
102
RTVSPropertyOp22
 70
     1
102
RTVSPropertyOp23
 70
     1
102
RTVSPropertyOp24
 70
     1
102
RTVSPropertyOp25
 70
     1
102
RTVSPropertyOp26
 70
     1
102
RTVSPropertyOp27
 70
     1
102
RTVSPropertyOp28
 70
     1
102
RTVSPropertyOp29
 70
     1
102
RTVSPropertyOp30
 70
     1
102
RTVSPropertyOp31
 70
     1
102
RTVSPropertyOp32
 70
     1
102
RTVSPropertyOp33
 70
     1
102
RTVSPropertyOp34
 70
     1
102
RTVSPropertyOp35
 70
     1
102
RTVSPropertyOp36
 70
     1
102
RTVSPropertyOp37
 70
     1
102
RTVSPropertyOp38
 70
     1
102
RTVSPropertyOp39
 70
     1
102
RTVSPropertyOp40
 70
     1
102
RTVSPropertyOp41
 70
     1
102
RTVSPropertyOp42
 70
     1
102
RTVSPropertyOp43
 70
     1
102
RTVSPropertyOp44
 70
     1
102
RTVSPropertyOp45
 70
     1
102
RTVSPropertyOp46
 70
     1
102
RTVSPropertyOp47
 70
     1
102
RTVSPropertyOp48
 70
     1
102
RTVSPropertyOp49
 70
     1
102
RTVSPropertyOp50
 70
     1
102
RTVSPropertyOp51
 70
     0
102
RTVSPropertyOp52
 70
     0
102
RTVSPropertyOp53
 70
     1
102
RTVSPropertyOp54
 70
     1
102
RTVSPropertyOp55
 70
     1
102
RTVSPropertyOp56
 70
     1
102
RTVSPropertyOp57
 70
     1
102
RTVSPost2010Prop28
280
     0
102
RTVSPost2010PropOp28
 70
     1
102
RTVSPost2010Prop29
280
     1
102
RTVSPost2010PropOp29
 70
     1
102
RTVSPost2010Prop30
280
     1
102
RTVSPost2010PropOp30
 70
     1
102
RTVSPost2010Prop31
280
     0
102
RTVSPost2010PropOp31
 70
     1
102
RTVSPost2010Prop32
280
     0
102
RTVSPost2010PropOp32
 70
     1
102
RTVSPost2010Prop33
280
     0
102
RTVSPost2010PropOp33
 70
     1
102
RTVSPost2010Prop34
280
     0
102
RTVSPost2010PropOp34
 70
     1
102
RTVSPost2010Prop35
280
     0
102
RTVSPost2010PropOp35
 70
     1
102
RTVSPost2010Prop36
280
     0
102
RTVSPost2010PropOp36
 70
     1
102
RTVSPost2010Prop37
 90
       50
102
RTVSPost2010PropOp37
 70
     1
102
RTVSPost2010Prop38
140
0.0
102
RTVSPost2010PropOp38
 70
     1
102
RTVSPost2010Prop39
140
1.0
102
RTVSPost2010PropOp39
 70
     1
102
RTVSPost2010Prop40
 90
        0
102
RTVSPost2010PropOp40
 70
     1
102
RTVSPost2010Prop41ColorIndex
 90
       18
102
RTVSPost2010Prop41ColorRGB
 90
        0
102
RTVSPost2010PropOp41
 70
     1
102
RTVSPost2010Prop42
 90
       50
102
RTVSPost2010PropOp42
 70
     1
102
RTVSPost2010Prop43
 90
        3
102
RTVSPost2010PropOp43
 70
     1
102
RTVSPost2010Prop44ColorIndex
 90
        5
102
RTVSPost2010Prop44ColorRGB
 90
      255
102
RTVSPost2010PropOp44
 70
     1
102
RTVSPost2010Prop45
280
     0
102
RTVSPost2010PropOp45
 70
     1
102
RTVSPost2010Prop46
 90
       50
102
RTVSPost2010PropOp46
 70
     1
102
RTVSPost2010Prop47
 90
       50
102
RTVSPost2010PropOp47
 70
     1
102
RTVSPost2010Prop48
 90
       50
102
RTVSPost2010PropOp48
 70
     1
102
RTVSPost2010Prop49
280
     0
102
RTVSPost2010PropOp49
 70
     1
102
RTVSPost2010Prop50
 90
       50
102
RTVSPost2010PropOp50
 70
     1
102
RTVSPost2010Prop51ColorIndex
 90
      256
102
RTVSPost2010Prop51ColorRGB
 90
-16777216
102
RTVSPost2010PropOp51
 70
     0
102
RTVSPost2010Prop52
140
1.0
102
RTVSPost2010PropOp52
 70
     0
102
RTVSPost2010Prop53
 90
        2
102
RTVSPost2010PropOp53
 70
     1
102
RTVSPost2010Prop54
  1
strokes_ogs.tif
102
RTVSPost2010PropOp54
 70
     1
102
RTVSPost2010Prop55
280
     0
102
RTVSPost2010PropOp55
 70
     1
102
RTVSPost2010Prop56
140
1.0
102
RTVSPost2010PropOp56
 70
     1
102
RTVSPost2010Prop57
140
1.0
102
RTVSPost2010PropOp57
 70
     1
  0
XRECORD
  5
2D3
102
{ACAD_REACTORS
330
2D2
102
}
330
2D2
100
AcDbXrecord
280
     1
102
RTVSPropertyOp0
 70
     1
102
RTVSPropertyOp1
 70
     1
102
RTVSPropertyOp2
 70
     1
102
RTVSPropertyOp3
 70
     1
102
RTVSPropertyOp4
 70
     1
102
RTVSPropertyOp5
 70
     1
102
RTVSPropertyOp6
 70
     1
102
RTVSPropertyOp7
 70
     1
102
RTVSPropertyOp8
 70
     1
102
RTVSPropertyOp9
 70
     1
102
RTVSPropertyOp10
 70
     1
102
RTVSPropertyOp11
 70
     1
102
RTVSPropertyOp12
 70
     1
102
RTVSPropertyOp13
 70
     1
102
RTVSPropertyOp14
 70
     1
102
RTVSPropertyOp15
 70
     1
102
RTVSPropertyOp16
 70
     1
102
RTVSPropertyOp17
 70
     1
102
RTVSPropertyOp18
 70
     1
102
RTVSPropertyOp19
 70
     1
102
RTVSPropertyOp20
 70
     1
102
RTVSPropertyOp21
 70
     1
102
RTVSPropertyOp22
 70
     1
102
RTVSPropertyOp23
 70
     1
102
RTVSPropertyOp24
 70
     1
102
RTVSPropertyOp25
 70
     1
102
RTVSPropertyOp26
 70
     1
102
RTVSPropertyOp27
 70
     1
102
RTVSPropertyOp28
 70
     1
102
RTVSPropertyOp29
 70
     1
102
RTVSPropertyOp30
 70
     1
102
RTVSPropertyOp31
 70
     1
102
RTVSPropertyOp32
 70
     1
102
RTVSPropertyOp33
 70
     1
102
RTVSPropertyOp34
 70
     1
102
RTVSPropertyOp35
 70
     1
102
RTVSPropertyOp36
 70
     1
102
RTVSPropertyOp37
 70
     1
102
RTVSPropertyOp38
 70
     1
102
RTVSPropertyOp39
 70
     1
102
RTVSPropertyOp40
 70
     1
102
RTVSPropertyOp41
 70
     1
102
RTVSPropertyOp42
 70
     1
102
RTVSPropertyOp43
 70
     1
102
RTVSPropertyOp44
 70
     1
102
RTVSPropertyOp45
 70
     1
102
RTVSPropertyOp46
 70
     1
102
RTVSPropertyOp47
 70
     1
102
RTVSPropertyOp48
 70
     1
102
RTVSPropertyOp49
 70
     1
102
RTVSPropertyOp50
 70
     1
102
RTVSPropertyOp51
 70
     0
102
RTVSPropertyOp52
 70
     0
102
RTVSPropertyOp53
 70
     1
102
RTVSPropertyOp54
 70
     1
102
RTVSPropertyOp55
 70
     1
102
RTVSPropertyOp56
 70
     1
102
RTVSPropertyOp57
 70
     1
102
RTVSPost2010Prop28
280
     0
102
RTVSPost2010PropOp28
 70
     1
102
RTVSPost2010Prop29
280
     1
102
RTVSPost2010PropOp29
 70
     1
102
RTVSPost2010Prop30
280
     1
102
RTVSPost2010PropOp30
 70
     1
102
RTVSPost2010Prop31
280
     0
102
RTVSPost2010PropOp31
 70
     1
102
RTVSPost2010Prop32
280
     0
102
RTVSPost2010PropOp32
 70
     1
102
RTVSPost2010Prop33
280
     0
102
RTVSPost2010PropOp33
 70
     1
102
RTVSPost2010Prop34
280
     0
102
RTVSPost2010PropOp34
 70
     1
102
RTVSPost2010Prop35
280
     0
102
RTVSPost2010PropOp35
 70
     1
102
RTVSPost2010Prop36
280
     0
102
RTVSPost2010PropOp36
 70
     1
102
RTVSPost2010Prop37
 90
       50
102
RTVSPost2010PropOp37
 70
     1
102
RTVSPost2010Prop38
140
0.0
102
RTVSPost2010PropOp38
 70
     1
102
RTVSPost2010Prop39
140
1.0
102
RTVSPost2010PropOp39
 70
     1
102
RTVSPost2010Prop40
 90
        0
102
RTVSPost2010PropOp40
 70
     1
102
RTVSPost2010Prop41ColorIndex
 90
       18
102
RTVSPost2010Prop41ColorRGB
 90
        0
102
RTVSPost2010PropOp41
 70
     1
102
RTVSPost2010Prop42
 90
       50
102
RTVSPost2010PropOp42
 70
     1
102
RTVSPost2010Prop43
 90
        3
102
RTVSPost2010PropOp43
 70
     1
102
RTVSPost2010Prop44ColorIndex
 90
        5
102
RTVSPost2010Prop44ColorRGB
 90
      255
102
RTVSPost2010PropOp44
 70
     1
102
RTVSPost2010Prop45
280
     0
102
RTVSPost2010PropOp45
 70
     1
102
RTVSPost2010Prop46
 90
       50
102
RTVSPost2010PropOp46
 70
     1
102
RTVSPost2010Prop47
 90
       50
102
RTVSPost2010PropOp47
 70
     1
102
RTVSPost2010Prop48
 90
       50
102
RTVSPost2010PropOp48
 70
     1
102
RTVSPost2010Prop49
280
     0
102
RTVSPost2010PropOp49
 70
     1
102
RTVSPost2010Prop50
 90
       50
102
RTVSPost2010PropOp50
 70
     1
102
RTVSPost2010Prop51ColorIndex
 90
      256
102
RTVSPost2010Prop51ColorRGB
 90
-16777216
102
RTVSPost2010PropOp51
 70
     0
102
RTVSPost2010Prop52
140
1.0
102
RTVSPost2010PropOp52
 70
     0
102
RTVSPost2010Prop53
 90
        2
102
RTVSPost2010PropOp53
 70
     1
102
RTVSPost2010Prop54
  1
strokes_ogs.tif
102
RTVSPost2010PropOp54
 70
     1
102
RTVSPost2010Prop55
280
     0
102
RTVSPost2010PropOp55
 70
     1
102
RTVSPost2010Prop56
140
1.0
102
RTVSPost2010PropOp56
 70
     1
102
RTVSPost2010Prop57
140
1.0
102
RTVSPost2010PropOp57
 70
     1
  0
XRECORD
  5
2D1
102
{ACAD_REACTORS
330
2D0
102
}
330
2D0
100
AcDbXrecord
280
     1
102
RTVSPropertyOp0
 70
     1
102
RTVSPropertyOp1
 70
     1
102
RTVSPropertyOp2
 70
     1
102
RTVSPropertyOp3
 70
     1
102
RTVSPropertyOp4
 70
     1
102
RTVSPropertyOp5
 70
     1
102
RTVSPropertyOp6
 70
     1
102
RTVSPropertyOp7
 70
     1
102
RTVSPropertyOp8
 70
     1
102
RTVSPropertyOp9
 70
     1
102
RTVSPropertyOp10
 70
     1
102
RTVSPropertyOp11
 70
     1
102
RTVSPropertyOp12
 70
     1
102
RTVSPropertyOp13
 70
     1
102
RTVSPropertyOp14
 70
     1
102
RTVSPropertyOp15
 70
     1
102
RTVSPropertyOp16
 70
     1
102
RTVSPropertyOp17
 70
     1
102
RTVSPropertyOp18
 70
     1
102
RTVSPropertyOp19
 70
     1
102
RTVSPropertyOp20
 70
     1
102
RTVSPropertyOp21
 70
     1
102
RTVSPropertyOp22
 70
     1
102
RTVSPropertyOp23
 70
     1
102
RTVSPropertyOp24
 70
     1
102
RTVSPropertyOp25
 70
     1
102
RTVSPropertyOp26
 70
     1
102
RTVSPropertyOp27
 70
     1
102
RTVSPropertyOp28
 70
     1
102
RTVSPropertyOp29
 70
     1
102
RTVSPropertyOp30
 70
     1
102
RTVSPropertyOp31
 70
     1
102
RTVSPropertyOp32
 70
     1
102
RTVSPropertyOp33
 70
     1
102
RTVSPropertyOp34
 70
     1
102
RTVSPropertyOp35
 70
     1
102
RTVSPropertyOp36
 70
     1
102
RTVSPropertyOp37
 70
     1
102
RTVSPropertyOp38
 70
     1
102
RTVSPropertyOp39
 70
     1
102
RTVSPropertyOp40
 70
     1
102
RTVSPropertyOp41
 70
     1
102
RTVSPropertyOp42
 70
     1
102
RTVSPropertyOp43
 70
     1
102
RTVSPropertyOp44
 70
     1
102
RTVSPropertyOp45
 70
     1
102
RTVSPropertyOp46
 70
     1
102
RTVSPropertyOp47
 70
     1
102
RTVSPropertyOp48
 70
     1
102
RTVSPropertyOp49
 70
     1
102
RTVSPropertyOp50
 70
     1
102
RTVSPropertyOp51
 70
     0
102
RTVSPropertyOp52
 70
     0
102
RTVSPropertyOp53
 70
     1
102
RTVSPropertyOp54
 70
     1
102
RTVSPropertyOp55
 70
     1
102
RTVSPropertyOp56
 70
     1
102
RTVSPropertyOp57
 70
     1
102
RTVSPost2010Prop28
280
     0
102
RTVSPost2010PropOp28
 70
     1
102
RTVSPost2010Prop29
280
     1
102
RTVSPost2010PropOp29
 70
     1
102
RTVSPost2010Prop30
280
     1
102
RTVSPost2010PropOp30
 70
     1
102
RTVSPost2010Prop31
280
     0
102
RTVSPost2010PropOp31
 70
     1
102
RTVSPost2010Prop32
280
     0
102
RTVSPost2010PropOp32
 70
     1
102
RTVSPost2010Prop33
280
     0
102
RTVSPost2010PropOp33
 70
     1
102
RTVSPost2010Prop34
280
     0
102
RTVSPost2010PropOp34
 70
     1
102
RTVSPost2010Prop35
280
     0
102
RTVSPost2010PropOp35
 70
     1
102
RTVSPost2010Prop36
280
     0
102
RTVSPost2010PropOp36
 70
     1
102
RTVSPost2010Prop37
 90
       50
102
RTVSPost2010PropOp37
 70
     1
102
RTVSPost2010Prop38
140
0.0
102
RTVSPost2010PropOp38
 70
     1
102
RTVSPost2010Prop39
140
1.0
102
RTVSPost2010PropOp39
 70
     1
102
RTVSPost2010Prop40
 90
        0
102
RTVSPost2010PropOp40
 70
     1
102
RTVSPost2010Prop41ColorIndex
 90
       18
102
RTVSPost2010Prop41ColorRGB
 90
        0
102
RTVSPost2010PropOp41
 70
     1
102
RTVSPost2010Prop42
 90
       50
102
RTVSPost2010PropOp42
 70
     1
102
RTVSPost2010Prop43
 90
        3
102
RTVSPost2010PropOp43
 70
     1
102
RTVSPost2010Prop44ColorIndex
 90
        5
102
RTVSPost2010Prop44ColorRGB
 90
      255
102
RTVSPost2010PropOp44
 70
     1
102
RTVSPost2010Prop45
280
     0
102
RTVSPost2010PropOp45
 70
     1
102
RTVSPost2010Prop46
 90
       50
102
RTVSPost2010PropOp46
 70
     1
102
RTVSPost2010Prop47
 90
       50
102
RTVSPost2010PropOp47
 70
     1
102
RTVSPost2010Prop48
 90
       50
102
RTVSPost2010PropOp48
 70
     1
102
RTVSPost2010Prop49
280
     0
102
RTVSPost2010PropOp49
 70
     1
102
RTVSPost2010Prop50
 90
       50
102
RTVSPost2010PropOp50
 70
     1
102
RTVSPost2010Prop51ColorIndex
 90
      256
102
RTVSPost2010Prop51ColorRGB
 90
-16777216
102
RTVSPost2010PropOp51
 70
     0
102
RTVSPost2010Prop52
140
1.0
102
RTVSPost2010PropOp52
 70
     0
102
RTVSPost2010Prop53
 90
        2
102
RTVSPost2010PropOp53
 70
     1
102
RTVSPost2010Prop54
  1
strokes_ogs.tif
102
RTVSPost2010PropOp54
 70
     1
102
RTVSPost2010Prop55
280
     0
102
RTVSPost2010PropOp55
 70
     1
102
RTVSPost2010Prop56
140
1.0
102
RTVSPost2010PropOp56
 70
     1
102
RTVSPost2010Prop57
140
1.0
102
RTVSPost2010PropOp57
 70
     1
  0
XRECORD
  5
2CB
102
{ACAD_REACTORS
330
2CA
102
}
330
2CA
100
AcDbXrecord
280
     1
102
RTVSPropertyOp0
 70
     1
102
RTVSPropertyOp1
 70
     1
102
RTVSPropertyOp2
 70
     1
102
RTVSPropertyOp3
 70
     1
102
RTVSPropertyOp4
 70
     1
102
RTVSPropertyOp5
 70
     1
102
RTVSPropertyOp6
 70
     1
102
RTVSPropertyOp7
 70
     1
102
RTVSPropertyOp8
 70
     1
102
RTVSPropertyOp9
 70
     1
102
RTVSPropertyOp10
 70
     1
102
RTVSPropertyOp11
 70
     1
102
RTVSPropertyOp12
 70
     1
102
RTVSPropertyOp13
 70
     1
102
RTVSPropertyOp14
 70
     1
102
RTVSPropertyOp15
 70
     1
102
RTVSPropertyOp16
 70
     1
102
RTVSPropertyOp17
 70
     1
102
RTVSPropertyOp18
 70
     1
102
RTVSPropertyOp19
 70
     1
102
RTVSPropertyOp20
 70
     1
102
RTVSPropertyOp21
 70
     1
102
RTVSPropertyOp22
 70
     1
102
RTVSPropertyOp23
 70
     1
102
RTVSPropertyOp24
 70
     1
102
RTVSPropertyOp25
 70
     1
102
RTVSPropertyOp26
 70
     1
102
RTVSPropertyOp27
 70
     1
102
RTVSPropertyOp28
 70
     1
102
RTVSPropertyOp29
 70
     1
102
RTVSPropertyOp30
 70
     1
102
RTVSPropertyOp31
 70
     1
102
RTVSPropertyOp32
 70
     1
102
RTVSPropertyOp33
 70
     1
102
RTVSPropertyOp34
 70
     1
102
RTVSPropertyOp35
 70
     1
102
RTVSPropertyOp36
 70
     1
102
RTVSPropertyOp37
 70
     1
102
RTVSPropertyOp38
 70
     1
102
RTVSPropertyOp39
 70
     1
102
RTVSPropertyOp40
 70
     1
102
RTVSPropertyOp41
 70
     1
102
RTVSPropertyOp42
 70
     1
102
RTVSPropertyOp43
 70
     1
102
RTVSPropertyOp44
 70
     1
102
RTVSPropertyOp45
 70
     1
102
RTVSPropertyOp46
 70
     1
102
RTVSPropertyOp47
 70
     1
102
RTVSPropertyOp48
 70
     1
102
RTVSPropertyOp49
 70
     1
102
RTVSPropertyOp50
 70
     1
102
RTVSPropertyOp51
 70
     0
102
RTVSPropertyOp52
 70
     0
102
RTVSPropertyOp53
 70
     1
102
RTVSPropertyOp54
 70
     1
102
RTVSPropertyOp55
 70
     1
102
RTVSPropertyOp56
 70
     1
102
RTVSPropertyOp57
 70
     1
102
RTVSPost2010Prop28
280
     0
102
RTVSPost2010PropOp28
 70
     1
102
RTVSPost2010Prop29
280
     1
102
RTVSPost2010PropOp29
 70
     1
102
RTVSPost2010Prop30
280
     1
102
RTVSPost2010PropOp30
 70
     1
102
RTVSPost2010Prop31
280
     0
102
RTVSPost2010PropOp31
 70
     1
102
RTVSPost2010Prop32
280
     0
102
RTVSPost2010PropOp32
 70
     1
102
RTVSPost2010Prop33
280
     0
102
RTVSPost2010PropOp33
 70
     1
102
RTVSPost2010Prop34
280
     0
102
RTVSPost2010PropOp34
 70
     1
102
RTVSPost2010Prop35
280
     0
102
RTVSPost2010PropOp35
 70
     1
102
RTVSPost2010Prop36
280
     0
102
RTVSPost2010PropOp36
 70
     1
102
RTVSPost2010Prop37
 90
       50
102
RTVSPost2010PropOp37
 70
     1
102
RTVSPost2010Prop38
140
0.0
102
RTVSPost2010PropOp38
 70
     1
102
RTVSPost2010Prop39
140
1.0
102
RTVSPost2010PropOp39
 70
     1
102
RTVSPost2010Prop40
 90
        0
102
RTVSPost2010PropOp40
 70
     1
102
RTVSPost2010Prop41ColorIndex
 90
       18
102
RTVSPost2010Prop41ColorRGB
 90
        0
102
RTVSPost2010PropOp41
 70
     1
102
RTVSPost2010Prop42
 90
       50
102
RTVSPost2010PropOp42
 70
     1
102
RTVSPost2010Prop43
 90
        3
102
RTVSPost2010PropOp43
 70
     1
102
RTVSPost2010Prop44ColorIndex
 90
        5
102
RTVSPost2010Prop44ColorRGB
 90
      255
102
RTVSPost2010PropOp44
 70
     1
102
RTVSPost2010Prop45
280
     0
102
RTVSPost2010PropOp45
 70
     1
102
RTVSPost2010Prop46
 90
       50
102
RTVSPost2010PropOp46
 70
     1
102
RTVSPost2010Prop47
 90
       50
102
RTVSPost2010PropOp47
 70
     1
102
RTVSPost2010Prop48
 90
       50
102
RTVSPost2010PropOp48
 70
     1
102
RTVSPost2010Prop49
280
     0
102
RTVSPost2010PropOp49
 70
     1
102
RTVSPost2010Prop50
 90
       50
102
RTVSPost2010PropOp50
 70
     1
102
RTVSPost2010Prop51ColorIndex
 90
      256
102
RTVSPost2010Prop51ColorRGB
 90
-16777216
102
RTVSPost2010PropOp51
 70
     0
102
RTVSPost2010Prop52
140
1.0
102
RTVSPost2010PropOp52
 70
     0
102
RTVSPost2010Prop53
 90
        2
102
RTVSPost2010PropOp53
 70
     1
102
RTVSPost2010Prop54
  1
strokes_ogs.tif
102
RTVSPost2010PropOp54
 70
     1
102
RTVSPost2010Prop55
280
     0
102
RTVSPost2010PropOp55
 70
     1
102
RTVSPost2010Prop56
140
1.0
102
RTVSPost2010PropOp56
 70
     1
102
RTVSPost2010Prop57
140
1.0
102
RTVSPost2010PropOp57
 70
     1
  0
XRECORD
  5
2CD
102
{ACAD_REACTORS
330
2CC
102
}
330
2CC
100
AcDbXrecord
280
     1
102
RTVSPropertyOp0
 70
     1
102
RTVSPropertyOp1
 70
     1
102
RTVSPropertyOp2
 70
     1
102
RTVSPropertyOp3
 70
     1
102
RTVSPropertyOp4
 70
     1
102
RTVSPropertyOp5
 70
     1
102
RTVSPropertyOp6
 70
     1
102
RTVSPropertyOp7
 70
     1
102
RTVSPropertyOp8
 70
     1
102
RTVSPropertyOp9
 70
     1
102
RTVSPropertyOp10
 70
     1
102
RTVSPropertyOp11
 70
     1
102
RTVSPropertyOp12
 70
     1
102
RTVSPropertyOp13
 70
     1
102
RTVSPropertyOp14
 70
     1
102
RTVSPropertyOp15
 70
     1
102
RTVSPropertyOp16
 70
     1
102
RTVSPropertyOp17
 70
     1
102
RTVSPropertyOp18
 70
     1
102
RTVSPropertyOp19
 70
     1
102
RTVSPropertyOp20
 70
     1
102
RTVSPropertyOp21
 70
     1
102
RTVSPropertyOp22
 70
     1
102
RTVSPropertyOp23
 70
     1
102
RTVSPropertyOp24
 70
     1
102
RTVSPropertyOp25
 70
     1
102
RTVSPropertyOp26
 70
     1
102
RTVSPropertyOp27
 70
     1
102
RTVSPropertyOp28
 70
     1
102
RTVSPropertyOp29
 70
     1
102
RTVSPropertyOp30
 70
     1
102
RTVSPropertyOp31
 70
     1
102
RTVSPropertyOp32
 70
     1
102
RTVSPropertyOp33
 70
     1
102
RTVSPropertyOp34
 70
     1
102
RTVSPropertyOp35
 70
     1
102
RTVSPropertyOp36
 70
     1
102
RTVSPropertyOp37
 70
     1
102
RTVSPropertyOp38
 70
     1
102
RTVSPropertyOp39
 70
     1
102
RTVSPropertyOp40
 70
     1
102
RTVSPropertyOp41
 70
     1
102
RTVSPropertyOp42
 70
     1
102
RTVSPropertyOp43
 70
     1
102
RTVSPropertyOp44
 70
     1
102
RTVSPropertyOp45
 70
     1
102
RTVSPropertyOp46
 70
     1
102
RTVSPropertyOp47
 70
     1
102
RTVSPropertyOp48
 70
     1
102
RTVSPropertyOp49
 70
     1
102
RTVSPropertyOp50
 70
     1
102
RTVSPropertyOp51
 70
     0
102
RTVSPropertyOp52
 70
     0
102
RTVSPropertyOp53
 70
     1
102
RTVSPropertyOp54
 70
     1
102
RTVSPropertyOp55
 70
     1
102
RTVSPropertyOp56
 70
     1
102
RTVSPropertyOp57
 70
     1
102
RTVSPost2010Prop28
280
     0
102
RTVSPost2010PropOp28
 70
     1
102
RTVSPost2010Prop29
280
     1
102
RTVSPost2010PropOp29
 70
     1
102
RTVSPost2010Prop30
280
     1
102
RTVSPost2010PropOp30
 70
     1
102
RTVSPost2010Prop31
280
     0
102
RTVSPost2010PropOp31
 70
     1
102
RTVSPost2010Prop32
280
     0
102
RTVSPost2010PropOp32
 70
     1
102
RTVSPost2010Prop33
280
     0
102
RTVSPost2010PropOp33
 70
     1
102
RTVSPost2010Prop34
280
     0
102
RTVSPost2010PropOp34
 70
     1
102
RTVSPost2010Prop35
280
     0
102
RTVSPost2010PropOp35
 70
     1
102
RTVSPost2010Prop36
280
     0
102
RTVSPost2010PropOp36
 70
     1
102
RTVSPost2010Prop37
 90
       50
102
RTVSPost2010PropOp37
 70
     1
102
RTVSPost2010Prop38
140
0.0
102
RTVSPost2010PropOp38
 70
     1
102
RTVSPost2010Prop39
140
1.0
102
RTVSPost2010PropOp39
 70
     1
102
RTVSPost2010Prop40
 90
        0
102
RTVSPost2010PropOp40
 70
     1
102
RTVSPost2010Prop41ColorIndex
 90
       18
102
RTVSPost2010Prop41ColorRGB
 90
        0
102
RTVSPost2010PropOp41
 70
     1
102
RTVSPost2010Prop42
 90
       50
102
RTVSPost2010PropOp42
 70
     1
102
RTVSPost2010Prop43
 90
        3
102
RTVSPost2010PropOp43
 70
     1
102
RTVSPost2010Prop44ColorIndex
 90
        5
102
RTVSPost2010Prop44ColorRGB
 90
      255
102
RTVSPost2010PropOp44
 70
     1
102
RTVSPost2010Prop45
280
     0
102
RTVSPost2010PropOp45
 70
     1
102
RTVSPost2010Prop46
 90
       50
102
RTVSPost2010PropOp46
 70
     1
102
RTVSPost2010Prop47
 90
       50
102
RTVSPost2010PropOp47
 70
     1
102
RTVSPost2010Prop48
 90
       50
102
RTVSPost2010PropOp48
 70
     1
102
RTVSPost2010Prop49
280
     0
102
RTVSPost2010PropOp49
 70
     1
102
RTVSPost2010Prop50
 90
       50
102
RTVSPost2010PropOp50
 70
     1
102
RTVSPost2010Prop51ColorIndex
 90
      256
102
RTVSPost2010Prop51ColorRGB
 90
-16777216
102
RTVSPost2010PropOp51
 70
     0
102
RTVSPost2010Prop52
140
1.0
102
RTVSPost2010PropOp52
 70
     0
102
RTVSPost2010Prop53
 90
        2
102
RTVSPost2010PropOp53
 70
     1
102
RTVSPost2010Prop54
  1
strokes_ogs.tif
102
RTVSPost2010PropOp54
 70
     1
102
RTVSPost2010Prop55
280
     0
102
RTVSPost2010PropOp55
 70
     1
102
RTVSPost2010Prop56
140
1.0
102
RTVSPost2010PropOp56
 70
     1
102
RTVSPost2010Prop57
140
1.0
102
RTVSPost2010PropOp57
 70
     1
  0
XRECORD
  5
2BD
102
{ACAD_REACTORS
330
2BC
102
}
330
2BC
100
AcDbXrecord
280
     1
102
RTVSPropertyOp0
 70
     1
102
RTVSPropertyOp1
 70
     1
102
RTVSPropertyOp2
 70
     1
102
RTVSPropertyOp3
 70
     1
102
RTVSPropertyOp4
 70
     1
102
RTVSPropertyOp5
 70
     1
102
RTVSPropertyOp6
 70
     1
102
RTVSPropertyOp7
 70
     1
102
RTVSPropertyOp8
 70
     1
102
RTVSPropertyOp9
 70
     1
102
RTVSPropertyOp10
 70
     1
102
RTVSPropertyOp11
 70
     1
102
RTVSPropertyOp12
 70
     1
102
RTVSPropertyOp13
 70
     1
102
RTVSPropertyOp14
 70
     1
102
RTVSPropertyOp15
 70
     1
102
RTVSPropertyOp16
 70
     1
102
RTVSPropertyOp17
 70
     1
102
RTVSPropertyOp18
 70
     1
102
RTVSPropertyOp19
 70
     1
102
RTVSPropertyOp20
 70
     1
102
RTVSPropertyOp21
 70
     1
102
RTVSPropertyOp22
 70
     1
102
RTVSPropertyOp23
 70
     1
102
RTVSPropertyOp24
 70
     1
102
RTVSPropertyOp25
 70
     1
102
RTVSPropertyOp26
 70
     1
102
RTVSPropertyOp27
 70
     1
102
RTVSPropertyOp28
 70
     1
102
RTVSPropertyOp29
 70
     1
102
RTVSPropertyOp30
 70
     1
102
RTVSPropertyOp31
 70
     1
102
RTVSPropertyOp32
 70
     1
102
RTVSPropertyOp33
 70
     1
102
RTVSPropertyOp34
 70
     1
102
RTVSPropertyOp35
 70
     1
102
RTVSPropertyOp36
 70
     1
102
RTVSPropertyOp37
 70
     1
102
RTVSPropertyOp38
 70
     1
102
RTVSPropertyOp39
 70
     1
102
RTVSPropertyOp40
 70
     1
102
RTVSPropertyOp41
 70
     1
102
RTVSPropertyOp42
 70
     1
102
RTVSPropertyOp43
 70
     1
102
RTVSPropertyOp44
 70
     1
102
RTVSPropertyOp45
 70
     1
102
RTVSPropertyOp46
 70
     1
102
RTVSPropertyOp47
 70
     1
102
RTVSPropertyOp48
 70
     1
102
RTVSPropertyOp49
 70
     1
102
RTVSPropertyOp50
 70
     1
102
RTVSPropertyOp51
 70
     0
102
RTVSPropertyOp52
 70
     0
102
RTVSPropertyOp53
 70
     1
102
RTVSPropertyOp54
 70
     1
102
RTVSPropertyOp55
 70
     1
102
RTVSPropertyOp56
 70
     1
102
RTVSPropertyOp57
 70
     1
102
RTVSPost2010Prop28
280
     0
102
RTVSPost2010PropOp28
 70
     1
102
RTVSPost2010Prop29
280
     1
102
RTVSPost2010PropOp29
 70
     1
102
RTVSPost2010Prop30
280
     1
102
RTVSPost2010PropOp30
 70
     1
102
RTVSPost2010Prop31
280
     0
102
RTVSPost2010PropOp31
 70
     1
102
RTVSPost2010Prop32
280
     0
102
RTVSPost2010PropOp32
 70
     1
102
RTVSPost2010Prop33
280
     0
102
RTVSPost2010PropOp33
 70
     1
102
RTVSPost2010Prop34
280
     0
102
RTVSPost2010PropOp34
 70
     1
102
RTVSPost2010Prop35
280
     0
102
RTVSPost2010PropOp35
 70
     1
102
RTVSPost2010Prop36
280
     0
102
RTVSPost2010PropOp36
 70
     1
102
RTVSPost2010Prop37
 90
       50
102
RTVSPost2010PropOp37
 70
     1
102
RTVSPost2010Prop38
140
0.0
102
RTVSPost2010PropOp38
 70
     1
102
RTVSPost2010Prop39
140
1.0
102
RTVSPost2010PropOp39
 70
     1
102
RTVSPost2010Prop40
 90
        0
102
RTVSPost2010PropOp40
 70
     1
102
RTVSPost2010Prop41ColorIndex
 90
       18
102
RTVSPost2010Prop41ColorRGB
 90
        0
102
RTVSPost2010PropOp41
 70
     1
102
RTVSPost2010Prop42
 90
       50
102
RTVSPost2010PropOp42
 70
     1
102
RTVSPost2010Prop43
 90
        3
102
RTVSPost2010PropOp43
 70
     1
102
RTVSPost2010Prop44ColorIndex
 90
        5
102
RTVSPost2010Prop44ColorRGB
 90
      255
102
RTVSPost2010PropOp44
 70
     1
102
RTVSPost2010Prop45
280
     0
102
RTVSPost2010PropOp45
 70
     1
102
RTVSPost2010Prop46
 90
       50
102
RTVSPost2010PropOp46
 70
     1
102
RTVSPost2010Prop47
 90
       50
102
RTVSPost2010PropOp47
 70
     1
102
RTVSPost2010Prop48
 90
       50
102
RTVSPost2010PropOp48
 70
     1
102
RTVSPost2010Prop49
280
     0
102
RTVSPost2010PropOp49
 70
     1
102
RTVSPost2010Prop50
 90
       50
102
RTVSPost2010PropOp50
 70
     1
102
RTVSPost2010Prop51ColorIndex
 90
      256
102
RTVSPost2010Prop51ColorRGB
 90
-16777216
102
RTVSPost2010PropOp51
 70
     0
102
RTVSPost2010Prop52
140
1.0
102
RTVSPost2010PropOp52
 70
     0
102
RTVSPost2010Prop53
 90
        2
102
RTVSPost2010PropOp53
 70
     1
102
RTVSPost2010Prop54
  1
strokes_ogs.tif
102
RTVSPost2010PropOp54
 70
     1
102
RTVSPost2010Prop55
280
     0
102
RTVSPost2010PropOp55
 70
     1
102
RTVSPost2010Prop56
140
1.0
102
RTVSPost2010PropOp56
 70
     1
102
RTVSPost2010Prop57
140
1.0
102
RTVSPost2010PropOp57
 70
     1
  0
XRECORD
  5
2AF
102
{ACAD_REACTORS
330
2AE
102
}
330
2AE
100
AcDbXrecord
280
     1
102
RTVSPropertyOp0
 70
     1
102
RTVSPropertyOp1
 70
     1
102
RTVSPropertyOp2
 70
     1
102
RTVSPropertyOp3
 70
     1
102
RTVSPropertyOp4
 70
     1
102
RTVSPropertyOp5
 70
     1
102
RTVSPropertyOp6
 70
     1
102
RTVSPropertyOp7
 70
     1
102
RTVSPropertyOp8
 70
     1
102
RTVSPropertyOp9
 70
     1
102
RTVSPropertyOp10
 70
     1
102
RTVSPropertyOp11
 70
     1
102
RTVSPropertyOp12
 70
     1
102
RTVSPropertyOp13
 70
     1
102
RTVSPropertyOp14
 70
     1
102
RTVSPropertyOp15
 70
     1
102
RTVSPropertyOp16
 70
     1
102
RTVSPropertyOp17
 70
     1
102
RTVSPropertyOp18
 70
     1
102
RTVSPropertyOp19
 70
     1
102
RTVSPropertyOp20
 70
     1
102
RTVSPropertyOp21
 70
     1
102
RTVSPropertyOp22
 70
     1
102
RTVSPropertyOp23
 70
     1
102
RTVSPropertyOp24
 70
     1
102
RTVSPropertyOp25
 70
     1
102
RTVSPropertyOp26
 70
     1
102
RTVSPropertyOp27
 70
     1
102
RTVSPropertyOp28
 70
     1
102
RTVSPropertyOp29
 70
     1
102
RTVSPropertyOp30
 70
     1
102
RTVSPropertyOp31
 70
     1
102
RTVSPropertyOp32
 70
     1
102
RTVSPropertyOp33
 70
     1
102
RTVSPropertyOp34
 70
     1
102
RTVSPropertyOp35
 70
     1
102
RTVSPropertyOp36
 70
     1
102
RTVSPropertyOp37
 70
     1
102
RTVSPropertyOp38
 70
     1
102
RTVSPropertyOp39
 70
     1
102
RTVSPropertyOp40
 70
     1
102
RTVSPropertyOp41
 70
     1
102
RTVSPropertyOp42
 70
     1
102
RTVSPropertyOp43
 70
     1
102
RTVSPropertyOp44
 70
     1
102
RTVSPropertyOp45
 70
     1
102
RTVSPropertyOp46
 70
     1
102
RTVSPropertyOp47
 70
     1
102
RTVSPropertyOp48
 70
     1
102
RTVSPropertyOp49
 70
     1
102
RTVSPropertyOp50
 70
     1
102
RTVSPropertyOp51
 70
     0
102
RTVSPropertyOp52
 70
     0
102
RTVSPropertyOp53
 70
     1
102
RTVSPropertyOp54
 70
     1
102
RTVSPropertyOp55
 70
     1
102
RTVSPropertyOp56
 70
     1
102
RTVSPropertyOp57
 70
     1
102
RTVSPost2010Prop28
280
     0
102
RTVSPost2010PropOp28
 70
     1
102
RTVSPost2010Prop29
280
     1
102
RTVSPost2010PropOp29
 70
     1
102
RTVSPost2010Prop30
280
     1
102
RTVSPost2010PropOp30
 70
     1
102
RTVSPost2010Prop31
280
     0
102
RTVSPost2010PropOp31
 70
     1
102
RTVSPost2010Prop32
280
     0
102
RTVSPost2010PropOp32
 70
     1
102
RTVSPost2010Prop33
280
     0
102
RTVSPost2010PropOp33
 70
     1
102
RTVSPost2010Prop34
280
     0
102
RTVSPost2010PropOp34
 70
     1
102
RTVSPost2010Prop35
280
     0
102
RTVSPost2010PropOp35
 70
     1
102
RTVSPost2010Prop36
280
     0
102
RTVSPost2010PropOp36
 70
     1
102
RTVSPost2010Prop37
 90
       50
102
RTVSPost2010PropOp37
 70
     1
102
RTVSPost2010Prop38
140
0.0
102
RTVSPost2010PropOp38
 70
     1
102
RTVSPost2010Prop39
140
1.0
102
RTVSPost2010PropOp39
 70
     1
102
RTVSPost2010Prop40
 90
        0
102
RTVSPost2010PropOp40
 70
     1
102
RTVSPost2010Prop41ColorIndex
 90
       18
102
RTVSPost2010Prop41ColorRGB
 90
        0
102
RTVSPost2010PropOp41
 70
     1
102
RTVSPost2010Prop42
 90
       50
102
RTVSPost2010PropOp42
 70
     1
102
RTVSPost2010Prop43
 90
        3
102
RTVSPost2010PropOp43
 70
     1
102
RTVSPost2010Prop44ColorIndex
 90
        5
102
RTVSPost2010Prop44ColorRGB
 90
      255
102
RTVSPost2010PropOp44
 70
     1
102
RTVSPost2010Prop45
280
     0
102
RTVSPost2010PropOp45
 70
     1
102
RTVSPost2010Prop46
 90
       50
102
RTVSPost2010PropOp46
 70
     1
102
RTVSPost2010Prop47
 90
       50
102
RTVSPost2010PropOp47
 70
     1
102
RTVSPost2010Prop48
 90
       50
102
RTVSPost2010PropOp48
 70
     1
102
RTVSPost2010Prop49
280
     0
102
RTVSPost2010PropOp49
 70
     1
102
RTVSPost2010Prop50
 90
       50
102
RTVSPost2010PropOp50
 70
     1
102
RTVSPost2010Prop51ColorIndex
 90
      256
102
RTVSPost2010Prop51ColorRGB
 90
-16777216
102
RTVSPost2010PropOp51
 70
     0
102
RTVSPost2010Prop52
140
1.0
102
RTVSPost2010PropOp52
 70
     0
102
RTVSPost2010Prop53
 90
        2
102
RTVSPost2010PropOp53
 70
     1
102
RTVSPost2010Prop54
  1
strokes_ogs.tif
102
RTVSPost2010PropOp54
 70
     1
102
RTVSPost2010Prop55
280
     0
102
RTVSPost2010PropOp55
 70
     1
102
RTVSPost2010Prop56
140
1.0
102
RTVSPost2010PropOp56
 70
     1
102
RTVSPost2010Prop57
140
1.0
102
RTVSPost2010PropOp57
 70
     1
  0
XRECORD
  5
2CF
102
{ACAD_REACTORS
330
2CE
102
}
330
2CE
100
AcDbXrecord
280
     1
102
RTVSPropertyOp0
 70
     1
102
RTVSPropertyOp1
 70
     1
102
RTVSPropertyOp2
 70
     1
102
RTVSPropertyOp3
 70
     1
102
RTVSPropertyOp4
 70
     1
102
RTVSPropertyOp5
 70
     1
102
RTVSPropertyOp6
 70
     1
102
RTVSPropertyOp7
 70
     1
102
RTVSPropertyOp8
 70
     1
102
RTVSPropertyOp9
 70
     1
102
RTVSPropertyOp10
 70
     1
102
RTVSPropertyOp11
 70
     1
102
RTVSPropertyOp12
 70
     1
102
RTVSPropertyOp13
 70
     1
102
RTVSPropertyOp14
 70
     1
102
RTVSPropertyOp15
 70
     1
102
RTVSPropertyOp16
 70
     1
102
RTVSPropertyOp17
 70
     1
102
RTVSPropertyOp18
 70
     1
102
RTVSPropertyOp19
 70
     1
102
RTVSPropertyOp20
 70
     1
102
RTVSPropertyOp21
 70
     1
102
RTVSPropertyOp22
 70
     1
102
RTVSPropertyOp23
 70
     1
102
RTVSPropertyOp24
 70
     1
102
RTVSPropertyOp25
 70
     1
102
RTVSPropertyOp26
 70
     1
102
RTVSPropertyOp27
 70
     1
102
RTVSPropertyOp28
 70
     1
102
RTVSPropertyOp29
 70
     1
102
RTVSPropertyOp30
 70
     1
102
RTVSPropertyOp31
 70
     1
102
RTVSPropertyOp32
 70
     1
102
RTVSPropertyOp33
 70
     1
102
RTVSPropertyOp34
 70
     1
102
RTVSPropertyOp35
 70
     1
102
RTVSPropertyOp36
 70
     1
102
RTVSPropertyOp37
 70
     1
102
RTVSPropertyOp38
 70
     1
102
RTVSPropertyOp39
 70
     1
102
RTVSPropertyOp40
 70
     1
102
RTVSPropertyOp41
 70
     1
102
RTVSPropertyOp42
 70
     1
102
RTVSPropertyOp43
 70
     1
102
RTVSPropertyOp44
 70
     1
102
RTVSPropertyOp45
 70
     1
102
RTVSPropertyOp46
 70
     1
102
RTVSPropertyOp47
 70
     1
102
RTVSPropertyOp48
 70
     1
102
RTVSPropertyOp49
 70
     1
102
RTVSPropertyOp50
 70
     1
102
RTVSPropertyOp51
 70
     0
102
RTVSPropertyOp52
 70
     0
102
RTVSPropertyOp53
 70
     1
102
RTVSPropertyOp54
 70
     1
102
RTVSPropertyOp55
 70
     1
102
RTVSPropertyOp56
 70
     1
102
RTVSPropertyOp57
 70
     1
102
RTVSPost2010Prop28
280
     0
102
RTVSPost2010PropOp28
 70
     1
102
RTVSPost2010Prop29
280
     1
102
RTVSPost2010PropOp29
 70
     1
102
RTVSPost2010Prop30
280
     1
102
RTVSPost2010PropOp30
 70
     1
102
RTVSPost2010Prop31
280
     0
102
RTVSPost2010PropOp31
 70
     1
102
RTVSPost2010Prop32
280
     0
102
RTVSPost2010PropOp32
 70
     1
102
RTVSPost2010Prop33
280
     0
102
RTVSPost2010PropOp33
 70
     1
102
RTVSPost2010Prop34
280
     0
102
RTVSPost2010PropOp34
 70
     1
102
RTVSPost2010Prop35
280
     0
102
RTVSPost2010PropOp35
 70
     1
102
RTVSPost2010Prop36
280
     0
102
RTVSPost2010PropOp36
 70
     1
102
RTVSPost2010Prop37
 90
       50
102
RTVSPost2010PropOp37
 70
     1
102
RTVSPost2010Prop38
140
0.0
102
RTVSPost2010PropOp38
 70
     1
102
RTVSPost2010Prop39
140
1.0
102
RTVSPost2010PropOp39
 70
     1
102
RTVSPost2010Prop40
 90
        0
102
RTVSPost2010PropOp40
 70
     1
102
RTVSPost2010Prop41ColorIndex
 90
       18
102
RTVSPost2010Prop41ColorRGB
 90
        0
102
RTVSPost2010PropOp41
 70
     1
102
RTVSPost2010Prop42
 90
       50
102
RTVSPost2010PropOp42
 70
     1
102
RTVSPost2010Prop43
 90
        3
102
RTVSPost2010PropOp43
 70
     1
102
RTVSPost2010Prop44ColorIndex
 90
        5
102
RTVSPost2010Prop44ColorRGB
 90
      255
102
RTVSPost2010PropOp44
 70
     1
102
RTVSPost2010Prop45
280
     0
102
RTVSPost2010PropOp45
 70
     1
102
RTVSPost2010Prop46
 90
       50
102
RTVSPost2010PropOp46
 70
     1
102
RTVSPost2010Prop47
 90
       50
102
RTVSPost2010PropOp47
 70
     1
102
RTVSPost2010Prop48
 90
       50
102
RTVSPost2010PropOp48
 70
     1
102
RTVSPost2010Prop49
280
     0
102
RTVSPost2010PropOp49
 70
     1
102
RTVSPost2010Prop50
 90
       50
102
RTVSPost2010PropOp50
 70
     1
102
RTVSPost2010Prop51ColorIndex
 90
      256
102
RTVSPost2010Prop51ColorRGB
 90
-16777216
102
RTVSPost2010PropOp51
 70
     0
102
RTVSPost2010Prop52
140
1.0
102
RTVSPost2010PropOp52
 70
     0
102
RTVSPost2010Prop53
 90
        2
102
RTVSPost2010PropOp53
 70
     1
102
RTVSPost2010Prop54
  1
strokes_ogs.tif
102
RTVSPost2010PropOp54
 70
     1
102
RTVSPost2010Prop55
280
     0
102
RTVSPost2010PropOp55
 70
     1
102
RTVSPost2010Prop56
140
1.0
102
RTVSPost2010PropOp56
 70
     1
102
RTVSPost2010Prop57
140
1.0
102
RTVSPost2010PropOp57
 70
     1
  0
ENDSEC
  0
EOF
