  0
SECTION
  2
HEADER
  9
$ACADVER
  1
AC1018
  9
$ACADMAINTVER
 70
     0
  9
$DWGCODEPAGE
  3
ANSI_932
  9
$INSBASE
 10
0.0
 20
0.0
 30
0.0
  9
$EXTMIN
 10
-2100.0
 20
-1485.0
 30
0.0
  9
$EXTMAX
 10
2100.0
 20
1485.0
 30
0.0
  9
$LIMMIN
 10
-2100.0
 20
-1485.0
  9
$LIMMAX
 10
2100.0
 20
1485.0
  9
$ORTHOMODE
 70
     0
  9
$REGENMODE
 70
     1
  9
$FILLMODE
 70
     1
  9
$QTEXTMODE
 70
     0
  9
$MIRRTEXT
 70
     1
  9
$LTSCALE
 40
10.0
  9
$ATTMODE
 70
     1
  9
$TEXTSIZE
 40
2.5
  9
$TRACEWID
 40
1.0
  9
$TEXTSTYLE
  7
Standard
  9
$CLAYER
  8
0
  9
$CELTYPE
  6
ByLayer
  9
$CECOLOR
 62
   256
  9
$CELTSCALE
 40
1.0
  9
$DISPSILH
 70
     0
  9
$DIMSCALE
 40
1.0
  9
$DIMASZ
 40
2.5
  9
$DIMEXO
 40
0.625
  9
$DIMDLI
 40
3.75
  9
$DIMRND
 40
0.0
  9
$DIMDLE
 40
0.0
  9
$DIMEXE
 40
1.25
  9
$DIMTP
 40
0.0
  9
$DIMTM
 40
0.0
  9
$DIMTXT
 40
2.5
  9
$DIMCEN
 40
2.5
  9
$DIMTSZ
 40
0.0
  9
$DIMTOL
 70
     0
  9
$DIMLIM
 70
     0
  9
$DIMTIH
 70
     0
  9
$DIMTOH
 70
     0
  9
$DIMSE1
 70
     0
  9
$DIMSE2
 70
     0
  9
$DIMTAD
 70
     1
  9
$DIMZIN
 70
     8
  9
$DIMBLK
  1

  9
$DIMASO
 70
     1
  9
$DIMSHO
 70
     1
  9
$DIMPOST
  1

  9
$DIMAPOST
  1

  9
$DIMALT
 70
     0
  9
$DIMALTD
 70
     3
  9
$DIMALTF
 40
0.03937007874016
  9
$DIMLFAC
 40
1.0
  9
$DIMTOFL
 70
     1
  9
$DIMTVP
 40
0.0
  9
$DIMTIX
 70
     0
  9
$DIMSOXD
 70
     0
  9
$DIMSAH
 70
     0
  9
$DIMBLK1
  1

  9
$DIMBLK2
  1

  9
$DIMSTYLE
  2
ISO-25
  9
$DIMCLRD
 70
     0
  9
$DIMCLRE
 70
     0
  9
$DIMCLRT
 70
     0
  9
$DIMTFAC
 40
1.0
  9
$DIMGAP
 40
0.625
  9
$DIMJUST
 70
     0
  9
$DIMSD1
 70
     0
  9
$DIMSD2
 70
     0
  9
$DIMTOLJ
 70
     0
  9
$DIMTZIN
 70
     8
  9
$DIMALTZ
 70
     0
  9
$DIMALTTZ
 70
     0
  9
$DIMUPT
 70
     0
  9
$DIMDEC
 70
     2
  9
$DIMTDEC
 70
     2
  9
$DIMALTU
 70
     2
  9
$DIMALTTD
 70
     3
  9
$DIMTXSTY
  7
Standard
  9
$DIMAUNIT
 70
     0
  9
$DIMADEC
 70
     0
  9
$DIMALTRND
 40
0.0
  9
$DIMAZIN
 70
     0
  9
$DIMDSEP
 70
    44
  9
$DIMATFIT
 70
     3
  9
$DIMFRAC
 70
     0
  9
$DIMLDRBLK
  1

  9
$DIMLUNIT
 70
     2
  9
$DIMLWD
 70
    -2
  9
$DIMLWE
 70
    -2
  9
$DIMTMOVE
 70
     0
  9
$LUNITS
 70
     2
  9
$LUPREC
 70
     4
  9
$SKETCHINC
 40
1.0
  9
$FILLETRAD
 40
10.0
  9
$AUNITS
 70
     0
  9
$AUPREC
 70
     0
  9
$MENU
  1
.
  9
$ELEVATION
 40
0.0
  9
$PELEVATION
 40
0.0
  9
$THICKNESS
 40
0.0
  9
$LIMCHECK
 70
     0
  9
$CHAMFERA
 40
0.0
  9
$CHAMFERB
 40
0.0
  9
$CHAMFERC
 40
0.0
  9
$CHAMFERD
 40
0.0
  9
$SKPOLY
 70
     0
  9
$TDCREATE
 40
2459016.436141227
  9
$TDUCREATE
 40
2459016.061141227
  9
$TDUPDATE
 40
2459016.436141377
  9
$TDUUPDATE
 40
2459016.061141377
  9
$TDINDWG
 40
0.0000000116
  9
$TDUSRTIMER
 40
0.0000000116
  9
$USRTIMER
 70
     1
  9
$ANGBASE
 50
0.0
  9
$ANGDIR
 70
     0
  9
$PDMODE
 70
     0
  9
$PDSIZE
 40
0.0
  9
$PLINEWID
 40
0.0
  9
$SPLFRAME
 70
     0
  9
$SPLINETYPE
 70
     6
  9
$SPLINESEGS
 70
     8
  9
$HANDSEED
  5
312
  9
$SURFTAB1
 70
     6
  9
$SURFTAB2
 70
     6
  9
$SURFTYPE
 70
     6
  9
$SURFU
 70
     6
  9
$SURFV
 70
     6
  9
$UCSBASE
  2

  9
$UCSNAME
  2

  9
$UCSORG
 10
0.0
 20
0.0
 30
0.0
  9
$UCSXDIR
 10
1.0
 20
0.0
 30
0.0
  9
$UCSYDIR
 10
0.0
 20
1.0
 30
0.0
  9
$UCSORTHOREF
  2

  9
$UCSORTHOVIEW
 70
     0
  9
$UCSORGTOP
 10
0.0
 20
0.0
 30
0.0
  9
$UCSORGBOTTOM
 10
0.0
 20
0.0
 30
0.0
  9
$UCSORGLEFT
 10
0.0
 20
0.0
 30
0.0
  9
$UCSORGRIGHT
 10
0.0
 20
0.0
 30
0.0
  9
$UCSORGFRONT
 10
0.0
 20
0.0
 30
0.0
  9
$UCSORGBACK
 10
0.0
 20
0.0
 30
0.0
  9
$PUCSBASE
  2

  9
$PUCSNAME
  2

  9
$PUCSORG
 10
0.0
 20
0.0
 30
0.0
  9
$PUCSXDIR
 10
1.0
 20
0.0
 30
0.0
  9
$PUCSYDIR
 10
0.0
 20
1.0
 30
0.0
  9
$PUCSORTHOREF
  2

  9
$PUCSORTHOVIEW
 70
     0
  9
$PUCSORGTOP
 10
0.0
 20
0.0
 30
0.0
  9
$PUCSORGBOTTOM
 10
0.0
 20
0.0
 30
0.0
  9
$PUCSORGLEFT
 10
0.0
 20
0.0
 30
0.0
  9
$PUCSORGRIGHT
 10
0.0
 20
0.0
 30
0.0
  9
$PUCSORGFRONT
 10
0.0
 20
0.0
 30
0.0
  9
$PUCSORGBACK
 10
0.0
 20
0.0
 30
0.0
  9
$USERI1
 70
     0
  9
$USERI2
 70
     0
  9
$USERI3
 70
     0
  9
$USERI4
 70
     0
  9
$USERI5
 70
     0
  9
$USERR1
 40
0.0
  9
$USERR2
 40
0.0
  9
$USERR3
 40
0.0
  9
$USERR4
 40
0.0
  9
$USERR5
 40
0.0
  9
$WORLDVIEW
 70
     1
  9
$SHADEDGE
 70
     3
  9
$SHADEDIF
 70
    70
  9
$TILEMODE
 70
     1
  9
$MAXACTVP
 70
    64
  9
$PINSBASE
 10
0.0
 20
0.0
 30
0.0
  9
$PLIMCHECK
 70
     0
  9
$PEXTMIN
 10
1.000000000000000E+20
 20
1.000000000000000E+20
 30
1.000000000000000E+20
  9
$PEXTMAX
 10
-1.000000000000000E+20
 20
-1.000000000000000E+20
 30
-1.000000000000000E+20
  9
$PLIMMIN
 10
0.0
 20
0.0
  9
$PLIMMAX
 10
420.0
 20
297.0
  9
$UNITMODE
 70
     0
  9
$VISRETAIN
 70
     1
  9
$PLINEGEN
 70
     0
  9
$PSLTSCALE
 70
     1
  9
$TREEDEPTH
 70
  3020
  9
$CMLSTYLE
  2
Standard
  9
$CMLJUST
 70
     0
  9
$CMLSCALE
 40
20.0
  9
$PROXYGRAPHICS
 70
     1
  9
$MEASUREMENT
 70
     1
  9
$CELWEIGHT
370
    -1
  9
$ENDCAPS
280
     0
  9
$JOINSTYLE
280
     0
  9
$LWDISPLAY
290
     0
  9
$INSUNITS
 70
     4
  9
$HYPERLINKBASE
  1

  9
$STYLESHEET
  1

  9
$XEDIT
290
     1
  9
$CEPSNTYPE
380
     0
  9
$PSTYLEMODE
290
     1
  9
$FINGERPRINTGUID
  2
{3758F728-74CB-448D-A73D-F942BAD9F4F0}
  9
$VERSIONGUID
  2
{FAEB1C32-E019-11D5-929B-00C0DF256EC4}
  9
$EXTNAMES
290
     1
  9
$PSVPSCALE
 40
0.0
  9
$OLESTARTUP
290
     0
  9
$SORTENTS
280
   127
  9
$INDEXCTL
280
     0
  9
$HIDETEXT
280
     1
  9
$XCLIPFRAME
290
     0
  9
$HALOGAP
280
     0
  9
$OBSCOLOR
 70
   257
  9
$OBSLTYPE
280
     0
  9
$INTERSECTIONDISPLAY
280
     0
  9
$INTERSECTIONCOLOR
 70
   257
  9
$DIMASSOC
280
     2
  9
$PROJECTNAME
  1

  0
ENDSEC
  0
SECTION
  2
CLASSES
  0
CLASS
  1
ACDBDICTIONARYWDFLT
  2
AcDbDictionaryWithDefault
  3
ObjectDBX Classes
 90
        0
 91
        4
280
     0
281
     0
  0
CLASS
  1
VISUALSTYLE
  2
AcDbVisualStyle
  3
ObjectDBX Classes
 90
     4095
 91
        4
280
     0
281
     0
  0
CLASS
  1
MATERIAL
  2
AcDbMaterial
  3
ObjectDBX Classes
 90
     1153
 91
        4
280
     0
281
     0
  0
CLASS
  1
SCALE
  2
AcDbScale
  3
ObjectDBX Classes
 90
     1153
 91
        4
280
     0
281
     0
  0
CLASS
  1
TABLESTYLE
  2
AcDbTableStyle
  3
ObjectDBX Classes
 90
     4095
 91
        4
280
     0
281
     0
  0
CLASS
  1
MLEADERSTYLE
  2
AcDbMLeaderStyle
  3
ACDB_MLEADERSTYLE_CLASS
 90
     4095
 91
        4
280
     0
281
     0
  0
CLASS
  1
SUN
  2
AcDbSun
  3
SCENEOE
 90
     1153
 91
        4
280
     0
281
     0
  0
CLASS
  1
DICTIONARYVAR
  2
AcDbDictionaryVar
  3
ObjectDBX Classes
 90
        0
 91
        4
280
     0
281
     0
  0
CLASS
  1
CELLSTYLEMAP
  2
AcDbCellStyleMap
  3
ObjectDBX Classes
 90
     1152
 91
        4
280
     0
281
     0
  0
ENDSEC
  0
SECTION
  2
TABLES
  0
TABLE
  2
VPORT
  5
8
102
{ACAD_XDICTIONARY
360
2C9
102
}
330
0
100
AcDbSymbolTable
 70
     1
  0
VPORT
  5
29
330
8
100
AcDbSymbolTableRecord
100
AcDbViewportTableRecord
  2
*Active
 70
     0
 10
0.0
 20
0.0
 11
1.0
 21
1.0
 12
0.0
 22
0.0
 13
0.0
 23
0.0
 14
10.0
 24
10.0
 15
10.0
 25
10.0
 16
0.0
 26
0.0
 36
1.0
 17
0.0
 27
0.0
 37
0.0
 40
3267.0
 41
1.414141414141414
 42
50.0
 43
0.0
 44
0.0
 50
0.0
 51
0.0
 71
     0
 72
 10000
 73
     1
 74
     3
 75
     0
 76
     0
 77
     0
 78
     0
281
     0
 65
     1
110
0.0
120
0.0
130
0.0
111
1.0
121
0.0
131
0.0
112
0.0
122
1.0
132
0.0
 79
     0
146
0.0
  0
ENDTAB
  0
TABLE
  2
LTYPE
  5
5
330
0
100
AcDbSymbolTable
 70
     6
  0
LTYPE
  5
14
330
5
100
AcDbSymbolTableRecord
100
AcDbLinetypeTableRecord
  2
ByBlock
 70
     0
  3

 72
    65
 73
     0
 40
0.0
  0
LTYPE
  5
15
330
5
100
AcDbSymbolTableRecord
100
AcDbLinetypeTableRecord
  2
ByLayer
 70
     0
  3

 72
    65
 73
     0
 40
0.0
  0
LTYPE
  5
16
330
5
100
AcDbSymbolTableRecord
100
AcDbLinetypeTableRecord
  2
Continuous
 70
     0
  3
Solid line
 72
    65
 73
     0
 40
0.0
  0
LTYPE
  5
6F
330
5
100
AcDbSymbolTableRecord
100
AcDbLinetypeTableRecord
  2
JWW_CENTER2
 70
     0
  3
-------------  --  -------------
 72
    65
 73
     4
 40
13.54666666666667
 49
11.00666666666667
 74
     0
 49
-0.8466666666666667
 74
     0
 49
0.8466666666666667
 74
     0
 49
-0.8466666666666667
 74
     0
  0
LTYPE
  5
70
330
5
100
AcDbSymbolTableRecord
100
AcDbLinetypeTableRecord
  2
JWW_DASHED2
 70
     0
  3
--    ----    ----    ----    --
 72
    65
 73
     2
 40
3.386666666666667
 49
1.693333333333333
 74
     0
 49
-1.693333333333333
 74
     0
  0
LTYPE
  5
71
330
5
100
AcDbSymbolTableRecord
100
AcDbLinetypeTableRecord
  2
JWW_PHANTOM1
 70
     0
  3
----  -  -  --------  -  -  ----
 72
    65
 73
     6
 40
6.773333333333333
 49
3.386666666666667
 74
     0
 49
-0.8466666666666667
 74
     0
 49
0.4233333333333333
 74
     0
 49
-0.8466666666666667
 74
     0
 49
0.4233333333333333
 74
     0
 49
-0.8466666666666667
 74
     0
  0
LTYPE
  5
72
330
5
100
AcDbSymbolTableRecord
100
AcDbLinetypeTableRecord
  2
JWW_CENTER1
 70
     0
  3
-----  --  ----------  --  -----
 72
    65
 73
     4
 40
6.773333333333333
 49
4.233333333333333
 74
     0
 49
-0.8466666666666667
 74
     0
 49
0.8466666666666667
 74
     0
 49
-0.8466666666666667
 74
     0
  0
LTYPE
  5
73
330
5
100
AcDbSymbolTableRecord
100
AcDbLinetypeTableRecord
  2
JWW_DASHED1
 70
     0
  3
-  --  --  --  --  --  --  --  -
 72
    65
 73
     2
 40
1.693333333333333
 49
0.8466666666666667
 74
     0
 49
-0.8466666666666667
 74
     0
  0
ENDTAB
  0
TABLE
  2
LAYER
  5
2
330
0
100
AcDbSymbolTable
 70
    23
  0
LAYER
  5
10
330
2
100
AcDbSymbolTableRecord
100
AcDbLayerTableRecord
  2
0
 70
     0
 62
     7
  6
Continuous
370
    -3
390
F
  0
LAYER
  5
74
330
2
100
AcDbSymbolTableRecord
100
AcDbLayerTableRecord
  2
F-5ﾚｲﾔ
 70
     0
 62
     7
  6
Continuous
370
    -3
390
F
  0
LAYER
  5
75
330
2
100
AcDbSymbolTableRecord
100
AcDbLayerTableRecord
  2
C-4_文字
 70
     0
 62
     7
  6
Continuous
370
    -3
390
F
  0
LAYER
  5
76
330
2
100
AcDbSymbolTableRecord
100
AcDbLayerTableRecord
  2
C-0_通り芯
 70
     0
 62
     7
  6
Continuous
370
    -3
390
F
  0
LAYER
  5
77
330
2
100
AcDbSymbolTableRecord
100
AcDbLayerTableRecord
  2
C-2_仕上
 70
     0
 62
     7
  6
Continuous
370
    -3
390
F
  0
LAYER
  5
78
330
2
100
AcDbSymbolTableRecord
100
AcDbLayerTableRecord
  2
C-1_躯体
 70
     0
 62
     7
  6
Continuous
370
    -3
390
F
  0
LAYER
  5
79
330
2
100
AcDbSymbolTableRecord
100
AcDbLayerTableRecord
  2
C-3_寸法
 70
     0
 62
     7
  6
Continuous
370
    -3
390
F
  0
LAYER
  5
7A
330
2
100
AcDbSymbolTableRecord
100
AcDbLayerTableRecord
  2
C-E_見え係り
 70
     0
 62
     7
  6
Continuous
370
    -3
390
F
  0
LAYER
  5
7B
330
2
100
AcDbSymbolTableRecord
100
AcDbLayerTableRecord
  2
C-6_間仕切
 70
     0
 62
     7
  6
Continuous
370
    -3
390
F
  0
LAYER
  5
7C
330
2
100
AcDbSymbolTableRecord
100
AcDbLayerTableRecord
  2
C-B_衛生陶器
 70
     0
 62
     7
  6
Continuous
370
    -3
390
F
  0
LAYER
  5
7D
330
2
100
AcDbSymbolTableRecord
100
AcDbLayerTableRecord
  2
C-9_記号
 70
     0
 62
     7
  6
Continuous
370
    -3
390
F
  0
LAYER
  5
7E
330
2
100
AcDbSymbolTableRecord
100
AcDbLayerTableRecord
  2
C-5_建具
 70
     0
 62
     7
  6
Continuous
370
    -3
390
F
  0
LAYER
  5
7F
330
2
100
AcDbSymbolTableRecord
100
AcDbLayerTableRecord
  2
D-0_通り芯
 70
     0
 62
     7
  6
Continuous
370
    -3
390
F
  0
LAYER
  5
80
330
2
100
AcDbSymbolTableRecord
100
AcDbLayerTableRecord
  2
D-5_建具
 70
     0
 62
     7
  6
Continuous
370
    -3
390
F
  0
LAYER
  5
81
330
2
100
AcDbSymbolTableRecord
100
AcDbLayerTableRecord
  2
D-1_躯体
 70
     0
 62
     7
  6
Continuous
370
    -3
390
F
  0
LAYER
  5
82
330
2
100
AcDbSymbolTableRecord
100
AcDbLayerTableRecord
  2
D-E_見え係り
 70
     0
 62
     7
  6
Continuous
370
    -3
390
F
  0
LAYER
  5
83
330
2
100
AcDbSymbolTableRecord
100
AcDbLayerTableRecord
  2
D-6_間仕切
 70
     0
 62
     7
  6
Continuous
370
    -3
390
F
  0
LAYER
  5
84
330
2
100
AcDbSymbolTableRecord
100
AcDbLayerTableRecord
  2
D-B_衛生陶器
 70
     0
 62
     7
  6
Continuous
370
    -3
390
F
  0
LAYER
  5
85
330
2
100
AcDbSymbolTableRecord
100
AcDbLayerTableRecord
  2
D-9_記号
 70
     0
 62
     7
  6
Continuous
370
    -3
390
F
  0
LAYER
  5
86
330
2
100
AcDbSymbolTableRecord
100
AcDbLayerTableRecord
  2
D-4_文字
 70
     0
 62
     7
  6
Continuous
370
    -3
390
F
  0
LAYER
  5
87
330
2
100
AcDbSymbolTableRecord
100
AcDbLayerTableRecord
  2
C-A_インテリア
 70
     0
 62
     7
  6
Continuous
370
    -3
390
F
  0
LAYER
  5
88
330
2
100
AcDbSymbolTableRecord
100
AcDbLayerTableRecord
  2
D-A_インテリア
 70
     0
 62
     7
  6
Continuous
370
    -3
390
F
  0
LAYER
  5
89
330
2
100
AcDbSymbolTableRecord
100
AcDbLayerTableRecord
  2
F-Fﾚｲﾔ
 70
     0
 62
     7
  6
Continuous
370
    -3
390
F
  0
ENDTAB
  0
TABLE
  2
STYLE
  5
3
330
0
100
AcDbSymbolTable
 70
     2
  0
STYLE
  5
11
330
3
100
AcDbSymbolTableRecord
100
AcDbTextStyleTableRecord
  2
Standard
 70
     0
 40
0.0
 41
1.0
 50
0.0
 71
     0
 42
2.5
  3
txt
  4

  0
STYLE
  5
6E
330
3
100
AcDbSymbolTableRecord
100
AcDbTextStyleTableRecord
  2
ＭＳ ゴシック
 70
     0
 40
1.0
 41
1.0
 50
0.0
 71
     0
 42
2.5
  3

  4

1001
ACAD
1000
MS Gothic
1071
    32817
  0
ENDTAB
  0
TABLE
  2
VIEW
  5
6
330
0
100
AcDbSymbolTable
 70
     0
  0
ENDTAB
  0
TABLE
  2
UCS
  5
7
330
0
100
AcDbSymbolTable
 70
     0
  0
ENDTAB
  0
TABLE
  2
APPID
  5
9
330
0
100
AcDbSymbolTable
 70
     2
  0
APPID
  5
12
330
9
100
AcDbSymbolTableRecord
100
AcDbRegAppTableRecord
  2
ACAD
 70
     0
  0
APPID
  5
308
330
9
100
AcDbSymbolTableRecord
100
AcDbRegAppTableRecord
  2
ACAD_MLEADERVER
 70
     0
  0
ENDTAB
  0
TABLE
  2
DIMSTYLE
  5
A
330
0
100
AcDbSymbolTable
 70
     1
100
AcDbDimStyleTable
  0
DIMSTYLE
105
27
330
A
100
AcDbSymbolTableRecord
100
AcDbDimStyleTableRecord
  2
ISO-25
 70
     0
 41
2.5
 42
0.625
 43
3.75
 44
1.25
 73
     0
 74
     0
 77
     1
 78
     8
140
2.5
141
2.5
143
0.03937007874016
147
0.625
171
     3
172
     1
178
     0
271
     2
272
     2
274
     3
278
    44
283
     0
284
     8
340
11
  0
ENDTAB
  0
TABLE
  2
BLOCK_RECORD
  5
1
330
0
100
AcDbSymbolTable
 70
     1
  0
BLOCK_RECORD
  5
1F
330
1
100
AcDbSymbolTableRecord
100
AcDbBlockTableRecord
  2
*Model_Space
340
22
  0
BLOCK_RECORD
  5
1B
330
1
100
AcDbSymbolTableRecord
100
AcDbBlockTableRecord
  2
*Paper_Space
340
1E
  0
BLOCK_RECORD
  5
23
330
1
100
AcDbSymbolTableRecord
100
AcDbBlockTableRecord
  2
*Paper_Space0
340
26
  0
ENDTAB
  0
ENDSEC
  0
SECTION
  2
BLOCKS
  0
BLOCK
  5
20
330
1F
100
AcDbEntity
  8
0
100
AcDbBlockBegin
  2
*Model_Space
 70
     0
 10
0.0
 20
0.0
 30
0.0
  3
*Model_Space
  1

  0
ENDBLK
  5
21
330
1F
100
AcDbEntity
  8
0
100
AcDbBlockEnd
  0
BLOCK
  5
1C
330
1B
100
AcDbEntity
 67
     1
  8
0
100
AcDbBlockBegin
  2
*Paper_Space
 70
     0
 10
0.0
 20
0.0
 30
0.0
  3
*Paper_Space
  1

  0
ENDBLK
  5
1D
330
1B
100
AcDbEntity
 67
     1
  8
0
100
AcDbBlockEnd
  0
BLOCK
  5
24
330
23
100
AcDbEntity
  8
0
100
AcDbBlockBegin
  2
*Paper_Space0
 70
     0
 10
0.0
 20
0.0
 30
0.0
  3
*Paper_Space0
  1

  0
ENDBLK
  5
25
330
23
100
AcDbEntity
  8
0
100
AcDbBlockEnd
  0
ENDSEC
  0
SECTION
  2
ENTITIES
  0
TEXT
  5
8A
330
1F
100
AcDbEntity
  8
F-5ﾚｲﾔ
  6
Continuous
 62
     2
370
     9
100
AcDbText
 10
1192.638704563886
 20
-1052.200916680239
 30
0.0
 40
30.48
  1
本体色は、黄または白です。
 41
1.115384615384615
  7
ＭＳ ゴシック
100
AcDbText
  0
TEXT
  5
8B
330
1F
100
AcDbEntity
  8
F-5ﾚｲﾔ
  6
Continuous
 62
     2
370
     9
100
AcDbText
 10
1192.638704563886
 20
-1111.671894792166
 30
0.0
 40
30.48
  1
ご注文の際にご指示ください。
 41
1.116071428571428
  7
ＭＳ ゴシック
100
AcDbText
  0
LINE
  5
8C
330
1F
100
AcDbEntity
  8
C-4_文字
  6
Continuous
 62
     7
370
     9
100
AcDbLine
 10
-1111.229830975092
 20
658.1161794281388
 30
0.0
 11
-1136.015939868409
 21
654.8530667671378
 31
0.0
  0
LINE
  5
8D
330
1F
100
AcDbEntity
  8
C-4_文字
  6
Continuous
 62
     7
370
     9
100
AcDbLine
 10
-1111.229830975092
 20
658.1161794281388
 30
0.0
 11
-1136.015939868409
 21
661.3792920891393
 31
0.0
  0
LINE
  5
8E
330
1F
100
AcDbEntity
  8
C-4_文字
  6
Continuous
 62
     7
370
     9
100
AcDbLine
 10
-1050.729804581511
 20
658.1161794281388
 30
0.0
 11
-1025.943695688193
 21
661.3792920891393
 31
0.0
  0
LINE
  5
8F
330
1F
100
AcDbEntity
  8
C-4_文字
  6
Continuous
 62
     7
370
     9
100
AcDbLine
 10
-1050.729804581511
 20
658.1161794281388
 30
0.0
 11
-1025.943695688193
 21
654.8530667671378
 31
0.0
  0
LINE
  5
90
330
1F
100
AcDbEntity
  8
C-4_文字
  6
Continuous
 62
     7
370
     9
100
AcDbLine
 10
-873.6269784888162
 20
658.1161794281388
 30
0.0
 11
-1152.791926823382
 21
658.1161794281388
 31
0.0
  0
ARC
  5
91
330
1F
100
AcDbEntity
  8
C-0_通り芯
  6
JWW_CENTER2
 62
     7
370
     9
100
AcDbCircle
 10
-905.979859018272
 20
777.8690117893087
 30
0.0
 40
175.0000051549963
100
AcDbArc
 50
89.999755859375
 51
180.0
  0
ARC
  5
92
330
1F
100
AcDbEntity
  8
C-2_仕上
  6
Continuous
 62
     3
370
     9
100
AcDbCircle
 10
-905.9797352983608
 20
777.8685169096628
 30
0.0
 40
144.7500074231947
100
AcDbArc
 50
89.9998016357422
 51
180.0
  0
ARC
  5
93
330
1F
100
AcDbEntity
  8
C-2_仕上
  6
Continuous
 62
     3
370
     9
100
AcDbCircle
 10
-905.979859018272
 20
777.8690117893087
 30
0.0
 40
205.2500028867979
100
AcDbArc
 50
89.99977111816406
 51
180.0
  0
LINE
  5
94
330
1F
100
AcDbEntity
  8
C-4_文字
  6
Continuous
 62
     7
370
     9
100
AcDbLine
 10
-1111.229830975092
 20
1129.512012097648
 30
0.0
 11
-1111.229830975092
 21
874.382673360919
 31
0.0
  0
LINE
  5
95
330
1F
100
AcDbEntity
  8
C-4_文字
  6
Continuous
 62
     7
370
     9
100
AcDbLine
 10
-1111.229830975092
 20
1126.512012097648
 30
0.0
 11
-1086.443709440746
 21
1129.77516690315
 31
0.0
  0
LINE
  5
96
330
1F
100
AcDbEntity
  8
C-4_文字
  6
Continuous
 62
     7
370
     9
100
AcDbLine
 10
-1111.229830975092
 20
1126.512012097648
 30
0.0
 11
-1086.443709440746
 21
1123.248857292147
 31
0.0
  0
TEXT
  5
97
330
1F
100
AcDbEntity
  8
C-4_文字
  6
Continuous
 62
     2
370
     9
100
AcDbText
 10
-940.8310095737539
 20
826.3104778917138
 30
0.0
 40
30.48
  1
R175
 50
314.9999485295183
 41
1.093750000000008
  7
ＭＳ ゴシック
100
AcDbText
  0
TEXT
  5
98
330
1F
100
AcDbEntity
  8
C-4_文字
  6
Continuous
 62
     2
370
     9
100
AcDbText
 10
-1020.271321272152
 20
666.7562635576784
 30
0.0
 40
30.48
  1
φ60.5
 41
1.104166666666667
  7
ＭＳ ゴシック
100
AcDbText
  0
LINE
  5
99
330
1F
100
AcDbEntity
  8
C-4_文字
  6
Continuous
 62
     7
370
     9
100
AcDbLine
 10
-871.6997386401152
 20
742.3470002685862
 30
0.0
 11
-1030.342766620657
 21
900.9903706874679
 31
0.0
  0
LINE
  5
9A
330
1F
100
AcDbEntity
  8
C-4_文字
  6
Continuous
 62
     7
370
     9
100
AcDbLine
 10
-1030.342766620657
 20
900.9903706874679
 30
0.0
 11
-1015.123775859083
 21
881.1565512927292
 31
0.0
  0
LINE
  5
9B
330
1F
100
AcDbEntity
  8
C-4_文字
  6
Continuous
 62
     7
370
     9
100
AcDbLine
 10
-1030.342766620657
 20
900.9903706874679
 30
0.0
 11
-1010.508972804433
 21
885.7712925776833
 31
0.0
  0
ARC
  5
9C
330
1F
100
AcDbEntity
  8
C-0_通り芯
  6
Continuous
 62
     4
370
     9
100
AcDbCircle
 10
-1030.403002269346
 20
341.927233742805
 30
0.0
 40
0.2
100
AcDbArc
 50
186.0
 51
297.2060231130038
  0
LINE
  5
9D
330
1F
100
AcDbEntity
  8
C-0_通り芯
  6
Continuous
 62
     4
370
     9
100
AcDbLine
 10
-1043.479768290337
 20
333.1120328110655
 30
0.0
 11
-1043.479768290337
 21
331.6120278622692
 31
0.0
  0
LINE
  5
9E
330
1F
100
AcDbEntity
  8
C-0_通り芯
  6
Continuous
 62
     4
370
     9
100
AcDbLine
 10
-1046.979804581512
 20
331.6120278622692
 30
0.0
 11
-1046.979804581512
 21
83.11201219108011
 31
0.0
  0
LINE
  5
9F
330
1F
100
AcDbEntity
  8
C-1_躯体
  6
Continuous
 62
     7
370
     9
100
AcDbLine
 10
-1040.979784786325
 20
83.11201219108011
 30
0.0
 11
-1120.979850770278
 21
83.11201219108011
 31
0.0
  0
LINE
  5
A0
330
1F
100
AcDbEntity
  8
C-3_寸法
  6
JWW_DASHED2
 62
     3
370
     9
100
AcDbLine
 10
-1050.729705605582
 20
333.1120328110655
 30
0.0
 11
-1050.729705605582
 21
83.11201219108011
 31
0.0
  0
LINE
  5
A1
330
1F
100
AcDbEntity
  8
C-0_通り芯
  6
JWW_DASHED2
 62
     4
370
     9
100
AcDbLine
 10
-1048.479883760683
 20
331.6120278622692
 30
0.0
 11
-1048.479883760683
 21
83.11201219108011
 31
0.0
  0
ARC
  5
A2
330
1F
100
AcDbEntity
  8
C-0_通り芯
  6
JWW_DASHED2
 62
     4
370
     9
100
AcDbCircle
 10
-1046.97980457994
 20
331.6120278622692
 30
0.0
 40
1.499999874346965
100
AcDbArc
 50
90.0
 51
180.0
  0
LINE
  5
A3
330
1F
100
AcDbEntity
  8
C-0_通り芯
  6
Continuous
 62
     4
370
     9
100
AcDbLine
 10
-1118.479718802372
 20
333.1120328110655
 30
0.0
 11
-1118.479718802372
 21
331.6120278622692
 31
0.0
  0
LINE
  5
A4
330
1F
100
AcDbEntity
  8
C-0_通り芯
  6
Continuous
 62
     4
370
     9
100
AcDbLine
 10
-1114.979830975093
 20
331.6120278622692
 30
0.0
 11
-1114.979830975093
 21
83.11201219108011
 31
0.0
  0
LINE
  5
A5
330
1F
100
AcDbEntity
  8
C-0_通り芯
  6
Continuous
 62
     4
370
     9
100
AcDbLine
 10
-1114.979830975092
 20
331.6120278622692
 30
0.0
 11
-1118.479867266266
 21
331.6120278622692
 31
0.0
  0
LINE
  5
A6
330
1F
100
AcDbEntity
  8
C-0_通り芯
  6
Continuous
 62
     4
370
     9
100
AcDbLine
 10
-1118.479867266266
 20
333.1120328110655
 30
0.0
 11
-1118.479867266266
 21
331.6120278622692
 31
0.0
  0
LINE
  5
A7
330
1F
100
AcDbEntity
  8
C-3_寸法
  6
JWW_DASHED2
 62
     3
370
     9
100
AcDbLine
 10
-1111.229929951021
 20
333.1120328110655
 30
0.0
 11
-1111.229929951021
 21
83.11201219108011
 31
0.0
  0
LINE
  5
A8
330
1F
100
AcDbEntity
  8
C-0_通り芯
  6
JWW_DASHED2
 62
     4
370
     9
100
AcDbLine
 10
-1113.47975179592
 20
331.6120278622692
 30
0.0
 11
-1113.47975179592
 21
83.11201219108011
 31
0.0
  0
ARC
  5
A9
330
1F
100
AcDbEntity
  8
C-0_通り芯
  6
JWW_DASHED2
 62
     4
370
     9
100
AcDbCircle
 10
-1114.979830976664
 20
331.6120278622692
 30
0.0
 40
1.499999874346965
100
AcDbArc
 50
0.0000000000000127
 51
90.00000000000001
  0
LINE
  5
AA
330
1F
100
AcDbEntity
  8
C-0_通り芯
  6
Continuous
 62
     4
370
     9
100
AcDbLine
 10
-1043.479768290337
 20
331.6120278622692
 30
0.0
 11
-1046.979804581512
 21
331.6120278622692
 31
0.0
  0
LINE
  5
AB
330
1F
100
AcDbEntity
  8
C-E_見え係り
  6
Continuous
 62
     6
370
     5
100
AcDbLine
 10
-1114.979830975093
 20
298.9205932105365
 30
0.0
 11
-1230.979817778301
 21
182.9206064073271
 31
0.0
  0
LINE
  5
AC
330
1F
100
AcDbEntity
  8
C-E_見え係り
  6
Continuous
 62
     6
370
     5
100
AcDbLine
 10
-1114.979830975093
 20
284.7784575868055
 30
0.0
 11
-1230.979817778301
 21
168.778470783596
 31
0.0
  0
LINE
  5
AD
330
1F
100
AcDbEntity
  8
C-E_見え係り
  6
Continuous
 62
     6
370
     5
100
AcDbLine
 10
-1114.979830975092
 20
270.6363219630749
 30
0.0
 11
-1230.979817778301
 21
154.636335159865
 31
0.0
  0
LINE
  5
AE
330
1F
100
AcDbEntity
  8
C-E_見え係り
  6
Continuous
 62
     6
370
     5
100
AcDbLine
 10
-930.9798177783009
 20
284.0394448249369
 30
0.0
 11
-1046.979804581512
 21
168.0394580217269
 31
0.0
  0
LINE
  5
AF
330
1F
100
AcDbEntity
  8
C-E_見え係り
  6
Continuous
 62
     6
370
     5
100
AcDbLine
 10
-930.9798177783009
 20
269.8973092012058
 30
0.0
 11
-1046.979804581512
 21
153.8973223979964
 31
0.0
  0
LINE
  5
B0
330
1F
100
AcDbEntity
  8
C-E_見え係り
  6
Continuous
 62
     6
370
     5
100
AcDbLine
 10
-930.9798177783009
 20
255.7551735774747
 30
0.0
 11
-1046.979804581512
 21
139.7551867742648
 31
0.0
  0
LINE
  5
B1
330
1F
100
AcDbEntity
  8
C-1_躯体
  6
Continuous
 62
     3
370
     9
100
AcDbLine
 10
-1019.72980458151
 20
335.4120328110657
 30
0.0
 11
-1050.729804581512
 21
335.4120328110657
 31
0.0
  0
ELLIPSE
  5
B2
330
1F
100
AcDbEntity
  8
C-1_躯体
  6
Continuous
 62
     3
370
     9
100
AcDbEllipse
 10
-1019.72980458151
 20
333.9120328110654
 30
0.0
 11
-1.060660171779821
 21
-1.060660171779822
 31
0.0
210
0.0
220
0.0
230
1.0
 40
0.9999999999999999
 41
2.356194490192345
 42
3.926990816987241
  0
LINE
  5
B3
330
1F
100
AcDbEntity
  8
C-1_躯体
  6
Continuous
 62
     3
370
     9
100
AcDbLine
 10
-1018.229804581512
 20
316.4120328110654
 30
0.0
 11
-1018.229804581512
 21
333.9120328110654
 31
0.0
  0
LINE
  5
B4
330
1F
100
AcDbEntity
  8
C-1_躯体
  6
Continuous
 62
     3
370
     9
100
AcDbLine
 10
-1019.72980458151
 20
314.9120328110657
 30
0.0
 11
-1046.979804581512
 21
314.9120328110657
 31
0.0
  0
ELLIPSE
  5
B5
330
1F
100
AcDbEntity
  8
C-1_躯体
  6
Continuous
 62
     3
370
     9
100
AcDbEllipse
 10
-1019.72980458151
 20
316.4120328110654
 30
0.0
 11
-1.060660171779821
 21
-1.060660171779822
 31
0.0
210
0.0
220
0.0
230
1.0
 40
0.9999999999999999
 41
0.7853981633974483
 42
2.356194490192345
  0
LINE
  5
B6
330
1F
100
AcDbEntity
  8
C-1_躯体
  6
Continuous
 62
     4
370
     9
100
AcDbLine
 10
-1026.250088379448
 20
348.3354041681657
 30
0.0
 11
-1028.162890852878
 21
343.3575658530772
 31
0.0
  0
CIRCLE
  5
B7
330
1F
100
AcDbEntity
  8
C-E_見え係り
  6
Continuous
 62
     4
370
     9
100
AcDbCircle
 10
-1034.62980458151
 20
327.6120328110654
 30
0.0
 40
2.5
  0
ARC
  5
B8
330
1F
100
AcDbEntity
  8
C-0_通り芯
  6
Continuous
 62
     4
370
     9
100
AcDbCircle
 10
-1038.656077045075
 20
408.9698683468414
 30
0.0
 40
1.0
100
AcDbArc
 50
283.1250163489018
 51
5.999999999999996
  0
ARC
  5
B9
330
1F
100
AcDbEntity
  8
C-0_通り芯
  6
Continuous
 62
     4
370
     9
100
AcDbCircle
 10
-1038.327620820993
 20
417.3249428038743
 30
0.0
 40
0.2
100
AcDbArc
 50
74.79397688699622
 51
186.0
  0
LINE
  5
BA
330
1F
100
AcDbEntity
  8
C-0_通り芯
  6
Continuous
 62
     4
370
     9
100
AcDbLine
 10
-1038.27516269644
 20
417.5179405892716
 30
0.0
 11
-1035.889300898995
 21
416.869446954587
 31
0.0
  0
LINE
  5
BB
330
1F
100
AcDbEntity
  8
C-0_通り芯
  6
Continuous
 62
     4
370
     9
100
AcDbLine
 10
-1038.429000504153
 20
407.9959914323588
 30
0.0
 11
-1045.420925980683
 21
406.3657009634228
 31
0.0
  0
LINE
  5
BC
330
1F
100
AcDbEntity
  8
C-6_間仕切
  6
Continuous
 62
     2
370
     9
100
AcDbLine
 10
-1042.974515133729
 20
352.475985413554
 30
0.0
 11
-1043.434438079327
 21
356.8518599388257
 31
0.0
  0
LINE
  5
BD
330
1F
100
AcDbEntity
  8
C-6_間仕切
  6
Continuous
 62
     2
370
     9
100
AcDbLine
 10
-1042.095262793256
 20
351.7639809070893
 30
0.0
 11
-1042.974515133729
 21
352.475985413554
 31
0.0
  0
LINE
  5
BE
330
1F
100
AcDbEntity
  8
C-6_間仕切
  6
Continuous
 62
     2
370
     9
100
AcDbLine
 10
-1042.722433572861
 20
357.7311122792993
 30
0.0
 11
-1043.434438079327
 21
356.8518599388257
 31
0.0
  0
LINE
  5
BF
330
1F
100
AcDbEntity
  8
C-B_衛生陶器
  6
Continuous
 62
     2
370
     9
100
AcDbLine
 10
-1041.488411604449
 20
349.8167814994691
 30
0.0
 11
-1040.979346861444
 21
349.1161139164315
 31
0.0
  0
LINE
  5
C0
330
1F
100
AcDbEntity
  8
C-B_衛生陶器
  6
Continuous
 62
     2
370
     9
100
AcDbLine
 10
-1042.533689059727
 20
359.7619321647524
 30
0.0
 11
-1042.181425584628
 21
360.5531289914667
 31
0.0
  0
LINE
  5
C1
330
1F
100
AcDbEntity
  8
C-0_通り芯
  6
Continuous
 62
     4
370
     9
100
AcDbLine
 10
-1045.420925980682
 20
406.3657009634228
 30
0.0
 11
-1040.628897516127
 21
360.772595676636
 31
0.0
  0
LINE
  5
C2
330
1F
100
AcDbEntity
  8
C-0_通り芯
  6
Continuous
 62
     4
370
     9
100
AcDbLine
 10
-1040.628897516127
 20
360.772595676636
 30
0.0
 11
-1040.623045902943
 21
360.7169212961635
 31
0.0
  0
LINE
  5
C3
330
1F
100
AcDbEntity
  8
C-B_衛生陶器
  6
Continuous
 62
     2
370
     9
100
AcDbLine
 10
-1040.979346861444
 20
349.1161139164315
 30
0.0
 11
-1039.420967179759
 21
349.2799062211288
 31
0.0
  0
LINE
  5
C4
330
1F
100
AcDbEntity
  8
C-B_衛生陶器
  6
Continuous
 62
     2
370
     9
100
AcDbLine
 10
-1042.181425584628
 20
360.5531289914667
 30
0.0
 11
-1040.623045902943
 21
360.7169212961635
 31
0.0
  0
ARC
  5
C5
330
1F
100
AcDbEntity
  8
C-0_通り芯
  6
Continuous
 62
     4
370
     9
100
AcDbCircle
 10
-1032.126622343566
 20
346.8462566293387
 30
0.0
 40
1.0
100
AcDbArc
 50
6.000000000000009
 51
88.87498365109819
  0
LINE
  5
C6
330
1F
100
AcDbEntity
  8
C-0_通り芯
  6
Continuous
 62
     4
370
     9
100
AcDbLine
 10
-1032.106988365817
 20
347.846063864218
 30
0.0
 11
-1039.285079943114
 21
347.9870255270101
 31
0.0
  0
LINE
  5
C7
330
1F
100
AcDbEntity
  8
C-1_躯体
  6
Continuous
 62
     4
370
     9
100
AcDbLine
 10
-1040.623045902943
 20
360.7169212961635
 30
0.0
 11
-1039.285079943114
 21
347.9870255270101
 31
0.0
  0
LINE
  5
C8
330
1F
100
AcDbEntity
  8
C-B_衛生陶器
  6
Continuous
 62
     2
370
     9
100
AcDbLine
 10
-1042.533689059727
 20
359.7619321647524
 30
0.0
 11
-1041.488411604449
 21
349.8167814994691
 31
0.0
  0
LINE
  5
C9
330
1F
100
AcDbEntity
  8
C-6_間仕切
  6
Continuous
 62
     2
370
     9
100
AcDbLine
 10
-1042.095262793256
 20
351.7639809070893
 30
0.0
 11
-1041.697464942284
 21
351.8057911460057
 31
0.0
  0
LINE
  5
CA
330
1F
100
AcDbEntity
  8
C-6_間仕切
  6
Continuous
 62
     2
370
     9
100
AcDbLine
 10
-1042.974513987339
 20
352.4759745063797
 30
0.0
 11
-1041.781087712899
 21
352.6014086623003
 31
0.0
  0
LINE
  5
CB
330
1F
100
AcDbEntity
  8
C-6_間仕切
  6
Continuous
 62
     2
370
     9
100
AcDbLine
 10
-1043.434439225717
 20
356.8518708460006
 30
0.0
 11
-1042.241012951278
 21
356.9773050019212
 31
0.0
  0
LINE
  5
CC
330
1F
100
AcDbEntity
  8
C-6_間仕切
  6
Continuous
 62
     2
370
     9
100
AcDbLine
 10
-1042.722433572861
 20
357.7311122792993
 30
0.0
 11
-1042.324635721891
 21
357.7729225182158
 31
0.0
  0
LINE
  5
CD
330
1F
100
AcDbEntity
  8
C-9_記号
  6
Continuous
 62
     7
370
     9
100
AcDbLine
 10
-1029.919328713726
 20
335.4120328110657
 30
0.0
 11
-1030.601906648419
 21
341.9063280501514
 31
0.0
  0
LINE
  5
CE
330
1F
100
AcDbEntity
  8
C-9_記号
  6
Continuous
 62
     7
370
     9
100
AcDbLine
 10
-1026.701702219121
 20
335.4120328110657
 30
0.0
 11
-1027.671277917658
 21
344.6369293728982
 31
0.0
  0
LINE
  5
CF
330
1F
100
AcDbEntity
  8
C-6_間仕切
  6
Continuous
 62
     2
370
     9
100
AcDbLine
 10
-1025.092888971818
 20
335.4120328110657
 30
0.0
 11
-1026.407998328137
 21
347.9244625242479
 31
0.0
  0
LINE
  5
D0
330
1F
100
AcDbEntity
  8
C-E_見え係り
  6
Continuous
 62
     6
370
     5
100
AcDbLine
 10
-1230.979817778301
 20
81.61204435825721
 30
0.0
 11
-1230.979817778301
 21
333.1120443582575
 31
0.0
  0
LINE
  5
D1
330
1F
100
AcDbEntity
  8
C-E_見え係り
  6
Continuous
 62
     6
370
     5
100
AcDbLine
 10
-930.9798177783009
 20
81.61204435825721
 30
0.0
 11
-930.9798177783009
 21
333.1120443582575
 31
0.0
  0
LINE
  5
D2
330
1F
100
AcDbEntity
  8
C-E_見え係り
  6
Continuous
 62
     6
370
     5
100
AcDbLine
 10
-880.9798177783009
 20
-18.38795564174281
 30
0.0
 11
-880.9798177783009
 21
81.61204435825721
 31
0.0
  0
LINE
  5
D3
330
1F
100
AcDbEntity
  8
C-E_見え係り
  6
Continuous
 62
     6
370
     5
100
AcDbLine
 10
-1280.979817778301
 20
81.61204435825721
 30
0.0
 11
-880.9798177783009
 21
81.61204435825721
 31
0.0
  0
LINE
  5
D4
330
1F
100
AcDbEntity
  8
C-E_見え係り
  6
Continuous
 62
     6
370
     5
100
AcDbLine
 10
-1280.979817778301
 20
-18.38795564174281
 30
0.0
 11
-1280.979817778301
 21
81.61204435825721
 31
0.0
  0
LINE
  5
D5
330
1F
100
AcDbEntity
  8
C-E_見え係り
  6
Continuous
 62
     6
370
     5
100
AcDbLine
 10
-1280.979817778301
 20
-18.38795564174281
 30
0.0
 11
-880.9798177783009
 21
-18.38795564174281
 31
0.0
  0
LINE
  5
D6
330
1F
100
AcDbEntity
  8
C-E_見え係り
  6
Continuous
 62
     6
370
     5
100
AcDbLine
 10
-1080.979817778301
 20
81.61204435825721
 30
0.0
 11
-1107.774737021414
 21
-18.38795564174281
 31
0.0
  0
LINE
  5
D7
330
1F
100
AcDbEntity
  8
C-E_見え係り
  6
Continuous
 62
     6
370
     5
100
AcDbLine
 10
-1094.725368207875
 20
-18.38795564174281
 30
0.0
 11
-1101.250052614645
 21
5.962498067675126
 31
0.0
  0
LINE
  5
D8
330
1F
100
AcDbEntity
  8
C-E_見え係り
  6
Continuous
 62
     6
370
     5
100
AcDbLine
 10
-1094.029186591841
 20
81.61204435825721
 30
0.0
 11
-1087.504502185071
 21
57.26159064883926
 31
0.0
  0
LINE
  5
D9
330
1F
100
AcDbEntity
  8
C-E_見え係り
  6
Continuous
 62
     6
370
     5
100
AcDbLine
 10
-1130.979817778301
 20
81.61204435825721
 30
0.0
 11
-1157.774737021414
 21
-18.38795564174281
 31
0.0
  0
LINE
  5
DA
330
1F
100
AcDbEntity
  8
C-E_見え係り
  6
Continuous
 62
     6
370
     5
100
AcDbLine
 10
-1144.725368207875
 20
-18.38795564174281
 30
0.0
 11
-1151.250052614644
 21
5.962498067675126
 31
0.0
  0
LINE
  5
DB
330
1F
100
AcDbEntity
  8
C-E_見え係り
  6
Continuous
 62
     6
370
     5
100
AcDbLine
 10
-1144.029186591841
 20
81.61204435825721
 30
0.0
 11
-1137.504502185071
 21
57.26159064883926
 31
0.0
  0
LINE
  5
DC
330
1F
100
AcDbEntity
  8
C-E_見え係り
  6
Continuous
 62
     6
370
     5
100
AcDbLine
 10
-1180.979817778301
 20
81.61204435825721
 30
0.0
 11
-1207.774737021415
 21
-18.38795564174281
 31
0.0
  0
LINE
  5
DD
330
1F
100
AcDbEntity
  8
C-E_見え係り
  6
Continuous
 62
     6
370
     5
100
AcDbLine
 10
-1194.725368207874
 20
-18.38795564174281
 30
0.0
 11
-1201.250052614645
 21
5.962498067675126
 31
0.0
  0
LINE
  5
DE
330
1F
100
AcDbEntity
  8
C-E_見え係り
  6
Continuous
 62
     6
370
     5
100
AcDbLine
 10
-1194.029186591841
 20
81.61204435825721
 30
0.0
 11
-1187.504502185071
 21
57.26159064883926
 31
0.0
  0
LINE
  5
DF
330
1F
100
AcDbEntity
  8
C-E_見え係り
  6
Continuous
 62
     6
370
     5
100
AcDbLine
 10
-1230.979817778301
 20
81.61204435825721
 30
0.0
 11
-1257.774737021414
 21
-18.38795564174281
 31
0.0
  0
LINE
  5
E0
330
1F
100
AcDbEntity
  8
C-E_見え係り
  6
Continuous
 62
     6
370
     5
100
AcDbLine
 10
-1244.725368207875
 20
-18.38795564174281
 30
0.0
 11
-1251.250052614644
 21
5.962498067675126
 31
0.0
  0
LINE
  5
E1
330
1F
100
AcDbEntity
  8
C-E_見え係り
  6
Continuous
 62
     6
370
     5
100
AcDbLine
 10
-1244.029186591841
 20
81.61204435825721
 30
0.0
 11
-1237.504502185071
 21
57.26159064883926
 31
0.0
  0
LINE
  5
E2
330
1F
100
AcDbEntity
  8
C-E_見え係り
  6
Continuous
 62
     6
370
     5
100
AcDbLine
 10
-1030.979817778301
 20
81.61204435825721
 30
0.0
 11
-1057.774737021414
 21
-18.38795564174281
 31
0.0
  0
LINE
  5
E3
330
1F
100
AcDbEntity
  8
C-E_見え係り
  6
Continuous
 62
     6
370
     5
100
AcDbLine
 10
-1044.725368207875
 20
-18.38795564174281
 30
0.0
 11
-1051.250052614645
 21
5.962498067675126
 31
0.0
  0
LINE
  5
E4
330
1F
100
AcDbEntity
  8
C-E_見え係り
  6
Continuous
 62
     6
370
     5
100
AcDbLine
 10
-1044.029186591841
 20
81.61204435825721
 30
0.0
 11
-1037.504502185071
 21
57.26159064883926
 31
0.0
  0
LINE
  5
E5
330
1F
100
AcDbEntity
  8
C-E_見え係り
  6
Continuous
 62
     6
370
     5
100
AcDbLine
 10
-980.9798177783011
 20
81.61204435825721
 30
0.0
 11
-1007.774737021414
 21
-18.38795564174281
 31
0.0
  0
LINE
  5
E6
330
1F
100
AcDbEntity
  8
C-E_見え係り
  6
Continuous
 62
     6
370
     5
100
AcDbLine
 10
-994.7253682078747
 20
-18.38795564174281
 30
0.0
 11
-1001.250052614644
 21
5.962498067675126
 31
0.0
  0
LINE
  5
E7
330
1F
100
AcDbEntity
  8
C-E_見え係り
  6
Continuous
 62
     6
370
     5
100
AcDbLine
 10
-994.0291865918414
 20
81.61204435825721
 30
0.0
 11
-987.5045021850713
 21
57.26159064883926
 31
0.0
  0
LINE
  5
E8
330
1F
100
AcDbEntity
  8
C-E_見え係り
  6
Continuous
 62
     6
370
     5
100
AcDbLine
 10
-930.9798177783009
 20
81.61204435825721
 30
0.0
 11
-957.7747370214136
 21
-18.38795564174281
 31
0.0
  0
LINE
  5
E9
330
1F
100
AcDbEntity
  8
C-E_見え係り
  6
Continuous
 62
     6
370
     5
100
AcDbLine
 10
-944.7253682078745
 20
-18.38795564174281
 30
0.0
 11
-951.2500526146434
 21
5.962498067675126
 31
0.0
  0
LINE
  5
EA
330
1F
100
AcDbEntity
  8
C-E_見え係り
  6
Continuous
 62
     6
370
     5
100
AcDbLine
 10
-944.0291865918412
 20
81.61204435825721
 30
0.0
 11
-937.504502185071
 21
57.26159064883926
 31
0.0
  0
LINE
  5
EB
330
1F
100
AcDbEntity
  8
C-E_見え係り
  6
Continuous
 62
     6
370
     5
100
AcDbLine
 10
-880.9798177783009
 20
81.61204435825721
 30
0.0
 11
-907.7747370214136
 21
-18.38795564174281
 31
0.0
  0
LINE
  5
EC
330
1F
100
AcDbEntity
  8
C-E_見え係り
  6
Continuous
 62
     6
370
     5
100
AcDbLine
 10
-894.7253682078745
 20
-18.38795564174281
 30
0.0
 11
-901.2500526146434
 21
5.962498067675126
 31
0.0
  0
LINE
  5
ED
330
1F
100
AcDbEntity
  8
C-E_見え係り
  6
Continuous
 62
     6
370
     5
100
AcDbLine
 10
-894.0291865918412
 20
81.61204435825721
 30
0.0
 11
-887.504502185071
 21
57.26159064883926
 31
0.0
  0
LINE
  5
EE
330
1F
100
AcDbEntity
  8
C-1_躯体
  6
Continuous
 62
     7
370
     9
100
AcDbLine
 10
-1120.979850770278
 20
83.11201219108011
 30
0.0
 11
-1120.979850770278
 21
81.61204435825721
 31
0.0
  0
LINE
  5
EF
330
1F
100
AcDbEntity
  8
C-1_躯体
  6
Continuous
 62
     7
370
     9
100
AcDbLine
 10
-1093.479883762254
 20
83.11201219108011
 30
0.0
 11
-1093.479883762254
 21
81.61204435825721
 31
0.0
  0
LINE
  5
F0
330
1F
100
AcDbEntity
  8
C-1_躯体
  6
Continuous
 62
     7
370
     9
100
AcDbLine
 10
-1068.479751794349
 20
83.11201219108011
 30
0.0
 11
-1068.479751794349
 21
81.61204435825721
 31
0.0
  0
LINE
  5
F1
330
1F
100
AcDbEntity
  8
C-1_躯体
  6
Continuous
 62
     7
370
     9
100
AcDbLine
 10
-1040.979784786325
 20
83.11201219108011
 30
0.0
 11
-1040.979784786325
 21
81.61204435825721
 31
0.0
  0
LINE
  5
F2
330
1F
100
AcDbEntity
  8
C-1_躯体
  6
Continuous
 62
     4
370
     9
100
AcDbLine
 10
-1028.162890852878
 20
343.3575658530772
 30
0.0
 11
-1030.311563984789
 21
341.7493600794445
 31
0.0
  0
LINE
  5
F3
330
1F
100
AcDbEntity
  8
C-0_通り芯
  6
Continuous
 62
     4
370
     9
100
AcDbLine
 10
-1030.601906648419
 20
341.9063280501514
 30
0.0
 11
-1038.526525200067
 21
417.3040371112206
 31
0.0
  0
LINE
  5
F4
330
1F
100
AcDbEntity
  8
C-0_通り芯
  6
Continuous
 62
     4
370
     9
100
AcDbLine
 10
-1035.889300898995
 20
416.869446954587
 30
0.0
 11
-1031.277949575632
 21
410.5224663641719
 31
0.0
  0
LINE
  5
F5
330
1F
100
AcDbEntity
  8
C-0_通り芯
  6
Continuous
 62
     4
370
     9
100
AcDbLine
 10
-1025.065763764273
 20
351.417466497552
 30
0.0
 11
-1026.250088379448
 21
348.3354041681657
 31
0.0
  0
LINE
  5
F6
330
1F
100
AcDbEntity
  8
C-0_通り芯
  6
Continuous
 62
     4
370
     9
100
AcDbLine
 10
-1025.065763764273
 20
351.417466497552
 30
0.0
 11
-1031.277949575632
 21
410.5224663641719
 31
0.0
  0
LINE
  5
F7
330
1F
100
AcDbEntity
  8
C-4_文字
  6
Continuous
 62
     7
370
     9
100
AcDbLine
 10
-756.056778529613
 20
333.1120443582575
 30
0.0
 11
-756.056778529613
 21
81.61204435825721
 31
0.0
  0
LINE
  5
F8
330
1F
100
AcDbEntity
  8
C-4_文字
  6
Continuous
 62
     7
370
     9
100
AcDbLine
 10
-756.056778529613
 20
333.1120443582575
 30
0.0
 11
-752.7936237241111
 21
308.3259228239124
 31
0.0
  0
LINE
  5
F9
330
1F
100
AcDbEntity
  8
C-4_文字
  6
Continuous
 62
     7
370
     9
100
AcDbLine
 10
-756.056778529613
 20
333.1120443582575
 30
0.0
 11
-759.3199333351138
 21
308.3259228239124
 31
0.0
  0
LINE
  5
FA
330
1F
100
AcDbEntity
  8
C-4_文字
  6
Continuous
 62
     7
370
     9
100
AcDbLine
 10
-756.056778529613
 20
81.61204435825721
 30
0.0
 11
-752.7936237241111
 21
106.3981658926025
 31
0.0
  0
LINE
  5
FB
330
1F
100
AcDbEntity
  8
C-4_文字
  6
Continuous
 62
     7
370
     9
100
AcDbLine
 10
-756.056778529613
 20
81.61204435825721
 30
0.0
 11
-759.3199333351138
 21
106.3981658926025
 31
0.0
  0
LINE
  5
FC
330
1F
100
AcDbEntity
  8
C-4_文字
  6
Continuous
 62
     7
370
     9
100
AcDbLine
 10
-753.0567785296123
 20
81.61204435825721
 30
0.0
 11
-860.9798177783009
 21
81.61204435825721
 31
0.0
  0
TEXT
  5
FD
330
1F
100
AcDbEntity
  8
C-4_文字
  6
Continuous
 62
     2
370
   211
100
AcDbText
 10
-767.6967785296121
 20
152.3620443582574
 30
0.0
 40
30.48
  1
251.5
 50
90.0
 41
1.1
  7
ＭＳ ゴシック
100
AcDbText
  0
LINE
  5
FE
330
1F
100
AcDbEntity
  8
C-4_文字
  6
Continuous
 62
     7
370
     9
100
AcDbLine
 10
-756.056778529613
 20
81.61204435825721
 30
0.0
 11
-756.056778529613
 21
-18.38795564174281
 31
0.0
  0
LINE
  5
FF
330
1F
100
AcDbEntity
  8
C-4_文字
  6
Continuous
 62
     7
370
     9
100
AcDbLine
 10
-756.056778529613
 20
81.61204435825721
 30
0.0
 11
-752.7936237241111
 21
56.82592282391194
 31
0.0
  0
LINE
  5
100
330
1F
100
AcDbEntity
  8
C-4_文字
  6
Continuous
 62
     7
370
     9
100
AcDbLine
 10
-756.056778529613
 20
81.61204435825721
 30
0.0
 11
-759.3199333351138
 21
56.82592282391194
 31
0.0
  0
LINE
  5
101
330
1F
100
AcDbEntity
  8
C-4_文字
  6
Continuous
 62
     7
370
     9
100
AcDbLine
 10
-756.056778529613
 20
-18.38795564174281
 30
0.0
 11
-752.7936237241111
 21
6.398165892602448
 31
0.0
  0
LINE
  5
102
330
1F
100
AcDbEntity
  8
C-4_文字
  6
Continuous
 62
     7
370
     9
100
AcDbLine
 10
-756.056778529613
 20
-18.38795564174281
 30
0.0
 11
-759.3199333351138
 21
6.398165892602448
 31
0.0
  0
LINE
  5
103
330
1F
100
AcDbEntity
  8
C-4_文字
  6
Continuous
 62
     7
370
     9
100
AcDbLine
 10
-753.0567785296123
 20
-18.38795564174281
 30
0.0
 11
-860.9798177783009
 21
-18.38795564174281
 31
0.0
  0
TEXT
  5
104
330
1F
100
AcDbEntity
  8
C-4_文字
  6
Continuous
 62
     2
370
   211
100
AcDbText
 10
-767.6967785296121
 20
-0.8879556417428077
 30
0.0
 40
30.48
  1
100
 50
90.0
 41
1.083333333333333
  7
ＭＳ ゴシック
100
AcDbText
  0
LINE
  5
105
330
1F
100
AcDbEntity
  8
C-4_文字
  6
Continuous
 62
     7
370
     9
100
AcDbLine
 10
-1230.979817778301
 20
-143.3791719808792
 30
0.0
 11
-930.9798177783009
 21
-143.3791719808792
 31
0.0
  0
LINE
  5
106
330
1F
100
AcDbEntity
  8
C-4_文字
  6
Continuous
 62
     7
370
     9
100
AcDbLine
 10
-1230.979817778301
 20
-143.3791719808792
 30
0.0
 11
-1206.193696243955
 21
-140.1160171753778
 31
0.0
  0
LINE
  5
107
330
1F
100
AcDbEntity
  8
C-4_文字
  6
Continuous
 62
     7
370
     9
100
AcDbLine
 10
-1230.979817778301
 20
-143.3791719808792
 30
0.0
 11
-1206.193696243955
 21
-146.6423267863806
 31
0.0
  0
LINE
  5
108
330
1F
100
AcDbEntity
  8
C-4_文字
  6
Continuous
 62
     7
370
     9
100
AcDbLine
 10
-930.9798177783009
 20
-143.3791719808792
 30
0.0
 11
-955.7659393126457
 21
-140.1160171753778
 31
0.0
  0
LINE
  5
109
330
1F
100
AcDbEntity
  8
C-4_文字
  6
Continuous
 62
     7
370
     9
100
AcDbLine
 10
-930.9798177783009
 20
-143.3791719808792
 30
0.0
 11
-955.7659393126457
 21
-146.6423267863806
 31
0.0
  0
LINE
  5
10A
330
1F
100
AcDbEntity
  8
C-4_文字
  6
Continuous
 62
     7
370
     9
100
AcDbLine
 10
-1230.979817778301
 20
-146.3791719808792
 30
0.0
 11
-1230.979817778301
 21
-38.38795564174288
 31
0.0
  0
LINE
  5
10B
330
1F
100
AcDbEntity
  8
C-4_文字
  6
Continuous
 62
     7
370
     9
100
AcDbLine
 10
-930.9798177783009
 20
-146.3791719808792
 30
0.0
 11
-930.9798177783009
 21
-38.38795564174288
 31
0.0
  0
TEXT
  5
10C
330
1F
100
AcDbEntity
  8
C-4_文字
  6
Continuous
 62
     2
370
   211
100
AcDbText
 10
-1135.979817778301
 20
-131.7391719808792
 30
0.0
 40
30.48
  1
□300
 41
1.1
  7
ＭＳ ゴシック
100
AcDbText
  0
TEXT
  5
10D
330
1F
100
AcDbEntity
  8
C-5_建具
  6
Continuous
 62
     7
370
     9
100
AcDbText
 10
-834.3036780476414
 20
-112.7280749015267
 30
0.0
 40
22.86000000000032
  1
脱着用埋設管
 41
1.138888888888885
  7
ＭＳ ゴシック
100
AcDbText
  0
TEXT
  5
10E
330
1F
100
AcDbEntity
  8
C-5_建具
  6
Continuous
 62
     7
370
     9
100
AcDbText
 10
-834.3036780476402
 20
-174.5153089440794
 30
0.0
 40
22.85999999999978
  1
蓋：FCD500　溶融亜鉛めっき
 41
1.153846153846165
  7
ＭＳ ゴシック
100
AcDbText
  0
TEXT
  5
10F
330
1F
100
AcDbEntity
  8
C-5_建具
  6
Continuous
 62
     7
370
     9
100
AcDbText
 10
-834.3036780476402
 20
-217.0634894283847
 30
0.0
 40
22.86000000000006
  1
埋設管本体：SUS
 41
1.155555555555553
  7
ＭＳ ゴシック
100
AcDbText
  0
LINE
  5
110
330
1F
100
AcDbEntity
  8
C-5_建具
  6
Continuous
 62
     7
370
     9
100
AcDbLine
 10
-1046.979804581512
 20
235.9685402442846
 30
0.0
 11
-837.8682448478751
 21
-128.8194422037189
 31
0.0
  0
LINE
  5
111
330
1F
100
AcDbEntity
  8
C-5_建具
  6
Continuous
 62
     7
370
     9
100
AcDbLine
 10
-1046.979804581512
 20
235.9685402442846
 30
0.0
 11
-1031.760760311925
 21
216.1347132933321
 31
0.0
  0
LINE
  5
112
330
1F
100
AcDbEntity
  8
C-5_建具
  6
Continuous
 62
     7
370
     9
100
AcDbLine
 10
-1046.979804581512
 20
235.9685402442846
 30
0.0
 11
-1037.412708822255
 21
212.8715560529838
 31
0.0
  0
LINE
  5
113
330
1F
100
AcDbEntity
  8
C-4_文字
  6
Continuous
 62
     7
370
     9
100
AcDbLine
 10
-1280.979817778301
 20
-247.4926669297264
 30
0.0
 11
-880.9798177783009
 21
-247.4926669297264
 31
0.0
  0
LINE
  5
114
330
1F
100
AcDbEntity
  8
C-4_文字
  6
Continuous
 62
     7
370
     9
100
AcDbLine
 10
-1280.979817778301
 20
-247.4926669297264
 30
0.0
 11
-1256.193696243955
 21
-244.229512124225
 31
0.0
  0
LINE
  5
115
330
1F
100
AcDbEntity
  8
C-4_文字
  6
Continuous
 62
     7
370
     9
100
AcDbLine
 10
-1280.979817778301
 20
-247.4926669297264
 30
0.0
 11
-1256.193696243955
 21
-250.7558217352277
 31
0.0
  0
LINE
  5
116
330
1F
100
AcDbEntity
  8
C-4_文字
  6
Continuous
 62
     7
370
     9
100
AcDbLine
 10
-880.9798177783009
 20
-247.4926669297264
 30
0.0
 11
-905.7659393126457
 21
-244.229512124225
 31
0.0
  0
LINE
  5
117
330
1F
100
AcDbEntity
  8
C-4_文字
  6
Continuous
 62
     7
370
     9
100
AcDbLine
 10
-880.9798177783009
 20
-247.4926669297264
 30
0.0
 11
-905.7659393126457
 21
-250.7558217352277
 31
0.0
  0
LINE
  5
118
330
1F
100
AcDbEntity
  8
C-4_文字
  6
Continuous
 62
     7
370
     9
100
AcDbLine
 10
-1280.979817778301
 20
-250.4926669297265
 30
0.0
 11
-1280.979817778301
 21
-38.38795564174288
 31
0.0
  0
LINE
  5
119
330
1F
100
AcDbEntity
  8
C-4_文字
  6
Continuous
 62
     7
370
     9
100
AcDbLine
 10
-880.9798177783009
 20
-250.4926669297265
 30
0.0
 11
-880.9798177783009
 21
-38.38795564174288
 31
0.0
  0
TEXT
  5
11A
330
1F
100
AcDbEntity
  8
C-4_文字
  6
Continuous
 62
     2
370
   211
100
AcDbText
 10
-1135.979817778301
 20
-235.8526669297264
 30
0.0
 40
30.48
  1
□400
 41
1.1
  7
ＭＳ ゴシック
100
AcDbText
  0
LINE
  5
11B
330
1F
100
AcDbEntity
  8
C-4_文字
  6
Continuous
 62
     7
370
     9
100
AcDbLine
 10
-1332.081364227839
 20
983.11910746604
 30
0.0
 11
-1332.081364227839
 21
333.1199182885297
 31
0.0
  0
LINE
  5
11C
330
1F
100
AcDbEntity
  8
C-4_文字
  6
Continuous
 62
     7
370
     9
100
AcDbLine
 10
-1332.081364227839
 20
983.11910746604
 30
0.0
 11
-1328.818209422338
 21
958.3329859316946
 31
0.0
  0
LINE
  5
11D
330
1F
100
AcDbEntity
  8
C-4_文字
  6
Continuous
 62
     7
370
     9
100
AcDbLine
 10
-1332.081364227839
 20
983.11910746604
 30
0.0
 11
-1335.344519033341
 21
958.3329859316946
 31
0.0
  0
LINE
  5
11E
330
1F
100
AcDbEntity
  8
C-4_文字
  6
Continuous
 62
     7
370
     9
100
AcDbLine
 10
-1332.081364227839
 20
333.1199182885297
 30
0.0
 11
-1335.344519033341
 21
357.9060398228751
 31
0.0
  0
LINE
  5
11F
330
1F
100
AcDbEntity
  8
C-4_文字
  6
Continuous
 62
     7
370
     9
100
AcDbLine
 10
-1332.081364227839
 20
333.1199182885297
 30
0.0
 11
-1328.818209422338
 21
357.9060398228751
 31
0.0
  0
LINE
  5
120
330
1F
100
AcDbEntity
  8
C-4_文字
  6
Continuous
 62
     7
370
     9
100
AcDbLine
 10
-1335.081364227839
 20
983.11910746604
 30
0.0
 11
-1010.186249024244
 21
983.11910746604
 31
0.0
  0
TEXT
  5
121
330
1F
100
AcDbEntity
  8
C-4_文字
  6
Continuous
 62
     2
370
   211
100
AcDbText
 10
-1342.721364227839
 20
625.6195128772845
 30
0.0
 40
30.48
  1
650
 50
90.0
 41
1.083333333333335
  7
ＭＳ ゴシック
100
AcDbText
  0
LINE
  5
122
330
1F
100
AcDbEntity
  8
C-4_文字
  6
Continuous
 62
     7
370
     9
100
AcDbLine
 10
-1332.081364227839
 20
333.1199182885297
 30
0.0
 11
-1328.818209422337
 21
308.3337967541844
 31
0.0
  0
LINE
  5
123
330
1F
100
AcDbEntity
  8
C-4_文字
  6
Continuous
 62
     7
370
     9
100
AcDbLine
 10
-1332.081364227839
 20
333.1199182885297
 30
0.0
 11
-1335.34451903334
 21
308.3337967541844
 31
0.0
  0
LINE
  5
124
330
1F
100
AcDbEntity
  8
C-4_文字
  6
Continuous
 62
     7
370
     9
100
AcDbLine
 10
-1332.081364227839
 20
83.11988612135221
 30
0.0
 11
-1328.818209422337
 21
107.9060076556975
 31
0.0
  0
LINE
  5
125
330
1F
100
AcDbEntity
  8
C-4_文字
  6
Continuous
 62
     7
370
     9
100
AcDbLine
 10
-1332.081364227839
 20
83.11988612135221
 30
0.0
 11
-1335.34451903334
 21
107.9060076556975
 31
0.0
  0
TEXT
  5
126
330
1F
100
AcDbEntity
  8
C-4_文字
  6
Continuous
 62
     2
370
   211
100
AcDbText
 10
-1343.72136422784
 20
175.6199022049409
 30
0.0
 40
30.48
  1
250
 50
90.0
 41
1.083333333333333
  7
ＭＳ ゴシック
100
AcDbText
  0
LINE
  5
127
330
1F
100
AcDbEntity
  8
C-4_文字
  6
Continuous
 62
     7
370
     9
100
AcDbLine
 10
-1335.081364227839
 20
81.6199182885293
 30
0.0
 11
-1299.655119050271
 21
81.6199182885293
 31
0.0
  0
TEXT
  5
128
330
1F
100
AcDbEntity
  8
C-4_文字
  6
Continuous
 62
     2
370
   211
100
AcDbText
 10
-1343.72136422784
 20
12.26526227121435
 30
0.0
 40
30.48
  1
1.5
 50
90.0
 41
1.083333333333333
  7
ＭＳ ゴシック
100
AcDbText
  0
LINE
  5
129
330
1F
100
AcDbEntity
  8
C-4_文字
  6
Continuous
 62
     7
370
     9
100
AcDbLine
 10
-1332.081364227839
 20
81.6199182885293
 30
0.0
 11
-1328.818209422337
 21
56.83379675418404
 31
0.0
  0
LINE
  5
12A
330
1F
100
AcDbEntity
  8
C-4_文字
  6
Continuous
 62
     7
370
     9
100
AcDbLine
 10
-1332.081364227839
 20
81.6199182885293
 30
0.0
 11
-1335.34451903334
 21
56.83379675418404
 31
0.0
  0
LINE
  5
12B
330
1F
100
AcDbEntity
  8
C-4_文字
  6
Continuous
 62
     7
370
     9
100
AcDbLine
 10
-1332.081364227839
 20
333.1199182885297
 30
0.0
 11
-1332.081364227839
 21
8.760153880046557
 31
0.0
  0
LINE
  5
12C
330
1F
100
AcDbEntity
  8
C-4_文字
  6
Continuous
 62
     7
370
     9
100
AcDbLine
 10
-1437.198055438461
 20
83.11988612135221
 30
0.0
 11
-1069.248103138365
 21
83.11988612135221
 31
0.0
  0
LINE
  5
12D
330
1F
100
AcDbEntity
  8
C-4_文字
  6
Continuous
 62
     7
370
     9
100
AcDbLine
 10
-1434.198055438461
 20
983.1193293817513
 30
0.0
 11
-1434.198055438461
 21
83.11988612135221
 31
0.0
  0
LINE
  5
12E
330
1F
100
AcDbEntity
  8
C-4_文字
  6
Continuous
 62
     7
370
     9
100
AcDbLine
 10
-1434.198055438461
 20
983.1193293817513
 30
0.0
 11
-1430.934900632959
 21
958.3332078474059
 31
0.0
  0
LINE
  5
12F
330
1F
100
AcDbEntity
  8
C-4_文字
  6
Continuous
 62
     7
370
     9
100
AcDbLine
 10
-1434.198055438461
 20
983.1193293817513
 30
0.0
 11
-1437.461210243962
 21
958.3332078474059
 31
0.0
  0
LINE
  5
130
330
1F
100
AcDbEntity
  8
C-4_文字
  6
Continuous
 62
     7
370
     9
100
AcDbLine
 10
-1434.198055438461
 20
83.11988612135221
 30
0.0
 11
-1430.934900632959
 21
107.9060076556975
 31
0.0
  0
LINE
  5
131
330
1F
100
AcDbEntity
  8
C-4_文字
  6
Continuous
 62
     7
370
     9
100
AcDbLine
 10
-1434.198055438461
 20
83.11988612135221
 30
0.0
 11
-1437.461210243962
 21
107.9060076556975
 31
0.0
  0
TEXT
  5
132
330
1F
100
AcDbEntity
  8
C-4_文字
  6
Continuous
 62
     2
370
   211
100
AcDbText
 10
-1445.838055438461
 20
500.6196077515517
 30
0.0
 40
30.48
  1
900
 50
90.0
 41
1.083333333333333
  7
ＭＳ ゴシック
100
AcDbText
  0
LINE
  5
133
330
1F
100
AcDbEntity
  8
C-4_文字
  6
Continuous
 62
     7
370
     9
100
AcDbLine
 10
-1437.198055438461
 20
983.1193293817513
 30
0.0
 11
-917.5300115294311
 21
983.1193293817513
 31
0.0
  0
LINE
  5
134
330
1F
100
AcDbEntity
  8
C-0_通り芯
  6
JWW_CENTER2
 62
     7
370
     9
100
AcDbLine
 10
-1080.979817778301
 20
777.8690117893087
 30
0.0
 11
-1080.979817778301
 21
42.10451263163175
 31
0.0
  0
LINE
  5
135
330
1F
100
AcDbEntity
  8
C-2_仕上
  6
Continuous
 62
     3
370
     9
100
AcDbLine
 10
-1111.229830975092
 20
777.8690117893087
 30
0.0
 11
-1111.229830975092
 21
333.1120328110655
 31
0.0
  0
LINE
  5
136
330
1F
100
AcDbEntity
  8
C-0_通り芯
  6
Continuous
 62
     4
370
     9
100
AcDbLine
 10
-1118.479867266266
 20
333.1120328110655
 30
0.0
 11
-1043.479768290337
 21
333.1120328110655
 31
0.0
  0
LINE
  5
137
330
1F
100
AcDbEntity
  8
C-6_間仕切
  6
Continuous
 62
     6
370
     5
100
AcDbLine
 10
-1530.478356694232
 20
333.1102593801102
 30
0.0
 11
-1118.479867265682
 21
333.1118848600873
 31
0.0
  0
ARC
  5
138
330
1F
100
AcDbEntity
  8
C-0_通り芯
  6
JWW_CENTER2
 62
     7
370
     9
100
AcDbCircle
 10
183.5203620279702
 20
777.8690117893087
 30
0.0
 40
175.0000051549963
100
AcDbArc
 50
0.0
 51
90.000244140625
  0
ARC
  5
139
330
1F
100
AcDbEntity
  8
C-2_仕上
  6
Continuous
 62
     3
370
     9
100
AcDbCircle
 10
183.5201145881475
 20
777.8685169096628
 30
0.0
 40
144.7500074231947
100
AcDbArc
 50
0.0
 51
90.00019836425781
  0
ARC
  5
13A
330
1F
100
AcDbEntity
  8
C-2_仕上
  6
Continuous
 62
     3
370
     9
100
AcDbCircle
 10
183.5203620279702
 20
777.8690117893087
 30
0.0
 40
205.2500028867979
100
AcDbArc
 50
0.0
 51
90.00022888183594
  0
LINE
  5
13B
330
1F
100
AcDbEntity
  8
C-4_文字
  6
Continuous
 62
     7
370
     9
100
AcDbLine
 10
388.770210264879
 20
1129.512012097648
 30
0.0
 11
388.770210264879
 21
874.382673360919
 31
0.0
  0
LINE
  5
13C
330
1F
100
AcDbEntity
  8
C-4_文字
  6
Continuous
 62
     7
370
     9
100
AcDbLine
 10
388.770210264879
 20
1126.512012097648
 30
0.0
 11
363.9840887305338
 21
1123.248857292147
 31
0.0
  0
LINE
  5
13D
330
1F
100
AcDbEntity
  8
C-4_文字
  6
Continuous
 62
     7
370
     9
100
AcDbLine
 10
388.770210264879
 20
1126.512012097648
 30
0.0
 11
363.9840887305338
 21
1129.77516690315
 31
0.0
  0
ARC
  5
13E
330
1F
100
AcDbEntity
  8
C-0_通り芯
  6
Continuous
 62
     4
370
     9
100
AcDbCircle
 10
307.9433815591337
 20
341.9348857573649
 30
0.0
 40
0.2
100
AcDbArc
 50
242.7939768869962
 51
354.0
  0
LINE
  5
13F
330
1F
100
AcDbEntity
  8
C-0_通り芯
  6
Continuous
 62
     4
370
     9
100
AcDbLine
 10
321.0201475801241
 20
333.1196848256254
 30
0.0
 11
321.0201475801241
 21
331.6196798768291
 31
0.0
  0
LINE
  5
140
330
1F
100
AcDbEntity
  8
C-0_通り芯
  6
Continuous
 62
     4
370
     9
100
AcDbLine
 10
324.5201838712992
 20
331.6196798768291
 30
0.0
 11
324.5201838712992
 21
83.11966420563994
 31
0.0
  0
LINE
  5
141
330
1F
100
AcDbEntity
  8
C-1_躯体
  6
Continuous
 62
     7
370
     9
100
AcDbLine
 10
318.5201640761127
 20
83.11966420563994
 30
0.0
 11
398.5202300600659
 21
83.11966420563994
 31
0.0
  0
LINE
  5
142
330
1F
100
AcDbEntity
  8
C-3_寸法
  6
JWW_DASHED2
 62
     3
370
     9
100
AcDbLine
 10
328.27008489537
 20
333.1196848256254
 30
0.0
 11
328.27008489537
 21
83.11966420563994
 31
0.0
  0
LINE
  5
143
330
1F
100
AcDbEntity
  8
C-0_通り芯
  6
JWW_DASHED2
 62
     4
370
     9
100
AcDbLine
 10
326.0202630504707
 20
331.6196798768291
 30
0.0
 11
326.0202630504707
 21
83.11966420563994
 31
0.0
  0
ARC
  5
144
330
1F
100
AcDbEntity
  8
C-0_通り芯
  6
JWW_DASHED2
 62
     4
370
     9
100
AcDbCircle
 10
324.520183869728
 20
331.6196798768291
 30
0.0
 40
1.499999874346965
100
AcDbArc
 50
0.0000000000000127
 51
90.00000000000001
  0
LINE
  5
145
330
1F
100
AcDbEntity
  8
C-0_通り芯
  6
Continuous
 62
     4
370
     9
100
AcDbLine
 10
396.0200980921596
 20
333.1196848256254
 30
0.0
 11
396.0200980921596
 21
331.6196798768291
 31
0.0
  0
LINE
  5
146
330
1F
100
AcDbEntity
  8
C-0_通り芯
  6
Continuous
 62
     4
370
     9
100
AcDbLine
 10
392.5202102648805
 20
331.6196798768291
 30
0.0
 11
392.5202102648805
 21
83.11966420563994
 31
0.0
  0
LINE
  5
147
330
1F
100
AcDbEntity
  8
C-0_通り芯
  6
Continuous
 62
     4
370
     9
100
AcDbLine
 10
392.5202102648794
 20
331.6196798768291
 30
0.0
 11
396.0202465560533
 21
331.6196798768291
 31
0.0
  0
LINE
  5
148
330
1F
100
AcDbEntity
  8
C-0_通り芯
  6
Continuous
 62
     4
370
     9
100
AcDbLine
 10
396.0202465560533
 20
333.1196848256254
 30
0.0
 11
396.0202465560533
 21
331.6196798768291
 31
0.0
  0
LINE
  5
149
330
1F
100
AcDbEntity
  8
C-3_寸法
  6
JWW_DASHED2
 62
     3
370
     9
100
AcDbLine
 10
388.7703092408085
 20
333.1196848256254
 30
0.0
 11
388.7703092408085
 21
83.11966420563994
 31
0.0
  0
LINE
  5
14A
330
1F
100
AcDbEntity
  8
C-0_通り芯
  6
JWW_DASHED2
 62
     4
370
     9
100
AcDbLine
 10
391.0201310857079
 20
331.6196798768291
 30
0.0
 11
391.0201310857079
 21
83.11966420563994
 31
0.0
  0
ARC
  5
14B
330
1F
100
AcDbEntity
  8
C-0_通り芯
  6
JWW_DASHED2
 62
     4
370
     9
100
AcDbCircle
 10
392.5202102664517
 20
331.6196798768291
 30
0.0
 40
1.499999874346965
100
AcDbArc
 50
90.0
 51
180.0
  0
LINE
  5
14C
330
1F
100
AcDbEntity
  8
C-0_通り芯
  6
Continuous
 62
     4
370
     9
100
AcDbLine
 10
321.0201475801241
 20
331.6196798768291
 30
0.0
 11
324.5201838712992
 21
331.6196798768291
 31
0.0
  0
LINE
  5
14D
330
1F
100
AcDbEntity
  8
C-1_躯体
  6
Continuous
 62
     3
370
     9
100
AcDbLine
 10
297.2701838712978
 20
335.4196848256256
 30
0.0
 11
328.2701838712992
 21
335.4196848256256
 31
0.0
  0
ARC
  5
14E
330
1F
100
AcDbEntity
  8
C-1_躯体
  6
Continuous
 62
     3
370
     9
100
AcDbCircle
 10
297.2701838712978
 20
333.9196848256253
 30
0.0
 40
1.5
100
AcDbArc
 50
90.0
 51
180.0
  0
LINE
  5
14F
330
1F
100
AcDbEntity
  8
C-1_躯体
  6
Continuous
 62
     3
370
     9
100
AcDbLine
 10
295.7701838712992
 20
316.4196848256253
 30
0.0
 11
295.7701838712992
 21
333.9196848256253
 31
0.0
  0
LINE
  5
150
330
1F
100
AcDbEntity
  8
C-1_躯体
  6
Continuous
 62
     3
370
     9
100
AcDbLine
 10
297.2701838712978
 20
314.9196848256255
 30
0.0
 11
324.5201838712992
 21
314.9196848256255
 31
0.0
  0
ARC
  5
151
330
1F
100
AcDbEntity
  8
C-1_躯体
  6
Continuous
 62
     3
370
     9
100
AcDbCircle
 10
297.2701838712978
 20
316.4196848256253
 30
0.0
 40
1.5
100
AcDbArc
 50
180.0
 51
270.0
  0
LINE
  5
152
330
1F
100
AcDbEntity
  8
C-1_躯体
  6
Continuous
 62
     4
370
     9
100
AcDbLine
 10
303.790467669236
 20
348.3430561827256
 30
0.0
 11
305.703270142666
 21
343.3652178676371
 31
0.0
  0
CIRCLE
  5
153
330
1F
100
AcDbEntity
  8
C-E_見え係り
  6
Continuous
 62
     4
370
     9
100
AcDbCircle
 10
312.1701838712979
 20
327.6196848256253
 30
0.0
 40
2.5
  0
ARC
  5
154
330
1F
100
AcDbEntity
  8
C-0_通り芯
  6
Continuous
 62
     4
370
     9
100
AcDbCircle
 10
316.1964563348627
 20
408.9775203614013
 30
0.0
 40
0.9999999999999999
100
AcDbArc
 50
174.0
 51
256.8749836510982
  0
ARC
  5
155
330
1F
100
AcDbEntity
  8
C-0_通り芯
  6
Continuous
 62
     4
370
     9
100
AcDbCircle
 10
315.8680001107805
 20
417.3325948184341
 30
0.0
 40
0.2
100
AcDbArc
 50
354.0
 51
105.2060231130038
  0
LINE
  5
156
330
1F
100
AcDbEntity
  8
C-0_通り芯
  6
Continuous
 62
     4
370
     9
100
AcDbLine
 10
315.9693797939408
 20
408.0036434469187
 30
0.0
 11
322.9613052704703
 21
406.3733529779827
 31
0.0
  0
LINE
  5
157
330
1F
100
AcDbEntity
  8
C-6_間仕切
  6
Continuous
 62
     2
370
     9
100
AcDbLine
 10
320.514894423517
 20
352.4836374281139
 30
0.0
 11
320.9748173691141
 21
356.8595119533855
 31
0.0
  0
LINE
  5
158
330
1F
100
AcDbEntity
  8
C-6_間仕切
  6
Continuous
 62
     2
370
     9
100
AcDbLine
 10
319.6356420830434
 20
351.7716329216491
 30
0.0
 11
320.514894423517
 21
352.4836374281139
 31
0.0
  0
LINE
  5
159
330
1F
100
AcDbEntity
  8
C-6_間仕切
  6
Continuous
 62
     2
370
     9
100
AcDbLine
 10
320.2628128626488
 20
357.7387642938592
 30
0.0
 11
320.9748173691141
 21
356.8595119533855
 31
0.0
  0
LINE
  5
15A
330
1F
100
AcDbEntity
  8
C-B_衛生陶器
  6
Continuous
 62
     2
370
     9
100
AcDbLine
 10
319.0287908942369
 20
349.824433514029
 30
0.0
 11
318.5197261512317
 21
349.1237659309913
 31
0.0
  0
LINE
  5
15B
330
1F
100
AcDbEntity
  8
C-B_衛生陶器
  6
Continuous
 62
     2
370
     9
100
AcDbLine
 10
320.0740683495146
 20
359.7695841793122
 30
0.0
 11
319.7218048744153
 21
360.5607810060266
 31
0.0
  0
LINE
  5
15C
330
1F
100
AcDbEntity
  8
C-0_通り芯
  6
Continuous
 62
     4
370
     9
100
AcDbLine
 10
322.9613052704692
 20
406.3733529779827
 30
0.0
 11
318.1692768059147
 21
360.7802476911959
 31
0.0
  0
LINE
  5
15D
330
1F
100
AcDbEntity
  8
C-0_通り芯
  6
Continuous
 62
     4
370
     9
100
AcDbLine
 10
318.1692768059147
 20
360.7802476911959
 30
0.0
 11
318.1634251927303
 21
360.7245733107234
 31
0.0
  0
LINE
  5
15E
330
1F
100
AcDbEntity
  8
C-B_衛生陶器
  6
Continuous
 62
     2
370
     9
100
AcDbLine
 10
318.5197261512317
 20
349.1237659309913
 30
0.0
 11
316.9613464695467
 21
349.2875582356887
 31
0.0
  0
LINE
  5
15F
330
1F
100
AcDbEntity
  8
C-B_衛生陶器
  6
Continuous
 62
     2
370
     9
100
AcDbLine
 10
319.7218048744153
 20
360.5607810060266
 30
0.0
 11
318.1634251927303
 21
360.7245733107234
 31
0.0
  0
ARC
  5
160
330
1F
100
AcDbEntity
  8
C-0_通り芯
  6
Continuous
 62
     4
370
     9
100
AcDbCircle
 10
309.6670016333533
 20
346.8539086438985
 30
0.0
 40
1.0
100
AcDbArc
 50
91.12501634890181
 51
174.0
  0
LINE
  5
161
330
1F
100
AcDbEntity
  8
C-0_通り芯
  6
Continuous
 62
     4
370
     9
100
AcDbLine
 10
309.647367655605
 20
347.8537158787778
 30
0.0
 11
316.8254592329017
 21
347.99467754157
 31
0.0
  0
LINE
  5
162
330
1F
100
AcDbEntity
  8
C-1_躯体
  6
Continuous
 62
     4
370
     9
100
AcDbLine
 10
318.1634251927303
 20
360.7245733107234
 30
0.0
 11
316.8254592329017
 21
347.99467754157
 31
0.0
  0
LINE
  5
163
330
1F
100
AcDbEntity
  8
C-B_衛生陶器
  6
Continuous
 62
     2
370
     9
100
AcDbLine
 10
320.0740683495146
 20
359.7695841793122
 30
0.0
 11
319.0287908942369
 21
349.824433514029
 31
0.0
  0
LINE
  5
164
330
1F
100
AcDbEntity
  8
C-6_間仕切
  6
Continuous
 62
     2
370
     9
100
AcDbLine
 10
319.6356420830434
 20
351.7716329216491
 30
0.0
 11
319.2378442320719
 21
351.8134431605656
 31
0.0
  0
LINE
  5
165
330
1F
100
AcDbEntity
  8
C-6_間仕切
  6
Continuous
 62
     2
370
     9
100
AcDbLine
 10
320.5148932771262
 20
352.4836265209395
 30
0.0
 11
319.3214670026864
 21
352.6090606768602
 31
0.0
  0
LINE
  5
166
330
1F
100
AcDbEntity
  8
C-6_間仕切
  6
Continuous
 62
     2
370
     9
100
AcDbLine
 10
320.9748185155049
 20
356.8595228605604
 30
0.0
 11
319.7813922410651
 21
356.9849570164811
 31
0.0
  0
LINE
  5
167
330
1F
100
AcDbEntity
  8
C-6_間仕切
  6
Continuous
 62
     2
370
     9
100
AcDbLine
 10
320.2628128626488
 20
357.7387642938592
 30
0.0
 11
319.8650150116785
 21
357.7805745327756
 31
0.0
  0
LINE
  5
168
330
1F
100
AcDbEntity
  8
C-9_記号
  6
Continuous
 62
     7
370
     9
100
AcDbLine
 10
307.4597080035132
 20
335.4196848256256
 30
0.0
 11
308.1422859382067
 21
341.9139800647113
 31
0.0
  0
LINE
  5
169
330
1F
100
AcDbEntity
  8
C-9_記号
  6
Continuous
 62
     7
370
     9
100
AcDbLine
 10
304.242081508909
 20
335.4196848256256
 30
0.0
 11
305.2116572074456
 21
344.6445813874581
 31
0.0
  0
LINE
  5
16A
330
1F
100
AcDbEntity
  8
C-6_間仕切
  6
Continuous
 62
     2
370
     9
100
AcDbLine
 10
302.6332682616057
 20
335.4196848256256
 30
0.0
 11
303.948377617925
 21
347.9321145388078
 31
0.0
  0
LINE
  5
16B
330
1F
100
AcDbEntity
  8
C-E_見え係り
  6
Continuous
 62
     6
370
     5
100
AcDbLine
 10
508.5201970680887
 20
81.61969637281703
 30
0.0
 11
508.5201970680887
 21
333.1196963728174
 31
0.0
  0
LINE
  5
16C
330
1F
100
AcDbEntity
  8
C-E_見え係り
  6
Continuous
 62
     6
370
     5
100
AcDbLine
 10
208.5201970680887
 20
81.61969637281703
 30
0.0
 11
208.5201970680887
 21
333.1196963728174
 31
0.0
  0
LINE
  5
16D
330
1F
100
AcDbEntity
  8
C-E_見え係り
  6
Continuous
 62
     6
370
     5
100
AcDbLine
 10
158.5201970680887
 20
-18.38030362718297
 30
0.0
 11
158.5201970680887
 21
81.61969637281703
 31
0.0
  0
LINE
  5
16E
330
1F
100
AcDbEntity
  8
C-E_見え係り
  6
Continuous
 62
     6
370
     5
100
AcDbLine
 10
558.5201970680887
 20
81.61969637281703
 30
0.0
 11
158.5201970680887
 21
81.61969637281703
 31
0.0
  0
LINE
  5
16F
330
1F
100
AcDbEntity
  8
C-E_見え係り
  6
Continuous
 62
     6
370
     5
100
AcDbLine
 10
558.5201970680887
 20
-18.38030362718297
 30
0.0
 11
558.5201970680887
 21
81.61969637281703
 31
0.0
  0
LINE
  5
170
330
1F
100
AcDbEntity
  8
C-E_見え係り
  6
Continuous
 62
     6
370
     5
100
AcDbLine
 10
558.5201970680887
 20
-18.38030362718297
 30
0.0
 11
158.5201970680887
 21
-18.38030362718297
 31
0.0
  0
LINE
  5
171
330
1F
100
AcDbEntity
  8
C-1_躯体
  6
Continuous
 62
     7
370
     9
100
AcDbLine
 10
398.5202300600659
 20
83.11966420563994
 30
0.0
 11
398.5202300600659
 21
81.61969637281703
 31
0.0
  0
LINE
  5
172
330
1F
100
AcDbEntity
  8
C-1_躯体
  6
Continuous
 62
     7
370
     9
100
AcDbLine
 10
371.0202630520419
 20
83.11966420563994
 30
0.0
 11
371.0202630520419
 21
81.61969637281703
 31
0.0
  0
LINE
  5
173
330
1F
100
AcDbEntity
  8
C-1_躯体
  6
Continuous
 62
     7
370
     9
100
AcDbLine
 10
346.0201310841367
 20
83.11966420563994
 30
0.0
 11
346.0201310841367
 21
81.61969637281703
 31
0.0
  0
LINE
  5
174
330
1F
100
AcDbEntity
  8
C-1_躯体
  6
Continuous
 62
     7
370
     9
100
AcDbLine
 10
318.5201640761127
 20
83.11966420563994
 30
0.0
 11
318.5201640761127
 21
81.61969637281703
 31
0.0
  0
LINE
  5
175
330
1F
100
AcDbEntity
  8
C-1_躯体
  6
Continuous
 62
     4
370
     9
100
AcDbLine
 10
305.703270142666
 20
343.3652178676371
 30
0.0
 11
307.8519432745761
 21
341.7570120940044
 31
0.0
  0
LINE
  5
176
330
1F
100
AcDbEntity
  8
C-0_通り芯
  6
Continuous
 62
     4
370
     9
100
AcDbLine
 10
313.4296801887822
 20
416.8770989691469
 30
0.0
 11
308.8183288654195
 21
410.5301183787318
 31
0.0
  0
LINE
  5
177
330
1F
100
AcDbEntity
  8
C-0_通り芯
  6
Continuous
 62
     4
370
     9
100
AcDbLine
 10
302.606143054061
 20
351.4251185121119
 30
0.0
 11
303.790467669236
 21
348.3430561827256
 31
0.0
  0
LINE
  5
178
330
1F
100
AcDbEntity
  8
C-0_通り芯
  6
Continuous
 62
     4
370
     9
100
AcDbLine
 10
302.606143054061
 20
351.4251185121119
 30
0.0
 11
308.8183288654195
 21
410.5301183787318
 31
0.0
  0
LINE
  5
179
330
1F
100
AcDbEntity
  8
C-0_通り芯
  6
Continuous
 62
     4
370
     9
100
AcDbLine
 10
308.1422859382067
 20
341.9139800647113
 30
0.0
 11
316.0974399267925
 21
417.6022144015746
 31
0.0
  0
LINE
  5
17A
330
1F
100
AcDbEntity
  8
C-0_通り芯
  6
Continuous
 62
     4
370
     9
100
AcDbLine
 10
316.0974399267925
 20
417.6022144015746
 30
0.0
 11
313.4296801887822
 21
416.8770989691469
 31
0.0
  0
LINE
  5
17B
330
1F
100
AcDbEntity
  8
C-E_見え係り
  6
Continuous
 62
     6
370
     5
100
AcDbLine
 10
324.5201838712967
 20
298.9282452250964
 30
0.0
 11
208.5201970680885
 21
182.9282584218869
 31
0.0
  0
LINE
  5
17C
330
1F
100
AcDbEntity
  8
C-E_見え係り
  6
Continuous
 62
     6
370
     5
100
AcDbLine
 10
324.5201838712967
 20
284.7861096013653
 30
0.0
 11
208.5201970680885
 21
168.7861227981559
 31
0.0
  0
LINE
  5
17D
330
1F
100
AcDbEntity
  8
C-E_見え係り
  6
Continuous
 62
     6
370
     5
100
AcDbLine
 10
324.5201838712978
 20
270.6439739776347
 30
0.0
 11
208.5201970680885
 21
154.6439871744248
 31
0.0
  0
LINE
  5
17E
330
1F
100
AcDbEntity
  8
C-E_見え係り
  6
Continuous
 62
     6
370
     5
100
AcDbLine
 10
508.5201970680887
 20
284.0470968394967
 30
0.0
 11
392.520210264878
 21
168.0471100362867
 31
0.0
  0
LINE
  5
17F
330
1F
100
AcDbEntity
  8
C-E_見え係り
  6
Continuous
 62
     6
370
     5
100
AcDbLine
 10
508.5201970680887
 20
269.9049612157656
 30
0.0
 11
392.520210264878
 21
153.9049744125562
 31
0.0
  0
LINE
  5
180
330
1F
100
AcDbEntity
  8
C-E_見え係り
  6
Continuous
 62
     6
370
     5
100
AcDbLine
 10
508.5201970680887
 20
255.7628255920345
 30
0.0
 11
392.520210264878
 21
139.7628387888246
 31
0.0
  0
LINE
  5
181
330
1F
100
AcDbEntity
  8
C-0_通り芯
  6
Continuous
 62
     4
370
     9
100
AcDbLine
 10
396.0202465560533
 20
333.1196848256254
 30
0.0
 11
321.0201475801241
 21
333.1196848256254
 31
0.0
  0
LINE
  5
182
330
1F
100
AcDbEntity
  8
C-2_仕上
  6
Continuous
 62
     3
370
     9
100
AcDbLine
 10
388.770210264879
 20
777.8690117893087
 30
0.0
 11
388.770210264879
 21
333.1196848256254
 31
0.0
  0
LINE
  5
183
330
1F
100
AcDbEntity
  8
C-6_間仕切
  6
Continuous
 62
     6
370
     5
100
AcDbLine
 10
396.0200980915761
 20
333.119832776018
 30
0.0
 11
584.3058705369926
 21
333.1205756300841
 31
0.0
  0
LINE
  5
184
330
1F
100
AcDbEntity
  8
C-6_間仕切
  6
Continuous
 62
     6
370
     5
100
AcDbLine
 10
-1018.229804581512
 20
333.1122803820948
 30
0.0
 11
295.7701838712993
 21
333.1194372545963
 31
0.0
  0
LINE
  5
185
330
1F
100
AcDbEntity
  8
C-2_仕上
  6
Continuous
 62
     3
370
     9
100
AcDbLine
 10
183.519542107238
 20
922.6163592343391
 30
0.0
 11
-905.9792404187152
 21
922.6188336326358
 31
0.0
  0
LINE
  5
186
330
1F
100
AcDbEntity
  8
C-2_仕上
  6
Continuous
 62
     3
370
     9
100
AcDbLine
 10
183.519542107238
 20
983.1166330673558
 30
0.0
 11
-905.9789929788928
 21
983.11910746604
 31
0.0
  0
LINE
  5
187
330
1F
100
AcDbEntity
  8
C-0_通り芯
  6
JWW_CENTER2
 62
     7
370
     9
100
AcDbLine
 10
183.519542107238
 20
952.8668673106337
 30
0.0
 11
-905.9791166988038
 21
952.8688468294264
 31
0.0
  0
LINE
  5
188
330
1F
100
AcDbEntity
  8
C-4_文字
  6
Continuous
 62
     7
370
     9
100
AcDbLine
 10
-1111.229830975092
 20
1126.512012097648
 30
0.0
 11
388.770210264879
 21
1126.512012097648
 31
0.0
  0
TEXT
  5
189
330
1F
100
AcDbEntity
  8
C-4_文字
  6
Continuous
 62
     2
370
   211
100
AcDbText
 10
-404.9798103551066
 20
1137.152012097648
 30
0.0
 40
30.48
  1
1500
 41
1.09375
  7
ＭＳ ゴシック
100
AcDbText
  0
LINE
  5
18A
330
1F
100
AcDbEntity
  8
D-0_通り芯
  6
JWW_CENTER2
 62
     7
370
     9
100
AcDbLine
 10
1098.899622757782
 20
-154.4609418142035
 30
0.0
 11
1098.899622757782
 21
-762.1524311759063
 31
0.0
  0
TEXT
  5
18B
330
1F
100
AcDbEntity
  8
D-5_建具
  6
Continuous
 62
     7
370
     9
100
AcDbText
 10
834.1763991956283
 20
-235.3327076969966
 30
0.0
 40
22.86
  1
蓋
  7
ＭＳ ゴシック
100
AcDbText
  0
ARC
  5
18C
330
1F
100
AcDbEntity
  8
D-0_通り芯
  6
Continuous
 62
     4
370
     9
100
AcDbCircle
 10
930.3102377279289
 20
-517.3936253762834
 30
0.0
 40
0.6666666666666667
100
AcDbArc
 50
242.7939768869962
 51
354.0
  0
LINE
  5
18D
330
1F
100
AcDbEntity
  8
D-0_通り芯
  6
Continuous
 62
     4
370
     9
100
AcDbLine
 10
973.8994577979009
 20
-546.777628482081
 30
0.0
 11
973.8994577979009
 21
-551.777644978069
 31
0.0
  0
LINE
  5
18E
330
1F
100
AcDbEntity
  8
D-0_通り芯
  6
Continuous
 62
     4
370
     9
100
AcDbLine
 10
1223.899292838019
 20
-546.777628482081
 30
0.0
 11
1223.899292838019
 21
-551.777644978069
 31
0.0
  0
LINE
  5
18F
330
1F
100
AcDbEntity
  8
D-0_通り芯
  6
Continuous
 62
     4
370
     9
100
AcDbLine
 10
1212.233000080417
 20
-551.777644978069
 30
0.0
 11
1223.899787717664
 21
-551.777644978069
 31
0.0
  0
LINE
  5
190
330
1F
100
AcDbEntity
  8
D-0_通り芯
  6
Continuous
 62
     4
370
     9
100
AcDbLine
 10
1223.899787717664
 20
-546.777628482081
 30
0.0
 11
1223.899787717664
 21
-551.777644978069
 31
0.0
  0
LINE
  5
191
330
1F
100
AcDbEntity
  8
D-0_通り芯
  6
Continuous
 62
     4
370
     9
100
AcDbLine
 10
973.8994577979009
 20
-551.777644978069
 30
0.0
 11
985.5662454351478
 21
-551.777644978069
 31
0.0
  0
LINE
  5
192
330
1F
100
AcDbEntity
  8
D-1_躯体
  6
Continuous
 62
     3
370
     9
100
AcDbLine
 10
894.7329121018141
 20
-539.1109618154145
 30
0.0
 11
998.0662454351467
 21
-539.1109618154145
 31
0.0
  0
ARC
  5
193
330
1F
100
AcDbEntity
  8
D-1_躯体
  6
Continuous
 62
     3
370
     9
100
AcDbCircle
 10
894.7329121018141
 20
-544.1109618154145
 30
0.0
 40
4.999999999999999
100
AcDbArc
 50
90.0
 51
180.0
  0
LINE
  5
194
330
1F
100
AcDbEntity
  8
D-1_躯体
  6
Continuous
 62
     3
370
     9
100
AcDbLine
 10
889.7329121018141
 20
-602.4442951487476
 30
0.0
 11
889.7329121018141
 21
-544.1109618154145
 31
0.0
  0
LINE
  5
195
330
1F
100
AcDbEntity
  8
D-1_躯体
  6
Continuous
 62
     3
370
     9
100
AcDbLine
 10
894.7329121018141
 20
-607.4442951487476
 30
0.0
 11
985.5662454351478
 21
-607.4442951487476
 31
0.0
  0
ARC
  5
196
330
1F
100
AcDbEntity
  8
D-1_躯体
  6
Continuous
 62
     3
370
     9
100
AcDbCircle
 10
894.7329121018141
 20
-602.4442951487476
 30
0.0
 40
4.999999999999999
100
AcDbArc
 50
180.0
 51
270.0
  0
LINE
  5
197
330
1F
100
AcDbEntity
  8
D-1_躯体
  6
Continuous
 62
     4
370
     9
100
AcDbLine
 10
916.4671914282691
 20
-496.0330572917463
 30
0.0
 11
922.84319967304
 21
-512.6258516753763
 31
0.0
  0
CIRCLE
  5
198
330
1F
100
AcDbEntity
  8
D-E_見え係り
  6
Continuous
 62
     4
370
     9
100
AcDbCircle
 10
944.39957876848
 20
-565.1109618154142
 30
0.0
 40
8.333333333333332
  0
ARC
  5
199
330
1F
100
AcDbEntity
  8
D-0_通り芯
  6
Continuous
 62
     4
370
     9
100
AcDbCircle
 10
957.820486980362
 20
-293.9181766961623
 30
0.0
 40
3.333333333333333
100
AcDbArc
 50
174.0
 51
256.8749836510982
  0
ARC
  5
19A
330
1F
100
AcDbEntity
  8
D-0_通り芯
  6
Continuous
 62
     4
370
     9
100
AcDbCircle
 10
956.7256329000885
 20
-266.0679285060521
 30
0.0
 40
0.6666666666666666
100
AcDbArc
 50
354.0
 51
105.2060231130038
  0
LINE
  5
19B
330
1F
100
AcDbEntity
  8
D-0_通り芯
  6
Continuous
 62
     4
370
     9
100
AcDbLine
 10
956.550772484908
 20
-265.4246025547276
 30
0.0
 11
948.5978998267582
 21
-267.5862480036757
 31
0.0
  0
LINE
  5
19C
330
1F
100
AcDbEntity
  8
D-0_通り芯
  6
Continuous
 62
     4
370
     9
100
AcDbLine
 10
957.0635651772865
 20
-297.1644330777714
 30
0.0
 11
980.3699834323835
 21
-302.5987346408909
 31
0.0
  0
LINE
  5
19D
330
1F
100
AcDbEntity
  8
D-6_間仕切
  6
Continuous
 62
     2
370
     9
100
AcDbLine
 10
972.2152806092084
 20
-482.2311198071192
 30
0.0
 11
973.7483570945325
 21
-467.644871389548
 31
0.0
  0
LINE
  5
19E
330
1F
100
AcDbEntity
  8
D-6_間仕切
  6
Continuous
 62
     2
370
     9
100
AcDbLine
 10
969.2844394742953
 20
-484.6044681620016
 30
0.0
 11
972.2152806092084
 21
-482.2311198071192
 31
0.0
  0
LINE
  5
19F
330
1F
100
AcDbEntity
  8
D-6_間仕切
  6
Continuous
 62
     2
370
     9
100
AcDbLine
 10
971.3750087396478
 20
-464.714030254636
 30
0.0
 11
973.7483570945325
 21
-467.644871389548
 31
0.0
  0
LINE
  5
1A0
330
1F
100
AcDbEntity
  8
D-B_衛生陶器
  6
Continuous
 62
     2
370
     9
100
AcDbLine
 10
967.2616021782757
 20
-491.0951328540694
 30
0.0
 11
965.5647197015936
 21
-493.4306914641946
 31
0.0
  0
LINE
  5
1A1
330
1F
100
AcDbEntity
  8
D-B_衛生陶器
  6
Continuous
 62
     2
370
     9
100
AcDbLine
 10
970.7458603625311
 20
-457.9446306364578
 30
0.0
 11
969.5716487788719
 21
-455.3073078807445
 31
0.0
  0
LINE
  5
1A2
330
1F
100
AcDbEntity
  8
D-0_通り芯
  6
Continuous
 62
     4
370
     9
100
AcDbLine
 10
980.3699834323835
 20
-302.5987346408909
 30
0.0
 11
964.3965552171995
 21
-454.5757522635132
 31
0.0
  0
LINE
  5
1A3
330
1F
100
AcDbEntity
  8
D-0_通り芯
  6
Continuous
 62
     4
370
     9
100
AcDbLine
 10
964.3965552171995
 20
-454.5757522635132
 30
0.0
 11
964.3770498399216
 21
-454.7613335317545
 31
0.0
  0
LINE
  5
1A4
330
1F
100
AcDbEntity
  8
D-B_衛生陶器
  6
Continuous
 62
     2
370
     9
100
AcDbLine
 10
965.5647197015936
 20
-493.4306914641946
 30
0.0
 11
960.3701207626422
 21
-492.8847171152041
 31
0.0
  0
LINE
  5
1A5
330
1F
100
AcDbEntity
  8
D-B_衛生陶器
  6
Continuous
 62
     2
370
     9
100
AcDbLine
 10
969.5716487788719
 20
-455.3073078807445
 30
0.0
 11
964.3770498399216
 21
-454.7613335317545
 31
0.0
  0
ARC
  5
1A6
330
1F
100
AcDbEntity
  8
D-0_通り芯
  6
Continuous
 62
     4
370
     9
100
AcDbCircle
 10
936.0556379753281
 20
-500.9968824211717
 30
0.0
 40
3.333333333333333
100
AcDbArc
 50
91.12501634890181
 51
174.0
  0
LINE
  5
1A7
330
1F
100
AcDbEntity
  8
D-0_通り芯
  6
Continuous
 62
     4
370
     9
100
AcDbLine
 10
935.9901913828356
 20
-497.6641916382392
 30
0.0
 11
959.9171633071593
 21
-497.1943194289322
 31
0.0
  0
LINE
  5
1A8
330
1F
100
AcDbEntity
  8
D-1_躯体
  6
Continuous
 62
     4
370
     9
100
AcDbLine
 10
964.3770498399216
 20
-454.7613335317545
 30
0.0
 11
959.9171633071593
 21
-497.1943194289322
 31
0.0
  0
LINE
  5
1A9
330
1F
100
AcDbEntity
  8
D-B_衛生陶器
  6
Continuous
 62
     2
370
     9
100
AcDbLine
 10
970.7458603625311
 20
-457.9446306364578
 30
0.0
 11
967.2616021782757
 21
-491.0951328540694
 31
0.0
  0
LINE
  5
1AA
330
1F
100
AcDbEntity
  8
D-6_間仕切
  6
Continuous
 62
     2
370
     9
100
AcDbLine
 10
969.2844394742953
 20
-484.6044681620016
 30
0.0
 11
967.9584466377265
 21
-484.4651006989467
 31
0.0
  0
LINE
  5
1AB
330
1F
100
AcDbEntity
  8
D-6_間仕切
  6
Continuous
 62
     2
370
     9
100
AcDbLine
 10
972.2152767879073
 20
-482.2311561643683
 30
0.0
 11
968.2371892064408
 21
-481.8130423112985
 31
0.0
  0
LINE
  5
1AC
330
1F
100
AcDbEntity
  8
D-6_間仕切
  6
Continuous
 62
     2
370
     9
100
AcDbLine
 10
973.7483609158336
 20
-467.6448350322984
 30
0.0
 11
969.7702733343671
 21
-467.2267211792287
 31
0.0
  0
LINE
  5
1AD
330
1F
100
AcDbEntity
  8
D-6_間仕切
  6
Continuous
 62
     2
370
     9
100
AcDbLine
 10
971.3750087396478
 20
-464.714030254636
 30
0.0
 11
970.0490159030802
 21
-464.5746627915805
 31
0.0
  0
LINE
  5
1AE
330
1F
100
AcDbEntity
  8
D-9_記号
  6
Continuous
 62
     7
370
     9
100
AcDbLine
 10
928.6979925425295
 20
-539.1109618154145
 30
0.0
 11
930.9732523248421
 21
-517.4633110184619
 31
0.0
  0
LINE
  5
1AF
330
1F
100
AcDbEntity
  8
D-9_記号
  6
Continuous
 62
     7
370
     9
100
AcDbLine
 10
917.972570893851
 20
-539.1109618154145
 30
0.0
 11
921.2044898889725
 21
-508.3613066093057
 31
0.0
  0
LINE
  5
1B0
330
1F
100
AcDbEntity
  8
D-6_間仕切
  6
Continuous
 62
     2
370
     9
100
AcDbLine
 10
912.6098600695037
 20
-539.1109618154145
 30
0.0
 11
916.9935579239019
 21
-497.4028627714735
 31
0.0
  0
LINE
  5
1B1
330
1F
100
AcDbEntity
  8
D-1_躯体
  6
Continuous
 62
     4
370
     9
100
AcDbLine
 10
922.84319967304
 20
-512.6258516753763
 30
0.0
 11
930.005443446072
 21
-517.9865375874841
 31
0.0
  0
LINE
  5
1B2
330
1F
100
AcDbEntity
  8
D-0_通り芯
  6
Continuous
 62
     4
370
     9
100
AcDbLine
 10
930.9732523248421
 20
-517.4633110184619
 30
0.0
 11
957.3886474970005
 21
-266.1376141482301
 31
0.0
  0
LINE
  5
1B3
330
1F
100
AcDbEntity
  8
D-0_通り芯
  6
Continuous
 62
     4
370
     9
100
AcDbLine
 10
985.5662454351478
 20
-551.777644978069
 30
0.0
 11
985.5662454351478
 21
-697.012423186238
 31
0.0
  0
LINE
  5
1B4
330
1F
100
AcDbEntity
  8
D-0_通り芯
  6
Continuous
 62
     4
370
     9
100
AcDbLine
 10
1212.233000080418
 20
-551.777644978069
 30
0.0
 11
1212.233000080418
 21
-697.012423186238
 31
0.0
  0
LINE
  5
1B5
330
1F
100
AcDbEntity
  8
D-1_躯体
  6
Continuous
 62
     3
370
     9
100
AcDbLine
 10
998.0662454351467
 20
-546.777628482081
 30
0.0
 11
998.0662454351467
 21
-219.1883354312252
 31
0.0
  0
LINE
  5
1B6
330
1F
100
AcDbEntity
  8
D-1_躯体
  6
Continuous
 62
     3
370
     9
100
AcDbLine
 10
1199.733000080418
 20
-546.777628482081
 30
0.0
 11
1199.733000080418
 21
-219.1883354312252
 31
0.0
  0
ARC
  5
1B7
330
1F
100
AcDbEntity
  8
D-0_通り芯
  6
Continuous
 62
     4
370
     9
100
AcDbCircle
 10
1042.232934096465
 20
-639.8695126277904
 30
0.0
 40
80.47624389178071
100
AcDbArc
 50
225.2397455553737
 51
314.7602544446263
  0
ARC
  5
1B8
330
1F
100
AcDbEntity
  8
D-0_通り芯
  6
Continuous
 62
     4
370
     9
100
AcDbCircle
 10
1155.566311419099
 20
-639.8695126277904
 30
0.0
 40
80.47624389178071
100
AcDbArc
 50
225.2397455553737
 51
314.7602544446263
  0
ARC
  5
1B9
330
1F
100
AcDbEntity
  8
D-0_通り芯
  6
Continuous
 62
     4
370
     9
100
AcDbCircle
 10
1042.232934096465
 20
-754.1553337446853
 30
0.0
 40
80.47624389178071
100
AcDbArc
 50
45.23974555537367
 51
134.7602544446263
  0
ARC
  5
1BA
330
1F
100
AcDbEntity
  8
D-1_躯体
  6
Continuous
 62
     3
370
     9
100
AcDbCircle
 10
1149.3163114191
 20
-261.9897222411068
 30
0.0
 40
66.13472014321468
100
AcDbArc
 50
40.32968394453118
 51
139.6703160554688
  0
ARC
  5
1BB
330
1F
100
AcDbEntity
  8
D-1_躯体
  6
Continuous
 62
     3
370
     9
100
AcDbCircle
 10
1048.482934096465
 20
-261.9897222411068
 30
0.0
 40
66.13472014321468
100
AcDbArc
 50
40.32968394453118
 51
139.6703160554688
  0
ARC
  5
1BC
330
1F
100
AcDbEntity
  8
D-1_躯体
  6
Continuous
 62
     3
370
     9
100
AcDbCircle
 10
1149.3163114191
 20
-176.3869486213436
 30
0.0
 40
66.13472014321468
100
AcDbArc
 50
220.3296839445312
 51
319.6703160554688
  0
LINE
  5
1BD
330
1F
100
AcDbEntity
  8
D-6_間仕切
  6
Continuous
 62
     6
370
     5
100
AcDbLine
 10
889.7329121018141
 20
-546.7776504767347
 30
0.0
 11
712.308570194407
 21
-546.7776504767347
 31
0.0
  0
LINE
  5
1BE
330
1F
100
AcDbEntity
  8
D-0_通り芯
  6
Continuous
 62
     4
370
     9
100
AcDbLine
 10
948.5978998267582
 20
-267.5862480036757
 30
0.0
 11
933.2267287488868
 21
-288.7428499717261
 31
0.0
  0
LINE
  5
1BF
330
1F
100
AcDbEntity
  8
D-0_通り芯
  6
Continuous
 62
     4
370
     9
100
AcDbLine
 10
912.5194427110229
 20
-485.7595161937929
 30
0.0
 11
916.4671914282691
 21
-496.0330572917463
 31
0.0
  0
LINE
  5
1C0
330
1F
100
AcDbEntity
  8
D-0_通り芯
  6
Continuous
 62
     4
370
     9
100
AcDbLine
 10
912.5194427110229
 20
-485.7595161937929
 30
0.0
 11
933.2267287488868
 21
-288.7428499717261
 31
0.0
  0
LINE
  5
1C1
330
1F
100
AcDbEntity
  8
D-5_建具
  6
Continuous
 62
     7
370
     9
100
AcDbLine
 10
892.9787106465234
 20
-246.2293743636635
 30
0.0
 11
834.1763991956283
 21
-246.2293743636635
 31
0.0
  0
LINE
  5
1C2
330
1F
100
AcDbEntity
  8
D-5_建具
  6
Continuous
 62
     7
370
     9
100
AcDbLine
 10
930.8083504068601
 20
-311.7522324605933
 30
0.0
 11
892.9787106465234
 21
-246.2293743636635
 31
0.0
  0
LINE
  5
1C3
330
1F
100
AcDbEntity
  8
D-5_建具
  6
Continuous
 62
     7
370
     9
100
AcDbLine
 10
930.8083504068601
 20
-311.7522324605933
 30
0.0
 11
921.2412645977316
 21
-288.6552441478115
 31
0.0
  0
LINE
  5
1C4
330
1F
100
AcDbEntity
  8
D-5_建具
  6
Continuous
 62
     7
370
     9
100
AcDbLine
 10
930.8083504068601
 20
-311.7522324605933
 30
0.0
 11
915.5893146816414
 21
-291.9183989533122
 31
0.0
  0
TEXT
  5
1C5
330
1F
100
AcDbEntity
  8
D-4_文字
  6
Continuous
 62
     2
370
   211
100
AcDbText
 10
1325.469172528076
 20
-617.4145574374189
 30
0.0
 40
30.47999999999989
  1
6.5
 50
90.0
 41
1.083333333333337
  7
ＭＳ ゴシック
100
AcDbText
  0
LWPOLYLINE
  5
1C6
330
1F
100
AcDbEntity
  8
D-4_文字
  6
Continuous
 62
     7
370
     9
100
AcDbPolyline
 90
        4
 70
     1
 43
2.0
 10
1338.023669774218
 20
-526.7776504767256
 42
0.4142135623731
 10
1337.023669774218
 20
-525.7776504767255
 42
0.4142135623731
 10
1336.023669774218
 20
-526.7776504767256
 42
0.4142135623731
 10
1337.023669774218
 20
-527.7776504767256
 42
0.4142135623731
  0
LWPOLYLINE
  5
1C7
330
1F
100
AcDbEntity
  8
D-4_文字
  6
Continuous
 62
     7
370
     9
100
AcDbPolyline
 90
        4
 70
     1
 43
2.0
 10
1338.023669774218
 20
-546.7776504767342
 42
0.4142135623731
 10
1337.023669774218
 20
-545.7776504767342
 42
0.4142135623731
 10
1336.023669774218
 20
-546.7776504767342
 42
0.4142135623731
 10
1337.023669774218
 20
-547.7776504767342
 42
0.4142135623731
  0
LINE
  5
1C8
330
1F
100
AcDbEntity
  8
D-4_文字
  6
Continuous
 62
     7
370
     9
100
AcDbLine
 10
1340.023669774218
 20
-526.7776504767256
 30
0.0
 11
1240.972587681696
 21
-526.7776504767256
 31
0.0
  0
LINE
  5
1C9
330
1F
100
AcDbEntity
  8
D-4_文字
  6
Continuous
 62
     7
370
     9
100
AcDbLine
 10
1340.023669774218
 20
-546.7776504767342
 30
0.0
 11
1263.092846548516
 21
-546.7776504767342
 31
0.0
  0
LINE
  5
1CA
330
1F
100
AcDbEntity
  8
D-4_文字
  6
Continuous
 62
     7
370
     9
100
AcDbLine
 10
1337.023669774218
 20
-526.7776504767256
 30
0.0
 11
1337.023669774218
 21
-622.0103021182698
 31
0.0
  0
LINE
  5
1CB
330
1F
100
AcDbEntity
  8
D-6_間仕切
  6
Continuous
 62
     6
370
     5
100
AcDbLine
 10
1223.148303423072
 20
-546.777628482081
 30
0.0
 11
1498.917683166374
 21
-546.777628482081
 31
0.0
  0
ARC
  5
1CC
330
1F
100
AcDbEntity
  8
D-0_通り芯
  6
Continuous
 62
     4
370
     9
100
AcDbCircle
 10
972.5472958841119
 20
-546.1109838100675
 30
0.0
 40
0.6666666666666667
100
AcDbArc
 50
158.7939768869962
 51
270.0
  0
LINE
  5
1CD
330
1F
100
AcDbEntity
  8
D-0_通り芯
  6
JWW_PHANTOM1
 62
     4
370
     9
100
AcDbLine
 10
992.343856185043
 20
-530.1109838100582
 30
0.0
 11
976.5084332087868
 21
-538.1864829127683
 31
0.0
  0
LINE
  5
1CE
330
1F
100
AcDbEntity
  8
D-0_通り芯
  6
JWW_PHANTOM1
 62
     4
370
     9
100
AcDbLine
 10
976.5084332087868
 20
-538.1864829127683
 30
0.0
 11
971.9257720301466
 21
-545.8698354254666
 31
0.0
  0
LINE
  5
1CF
330
1F
100
AcDbEntity
  8
D-0_通り芯
  6
JWW_PHANTOM1
 62
     4
370
     9
100
AcDbLine
 10
972.5472958841119
 20
-546.7776504767342
 30
0.0
 11
1225.257364954201
 21
-546.7776504767342
 31
0.0
  0
ARC
  5
1D0
330
1F
100
AcDbEntity
  8
D-0_通り芯
  6
JWW_PHANTOM1
 62
     4
370
     9
100
AcDbCircle
 10
1225.257364954201
 20
-546.1109838100675
 30
0.0
 40
0.6666666666666667
100
AcDbArc
 50
270.0
 51
21.20602311300377
  0
LINE
  5
1D1
330
1F
100
AcDbEntity
  8
D-0_通り芯
  6
JWW_PHANTOM1
 62
     4
370
     9
100
AcDbLine
 10
1225.878888808166
 20
-545.869835425466
 30
0.0
 11
1222.897783521645
 21
-538.1864829127677
 31
0.0
  0
LINE
  5
1D2
330
1F
100
AcDbEntity
  8
D-0_通り芯
  6
JWW_PHANTOM1
 62
     4
370
     9
100
AcDbLine
 10
1222.897783521645
 20
-538.1864829127677
 30
0.0
 11
1203.137106087381
 21
-526.7776504767256
 31
0.0
  0
LINE
  5
1D3
330
1F
100
AcDbEntity
  8
D-0_通り芯
  6
JWW_PHANTOM1
 62
     4
370
     9
100
AcDbLine
 10
998.8802624904413
 20
-526.7776504767256
 30
0.0
 11
992.343856185043
 21
-530.1109838100582
 31
0.0
  0
LINE
  5
1D4
330
1F
100
AcDbEntity
  8
D-0_通り芯
  6
JWW_PHANTOM1
 62
     4
370
     9
100
AcDbLine
 10
998.8802624904413
 20
-526.7776504767256
 30
0.0
 11
1203.137106087381
 21
-526.7776504767256
 31
0.0
  0
ARC
  5
1D5
330
1F
100
AcDbEntity
  8
D-0_通り芯
  6
JWW_PHANTOM1
 62
     4
370
     9
100
AcDbCircle
 10
943.9097323549435
 20
-546.7776504771582
 30
0.0
 40
281.3530479220074
100
AcDbArc
 50
0.0000044791591712
 51
87.2397372696237
  0
LINE
  5
1D6
330
1F
100
AcDbEntity
  8
D-0_通り芯
  6
Continuous
 62
     4
370
     9
100
AcDbLine
 10
973.8994577979009
 20
-546.7776504767342
 30
0.0
 11
1223.148303423072
 21
-546.7776504767342
 31
0.0
  0
LINE
  5
1D7
330
1F
100
AcDbEntity
  8
D-6_間仕切
  6
JWW_PHANTOM1
 62
     2
370
     9
100
AcDbLine
 10
910.2021356883132
 20
-530.7776504767248
 30
0.0
 11
991.0365749239629
 21
-530.7776504767248
 31
0.0
  0
LINE
  5
1D8
330
1F
100
AcDbEntity
  8
D-6_間仕切
  6
JWW_PHANTOM1
 62
     2
370
     9
100
AcDbLine
 10
910.2021356883132
 20
-530.7776504767248
 30
0.0
 11
910.2021356883132
 21
-539.1109618154145
 31
0.0
  0
LINE
  5
1D9
330
1F
100
AcDbEntity
  8
D-9_記号
  6
JWW_PHANTOM1
 62
     7
370
     9
100
AcDbLine
 10
910.2021356883132
 20
-536.110983810067
 30
0.0
 11
980.5783248353084
 21
-536.110983810067
 31
0.0
  0
LINE
  5
1DA
330
1F
100
AcDbEntity
  8
C-2_仕上
  6
Continuous
 62
     3
370
     9
100
AcDbLine
 10
1068.649362121169
 20
953.7582734791841
 30
0.0
 11
1068.649362121169
 21
403.7335242847166
 31
0.0
  0
LINE
  5
1DB
330
1F
100
AcDbEntity
  8
C-2_仕上
  6
Continuous
 62
     3
370
     9
100
AcDbLine
 10
1129.14938851475
 20
953.7582734791841
 30
0.0
 11
1129.14938851475
 21
403.8001621672355
 31
0.0
  0
LINE
  5
1DC
330
1F
100
AcDbEntity
  8
C-E_見え係り
  6
Continuous
 62
     6
370
     5
100
AcDbLine
 10
948.8996227577821
 20
81.62057563008372
 30
0.0
 11
948.8996227577821
 21
333.1205756300841
 31
0.0
  0
LINE
  5
1DD
330
1F
100
AcDbEntity
  8
C-E_見え係り
  6
Continuous
 62
     6
370
     5
100
AcDbLine
 10
1248.899622757783
 20
81.62057563008372
 30
0.0
 11
1248.899622757783
 21
333.1205756300841
 31
0.0
  0
LINE
  5
1DE
330
1F
100
AcDbEntity
  8
C-E_見え係り
  6
Continuous
 62
     6
370
     5
100
AcDbLine
 10
1298.899622757783
 20
-18.37942436991629
 30
0.0
 11
1298.899622757783
 21
81.62057563008372
 31
0.0
  0
LINE
  5
1DF
330
1F
100
AcDbEntity
  8
C-E_見え係り
  6
Continuous
 62
     6
370
     5
100
AcDbLine
 10
898.8996227577823
 20
81.62057563008372
 30
0.0
 11
1298.899622757783
 21
81.62057563008372
 31
0.0
  0
LINE
  5
1E0
330
1F
100
AcDbEntity
  8
C-E_見え係り
  6
Continuous
 62
     6
370
     5
100
AcDbLine
 10
898.8996227577823
 20
-18.37942436991629
 30
0.0
 11
898.8996227577823
 21
81.62057563008372
 31
0.0
  0
LINE
  5
1E1
330
1F
100
AcDbEntity
  8
C-E_見え係り
  6
Continuous
 62
     6
370
     5
100
AcDbLine
 10
898.8996227577823
 20
-18.37942436991629
 30
0.0
 11
1298.899622757783
 21
-18.37942436991629
 31
0.0
  0
LINE
  5
1E2
330
1F
100
AcDbEntity
  8
C-E_見え係り
  6
Continuous
 62
     6
370
     5
100
AcDbLine
 10
1098.899622757782
 20
81.62057563008372
 30
0.0
 11
1072.10470351467
 21
-18.37942436991629
 31
0.0
  0
LINE
  5
1E3
330
1F
100
AcDbEntity
  8
C-E_見え係り
  6
Continuous
 62
     6
370
     5
100
AcDbLine
 10
1085.15407232821
 20
-18.37942436991629
 30
0.0
 11
1078.62938792144
 21
5.971029339501639
 31
0.0
  0
LINE
  5
1E4
330
1F
100
AcDbEntity
  8
C-E_見え係り
  6
Continuous
 62
     6
370
     5
100
AcDbLine
 10
1085.850253944242
 20
81.62057563008372
 30
0.0
 11
1092.374938351012
 21
57.27012192066577
 31
0.0
  0
LINE
  5
1E5
330
1F
100
AcDbEntity
  8
C-E_見え係り
  6
Continuous
 62
     6
370
     5
100
AcDbLine
 10
1048.899622757782
 20
81.62057563008372
 30
0.0
 11
1022.104703514669
 21
-18.37942436991629
 31
0.0
  0
LINE
  5
1E6
330
1F
100
AcDbEntity
  8
C-E_見え係り
  6
Continuous
 62
     6
370
     5
100
AcDbLine
 10
1035.15407232821
 20
-18.37942436991629
 30
0.0
 11
1028.62938792144
 21
5.971029339501639
 31
0.0
  0
LINE
  5
1E7
330
1F
100
AcDbEntity
  8
C-E_見え係り
  6
Continuous
 62
     6
370
     5
100
AcDbLine
 10
1035.850253944242
 20
81.62057563008372
 30
0.0
 11
1042.374938351012
 21
57.27012192066577
 31
0.0
  0
LINE
  5
1E8
330
1F
100
AcDbEntity
  8
C-E_見え係り
  6
Continuous
 62
     6
370
     5
100
AcDbLine
 10
998.8996227577821
 20
81.62057563008372
 30
0.0
 11
972.1047035146695
 21
-18.37942436991629
 31
0.0
  0
LINE
  5
1E9
330
1F
100
AcDbEntity
  8
C-E_見え係り
  6
Continuous
 62
     6
370
     5
100
AcDbLine
 10
985.1540723282097
 20
-18.37942436991629
 30
0.0
 11
978.6293879214396
 21
5.971029339501639
 31
0.0
  0
LINE
  5
1EA
330
1F
100
AcDbEntity
  8
C-E_見え係り
  6
Continuous
 62
     6
370
     5
100
AcDbLine
 10
985.8502539442419
 20
81.62057563008372
 30
0.0
 11
992.374938351012
 21
57.27012192066577
 31
0.0
  0
LINE
  5
1EB
330
1F
100
AcDbEntity
  8
C-E_見え係り
  6
Continuous
 62
     6
370
     5
100
AcDbLine
 10
948.8996227577821
 20
81.62057563008372
 30
0.0
 11
922.1047035146696
 21
-18.37942436991629
 31
0.0
  0
LINE
  5
1EC
330
1F
100
AcDbEntity
  8
C-E_見え係り
  6
Continuous
 62
     6
370
     5
100
AcDbLine
 10
935.1540723282098
 20
-18.37942436991629
 30
0.0
 11
928.6293879214397
 21
5.971029339501639
 31
0.0
  0
LINE
  5
1ED
330
1F
100
AcDbEntity
  8
C-E_見え係り
  6
Continuous
 62
     6
370
     5
100
AcDbLine
 10
935.850253944242
 20
81.62057563008372
 30
0.0
 11
942.374938351012
 21
57.27012192066577
 31
0.0
  0
LINE
  5
1EE
330
1F
100
AcDbEntity
  8
C-E_見え係り
  6
Continuous
 62
     6
370
     5
100
AcDbLine
 10
1148.899622757782
 20
81.62057563008372
 30
0.0
 11
1122.10470351467
 21
-18.37942436991629
 31
0.0
  0
LINE
  5
1EF
330
1F
100
AcDbEntity
  8
C-E_見え係り
  6
Continuous
 62
     6
370
     5
100
AcDbLine
 10
1135.15407232821
 20
-18.37942436991629
 30
0.0
 11
1128.62938792144
 21
5.971029339501639
 31
0.0
  0
LINE
  5
1F0
330
1F
100
AcDbEntity
  8
C-E_見え係り
  6
Continuous
 62
     6
370
     5
100
AcDbLine
 10
1135.850253944242
 20
81.62057563008372
 30
0.0
 11
1142.374938351012
 21
57.27012192066577
 31
0.0
  0
LINE
  5
1F1
330
1F
100
AcDbEntity
  8
C-E_見え係り
  6
Continuous
 62
     6
370
     5
100
AcDbLine
 10
1198.899622757783
 20
81.62057563008372
 30
0.0
 11
1172.10470351467
 21
-18.37942436991629
 31
0.0
  0
LINE
  5
1F2
330
1F
100
AcDbEntity
  8
C-E_見え係り
  6
Continuous
 62
     6
370
     5
100
AcDbLine
 10
1185.15407232821
 20
-18.37942436991629
 30
0.0
 11
1178.62938792144
 21
5.971029339501639
 31
0.0
  0
LINE
  5
1F3
330
1F
100
AcDbEntity
  8
C-E_見え係り
  6
Continuous
 62
     6
370
     5
100
AcDbLine
 10
1185.850253944242
 20
81.62057563008372
 30
0.0
 11
1192.374938351013
 21
57.27012192066577
 31
0.0
  0
LINE
  5
1F4
330
1F
100
AcDbEntity
  8
C-E_見え係り
  6
Continuous
 62
     6
370
     5
100
AcDbLine
 10
1248.899622757783
 20
81.62057563008372
 30
0.0
 11
1222.10470351467
 21
-18.37942436991629
 31
0.0
  0
LINE
  5
1F5
330
1F
100
AcDbEntity
  8
C-E_見え係り
  6
Continuous
 62
     6
370
     5
100
AcDbLine
 10
1235.15407232821
 20
-18.37942436991629
 30
0.0
 11
1228.62938792144
 21
5.971029339501639
 31
0.0
  0
LINE
  5
1F6
330
1F
100
AcDbEntity
  8
C-E_見え係り
  6
Continuous
 62
     6
370
     5
100
AcDbLine
 10
1235.850253944242
 20
81.62057563008372
 30
0.0
 11
1242.374938351013
 21
57.27012192066577
 31
0.0
  0
LINE
  5
1F7
330
1F
100
AcDbEntity
  8
C-E_見え係り
  6
Continuous
 62
     6
370
     5
100
AcDbLine
 10
1298.899622757783
 20
81.62057563008372
 30
0.0
 11
1272.10470351467
 21
-18.37942436991629
 31
0.0
  0
LINE
  5
1F8
330
1F
100
AcDbEntity
  8
C-E_見え係り
  6
Continuous
 62
     6
370
     5
100
AcDbLine
 10
1285.15407232821
 20
-18.37942436991629
 30
0.0
 11
1278.62938792144
 21
5.971029339501639
 31
0.0
  0
LINE
  5
1F9
330
1F
100
AcDbEntity
  8
C-E_見え係り
  6
Continuous
 62
     6
370
     5
100
AcDbLine
 10
1285.850253944242
 20
81.62057563008372
 30
0.0
 11
1292.374938351013
 21
57.27012192066577
 31
0.0
  0
LINE
  5
1FA
330
1F
100
AcDbEntity
  8
C-1_躯体
  6
Continuous
 62
     7
370
     9
100
AcDbLine
 10
1058.899589765805
 20
83.12054346290662
 30
0.0
 11
1058.899589765805
 21
81.62057563008372
 31
0.0
  0
LINE
  5
1FB
330
1F
100
AcDbEntity
  8
C-1_躯体
  6
Continuous
 62
     7
370
     9
100
AcDbLine
 10
1086.399556773829
 20
83.12054346290662
 30
0.0
 11
1086.399556773829
 21
81.62057563008372
 31
0.0
  0
LINE
  5
1FC
330
1F
100
AcDbEntity
  8
C-1_躯体
  6
Continuous
 62
     7
370
     9
100
AcDbLine
 10
1111.399688741734
 20
83.12054346290662
 30
0.0
 11
1111.399688741734
 21
81.62057563008372
 31
0.0
  0
LINE
  5
1FD
330
1F
100
AcDbEntity
  8
C-1_躯体
  6
Continuous
 62
     7
370
     9
100
AcDbLine
 10
1138.899655749758
 20
83.12054346290662
 30
0.0
 11
1138.899655749758
 21
81.62057563008372
 31
0.0
  0
LINE
  5
1FE
330
1F
100
AcDbEntity
  8
C-E_見え係り
  6
Continuous
 62
     6
370
     5
100
AcDbLine
 10
1248.899622757783
 20
284.0479760967634
 30
0.0
 11
1132.899635954573
 21
168.0479892935534
 31
0.0
  0
LINE
  5
1FF
330
1F
100
AcDbEntity
  8
C-E_見え係り
  6
Continuous
 62
     6
370
     5
100
AcDbLine
 10
1248.899622757783
 20
269.9058404730322
 30
0.0
 11
1132.899635954573
 21
153.9058536698229
 31
0.0
  0
LINE
  5
200
330
1F
100
AcDbEntity
  8
C-E_見え係り
  6
Continuous
 62
     6
370
     5
100
AcDbLine
 10
1248.899622757783
 20
255.7637048493012
 30
0.0
 11
1132.899635954573
 21
139.7637180460913
 31
0.0
  0
LINE
  5
201
330
1F
100
AcDbEntity
  8
C-E_見え係り
  6
Continuous
 62
     6
370
     5
100
AcDbLine
 10
1064.899609560992
 20
270.6448532349008
 30
0.0
 11
948.8996227577821
 21
154.6448664316915
 31
0.0
  0
LINE
  5
202
330
1F
100
AcDbEntity
  8
C-E_見え係り
  6
Continuous
 62
     6
370
     5
100
AcDbLine
 10
1064.899609560992
 20
284.786988858632
 30
0.0
 11
948.8996227577821
 21
168.7870020554226
 31
0.0
  0
LINE
  5
203
330
1F
100
AcDbEntity
  8
C-E_見え係り
  6
Continuous
 62
     6
370
     5
100
AcDbLine
 10
1064.899609560992
 20
298.9291244823631
 30
0.0
 11
948.8996227577821
 21
182.9291376791536
 31
0.0
  0
LINE
  5
204
330
1F
100
AcDbEntity
  8
C-3_寸法
  6
JWW_DASHED2
 62
     3
370
     9
100
AcDbLine
 10
1068.649510585062
 20
333.1205640828921
 30
0.0
 11
1068.649510585062
 21
83.12054346290662
 31
0.0
  0
LINE
  5
205
330
1F
100
AcDbEntity
  8
C-0_通り芯
  6
Continuous
 62
     4
370
     9
100
AcDbLine
 10
1064.899609560992
 20
331.6205591340957
 30
0.0
 11
1064.899609560992
 21
83.12054346290662
 31
0.0
  0
LINE
  5
206
330
1F
100
AcDbEntity
  8
C-0_通り芯
  6
JWW_DASHED2
 62
     4
370
     9
100
AcDbLine
 10
1131.3995567754
 20
331.6205591340957
 30
0.0
 11
1131.3995567754
 21
83.12054346290662
 31
0.0
  0
LINE
  5
207
330
1F
100
AcDbEntity
  8
C-3_寸法
  6
JWW_DASHED2
 62
     3
370
     9
100
AcDbLine
 10
1129.149734930502
 20
333.1205640828921
 30
0.0
 11
1129.149734930502
 21
83.12054346290662
 31
0.0
  0
LINE
  5
208
330
1F
100
AcDbEntity
  8
C-1_躯体
  6
Continuous
 62
     7
370
     9
100
AcDbLine
 10
1138.899655749758
 20
83.12054346290662
 30
0.0
 11
1058.899589765805
 21
83.12054346290662
 31
0.0
  0
LINE
  5
209
330
1F
100
AcDbEntity
  8
C-0_通り芯
  6
Continuous
 62
     4
370
     9
100
AcDbLine
 10
1132.899635954573
 20
331.6205591340957
 30
0.0
 11
1132.899635954573
 21
83.12054346290662
 31
0.0
  0
LINE
  5
20A
330
1F
100
AcDbEntity
  8
C-0_通り芯
  6
JWW_DASHED2
 62
     4
370
     9
100
AcDbLine
 10
1066.399688740163
 20
331.6205591340957
 30
0.0
 11
1066.399688740163
 21
83.12054346290662
 31
0.0
  0
LINE
  5
20B
330
1F
100
AcDbEntity
  8
C-0_通り芯
  6
Continuous
 62
     4
370
     9
100
AcDbLine
 10
1136.399672245747
 20
331.6205591340957
 30
0.0
 11
1132.899635954573
 21
331.6205591340957
 31
0.0
  0
LINE
  5
20C
330
1F
100
AcDbEntity
  8
C-0_通り芯
  6
Continuous
 62
     4
370
     9
100
AcDbLine
 10
1061.399573269818
 20
331.6205591340957
 30
0.0
 11
1064.899609560992
 21
331.6205591340957
 31
0.0
  0
ARC
  5
20D
330
1F
100
AcDbEntity
  8
C-0_通り芯
  6
JWW_DASHED2
 62
     4
370
     9
100
AcDbCircle
 10
1064.89960955942
 20
331.6205591340957
 30
0.0
 40
1.499999874346965
100
AcDbArc
 50
0.0000000000000127
 51
90.00000000000001
  0
LINE
  5
20E
330
1F
100
AcDbEntity
  8
C-0_通り芯
  6
Continuous
 62
     4
370
     9
100
AcDbLine
 10
1061.399573269818
 20
333.1205640828921
 30
0.0
 11
1061.399573269818
 21
331.6205591340957
 31
0.0
  0
LINE
  5
20F
330
1F
100
AcDbEntity
  8
C-0_通り芯
  6
Continuous
 62
     4
370
     9
100
AcDbLine
 10
1061.399721733711
 20
333.1205640828921
 30
0.0
 11
1061.399721733711
 21
331.6205591340957
 31
0.0
  0
ARC
  5
210
330
1F
100
AcDbEntity
  8
C-0_通り芯
  6
JWW_DASHED2
 62
     4
370
     9
100
AcDbCircle
 10
1132.899635956144
 20
331.6205591340957
 30
0.0
 40
1.499999874346965
100
AcDbArc
 50
90.0
 51
180.0
  0
LINE
  5
211
330
1F
100
AcDbEntity
  8
C-0_通り芯
  6
Continuous
 62
     4
370
     9
100
AcDbLine
 10
1136.399672245747
 20
333.1205640828921
 30
0.0
 11
1136.399672245747
 21
331.6205591340957
 31
0.0
  0
LINE
  5
212
330
1F
100
AcDbEntity
  8
C-0_通り芯
  6
JWW_CENTER2
 62
     7
370
     9
100
AcDbLine
 10
1047.010749631726
 20
953.7580260393612
 30
0.0
 11
1154.037875634682
 21
953.7585209190071
 31
0.0
  0
ARC
  5
213
330
1F
100
AcDbEntity
  8
C-2_仕上
  6
Continuous
 62
     3
370
     9
100
AcDbCircle
 10
1098.899375317959
 20
953.7582734791841
 30
0.0
 40
30.24996486870018
100
AcDbArc
 50
0.0
 51
180.0
  0
ARC
  5
214
330
1F
100
AcDbEntity
  8
C-2_仕上
  6
JWW_DASHED2
 62
     3
370
     9
100
AcDbCircle
 10
1098.899375317959
 20
953.7582734791841
 30
0.0
 40
30.24996486870018
100
AcDbArc
 50
180.0004730224609
 51
0.0004730224609375
  0
LINE
  5
215
330
1F
100
AcDbEntity
  8
C-0_通り芯
  6
JWW_CENTER2
 62
     7
370
     9
100
AcDbLine
 10
1098.899622757782
 20
1010.275755927453
 30
0.0
 11
1098.899622757782
 21
42.10451263163175
 31
0.0
  0
LINE
  5
216
330
1F
100
AcDbEntity
  8
C-1_躯体
  6
Continuous
 62
     3
370
     9
100
AcDbLine
 10
1068.649609560992
 20
438.0988160843772
 30
0.0
 11
1068.649609560992
 21
333.1205640828921
 31
0.0
  0
LINE
  5
217
330
1F
100
AcDbEntity
  8
C-1_躯体
  6
Continuous
 62
     3
370
     9
100
AcDbLine
 10
1129.149635954573
 20
422.6029945470532
 30
0.0
 11
1129.149635954573
 21
333.1205640828921
 31
0.0
  0
ELLIPSE
  5
218
330
1F
100
AcDbEntity
  8
C-0_通り芯
  6
Continuous
 62
     4
370
     9
100
AcDbEllipse
 10
1098.956618822024
 20
378.0986714894561
 30
0.0
 11
-3.345514096583813
 21
31.83044040163793
 31
0.0
210
0.0
220
0.0
230
1.0
 40
0.9945
 41
1.154744950481671
 42
1.776258424061158
  0
ELLIPSE
  5
219
330
1F
100
AcDbEntity
  8
C-0_通り芯
  6
Continuous
 62
     4
370
     9
100
AcDbEllipse
 10
1098.956618822024
 20
378.0986714894561
 30
0.0
 11
-3.345514096583813
 21
31.83044040163793
 31
0.0
210
0.0
220
0.0
230
1.0
 40
0.9945
 41
4.284832074319628
 42
4.929356607402788
  0
ELLIPSE
  5
21A
330
1F
100
AcDbEntity
  8
C-0_通り芯
  6
Continuous
 62
     4
370
     9
100
AcDbEllipse
 10
1098.956618822024
 20
378.0986714894561
 30
0.0
 11
-4.160232838052567
 21
39.58197143565728
 31
0.0
210
0.0
220
0.0
230
1.0
 40
0.9944999999999998
 41
0.7667625057856567
 42
2.16425058662961
  0
ELLIPSE
  5
21B
330
1F
100
AcDbEntity
  8
C-0_通り芯
  6
Continuous
 62
     4
370
     9
100
AcDbEllipse
 10
1098.956618822024
 20
378.0986714894561
 30
0.0
 11
-4.055704374784915
 21
38.58744954028901
 31
0.0
210
0.0
220
0.0
230
1.0
 40
0.9945
 41
0.7980163469981315
 42
2.132987027544697
  0
ELLIPSE
  5
21C
330
1F
100
AcDbEntity
  8
C-0_通り芯
  6
Continuous
 62
     4
370
     9
100
AcDbEllipse
 10
1098.956618822024
 20
378.0986714894561
 30
0.0
 11
-4.160232838052567
 21
39.58197143565728
 31
0.0
210
0.0
220
0.0
230
1.0
 40
0.9944999999999998
 41
3.903880426896705
 42
5.31030825482571
  0
ELLIPSE
  5
21D
330
1F
100
AcDbEntity
  8
C-0_通り芯
  6
Continuous
 62
     4
370
     9
100
AcDbEllipse
 10
1098.956618822024
 20
378.0986714894561
 30
0.0
 11
-4.055704374784915
 21
38.58744954028901
 31
0.0
210
0.0
220
0.0
230
1.0
 40
0.9945
 41
3.934851212666703
 42
5.279337469055713
  0
LINE
  5
21E
330
1F
100
AcDbEntity
  8
C-E_見え係り
  6
Continuous
 62
     6
370
     5
100
AcDbLine
 10
864.6822804026513
 20
333.1205756300841
 30
0.0
 11
1061.399721733711
 21
333.1205756300841
 31
0.0
  0
LINE
  5
21F
330
1F
100
AcDbEntity
  8
C-E_見え係り
  6
Continuous
 62
     6
370
     5
100
AcDbLine
 10
1136.399672245747
 20
333.1205756300841
 30
0.0
 11
1332.299301679248
 21
333.1205756300841
 31
0.0
  0
LINE
  5
220
330
1F
100
AcDbEntity
  8
C-0_通り芯
  6
Continuous
 62
     4
370
     9
100
AcDbLine
 10
1136.399672245747
 20
333.1205640828921
 30
0.0
 11
1061.399573269818
 21
333.1205640828921
 31
0.0
  0
LINE
  5
221
330
1F
100
AcDbEntity
  8
C-A_インテリア
  6
Continuous
 62
     2
370
     9
100
AcDbLine
 10
408.2019111471291
 20
381.869767305566
 30
0.0
 11
408.2019111471291
 21
364.1196468848525
 31
0.0
  0
LINE
  5
222
330
1F
100
AcDbEntity
  8
C-A_インテリア
  6
Continuous
 62
     2
370
     9
100
AcDbLine
 10
403.7018220687938
 20
381.869767305566
 30
0.0
 11
403.7018220687938
 21
364.1196468848525
 31
0.0
  0
LINE
  5
223
330
1F
100
AcDbEntity
  8
C-A_インテリア
  6
Continuous
 62
     2
370
     9
100
AcDbLine
 10
400.9519738318855
 20
364.1196468848525
 30
0.0
 11
410.9519078479323
 21
364.1196468848525
 31
0.0
  0
LINE
  5
224
330
1F
100
AcDbEntity
  8
C-A_インテリア
  6
Continuous
 62
     2
370
     9
100
AcDbLine
 10
400.9519738318855
 20
364.1196468848525
 30
0.0
 11
400.9519738318855
 21
340.6197425615837
 31
0.0
  0
ARC
  5
225
330
1F
100
AcDbEntity
  8
C-A_インテリア
  6
Continuous
 62
     2
370
     9
100
AcDbCircle
 10
405.9519408399083
 20
381.869767305566
 30
0.0
 40
2.250000318965396
100
AcDbArc
 50
0.0000000000000064
 51
180.0
  0
LINE
  5
226
330
1F
100
AcDbEntity
  8
C-6_間仕切
  6
JWW_CENTER1
 62
     7
370
     9
100
AcDbLine
 10
405.9519408399083
 20
387.6359564683619
 30
0.0
 11
405.9519408399083
 21
378.5736461722259
 31
0.0
  0
LINE
  5
227
330
1F
100
AcDbEntity
  8
C-6_間仕切
  6
Continuous
 62
     7
370
     9
100
AcDbLine
 10
413.9517692816312
 20
388.1197260655957
 30
0.0
 11
413.9517692816312
 21
378.1197178176014
 31
0.0
  0
ARC
  5
228
330
1F
100
AcDbEntity
  8
C-6_間仕切
  6
Continuous
 62
     7
370
     9
100
AcDbCircle
 10
412.9518649583625
 20
388.1197260655957
 30
0.0
 40
1.000000012887491
100
AcDbArc
 50
0.0000000000000127
 51
90.00000000000001
  0
ARC
  5
229
330
1F
100
AcDbEntity
  8
C-6_間仕切
  6
Continuous
 62
     7
370
     9
100
AcDbCircle
 10
412.9518649583625
 20
378.1197178176014
 30
0.0
 40
1.000000012887491
100
AcDbArc
 50
270.0
 51
0.0
  0
ARC
  5
22A
330
1F
100
AcDbEntity
  8
C-6_間仕切
  6
Continuous
 62
     7
370
     9
100
AcDbCircle
 10
405.9519408399083
 20
383.1196848256254
 30
0.0
 40
3.500000045106217
100
AcDbArc
 50
310.0047302246094
 51
229.9922332763672
  0
LINE
  5
22B
330
1F
100
AcDbEntity
  8
C-6_間仕切
  6
Continuous
 62
     7
370
     9
100
AcDbLine
 10
395.9518583599677
 20
389.1197046208114
 30
0.0
 11
395.9518583599677
 21
377.1197392623864
 31
0.0
  0
LINE
  5
22C
330
1F
100
AcDbEntity
  8
C-0_通り芯
  6
JWW_CENTER2
 62
     7
370
     9
100
AcDbLine
 10
297.1372600702719
 20
383.1196848256254
 30
0.0
 11
415.7419469104323
 21
383.1196848256254
 31
0.0
  0
ARC
  5
22D
330
1F
100
AcDbEntity
  8
C-6_間仕切
  6
Continuous
 62
     7
370
     9
100
AcDbCircle
 10
302.951848462375
 20
374.1197293647937
 30
0.0
 40
1.000000012887491
100
AcDbArc
 50
180.0
 51
270.0
  0
LINE
  5
22E
330
1F
100
AcDbEntity
  8
C-6_間仕切
  6
Continuous
 62
     7
370
     9
100
AcDbLine
 10
301.9517956752125
 20
374.1197293647937
 30
0.0
 11
301.9517956752125
 21
392.1197145184041
 31
0.0
  0
ARC
  5
22F
330
1F
100
AcDbEntity
  8
C-6_間仕切
  6
Continuous
 62
     7
370
     9
100
AcDbCircle
 10
302.951848462375
 20
392.1197145184041
 30
0.0
 40
1.000000012887491
100
AcDbArc
 50
90.0
 51
180.0
  0
LINE
  5
230
330
1F
100
AcDbEntity
  8
C-6_間仕切
  6
Continuous
 62
     7
370
     9
100
AcDbLine
 10
412.9518649583625
 20
389.1197046208114
 30
0.0
 11
388.7702102648793
 21
389.1197046208114
 31
0.0
  0
LINE
  5
231
330
1F
100
AcDbEntity
  8
C-6_間仕切
  6
Continuous
 62
     7
370
     9
100
AcDbLine
 10
412.9518649583625
 20
377.1197392623864
 30
0.0
 11
388.7702102648793
 21
377.1197392623864
 31
0.0
  0
LINE
  5
232
330
1F
100
AcDbEntity
  8
C-6_間仕切
  6
JWW_DASHED1
 62
     7
370
     9
100
AcDbLine
 10
388.7702102648793
 20
389.1197046208114
 30
0.0
 11
328.2701838712992
 21
389.1197046208114
 31
0.0
  0
LINE
  5
233
330
1F
100
AcDbEntity
  8
C-6_間仕切
  6
JWW_DASHED1
 62
     7
370
     9
100
AcDbLine
 10
388.7702102648793
 20
377.1197392623864
 30
0.0
 11
328.2701838712992
 21
377.1197392623864
 31
0.0
  0
LINE
  5
234
330
1F
100
AcDbEntity
  8
C-A_インテリア
  6
Continuous
 62
     2
370
     9
100
AcDbLine
 10
403.202092603
 20
364.1196468848525
 30
0.0
 11
403.202092603
 21
340.6197425615837
 31
0.0
  0
LINE
  5
235
330
1F
100
AcDbEntity
  8
C-A_インテリア
  6
Continuous
 62
     2
370
     9
100
AcDbLine
 10
408.7019375407104
 20
364.1196468848525
 30
0.0
 11
408.7019375407104
 21
340.6197425615837
 31
0.0
  0
LINE
  5
236
330
1F
100
AcDbEntity
  8
C-A_インテリア
  6
Continuous
 62
     2
370
     9
100
AcDbLine
 10
410.9519078479323
 20
364.1196468848525
 30
0.0
 11
410.9519078479323
 21
340.6197425615837
 31
0.0
  0
LINE
  5
237
330
1F
100
AcDbEntity
  8
C-A_インテリア
  6
Continuous
 62
     2
370
     9
100
AcDbLine
 10
400.9519738318855
 20
340.6197425615837
 30
0.0
 11
410.9519078479323
 21
340.6197425615837
 31
0.0
  0
ARC
  5
238
330
1F
100
AcDbEntity
  8
C-5_建具
  6
Continuous
 62
     7
370
     9
100
AcDbCircle
 10
1098.899622757782
 20
382.8847098407388
 30
0.0
 40
6.000019795185811
100
AcDbArc
 50
349.8367004394531
 51
190.1632995605469
  0
LINE
  5
239
330
1F
100
AcDbEntity
  8
C-5_建具
  6
Continuous
 62
     7
370
     9
100
AcDbLine
 10
1096.39963925377
 20
378.1149732156861
 30
0.0
 11
1096.39963925377
 21
387.6544464657917
 31
0.0
  0
ARC
  5
23A
330
1F
100
AcDbEntity
  8
C-5_建具
  6
Continuous
 62
     7
370
     9
100
AcDbCircle
 10
1098.899622757782
 20
382.8847098407388
 30
0.0
 40
6.000019795185811
100
AcDbArc
 50
234.7026977539062
 51
305.2973022460938
  0
ARC
  5
23B
330
1F
100
AcDbEntity
  8
C-5_建具
  6
Continuous
 62
     7
370
     9
100
AcDbCircle
 10
1097.399692040933
 20
378.1149732156861
 30
0.0
 40
1.000000012887491
100
AcDbArc
 50
180.0
 51
252.5401763916015
  0
ARC
  5
23C
330
1F
100
AcDbEntity
  8
C-5_建具
  6
Continuous
 62
     7
370
     9
100
AcDbCircle
 10
1100.399553474632
 20
378.1149732156861
 30
0.0
 40
1.000000012887491
100
AcDbArc
 50
287.4598236083985
 51
0.0000000000000127
  0
LINE
  5
23D
330
1F
100
AcDbEntity
  8
C-5_建具
  6
Continuous
 62
     7
370
     9
100
AcDbLine
 10
1101.399606261794
 20
378.1149732156861
 30
0.0
 11
1101.399606261794
 21
387.6544464657917
 31
0.0
  0
ARC
  5
23E
330
1F
100
AcDbEntity
  8
C-5_建具
  6
Continuous
 62
     7
370
     9
100
AcDbCircle
 10
1100.399553474632
 20
387.6544464657917
 30
0.0
 40
1.000000012887491
100
AcDbArc
 50
0.0
 51
72.54017639160156
  0
ARC
  5
23F
330
1F
100
AcDbEntity
  8
C-5_建具
  6
Continuous
 62
     7
370
     9
100
AcDbCircle
 10
1097.399692040933
 20
387.6544464657917
 30
0.0
 40
1.000000012887491
100
AcDbArc
 50
107.4598236083985
 51
180.0
  0
ARC
  5
240
330
1F
100
AcDbEntity
  8
C-6_間仕切
  6
Continuous
 62
     2
370
     9
100
AcDbCircle
 10
1098.899622757782
 20
374.3847436575146
 30
0.0
 40
9.500056666296882
100
AcDbArc
 50
105.2573547363281
 51
180.0
  0
ARC
  5
241
330
1F
100
AcDbEntity
  8
C-6_間仕切
  6
Continuous
 62
     2
370
     9
100
AcDbCircle
 10
1098.899622757782
 20
374.3847436575146
 30
0.0
 40
5.00011547191723
100
AcDbArc
 50
119.9991455078125
 51
180.0
  0
LINE
  5
242
330
1F
100
AcDbEntity
  8
C-6_間仕切
  6
Continuous
 62
     2
370
     9
100
AcDbLine
 10
1093.899507285865
 20
374.3847436575146
 30
0.0
 11
1093.899507285865
 21
363.8846347839927
 31
0.0
  0
LINE
  5
243
330
1F
100
AcDbEntity
  8
C-6_間仕切
  6
Continuous
 62
     2
370
     9
100
AcDbLine
 10
1089.399566671422
 20
374.3847436575146
 30
0.0
 11
1089.399566671422
 21
363.8846347839927
 31
0.0
  0
ARC
  5
244
330
1F
100
AcDbEntity
  8
C-6_間仕切
  6
Continuous
 62
     2
370
     9
100
AcDbCircle
 10
1098.899622757782
 20
374.3847436575146
 30
0.0
 40
5.00011547191723
100
AcDbArc
 50
0.0
 51
60.00085449218751
  0
LINE
  5
245
330
1F
100
AcDbEntity
  8
C-6_間仕切
  6
Continuous
 62
     2
370
     9
100
AcDbLine
 10
1103.899738229699
 20
374.3847436575146
 30
0.0
 11
1103.899738229699
 21
363.8846347839927
 31
0.0
  0
ARC
  5
246
330
1F
100
AcDbEntity
  8
C-6_間仕切
  6
Continuous
 62
     2
370
     9
100
AcDbCircle
 10
1098.899622757782
 20
374.3847436575146
 30
0.0
 40
9.500056666296882
100
AcDbArc
 50
0.0
 51
74.74270629882814
  0
LINE
  5
247
330
1F
100
AcDbEntity
  8
C-6_間仕切
  6
Continuous
 62
     2
370
     9
100
AcDbLine
 10
1110.899662348154
 20
363.8846347839927
 30
0.0
 11
1110.899662348154
 21
340.3847304607241
 31
0.0
  0
LINE
  5
248
330
1F
100
AcDbEntity
  8
C-6_間仕切
  6
Continuous
 62
     2
370
     9
100
AcDbLine
 10
1108.399678844142
 20
374.3847436575146
 30
0.0
 11
1108.399678844142
 21
363.8846347839927
 31
0.0
  0
LINE
  5
249
330
1F
100
AcDbEntity
  8
C-6_間仕切
  6
Continuous
 62
     2
370
     9
100
AcDbLine
 10
1086.89958316741
 20
363.8846347839927
 30
0.0
 11
1110.899662348154
 21
363.8846347839927
 31
0.0
  0
LINE
  5
24A
330
1F
100
AcDbEntity
  8
C-6_間仕切
  6
Continuous
 62
     2
370
     9
100
AcDbLine
 10
1086.89958316741
 20
363.8846347839927
 30
0.0
 11
1086.89958316741
 21
340.3847304607241
 31
0.0
  0
LINE
  5
24B
330
1F
100
AcDbEntity
  8
C-6_間仕切
  6
Continuous
 62
     2
370
     9
100
AcDbLine
 10
1086.89958316741
 20
340.3847304607241
 30
0.0
 11
1110.899662348154
 21
340.3847304607241
 31
0.0
  0
ARC
  5
24C
330
1F
100
AcDbEntity
  8
C-0_通り芯
  6
Continuous
 62
     4
370
     9
100
AcDbCircle
 10
1098.899771221676
 20
383.7251639423013
 30
0.0
 40
6.999924118454395
100
AcDbArc
 50
359.9993896484376
 51
180.0006103515626
  0
LINE
  5
24D
330
1F
100
AcDbEntity
  8
C-0_通り芯
  6
Continuous
 62
     4
370
     9
100
AcDbLine
 10
1105.89969534013
 20
383.7250897103546
 30
0.0
 11
1105.89969534013
 21
381.8127262971366
 31
0.0
  0
ARC
  5
24E
330
1F
100
AcDbEntity
  8
C-0_通り芯
  6
Continuous
 62
     4
370
     9
100
AcDbCircle
 10
1098.899771221676
 20
381.8126520651899
 30
0.0
 40
6.999924118454395
100
AcDbArc
 50
229.5813903808594
 51
310.4159698486328
  0
ARC
  5
24F
330
1F
100
AcDbEntity
  8
C-0_通り芯
  6
Continuous
 62
     4
370
     9
100
AcDbCircle
 10
1098.899771221676
 20
381.8126520651899
 30
0.0
 40
6.999924118454395
100
AcDbArc
 50
352.3052215576173
 51
0.0006103515625301
  0
LINE
  5
250
330
1F
100
AcDbEntity
  8
C-0_通り芯
  6
Continuous
 62
     4
370
     9
100
AcDbLine
 10
1091.899847103221
 20
383.7250897103546
 30
0.0
 11
1091.899847103221
 21
381.8127262971366
 31
0.0
  0
ARC
  5
251
330
1F
100
AcDbEntity
  8
C-0_通り芯
  6
Continuous
 62
     4
370
     9
100
AcDbCircle
 10
1098.899771221676
 20
381.8126520651899
 30
0.0
 40
6.999924118454395
100
AcDbArc
 50
179.9993896484375
 51
187.6925048828125
  0
LINE
  5
252
330
1F
100
AcDbEntity
  8
C-6_間仕切
  6
Continuous
 62
     7
370
     9
100
AcDbLine
 10
302.951848462375
 20
393.119767305566
 30
0.0
 11
306.9884272301676
 21
393.119767305566
 31
0.0
  0
LINE
  5
253
330
1F
100
AcDbEntity
  8
C-6_間仕切
  6
Continuous
 62
     7
370
     9
100
AcDbLine
 10
304.8863407910561
 20
373.119750809578
 30
0.0
 11
302.951848462375
 21
373.119750809578
 31
0.0
  0
LINE
  5
254
330
1F
100
AcDbEntity
  8
C-6_間仕切
  6
Continuous
 62
     7
370
     9
100
AcDbLine
 10
328.2701838712992
 20
389.1197046208114
 30
0.0
 11
321.1478737543461
 21
389.1197046208114
 31
0.0
  0
LINE
  5
255
330
1F
100
AcDbEntity
  8
C-6_間仕切
  6
Continuous
 62
     7
370
     9
100
AcDbLine
 10
328.2701838712992
 20
377.1197392623864
 30
0.0
 11
319.8866265721344
 21
377.1197392623864
 31
0.0
  0
TEXT
  5
256
330
1F
100
AcDbEntity
  8
C-5_建具
  6
Continuous
 62
     2
370
     9
100
AcDbText
 10
445.7789130832516
 20
343.0966863168633
 30
0.0
 40
30.48
  1
▽G.L.
 41
1.104166666666667
  7
ＭＳ ゴシック
100
AcDbText
  0
TEXT
  5
257
330
1F
100
AcDbEntity
  8
C-5_建具
  6
Continuous
 62
     2
370
     9
100
AcDbText
 10
1198.457957033328
 20
343.9851232073301
 30
0.0
 40
30.47999999999989
  1
▽G.L.
 41
1.104166666666668
  7
ＭＳ ゴシック
100
AcDbText
  0
TEXT
  5
258
330
1F
100
AcDbEntity
  8
D-4_文字
  6
Continuous
 62
     2
370
     9
100
AcDbText
 10
1362.922497292534
 20
-534.8009283365642
 30
0.0
 40
30.48000000000005
  1
▽G.L.
 41
1.104166666666665
  7
ＭＳ ゴシック
100
AcDbText
  0
TEXT
  5
259
330
1F
100
AcDbEntity
  8
D-5_建具
  6
Continuous
 62
     7
370
     9
100
AcDbText
 10
1323.166833705587
 20
-381.9527963746728
 30
0.0
 40
22.86
  1
南京錠：CAC202
 41
1.154761904761905
  7
ＭＳ ゴシック
100
AcDbText
  0
LINE
  5
25A
330
1F
100
AcDbEntity
  8
D-A_インテリア
  6
Continuous
 62
     2
370
     9
100
AcDbLine
 10
1264.505336354585
 20
-384.2773755435982
 30
0.0
 11
1264.505336354585
 21
-443.4444436126435
 31
0.0
  0
LINE
  5
25B
330
1F
100
AcDbEntity
  8
D-A_インテリア
  6
Continuous
 62
     2
370
     9
100
AcDbLine
 10
1249.505039426797
 20
-384.2773755435982
 30
0.0
 11
1249.505039426797
 21
-443.4444436126435
 31
0.0
  0
LINE
  5
25C
330
1F
100
AcDbEntity
  8
D-A_インテリア
  6
Continuous
 62
     2
370
     9
100
AcDbLine
 10
1247.839274540818
 20
-443.4444436126435
 30
0.0
 11
1247.839274540818
 21
-521.7774580235388
 31
0.0
  0
LINE
  5
25D
330
1F
100
AcDbEntity
  8
D-A_インテリア
  6
Continuous
 62
     2
370
     9
100
AcDbLine
 10
1240.338878637102
 20
-443.4444436126435
 30
0.0
 11
1273.671992023926
 21
-443.4444436126435
 31
0.0
  0
LINE
  5
25E
330
1F
100
AcDbEntity
  8
D-A_インテリア
  6
Continuous
 62
     2
370
     9
100
AcDbLine
 10
1266.172090999854
 20
-443.4444436126435
 30
0.0
 11
1266.172090999854
 21
-521.7774580235388
 31
0.0
  0
LINE
  5
25F
330
1F
100
AcDbEntity
  8
D-A_インテリア
  6
Continuous
 62
     2
370
     9
100
AcDbLine
 10
1273.671992023926
 20
-443.4444436126435
 30
0.0
 11
1273.671992023926
 21
-521.7774580235388
 31
0.0
  0
LINE
  5
260
330
1F
100
AcDbEntity
  8
D-A_インテリア
  6
Continuous
 62
     2
370
     9
100
AcDbLine
 10
1240.338878637102
 20
-443.4444436126435
 30
0.0
 11
1240.338878637102
 21
-521.7774580235388
 31
0.0
  0
LINE
  5
261
330
1F
100
AcDbEntity
  8
D-A_インテリア
  6
Continuous
 62
     2
370
     9
100
AcDbLine
 10
1240.338878637102
 20
-521.7774580235388
 30
0.0
 11
1273.671992023926
 21
-521.7774580235388
 31
0.0
  0
ARC
  5
262
330
1F
100
AcDbEntity
  8
D-A_インテリア
  6
Continuous
 62
     2
370
     9
100
AcDbCircle
 10
1257.005435330514
 20
-384.2773755435982
 30
0.0
 40
7.500001063217987
100
AcDbArc
 50
0.0000000000000064
 51
180.0
  0
LINE
  5
263
330
1F
100
AcDbEntity
  8
D-6_間仕切
  6
JWW_CENTER1
 62
     7
370
     9
100
AcDbLine
 10
1257.005435330514
 20
-365.0567450009461
 30
0.0
 11
1257.005435330514
 21
-395.2644459880659
 31
0.0
  0
LINE
  5
264
330
1F
100
AcDbEntity
  8
D-6_間仕切
  6
Continuous
 62
     7
370
     9
100
AcDbLine
 10
1283.671530136257
 20
-363.4441796768326
 30
0.0
 11
1283.671530136257
 21
-396.7775405034794
 31
0.0
  0
ARC
  5
265
330
1F
100
AcDbEntity
  8
D-6_間仕切
  6
Continuous
 62
     7
370
     9
100
AcDbCircle
 10
1280.338515725362
 20
-363.4441796768326
 30
0.0
 40
3.333333376291636
100
AcDbArc
 50
0.0000000000000127
 51
90.00000000000001
  0
ARC
  5
266
330
1F
100
AcDbEntity
  8
D-6_間仕切
  6
Continuous
 62
     7
370
     9
100
AcDbCircle
 10
1280.338515725362
 20
-396.7775405034794
 30
0.0
 40
3.333333376291636
100
AcDbArc
 50
270.0
 51
0.0
  0
ARC
  5
267
330
1F
100
AcDbEntity
  8
D-6_間仕切
  6
Continuous
 62
     7
370
     9
100
AcDbCircle
 10
1257.005435330514
 20
-380.1109838100675
 30
0.0
 40
11.66666681702072
100
AcDbArc
 50
310.0047302246094
 51
229.9922332763672
  0
LINE
  5
268
330
1F
100
AcDbEntity
  8
D-6_間仕切
  6
Continuous
 62
     7
370
     9
100
AcDbLine
 10
1223.671827064044
 20
-360.1109178261149
 30
0.0
 11
1223.671827064044
 21
-400.1108023541971
 31
0.0
  0
LINE
  5
269
330
1F
100
AcDbEntity
  8
D-0_通り芯
  6
JWW_CENTER2
 62
     7
370
     9
100
AcDbLine
 10
894.2898327650574
 20
-380.1109838100675
 30
0.0
 11
1289.638788898926
 21
-380.1109838100675
 31
0.0
  0
ARC
  5
26A
330
1F
100
AcDbEntity
  8
D-6_間仕切
  6
Continuous
 62
     7
370
     9
100
AcDbCircle
 10
913.6717940720679
 20
-410.1108353461737
 30
0.0
 40
3.333333376291636
100
AcDbArc
 50
180.0
 51
270.0
  0
LINE
  5
26B
330
1F
100
AcDbEntity
  8
D-6_間仕切
  6
Continuous
 62
     7
370
     9
100
AcDbLine
 10
910.3382847815272
 20
-410.1108353461737
 30
0.0
 11
910.3382847815272
 21
-350.1108848341383
 31
0.0
  0
ARC
  5
26C
330
1F
100
AcDbEntity
  8
D-6_間仕切
  6
Continuous
 62
     7
370
     9
100
AcDbCircle
 10
913.6717940720679
 20
-350.1108848341383
 30
0.0
 40
3.333333376291636
100
AcDbArc
 50
90.0
 51
180.0
  0
LINE
  5
26D
330
1F
100
AcDbEntity
  8
D-6_間仕切
  6
Continuous
 62
     7
370
     9
100
AcDbLine
 10
1280.338515725362
 20
-360.1109178261149
 30
0.0
 11
1199.733000080418
 21
-360.1109178261149
 31
0.0
  0
LINE
  5
26E
330
1F
100
AcDbEntity
  8
D-6_間仕切
  6
Continuous
 62
     7
370
     9
100
AcDbLine
 10
1280.338515725362
 20
-400.1108023541971
 30
0.0
 11
1199.733000080418
 21
-400.1108023541971
 31
0.0
  0
LINE
  5
26F
330
1F
100
AcDbEntity
  8
D-6_間仕切
  6
JWW_DASHED1
 62
     7
370
     9
100
AcDbLine
 10
1199.733000080418
 20
-360.1109178261149
 30
0.0
 11
998.0662454351478
 21
-360.1109178261149
 31
0.0
  0
LINE
  5
270
330
1F
100
AcDbEntity
  8
D-6_間仕切
  6
JWW_DASHED1
 62
     7
370
     9
100
AcDbLine
 10
1199.733000080418
 20
-400.1108023541971
 30
0.0
 11
998.0662454351478
 21
-400.1108023541971
 31
0.0
  0
LINE
  5
271
330
1F
100
AcDbEntity
  8
D-5_建具
  6
Continuous
 62
     7
370
     9
100
AcDbLine
 10
1283.671849101653
 20
-363.4441796768326
 30
0.0
 11
1347.446136938065
 21
-252.9838729276438
 31
0.0
  0
LINE
  5
272
330
1F
100
AcDbEntity
  8
D-5_建具
  6
Continuous
 62
     7
370
     9
100
AcDbLine
 10
1283.671849101653
 20
-363.4441796768326
 30
0.0
 11
1298.890884826872
 21
-343.6103461695515
 31
0.0
  0
LINE
  5
273
330
1F
100
AcDbEntity
  8
D-5_建具
  6
Continuous
 62
     7
370
     9
100
AcDbLine
 10
1283.671849101653
 20
-363.4441796768326
 30
0.0
 11
1293.23893491078
 21
-340.3471913640507
 31
0.0
  0
LINE
  5
274
330
1F
100
AcDbEntity
  8
D-5_建具
  6
Continuous
 62
     7
370
     9
100
AcDbLine
 10
1273.671568669854
 20
-478.4747681966817
 30
0.0
 11
1283.238654478982
 21
-455.3777798838999
 31
0.0
  0
LINE
  5
275
330
1F
100
AcDbEntity
  8
D-5_建具
  6
Continuous
 62
     7
370
     9
100
AcDbLine
 10
1273.671568669854
 20
-478.4747681966817
 30
0.0
 11
1288.890604395073
 21
-458.6409346894013
 31
0.0
  0
LINE
  5
276
330
1F
100
AcDbEntity
  8
D-5_建具
  6
Continuous
 62
     7
370
     9
100
AcDbLine
 10
1273.671568669854
 20
-478.4747681966817
 30
0.0
 11
1323.166833705587
 21
-392.8494630413397
 31
0.0
  0
LINE
  5
277
330
1F
100
AcDbEntity
  8
D-5_建具
  6
Continuous
 62
     7
370
     9
100
AcDbLine
 10
1323.166833705587
 20
-392.8494630413397
 30
0.0
 11
1566.765036934463
 21
-392.8494630413397
 31
0.0
  0
LINE
  5
278
330
1F
100
AcDbEntity
  8
D-5_建具
  6
Continuous
 62
     7
370
     9
100
AcDbLine
 10
1347.446136938065
 20
-252.9838729276438
 30
0.0
 11
1661.820330809998
 21
-252.9838729276438
 31
0.0
  0
TEXT
  5
279
330
1F
100
AcDbEntity
  8
D-5_建具
  6
Continuous
 62
     7
370
     9
100
AcDbText
 10
1347.446138894459
 20
-242.0872062609774
 30
0.0
 40
22.86000000000017
  1
ロックピン：SCS13A
 50
359.9999735004548
 41
1.157407407407396
  7
ＭＳ ゴシック
100
AcDbText
  0
LINE
  5
27A
330
1F
100
AcDbEntity
  8
D-5_建具
  6
Continuous
 62
     7
370
     9
100
AcDbLine
 10
790.8996244874227
 20
-812.5057213507678
 30
0.0
 11
1406.899624487422
 21
-812.5057213507678
 31
0.0
  0
LINE
  5
27B
330
1F
100
AcDbEntity
  8
D-5_建具
  6
Continuous
 62
     7
370
     9
100
AcDbLine
 10
790.8996244874227
 20
-882.5057213507678
 30
0.0
 11
1406.899624487422
 21
-882.5057213507678
 31
0.0
  0
LINE
  5
27C
330
1F
100
AcDbEntity
  8
D-5_建具
  6
Continuous
 62
     7
370
     9
100
AcDbLine
 10
790.8996244874227
 20
-812.5057213507678
 30
0.0
 11
790.8996244874227
 21
-882.5057213507678
 31
0.0
  0
LINE
  5
27D
330
1F
100
AcDbEntity
  8
D-5_建具
  6
Continuous
 62
     7
370
     9
100
AcDbLine
 10
1406.899624487422
 20
-812.5057213507678
 30
0.0
 11
1406.899624487422
 21
-882.5057213507678
 31
0.0
  0
TEXT
  5
27E
330
1F
100
AcDbEntity
  8
D-5_建具
  6
Continuous
 62
     2
370
     9
100
AcDbText
 10
808.8996244874227
 20
-861.865721350768
 30
0.0
 40
30.48
  1
南京錠部詳細図　Ｓ＝１：３
 41
1.115384615384615
  7
ＭＳ ゴシック
100
AcDbText
  0
LINE
  5
27F
330
1F
100
AcDbEntity
  8
D-6_間仕切
  6
Continuous
 62
     7
370
     9
100
AcDbLine
 10
913.6717940720679
 20
-346.7773755435982
 30
0.0
 11
927.1270543196487
 21
-346.7773755435982
 31
0.0
  0
LINE
  5
280
330
1F
100
AcDbEntity
  8
D-6_間仕切
  6
Continuous
 62
     7
370
     9
100
AcDbLine
 10
920.1200995226094
 20
-413.4440971968914
 30
0.0
 11
913.6717940720679
 21
-413.4440971968914
 31
0.0
  0
LINE
  5
281
330
1F
100
AcDbEntity
  8
D-6_間仕切
  6
Continuous
 62
     7
370
     9
100
AcDbLine
 10
998.0662454351478
 20
-360.1109178261149
 30
0.0
 11
974.3252094002411
 21
-360.1109178261149
 31
0.0
  0
LINE
  5
282
330
1F
100
AcDbEntity
  8
D-6_間仕切
  6
Continuous
 62
     7
370
     9
100
AcDbLine
 10
998.0662454351478
 20
-400.1108023541971
 30
0.0
 11
970.1210521262016
 21
-400.1108023541971
 31
0.0
  0
ARC
  5
283
330
1F
100
AcDbEntity
  8
C-2_仕上
  6
Continuous
 62
     3
370
     9
100
AcDbCircle
 10
328.2701962432892
 20
603.1199179683937
 30
0.0
 40
17.00000659839527
100
AcDbArc
 50
270.0
 51
90.0
  0
LINE
  5
284
330
1F
100
AcDbEntity
  8
C-4_文字
  6
Continuous
 62
     7
370
     9
100
AcDbLine
 10
518.3246559735242
 20
603.1202148961809
 30
0.0
 11
518.3246559735242
 21
983.1185982877021
 31
0.0
  0
LINE
  5
285
330
1F
100
AcDbEntity
  8
C-4_文字
  6
Continuous
 62
     7
370
     9
100
AcDbLine
 10
518.3246559735242
 20
603.1202148961809
 30
0.0
 11
515.0615011680228
 21
627.9063364305262
 31
0.0
  0
LINE
  5
286
330
1F
100
AcDbEntity
  8
C-4_文字
  6
Continuous
 62
     7
370
     9
100
AcDbLine
 10
518.3246559735242
 20
603.1202148961809
 30
0.0
 11
521.5878107790254
 21
627.9063364305262
 31
0.0
  0
LINE
  5
287
330
1F
100
AcDbEntity
  8
C-4_文字
  6
Continuous
 62
     7
370
     9
100
AcDbLine
 10
518.3246559735242
 20
983.1185982877021
 30
0.0
 11
515.0615011680228
 21
958.3324767533568
 31
0.0
  0
LINE
  5
288
330
1F
100
AcDbEntity
  8
C-4_文字
  6
Continuous
 62
     7
370
     9
100
AcDbLine
 10
518.3246559735242
 20
983.1185982877021
 30
0.0
 11
521.5878107790254
 21
958.3324767533568
 31
0.0
  0
TEXT
  5
289
330
1F
100
AcDbEntity
  8
C-4_文字
  6
Continuous
 62
     2
370
   211
100
AcDbText
 10
507.6846559735242
 20
760.6194065919415
 30
0.0
 40
30.48
  1
380
 50
90.0
 41
1.083333333333333
  7
ＭＳ ゴシック
100
AcDbText
  0
LINE
  5
28A
330
1F
100
AcDbEntity
  8
C-4_文字
  6
Continuous
 62
     7
370
     9
100
AcDbLine
 10
521.3246559735242
 20
983.1185982877021
 30
0.0
 11
272.5799751224603
 21
983.1185982877021
 31
0.0
  0
LINE
  5
28B
330
1F
100
AcDbEntity
  8
C-4_文字
  6
Continuous
 62
     7
370
     9
100
AcDbLine
 10
521.3246559735242
 20
603.1202148961809
 30
0.0
 11
400.1331666118221
 21
603.1202148961809
 31
0.0
  0
LINE
  5
28C
330
1F
100
AcDbEntity
  8
C-0_通り芯
  6
JWW_CENTER2
 62
     7
370
     9
100
AcDbLine
 10
-761.229793859118
 20
603.1175425460963
 30
0.0
 11
-1086.159690033369
 21
603.1202148961809
 31
0.0
  0
LINE
  5
28D
330
1F
100
AcDbEntity
  8
C-2_仕上
  6
Continuous
 62
     3
370
     9
100
AcDbLine
 10
-761.229793859118
 20
620.1175491444916
 30
0.0
 11
-1050.729783961525
 21
620.1199245667887
 31
0.0
  0
LINE
  5
28E
330
1F
100
AcDbEntity
  8
C-2_仕上
  6
Continuous
 62
     3
370
     9
100
AcDbLine
 10
-761.229793859118
 20
586.1176101796478
 30
0.0
 11
-1050.729783961525
 21
586.1199113699984
 31
0.0
  0
ARC
  5
28F
330
1F
100
AcDbEntity
  8
C-2_仕上
  6
Continuous
 62
     3
370
     9
100
AcDbCircle
 10
-1050.729783961525
 20
603.1199179683937
 30
0.0
 40
17.00000659839527
100
AcDbArc
 50
90.0
 51
270.0
  0
LINE
  5
290
330
1F
100
AcDbEntity
  8
C-0_通り芯
  6
JWW_CENTER2
 62
     7
370
     9
100
AcDbLine
 10
-761.229793859118
 20
603.1175425460963
 30
0.0
 11
363.7001023151324
 21
603.1202148961809
 31
0.0
  0
LINE
  5
291
330
1F
100
AcDbEntity
  8
C-2_仕上
  6
Continuous
 62
     3
370
     9
100
AcDbLine
 10
-761.229793859118
 20
620.1175491444916
 30
0.0
 11
328.2701962432892
 21
620.1199245667887
 31
0.0
  0
LINE
  5
292
330
1F
100
AcDbEntity
  8
C-2_仕上
  6
Continuous
 62
     3
370
     9
100
AcDbLine
 10
-761.229793859118
 20
586.1176101796478
 30
0.0
 11
328.2701962432892
 21
586.1199113699984
 31
0.0
  0
LINE
  5
293
330
1F
100
AcDbEntity
  8
C-4_文字
  6
Continuous
 62
     7
370
     9
100
AcDbLine
 10
7.343640875462398
 20
620.1183213205952
 30
0.0
 11
10.3436012850905
 21
620.1183213205952
 31
0.0
  0
LINE
  5
294
330
1F
100
AcDbEntity
  8
C-4_文字
  6
Continuous
 62
     7
370
     9
100
AcDbLine
 10
7.343640875462398
 20
586.1183576117692
 30
0.0
 11
10.3436012850905
 21
586.1183576117692
 31
0.0
  0
LINE
  5
295
330
1F
100
AcDbEntity
  8
C-4_文字
  6
Continuous
 62
     7
370
     9
100
AcDbLine
 10
7.343640875462398
 20
620.1183213205952
 30
0.0
 11
3.428029402172825
 21
649.86170148054
 31
0.0
  0
LINE
  5
296
330
1F
100
AcDbEntity
  8
C-4_文字
  6
Continuous
 62
     7
370
     9
100
AcDbLine
 10
7.343640875462398
 20
620.1183213205952
 30
0.0
 11
11.25925234875197
 21
649.86170148054
 31
0.0
  0
LINE
  5
297
330
1F
100
AcDbEntity
  8
C-4_文字
  6
Continuous
 62
     7
370
     9
100
AcDbLine
 10
7.343640875462398
 20
586.1183576117692
 30
0.0
 11
3.428029402172825
 21
556.3749774518244
 31
0.0
  0
LINE
  5
298
330
1F
100
AcDbEntity
  8
C-4_文字
  6
Continuous
 62
     7
370
     9
100
AcDbLine
 10
7.343640875462398
 20
586.1183576117692
 30
0.0
 11
11.25925234875197
 21
556.3749774518244
 31
0.0
  0
LINE
  5
299
330
1F
100
AcDbEntity
  8
C-4_文字
  6
Continuous
 62
     7
370
     9
100
AcDbLine
 10
7.343640875462398
 20
752.7002898858402
 30
0.0
 11
7.343640875462398
 21
538.0702454126562
 31
0.0
  0
TEXT
  5
29A
330
1F
100
AcDbEntity
  8
C-4_文字
  6
Continuous
 62
     2
370
     9
100
AcDbText
 10
-3.296375620526257
 20
650.9082688303611
 30
0.0
 40
30.48000000000043
  1
φ34
 50
90.0
 41
1.093749999999984
  7
ＭＳ ゴシック
100
AcDbText
  0
LINE
  5
29B
330
1F
100
AcDbEntity
  8
C-5_建具
  6
Continuous
 62
     7
370
     9
100
AcDbLine
 10
-833.4397952929476
 20
586.1186031949593
 30
0.0
 11
-823.8727094838214
 21
563.0216148821775
 31
0.0
  0
LINE
  5
29C
330
1F
100
AcDbEntity
  8
C-5_建具
  6
Continuous
 62
     7
370
     9
100
AcDbLine
 10
-833.4397952929476
 20
586.1186031949593
 30
0.0
 11
-818.22075956773
 21
566.2847696876788
 31
0.0
  0
LINE
  5
29D
330
1F
100
AcDbEntity
  8
C-5_建具
  6
Continuous
 62
     7
370
     9
100
AcDbLine
 10
-833.4397952929476
 20
586.1186031949594
 30
0.0
 11
-763.3725597777789
 21
465.5190670737141
 31
0.0
  0
TEXT
  5
29E
330
1F
100
AcDbEntity
  8
C-5_建具
  6
Continuous
 62
     7
370
     9
100
AcDbText
 10
-755.1643867230092
 20
482.8961790077699
 30
0.0
 40
22.86
  1
横柵：φ34.0×2.3
 41
1.156862745098039
  7
ＭＳ ゴシック
100
AcDbText
  0
TEXT
  5
29F
330
1F
100
AcDbEntity
  8
C-5_建具
  6
Continuous
 62
     7
370
     9
100
AcDbText
 10
-755.1643867230092
 20
423.1528587313453
 30
0.0
 40
22.86
  1
STK　溶融亜鉛めっき＋焼付塗装
 41
1.155172413793103
  7
ＭＳ ゴシック
100
AcDbText
  0
LINE
  5
2A0
330
1F
100
AcDbEntity
  8
C-5_建具
  6
Continuous
 62
     7
370
     9
100
AcDbLine
 10
-711.8317482586565
 20
922.6180567184913
 30
0.0
 11
-696.6126569573163
 21
902.7842658563931
 31
0.0
  0
LINE
  5
2A1
330
1F
100
AcDbEntity
  8
C-5_建具
  6
Continuous
 62
     7
370
     9
100
AcDbLine
 10
-711.8317482586565
 20
922.6180567184913
 30
0.0
 11
-702.264597729731
 21
899.5210952136342
 31
0.0
  0
LINE
  5
2A2
330
1F
100
AcDbEntity
  8
C-5_建具
  6
Continuous
 62
     7
370
     9
100
AcDbLine
 10
-711.8317482586565
 20
922.6180567184913
 30
0.0
 11
-618.2486020631943
 21
760.5283416842313
 31
0.0
  0
TEXT
  5
2A3
330
1F
100
AcDbEntity
  8
C-5_建具
  6
Continuous
 62
     7
370
     9
100
AcDbText
 10
-609.8801358373605
 20
721.6112297501757
 30
0.0
 40
22.86
  1
STK　溶融亜鉛めっき＋焼付塗装
 41
1.155172413793103
  7
ＭＳ ゴシック
100
AcDbText
  0
TEXT
  5
2A4
330
1F
100
AcDbEntity
  8
C-5_建具
  6
Continuous
 62
     7
370
     9
100
AcDbText
 10
-609.8801358373605
 20
776.5183744173285
 30
0.0
 40
22.86
  1
本体：φ60.5×2.8
 41
1.156862745098039
  7
ＭＳ ゴシック
100
AcDbText
  0
LINE
  5
2A5
330
1F
100
AcDbEntity
  8
C-0_通り芯
  6
JWW_CENTER2
 62
     7
370
     9
100
AcDbLine
 10
1060.225777589666
 20
603.1084237861687
 30
0.0
 11
1137.350107068307
 21
603.1084237861687
 31
0.0
  0
CIRCLE
  5
2A6
330
1F
100
AcDbEntity
  8
C-2_仕上
  6
JWW_DASHED2
 62
     3
370
     9
100
AcDbCircle
 10
1099.011303186578
 20
603.1084237861687
 30
0.0
 40
16.99999925252554
  0
LINE
  5
2A7
330
1F
100
AcDbEntity
  8
C-E_見え係り
  6
Continuous
 62
     6
370
     5
100
AcDbLine
 10
358.5201970680881
 20
81.61969637281707
 30
0.0
 11
331.7252778249755
 21
-18.38030362718294
 31
0.0
  0
LINE
  5
2A8
330
1F
100
AcDbEntity
  8
C-E_見え係り
  6
Continuous
 62
     6
370
     5
100
AcDbLine
 10
344.7746466385146
 20
-18.38030362718294
 30
0.0
 11
338.2499622317445
 21
5.970150082234991
 31
0.0
  0
LINE
  5
2A9
330
1F
100
AcDbEntity
  8
C-E_見え係り
  6
Continuous
 62
     6
370
     5
100
AcDbLine
 10
345.4708282545479
 20
81.61969637281707
 30
0.0
 11
351.995512661318
 21
57.26924266339913
 31
0.0
  0
LINE
  5
2AA
330
1F
100
AcDbEntity
  8
C-E_見え係り
  6
Continuous
 62
     6
370
     5
100
AcDbLine
 10
308.520197068088
 20
81.61969637281707
 30
0.0
 11
281.7252778249754
 21
-18.38030362718294
 31
0.0
  0
LINE
  5
2AB
330
1F
100
AcDbEntity
  8
C-E_見え係り
  6
Continuous
 62
     6
370
     5
100
AcDbLine
 10
294.7746466385145
 20
-18.38030362718294
 30
0.0
 11
288.2499622317455
 21
5.970150082234991
 31
0.0
  0
LINE
  5
2AC
330
1F
100
AcDbEntity
  8
C-E_見え係り
  6
Continuous
 62
     6
370
     5
100
AcDbLine
 10
295.4708282545478
 20
81.61969637281707
 30
0.0
 11
301.9955126613179
 21
57.26924266339913
 31
0.0
  0
LINE
  5
2AD
330
1F
100
AcDbEntity
  8
C-E_見え係り
  6
Continuous
 62
     6
370
     5
100
AcDbLine
 10
258.520197068088
 20
81.61969637281707
 30
0.0
 11
231.7252778249743
 21
-18.38030362718294
 31
0.0
  0
LINE
  5
2AE
330
1F
100
AcDbEntity
  8
C-E_見え係り
  6
Continuous
 62
     6
370
     5
100
AcDbLine
 10
244.7746466385156
 20
-18.38030362718294
 30
0.0
 11
238.2499622317444
 21
5.970150082234991
 31
0.0
  0
LINE
  5
2AF
330
1F
100
AcDbEntity
  8
C-E_見え係り
  6
Continuous
 62
     6
370
     5
100
AcDbLine
 10
245.4708282545478
 20
81.61969637281707
 30
0.0
 11
251.9955126613179
 21
57.26924266339913
 31
0.0
  0
LINE
  5
2B0
330
1F
100
AcDbEntity
  8
C-E_見え係り
  6
Continuous
 62
     6
370
     5
100
AcDbLine
 10
208.520197068088
 20
81.61969637281707
 30
0.0
 11
181.7252778249754
 21
-18.38030362718294
 31
0.0
  0
LINE
  5
2B1
330
1F
100
AcDbEntity
  8
C-E_見え係り
  6
Continuous
 62
     6
370
     5
100
AcDbLine
 10
194.7746466385145
 20
-18.38030362718294
 30
0.0
 11
188.2499622317455
 21
5.970150082234991
 31
0.0
  0
LINE
  5
2B2
330
1F
100
AcDbEntity
  8
C-E_見え係り
  6
Continuous
 62
     6
370
     5
100
AcDbLine
 10
195.4708282545478
 20
81.61969637281707
 30
0.0
 11
201.9955126613179
 21
57.26924266339913
 31
0.0
  0
LINE
  5
2B3
330
1F
100
AcDbEntity
  8
C-E_見え係り
  6
Continuous
 62
     6
370
     5
100
AcDbLine
 10
408.5201970680881
 20
81.61969637281707
 30
0.0
 11
381.7252778249755
 21
-18.38030362718294
 31
0.0
  0
LINE
  5
2B4
330
1F
100
AcDbEntity
  8
C-E_見え係り
  6
Continuous
 62
     6
370
     5
100
AcDbLine
 10
394.7746466385146
 20
-18.38030362718294
 30
0.0
 11
388.2499622317445
 21
5.970150082234991
 31
0.0
  0
LINE
  5
2B5
330
1F
100
AcDbEntity
  8
C-E_見え係り
  6
Continuous
 62
     6
370
     5
100
AcDbLine
 10
395.4708282545479
 20
81.61969637281707
 30
0.0
 11
401.995512661318
 21
57.26924266339913
 31
0.0
  0
LINE
  5
2B6
330
1F
100
AcDbEntity
  8
C-E_見え係り
  6
Continuous
 62
     6
370
     5
100
AcDbLine
 10
458.5201970680881
 20
81.61969637281707
 30
0.0
 11
431.7252778249755
 21
-18.38030362718294
 31
0.0
  0
LINE
  5
2B7
330
1F
100
AcDbEntity
  8
C-E_見え係り
  6
Continuous
 62
     6
370
     5
100
AcDbLine
 10
444.7746466385146
 20
-18.38030362718294
 30
0.0
 11
438.2499622317456
 21
5.970150082234991
 31
0.0
  0
LINE
  5
2B8
330
1F
100
AcDbEntity
  8
C-E_見え係り
  6
Continuous
 62
     6
370
     5
100
AcDbLine
 10
445.4708282545479
 20
81.61969637281707
 30
0.0
 11
451.995512661318
 21
57.26924266339913
 31
0.0
  0
LINE
  5
2B9
330
1F
100
AcDbEntity
  8
C-E_見え係り
  6
Continuous
 62
     6
370
     5
100
AcDbLine
 10
508.5201970680881
 20
81.61969637281707
 30
0.0
 11
481.7252778249755
 21
-18.38030362718294
 31
0.0
  0
LINE
  5
2BA
330
1F
100
AcDbEntity
  8
C-E_見え係り
  6
Continuous
 62
     6
370
     5
100
AcDbLine
 10
494.7746466385146
 20
-18.38030362718294
 30
0.0
 11
488.2499622317456
 21
5.970150082234991
 31
0.0
  0
LINE
  5
2BB
330
1F
100
AcDbEntity
  8
C-E_見え係り
  6
Continuous
 62
     6
370
     5
100
AcDbLine
 10
495.4708282545479
 20
81.61969637281707
 30
0.0
 11
501.995512661318
 21
57.26924266339913
 31
0.0
  0
LINE
  5
2BC
330
1F
100
AcDbEntity
  8
C-E_見え係り
  6
Continuous
 62
     6
370
     5
100
AcDbLine
 10
558.5201970680881
 20
81.61969637281707
 30
0.0
 11
531.7252778249755
 21
-18.38030362718294
 31
0.0
  0
LINE
  5
2BD
330
1F
100
AcDbEntity
  8
C-E_見え係り
  6
Continuous
 62
     6
370
     5
100
AcDbLine
 10
544.7746466385146
 20
-18.38030362718294
 30
0.0
 11
538.2499622317456
 21
5.970150082234991
 31
0.0
  0
LINE
  5
2BE
330
1F
100
AcDbEntity
  8
C-E_見え係り
  6
Continuous
 62
     6
370
     5
100
AcDbLine
 10
545.4708282545479
 20
81.61969637281707
 30
0.0
 11
551.995512661318
 21
57.26924266339913
 31
0.0
  0
LINE
  5
2BF
330
1F
100
AcDbEntity
  8
C-0_通り芯
  6
JWW_CENTER2
 62
     7
370
     9
100
AcDbLine
 10
358.5201970680884
 20
777.8690117893087
 30
0.0
 11
358.5201970680884
 21
42.10451263163178
 31
0.0
  0
TEXT
  5
2C0
330
1F
100
AcDbEntity
  8
F-Fﾚｲﾔ
  6
Continuous
 62
     2
370
     9
100
AcDbText
 10
-903.017939814813
 20
-1363.053781415343
 30
0.0
 40
26.67000000000001
  1
車止め　スチール製　アーチ型横バー付　脱着式　鋳鉄製蓋　鍵付　ＹＢＷ６Ｌ１５－ＨＤＬ
 41
0.857142857142857
  7
ＭＳ ゴシック
100
AcDbText
  0
TEXT
  5
2C1
330
1F
100
AcDbEntity
  8
F-5ﾚｲﾔ
  6
Continuous
 62
     2
370
     0
100
AcDbText
 10
1409.844234791177
 20
-993.3742512140833
 30
0.0
 40
30.48000000000003
  1
支柱質量：15kg／本
 41
1.111111111111111
  7
ＭＳ ゴシック
100
AcDbText
  0
LINE
  5
2C2
330
1F
100
AcDbEntity
  8
C-5_建具
  6
Continuous
 62
     7
370
     9
100
AcDbLine
 10
-763.3725597777789
 20
465.5190670737141
 30
0.0
 11
-252.6643867230093
 21
465.5190670737141
 31
0.0
  0
LINE
  5
2C3
330
1F
100
AcDbEntity
  8
C-5_建具
  6
Continuous
 62
     7
370
     9
100
AcDbLine
 10
-384.3036780476402
 20
-128.8194422037189
 30
0.0
 11
-837.8682448478751
 21
-128.8194422037189
 31
0.0
  0
LINE
  5
2C4
330
1F
100
AcDbEntity
  8
C-5_建具
  6
Continuous
 62
     7
370
     9
100
AcDbLine
 10
-618.2486020631943
 20
760.5283416842313
 30
0.0
 11
-107.3801358373606
 21
760.5283416842313
 31
0.0
  0
LINE
  5
2C5
330
1F
100
AcDbEntity
  8
C-2_仕上
  6
Continuous
 62
     3
370
     9
100
AcDbLine
 10
-1050.729804581511
 20
777.8685169096628
 30
0.0
 11
-1050.729804581511
 21
620.1199245667889
 31
0.0
  0
LINE
  5
2C6
330
1F
100
AcDbEntity
  8
C-2_仕上
  6
Continuous
 62
     3
370
     9
100
AcDbLine
 10
-1050.729804581511
 20
586.1199113699984
 30
0.0
 11
-1050.729804581511
 21
333.1120328110655
 31
0.0
  0
LINE
  5
2C7
330
1F
100
AcDbEntity
  8
C-2_仕上
  6
Continuous
 62
     3
370
     9
100
AcDbLine
 10
328.2701838712978
 20
777.8685169096628
 30
0.0
 11
328.2701838712978
 21
620.1199245667617
 31
0.0
  0
LINE
  5
2C8
330
1F
100
AcDbEntity
  8
C-2_仕上
  6
Continuous
 62
     3
370
     9
100
AcDbLine
 10
328.2701838712978
 20
586.1199113699722
 30
0.0
 11
328.2701838712978
 21
333.1196848256254
 31
0.0
  0
ENDSEC
  0
SECTION
  2
OBJECTS
  0
DICTIONARY
  5
C
330
0
100
AcDbDictionary
281
     1
  3
ACAD_DETAILVIEWSTYLE
350
30E
  3
ACAD_GROUP
350
D
  3
ACAD_LAYOUT
350
1A
  3
ACAD_MATERIAL
350
43
  3
ACAD_MLEADERSTYLE
350
6B
  3
ACAD_MLINESTYLE
350
17
  3
ACAD_PLOTSETTINGS
350
19
  3
ACAD_PLOTSTYLENAME
350
E
  3
ACAD_SCALELIST
350
47
  3
ACAD_SECTIONVIEWSTYLE
350
30F
  3
ACAD_TABLESTYLE
350
69
  3
ACAD_VISUALSTYLE
350
2A
  3
ACDB_RECOMPOSE_DATA
350
30B
  3
AcDbVariableDictionary
350
2CB
  0
DICTIONARY
  5
2C9
330
8
100
AcDbDictionary
280
     1
281
     1
  3
ACAD_XREC_ROUNDTRIP
360
2CA
  0
DICTIONARY
  5
30E
102
{ACAD_REACTORS
330
C
102
}
330
C
100
AcDbDictionary
281
     1
  0
DICTIONARY
  5
D
102
{ACAD_REACTORS
330
C
102
}
330
C
100
AcDbDictionary
281
     1
  0
DICTIONARY
  5
1A
102
{ACAD_REACTORS
330
C
102
}
330
C
100
AcDbDictionary
281
     1
  3
Layout1
350
1E
  3
Layout2
350
26
  3
Model
350
22
  0
DICTIONARY
  5
43
102
{ACAD_REACTORS
330
C
102
}
330
C
100
AcDbDictionary
281
     1
  3
ByBlock
350
45
  3
ByLayer
350
44
  3
Global
350
46
  0
DICTIONARY
  5
6B
102
{ACAD_REACTORS
330
C
102
}
330
C
100
AcDbDictionary
281
     1
  3
Standard
350
6C
  0
DICTIONARY
  5
17
102
{ACAD_REACTORS
330
C
102
}
330
C
100
AcDbDictionary
281
     1
  3
Standard
350
18
  0
DICTIONARY
  5
19
102
{ACAD_REACTORS
330
C
102
}
330
C
100
AcDbDictionary
281
     1
  0
ACDBDICTIONARYWDFLT
  5
E
102
{ACAD_REACTORS
330
C
102
}
330
C
100
AcDbDictionary
281
     1
  3
Normal
350
F
100
AcDbDictionaryWithDefault
340
F
  0
DICTIONARY
  5
47
102
{ACAD_REACTORS
330
C
102
}
330
C
100
AcDbDictionary
281
     1
  3
A0
350
48
  3
A1
350
49
  3
A2
350
4A
  3
A3
350
4B
  3
A4
350
4C
  3
A5
350
4D
  3
A6
350
4E
  3
A7
350
4F
  3
A8
350
50
  3
A9
350
51
  3
B0
350
52
  3
B1
350
53
  3
B2
350
54
  3
B3
350
55
  3
B4
350
56
  3
B5
350
57
  3
B6
350
58
  3
B7
350
59
  3
B8
350
5A
  3
B9
350
5B
  3
C0
350
5C
  3
C1
350
5D
  3
C2
350
5E
  3
C3
350
5F
  3
C4
350
60
  3
C5
350
61
  3
C6
350
62
  3
C7
350
63
  3
C8
350
64
  3
C9
350
65
  3
D0
350
66
  3
D1
350
67
  3
D2
350
68
  0
DICTIONARY
  5
30F
102
{ACAD_REACTORS
330
C
102
}
330
C
100
AcDbDictionary
281
     1
  0
DICTIONARY
  5
69
102
{ACAD_REACTORS
330
C
102
}
330
C
100
AcDbDictionary
281
     1
  3
Standard
350
6A
  0
DICTIONARY
  5
2A
102
{ACAD_REACTORS
330
C
102
}
330
C
100
AcDbDictionary
281
     1
  3
2dWireframe
350
2F
  3
Basic
350
32
  3
Brighten
350
36
  3
ColorChange
350
3A
  3
Conceptual
350
34
  3
Dim
350
35
  3
EdgeColorOff
350
3D
  3
Facepattern
350
39
  3
Flat
350
2B
  3
FlatWithEdges
350
2C
  3
Gouraud
350
2D
  3
GouraudWithEdges
350
2E
  3
Hidden
350
31
  3
JitterOff
350
3B
  3
Linepattern
350
38
  3
OverhangOff
350
3C
  3
Realistic
350
33
  3
Shaded
350
42
  3
Shaded with edges
350
41
  3
Shades of Gray
350
3E
  3
Sketchy
350
3F
  3
Thicken
350
37
  3
Wireframe
350
30
  3
X-Ray
350
40
  0
XRECORD
  5
30B
102
{ACAD_REACTORS
330
C
102
}
330
C
100
AcDbXrecord
280
     1
 90
        1
330
6A
  0
DICTIONARY
  5
2CB
102
{ACAD_REACTORS
330
C
102
}
330
C
100
AcDbDictionary
281
     1
  3
CANNOSCALE
350
2CC
  3
CENTEREXE
350
310
  3
CENTERLTYPEFILE
350
311
  3
CMLEADERSTYLE
350
30D
  3
CTABLESTYLE
350
30C
  3
MSLTSCALE
350
2CD
  3
XCLIPFRAME
350
2CE
  0
XRECORD
  5
2CA
102
{ACAD_REACTORS
330
2C9
102
}
330
2C9
100
AcDbXrecord
280
     1
102
VTR_0.000_0.000_1.000_1.000_VISUALSTYLE
340
2F
102
VTR_0.000_0.000_1.000_1.000_GRIDDISPLAY
 70
     3
102
VTR_0.000_0.000_1.000_1.000_GRIDMAJOR
 70
     5
102
VTR_0.000_0.000_1.000_1.000_DEFAULTLIGHTING
280
     1
102
VTR_0.000_0.000_1.000_1.000_DEFAULTLIGHTINGTYPE
 70
     1
102
VTR_0.000_0.000_1.000_1.000_BRIGHTNESS
141
0.0
102
VTR_0.000_0.000_1.000_1.000_CONTRAST
142
0.0
  0
LAYOUT
  5
1E
102
{ACAD_REACTORS
330
1A
102
}
330
1A
100
AcDbPlotSettings
  1

  2
none_device
  4

  6

 40
0.0
 41
0.0
 42
0.0
 43
0.0
 44
0.0
 45
0.0
 46
0.0
 47
0.0
 48
0.0
 49
0.0
140
0.0
141
0.0
142
1.0
143
1.0
 70
   688
 72
     1
 73
     0
 74
     5
  7

 75
    16
 76
     0
 77
     5
 78
   300
147
1.0
148
0.0
149
0.0
100
AcDbLayout
  1
Layout1
 70
     1
 71
     1
 10
0.0
 20
0.0
 11
420.0
 21
297.0
 12
0.0
 22
0.0
 32
0.0
 14
1.000000000000000E+20
 24
1.000000000000000E+20
 34
1.000000000000000E+20
 15
-1.000000000000000E+20
 25
-1.000000000000000E+20
 35
-1.000000000000000E+20
146
0.0
 13
0.0
 23
0.0
 33
0.0
 16
1.0
 26
0.0
 36
0.0
 17
0.0
 27
1.0
 37
0.0
 76
     0
330
1B
  0
LAYOUT
  5
26
102
{ACAD_REACTORS
330
1A
102
}
330
1A
100
AcDbPlotSettings
  1

  2
none_device
  4

  6

 40
0.0
 41
0.0
 42
0.0
 43
0.0
 44
0.0
 45
0.0
 46
0.0
 47
0.0
 48
0.0
 49
0.0
140
0.0
141
0.0
142
1.0
143
1.0
 70
   688
 72
     1
 73
     0
 74
     5
  7

 75
    16
 76
     0
 77
     5
 78
   300
147
1.0
148
0.0
149
0.0
100
AcDbLayout
  1
Layout2
 70
     1
 71
     2
 10
0.0
 20
0.0
 11
0.0
 21
0.0
 12
0.0
 22
0.0
 32
0.0
 14
0.0
 24
0.0
 34
0.0
 15
0.0
 25
0.0
 35
0.0
146
0.0
 13
0.0
 23
0.0
 33
0.0
 16
1.0
 26
0.0
 36
0.0
 17
0.0
 27
1.0
 37
0.0
 76
     0
330
23
  0
LAYOUT
  5
22
102
{ACAD_REACTORS
330
1A
102
}
330
1A
100
AcDbPlotSettings
  1

  2
none_device
  4
Letter_(8.50_x_11.00_Inches)
  6

 40
6.35
 41
6.35
 42
6.35000508
 43
6.35000508
 44
215.9
 45
279.4
 46
0.0
 47
0.0
 48
0.0
 49
0.0
140
0.0
141
0.0
142
1.0
143
1.0
 70
  1712
 72
     1
 73
     0
 74
     0
  7

 75
     0
 76
     0
 77
     5
 78
   300
147
1.0
148
0.0
149
0.0
100
AcDbLayout
  1
Model
 70
     1
 71
     0
 10
-2100.0
 20
-1485.0
 11
2100.0
 21
1485.0
 12
0.0
 22
0.0
 32
0.0
 14
-2100.0
 24
-1485.0
 34
0.0
 15
2100.0
 25
1485.0
 35
0.0
146
0.0
 13
0.0
 23
0.0
 33
0.0
 16
1.0
 26
0.0
 36
0.0
 17
0.0
 27
1.0
 37
0.0
 76
     0
330
1F
331
29
  0
MATERIAL
  5
45
102
{ACAD_REACTORS
330
43
102
}
102
{ACAD_XDICTIONARY
360
301
102
}
330
43
100
AcDbMaterial
  1
ByBlock
  0
MATERIAL
  5
44
102
{ACAD_REACTORS
330
43
102
}
102
{ACAD_XDICTIONARY
360
2FF
102
}
330
43
100
AcDbMaterial
  1
ByLayer
  0
MATERIAL
  5
46
102
{ACAD_REACTORS
330
43
102
}
102
{ACAD_XDICTIONARY
360
303
102
}
330
43
100
AcDbMaterial
  1
Global
  0
MLEADERSTYLE
  5
6C
102
{ACAD_REACTORS
330
6B
102
}
102
{ACAD_XDICTIONARY
360
309
102
}
330
6B
100
AcDbMLeaderStyle
170
     2
171
     1
172
     0
 90
        2
 40
0.0
 41
0.0
173
     1
 91
-1056964608
340
14
 92
       -2
290
     1
 42
2.0
291
     1
 43
8.0
  3
Standard
341
0
 44
4.0
300

342
11
174
     1
178
     6
175
     1
176
     0
 93
-1056964608
 45
4.0
292
     0
297
     0
 46
4.0
343
0
 94
-1056964608
 47
1.0
 49
1.0
140
1.0
293
     1
141
0.0
294
     1
177
     0
142
1.0
295
     0
296
     0
143
3.75
1001
ACAD_MLEADERVER
1070
     2
  0
MLINESTYLE
  5
18
102
{ACAD_REACTORS
330
17
102
}
330
17
100
AcDbMlineStyle
  2
Standard
 70
     0
  3

 62
   256
 51
90.0
 52
90.0
 71
     2
 49
0.5
 62
   256
  6
BYLAYER
 49
-0.5
 62
   256
  6
BYLAYER
  0
ACDBPLACEHOLDER
  5
F
102
{ACAD_REACTORS
330
E
102
}
330
E
  0
SCALE
  5
48
102
{ACAD_REACTORS
330
47
102
}
330
47
100
AcDbScale
 70
     0
300
1:1
140
1.0
141
1.0
290
     1
  0
SCALE
  5
49
102
{ACAD_REACTORS
330
47
102
}
330
47
100
AcDbScale
 70
     0
300
1:2
140
1.0
141
2.0
290
     0
  0
SCALE
  5
4A
102
{ACAD_REACTORS
330
47
102
}
330
47
100
AcDbScale
 70
     0
300
1:4
140
1.0
141
4.0
290
     0
  0
SCALE
  5
4B
102
{ACAD_REACTORS
330
47
102
}
330
47
100
AcDbScale
 70
     0
300
1:5
140
1.0
141
5.0
290
     0
  0
SCALE
  5
4C
102
{ACAD_REACTORS
330
47
102
}
330
47
100
AcDbScale
 70
     0
300
1:8
140
1.0
141
8.0
290
     0
  0
SCALE
  5
4D
102
{ACAD_REACTORS
330
47
102
}
330
47
100
AcDbScale
 70
     0
300
1:10
140
1.0
141
10.0
290
     0
  0
SCALE
  5
4E
102
{ACAD_REACTORS
330
47
102
}
330
47
100
AcDbScale
 70
     0
300
1:16
140
1.0
141
16.0
290
     0
  0
SCALE
  5
4F
102
{ACAD_REACTORS
330
47
102
}
330
47
100
AcDbScale
 70
     0
300
1:20
140
1.0
141
20.0
290
     0
  0
SCALE
  5
50
102
{ACAD_REACTORS
330
47
102
}
330
47
100
AcDbScale
 70
     0
300
1:30
140
1.0
141
30.0
290
     0
  0
SCALE
  5
51
102
{ACAD_REACTORS
330
47
102
}
330
47
100
AcDbScale
 70
     0
300
1:40
140
1.0
141
40.0
290
     0
  0
SCALE
  5
52
102
{ACAD_REACTORS
330
47
102
}
330
47
100
AcDbScale
 70
     0
300
1:50
140
1.0
141
50.0
290
     0
  0
SCALE
  5
53
102
{ACAD_REACTORS
330
47
102
}
330
47
100
AcDbScale
 70
     0
300
1:100
140
1.0
141
100.0
290
     0
  0
SCALE
  5
54
102
{ACAD_REACTORS
330
47
102
}
330
47
100
AcDbScale
 70
     0
300
2:1
140
2.0
141
1.0
290
     0
  0
SCALE
  5
55
102
{ACAD_REACTORS
330
47
102
}
330
47
100
AcDbScale
 70
     0
300
4:1
140
4.0
141
1.0
290
     0
  0
SCALE
  5
56
102
{ACAD_REACTORS
330
47
102
}
330
47
100
AcDbScale
 70
     0
300
8:1
140
8.0
141
1.0
290
     0
  0
SCALE
  5
57
102
{ACAD_REACTORS
330
47
102
}
330
47
100
AcDbScale
 70
     0
300
10:1
140
10.0
141
1.0
290
     0
  0
SCALE
  5
58
102
{ACAD_REACTORS
330
47
102
}
330
47
100
AcDbScale
 70
     0
300
100:1
140
100.0
141
1.0
290
     0
  0
SCALE
  5
59
102
{ACAD_REACTORS
330
47
102
}
330
47
100
AcDbScale
 70
     0
300
1/128" = 1'-0"
140
0.0078125
141
12.0
290
     0
  0
SCALE
  5
5A
102
{ACAD_REACTORS
330
47
102
}
330
47
100
AcDbScale
 70
     0
300
1/64" = 1'-0"
140
0.015625
141
12.0
290
     0
  0
SCALE
  5
5B
102
{ACAD_REACTORS
330
47
102
}
330
47
100
AcDbScale
 70
     0
300
1/32" = 1'-0"
140
0.03125
141
12.0
290
     0
  0
SCALE
  5
5C
102
{ACAD_REACTORS
330
47
102
}
330
47
100
AcDbScale
 70
     0
300
1/16" = 1'-0"
140
0.0625
141
12.0
290
     0
  0
SCALE
  5
5D
102
{ACAD_REACTORS
330
47
102
}
330
47
100
AcDbScale
 70
     0
300
3/32" = 1'-0"
140
0.09375
141
12.0
290
     0
  0
SCALE
  5
5E
102
{ACAD_REACTORS
330
47
102
}
330
47
100
AcDbScale
 70
     0
300
1/8" = 1'-0"
140
0.125
141
12.0
290
     0
  0
SCALE
  5
5F
102
{ACAD_REACTORS
330
47
102
}
330
47
100
AcDbScale
 70
     0
300
3/16" = 1'-0"
140
0.1875
141
12.0
290
     0
  0
SCALE
  5
60
102
{ACAD_REACTORS
330
47
102
}
330
47
100
AcDbScale
 70
     0
300
1/4" = 1'-0"
140
0.25
141
12.0
290
     0
  0
SCALE
  5
61
102
{ACAD_REACTORS
330
47
102
}
330
47
100
AcDbScale
 70
     0
300
3/8" = 1'-0"
140
0.375
141
12.0
290
     0
  0
SCALE
  5
62
102
{ACAD_REACTORS
330
47
102
}
330
47
100
AcDbScale
 70
     0
300
1/2" = 1'-0"
140
0.5
141
12.0
290
     0
  0
SCALE
  5
63
102
{ACAD_REACTORS
330
47
102
}
330
47
100
AcDbScale
 70
     0
300
3/4" = 1'-0"
140
0.75
141
12.0
290
     0
  0
SCALE
  5
64
102
{ACAD_REACTORS
330
47
102
}
330
47
100
AcDbScale
 70
     0
300
1" = 1'-0"
140
1.0
141
12.0
290
     0
  0
SCALE
  5
65
102
{ACAD_REACTORS
330
47
102
}
330
47
100
AcDbScale
 70
     0
300
1-1/2" = 1'-0"
140
1.5
141
12.0
290
     0
  0
SCALE
  5
66
102
{ACAD_REACTORS
330
47
102
}
330
47
100
AcDbScale
 70
     0
300
3" = 1'-0"
140
3.0
141
12.0
290
     0
  0
SCALE
  5
67
102
{ACAD_REACTORS
330
47
102
}
330
47
100
AcDbScale
 70
     0
300
6" = 1'-0"
140
6.0
141
12.0
290
     0
  0
SCALE
  5
68
102
{ACAD_REACTORS
330
47
102
}
330
47
100
AcDbScale
 70
     0
300
1'-0" = 1'-0"
140
12.0
141
12.0
290
     0
  0
TABLESTYLE
  5
6A
102
{ACAD_REACTORS
330
69
102
}
102
{ACAD_XDICTIONARY
360
305
102
}
330
69
100
AcDbTableStyle
  3
Standard
 70
     0
 71
     0
 40
0.06
 41
0.06
280
     0
281
     0
  7
Standard
140
4.5
170
     2
 62
     0
 63
   257
283
     0
274
    -2
284
     1
 64
     0
275
    -2
285
     1
 65
     0
276
    -2
286
     1
 66
     0
277
    -2
287
     1
 67
     0
278
    -2
288
     1
 68
     0
279
    -2
289
     1
 69
     0
  7
Standard
140
6.0
170
     5
 62
     0
 63
   257
283
     0
274
    -2
284
     1
 64
     0
275
    -2
285
     1
 65
     0
276
    -2
286
     1
 66
     0
277
    -2
287
     1
 67
     0
278
    -2
288
     1
 68
     0
279
    -2
289
     1
 69
     0
  7
Standard
140
4.5
170
     5
 62
     0
 63
   257
283
     0
274
    -2
284
     1
 64
     0
275
    -2
285
     1
 65
     0
276
    -2
286
     1
 66
     0
277
    -2
287
     1
 67
     0
278
    -2
288
     1
 68
     0
279
    -2
289
     1
 69
     0
  0
VISUALSTYLE
  5
2F
102
{ACAD_REACTORS
330
2A
102
}
102
{ACAD_XDICTIONARY
360
2D7
102
}
330
2A
100
AcDbVisualStyle
  2
2dWireframe
 70
     4
 71
     0
 72
     2
 73
     0
 90
        0
 40
0.6
 41
30.0
 62
     5
 63
     7
421
 16777215
 74
     1
 91
        4
 64
     7
 65
   257
 75
     1
175
     1
 42
1.0
 92
        0
 66
   257
 43
1.0
 76
     1
 77
     6
 78
     2
 67
     7
 79
     5
170
     0
171
     0
290
     0
174
     0
 93
        1
 44
0.0
173
     0
291
     0
 45
0.0
1001
ACAD
1000
AcDbSavedByObjectVersion
1070
     0
  0
VISUALSTYLE
  5
32
102
{ACAD_REACTORS
330
2A
102
}
102
{ACAD_XDICTIONARY
360
2DD
102
}
330
2A
100
AcDbVisualStyle
  2
Basic
 70
     7
 71
     1
 72
     0
 73
     1
 90
        0
 40
0.6
 41
30.0
 62
     5
 63
     7
421
 16777215
 74
     0
 91
        4
 64
     7
 65
   257
 75
     1
175
     1
 42
1.0
 92
        8
 66
     7
 43
1.0
 76
     1
 77
     6
 78
     2
 67
     7
 79
     5
170
     0
171
     0
290
     0
174
     0
 93
        1
 44
0.0
173
     0
291
     1
 45
0.0
1001
ACAD
1000
AcDbSavedByObjectVersion
1070
     0
  0
VISUALSTYLE
  5
36
102
{ACAD_REACTORS
330
2A
102
}
102
{ACAD_XDICTIONARY
360
2E5
102
}
330
2A
100
AcDbVisualStyle
  2
Brighten
 70
    12
 71
     2
 72
     2
 73
     0
 90
        0
 40
0.6
 41
30.0
 62
     5
 63
     7
421
 16777215
 74
     1
 91
        4
 64
     7
 65
   257
 75
     1
175
     1
 42
1.0
 92
        8
 66
     7
 43
1.0
 76
     1
 77
     6
 78
     2
 67
     7
 79
     5
170
     0
171
     0
290
     0
174
     0
 93
        1
 44
50.0
173
     0
291
     1
 45
0.0
1001
ACAD
1000
AcDbSavedByObjectVersion
1070
     0
  0
VISUALSTYLE
  5
3A
102
{ACAD_REACTORS
330
2A
102
}
102
{ACAD_XDICTIONARY
360
2ED
102
}
330
2A
100
AcDbVisualStyle
  2
ColorChange
 70
    16
 71
     2
 72
     2
 73
     3
 90
        0
 40
0.6
 41
30.0
 62
     5
 63
     8
421
  8421504
 74
     1
 91
        4
 64
     7
 65
   257
 75
     1
175
     1
 42
1.0
 92
        8
 66
     8
424
  8421504
 43
1.0
 76
     1
 77
     6
 78
     2
 67
     7
 79
     5
170
     0
171
     0
290
     0
174
     0
 93
        1
 44
0.0
173
     0
291
     1
 45
0.0
1001
ACAD
1000
AcDbSavedByObjectVersion
1070
     0
  0
VISUALSTYLE
  5
34
102
{ACAD_REACTORS
330
2A
102
}
102
{ACAD_XDICTIONARY
360
2E1
102
}
330
2A
100
AcDbVisualStyle
  2
Conceptual
 70
     9
 71
     3
 72
     2
 73
     0
 90
        0
 40
0.6
 41
30.0
 62
     5
 63
     7
421
 16777215
 74
     2
 91
        2
 64
     7
 65
   257
 75
     1
175
     1
 42
179.0
 92
        8
 66
     7
 43
1.0
 76
     1
 77
     6
 78
     2
 67
     7
 79
     3
170
     0
171
     0
290
     0
174
     0
 93
        1
 44
0.0
173
     0
291
     0
 45
0.0
1001
ACAD
1000
AcDbSavedByObjectVersion
1070
     0
  0
VISUALSTYLE
  5
35
102
{ACAD_REACTORS
330
2A
102
}
102
{ACAD_XDICTIONARY
360
2E3
102
}
330
2A
100
AcDbVisualStyle
  2
Dim
 70
    11
 71
     2
 72
     2
 73
     0
 90
        0
 40
0.6
 41
30.0
 62
     5
 63
     7
421
 16777215
 74
     1
 91
        4
 64
     7
 65
   257
 75
     1
175
     1
 42
1.0
 92
        8
 66
     7
 43
1.0
 76
     1
 77
     6
 78
     2
 67
     7
 79
     5
170
     0
171
     0
290
     0
174
     0
 93
        1
 44
-50.0
173
     0
291
     1
 45
0.0
1001
ACAD
1000
AcDbSavedByObjectVersion
1070
     0
  0
VISUALSTYLE
  5
3D
102
{ACAD_REACTORS
330
2A
102
}
102
{ACAD_XDICTIONARY
360
2F3
102
}
330
2A
100
AcDbVisualStyle
  2
EdgeColorOff
 70
    22
 71
     2
 72
     2
 73
     0
 90
        0
 40
0.6
 41
30.0
 62
     5
 63
     7
421
 16777215
 74
     1
 91
        4
 64
     7
 65
   257
 75
     1
175
     1
 42
1.0
 92
        8
 66
     7
 43
1.0
 76
     1
 77
     6
 78
     2
 67
     7
 79
     5
170
     0
171
     0
290
     0
174
     0
 93
        1
 44
0.0
173
     0
291
     1
 45
0.0
1001
ACAD
1000
AcDbSavedByObjectVersion
1070
     0
  0
VISUALSTYLE
  5
39
102
{ACAD_REACTORS
330
2A
102
}
102
{ACAD_XDICTIONARY
360
2EB
102
}
330
2A
100
AcDbVisualStyle
  2
Facepattern
 70
    15
 71
     2
 72
     2
 73
     0
 90
        0
 40
0.6
 41
30.0
 62
     5
 63
     7
421
 16777215
 74
     1
 91
        4
 64
     7
 65
   257
 75
     1
175
     1
 42
1.0
 92
        8
 66
     7
 43
1.0
 76
     1
 77
     6
 78
     2
 67
     7
 79
     5
170
     0
171
     0
290
     0
174
     0
 93
        1
 44
0.0
173
     0
291
     1
 45
0.0
1001
ACAD
1000
AcDbSavedByObjectVersion
1070
     0
  0
VISUALSTYLE
  5
2B
102
{ACAD_REACTORS
330
2A
102
}
102
{ACAD_XDICTIONARY
360
2CF
102
}
330
2A
100
AcDbVisualStyle
  2
Flat
 70
     0
 71
     2
 72
     1
 73
     1
 90
        2
 40
0.6
 41
30.0
 62
     5
 63
     7
421
 16777215
 74
     0
 91
        0
 64
     7
 65
   257
 75
     1
175
     1
 42
1.0
 92
        8
 66
     7
 43
1.0
 76
     1
 77
     6
 78
     2
 67
     7
 79
     5
170
     0
171
     0
290
     0
174
     0
 93
       13
 44
0.0
173
     0
291
     1
 45
0.0
1001
ACAD
1000
AcDbSavedByObjectVersion
1070
     0
  0
VISUALSTYLE
  5
2C
102
{ACAD_REACTORS
330
2A
102
}
102
{ACAD_XDICTIONARY
360
2D1
102
}
330
2A
100
AcDbVisualStyle
  2
FlatWithEdges
 70
     1
 71
     2
 72
     1
 73
     1
 90
        2
 40
0.6
 41
30.0
 62
     5
 63
     7
421
 16777215
 74
     1
 91
        0
 64
     7
 65
   257
 75
     1
175
     1
 42
1.0
 92
        0
 66
   257
 43
1.0
 76
     1
 77
     6
 78
     2
 67
     7
 79
     5
170
     0
171
     0
290
     0
174
     0
 93
       13
 44
0.0
173
     0
291
     1
 45
0.0
1001
ACAD
1000
AcDbSavedByObjectVersion
1070
     0
  0
VISUALSTYLE
  5
2D
102
{ACAD_REACTORS
330
2A
102
}
102
{ACAD_XDICTIONARY
360
2D3
102
}
330
2A
100
AcDbVisualStyle
  2
Gouraud
 70
     2
 71
     2
 72
     2
 73
     1
 90
        2
 40
0.6
 41
30.0
 62
     5
 63
     7
421
 16777215
 74
     0
 91
        0
 64
     7
 65
   257
 75
     1
175
     1
 42
1.0
 92
        0
 66
     7
 43
1.0
 76
     1
 77
     6
 78
     2
 67
     7
 79
     5
170
     0
171
     0
290
     0
174
     0
 93
       13
 44
0.0
173
     0
291
     1
 45
0.0
1001
ACAD
1000
AcDbSavedByObjectVersion
1070
     0
  0
VISUALSTYLE
  5
2E
102
{ACAD_REACTORS
330
2A
102
}
102
{ACAD_XDICTIONARY
360
2D5
102
}
330
2A
100
AcDbVisualStyle
  2
GouraudWithEdges
 70
     3
 71
     2
 72
     2
 73
     1
 90
        2
 40
0.6
 41
30.0
 62
     5
 63
     7
421
 16777215
 74
     1
 91
        0
 64
     7
 65
   257
 75
     1
175
     1
 42
1.0
 92
        0
 66
   257
 43
1.0
 76
     1
 77
     6
 78
     2
 67
     7
 79
     5
170
     0
171
     0
290
     0
174
     0
 93
       13
 44
0.0
173
     0
291
     1
 45
0.0
1001
ACAD
1000
AcDbSavedByObjectVersion
1070
     0
  0
VISUALSTYLE
  5
31
102
{ACAD_REACTORS
330
2A
102
}
102
{ACAD_XDICTIONARY
360
2DB
102
}
330
2A
100
AcDbVisualStyle
  2
Hidden
 70
     6
 71
     1
 72
     2
 73
     2
 90
        0
 40
0.6
 41
30.0
 62
     5
 63
     7
421
 16777215
 74
     2
 91
        2
 64
     7
 65
   257
 75
     2
175
     1
 42
40.0
 92
        0
 66
   257
 43
1.0
 76
     1
 77
     6
 78
     2
 67
     7
 79
     3
170
     0
171
     0
290
     0
174
     0
 93
        1
 44
0.0
173
     0
291
     0
 45
0.0
1001
ACAD
1000
AcDbSavedByObjectVersion
1070
     0
  0
VISUALSTYLE
  5
3B
102
{ACAD_REACTORS
330
2A
102
}
102
{ACAD_XDICTIONARY
360
2EF
102
}
330
2A
100
AcDbVisualStyle
  2
JitterOff
 70
    20
 71
     2
 72
     2
 73
     0
 90
        0
 40
0.6
 41
30.0
 62
     5
 63
     7
421
 16777215
 74
     1
 91
        4
 64
     7
 65
   257
 75
     1
175
     1
 42
1.0
 92
       10
 66
     7
 43
1.0
 76
     1
 77
     6
 78
     2
 67
     7
 79
     5
170
     0
171
     0
290
     0
174
     0
 93
        1
 44
0.0
173
     0
291
     1
 45
0.0
1001
ACAD
1000
AcDbSavedByObjectVersion
1070
     0
  0
VISUALSTYLE
  5
38
102
{ACAD_REACTORS
330
2A
102
}
102
{ACAD_XDICTIONARY
360
2E9
102
}
330
2A
100
AcDbVisualStyle
  2
Linepattern
 70
    14
 71
     2
 72
     2
 73
     0
 90
        0
 40
0.6
 41
30.0
 62
     5
 63
     7
421
 16777215
 74
     1
 91
        4
 64
     7
 65
   257
 75
     7
175
     7
 42
1.0
 92
        8
 66
     7
 43
1.0
 76
     1
 77
     6
 78
     2
 67
     7
 79
     5
170
     0
171
     0
290
     0
174
     0
 93
        1
 44
0.0
173
     0
291
     1
 45
0.0
1001
ACAD
1000
AcDbSavedByObjectVersion
1070
     0
  0
VISUALSTYLE
  5
3C
102
{ACAD_REACTORS
330
2A
102
}
102
{ACAD_XDICTIONARY
360
2F1
102
}
330
2A
100
AcDbVisualStyle
  2
OverhangOff
 70
    21
 71
     2
 72
     2
 73
     0
 90
        0
 40
0.6
 41
30.0
 62
     5
 63
     7
421
 16777215
 74
     1
 91
        4
 64
     7
 65
   257
 75
     1
175
     1
 42
1.0
 92
        9
 66
     7
 43
1.0
 76
     1
 77
     6
 78
     2
 67
     7
 79
     5
170
     0
171
     0
290
     0
174
     0
 93
        1
 44
0.0
173
     0
291
     1
 45
0.0
1001
ACAD
1000
AcDbSavedByObjectVersion
1070
     0
  0
VISUALSTYLE
  5
33
102
{ACAD_REACTORS
330
2A
102
}
102
{ACAD_XDICTIONARY
360
2DF
102
}
330
2A
100
AcDbVisualStyle
  2
Realistic
 70
     8
 71
     2
 72
     3
 73
     0
 90
        2
 40
0.6
 41
30.0
 62
     5
 63
     7
421
 16777215
 74
     0
 91
        0
 64
     7
 65
   257
 75
     1
175
     1
 42
1.0
 92
        8
 66
   257
 43
1.0
 76
     1
 77
     6
 78
     2
 67
     7
 79
     3
170
     0
171
     0
290
     0
174
     0
 93
       13
 44
0.0
173
     0
291
     0
 45
0.0
1001
ACAD
1000
AcDbSavedByObjectVersion
1070
     0
  0
VISUALSTYLE
  5
42
102
{ACAD_REACTORS
330
2A
102
}
102
{ACAD_XDICTIONARY
360
2FD
102
}
330
2A
100
AcDbVisualStyle
  2
Shaded
 70
    27
 71
     2
 72
     2
 73
     1
 90
        2
 40
0.6
 41
30.0
 62
     5
 63
     7
421
 16777215
 74
     0
 91
        4
 64
     7
 65
   257
 75
     1
175
     1
 42
1.0
 92
        8
 66
   257
 43
1.0
 76
     1
 77
     6
 78
     2
 67
     8
425
  7895160
 79
     3
170
     0
171
     0
290
     0
174
     0
 93
        5
 44
0.0
173
     0
291
     0
 45
0.0
1001
ACAD
1000
AcDbSavedByObjectVersion
1070
     0
  0
VISUALSTYLE
  5
41
102
{ACAD_REACTORS
330
2A
102
}
102
{ACAD_XDICTIONARY
360
2FB
102
}
330
2A
100
AcDbVisualStyle
  2
Shaded with edges
 70
    26
 71
     2
 72
     2
 73
     1
 90
        2
 40
0.6
 41
30.0
 62
     5
 63
     7
421
 16777215
 74
     1
 91
       10
 64
     7
 65
   257
 75
     2
175
     1
 42
1.0
 92
        8
 66
   257
 43
1.0
 76
     1
 77
     6
 78
     2
 67
     7
 79
     3
170
     0
171
     0
290
     0
174
     0
 93
        5
 44
0.0
173
     0
291
     0
 45
0.0
1001
ACAD
1000
AcDbSavedByObjectVersion
1070
     0
  0
VISUALSTYLE
  5
3E
102
{ACAD_REACTORS
330
2A
102
}
102
{ACAD_XDICTIONARY
360
2F5
102
}
330
2A
100
AcDbVisualStyle
  2
Shades of Gray
 70
    23
 71
     2
 72
     2
 73
     3
 90
        0
 40
0.6
 41
30.0
 62
     5
 63
     7
421
 16777215
 74
     2
 91
        2
 64
     7
 65
     7
 75
     1
175
     1
 42
40.0
 92
        8
 66
     7
 43
1.0
 76
     1
 77
     6
 78
     2
 67
     7
 79
     3
170
     0
171
     0
290
     0
174
     0
 93
        1
 44
0.0
173
     0
291
     0
 45
0.0
1001
ACAD
1000
AcDbSavedByObjectVersion
1070
     0
  0
VISUALSTYLE
  5
3F
102
{ACAD_REACTORS
330
2A
102
}
102
{ACAD_XDICTIONARY
360
2F7
102
}
330
2A
100
AcDbVisualStyle
  2
Sketchy
 70
    24
 71
     1
 72
     2
 73
     2
 90
        0
 40
0.6
 41
30.0
 62
     5
 63
     7
421
 16777215
 74
     2
 91
        2
 64
     7
 65
     7
 75
     1
175
     1
 42
40.0
 92
       11
 66
     7
 43
1.0
 76
     1
 77
     6
 78
     2
 67
     7
 79
     6
170
     0
171
     0
290
     0
174
     0
 93
        1
 44
0.0
173
     0
291
     0
 45
0.0
1001
ACAD
1000
AcDbSavedByObjectVersion
1070
     0
  0
VISUALSTYLE
  5
37
102
{ACAD_REACTORS
330
2A
102
}
102
{ACAD_XDICTIONARY
360
2E7
102
}
330
2A
100
AcDbVisualStyle
  2
Thicken
 70
    13
 71
     2
 72
     2
 73
     0
 90
        0
 40
0.6
 41
30.0
 62
     5
 63
     7
421
 16777215
 74
     1
 91
        4
 64
     7
 65
   257
 75
     1
175
     1
 42
1.0
 92
       12
 66
     7
 43
1.0
 76
     1
 77
     6
 78
     2
 67
     7
 79
     5
170
     0
171
     0
290
     0
174
     0
 93
        1
 44
0.0
173
     0
291
     1
 45
0.0
1001
ACAD
1000
AcDbSavedByObjectVersion
1070
     0
  0
VISUALSTYLE
  5
30
102
{ACAD_REACTORS
330
2A
102
}
102
{ACAD_XDICTIONARY
360
2D9
102
}
330
2A
100
AcDbVisualStyle
  2
Wireframe
 70
     5
 71
     0
 72
     2
 73
     0
 90
        0
 40
0.6
 41
30.0
 62
     5
 63
     7
421
 16777215
 74
     1
 91
        4
 64
     7
 65
   257
 75
     1
175
     1
 42
1.0
 92
        0
 66
   257
 43
1.0
 76
     1
 77
     6
 78
     2
 67
     7
 79
     3
170
     0
171
     0
290
     0
174
     0
 93
        1
 44
0.0
173
     0
291
     0
 45
0.0
1001
ACAD
1000
AcDbSavedByObjectVersion
1070
     0
  0
VISUALSTYLE
  5
40
102
{ACAD_REACTORS
330
2A
102
}
102
{ACAD_XDICTIONARY
360
2F9
102
}
330
2A
100
AcDbVisualStyle
  2
X-Ray
 70
    25
 71
     2
 72
     2
 73
     1
 90
        1
 40
0.5
 41
30.0
 62
     5
 63
     7
421
 16777215
 74
     1
 91
        0
 64
     7
 65
   257
 75
     1
175
     1
 42
1.0
 92
        8
 66
     7
 43
1.0
 76
     1
 77
     6
 78
     2
 67
     7
 79
     3
170
     0
171
     0
290
     0
174
     0
 93
       13
 44
0.0
173
     0
291
     0
 45
0.0
1001
ACAD
1000
AcDbSavedByObjectVersion
1070
     0
  0
DICTIONARYVAR
  5
2CC
102
{ACAD_REACTORS
330
2CB
102
}
330
2CB
100
DictionaryVariables
280
     0
  1
1:1
  0
DICTIONARYVAR
  5
310
102
{ACAD_REACTORS
330
2CB
102
}
330
2CB
100
DictionaryVariables
280
     0
  1
3.500000
  0
DICTIONARYVAR
  5
311
102
{ACAD_REACTORS
330
2CB
102
}
330
2CB
100
DictionaryVariables
280
     0
  1
acadiso.lin
  0
DICTIONARYVAR
  5
30D
102
{ACAD_REACTORS
330
2CB
102
}
330
2CB
100
DictionaryVariables
280
     0
  1
Standard
  0
DICTIONARYVAR
  5
30C
102
{ACAD_REACTORS
330
2CB
102
}
330
2CB
100
DictionaryVariables
280
     0
  1
Standard
  0
DICTIONARYVAR
  5
2CD
102
{ACAD_REACTORS
330
2CB
102
}
330
2CB
100
DictionaryVariables
280
     0
  1
1
  0
DICTIONARYVAR
  5
2CE
102
{ACAD_REACTORS
330
2CB
102
}
330
2CB
100
DictionaryVariables
280
     0
  1
2
  0
DICTIONARY
  5
301
330
45
100
AcDbDictionary
280
     1
281
     1
  3
ACAD_XREC_ROUNDTRIP
360
302
  0
DICTIONARY
  5
2FF
330
44
100
AcDbDictionary
280
     1
281
     1
  3
ACAD_XREC_ROUNDTRIP
360
300
  0
DICTIONARY
  5
303
330
46
100
AcDbDictionary
280
     1
281
     1
  3
ACAD_XREC_ROUNDTRIP
360
304
  0
DICTIONARY
  5
309
330
6C
100
AcDbDictionary
280
     1
281
     1
  3
ACAD_XREC_ROUNDTRIP
360
30A
  0
DICTIONARY
  5
305
330
6A
100
AcDbDictionary
280
     1
281
     1
  3
ACAD_ROUNDTRIP_2008_TABLESTYLE_CELLSTYLEMAP
360
307
  3
ACAD_XREC_ROUNDTRIP
360
306
  0
DICTIONARY
  5
2D7
330
2F
100
AcDbDictionary
280
     1
281
     1
  3
ACAD_XREC_ROUNDTRIP
360
2D8
  0
DICTIONARY
  5
2DD
330
32
100
AcDbDictionary
280
     1
281
     1
  3
ACAD_XREC_ROUNDTRIP
360
2DE
  0
DICTIONARY
  5
2E5
330
36
100
AcDbDictionary
280
     1
281
     1
  3
ACAD_XREC_ROUNDTRIP
360
2E6
  0
DICTIONARY
  5
2ED
330
3A
100
AcDbDictionary
280
     1
281
     1
  3
ACAD_XREC_ROUNDTRIP
360
2EE
  0
DICTIONARY
  5
2E1
330
34
100
AcDbDictionary
280
     1
281
     1
  3
ACAD_XREC_ROUNDTRIP
360
2E2
  0
DICTIONARY
  5
2E3
330
35
100
AcDbDictionary
280
     1
281
     1
  3
ACAD_XREC_ROUNDTRIP
360
2E4
  0
DICTIONARY
  5
2F3
330
3D
100
AcDbDictionary
280
     1
281
     1
  3
ACAD_XREC_ROUNDTRIP
360
2F4
  0
DICTIONARY
  5
2EB
330
39
100
AcDbDictionary
280
     1
281
     1
  3
ACAD_XREC_ROUNDTRIP
360
2EC
  0
DICTIONARY
  5
2CF
330
2B
100
AcDbDictionary
280
     1
281
     1
  3
ACAD_XREC_ROUNDTRIP
360
2D0
  0
DICTIONARY
  5
2D1
330
2C
100
AcDbDictionary
280
     1
281
     1
  3
ACAD_XREC_ROUNDTRIP
360
2D2
  0
DICTIONARY
  5
2D3
330
2D
100
AcDbDictionary
280
     1
281
     1
  3
ACAD_XREC_ROUNDTRIP
360
2D4
  0
DICTIONARY
  5
2D5
330
2E
100
AcDbDictionary
280
     1
281
     1
  3
ACAD_XREC_ROUNDTRIP
360
2D6
  0
DICTIONARY
  5
2DB
330
31
100
AcDbDictionary
280
     1
281
     1
  3
ACAD_XREC_ROUNDTRIP
360
2DC
  0
DICTIONARY
  5
2EF
330
3B
100
AcDbDictionary
280
     1
281
     1
  3
ACAD_XREC_ROUNDTRIP
360
2F0
  0
DICTIONARY
  5
2E9
330
38
100
AcDbDictionary
280
     1
281
     1
  3
ACAD_XREC_ROUNDTRIP
360
2EA
  0
DICTIONARY
  5
2F1
330
3C
100
AcDbDictionary
280
     1
281
     1
  3
ACAD_XREC_ROUNDTRIP
360
2F2
  0
DICTIONARY
  5
2DF
330
33
100
AcDbDictionary
280
     1
281
     1
  3
ACAD_XREC_ROUNDTRIP
360
2E0
  0
DICTIONARY
  5
2FD
330
42
100
AcDbDictionary
280
     1
281
     1
  3
ACAD_XREC_ROUNDTRIP
360
2FE
  0
DICTIONARY
  5
2FB
330
41
100
AcDbDictionary
280
     1
281
     1
  3
ACAD_XREC_ROUNDTRIP
360
2FC
  0
DICTIONARY
  5
2F5
330
3E
100
AcDbDictionary
280
     1
281
     1
  3
ACAD_XREC_ROUNDTRIP
360
2F6
  0
DICTIONARY
  5
2F7
330
3F
100
AcDbDictionary
280
     1
281
     1
  3
ACAD_XREC_ROUNDTRIP
360
2F8
  0
DICTIONARY
  5
2E7
330
37
100
AcDbDictionary
280
     1
281
     1
  3
ACAD_XREC_ROUNDTRIP
360
2E8
  0
DICTIONARY
  5
2D9
330
30
100
AcDbDictionary
280
     1
281
     1
  3
ACAD_XREC_ROUNDTRIP
360
2DA
  0
DICTIONARY
  5
2F9
330
40
100
AcDbDictionary
280
     1
281
     1
  3
ACAD_XREC_ROUNDTRIP
360
2FA
  0
XRECORD
  5
302
102
{ACAD_REACTORS
330
301
102
}
330
301
100
AcDbXrecord
280
     1
102
MATERIAL
148
0.0
149
0.0
149
0.0
 93
        0
 94
      127
282
     0
 72
     1
 77
     1
171
     1
175
     1
179
     1
273
     0
  0
XRECORD
  5
300
102
{ACAD_REACTORS
330
2FF
102
}
330
2FF
100
AcDbXrecord
280
     1
102
MATERIAL
148
0.0
149
0.0
149
0.0
 93
        0
 94
      127
282
     0
 72
     1
 77
     1
171
     1
175
     1
179
     1
273
     0
  0
XRECORD
  5
304
102
{ACAD_REACTORS
330
303
102
}
330
303
100
AcDbXrecord
280
     1
102
MATERIAL
148
0.0
149
0.0
149
0.0
 93
        0
 94
      127
282
     0
 72
     1
 77
     1
171
     1
175
     1
179
     1
273
     0
  0
XRECORD
  5
30A
102
{ACAD_REACTORS
330
309
102
}
330
309
100
AcDbXrecord
280
     1
102
ACAD_ROUNDTRIP_2010_MLEADER_STYLE
  0
CELLSTYLEMAP
  5
307
102
{ACAD_REACTORS
330
305
102
}
330
305
100
AcDbCellStyleMap
 90
        3
300
CELLSTYLE
  1
TABLEFORMAT_BEGIN
 90
        5
170
     1
 91
        0
 92
    32768
 62
   257
 93
        1
300
CONTENTFORMAT
  1
CONTENTFORMAT_BEGIN
 90
        0
 91
        0
 92
        4
 93
        0
300

 40
0.0
140
1.0
 94
        5
 62
     0
340
11
144
6.0
309
CONTENTFORMAT_END
171
     1
301
MARGIN
  1
CELLMARGIN_BEGIN
 40
1.5
 40
1.5
 40
1.5
 40
1.5
 40
1.5
 40
1.5
309
CELLMARGIN_END
 94
        6
 95
        1
302
GRIDFORMAT
  1
GRIDFORMAT_BEGIN
 90
        0
 91
        1
 62
     0
 92
       -2
340
14
 93
        0
 40
0.045
309
GRIDFORMAT_END
 95
        2
302
GRIDFORMAT
  1
GRIDFORMAT_BEGIN
 90
        0
 91
        1
 62
     0
 92
       -2
340
14
 93
        0
 40
0.045
309
GRIDFORMAT_END
 95
        4
302
GRIDFORMAT
  1
GRIDFORMAT_BEGIN
 90
        0
 91
        1
 62
     0
 92
       -2
340
14
 93
        0
 40
0.045
309
GRIDFORMAT_END
 95
        8
302
GRIDFORMAT
  1
GRIDFORMAT_BEGIN
 90
        0
 91
        1
 62
     0
 92
       -2
340
14
 93
        0
 40
0.045
309
GRIDFORMAT_END
 95
       16
302
GRIDFORMAT
  1
GRIDFORMAT_BEGIN
 90
        0
 91
        1
 62
     0
 92
       -2
340
14
 93
        0
 40
0.045
309
GRIDFORMAT_END
 95
       32
302
GRIDFORMAT
  1
GRIDFORMAT_BEGIN
 90
        0
 91
        1
 62
     0
 92
       -2
340
14
 93
        0
 40
0.045
309
GRIDFORMAT_END
309
TABLEFORMAT_END
  1
CELLSTYLE_BEGIN
 90
        1
 91
        1
300
_TITLE
309
CELLSTYLE_END
300
CELLSTYLE
  1
TABLEFORMAT_BEGIN
 90
        5
170
     1
 91
        0
 92
        0
 62
   257
 93
        1
300
CONTENTFORMAT
  1
CONTENTFORMAT_BEGIN
 90
        0
 91
        0
 92
        4
 93
        0
300

 40
0.0
140
1.0
 94
        5
 62
     0
340
11
144
4.5
309
CONTENTFORMAT_END
171
     1
301
MARGIN
  1
CELLMARGIN_BEGIN
 40
1.5
 40
1.5
 40
1.5
 40
1.5
 40
1.5
 40
1.5
309
CELLMARGIN_END
 94
        6
 95
        1
302
GRIDFORMAT
  1
GRIDFORMAT_BEGIN
 90
        0
 91
        1
 62
     0
 92
       -2
340
14
 93
        0
 40
0.045
309
GRIDFORMAT_END
 95
        2
302
GRIDFORMAT
  1
GRIDFORMAT_BEGIN
 90
        0
 91
        1
 62
     0
 92
       -2
340
14
 93
        0
 40
0.045
309
GRIDFORMAT_END
 95
        4
302
GRIDFORMAT
  1
GRIDFORMAT_BEGIN
 90
        0
 91
        1
 62
     0
 92
       -2
340
14
 93
        0
 40
0.045
309
GRIDFORMAT_END
 95
        8
302
GRIDFORMAT
  1
GRIDFORMAT_BEGIN
 90
        0
 91
        1
 62
     0
 92
       -2
340
14
 93
        0
 40
0.045
309
GRIDFORMAT_END
 95
       16
302
GRIDFORMAT
  1
GRIDFORMAT_BEGIN
 90
        0
 91
        1
 62
     0
 92
       -2
340
14
 93
        0
 40
0.045
309
GRIDFORMAT_END
 95
       32
302
GRIDFORMAT
  1
GRIDFORMAT_BEGIN
 90
        0
 91
        1
 62
     0
 92
       -2
340
14
 93
        0
 40
0.045
309
GRIDFORMAT_END
309
TABLEFORMAT_END
  1
CELLSTYLE_BEGIN
 90
        2
 91
        1
300
_HEADER
309
CELLSTYLE_END
300
CELLSTYLE
  1
TABLEFORMAT_BEGIN
 90
        5
170
     1
 91
        0
 92
        0
 62
   257
 93
        1
300
CONTENTFORMAT
  1
CONTENTFORMAT_BEGIN
 90
        0
 91
        0
 92
        4
 93
        0
300

 40
0.0
140
1.0
 94
        2
 62
     0
340
11
144
4.5
309
CONTENTFORMAT_END
171
     1
301
MARGIN
  1
CELLMARGIN_BEGIN
 40
1.5
 40
1.5
 40
1.5
 40
1.5
 40
1.5
 40
1.5
309
CELLMARGIN_END
 94
        6
 95
        1
302
GRIDFORMAT
  1
GRIDFORMAT_BEGIN
 90
        0
 91
        1
 62
     0
 92
       -2
340
14
 93
        0
 40
0.045
309
GRIDFORMAT_END
 95
        2
302
GRIDFORMAT
  1
GRIDFORMAT_BEGIN
 90
        0
 91
        1
 62
     0
 92
       -2
340
14
 93
        0
 40
0.045
309
GRIDFORMAT_END
 95
        4
302
GRIDFORMAT
  1
GRIDFORMAT_BEGIN
 90
        0
 91
        1
 62
     0
 92
       -2
340
14
 93
        0
 40
0.045
309
GRIDFORMAT_END
 95
        8
302
GRIDFORMAT
  1
GRIDFORMAT_BEGIN
 90
        0
 91
        1
 62
     0
 92
       -2
340
14
 93
        0
 40
0.045
309
GRIDFORMAT_END
 95
       16
302
GRIDFORMAT
  1
GRIDFORMAT_BEGIN
 90
        0
 91
        1
 62
     0
 92
       -2
340
14
 93
        0
 40
0.045
309
GRIDFORMAT_END
 95
       32
302
GRIDFORMAT
  1
GRIDFORMAT_BEGIN
 90
        0
 91
        1
 62
     0
 92
       -2
340
14
 93
        0
 40
0.045
309
GRIDFORMAT_END
309
TABLEFORMAT_END
  1
CELLSTYLE_BEGIN
 90
        3
 91
        2
300
_DATA
309
CELLSTYLE_END
  0
XRECORD
  5
306
102
{ACAD_REACTORS
330
305
102
}
330
305
100
AcDbXrecord
280
     1
102
ACAD_ROUNDTRIP_PRE2007_TABLESTYLE
 90
        4
 91
        0
  1

 92
        4
 93
        0
  2

 94
        4
 95
        0
  3

  0
XRECORD
  5
2D8
102
{ACAD_REACTORS
330
2D7
102
}
330
2D7
100
AcDbXrecord
280
     1
102
RTVSPropertyOp0
 70
     1
102
RTVSPropertyOp1
 70
     1
102
RTVSPropertyOp2
 70
     1
102
RTVSPropertyOp3
 70
     1
102
RTVSPropertyOp4
 70
     1
102
RTVSPropertyOp5
 70
     1
102
RTVSPropertyOp6
 70
     1
102
RTVSPropertyOp7
 70
     1
102
RTVSPropertyOp8
 70
     1
102
RTVSPropertyOp9
 70
     1
102
RTVSPropertyOp10
 70
     1
102
RTVSPropertyOp11
 70
     1
102
RTVSPropertyOp12
 70
     1
102
RTVSPropertyOp13
 70
     1
102
RTVSPropertyOp14
 70
     1
102
RTVSPropertyOp15
 70
     1
102
RTVSPropertyOp16
 70
     1
102
RTVSPropertyOp17
 70
     1
102
RTVSPropertyOp18
 70
     1
102
RTVSPropertyOp19
 70
     1
102
RTVSPropertyOp20
 70
     1
102
RTVSPropertyOp21
 70
     1
102
RTVSPropertyOp22
 70
     1
102
RTVSPropertyOp23
 70
     1
102
RTVSPropertyOp24
 70
     1
102
RTVSPropertyOp25
 70
     1
102
RTVSPropertyOp26
 70
     1
102
RTVSPropertyOp27
 70
     1
102
RTVSPropertyOp28
 70
     1
102
RTVSPropertyOp29
 70
     1
102
RTVSPropertyOp30
 70
     1
102
RTVSPropertyOp31
 70
     1
102
RTVSPropertyOp32
 70
     1
102
RTVSPropertyOp33
 70
     1
102
RTVSPropertyOp34
 70
     1
102
RTVSPropertyOp35
 70
     1
102
RTVSPropertyOp36
 70
     1
102
RTVSPropertyOp37
 70
     1
102
RTVSPropertyOp38
 70
     1
102
RTVSPropertyOp39
 70
     1
102
RTVSPropertyOp40
 70
     1
102
RTVSPropertyOp41
 70
     1
102
RTVSPropertyOp42
 70
     1
102
RTVSPropertyOp43
 70
     1
102
RTVSPropertyOp44
 70
     1
102
RTVSPropertyOp45
 70
     1
102
RTVSPropertyOp46
 70
     1
102
RTVSPropertyOp47
 70
     1
102
RTVSPropertyOp48
 70
     1
102
RTVSPropertyOp49
 70
     1
102
RTVSPropertyOp50
 70
     1
102
RTVSPropertyOp51
 70
     0
102
RTVSPropertyOp52
 70
     0
102
RTVSPropertyOp53
 70
     1
102
RTVSPropertyOp54
 70
     1
102
RTVSPropertyOp55
 70
     1
102
RTVSPropertyOp56
 70
     1
102
RTVSPropertyOp57
 70
     1
102
RTVSPost2010Prop28
280
     1
102
RTVSPost2010PropOp28
 70
     1
102
RTVSPost2010Prop29
280
     1
102
RTVSPost2010PropOp29
 70
     1
102
RTVSPost2010Prop30
280
     0
102
RTVSPost2010PropOp30
 70
     1
102
RTVSPost2010Prop31
280
     0
102
RTVSPost2010PropOp31
 70
     1
102
RTVSPost2010Prop32
280
     0
102
RTVSPost2010PropOp32
 70
     1
102
RTVSPost2010Prop33
280
     0
102
RTVSPost2010PropOp33
 70
     1
102
RTVSPost2010Prop34
280
     0
102
RTVSPost2010PropOp34
 70
     1
102
RTVSPost2010Prop35
280
     0
102
RTVSPost2010PropOp35
 70
     1
102
RTVSPost2010Prop36
280
     0
102
RTVSPost2010PropOp36
 70
     1
102
RTVSPost2010Prop37
 90
       50
102
RTVSPost2010PropOp37
 70
     1
102
RTVSPost2010Prop38
140
0.0
102
RTVSPost2010PropOp38
 70
     1
102
RTVSPost2010Prop39
140
1.0
102
RTVSPost2010PropOp39
 70
     1
102
RTVSPost2010Prop40
 90
        0
102
RTVSPost2010PropOp40
 70
     1
102
RTVSPost2010Prop41ColorIndex
 90
       18
102
RTVSPost2010Prop41ColorRGB
 90
        0
102
RTVSPost2010PropOp41
 70
     1
102
RTVSPost2010Prop42
 90
       50
102
RTVSPost2010PropOp42
 70
     1
102
RTVSPost2010Prop43
 90
        3
102
RTVSPost2010PropOp43
 70
     1
102
RTVSPost2010Prop44ColorIndex
 90
        5
102
RTVSPost2010Prop44ColorRGB
 90
      255
102
RTVSPost2010PropOp44
 70
     1
102
RTVSPost2010Prop45
280
     0
102
RTVSPost2010PropOp45
 70
     1
102
RTVSPost2010Prop46
 90
       50
102
RTVSPost2010PropOp46
 70
     1
102
RTVSPost2010Prop47
 90
       50
102
RTVSPost2010PropOp47
 70
     1
102
RTVSPost2010Prop48
 90
       50
102
RTVSPost2010PropOp48
 70
     1
102
RTVSPost2010Prop49
280
     0
102
RTVSPost2010PropOp49
 70
     1
102
RTVSPost2010Prop50
 90
       50
102
RTVSPost2010PropOp50
 70
     1
102
RTVSPost2010Prop51ColorIndex
 90
      256
102
RTVSPost2010Prop51ColorRGB
 90
-16777216
102
RTVSPost2010PropOp51
 70
     0
102
RTVSPost2010Prop52
140
1.0
102
RTVSPost2010PropOp52
 70
     0
102
RTVSPost2010Prop53
 90
        2
102
RTVSPost2010PropOp53
 70
     1
102
RTVSPost2010Prop54
  1
strokes_ogs.tif
102
RTVSPost2010PropOp54
 70
     1
102
RTVSPost2010Prop55
280
     0
102
RTVSPost2010PropOp55
 70
     1
102
RTVSPost2010Prop56
140
1.0
102
RTVSPost2010PropOp56
 70
     1
102
RTVSPost2010Prop57
140
1.0
102
RTVSPost2010PropOp57
 70
     1
  0
XRECORD
  5
2DE
102
{ACAD_REACTORS
330
2DD
102
}
330
2DD
100
AcDbXrecord
280
     1
102
RTVSPropertyOp0
 70
     1
102
RTVSPropertyOp1
 70
     1
102
RTVSPropertyOp2
 70
     1
102
RTVSPropertyOp3
 70
     1
102
RTVSPropertyOp4
 70
     1
102
RTVSPropertyOp5
 70
     1
102
RTVSPropertyOp6
 70
     1
102
RTVSPropertyOp7
 70
     1
102
RTVSPropertyOp8
 70
     1
102
RTVSPropertyOp9
 70
     1
102
RTVSPropertyOp10
 70
     1
102
RTVSPropertyOp11
 70
     1
102
RTVSPropertyOp12
 70
     1
102
RTVSPropertyOp13
 70
     1
102
RTVSPropertyOp14
 70
     1
102
RTVSPropertyOp15
 70
     1
102
RTVSPropertyOp16
 70
     1
102
RTVSPropertyOp17
 70
     1
102
RTVSPropertyOp18
 70
     1
102
RTVSPropertyOp19
 70
     1
102
RTVSPropertyOp20
 70
     1
102
RTVSPropertyOp21
 70
     1
102
RTVSPropertyOp22
 70
     1
102
RTVSPropertyOp23
 70
     1
102
RTVSPropertyOp24
 70
     1
102
RTVSPropertyOp25
 70
     1
102
RTVSPropertyOp26
 70
     1
102
RTVSPropertyOp27
 70
     1
102
RTVSPropertyOp28
 70
     1
102
RTVSPropertyOp29
 70
     1
102
RTVSPropertyOp30
 70
     1
102
RTVSPropertyOp31
 70
     1
102
RTVSPropertyOp32
 70
     1
102
RTVSPropertyOp33
 70
     1
102
RTVSPropertyOp34
 70
     1
102
RTVSPropertyOp35
 70
     1
102
RTVSPropertyOp36
 70
     1
102
RTVSPropertyOp37
 70
     1
102
RTVSPropertyOp38
 70
     1
102
RTVSPropertyOp39
 70
     1
102
RTVSPropertyOp40
 70
     1
102
RTVSPropertyOp41
 70
     1
102
RTVSPropertyOp42
 70
     1
102
RTVSPropertyOp43
 70
     1
102
RTVSPropertyOp44
 70
     1
102
RTVSPropertyOp45
 70
     1
102
RTVSPropertyOp46
 70
     1
102
RTVSPropertyOp47
 70
     1
102
RTVSPropertyOp48
 70
     1
102
RTVSPropertyOp49
 70
     1
102
RTVSPropertyOp50
 70
     1
102
RTVSPropertyOp51
 70
     0
102
RTVSPropertyOp52
 70
     0
102
RTVSPropertyOp53
 70
     1
102
RTVSPropertyOp54
 70
     1
102
RTVSPropertyOp55
 70
     1
102
RTVSPropertyOp56
 70
     1
102
RTVSPropertyOp57
 70
     1
102
RTVSPost2010Prop28
280
     0
102
RTVSPost2010PropOp28
 70
     1
102
RTVSPost2010Prop29
280
     1
102
RTVSPost2010PropOp29
 70
     1
102
RTVSPost2010Prop30
280
     1
102
RTVSPost2010PropOp30
 70
     1
102
RTVSPost2010Prop31
280
     0
102
RTVSPost2010PropOp31
 70
     1
102
RTVSPost2010Prop32
280
     0
102
RTVSPost2010PropOp32
 70
     1
102
RTVSPost2010Prop33
280
     0
102
RTVSPost2010PropOp33
 70
     1
102
RTVSPost2010Prop34
280
     0
102
RTVSPost2010PropOp34
 70
     1
102
RTVSPost2010Prop35
280
     0
102
RTVSPost2010PropOp35
 70
     1
102
RTVSPost2010Prop36
280
     0
102
RTVSPost2010PropOp36
 70
     1
102
RTVSPost2010Prop37
 90
       50
102
RTVSPost2010PropOp37
 70
     1
102
RTVSPost2010Prop38
140
0.0
102
RTVSPost2010PropOp38
 70
     1
102
RTVSPost2010Prop39
140
1.0
102
RTVSPost2010PropOp39
 70
     1
102
RTVSPost2010Prop40
 90
        0
102
RTVSPost2010PropOp40
 70
     1
102
RTVSPost2010Prop41ColorIndex
 90
       18
102
RTVSPost2010Prop41ColorRGB
 90
        0
102
RTVSPost2010PropOp41
 70
     1
102
RTVSPost2010Prop42
 90
       50
102
RTVSPost2010PropOp42
 70
     1
102
RTVSPost2010Prop43
 90
        3
102
RTVSPost2010PropOp43
 70
     1
102
RTVSPost2010Prop44ColorIndex
 90
        5
102
RTVSPost2010Prop44ColorRGB
 90
      255
102
RTVSPost2010PropOp44
 70
     1
102
RTVSPost2010Prop45
280
     0
102
RTVSPost2010PropOp45
 70
     1
102
RTVSPost2010Prop46
 90
       50
102
RTVSPost2010PropOp46
 70
     1
102
RTVSPost2010Prop47
 90
       50
102
RTVSPost2010PropOp47
 70
     1
102
RTVSPost2010Prop48
 90
       50
102
RTVSPost2010PropOp48
 70
     1
102
RTVSPost2010Prop49
280
     0
102
RTVSPost2010PropOp49
 70
     1
102
RTVSPost2010Prop50
 90
       50
102
RTVSPost2010PropOp50
 70
     1
102
RTVSPost2010Prop51ColorIndex
 90
      256
102
RTVSPost2010Prop51ColorRGB
 90
-16777216
102
RTVSPost2010PropOp51
 70
     0
102
RTVSPost2010Prop52
140
1.0
102
RTVSPost2010PropOp52
 70
     0
102
RTVSPost2010Prop53
 90
        2
102
RTVSPost2010PropOp53
 70
     1
102
RTVSPost2010Prop54
  1
strokes_ogs.tif
102
RTVSPost2010PropOp54
 70
     1
102
RTVSPost2010Prop55
280
     0
102
RTVSPost2010PropOp55
 70
     1
102
RTVSPost2010Prop56
140
1.0
102
RTVSPost2010PropOp56
 70
     1
102
RTVSPost2010Prop57
140
1.0
102
RTVSPost2010PropOp57
 70
     1
  0
XRECORD
  5
2E6
102
{ACAD_REACTORS
330
2E5
102
}
330
2E5
100
AcDbXrecord
280
     1
102
RTVSPropertyOp0
 70
     1
102
RTVSPropertyOp1
 70
     1
102
RTVSPropertyOp2
 70
     1
102
RTVSPropertyOp3
 70
     1
102
RTVSPropertyOp4
 70
     1
102
RTVSPropertyOp5
 70
     1
102
RTVSPropertyOp6
 70
     1
102
RTVSPropertyOp7
 70
     1
102
RTVSPropertyOp8
 70
     1
102
RTVSPropertyOp9
 70
     1
102
RTVSPropertyOp10
 70
     1
102
RTVSPropertyOp11
 70
     1
102
RTVSPropertyOp12
 70
     1
102
RTVSPropertyOp13
 70
     1
102
RTVSPropertyOp14
 70
     1
102
RTVSPropertyOp15
 70
     1
102
RTVSPropertyOp16
 70
     1
102
RTVSPropertyOp17
 70
     1
102
RTVSPropertyOp18
 70
     1
102
RTVSPropertyOp19
 70
     1
102
RTVSPropertyOp20
 70
     1
102
RTVSPropertyOp21
 70
     1
102
RTVSPropertyOp22
 70
     1
102
RTVSPropertyOp23
 70
     1
102
RTVSPropertyOp24
 70
     1
102
RTVSPropertyOp25
 70
     1
102
RTVSPropertyOp26
 70
     1
102
RTVSPropertyOp27
 70
     1
102
RTVSPropertyOp28
 70
     1
102
RTVSPropertyOp29
 70
     1
102
RTVSPropertyOp30
 70
     1
102
RTVSPropertyOp31
 70
     1
102
RTVSPropertyOp32
 70
     1
102
RTVSPropertyOp33
 70
     1
102
RTVSPropertyOp34
 70
     1
102
RTVSPropertyOp35
 70
     1
102
RTVSPropertyOp36
 70
     1
102
RTVSPropertyOp37
 70
     1
102
RTVSPropertyOp38
 70
     1
102
RTVSPropertyOp39
 70
     1
102
RTVSPropertyOp40
 70
     1
102
RTVSPropertyOp41
 70
     1
102
RTVSPropertyOp42
 70
     1
102
RTVSPropertyOp43
 70
     1
102
RTVSPropertyOp44
 70
     1
102
RTVSPropertyOp45
 70
     1
102
RTVSPropertyOp46
 70
     1
102
RTVSPropertyOp47
 70
     1
102
RTVSPropertyOp48
 70
     1
102
RTVSPropertyOp49
 70
     1
102
RTVSPropertyOp50
 70
     1
102
RTVSPropertyOp51
 70
     0
102
RTVSPropertyOp52
 70
     0
102
RTVSPropertyOp53
 70
     1
102
RTVSPropertyOp54
 70
     1
102
RTVSPropertyOp55
 70
     1
102
RTVSPropertyOp56
 70
     1
102
RTVSPropertyOp57
 70
     1
102
RTVSPost2010Prop28
280
     0
102
RTVSPost2010PropOp28
 70
     1
102
RTVSPost2010Prop29
280
     1
102
RTVSPost2010PropOp29
 70
     1
102
RTVSPost2010Prop30
280
     1
102
RTVSPost2010PropOp30
 70
     1
102
RTVSPost2010Prop31
280
     0
102
RTVSPost2010PropOp31
 70
     1
102
RTVSPost2010Prop32
280
     0
102
RTVSPost2010PropOp32
 70
     1
102
RTVSPost2010Prop33
280
     0
102
RTVSPost2010PropOp33
 70
     1
102
RTVSPost2010Prop34
280
     0
102
RTVSPost2010PropOp34
 70
     1
102
RTVSPost2010Prop35
280
     0
102
RTVSPost2010PropOp35
 70
     1
102
RTVSPost2010Prop36
280
     0
102
RTVSPost2010PropOp36
 70
     1
102
RTVSPost2010Prop37
 90
       50
102
RTVSPost2010PropOp37
 70
     1
102
RTVSPost2010Prop38
140
0.0
102
RTVSPost2010PropOp38
 70
     1
102
RTVSPost2010Prop39
140
1.0
102
RTVSPost2010PropOp39
 70
     1
102
RTVSPost2010Prop40
 90
        0
102
RTVSPost2010PropOp40
 70
     1
102
RTVSPost2010Prop41ColorIndex
 90
       18
102
RTVSPost2010Prop41ColorRGB
 90
        0
102
RTVSPost2010PropOp41
 70
     1
102
RTVSPost2010Prop42
 90
       50
102
RTVSPost2010PropOp42
 70
     1
102
RTVSPost2010Prop43
 90
        3
102
RTVSPost2010PropOp43
 70
     1
102
RTVSPost2010Prop44ColorIndex
 90
        5
102
RTVSPost2010Prop44ColorRGB
 90
      255
102
RTVSPost2010PropOp44
 70
     1
102
RTVSPost2010Prop45
280
     0
102
RTVSPost2010PropOp45
 70
     1
102
RTVSPost2010Prop46
 90
       50
102
RTVSPost2010PropOp46
 70
     1
102
RTVSPost2010Prop47
 90
       50
102
RTVSPost2010PropOp47
 70
     1
102
RTVSPost2010Prop48
 90
       50
102
RTVSPost2010PropOp48
 70
     1
102
RTVSPost2010Prop49
280
     0
102
RTVSPost2010PropOp49
 70
     1
102
RTVSPost2010Prop50
 90
       50
102
RTVSPost2010PropOp50
 70
     1
102
RTVSPost2010Prop51ColorIndex
 90
      256
102
RTVSPost2010Prop51ColorRGB
 90
-16777216
102
RTVSPost2010PropOp51
 70
     0
102
RTVSPost2010Prop52
140
1.0
102
RTVSPost2010PropOp52
 70
     0
102
RTVSPost2010Prop53
 90
        2
102
RTVSPost2010PropOp53
 70
     1
102
RTVSPost2010Prop54
  1
strokes_ogs.tif
102
RTVSPost2010PropOp54
 70
     1
102
RTVSPost2010Prop55
280
     0
102
RTVSPost2010PropOp55
 70
     1
102
RTVSPost2010Prop56
140
1.0
102
RTVSPost2010PropOp56
 70
     1
102
RTVSPost2010Prop57
140
1.0
102
RTVSPost2010PropOp57
 70
     1
  0
XRECORD
  5
2EE
102
{ACAD_REACTORS
330
2ED
102
}
330
2ED
100
AcDbXrecord
280
     1
102
RTVSPropertyOp0
 70
     1
102
RTVSPropertyOp1
 70
     1
102
RTVSPropertyOp2
 70
     1
102
RTVSPropertyOp3
 70
     1
102
RTVSPropertyOp4
 70
     1
102
RTVSPropertyOp5
 70
     1
102
RTVSPropertyOp6
 70
     1
102
RTVSPropertyOp7
 70
     1
102
RTVSPropertyOp8
 70
     1
102
RTVSPropertyOp9
 70
     1
102
RTVSPropertyOp10
 70
     1
102
RTVSPropertyOp11
 70
     1
102
RTVSPropertyOp12
 70
     1
102
RTVSPropertyOp13
 70
     1
102
RTVSPropertyOp14
 70
     1
102
RTVSPropertyOp15
 70
     1
102
RTVSPropertyOp16
 70
     1
102
RTVSPropertyOp17
 70
     1
102
RTVSPropertyOp18
 70
     1
102
RTVSPropertyOp19
 70
     1
102
RTVSPropertyOp20
 70
     1
102
RTVSPropertyOp21
 70
     1
102
RTVSPropertyOp22
 70
     1
102
RTVSPropertyOp23
 70
     1
102
RTVSPropertyOp24
 70
     1
102
RTVSPropertyOp25
 70
     1
102
RTVSPropertyOp26
 70
     1
102
RTVSPropertyOp27
 70
     1
102
RTVSPropertyOp28
 70
     1
102
RTVSPropertyOp29
 70
     1
102
RTVSPropertyOp30
 70
     1
102
RTVSPropertyOp31
 70
     1
102
RTVSPropertyOp32
 70
     1
102
RTVSPropertyOp33
 70
     1
102
RTVSPropertyOp34
 70
     1
102
RTVSPropertyOp35
 70
     1
102
RTVSPropertyOp36
 70
     1
102
RTVSPropertyOp37
 70
     1
102
RTVSPropertyOp38
 70
     1
102
RTVSPropertyOp39
 70
     1
102
RTVSPropertyOp40
 70
     1
102
RTVSPropertyOp41
 70
     1
102
RTVSPropertyOp42
 70
     1
102
RTVSPropertyOp43
 70
     1
102
RTVSPropertyOp44
 70
     1
102
RTVSPropertyOp45
 70
     1
102
RTVSPropertyOp46
 70
     1
102
RTVSPropertyOp47
 70
     1
102
RTVSPropertyOp48
 70
     1
102
RTVSPropertyOp49
 70
     1
102
RTVSPropertyOp50
 70
     1
102
RTVSPropertyOp51
 70
     0
102
RTVSPropertyOp52
 70
     0
102
RTVSPropertyOp53
 70
     1
102
RTVSPropertyOp54
 70
     1
102
RTVSPropertyOp55
 70
     1
102
RTVSPropertyOp56
 70
     1
102
RTVSPropertyOp57
 70
     1
102
RTVSPost2010Prop28
280
     0
102
RTVSPost2010PropOp28
 70
     1
102
RTVSPost2010Prop29
280
     1
102
RTVSPost2010PropOp29
 70
     1
102
RTVSPost2010Prop30
280
     1
102
RTVSPost2010PropOp30
 70
     1
102
RTVSPost2010Prop31
280
     0
102
RTVSPost2010PropOp31
 70
     1
102
RTVSPost2010Prop32
280
     0
102
RTVSPost2010PropOp32
 70
     1
102
RTVSPost2010Prop33
280
     0
102
RTVSPost2010PropOp33
 70
     1
102
RTVSPost2010Prop34
280
     0
102
RTVSPost2010PropOp34
 70
     1
102
RTVSPost2010Prop35
280
     0
102
RTVSPost2010PropOp35
 70
     1
102
RTVSPost2010Prop36
280
     0
102
RTVSPost2010PropOp36
 70
     1
102
RTVSPost2010Prop37
 90
       50
102
RTVSPost2010PropOp37
 70
     1
102
RTVSPost2010Prop38
140
0.0
102
RTVSPost2010PropOp38
 70
     1
102
RTVSPost2010Prop39
140
1.0
102
RTVSPost2010PropOp39
 70
     1
102
RTVSPost2010Prop40
 90
        0
102
RTVSPost2010PropOp40
 70
     1
102
RTVSPost2010Prop41ColorIndex
 90
       18
102
RTVSPost2010Prop41ColorRGB
 90
        0
102
RTVSPost2010PropOp41
 70
     1
102
RTVSPost2010Prop42
 90
       50
102
RTVSPost2010PropOp42
 70
     1
102
RTVSPost2010Prop43
 90
        3
102
RTVSPost2010PropOp43
 70
     1
102
RTVSPost2010Prop44ColorIndex
 90
        5
102
RTVSPost2010Prop44ColorRGB
 90
      255
102
RTVSPost2010PropOp44
 70
     1
102
RTVSPost2010Prop45
280
     0
102
RTVSPost2010PropOp45
 70
     1
102
RTVSPost2010Prop46
 90
       50
102
RTVSPost2010PropOp46
 70
     1
102
RTVSPost2010Prop47
 90
       50
102
RTVSPost2010PropOp47
 70
     1
102
RTVSPost2010Prop48
 90
       50
102
RTVSPost2010PropOp48
 70
     1
102
RTVSPost2010Prop49
280
     0
102
RTVSPost2010PropOp49
 70
     1
102
RTVSPost2010Prop50
 90
       50
102
RTVSPost2010PropOp50
 70
     1
102
RTVSPost2010Prop51ColorIndex
 90
      256
102
RTVSPost2010Prop51ColorRGB
 90
-16777216
102
RTVSPost2010PropOp51
 70
     0
102
RTVSPost2010Prop52
140
1.0
102
RTVSPost2010PropOp52
 70
     0
102
RTVSPost2010Prop53
 90
        2
102
RTVSPost2010PropOp53
 70
     1
102
RTVSPost2010Prop54
  1
strokes_ogs.tif
102
RTVSPost2010PropOp54
 70
     1
102
RTVSPost2010Prop55
280
     0
102
RTVSPost2010PropOp55
 70
     1
102
RTVSPost2010Prop56
140
1.0
102
RTVSPost2010PropOp56
 70
     1
102
RTVSPost2010Prop57
140
1.0
102
RTVSPost2010PropOp57
 70
     1
  0
XRECORD
  5
2E2
102
{ACAD_REACTORS
330
2E1
102
}
330
2E1
100
AcDbXrecord
280
     1
102
RTVSPropertyOp0
 70
     1
102
RTVSPropertyOp1
 70
     1
102
RTVSPropertyOp2
 70
     1
102
RTVSPropertyOp3
 70
     1
102
RTVSPropertyOp4
 70
     1
102
RTVSPropertyOp5
 70
     1
102
RTVSPropertyOp6
 70
     1
102
RTVSPropertyOp7
 70
     1
102
RTVSPropertyOp8
 70
     1
102
RTVSPropertyOp9
 70
     1
102
RTVSPropertyOp10
 70
     1
102
RTVSPropertyOp11
 70
     1
102
RTVSPropertyOp12
 70
     1
102
RTVSPropertyOp13
 70
     1
102
RTVSPropertyOp14
 70
     1
102
RTVSPropertyOp15
 70
     1
102
RTVSPropertyOp16
 70
     1
102
RTVSPropertyOp17
 70
     1
102
RTVSPropertyOp18
 70
     1
102
RTVSPropertyOp19
 70
     1
102
RTVSPropertyOp20
 70
     1
102
RTVSPropertyOp21
 70
     1
102
RTVSPropertyOp22
 70
     1
102
RTVSPropertyOp23
 70
     1
102
RTVSPropertyOp24
 70
     1
102
RTVSPropertyOp25
 70
     1
102
RTVSPropertyOp26
 70
     1
102
RTVSPropertyOp27
 70
     1
102
RTVSPropertyOp28
 70
     1
102
RTVSPropertyOp29
 70
     1
102
RTVSPropertyOp30
 70
     1
102
RTVSPropertyOp31
 70
     1
102
RTVSPropertyOp32
 70
     1
102
RTVSPropertyOp33
 70
     1
102
RTVSPropertyOp34
 70
     1
102
RTVSPropertyOp35
 70
     1
102
RTVSPropertyOp36
 70
     1
102
RTVSPropertyOp37
 70
     1
102
RTVSPropertyOp38
 70
     1
102
RTVSPropertyOp39
 70
     1
102
RTVSPropertyOp40
 70
     1
102
RTVSPropertyOp41
 70
     1
102
RTVSPropertyOp42
 70
     1
102
RTVSPropertyOp43
 70
     1
102
RTVSPropertyOp44
 70
     1
102
RTVSPropertyOp45
 70
     1
102
RTVSPropertyOp46
 70
     1
102
RTVSPropertyOp47
 70
     1
102
RTVSPropertyOp48
 70
     1
102
RTVSPropertyOp49
 70
     1
102
RTVSPropertyOp50
 70
     1
102
RTVSPropertyOp51
 70
     0
102
RTVSPropertyOp52
 70
     0
102
RTVSPropertyOp53
 70
     1
102
RTVSPropertyOp54
 70
     1
102
RTVSPropertyOp55
 70
     1
102
RTVSPropertyOp56
 70
     1
102
RTVSPropertyOp57
 70
     1
102
RTVSPost2010Prop28
280
     0
102
RTVSPost2010PropOp28
 70
     1
102
RTVSPost2010Prop29
280
     1
102
RTVSPost2010PropOp29
 70
     1
102
RTVSPost2010Prop30
280
     1
102
RTVSPost2010PropOp30
 70
     1
102
RTVSPost2010Prop31
280
     0
102
RTVSPost2010PropOp31
 70
     1
102
RTVSPost2010Prop32
280
     0
102
RTVSPost2010PropOp32
 70
     1
102
RTVSPost2010Prop33
280
     0
102
RTVSPost2010PropOp33
 70
     1
102
RTVSPost2010Prop34
280
     0
102
RTVSPost2010PropOp34
 70
     1
102
RTVSPost2010Prop35
280
     0
102
RTVSPost2010PropOp35
 70
     1
102
RTVSPost2010Prop36
280
     0
102
RTVSPost2010PropOp36
 70
     1
102
RTVSPost2010Prop37
 90
       50
102
RTVSPost2010PropOp37
 70
     1
102
RTVSPost2010Prop38
140
0.0
102
RTVSPost2010PropOp38
 70
     1
102
RTVSPost2010Prop39
140
1.0
102
RTVSPost2010PropOp39
 70
     1
102
RTVSPost2010Prop40
 90
        0
102
RTVSPost2010PropOp40
 70
     1
102
RTVSPost2010Prop41ColorIndex
 90
       18
102
RTVSPost2010Prop41ColorRGB
 90
        0
102
RTVSPost2010PropOp41
 70
     1
102
RTVSPost2010Prop42
 90
       50
102
RTVSPost2010PropOp42
 70
     1
102
RTVSPost2010Prop43
 90
        3
102
RTVSPost2010PropOp43
 70
     1
102
RTVSPost2010Prop44ColorIndex
 90
        5
102
RTVSPost2010Prop44ColorRGB
 90
      255
102
RTVSPost2010PropOp44
 70
     1
102
RTVSPost2010Prop45
280
     0
102
RTVSPost2010PropOp45
 70
     1
102
RTVSPost2010Prop46
 90
       50
102
RTVSPost2010PropOp46
 70
     1
102
RTVSPost2010Prop47
 90
       50
102
RTVSPost2010PropOp47
 70
     1
102
RTVSPost2010Prop48
 90
       50
102
RTVSPost2010PropOp48
 70
     1
102
RTVSPost2010Prop49
280
     0
102
RTVSPost2010PropOp49
 70
     1
102
RTVSPost2010Prop50
 90
       50
102
RTVSPost2010PropOp50
 70
     1
102
RTVSPost2010Prop51ColorIndex
 90
      256
102
RTVSPost2010Prop51ColorRGB
 90
-16777216
102
RTVSPost2010PropOp51
 70
     0
102
RTVSPost2010Prop52
140
1.0
102
RTVSPost2010PropOp52
 70
     0
102
RTVSPost2010Prop53
 90
        2
102
RTVSPost2010PropOp53
 70
     1
102
RTVSPost2010Prop54
  1
strokes_ogs.tif
102
RTVSPost2010PropOp54
 70
     1
102
RTVSPost2010Prop55
280
     0
102
RTVSPost2010PropOp55
 70
     1
102
RTVSPost2010Prop56
140
1.0
102
RTVSPost2010PropOp56
 70
     1
102
RTVSPost2010Prop57
140
1.0
102
RTVSPost2010PropOp57
 70
     1
  0
XRECORD
  5
2E4
102
{ACAD_REACTORS
330
2E3
102
}
330
2E3
100
AcDbXrecord
280
     1
102
RTVSPropertyOp0
 70
     1
102
RTVSPropertyOp1
 70
     1
102
RTVSPropertyOp2
 70
     1
102
RTVSPropertyOp3
 70
     1
102
RTVSPropertyOp4
 70
     1
102
RTVSPropertyOp5
 70
     1
102
RTVSPropertyOp6
 70
     1
102
RTVSPropertyOp7
 70
     1
102
RTVSPropertyOp8
 70
     1
102
RTVSPropertyOp9
 70
     1
102
RTVSPropertyOp10
 70
     1
102
RTVSPropertyOp11
 70
     1
102
RTVSPropertyOp12
 70
     1
102
RTVSPropertyOp13
 70
     1
102
RTVSPropertyOp14
 70
     1
102
RTVSPropertyOp15
 70
     1
102
RTVSPropertyOp16
 70
     1
102
RTVSPropertyOp17
 70
     1
102
RTVSPropertyOp18
 70
     1
102
RTVSPropertyOp19
 70
     1
102
RTVSPropertyOp20
 70
     1
102
RTVSPropertyOp21
 70
     1
102
RTVSPropertyOp22
 70
     1
102
RTVSPropertyOp23
 70
     1
102
RTVSPropertyOp24
 70
     1
102
RTVSPropertyOp25
 70
     1
102
RTVSPropertyOp26
 70
     1
102
RTVSPropertyOp27
 70
     1
102
RTVSPropertyOp28
 70
     1
102
RTVSPropertyOp29
 70
     1
102
RTVSPropertyOp30
 70
     1
102
RTVSPropertyOp31
 70
     1
102
RTVSPropertyOp32
 70
     1
102
RTVSPropertyOp33
 70
     1
102
RTVSPropertyOp34
 70
     1
102
RTVSPropertyOp35
 70
     1
102
RTVSPropertyOp36
 70
     1
102
RTVSPropertyOp37
 70
     1
102
RTVSPropertyOp38
 70
     1
102
RTVSPropertyOp39
 70
     1
102
RTVSPropertyOp40
 70
     1
102
RTVSPropertyOp41
 70
     1
102
RTVSPropertyOp42
 70
     1
102
RTVSPropertyOp43
 70
     1
102
RTVSPropertyOp44
 70
     1
102
RTVSPropertyOp45
 70
     1
102
RTVSPropertyOp46
 70
     1
102
RTVSPropertyOp47
 70
     1
102
RTVSPropertyOp48
 70
     1
102
RTVSPropertyOp49
 70
     1
102
RTVSPropertyOp50
 70
     1
102
RTVSPropertyOp51
 70
     0
102
RTVSPropertyOp52
 70
     0
102
RTVSPropertyOp53
 70
     1
102
RTVSPropertyOp54
 70
     1
102
RTVSPropertyOp55
 70
     1
102
RTVSPropertyOp56
 70
     1
102
RTVSPropertyOp57
 70
     1
102
RTVSPost2010Prop28
280
     0
102
RTVSPost2010PropOp28
 70
     1
102
RTVSPost2010Prop29
280
     1
102
RTVSPost2010PropOp29
 70
     1
102
RTVSPost2010Prop30
280
     1
102
RTVSPost2010PropOp30
 70
     1
102
RTVSPost2010Prop31
280
     0
102
RTVSPost2010PropOp31
 70
     1
102
RTVSPost2010Prop32
280
     0
102
RTVSPost2010PropOp32
 70
     1
102
RTVSPost2010Prop33
280
     0
102
RTVSPost2010PropOp33
 70
     1
102
RTVSPost2010Prop34
280
     0
102
RTVSPost2010PropOp34
 70
     1
102
RTVSPost2010Prop35
280
     0
102
RTVSPost2010PropOp35
 70
     1
102
RTVSPost2010Prop36
280
     0
102
RTVSPost2010PropOp36
 70
     1
102
RTVSPost2010Prop37
 90
       50
102
RTVSPost2010PropOp37
 70
     1
102
RTVSPost2010Prop38
140
0.0
102
RTVSPost2010PropOp38
 70
     1
102
RTVSPost2010Prop39
140
1.0
102
RTVSPost2010PropOp39
 70
     1
102
RTVSPost2010Prop40
 90
        0
102
RTVSPost2010PropOp40
 70
     1
102
RTVSPost2010Prop41ColorIndex
 90
       18
102
RTVSPost2010Prop41ColorRGB
 90
        0
102
RTVSPost2010PropOp41
 70
     1
102
RTVSPost2010Prop42
 90
       50
102
RTVSPost2010PropOp42
 70
     1
102
RTVSPost2010Prop43
 90
        3
102
RTVSPost2010PropOp43
 70
     1
102
RTVSPost2010Prop44ColorIndex
 90
        5
102
RTVSPost2010Prop44ColorRGB
 90
      255
102
RTVSPost2010PropOp44
 70
     1
102
RTVSPost2010Prop45
280
     0
102
RTVSPost2010PropOp45
 70
     1
102
RTVSPost2010Prop46
 90
       50
102
RTVSPost2010PropOp46
 70
     1
102
RTVSPost2010Prop47
 90
       50
102
RTVSPost2010PropOp47
 70
     1
102
RTVSPost2010Prop48
 90
       50
102
RTVSPost2010PropOp48
 70
     1
102
RTVSPost2010Prop49
280
     0
102
RTVSPost2010PropOp49
 70
     1
102
RTVSPost2010Prop50
 90
       50
102
RTVSPost2010PropOp50
 70
     1
102
RTVSPost2010Prop51ColorIndex
 90
      256
102
RTVSPost2010Prop51ColorRGB
 90
-16777216
102
RTVSPost2010PropOp51
 70
     0
102
RTVSPost2010Prop52
140
1.0
102
RTVSPost2010PropOp52
 70
     0
102
RTVSPost2010Prop53
 90
        2
102
RTVSPost2010PropOp53
 70
     1
102
RTVSPost2010Prop54
  1
strokes_ogs.tif
102
RTVSPost2010PropOp54
 70
     1
102
RTVSPost2010Prop55
280
     0
102
RTVSPost2010PropOp55
 70
     1
102
RTVSPost2010Prop56
140
1.0
102
RTVSPost2010PropOp56
 70
     1
102
RTVSPost2010Prop57
140
1.0
102
RTVSPost2010PropOp57
 70
     1
  0
XRECORD
  5
2F4
102
{ACAD_REACTORS
330
2F3
102
}
330
2F3
100
AcDbXrecord
280
     1
102
RTVSPropertyOp0
 70
     0
102
RTVSPropertyOp1
 70
     0
102
RTVSPropertyOp2
 70
     0
102
RTVSPropertyOp3
 70
     0
102
RTVSPropertyOp4
 70
     0
102
RTVSPropertyOp5
 70
     0
102
RTVSPropertyOp6
 70
     0
102
RTVSPropertyOp7
 70
     0
102
RTVSPropertyOp8
 70
     0
102
RTVSPropertyOp9
 70
     0
102
RTVSPropertyOp10
 70
     0
102
RTVSPropertyOp11
 70
     0
102
RTVSPropertyOp12
 70
     0
102
RTVSPropertyOp13
 70
     0
102
RTVSPropertyOp14
 70
     2
102
RTVSPropertyOp15
 70
     0
102
RTVSPropertyOp16
 70
     0
102
RTVSPropertyOp17
 70
     0
102
RTVSPropertyOp18
 70
     0
102
RTVSPropertyOp19
 70
     0
102
RTVSPropertyOp20
 70
     0
102
RTVSPropertyOp21
 70
     0
102
RTVSPropertyOp22
 70
     0
102
RTVSPropertyOp23
 70
     0
102
RTVSPropertyOp24
 70
     0
102
RTVSPropertyOp25
 70
     0
102
RTVSPropertyOp26
 70
     0
102
RTVSPropertyOp27
 70
     0
102
RTVSPropertyOp28
 70
     0
102
RTVSPropertyOp29
 70
     0
102
RTVSPropertyOp30
 70
     0
102
RTVSPropertyOp31
 70
     0
102
RTVSPropertyOp32
 70
     0
102
RTVSPropertyOp33
 70
     0
102
RTVSPropertyOp34
 70
     0
102
RTVSPropertyOp35
 70
     0
102
RTVSPropertyOp36
 70
     0
102
RTVSPropertyOp37
 70
     0
102
RTVSPropertyOp38
 70
     0
102
RTVSPropertyOp39
 70
     0
102
RTVSPropertyOp40
 70
     0
102
RTVSPropertyOp41
 70
     0
102
RTVSPropertyOp42
 70
     0
102
RTVSPropertyOp43
 70
     0
102
RTVSPropertyOp44
 70
     0
102
RTVSPropertyOp45
 70
     0
102
RTVSPropertyOp46
 70
     0
102
RTVSPropertyOp47
 70
     0
102
RTVSPropertyOp48
 70
     0
102
RTVSPropertyOp49
 70
     0
102
RTVSPropertyOp50
 70
     0
102
RTVSPropertyOp51
 70
     0
102
RTVSPropertyOp52
 70
     0
102
RTVSPropertyOp53
 70
     0
102
RTVSPropertyOp54
 70
     0
102
RTVSPropertyOp55
 70
     0
102
RTVSPropertyOp56
 70
     0
102
RTVSPropertyOp57
 70
     0
102
RTVSPost2010Prop28
280
     0
102
RTVSPost2010PropOp28
 70
     0
102
RTVSPost2010Prop29
280
     1
102
RTVSPost2010PropOp29
 70
     0
102
RTVSPost2010Prop30
280
     1
102
RTVSPost2010PropOp30
 70
     0
102
RTVSPost2010Prop31
280
     0
102
RTVSPost2010PropOp31
 70
     0
102
RTVSPost2010Prop32
280
     0
102
RTVSPost2010PropOp32
 70
     0
102
RTVSPost2010Prop33
280
     0
102
RTVSPost2010PropOp33
 70
     0
102
RTVSPost2010Prop34
280
     0
102
RTVSPost2010PropOp34
 70
     0
102
RTVSPost2010Prop35
280
     0
102
RTVSPost2010PropOp35
 70
     0
102
RTVSPost2010Prop36
280
     0
102
RTVSPost2010PropOp36
 70
     0
102
RTVSPost2010Prop37
 90
       50
102
RTVSPost2010PropOp37
 70
     0
102
RTVSPost2010Prop38
140
0.0
102
RTVSPost2010PropOp38
 70
     0
102
RTVSPost2010Prop39
140
1.0
102
RTVSPost2010PropOp39
 70
     0
102
RTVSPost2010Prop40
 90
        0
102
RTVSPost2010PropOp40
 70
     0
102
RTVSPost2010Prop41ColorIndex
 90
       18
102
RTVSPost2010Prop41ColorRGB
 90
        0
102
RTVSPost2010PropOp41
 70
     0
102
RTVSPost2010Prop42
 90
       50
102
RTVSPost2010PropOp42
 70
     0
102
RTVSPost2010Prop43
 90
        3
102
RTVSPost2010PropOp43
 70
     0
102
RTVSPost2010Prop44ColorIndex
 90
        5
102
RTVSPost2010Prop44ColorRGB
 90
      255
102
RTVSPost2010PropOp44
 70
     0
102
RTVSPost2010Prop45
280
     0
102
RTVSPost2010PropOp45
 70
     0
102
RTVSPost2010Prop46
 90
       50
102
RTVSPost2010PropOp46
 70
     0
102
RTVSPost2010Prop47
 90
       50
102
RTVSPost2010PropOp47
 70
     0
102
RTVSPost2010Prop48
 90
       50
102
RTVSPost2010PropOp48
 70
     0
102
RTVSPost2010Prop49
280
     0
102
RTVSPost2010PropOp49
 70
     0
102
RTVSPost2010Prop50
 90
       50
102
RTVSPost2010PropOp50
 70
     0
102
RTVSPost2010Prop51ColorIndex
 90
      256
102
RTVSPost2010Prop51ColorRGB
 90
-16777216
102
RTVSPost2010PropOp51
 70
     0
102
RTVSPost2010Prop52
140
1.0
102
RTVSPost2010PropOp52
 70
     0
102
RTVSPost2010Prop53
 90
        2
102
RTVSPost2010PropOp53
 70
     0
102
RTVSPost2010Prop54
  1
strokes_ogs.tif
102
RTVSPost2010PropOp54
 70
     0
102
RTVSPost2010Prop55
280
     0
102
RTVSPost2010PropOp55
 70
     0
102
RTVSPost2010Prop56
140
1.0
102
RTVSPost2010PropOp56
 70
     0
102
RTVSPost2010Prop57
140
1.0
102
RTVSPost2010PropOp57
 70
     0
  0
XRECORD
  5
2EC
102
{ACAD_REACTORS
330
2EB
102
}
330
2EB
100
AcDbXrecord
280
     1
102
RTVSPropertyOp0
 70
     1
102
RTVSPropertyOp1
 70
     1
102
RTVSPropertyOp2
 70
     1
102
RTVSPropertyOp3
 70
     1
102
RTVSPropertyOp4
 70
     1
102
RTVSPropertyOp5
 70
     1
102
RTVSPropertyOp6
 70
     1
102
RTVSPropertyOp7
 70
     1
102
RTVSPropertyOp8
 70
     1
102
RTVSPropertyOp9
 70
     1
102
RTVSPropertyOp10
 70
     1
102
RTVSPropertyOp11
 70
     1
102
RTVSPropertyOp12
 70
     1
102
RTVSPropertyOp13
 70
     1
102
RTVSPropertyOp14
 70
     1
102
RTVSPropertyOp15
 70
     1
102
RTVSPropertyOp16
 70
     1
102
RTVSPropertyOp17
 70
     1
102
RTVSPropertyOp18
 70
     1
102
RTVSPropertyOp19
 70
     1
102
RTVSPropertyOp20
 70
     1
102
RTVSPropertyOp21
 70
     1
102
RTVSPropertyOp22
 70
     1
102
RTVSPropertyOp23
 70
     1
102
RTVSPropertyOp24
 70
     1
102
RTVSPropertyOp25
 70
     1
102
RTVSPropertyOp26
 70
     1
102
RTVSPropertyOp27
 70
     1
102
RTVSPropertyOp28
 70
     1
102
RTVSPropertyOp29
 70
     1
102
RTVSPropertyOp30
 70
     1
102
RTVSPropertyOp31
 70
     1
102
RTVSPropertyOp32
 70
     1
102
RTVSPropertyOp33
 70
     1
102
RTVSPropertyOp34
 70
     1
102
RTVSPropertyOp35
 70
     1
102
RTVSPropertyOp36
 70
     1
102
RTVSPropertyOp37
 70
     1
102
RTVSPropertyOp38
 70
     1
102
RTVSPropertyOp39
 70
     1
102
RTVSPropertyOp40
 70
     1
102
RTVSPropertyOp41
 70
     1
102
RTVSPropertyOp42
 70
     1
102
RTVSPropertyOp43
 70
     1
102
RTVSPropertyOp44
 70
     1
102
RTVSPropertyOp45
 70
     1
102
RTVSPropertyOp46
 70
     1
102
RTVSPropertyOp47
 70
     1
102
RTVSPropertyOp48
 70
     1
102
RTVSPropertyOp49
 70
     1
102
RTVSPropertyOp50
 70
     1
102
RTVSPropertyOp51
 70
     0
102
RTVSPropertyOp52
 70
     0
102
RTVSPropertyOp53
 70
     1
102
RTVSPropertyOp54
 70
     1
102
RTVSPropertyOp55
 70
     1
102
RTVSPropertyOp56
 70
     1
102
RTVSPropertyOp57
 70
     1
102
RTVSPost2010Prop28
280
     0
102
RTVSPost2010PropOp28
 70
     1
102
RTVSPost2010Prop29
280
     1
102
RTVSPost2010PropOp29
 70
     1
102
RTVSPost2010Prop30
280
     1
102
RTVSPost2010PropOp30
 70
     1
102
RTVSPost2010Prop31
280
     0
102
RTVSPost2010PropOp31
 70
     1
102
RTVSPost2010Prop32
280
     0
102
RTVSPost2010PropOp32
 70
     1
102
RTVSPost2010Prop33
280
     0
102
RTVSPost2010PropOp33
 70
     1
102
RTVSPost2010Prop34
280
     0
102
RTVSPost2010PropOp34
 70
     1
102
RTVSPost2010Prop35
280
     0
102
RTVSPost2010PropOp35
 70
     1
102
RTVSPost2010Prop36
280
     0
102
RTVSPost2010PropOp36
 70
     1
102
RTVSPost2010Prop37
 90
       50
102
RTVSPost2010PropOp37
 70
     1
102
RTVSPost2010Prop38
140
0.0
102
RTVSPost2010PropOp38
 70
     1
102
RTVSPost2010Prop39
140
1.0
102
RTVSPost2010PropOp39
 70
     1
102
RTVSPost2010Prop40
 90
        0
102
RTVSPost2010PropOp40
 70
     1
102
RTVSPost2010Prop41ColorIndex
 90
       18
102
RTVSPost2010Prop41ColorRGB
 90
        0
102
RTVSPost2010PropOp41
 70
     1
102
RTVSPost2010Prop42
 90
       50
102
RTVSPost2010PropOp42
 70
     1
102
RTVSPost2010Prop43
 90
        3
102
RTVSPost2010PropOp43
 70
     1
102
RTVSPost2010Prop44ColorIndex
 90
        5
102
RTVSPost2010Prop44ColorRGB
 90
      255
102
RTVSPost2010PropOp44
 70
     1
102
RTVSPost2010Prop45
280
     0
102
RTVSPost2010PropOp45
 70
     1
102
RTVSPost2010Prop46
 90
       50
102
RTVSPost2010PropOp46
 70
     1
102
RTVSPost2010Prop47
 90
       50
102
RTVSPost2010PropOp47
 70
     1
102
RTVSPost2010Prop48
 90
       50
102
RTVSPost2010PropOp48
 70
     1
102
RTVSPost2010Prop49
280
     0
102
RTVSPost2010PropOp49
 70
     1
102
RTVSPost2010Prop50
 90
       50
102
RTVSPost2010PropOp50
 70
     1
102
RTVSPost2010Prop51ColorIndex
 90
      256
102
RTVSPost2010Prop51ColorRGB
 90
-16777216
102
RTVSPost2010PropOp51
 70
     0
102
RTVSPost2010Prop52
140
1.0
102
RTVSPost2010PropOp52
 70
     0
102
RTVSPost2010Prop53
 90
        2
102
RTVSPost2010PropOp53
 70
     1
102
RTVSPost2010Prop54
  1
strokes_ogs.tif
102
RTVSPost2010PropOp54
 70
     1
102
RTVSPost2010Prop55
280
     0
102
RTVSPost2010PropOp55
 70
     1
102
RTVSPost2010Prop56
140
1.0
102
RTVSPost2010PropOp56
 70
     1
102
RTVSPost2010Prop57
140
1.0
102
RTVSPost2010PropOp57
 70
     1
  0
XRECORD
  5
2D0
102
{ACAD_REACTORS
330
2CF
102
}
330
2CF
100
AcDbXrecord
280
     1
102
RTVSPropertyOp0
 70
     1
102
RTVSPropertyOp1
 70
     1
102
RTVSPropertyOp2
 70
     1
102
RTVSPropertyOp3
 70
     1
102
RTVSPropertyOp4
 70
     1
102
RTVSPropertyOp5
 70
     1
102
RTVSPropertyOp6
 70
     1
102
RTVSPropertyOp7
 70
     1
102
RTVSPropertyOp8
 70
     1
102
RTVSPropertyOp9
 70
     1
102
RTVSPropertyOp10
 70
     1
102
RTVSPropertyOp11
 70
     1
102
RTVSPropertyOp12
 70
     1
102
RTVSPropertyOp13
 70
     1
102
RTVSPropertyOp14
 70
     1
102
RTVSPropertyOp15
 70
     1
102
RTVSPropertyOp16
 70
     1
102
RTVSPropertyOp17
 70
     1
102
RTVSPropertyOp18
 70
     1
102
RTVSPropertyOp19
 70
     1
102
RTVSPropertyOp20
 70
     1
102
RTVSPropertyOp21
 70
     1
102
RTVSPropertyOp22
 70
     1
102
RTVSPropertyOp23
 70
     1
102
RTVSPropertyOp24
 70
     1
102
RTVSPropertyOp25
 70
     1
102
RTVSPropertyOp26
 70
     1
102
RTVSPropertyOp27
 70
     1
102
RTVSPropertyOp28
 70
     1
102
RTVSPropertyOp29
 70
     1
102
RTVSPropertyOp30
 70
     1
102
RTVSPropertyOp31
 70
     1
102
RTVSPropertyOp32
 70
     1
102
RTVSPropertyOp33
 70
     1
102
RTVSPropertyOp34
 70
     1
102
RTVSPropertyOp35
 70
     1
102
RTVSPropertyOp36
 70
     1
102
RTVSPropertyOp37
 70
     1
102
RTVSPropertyOp38
 70
     1
102
RTVSPropertyOp39
 70
     1
102
RTVSPropertyOp40
 70
     1
102
RTVSPropertyOp41
 70
     1
102
RTVSPropertyOp42
 70
     1
102
RTVSPropertyOp43
 70
     1
102
RTVSPropertyOp44
 70
     1
102
RTVSPropertyOp45
 70
     1
102
RTVSPropertyOp46
 70
     1
102
RTVSPropertyOp47
 70
     1
102
RTVSPropertyOp48
 70
     1
102
RTVSPropertyOp49
 70
     1
102
RTVSPropertyOp50
 70
     1
102
RTVSPropertyOp51
 70
     0
102
RTVSPropertyOp52
 70
     0
102
RTVSPropertyOp53
 70
     1
102
RTVSPropertyOp54
 70
     1
102
RTVSPropertyOp55
 70
     1
102
RTVSPropertyOp56
 70
     1
102
RTVSPropertyOp57
 70
     1
102
RTVSPost2010Prop28
280
     0
102
RTVSPost2010PropOp28
 70
     1
102
RTVSPost2010Prop29
280
     1
102
RTVSPost2010PropOp29
 70
     1
102
RTVSPost2010Prop30
280
     1
102
RTVSPost2010PropOp30
 70
     1
102
RTVSPost2010Prop31
280
     0
102
RTVSPost2010PropOp31
 70
     1
102
RTVSPost2010Prop32
280
     0
102
RTVSPost2010PropOp32
 70
     1
102
RTVSPost2010Prop33
280
     0
102
RTVSPost2010PropOp33
 70
     1
102
RTVSPost2010Prop34
280
     0
102
RTVSPost2010PropOp34
 70
     1
102
RTVSPost2010Prop35
280
     0
102
RTVSPost2010PropOp35
 70
     1
102
RTVSPost2010Prop36
280
     0
102
RTVSPost2010PropOp36
 70
     1
102
RTVSPost2010Prop37
 90
       50
102
RTVSPost2010PropOp37
 70
     1
102
RTVSPost2010Prop38
140
0.0
102
RTVSPost2010PropOp38
 70
     1
102
RTVSPost2010Prop39
140
1.0
102
RTVSPost2010PropOp39
 70
     1
102
RTVSPost2010Prop40
 90
        0
102
RTVSPost2010PropOp40
 70
     1
102
RTVSPost2010Prop41ColorIndex
 90
       18
102
RTVSPost2010Prop41ColorRGB
 90
        0
102
RTVSPost2010PropOp41
 70
     1
102
RTVSPost2010Prop42
 90
       50
102
RTVSPost2010PropOp42
 70
     1
102
RTVSPost2010Prop43
 90
        3
102
RTVSPost2010PropOp43
 70
     1
102
RTVSPost2010Prop44ColorIndex
 90
        5
102
RTVSPost2010Prop44ColorRGB
 90
      255
102
RTVSPost2010PropOp44
 70
     1
102
RTVSPost2010Prop45
280
     0
102
RTVSPost2010PropOp45
 70
     1
102
RTVSPost2010Prop46
 90
       50
102
RTVSPost2010PropOp46
 70
     1
102
RTVSPost2010Prop47
 90
       50
102
RTVSPost2010PropOp47
 70
     1
102
RTVSPost2010Prop48
 90
       50
102
RTVSPost2010PropOp48
 70
     1
102
RTVSPost2010Prop49
280
     0
102
RTVSPost2010PropOp49
 70
     1
102
RTVSPost2010Prop50
 90
       50
102
RTVSPost2010PropOp50
 70
     1
102
RTVSPost2010Prop51ColorIndex
 90
      256
102
RTVSPost2010Prop51ColorRGB
 90
-16777216
102
RTVSPost2010PropOp51
 70
     0
102
RTVSPost2010Prop52
140
1.0
102
RTVSPost2010PropOp52
 70
     0
102
RTVSPost2010Prop53
 90
        2
102
RTVSPost2010PropOp53
 70
     1
102
RTVSPost2010Prop54
  1
strokes_ogs.tif
102
RTVSPost2010PropOp54
 70
     1
102
RTVSPost2010Prop55
280
     0
102
RTVSPost2010PropOp55
 70
     1
102
RTVSPost2010Prop56
140
1.0
102
RTVSPost2010PropOp56
 70
     1
102
RTVSPost2010Prop57
140
1.0
102
RTVSPost2010PropOp57
 70
     1
  0
XRECORD
  5
2D2
102
{ACAD_REACTORS
330
2D1
102
}
330
2D1
100
AcDbXrecord
280
     1
102
RTVSPropertyOp0
 70
     1
102
RTVSPropertyOp1
 70
     1
102
RTVSPropertyOp2
 70
     1
102
RTVSPropertyOp3
 70
     1
102
RTVSPropertyOp4
 70
     1
102
RTVSPropertyOp5
 70
     1
102
RTVSPropertyOp6
 70
     1
102
RTVSPropertyOp7
 70
     1
102
RTVSPropertyOp8
 70
     1
102
RTVSPropertyOp9
 70
     1
102
RTVSPropertyOp10
 70
     1
102
RTVSPropertyOp11
 70
     1
102
RTVSPropertyOp12
 70
     1
102
RTVSPropertyOp13
 70
     1
102
RTVSPropertyOp14
 70
     1
102
RTVSPropertyOp15
 70
     1
102
RTVSPropertyOp16
 70
     1
102
RTVSPropertyOp17
 70
     1
102
RTVSPropertyOp18
 70
     1
102
RTVSPropertyOp19
 70
     1
102
RTVSPropertyOp20
 70
     1
102
RTVSPropertyOp21
 70
     1
102
RTVSPropertyOp22
 70
     1
102
RTVSPropertyOp23
 70
     1
102
RTVSPropertyOp24
 70
     1
102
RTVSPropertyOp25
 70
     1
102
RTVSPropertyOp26
 70
     1
102
RTVSPropertyOp27
 70
     1
102
RTVSPropertyOp28
 70
     1
102
RTVSPropertyOp29
 70
     1
102
RTVSPropertyOp30
 70
     1
102
RTVSPropertyOp31
 70
     1
102
RTVSPropertyOp32
 70
     1
102
RTVSPropertyOp33
 70
     1
102
RTVSPropertyOp34
 70
     1
102
RTVSPropertyOp35
 70
     1
102
RTVSPropertyOp36
 70
     1
102
RTVSPropertyOp37
 70
     1
102
RTVSPropertyOp38
 70
     1
102
RTVSPropertyOp39
 70
     1
102
RTVSPropertyOp40
 70
     1
102
RTVSPropertyOp41
 70
     1
102
RTVSPropertyOp42
 70
     1
102
RTVSPropertyOp43
 70
     1
102
RTVSPropertyOp44
 70
     1
102
RTVSPropertyOp45
 70
     1
102
RTVSPropertyOp46
 70
     1
102
RTVSPropertyOp47
 70
     1
102
RTVSPropertyOp48
 70
     1
102
RTVSPropertyOp49
 70
     1
102
RTVSPropertyOp50
 70
     1
102
RTVSPropertyOp51
 70
     0
102
RTVSPropertyOp52
 70
     0
102
RTVSPropertyOp53
 70
     1
102
RTVSPropertyOp54
 70
     1
102
RTVSPropertyOp55
 70
     1
102
RTVSPropertyOp56
 70
     1
102
RTVSPropertyOp57
 70
     1
102
RTVSPost2010Prop28
280
     0
102
RTVSPost2010PropOp28
 70
     1
102
RTVSPost2010Prop29
280
     1
102
RTVSPost2010PropOp29
 70
     1
102
RTVSPost2010Prop30
280
     1
102
RTVSPost2010PropOp30
 70
     1
102
RTVSPost2010Prop31
280
     0
102
RTVSPost2010PropOp31
 70
     1
102
RTVSPost2010Prop32
280
     0
102
RTVSPost2010PropOp32
 70
     1
102
RTVSPost2010Prop33
280
     0
102
RTVSPost2010PropOp33
 70
     1
102
RTVSPost2010Prop34
280
     0
102
RTVSPost2010PropOp34
 70
     1
102
RTVSPost2010Prop35
280
     0
102
RTVSPost2010PropOp35
 70
     1
102
RTVSPost2010Prop36
280
     0
102
RTVSPost2010PropOp36
 70
     1
102
RTVSPost2010Prop37
 90
       50
102
RTVSPost2010PropOp37
 70
     1
102
RTVSPost2010Prop38
140
0.0
102
RTVSPost2010PropOp38
 70
     1
102
RTVSPost2010Prop39
140
1.0
102
RTVSPost2010PropOp39
 70
     1
102
RTVSPost2010Prop40
 90
        0
102
RTVSPost2010PropOp40
 70
     1
102
RTVSPost2010Prop41ColorIndex
 90
       18
102
RTVSPost2010Prop41ColorRGB
 90
        0
102
RTVSPost2010PropOp41
 70
     1
102
RTVSPost2010Prop42
 90
       50
102
RTVSPost2010PropOp42
 70
     1
102
RTVSPost2010Prop43
 90
        3
102
RTVSPost2010PropOp43
 70
     1
102
RTVSPost2010Prop44ColorIndex
 90
        5
102
RTVSPost2010Prop44ColorRGB
 90
      255
102
RTVSPost2010PropOp44
 70
     1
102
RTVSPost2010Prop45
280
     0
102
RTVSPost2010PropOp45
 70
     1
102
RTVSPost2010Prop46
 90
       50
102
RTVSPost2010PropOp46
 70
     1
102
RTVSPost2010Prop47
 90
       50
102
RTVSPost2010PropOp47
 70
     1
102
RTVSPost2010Prop48
 90
       50
102
RTVSPost2010PropOp48
 70
     1
102
RTVSPost2010Prop49
280
     0
102
RTVSPost2010PropOp49
 70
     1
102
RTVSPost2010Prop50
 90
       50
102
RTVSPost2010PropOp50
 70
     1
102
RTVSPost2010Prop51ColorIndex
 90
      256
102
RTVSPost2010Prop51ColorRGB
 90
-16777216
102
RTVSPost2010PropOp51
 70
     0
102
RTVSPost2010Prop52
140
1.0
102
RTVSPost2010PropOp52
 70
     0
102
RTVSPost2010Prop53
 90
        2
102
RTVSPost2010PropOp53
 70
     1
102
RTVSPost2010Prop54
  1
strokes_ogs.tif
102
RTVSPost2010PropOp54
 70
     1
102
RTVSPost2010Prop55
280
     0
102
RTVSPost2010PropOp55
 70
     1
102
RTVSPost2010Prop56
140
1.0
102
RTVSPost2010PropOp56
 70
     1
102
RTVSPost2010Prop57
140
1.0
102
RTVSPost2010PropOp57
 70
     1
  0
XRECORD
  5
2D4
102
{ACAD_REACTORS
330
2D3
102
}
330
2D3
100
AcDbXrecord
280
     1
102
RTVSPropertyOp0
 70
     1
102
RTVSPropertyOp1
 70
     1
102
RTVSPropertyOp2
 70
     1
102
RTVSPropertyOp3
 70
     1
102
RTVSPropertyOp4
 70
     1
102
RTVSPropertyOp5
 70
     1
102
RTVSPropertyOp6
 70
     1
102
RTVSPropertyOp7
 70
     1
102
RTVSPropertyOp8
 70
     1
102
RTVSPropertyOp9
 70
     1
102
RTVSPropertyOp10
 70
     1
102
RTVSPropertyOp11
 70
     1
102
RTVSPropertyOp12
 70
     1
102
RTVSPropertyOp13
 70
     1
102
RTVSPropertyOp14
 70
     1
102
RTVSPropertyOp15
 70
     1
102
RTVSPropertyOp16
 70
     1
102
RTVSPropertyOp17
 70
     1
102
RTVSPropertyOp18
 70
     1
102
RTVSPropertyOp19
 70
     1
102
RTVSPropertyOp20
 70
     1
102
RTVSPropertyOp21
 70
     1
102
RTVSPropertyOp22
 70
     1
102
RTVSPropertyOp23
 70
     1
102
RTVSPropertyOp24
 70
     1
102
RTVSPropertyOp25
 70
     1
102
RTVSPropertyOp26
 70
     1
102
RTVSPropertyOp27
 70
     1
102
RTVSPropertyOp28
 70
     1
102
RTVSPropertyOp29
 70
     1
102
RTVSPropertyOp30
 70
     1
102
RTVSPropertyOp31
 70
     1
102
RTVSPropertyOp32
 70
     1
102
RTVSPropertyOp33
 70
     1
102
RTVSPropertyOp34
 70
     1
102
RTVSPropertyOp35
 70
     1
102
RTVSPropertyOp36
 70
     1
102
RTVSPropertyOp37
 70
     1
102
RTVSPropertyOp38
 70
     1
102
RTVSPropertyOp39
 70
     1
102
RTVSPropertyOp40
 70
     1
102
RTVSPropertyOp41
 70
     1
102
RTVSPropertyOp42
 70
     1
102
RTVSPropertyOp43
 70
     1
102
RTVSPropertyOp44
 70
     1
102
RTVSPropertyOp45
 70
     1
102
RTVSPropertyOp46
 70
     1
102
RTVSPropertyOp47
 70
     1
102
RTVSPropertyOp48
 70
     1
102
RTVSPropertyOp49
 70
     1
102
RTVSPropertyOp50
 70
     1
102
RTVSPropertyOp51
 70
     0
102
RTVSPropertyOp52
 70
     0
102
RTVSPropertyOp53
 70
     1
102
RTVSPropertyOp54
 70
     1
102
RTVSPropertyOp55
 70
     1
102
RTVSPropertyOp56
 70
     1
102
RTVSPropertyOp57
 70
     1
102
RTVSPost2010Prop28
280
     0
102
RTVSPost2010PropOp28
 70
     1
102
RTVSPost2010Prop29
280
     1
102
RTVSPost2010PropOp29
 70
     1
102
RTVSPost2010Prop30
280
     1
102
RTVSPost2010PropOp30
 70
     1
102
RTVSPost2010Prop31
280
     0
102
RTVSPost2010PropOp31
 70
     1
102
RTVSPost2010Prop32
280
     0
102
RTVSPost2010PropOp32
 70
     1
102
RTVSPost2010Prop33
280
     0
102
RTVSPost2010PropOp33
 70
     1
102
RTVSPost2010Prop34
280
     0
102
RTVSPost2010PropOp34
 70
     1
102
RTVSPost2010Prop35
280
     0
102
RTVSPost2010PropOp35
 70
     1
102
RTVSPost2010Prop36
280
     0
102
RTVSPost2010PropOp36
 70
     1
102
RTVSPost2010Prop37
 90
       50
102
RTVSPost2010PropOp37
 70
     1
102
RTVSPost2010Prop38
140
0.0
102
RTVSPost2010PropOp38
 70
     1
102
RTVSPost2010Prop39
140
1.0
102
RTVSPost2010PropOp39
 70
     1
102
RTVSPost2010Prop40
 90
        0
102
RTVSPost2010PropOp40
 70
     1
102
RTVSPost2010Prop41ColorIndex
 90
       18
102
RTVSPost2010Prop41ColorRGB
 90
        0
102
RTVSPost2010PropOp41
 70
     1
102
RTVSPost2010Prop42
 90
       50
102
RTVSPost2010PropOp42
 70
     1
102
RTVSPost2010Prop43
 90
        3
102
RTVSPost2010PropOp43
 70
     1
102
RTVSPost2010Prop44ColorIndex
 90
        5
102
RTVSPost2010Prop44ColorRGB
 90
      255
102
RTVSPost2010PropOp44
 70
     1
102
RTVSPost2010Prop45
280
     0
102
RTVSPost2010PropOp45
 70
     1
102
RTVSPost2010Prop46
 90
       50
102
RTVSPost2010PropOp46
 70
     1
102
RTVSPost2010Prop47
 90
       50
102
RTVSPost2010PropOp47
 70
     1
102
RTVSPost2010Prop48
 90
       50
102
RTVSPost2010PropOp48
 70
     1
102
RTVSPost2010Prop49
280
     0
102
RTVSPost2010PropOp49
 70
     1
102
RTVSPost2010Prop50
 90
       50
102
RTVSPost2010PropOp50
 70
     1
102
RTVSPost2010Prop51ColorIndex
 90
      256
102
RTVSPost2010Prop51ColorRGB
 90
-16777216
102
RTVSPost2010PropOp51
 70
     0
102
RTVSPost2010Prop52
140
1.0
102
RTVSPost2010PropOp52
 70
     0
102
RTVSPost2010Prop53
 90
        2
102
RTVSPost2010PropOp53
 70
     1
102
RTVSPost2010Prop54
  1
strokes_ogs.tif
102
RTVSPost2010PropOp54
 70
     1
102
RTVSPost2010Prop55
280
     0
102
RTVSPost2010PropOp55
 70
     1
102
RTVSPost2010Prop56
140
1.0
102
RTVSPost2010PropOp56
 70
     1
102
RTVSPost2010Prop57
140
1.0
102
RTVSPost2010PropOp57
 70
     1
  0
XRECORD
  5
2D6
102
{ACAD_REACTORS
330
2D5
102
}
330
2D5
100
AcDbXrecord
280
     1
102
RTVSPropertyOp0
 70
     1
102
RTVSPropertyOp1
 70
     1
102
RTVSPropertyOp2
 70
     1
102
RTVSPropertyOp3
 70
     1
102
RTVSPropertyOp4
 70
     1
102
RTVSPropertyOp5
 70
     1
102
RTVSPropertyOp6
 70
     1
102
RTVSPropertyOp7
 70
     1
102
RTVSPropertyOp8
 70
     1
102
RTVSPropertyOp9
 70
     1
102
RTVSPropertyOp10
 70
     1
102
RTVSPropertyOp11
 70
     1
102
RTVSPropertyOp12
 70
     1
102
RTVSPropertyOp13
 70
     1
102
RTVSPropertyOp14
 70
     1
102
RTVSPropertyOp15
 70
     1
102
RTVSPropertyOp16
 70
     1
102
RTVSPropertyOp17
 70
     1
102
RTVSPropertyOp18
 70
     1
102
RTVSPropertyOp19
 70
     1
102
RTVSPropertyOp20
 70
     1
102
RTVSPropertyOp21
 70
     1
102
RTVSPropertyOp22
 70
     1
102
RTVSPropertyOp23
 70
     1
102
RTVSPropertyOp24
 70
     1
102
RTVSPropertyOp25
 70
     1
102
RTVSPropertyOp26
 70
     1
102
RTVSPropertyOp27
 70
     1
102
RTVSPropertyOp28
 70
     1
102
RTVSPropertyOp29
 70
     1
102
RTVSPropertyOp30
 70
     1
102
RTVSPropertyOp31
 70
     1
102
RTVSPropertyOp32
 70
     1
102
RTVSPropertyOp33
 70
     1
102
RTVSPropertyOp34
 70
     1
102
RTVSPropertyOp35
 70
     1
102
RTVSPropertyOp36
 70
     1
102
RTVSPropertyOp37
 70
     1
102
RTVSPropertyOp38
 70
     1
102
RTVSPropertyOp39
 70
     1
102
RTVSPropertyOp40
 70
     1
102
RTVSPropertyOp41
 70
     1
102
RTVSPropertyOp42
 70
     1
102
RTVSPropertyOp43
 70
     1
102
RTVSPropertyOp44
 70
     1
102
RTVSPropertyOp45
 70
     1
102
RTVSPropertyOp46
 70
     1
102
RTVSPropertyOp47
 70
     1
102
RTVSPropertyOp48
 70
     1
102
RTVSPropertyOp49
 70
     1
102
RTVSPropertyOp50
 70
     1
102
RTVSPropertyOp51
 70
     0
102
RTVSPropertyOp52
 70
     0
102
RTVSPropertyOp53
 70
     1
102
RTVSPropertyOp54
 70
     1
102
RTVSPropertyOp55
 70
     1
102
RTVSPropertyOp56
 70
     1
102
RTVSPropertyOp57
 70
     1
102
RTVSPost2010Prop28
280
     0
102
RTVSPost2010PropOp28
 70
     1
102
RTVSPost2010Prop29
280
     1
102
RTVSPost2010PropOp29
 70
     1
102
RTVSPost2010Prop30
280
     1
102
RTVSPost2010PropOp30
 70
     1
102
RTVSPost2010Prop31
280
     0
102
RTVSPost2010PropOp31
 70
     1
102
RTVSPost2010Prop32
280
     0
102
RTVSPost2010PropOp32
 70
     1
102
RTVSPost2010Prop33
280
     0
102
RTVSPost2010PropOp33
 70
     1
102
RTVSPost2010Prop34
280
     0
102
RTVSPost2010PropOp34
 70
     1
102
RTVSPost2010Prop35
280
     0
102
RTVSPost2010PropOp35
 70
     1
102
RTVSPost2010Prop36
280
     0
102
RTVSPost2010PropOp36
 70
     1
102
RTVSPost2010Prop37
 90
       50
102
RTVSPost2010PropOp37
 70
     1
102
RTVSPost2010Prop38
140
0.0
102
RTVSPost2010PropOp38
 70
     1
102
RTVSPost2010Prop39
140
1.0
102
RTVSPost2010PropOp39
 70
     1
102
RTVSPost2010Prop40
 90
        0
102
RTVSPost2010PropOp40
 70
     1
102
RTVSPost2010Prop41ColorIndex
 90
       18
102
RTVSPost2010Prop41ColorRGB
 90
        0
102
RTVSPost2010PropOp41
 70
     1
102
RTVSPost2010Prop42
 90
       50
102
RTVSPost2010PropOp42
 70
     1
102
RTVSPost2010Prop43
 90
        3
102
RTVSPost2010PropOp43
 70
     1
102
RTVSPost2010Prop44ColorIndex
 90
        5
102
RTVSPost2010Prop44ColorRGB
 90
      255
102
RTVSPost2010PropOp44
 70
     1
102
RTVSPost2010Prop45
280
     0
102
RTVSPost2010PropOp45
 70
     1
102
RTVSPost2010Prop46
 90
       50
102
RTVSPost2010PropOp46
 70
     1
102
RTVSPost2010Prop47
 90
       50
102
RTVSPost2010PropOp47
 70
     1
102
RTVSPost2010Prop48
 90
       50
102
RTVSPost2010PropOp48
 70
     1
102
RTVSPost2010Prop49
280
     0
102
RTVSPost2010PropOp49
 70
     1
102
RTVSPost2010Prop50
 90
       50
102
RTVSPost2010PropOp50
 70
     1
102
RTVSPost2010Prop51ColorIndex
 90
      256
102
RTVSPost2010Prop51ColorRGB
 90
-16777216
102
RTVSPost2010PropOp51
 70
     0
102
RTVSPost2010Prop52
140
1.0
102
RTVSPost2010PropOp52
 70
     0
102
RTVSPost2010Prop53
 90
        2
102
RTVSPost2010PropOp53
 70
     1
102
RTVSPost2010Prop54
  1
strokes_ogs.tif
102
RTVSPost2010PropOp54
 70
     1
102
RTVSPost2010Prop55
280
     0
102
RTVSPost2010PropOp55
 70
     1
102
RTVSPost2010Prop56
140
1.0
102
RTVSPost2010PropOp56
 70
     1
102
RTVSPost2010Prop57
140
1.0
102
RTVSPost2010PropOp57
 70
     1
  0
XRECORD
  5
2DC
102
{ACAD_REACTORS
330
2DB
102
}
330
2DB
100
AcDbXrecord
280
     1
102
RTVSPropertyOp0
 70
     1
102
RTVSPropertyOp1
 70
     1
102
RTVSPropertyOp2
 70
     1
102
RTVSPropertyOp3
 70
     1
102
RTVSPropertyOp4
 70
     1
102
RTVSPropertyOp5
 70
     1
102
RTVSPropertyOp6
 70
     1
102
RTVSPropertyOp7
 70
     1
102
RTVSPropertyOp8
 70
     1
102
RTVSPropertyOp9
 70
     1
102
RTVSPropertyOp10
 70
     1
102
RTVSPropertyOp11
 70
     1
102
RTVSPropertyOp12
 70
     1
102
RTVSPropertyOp13
 70
     1
102
RTVSPropertyOp14
 70
     1
102
RTVSPropertyOp15
 70
     1
102
RTVSPropertyOp16
 70
     1
102
RTVSPropertyOp17
 70
     1
102
RTVSPropertyOp18
 70
     1
102
RTVSPropertyOp19
 70
     1
102
RTVSPropertyOp20
 70
     1
102
RTVSPropertyOp21
 70
     1
102
RTVSPropertyOp22
 70
     1
102
RTVSPropertyOp23
 70
     1
102
RTVSPropertyOp24
 70
     1
102
RTVSPropertyOp25
 70
     1
102
RTVSPropertyOp26
 70
     1
102
RTVSPropertyOp27
 70
     1
102
RTVSPropertyOp28
 70
     1
102
RTVSPropertyOp29
 70
     1
102
RTVSPropertyOp30
 70
     1
102
RTVSPropertyOp31
 70
     1
102
RTVSPropertyOp32
 70
     1
102
RTVSPropertyOp33
 70
     1
102
RTVSPropertyOp34
 70
     1
102
RTVSPropertyOp35
 70
     1
102
RTVSPropertyOp36
 70
     1
102
RTVSPropertyOp37
 70
     1
102
RTVSPropertyOp38
 70
     1
102
RTVSPropertyOp39
 70
     1
102
RTVSPropertyOp40
 70
     1
102
RTVSPropertyOp41
 70
     1
102
RTVSPropertyOp42
 70
     1
102
RTVSPropertyOp43
 70
     1
102
RTVSPropertyOp44
 70
     1
102
RTVSPropertyOp45
 70
     1
102
RTVSPropertyOp46
 70
     1
102
RTVSPropertyOp47
 70
     1
102
RTVSPropertyOp48
 70
     1
102
RTVSPropertyOp49
 70
     1
102
RTVSPropertyOp50
 70
     1
102
RTVSPropertyOp51
 70
     0
102
RTVSPropertyOp52
 70
     0
102
RTVSPropertyOp53
 70
     1
102
RTVSPropertyOp54
 70
     1
102
RTVSPropertyOp55
 70
     1
102
RTVSPropertyOp56
 70
     1
102
RTVSPropertyOp57
 70
     1
102
RTVSPost2010Prop28
280
     0
102
RTVSPost2010PropOp28
 70
     1
102
RTVSPost2010Prop29
280
     1
102
RTVSPost2010PropOp29
 70
     1
102
RTVSPost2010Prop30
280
     1
102
RTVSPost2010PropOp30
 70
     1
102
RTVSPost2010Prop31
280
     0
102
RTVSPost2010PropOp31
 70
     1
102
RTVSPost2010Prop32
280
     0
102
RTVSPost2010PropOp32
 70
     1
102
RTVSPost2010Prop33
280
     0
102
RTVSPost2010PropOp33
 70
     1
102
RTVSPost2010Prop34
280
     0
102
RTVSPost2010PropOp34
 70
     1
102
RTVSPost2010Prop35
280
     0
102
RTVSPost2010PropOp35
 70
     1
102
RTVSPost2010Prop36
280
     0
102
RTVSPost2010PropOp36
 70
     1
102
RTVSPost2010Prop37
 90
       50
102
RTVSPost2010PropOp37
 70
     1
102
RTVSPost2010Prop38
140
0.0
102
RTVSPost2010PropOp38
 70
     1
102
RTVSPost2010Prop39
140
1.0
102
RTVSPost2010PropOp39
 70
     1
102
RTVSPost2010Prop40
 90
        0
102
RTVSPost2010PropOp40
 70
     1
102
RTVSPost2010Prop41ColorIndex
 90
       18
102
RTVSPost2010Prop41ColorRGB
 90
        0
102
RTVSPost2010PropOp41
 70
     1
102
RTVSPost2010Prop42
 90
       50
102
RTVSPost2010PropOp42
 70
     1
102
RTVSPost2010Prop43
 90
        3
102
RTVSPost2010PropOp43
 70
     1
102
RTVSPost2010Prop44ColorIndex
 90
        5
102
RTVSPost2010Prop44ColorRGB
 90
      255
102
RTVSPost2010PropOp44
 70
     1
102
RTVSPost2010Prop45
280
     0
102
RTVSPost2010PropOp45
 70
     1
102
RTVSPost2010Prop46
 90
       50
102
RTVSPost2010PropOp46
 70
     1
102
RTVSPost2010Prop47
 90
       50
102
RTVSPost2010PropOp47
 70
     1
102
RTVSPost2010Prop48
 90
       50
102
RTVSPost2010PropOp48
 70
     1
102
RTVSPost2010Prop49
280
     0
102
RTVSPost2010PropOp49
 70
     1
102
RTVSPost2010Prop50
 90
       50
102
RTVSPost2010PropOp50
 70
     1
102
RTVSPost2010Prop51ColorIndex
 90
      256
102
RTVSPost2010Prop51ColorRGB
 90
-16777216
102
RTVSPost2010PropOp51
 70
     0
102
RTVSPost2010Prop52
140
1.0
102
RTVSPost2010PropOp52
 70
     0
102
RTVSPost2010Prop53
 90
        2
102
RTVSPost2010PropOp53
 70
     1
102
RTVSPost2010Prop54
  1
strokes_ogs.tif
102
RTVSPost2010PropOp54
 70
     1
102
RTVSPost2010Prop55
280
     0
102
RTVSPost2010PropOp55
 70
     1
102
RTVSPost2010Prop56
140
1.0
102
RTVSPost2010PropOp56
 70
     1
102
RTVSPost2010Prop57
140
1.0
102
RTVSPost2010PropOp57
 70
     1
  0
XRECORD
  5
2F0
102
{ACAD_REACTORS
330
2EF
102
}
330
2EF
100
AcDbXrecord
280
     1
102
RTVSPropertyOp0
 70
     0
102
RTVSPropertyOp1
 70
     0
102
RTVSPropertyOp2
 70
     0
102
RTVSPropertyOp3
 70
     0
102
RTVSPropertyOp4
 70
     0
102
RTVSPropertyOp5
 70
     0
102
RTVSPropertyOp6
 70
     0
102
RTVSPropertyOp7
 70
     0
102
RTVSPropertyOp8
 70
     0
102
RTVSPropertyOp9
 70
     0
102
RTVSPropertyOp10
 70
     0
102
RTVSPropertyOp11
 70
     0
102
RTVSPropertyOp12
 70
     0
102
RTVSPropertyOp13
 70
     0
102
RTVSPropertyOp14
 70
     2
102
RTVSPropertyOp15
 70
     0
102
RTVSPropertyOp16
 70
     0
102
RTVSPropertyOp17
 70
     0
102
RTVSPropertyOp18
 70
     0
102
RTVSPropertyOp19
 70
     0
102
RTVSPropertyOp20
 70
     0
102
RTVSPropertyOp21
 70
     0
102
RTVSPropertyOp22
 70
     0
102
RTVSPropertyOp23
 70
     0
102
RTVSPropertyOp24
 70
     0
102
RTVSPropertyOp25
 70
     0
102
RTVSPropertyOp26
 70
     0
102
RTVSPropertyOp27
 70
     0
102
RTVSPropertyOp28
 70
     0
102
RTVSPropertyOp29
 70
     0
102
RTVSPropertyOp30
 70
     0
102
RTVSPropertyOp31
 70
     0
102
RTVSPropertyOp32
 70
     0
102
RTVSPropertyOp33
 70
     0
102
RTVSPropertyOp34
 70
     0
102
RTVSPropertyOp35
 70
     0
102
RTVSPropertyOp36
 70
     0
102
RTVSPropertyOp37
 70
     0
102
RTVSPropertyOp38
 70
     0
102
RTVSPropertyOp39
 70
     0
102
RTVSPropertyOp40
 70
     0
102
RTVSPropertyOp41
 70
     0
102
RTVSPropertyOp42
 70
     0
102
RTVSPropertyOp43
 70
     0
102
RTVSPropertyOp44
 70
     0
102
RTVSPropertyOp45
 70
     0
102
RTVSPropertyOp46
 70
     0
102
RTVSPropertyOp47
 70
     0
102
RTVSPropertyOp48
 70
     0
102
RTVSPropertyOp49
 70
     0
102
RTVSPropertyOp50
 70
     0
102
RTVSPropertyOp51
 70
     0
102
RTVSPropertyOp52
 70
     0
102
RTVSPropertyOp53
 70
     0
102
RTVSPropertyOp54
 70
     0
102
RTVSPropertyOp55
 70
     0
102
RTVSPropertyOp56
 70
     0
102
RTVSPropertyOp57
 70
     0
102
RTVSPost2010Prop28
280
     0
102
RTVSPost2010PropOp28
 70
     0
102
RTVSPost2010Prop29
280
     1
102
RTVSPost2010PropOp29
 70
     0
102
RTVSPost2010Prop30
280
     1
102
RTVSPost2010PropOp30
 70
     0
102
RTVSPost2010Prop31
280
     0
102
RTVSPost2010PropOp31
 70
     0
102
RTVSPost2010Prop32
280
     0
102
RTVSPost2010PropOp32
 70
     0
102
RTVSPost2010Prop33
280
     0
102
RTVSPost2010PropOp33
 70
     0
102
RTVSPost2010Prop34
280
     0
102
RTVSPost2010PropOp34
 70
     0
102
RTVSPost2010Prop35
280
     0
102
RTVSPost2010PropOp35
 70
     0
102
RTVSPost2010Prop36
280
     0
102
RTVSPost2010PropOp36
 70
     0
102
RTVSPost2010Prop37
 90
       50
102
RTVSPost2010PropOp37
 70
     0
102
RTVSPost2010Prop38
140
0.0
102
RTVSPost2010PropOp38
 70
     0
102
RTVSPost2010Prop39
140
1.0
102
RTVSPost2010PropOp39
 70
     0
102
RTVSPost2010Prop40
 90
        0
102
RTVSPost2010PropOp40
 70
     0
102
RTVSPost2010Prop41ColorIndex
 90
       18
102
RTVSPost2010Prop41ColorRGB
 90
        0
102
RTVSPost2010PropOp41
 70
     0
102
RTVSPost2010Prop42
 90
       50
102
RTVSPost2010PropOp42
 70
     0
102
RTVSPost2010Prop43
 90
        3
102
RTVSPost2010PropOp43
 70
     0
102
RTVSPost2010Prop44ColorIndex
 90
        5
102
RTVSPost2010Prop44ColorRGB
 90
      255
102
RTVSPost2010PropOp44
 70
     0
102
RTVSPost2010Prop45
280
     0
102
RTVSPost2010PropOp45
 70
     0
102
RTVSPost2010Prop46
 90
       50
102
RTVSPost2010PropOp46
 70
     0
102
RTVSPost2010Prop47
 90
       50
102
RTVSPost2010PropOp47
 70
     0
102
RTVSPost2010Prop48
 90
       50
102
RTVSPost2010PropOp48
 70
     0
102
RTVSPost2010Prop49
280
     0
102
RTVSPost2010PropOp49
 70
     0
102
RTVSPost2010Prop50
 90
       50
102
RTVSPost2010PropOp50
 70
     0
102
RTVSPost2010Prop51ColorIndex
 90
      256
102
RTVSPost2010Prop51ColorRGB
 90
-16777216
102
RTVSPost2010PropOp51
 70
     0
102
RTVSPost2010Prop52
140
1.0
102
RTVSPost2010PropOp52
 70
     0
102
RTVSPost2010Prop53
 90
        2
102
RTVSPost2010PropOp53
 70
     0
102
RTVSPost2010Prop54
  1
strokes_ogs.tif
102
RTVSPost2010PropOp54
 70
     0
102
RTVSPost2010Prop55
280
     0
102
RTVSPost2010PropOp55
 70
     0
102
RTVSPost2010Prop56
140
1.0
102
RTVSPost2010PropOp56
 70
     0
102
RTVSPost2010Prop57
140
1.0
102
RTVSPost2010PropOp57
 70
     0
  0
XRECORD
  5
2EA
102
{ACAD_REACTORS
330
2E9
102
}
330
2E9
100
AcDbXrecord
280
     1
102
RTVSPropertyOp0
 70
     1
102
RTVSPropertyOp1
 70
     1
102
RTVSPropertyOp2
 70
     1
102
RTVSPropertyOp3
 70
     1
102
RTVSPropertyOp4
 70
     1
102
RTVSPropertyOp5
 70
     1
102
RTVSPropertyOp6
 70
     1
102
RTVSPropertyOp7
 70
     1
102
RTVSPropertyOp8
 70
     1
102
RTVSPropertyOp9
 70
     1
102
RTVSPropertyOp10
 70
     1
102
RTVSPropertyOp11
 70
     1
102
RTVSPropertyOp12
 70
     1
102
RTVSPropertyOp13
 70
     1
102
RTVSPropertyOp14
 70
     1
102
RTVSPropertyOp15
 70
     1
102
RTVSPropertyOp16
 70
     1
102
RTVSPropertyOp17
 70
     1
102
RTVSPropertyOp18
 70
     1
102
RTVSPropertyOp19
 70
     1
102
RTVSPropertyOp20
 70
     1
102
RTVSPropertyOp21
 70
     1
102
RTVSPropertyOp22
 70
     1
102
RTVSPropertyOp23
 70
     1
102
RTVSPropertyOp24
 70
     1
102
RTVSPropertyOp25
 70
     1
102
RTVSPropertyOp26
 70
     1
102
RTVSPropertyOp27
 70
     1
102
RTVSPropertyOp28
 70
     1
102
RTVSPropertyOp29
 70
     1
102
RTVSPropertyOp30
 70
     1
102
RTVSPropertyOp31
 70
     1
102
RTVSPropertyOp32
 70
     1
102
RTVSPropertyOp33
 70
     1
102
RTVSPropertyOp34
 70
     1
102
RTVSPropertyOp35
 70
     1
102
RTVSPropertyOp36
 70
     1
102
RTVSPropertyOp37
 70
     1
102
RTVSPropertyOp38
 70
     1
102
RTVSPropertyOp39
 70
     1
102
RTVSPropertyOp40
 70
     1
102
RTVSPropertyOp41
 70
     1
102
RTVSPropertyOp42
 70
     1
102
RTVSPropertyOp43
 70
     1
102
RTVSPropertyOp44
 70
     1
102
RTVSPropertyOp45
 70
     1
102
RTVSPropertyOp46
 70
     1
102
RTVSPropertyOp47
 70
     1
102
RTVSPropertyOp48
 70
     1
102
RTVSPropertyOp49
 70
     1
102
RTVSPropertyOp50
 70
     1
102
RTVSPropertyOp51
 70
     0
102
RTVSPropertyOp52
 70
     0
102
RTVSPropertyOp53
 70
     1
102
RTVSPropertyOp54
 70
     1
102
RTVSPropertyOp55
 70
     1
102
RTVSPropertyOp56
 70
     1
102
RTVSPropertyOp57
 70
     1
102
RTVSPost2010Prop28
280
     0
102
RTVSPost2010PropOp28
 70
     1
102
RTVSPost2010Prop29
280
     1
102
RTVSPost2010PropOp29
 70
     1
102
RTVSPost2010Prop30
280
     1
102
RTVSPost2010PropOp30
 70
     1
102
RTVSPost2010Prop31
280
     0
102
RTVSPost2010PropOp31
 70
     1
102
RTVSPost2010Prop32
280
     0
102
RTVSPost2010PropOp32
 70
     1
102
RTVSPost2010Prop33
280
     0
102
RTVSPost2010PropOp33
 70
     1
102
RTVSPost2010Prop34
280
     0
102
RTVSPost2010PropOp34
 70
     1
102
RTVSPost2010Prop35
280
     0
102
RTVSPost2010PropOp35
 70
     1
102
RTVSPost2010Prop36
280
     0
102
RTVSPost2010PropOp36
 70
     1
102
RTVSPost2010Prop37
 90
       50
102
RTVSPost2010PropOp37
 70
     1
102
RTVSPost2010Prop38
140
0.0
102
RTVSPost2010PropOp38
 70
     1
102
RTVSPost2010Prop39
140
1.0
102
RTVSPost2010PropOp39
 70
     1
102
RTVSPost2010Prop40
 90
        0
102
RTVSPost2010PropOp40
 70
     1
102
RTVSPost2010Prop41ColorIndex
 90
       18
102
RTVSPost2010Prop41ColorRGB
 90
        0
102
RTVSPost2010PropOp41
 70
     1
102
RTVSPost2010Prop42
 90
       50
102
RTVSPost2010PropOp42
 70
     1
102
RTVSPost2010Prop43
 90
        3
102
RTVSPost2010PropOp43
 70
     1
102
RTVSPost2010Prop44ColorIndex
 90
        5
102
RTVSPost2010Prop44ColorRGB
 90
      255
102
RTVSPost2010PropOp44
 70
     1
102
RTVSPost2010Prop45
280
     0
102
RTVSPost2010PropOp45
 70
     1
102
RTVSPost2010Prop46
 90
       50
102
RTVSPost2010PropOp46
 70
     1
102
RTVSPost2010Prop47
 90
       50
102
RTVSPost2010PropOp47
 70
     1
102
RTVSPost2010Prop48
 90
       50
102
RTVSPost2010PropOp48
 70
     1
102
RTVSPost2010Prop49
280
     0
102
RTVSPost2010PropOp49
 70
     1
102
RTVSPost2010Prop50
 90
       50
102
RTVSPost2010PropOp50
 70
     1
102
RTVSPost2010Prop51ColorIndex
 90
      256
102
RTVSPost2010Prop51ColorRGB
 90
-16777216
102
RTVSPost2010PropOp51
 70
     0
102
RTVSPost2010Prop52
140
1.0
102
RTVSPost2010PropOp52
 70
     0
102
RTVSPost2010Prop53
 90
        2
102
RTVSPost2010PropOp53
 70
     1
102
RTVSPost2010Prop54
  1
strokes_ogs.tif
102
RTVSPost2010PropOp54
 70
     1
102
RTVSPost2010Prop55
280
     0
102
RTVSPost2010PropOp55
 70
     1
102
RTVSPost2010Prop56
140
1.0
102
RTVSPost2010PropOp56
 70
     1
102
RTVSPost2010Prop57
140
1.0
102
RTVSPost2010PropOp57
 70
     1
  0
XRECORD
  5
2F2
102
{ACAD_REACTORS
330
2F1
102
}
330
2F1
100
AcDbXrecord
280
     1
102
RTVSPropertyOp0
 70
     0
102
RTVSPropertyOp1
 70
     0
102
RTVSPropertyOp2
 70
     0
102
RTVSPropertyOp3
 70
     0
102
RTVSPropertyOp4
 70
     0
102
RTVSPropertyOp5
 70
     0
102
RTVSPropertyOp6
 70
     0
102
RTVSPropertyOp7
 70
     0
102
RTVSPropertyOp8
 70
     0
102
RTVSPropertyOp9
 70
     0
102
RTVSPropertyOp10
 70
     0
102
RTVSPropertyOp11
 70
     0
102
RTVSPropertyOp12
 70
     0
102
RTVSPropertyOp13
 70
     0
102
RTVSPropertyOp14
 70
     2
102
RTVSPropertyOp15
 70
     0
102
RTVSPropertyOp16
 70
     0
102
RTVSPropertyOp17
 70
     0
102
RTVSPropertyOp18
 70
     0
102
RTVSPropertyOp19
 70
     0
102
RTVSPropertyOp20
 70
     0
102
RTVSPropertyOp21
 70
     0
102
RTVSPropertyOp22
 70
     0
102
RTVSPropertyOp23
 70
     0
102
RTVSPropertyOp24
 70
     0
102
RTVSPropertyOp25
 70
     0
102
RTVSPropertyOp26
 70
     0
102
RTVSPropertyOp27
 70
     0
102
RTVSPropertyOp28
 70
     0
102
RTVSPropertyOp29
 70
     0
102
RTVSPropertyOp30
 70
     0
102
RTVSPropertyOp31
 70
     0
102
RTVSPropertyOp32
 70
     0
102
RTVSPropertyOp33
 70
     0
102
RTVSPropertyOp34
 70
     0
102
RTVSPropertyOp35
 70
     0
102
RTVSPropertyOp36
 70
     0
102
RTVSPropertyOp37
 70
     0
102
RTVSPropertyOp38
 70
     0
102
RTVSPropertyOp39
 70
     0
102
RTVSPropertyOp40
 70
     0
102
RTVSPropertyOp41
 70
     0
102
RTVSPropertyOp42
 70
     0
102
RTVSPropertyOp43
 70
     0
102
RTVSPropertyOp44
 70
     0
102
RTVSPropertyOp45
 70
     0
102
RTVSPropertyOp46
 70
     0
102
RTVSPropertyOp47
 70
     0
102
RTVSPropertyOp48
 70
     0
102
RTVSPropertyOp49
 70
     0
102
RTVSPropertyOp50
 70
     0
102
RTVSPropertyOp51
 70
     0
102
RTVSPropertyOp52
 70
     0
102
RTVSPropertyOp53
 70
     0
102
RTVSPropertyOp54
 70
     0
102
RTVSPropertyOp55
 70
     0
102
RTVSPropertyOp56
 70
     0
102
RTVSPropertyOp57
 70
     0
102
RTVSPost2010Prop28
280
     0
102
RTVSPost2010PropOp28
 70
     0
102
RTVSPost2010Prop29
280
     1
102
RTVSPost2010PropOp29
 70
     0
102
RTVSPost2010Prop30
280
     1
102
RTVSPost2010PropOp30
 70
     0
102
RTVSPost2010Prop31
280
     0
102
RTVSPost2010PropOp31
 70
     0
102
RTVSPost2010Prop32
280
     0
102
RTVSPost2010PropOp32
 70
     0
102
RTVSPost2010Prop33
280
     0
102
RTVSPost2010PropOp33
 70
     0
102
RTVSPost2010Prop34
280
     0
102
RTVSPost2010PropOp34
 70
     0
102
RTVSPost2010Prop35
280
     0
102
RTVSPost2010PropOp35
 70
     0
102
RTVSPost2010Prop36
280
     0
102
RTVSPost2010PropOp36
 70
     0
102
RTVSPost2010Prop37
 90
       50
102
RTVSPost2010PropOp37
 70
     0
102
RTVSPost2010Prop38
140
0.0
102
RTVSPost2010PropOp38
 70
     0
102
RTVSPost2010Prop39
140
1.0
102
RTVSPost2010PropOp39
 70
     0
102
RTVSPost2010Prop40
 90
        0
102
RTVSPost2010PropOp40
 70
     0
102
RTVSPost2010Prop41ColorIndex
 90
       18
102
RTVSPost2010Prop41ColorRGB
 90
        0
102
RTVSPost2010PropOp41
 70
     0
102
RTVSPost2010Prop42
 90
       50
102
RTVSPost2010PropOp42
 70
     0
102
RTVSPost2010Prop43
 90
        3
102
RTVSPost2010PropOp43
 70
     0
102
RTVSPost2010Prop44ColorIndex
 90
        5
102
RTVSPost2010Prop44ColorRGB
 90
      255
102
RTVSPost2010PropOp44
 70
     0
102
RTVSPost2010Prop45
280
     0
102
RTVSPost2010PropOp45
 70
     0
102
RTVSPost2010Prop46
 90
       50
102
RTVSPost2010PropOp46
 70
     0
102
RTVSPost2010Prop47
 90
       50
102
RTVSPost2010PropOp47
 70
     0
102
RTVSPost2010Prop48
 90
       50
102
RTVSPost2010PropOp48
 70
     0
102
RTVSPost2010Prop49
280
     0
102
RTVSPost2010PropOp49
 70
     0
102
RTVSPost2010Prop50
 90
       50
102
RTVSPost2010PropOp50
 70
     0
102
RTVSPost2010Prop51ColorIndex
 90
      256
102
RTVSPost2010Prop51ColorRGB
 90
-16777216
102
RTVSPost2010PropOp51
 70
     0
102
RTVSPost2010Prop52
140
1.0
102
RTVSPost2010PropOp52
 70
     0
102
RTVSPost2010Prop53
 90
        2
102
RTVSPost2010PropOp53
 70
     0
102
RTVSPost2010Prop54
  1
strokes_ogs.tif
102
RTVSPost2010PropOp54
 70
     0
102
RTVSPost2010Prop55
280
     0
102
RTVSPost2010PropOp55
 70
     0
102
RTVSPost2010Prop56
140
1.0
102
RTVSPost2010PropOp56
 70
     0
102
RTVSPost2010Prop57
140
1.0
102
RTVSPost2010PropOp57
 70
     0
  0
XRECORD
  5
2E0
102
{ACAD_REACTORS
330
2DF
102
}
330
2DF
100
AcDbXrecord
280
     1
102
RTVSPropertyOp0
 70
     1
102
RTVSPropertyOp1
 70
     1
102
RTVSPropertyOp2
 70
     1
102
RTVSPropertyOp3
 70
     1
102
RTVSPropertyOp4
 70
     1
102
RTVSPropertyOp5
 70
     1
102
RTVSPropertyOp6
 70
     1
102
RTVSPropertyOp7
 70
     1
102
RTVSPropertyOp8
 70
     1
102
RTVSPropertyOp9
 70
     1
102
RTVSPropertyOp10
 70
     1
102
RTVSPropertyOp11
 70
     1
102
RTVSPropertyOp12
 70
     1
102
RTVSPropertyOp13
 70
     1
102
RTVSPropertyOp14
 70
     1
102
RTVSPropertyOp15
 70
     1
102
RTVSPropertyOp16
 70
     1
102
RTVSPropertyOp17
 70
     1
102
RTVSPropertyOp18
 70
     1
102
RTVSPropertyOp19
 70
     1
102
RTVSPropertyOp20
 70
     1
102
RTVSPropertyOp21
 70
     1
102
RTVSPropertyOp22
 70
     1
102
RTVSPropertyOp23
 70
     1
102
RTVSPropertyOp24
 70
     1
102
RTVSPropertyOp25
 70
     1
102
RTVSPropertyOp26
 70
     1
102
RTVSPropertyOp27
 70
     1
102
RTVSPropertyOp28
 70
     1
102
RTVSPropertyOp29
 70
     1
102
RTVSPropertyOp30
 70
     1
102
RTVSPropertyOp31
 70
     1
102
RTVSPropertyOp32
 70
     1
102
RTVSPropertyOp33
 70
     1
102
RTVSPropertyOp34
 70
     1
102
RTVSPropertyOp35
 70
     1
102
RTVSPropertyOp36
 70
     1
102
RTVSPropertyOp37
 70
     1
102
RTVSPropertyOp38
 70
     1
102
RTVSPropertyOp39
 70
     1
102
RTVSPropertyOp40
 70
     1
102
RTVSPropertyOp41
 70
     1
102
RTVSPropertyOp42
 70
     1
102
RTVSPropertyOp43
 70
     1
102
RTVSPropertyOp44
 70
     1
102
RTVSPropertyOp45
 70
     1
102
RTVSPropertyOp46
 70
     1
102
RTVSPropertyOp47
 70
     1
102
RTVSPropertyOp48
 70
     1
102
RTVSPropertyOp49
 70
     1
102
RTVSPropertyOp50
 70
     1
102
RTVSPropertyOp51
 70
     0
102
RTVSPropertyOp52
 70
     0
102
RTVSPropertyOp53
 70
     1
102
RTVSPropertyOp54
 70
     1
102
RTVSPropertyOp55
 70
     1
102
RTVSPropertyOp56
 70
     1
102
RTVSPropertyOp57
 70
     1
102
RTVSPost2010Prop28
280
     0
102
RTVSPost2010PropOp28
 70
     1
102
RTVSPost2010Prop29
280
     1
102
RTVSPost2010PropOp29
 70
     1
102
RTVSPost2010Prop30
280
     1
102
RTVSPost2010PropOp30
 70
     1
102
RTVSPost2010Prop31
280
     0
102
RTVSPost2010PropOp31
 70
     1
102
RTVSPost2010Prop32
280
     0
102
RTVSPost2010PropOp32
 70
     1
102
RTVSPost2010Prop33
280
     0
102
RTVSPost2010PropOp33
 70
     1
102
RTVSPost2010Prop34
280
     0
102
RTVSPost2010PropOp34
 70
     1
102
RTVSPost2010Prop35
280
     0
102
RTVSPost2010PropOp35
 70
     1
102
RTVSPost2010Prop36
280
     0
102
RTVSPost2010PropOp36
 70
     1
102
RTVSPost2010Prop37
 90
       50
102
RTVSPost2010PropOp37
 70
     1
102
RTVSPost2010Prop38
140
0.0
102
RTVSPost2010PropOp38
 70
     1
102
RTVSPost2010Prop39
140
1.0
102
RTVSPost2010PropOp39
 70
     1
102
RTVSPost2010Prop40
 90
        0
102
RTVSPost2010PropOp40
 70
     1
102
RTVSPost2010Prop41ColorIndex
 90
       18
102
RTVSPost2010Prop41ColorRGB
 90
        0
102
RTVSPost2010PropOp41
 70
     1
102
RTVSPost2010Prop42
 90
       50
102
RTVSPost2010PropOp42
 70
     1
102
RTVSPost2010Prop43
 90
        3
102
RTVSPost2010PropOp43
 70
     1
102
RTVSPost2010Prop44ColorIndex
 90
        5
102
RTVSPost2010Prop44ColorRGB
 90
      255
102
RTVSPost2010PropOp44
 70
     1
102
RTVSPost2010Prop45
280
     0
102
RTVSPost2010PropOp45
 70
     1
102
RTVSPost2010Prop46
 90
       50
102
RTVSPost2010PropOp46
 70
     1
102
RTVSPost2010Prop47
 90
       50
102
RTVSPost2010PropOp47
 70
     1
102
RTVSPost2010Prop48
 90
       50
102
RTVSPost2010PropOp48
 70
     1
102
RTVSPost2010Prop49
280
     0
102
RTVSPost2010PropOp49
 70
     1
102
RTVSPost2010Prop50
 90
       50
102
RTVSPost2010PropOp50
 70
     1
102
RTVSPost2010Prop51ColorIndex
 90
      256
102
RTVSPost2010Prop51ColorRGB
 90
-16777216
102
RTVSPost2010PropOp51
 70
     0
102
RTVSPost2010Prop52
140
1.0
102
RTVSPost2010PropOp52
 70
     0
102
RTVSPost2010Prop53
 90
        2
102
RTVSPost2010PropOp53
 70
     1
102
RTVSPost2010Prop54
  1
strokes_ogs.tif
102
RTVSPost2010PropOp54
 70
     1
102
RTVSPost2010Prop55
280
     0
102
RTVSPost2010PropOp55
 70
     1
102
RTVSPost2010Prop56
140
1.0
102
RTVSPost2010PropOp56
 70
     1
102
RTVSPost2010Prop57
140
1.0
102
RTVSPost2010PropOp57
 70
     1
  0
XRECORD
  5
2FE
102
{ACAD_REACTORS
330
2FD
102
}
330
2FD
100
AcDbXrecord
280
     1
102
RTVSPropertyOp0
 70
     1
102
RTVSPropertyOp1
 70
     1
102
RTVSPropertyOp2
 70
     1
102
RTVSPropertyOp3
 70
     1
102
RTVSPropertyOp4
 70
     1
102
RTVSPropertyOp5
 70
     1
102
RTVSPropertyOp6
 70
     1
102
RTVSPropertyOp7
 70
     1
102
RTVSPropertyOp8
 70
     1
102
RTVSPropertyOp9
 70
     1
102
RTVSPropertyOp10
 70
     1
102
RTVSPropertyOp11
 70
     1
102
RTVSPropertyOp12
 70
     1
102
RTVSPropertyOp13
 70
     1
102
RTVSPropertyOp14
 70
     1
102
RTVSPropertyOp15
 70
     1
102
RTVSPropertyOp16
 70
     1
102
RTVSPropertyOp17
 70
     1
102
RTVSPropertyOp18
 70
     1
102
RTVSPropertyOp19
 70
     1
102
RTVSPropertyOp20
 70
     1
102
RTVSPropertyOp21
 70
     1
102
RTVSPropertyOp22
 70
     1
102
RTVSPropertyOp23
 70
     1
102
RTVSPropertyOp24
 70
     1
102
RTVSPropertyOp25
 70
     1
102
RTVSPropertyOp26
 70
     1
102
RTVSPropertyOp27
 70
     1
102
RTVSPropertyOp28
 70
     1
102
RTVSPropertyOp29
 70
     1
102
RTVSPropertyOp30
 70
     1
102
RTVSPropertyOp31
 70
     1
102
RTVSPropertyOp32
 70
     1
102
RTVSPropertyOp33
 70
     1
102
RTVSPropertyOp34
 70
     1
102
RTVSPropertyOp35
 70
     1
102
RTVSPropertyOp36
 70
     1
102
RTVSPropertyOp37
 70
     1
102
RTVSPropertyOp38
 70
     1
102
RTVSPropertyOp39
 70
     1
102
RTVSPropertyOp40
 70
     1
102
RTVSPropertyOp41
 70
     1
102
RTVSPropertyOp42
 70
     1
102
RTVSPropertyOp43
 70
     1
102
RTVSPropertyOp44
 70
     1
102
RTVSPropertyOp45
 70
     1
102
RTVSPropertyOp46
 70
     1
102
RTVSPropertyOp47
 70
     1
102
RTVSPropertyOp48
 70
     1
102
RTVSPropertyOp49
 70
     1
102
RTVSPropertyOp50
 70
     1
102
RTVSPropertyOp51
 70
     0
102
RTVSPropertyOp52
 70
     0
102
RTVSPropertyOp53
 70
     1
102
RTVSPropertyOp54
 70
     1
102
RTVSPropertyOp55
 70
     1
102
RTVSPropertyOp56
 70
     1
102
RTVSPropertyOp57
 70
     1
102
RTVSPost2010Prop28
280
     0
102
RTVSPost2010PropOp28
 70
     1
102
RTVSPost2010Prop29
280
     1
102
RTVSPost2010PropOp29
 70
     1
102
RTVSPost2010Prop30
280
     1
102
RTVSPost2010PropOp30
 70
     1
102
RTVSPost2010Prop31
280
     0
102
RTVSPost2010PropOp31
 70
     1
102
RTVSPost2010Prop32
280
     0
102
RTVSPost2010PropOp32
 70
     1
102
RTVSPost2010Prop33
280
     0
102
RTVSPost2010PropOp33
 70
     1
102
RTVSPost2010Prop34
280
     0
102
RTVSPost2010PropOp34
 70
     1
102
RTVSPost2010Prop35
280
     0
102
RTVSPost2010PropOp35
 70
     1
102
RTVSPost2010Prop36
280
     0
102
RTVSPost2010PropOp36
 70
     1
102
RTVSPost2010Prop37
 90
       50
102
RTVSPost2010PropOp37
 70
     1
102
RTVSPost2010Prop38
140
0.0
102
RTVSPost2010PropOp38
 70
     1
102
RTVSPost2010Prop39
140
1.0
102
RTVSPost2010PropOp39
 70
     1
102
RTVSPost2010Prop40
 90
        0
102
RTVSPost2010PropOp40
 70
     1
102
RTVSPost2010Prop41ColorIndex
 90
       18
102
RTVSPost2010Prop41ColorRGB
 90
        0
102
RTVSPost2010PropOp41
 70
     1
102
RTVSPost2010Prop42
 90
       50
102
RTVSPost2010PropOp42
 70
     1
102
RTVSPost2010Prop43
 90
        3
102
RTVSPost2010PropOp43
 70
     1
102
RTVSPost2010Prop44ColorIndex
 90
        5
102
RTVSPost2010Prop44ColorRGB
 90
      255
102
RTVSPost2010PropOp44
 70
     1
102
RTVSPost2010Prop45
280
     0
102
RTVSPost2010PropOp45
 70
     1
102
RTVSPost2010Prop46
 90
       50
102
RTVSPost2010PropOp46
 70
     1
102
RTVSPost2010Prop47
 90
       50
102
RTVSPost2010PropOp47
 70
     1
102
RTVSPost2010Prop48
 90
       50
102
RTVSPost2010PropOp48
 70
     1
102
RTVSPost2010Prop49
280
     0
102
RTVSPost2010PropOp49
 70
     1
102
RTVSPost2010Prop50
 90
       50
102
RTVSPost2010PropOp50
 70
     1
102
RTVSPost2010Prop51ColorIndex
 90
      256
102
RTVSPost2010Prop51ColorRGB
 90
-16777216
102
RTVSPost2010PropOp51
 70
     0
102
RTVSPost2010Prop52
140
1.0
102
RTVSPost2010PropOp52
 70
     0
102
RTVSPost2010Prop53
 90
        2
102
RTVSPost2010PropOp53
 70
     1
102
RTVSPost2010Prop54
  1
strokes_ogs.tif
102
RTVSPost2010PropOp54
 70
     1
102
RTVSPost2010Prop55
280
     0
102
RTVSPost2010PropOp55
 70
     1
102
RTVSPost2010Prop56
140
1.0
102
RTVSPost2010PropOp56
 70
     1
102
RTVSPost2010Prop57
140
1.0
102
RTVSPost2010PropOp57
 70
     1
  0
XRECORD
  5
2FC
102
{ACAD_REACTORS
330
2FB
102
}
330
2FB
100
AcDbXrecord
280
     1
102
RTVSPropertyOp0
 70
     1
102
RTVSPropertyOp1
 70
     1
102
RTVSPropertyOp2
 70
     1
102
RTVSPropertyOp3
 70
     1
102
RTVSPropertyOp4
 70
     1
102
RTVSPropertyOp5
 70
     1
102
RTVSPropertyOp6
 70
     1
102
RTVSPropertyOp7
 70
     1
102
RTVSPropertyOp8
 70
     1
102
RTVSPropertyOp9
 70
     1
102
RTVSPropertyOp10
 70
     1
102
RTVSPropertyOp11
 70
     1
102
RTVSPropertyOp12
 70
     1
102
RTVSPropertyOp13
 70
     1
102
RTVSPropertyOp14
 70
     1
102
RTVSPropertyOp15
 70
     1
102
RTVSPropertyOp16
 70
     1
102
RTVSPropertyOp17
 70
     1
102
RTVSPropertyOp18
 70
     1
102
RTVSPropertyOp19
 70
     1
102
RTVSPropertyOp20
 70
     1
102
RTVSPropertyOp21
 70
     1
102
RTVSPropertyOp22
 70
     1
102
RTVSPropertyOp23
 70
     1
102
RTVSPropertyOp24
 70
     1
102
RTVSPropertyOp25
 70
     1
102
RTVSPropertyOp26
 70
     1
102
RTVSPropertyOp27
 70
     1
102
RTVSPropertyOp28
 70
     1
102
RTVSPropertyOp29
 70
     1
102
RTVSPropertyOp30
 70
     1
102
RTVSPropertyOp31
 70
     1
102
RTVSPropertyOp32
 70
     1
102
RTVSPropertyOp33
 70
     1
102
RTVSPropertyOp34
 70
     1
102
RTVSPropertyOp35
 70
     1
102
RTVSPropertyOp36
 70
     1
102
RTVSPropertyOp37
 70
     1
102
RTVSPropertyOp38
 70
     1
102
RTVSPropertyOp39
 70
     1
102
RTVSPropertyOp40
 70
     1
102
RTVSPropertyOp41
 70
     1
102
RTVSPropertyOp42
 70
     1
102
RTVSPropertyOp43
 70
     1
102
RTVSPropertyOp44
 70
     1
102
RTVSPropertyOp45
 70
     1
102
RTVSPropertyOp46
 70
     1
102
RTVSPropertyOp47
 70
     1
102
RTVSPropertyOp48
 70
     1
102
RTVSPropertyOp49
 70
     1
102
RTVSPropertyOp50
 70
     1
102
RTVSPropertyOp51
 70
     0
102
RTVSPropertyOp52
 70
     0
102
RTVSPropertyOp53
 70
     1
102
RTVSPropertyOp54
 70
     1
102
RTVSPropertyOp55
 70
     1
102
RTVSPropertyOp56
 70
     1
102
RTVSPropertyOp57
 70
     1
102
RTVSPost2010Prop28
280
     0
102
RTVSPost2010PropOp28
 70
     1
102
RTVSPost2010Prop29
280
     1
102
RTVSPost2010PropOp29
 70
     1
102
RTVSPost2010Prop30
280
     1
102
RTVSPost2010PropOp30
 70
     1
102
RTVSPost2010Prop31
280
     0
102
RTVSPost2010PropOp31
 70
     1
102
RTVSPost2010Prop32
280
     0
102
RTVSPost2010PropOp32
 70
     1
102
RTVSPost2010Prop33
280
     0
102
RTVSPost2010PropOp33
 70
     1
102
RTVSPost2010Prop34
280
     0
102
RTVSPost2010PropOp34
 70
     1
102
RTVSPost2010Prop35
280
     0
102
RTVSPost2010PropOp35
 70
     1
102
RTVSPost2010Prop36
280
     0
102
RTVSPost2010PropOp36
 70
     1
102
RTVSPost2010Prop37
 90
       50
102
RTVSPost2010PropOp37
 70
     1
102
RTVSPost2010Prop38
140
0.0
102
RTVSPost2010PropOp38
 70
     1
102
RTVSPost2010Prop39
140
1.0
102
RTVSPost2010PropOp39
 70
     1
102
RTVSPost2010Prop40
 90
        0
102
RTVSPost2010PropOp40
 70
     1
102
RTVSPost2010Prop41ColorIndex
 90
       18
102
RTVSPost2010Prop41ColorRGB
 90
        0
102
RTVSPost2010PropOp41
 70
     1
102
RTVSPost2010Prop42
 90
       50
102
RTVSPost2010PropOp42
 70
     1
102
RTVSPost2010Prop43
 90
        3
102
RTVSPost2010PropOp43
 70
     1
102
RTVSPost2010Prop44ColorIndex
 90
        5
102
RTVSPost2010Prop44ColorRGB
 90
      255
102
RTVSPost2010PropOp44
 70
     1
102
RTVSPost2010Prop45
280
     0
102
RTVSPost2010PropOp45
 70
     1
102
RTVSPost2010Prop46
 90
       50
102
RTVSPost2010PropOp46
 70
     1
102
RTVSPost2010Prop47
 90
       50
102
RTVSPost2010PropOp47
 70
     1
102
RTVSPost2010Prop48
 90
       50
102
RTVSPost2010PropOp48
 70
     1
102
RTVSPost2010Prop49
280
     0
102
RTVSPost2010PropOp49
 70
     1
102
RTVSPost2010Prop50
 90
       50
102
RTVSPost2010PropOp50
 70
     1
102
RTVSPost2010Prop51ColorIndex
 90
      256
102
RTVSPost2010Prop51ColorRGB
 90
-16777216
102
RTVSPost2010PropOp51
 70
     0
102
RTVSPost2010Prop52
140
1.0
102
RTVSPost2010PropOp52
 70
     0
102
RTVSPost2010Prop53
 90
        2
102
RTVSPost2010PropOp53
 70
     1
102
RTVSPost2010Prop54
  1
strokes_ogs.tif
102
RTVSPost2010PropOp54
 70
     1
102
RTVSPost2010Prop55
280
     0
102
RTVSPost2010PropOp55
 70
     1
102
RTVSPost2010Prop56
140
1.0
102
RTVSPost2010PropOp56
 70
     1
102
RTVSPost2010Prop57
140
1.0
102
RTVSPost2010PropOp57
 70
     1
  0
XRECORD
  5
2F6
102
{ACAD_REACTORS
330
2F5
102
}
330
2F5
100
AcDbXrecord
280
     1
102
RTVSPropertyOp0
 70
     1
102
RTVSPropertyOp1
 70
     1
102
RTVSPropertyOp2
 70
     1
102
RTVSPropertyOp3
 70
     1
102
RTVSPropertyOp4
 70
     1
102
RTVSPropertyOp5
 70
     1
102
RTVSPropertyOp6
 70
     1
102
RTVSPropertyOp7
 70
     1
102
RTVSPropertyOp8
 70
     1
102
RTVSPropertyOp9
 70
     1
102
RTVSPropertyOp10
 70
     1
102
RTVSPropertyOp11
 70
     1
102
RTVSPropertyOp12
 70
     1
102
RTVSPropertyOp13
 70
     1
102
RTVSPropertyOp14
 70
     1
102
RTVSPropertyOp15
 70
     1
102
RTVSPropertyOp16
 70
     1
102
RTVSPropertyOp17
 70
     1
102
RTVSPropertyOp18
 70
     1
102
RTVSPropertyOp19
 70
     1
102
RTVSPropertyOp20
 70
     1
102
RTVSPropertyOp21
 70
     1
102
RTVSPropertyOp22
 70
     1
102
RTVSPropertyOp23
 70
     1
102
RTVSPropertyOp24
 70
     1
102
RTVSPropertyOp25
 70
     1
102
RTVSPropertyOp26
 70
     1
102
RTVSPropertyOp27
 70
     1
102
RTVSPropertyOp28
 70
     1
102
RTVSPropertyOp29
 70
     1
102
RTVSPropertyOp30
 70
     1
102
RTVSPropertyOp31
 70
     1
102
RTVSPropertyOp32
 70
     1
102
RTVSPropertyOp33
 70
     1
102
RTVSPropertyOp34
 70
     1
102
RTVSPropertyOp35
 70
     1
102
RTVSPropertyOp36
 70
     1
102
RTVSPropertyOp37
 70
     1
102
RTVSPropertyOp38
 70
     1
102
RTVSPropertyOp39
 70
     1
102
RTVSPropertyOp40
 70
     1
102
RTVSPropertyOp41
 70
     1
102
RTVSPropertyOp42
 70
     1
102
RTVSPropertyOp43
 70
     1
102
RTVSPropertyOp44
 70
     1
102
RTVSPropertyOp45
 70
     1
102
RTVSPropertyOp46
 70
     1
102
RTVSPropertyOp47
 70
     1
102
RTVSPropertyOp48
 70
     1
102
RTVSPropertyOp49
 70
     1
102
RTVSPropertyOp50
 70
     1
102
RTVSPropertyOp51
 70
     0
102
RTVSPropertyOp52
 70
     0
102
RTVSPropertyOp53
 70
     1
102
RTVSPropertyOp54
 70
     1
102
RTVSPropertyOp55
 70
     1
102
RTVSPropertyOp56
 70
     1
102
RTVSPropertyOp57
 70
     1
102
RTVSPost2010Prop28
280
     0
102
RTVSPost2010PropOp28
 70
     1
102
RTVSPost2010Prop29
280
     1
102
RTVSPost2010PropOp29
 70
     1
102
RTVSPost2010Prop30
280
     1
102
RTVSPost2010PropOp30
 70
     1
102
RTVSPost2010Prop31
280
     0
102
RTVSPost2010PropOp31
 70
     1
102
RTVSPost2010Prop32
280
     0
102
RTVSPost2010PropOp32
 70
     1
102
RTVSPost2010Prop33
280
     0
102
RTVSPost2010PropOp33
 70
     1
102
RTVSPost2010Prop34
280
     0
102
RTVSPost2010PropOp34
 70
     1
102
RTVSPost2010Prop35
280
     0
102
RTVSPost2010PropOp35
 70
     1
102
RTVSPost2010Prop36
280
     0
102
RTVSPost2010PropOp36
 70
     1
102
RTVSPost2010Prop37
 90
       50
102
RTVSPost2010PropOp37
 70
     1
102
RTVSPost2010Prop38
140
0.0
102
RTVSPost2010PropOp38
 70
     1
102
RTVSPost2010Prop39
140
1.0
102
RTVSPost2010PropOp39
 70
     1
102
RTVSPost2010Prop40
 90
        0
102
RTVSPost2010PropOp40
 70
     1
102
RTVSPost2010Prop41ColorIndex
 90
       18
102
RTVSPost2010Prop41ColorRGB
 90
        0
102
RTVSPost2010PropOp41
 70
     1
102
RTVSPost2010Prop42
 90
       50
102
RTVSPost2010PropOp42
 70
     1
102
RTVSPost2010Prop43
 90
        3
102
RTVSPost2010PropOp43
 70
     1
102
RTVSPost2010Prop44ColorIndex
 90
        5
102
RTVSPost2010Prop44ColorRGB
 90
      255
102
RTVSPost2010PropOp44
 70
     1
102
RTVSPost2010Prop45
280
     0
102
RTVSPost2010PropOp45
 70
     1
102
RTVSPost2010Prop46
 90
       50
102
RTVSPost2010PropOp46
 70
     1
102
RTVSPost2010Prop47
 90
       50
102
RTVSPost2010PropOp47
 70
     1
102
RTVSPost2010Prop48
 90
       50
102
RTVSPost2010PropOp48
 70
     1
102
RTVSPost2010Prop49
280
     0
102
RTVSPost2010PropOp49
 70
     1
102
RTVSPost2010Prop50
 90
       50
102
RTVSPost2010PropOp50
 70
     1
102
RTVSPost2010Prop51ColorIndex
 90
      256
102
RTVSPost2010Prop51ColorRGB
 90
-16777216
102
RTVSPost2010PropOp51
 70
     0
102
RTVSPost2010Prop52
140
1.0
102
RTVSPost2010PropOp52
 70
     0
102
RTVSPost2010Prop53
 90
        2
102
RTVSPost2010PropOp53
 70
     1
102
RTVSPost2010Prop54
  1
strokes_ogs.tif
102
RTVSPost2010PropOp54
 70
     1
102
RTVSPost2010Prop55
280
     0
102
RTVSPost2010PropOp55
 70
     1
102
RTVSPost2010Prop56
140
1.0
102
RTVSPost2010PropOp56
 70
     1
102
RTVSPost2010Prop57
140
1.0
102
RTVSPost2010PropOp57
 70
     1
  0
XRECORD
  5
2F8
102
{ACAD_REACTORS
330
2F7
102
}
330
2F7
100
AcDbXrecord
280
     1
102
RTVSPropertyOp0
 70
     1
102
RTVSPropertyOp1
 70
     1
102
RTVSPropertyOp2
 70
     1
102
RTVSPropertyOp3
 70
     1
102
RTVSPropertyOp4
 70
     1
102
RTVSPropertyOp5
 70
     1
102
RTVSPropertyOp6
 70
     1
102
RTVSPropertyOp7
 70
     1
102
RTVSPropertyOp8
 70
     1
102
RTVSPropertyOp9
 70
     1
102
RTVSPropertyOp10
 70
     1
102
RTVSPropertyOp11
 70
     1
102
RTVSPropertyOp12
 70
     1
102
RTVSPropertyOp13
 70
     1
102
RTVSPropertyOp14
 70
     1
102
RTVSPropertyOp15
 70
     1
102
RTVSPropertyOp16
 70
     1
102
RTVSPropertyOp17
 70
     1
102
RTVSPropertyOp18
 70
     1
102
RTVSPropertyOp19
 70
     1
102
RTVSPropertyOp20
 70
     1
102
RTVSPropertyOp21
 70
     1
102
RTVSPropertyOp22
 70
     1
102
RTVSPropertyOp23
 70
     1
102
RTVSPropertyOp24
 70
     1
102
RTVSPropertyOp25
 70
     1
102
RTVSPropertyOp26
 70
     1
102
RTVSPropertyOp27
 70
     1
102
RTVSPropertyOp28
 70
     1
102
RTVSPropertyOp29
 70
     1
102
RTVSPropertyOp30
 70
     1
102
RTVSPropertyOp31
 70
     1
102
RTVSPropertyOp32
 70
     1
102
RTVSPropertyOp33
 70
     1
102
RTVSPropertyOp34
 70
     1
102
RTVSPropertyOp35
 70
     1
102
RTVSPropertyOp36
 70
     1
102
RTVSPropertyOp37
 70
     1
102
RTVSPropertyOp38
 70
     1
102
RTVSPropertyOp39
 70
     1
102
RTVSPropertyOp40
 70
     1
102
RTVSPropertyOp41
 70
     1
102
RTVSPropertyOp42
 70
     1
102
RTVSPropertyOp43
 70
     1
102
RTVSPropertyOp44
 70
     1
102
RTVSPropertyOp45
 70
     1
102
RTVSPropertyOp46
 70
     1
102
RTVSPropertyOp47
 70
     1
102
RTVSPropertyOp48
 70
     1
102
RTVSPropertyOp49
 70
     1
102
RTVSPropertyOp50
 70
     1
102
RTVSPropertyOp51
 70
     0
102
RTVSPropertyOp52
 70
     0
102
RTVSPropertyOp53
 70
     1
102
RTVSPropertyOp54
 70
     1
102
RTVSPropertyOp55
 70
     1
102
RTVSPropertyOp56
 70
     1
102
RTVSPropertyOp57
 70
     1
102
RTVSPost2010Prop28
280
     0
102
RTVSPost2010PropOp28
 70
     1
102
RTVSPost2010Prop29
280
     1
102
RTVSPost2010PropOp29
 70
     1
102
RTVSPost2010Prop30
280
     1
102
RTVSPost2010PropOp30
 70
     1
102
RTVSPost2010Prop31
280
     0
102
RTVSPost2010PropOp31
 70
     1
102
RTVSPost2010Prop32
280
     0
102
RTVSPost2010PropOp32
 70
     1
102
RTVSPost2010Prop33
280
     0
102
RTVSPost2010PropOp33
 70
     1
102
RTVSPost2010Prop34
280
     0
102
RTVSPost2010PropOp34
 70
     1
102
RTVSPost2010Prop35
280
     0
102
RTVSPost2010PropOp35
 70
     1
102
RTVSPost2010Prop36
280
     0
102
RTVSPost2010PropOp36
 70
     1
102
RTVSPost2010Prop37
 90
       50
102
RTVSPost2010PropOp37
 70
     1
102
RTVSPost2010Prop38
140
0.0
102
RTVSPost2010PropOp38
 70
     1
102
RTVSPost2010Prop39
140
1.0
102
RTVSPost2010PropOp39
 70
     1
102
RTVSPost2010Prop40
 90
        0
102
RTVSPost2010PropOp40
 70
     1
102
RTVSPost2010Prop41ColorIndex
 90
       18
102
RTVSPost2010Prop41ColorRGB
 90
        0
102
RTVSPost2010PropOp41
 70
     1
102
RTVSPost2010Prop42
 90
       50
102
RTVSPost2010PropOp42
 70
     1
102
RTVSPost2010Prop43
 90
        3
102
RTVSPost2010PropOp43
 70
     1
102
RTVSPost2010Prop44ColorIndex
 90
        5
102
RTVSPost2010Prop44ColorRGB
 90
      255
102
RTVSPost2010PropOp44
 70
     1
102
RTVSPost2010Prop45
280
     0
102
RTVSPost2010PropOp45
 70
     1
102
RTVSPost2010Prop46
 90
       50
102
RTVSPost2010PropOp46
 70
     1
102
RTVSPost2010Prop47
 90
       50
102
RTVSPost2010PropOp47
 70
     1
102
RTVSPost2010Prop48
 90
       50
102
RTVSPost2010PropOp48
 70
     1
102
RTVSPost2010Prop49
280
     0
102
RTVSPost2010PropOp49
 70
     1
102
RTVSPost2010Prop50
 90
       50
102
RTVSPost2010PropOp50
 70
     1
102
RTVSPost2010Prop51ColorIndex
 90
      256
102
RTVSPost2010Prop51ColorRGB
 90
-16777216
102
RTVSPost2010PropOp51
 70
     0
102
RTVSPost2010Prop52
140
1.0
102
RTVSPost2010PropOp52
 70
     0
102
RTVSPost2010Prop53
 90
        2
102
RTVSPost2010PropOp53
 70
     1
102
RTVSPost2010Prop54
  1
strokes_ogs.tif
102
RTVSPost2010PropOp54
 70
     1
102
RTVSPost2010Prop55
280
     0
102
RTVSPost2010PropOp55
 70
     1
102
RTVSPost2010Prop56
140
1.0
102
RTVSPost2010PropOp56
 70
     1
102
RTVSPost2010Prop57
140
1.0
102
RTVSPost2010PropOp57
 70
     1
  0
XRECORD
  5
2E8
102
{ACAD_REACTORS
330
2E7
102
}
330
2E7
100
AcDbXrecord
280
     1
102
RTVSPropertyOp0
 70
     1
102
RTVSPropertyOp1
 70
     1
102
RTVSPropertyOp2
 70
     1
102
RTVSPropertyOp3
 70
     1
102
RTVSPropertyOp4
 70
     1
102
RTVSPropertyOp5
 70
     1
102
RTVSPropertyOp6
 70
     1
102
RTVSPropertyOp7
 70
     1
102
RTVSPropertyOp8
 70
     1
102
RTVSPropertyOp9
 70
     1
102
RTVSPropertyOp10
 70
     1
102
RTVSPropertyOp11
 70
     1
102
RTVSPropertyOp12
 70
     1
102
RTVSPropertyOp13
 70
     1
102
RTVSPropertyOp14
 70
     1
102
RTVSPropertyOp15
 70
     1
102
RTVSPropertyOp16
 70
     1
102
RTVSPropertyOp17
 70
     1
102
RTVSPropertyOp18
 70
     1
102
RTVSPropertyOp19
 70
     1
102
RTVSPropertyOp20
 70
     1
102
RTVSPropertyOp21
 70
     1
102
RTVSPropertyOp22
 70
     1
102
RTVSPropertyOp23
 70
     1
102
RTVSPropertyOp24
 70
     1
102
RTVSPropertyOp25
 70
     1
102
RTVSPropertyOp26
 70
     1
102
RTVSPropertyOp27
 70
     1
102
RTVSPropertyOp28
 70
     1
102
RTVSPropertyOp29
 70
     1
102
RTVSPropertyOp30
 70
     1
102
RTVSPropertyOp31
 70
     1
102
RTVSPropertyOp32
 70
     1
102
RTVSPropertyOp33
 70
     1
102
RTVSPropertyOp34
 70
     1
102
RTVSPropertyOp35
 70
     1
102
RTVSPropertyOp36
 70
     1
102
RTVSPropertyOp37
 70
     1
102
RTVSPropertyOp38
 70
     1
102
RTVSPropertyOp39
 70
     1
102
RTVSPropertyOp40
 70
     1
102
RTVSPropertyOp41
 70
     1
102
RTVSPropertyOp42
 70
     1
102
RTVSPropertyOp43
 70
     1
102
RTVSPropertyOp44
 70
     1
102
RTVSPropertyOp45
 70
     1
102
RTVSPropertyOp46
 70
     1
102
RTVSPropertyOp47
 70
     1
102
RTVSPropertyOp48
 70
     1
102
RTVSPropertyOp49
 70
     1
102
RTVSPropertyOp50
 70
     1
102
RTVSPropertyOp51
 70
     0
102
RTVSPropertyOp52
 70
     0
102
RTVSPropertyOp53
 70
     1
102
RTVSPropertyOp54
 70
     1
102
RTVSPropertyOp55
 70
     1
102
RTVSPropertyOp56
 70
     1
102
RTVSPropertyOp57
 70
     1
102
RTVSPost2010Prop28
280
     0
102
RTVSPost2010PropOp28
 70
     1
102
RTVSPost2010Prop29
280
     1
102
RTVSPost2010PropOp29
 70
     1
102
RTVSPost2010Prop30
280
     1
102
RTVSPost2010PropOp30
 70
     1
102
RTVSPost2010Prop31
280
     0
102
RTVSPost2010PropOp31
 70
     1
102
RTVSPost2010Prop32
280
     0
102
RTVSPost2010PropOp32
 70
     1
102
RTVSPost2010Prop33
280
     0
102
RTVSPost2010PropOp33
 70
     1
102
RTVSPost2010Prop34
280
     0
102
RTVSPost2010PropOp34
 70
     1
102
RTVSPost2010Prop35
280
     0
102
RTVSPost2010PropOp35
 70
     1
102
RTVSPost2010Prop36
280
     0
102
RTVSPost2010PropOp36
 70
     1
102
RTVSPost2010Prop37
 90
       50
102
RTVSPost2010PropOp37
 70
     1
102
RTVSPost2010Prop38
140
0.0
102
RTVSPost2010PropOp38
 70
     1
102
RTVSPost2010Prop39
140
1.0
102
RTVSPost2010PropOp39
 70
     1
102
RTVSPost2010Prop40
 90
        0
102
RTVSPost2010PropOp40
 70
     1
102
RTVSPost2010Prop41ColorIndex
 90
       18
102
RTVSPost2010Prop41ColorRGB
 90
        0
102
RTVSPost2010PropOp41
 70
     1
102
RTVSPost2010Prop42
 90
       50
102
RTVSPost2010PropOp42
 70
     1
102
RTVSPost2010Prop43
 90
        3
102
RTVSPost2010PropOp43
 70
     1
102
RTVSPost2010Prop44ColorIndex
 90
        5
102
RTVSPost2010Prop44ColorRGB
 90
      255
102
RTVSPost2010PropOp44
 70
     1
102
RTVSPost2010Prop45
280
     0
102
RTVSPost2010PropOp45
 70
     1
102
RTVSPost2010Prop46
 90
       50
102
RTVSPost2010PropOp46
 70
     1
102
RTVSPost2010Prop47
 90
       50
102
RTVSPost2010PropOp47
 70
     1
102
RTVSPost2010Prop48
 90
       50
102
RTVSPost2010PropOp48
 70
     1
102
RTVSPost2010Prop49
280
     0
102
RTVSPost2010PropOp49
 70
     1
102
RTVSPost2010Prop50
 90
       50
102
RTVSPost2010PropOp50
 70
     1
102
RTVSPost2010Prop51ColorIndex
 90
      256
102
RTVSPost2010Prop51ColorRGB
 90
-16777216
102
RTVSPost2010PropOp51
 70
     0
102
RTVSPost2010Prop52
140
1.0
102
RTVSPost2010PropOp52
 70
     0
102
RTVSPost2010Prop53
 90
        2
102
RTVSPost2010PropOp53
 70
     1
102
RTVSPost2010Prop54
  1
strokes_ogs.tif
102
RTVSPost2010PropOp54
 70
     1
102
RTVSPost2010Prop55
280
     0
102
RTVSPost2010PropOp55
 70
     1
102
RTVSPost2010Prop56
140
1.0
102
RTVSPost2010PropOp56
 70
     1
102
RTVSPost2010Prop57
140
1.0
102
RTVSPost2010PropOp57
 70
     1
  0
XRECORD
  5
2DA
102
{ACAD_REACTORS
330
2D9
102
}
330
2D9
100
AcDbXrecord
280
     1
102
RTVSPropertyOp0
 70
     1
102
RTVSPropertyOp1
 70
     1
102
RTVSPropertyOp2
 70
     1
102
RTVSPropertyOp3
 70
     1
102
RTVSPropertyOp4
 70
     1
102
RTVSPropertyOp5
 70
     1
102
RTVSPropertyOp6
 70
     1
102
RTVSPropertyOp7
 70
     1
102
RTVSPropertyOp8
 70
     1
102
RTVSPropertyOp9
 70
     1
102
RTVSPropertyOp10
 70
     1
102
RTVSPropertyOp11
 70
     1
102
RTVSPropertyOp12
 70
     1
102
RTVSPropertyOp13
 70
     1
102
RTVSPropertyOp14
 70
     1
102
RTVSPropertyOp15
 70
     1
102
RTVSPropertyOp16
 70
     1
102
RTVSPropertyOp17
 70
     1
102
RTVSPropertyOp18
 70
     1
102
RTVSPropertyOp19
 70
     1
102
RTVSPropertyOp20
 70
     1
102
RTVSPropertyOp21
 70
     1
102
RTVSPropertyOp22
 70
     1
102
RTVSPropertyOp23
 70
     1
102
RTVSPropertyOp24
 70
     1
102
RTVSPropertyOp25
 70
     1
102
RTVSPropertyOp26
 70
     1
102
RTVSPropertyOp27
 70
     1
102
RTVSPropertyOp28
 70
     1
102
RTVSPropertyOp29
 70
     1
102
RTVSPropertyOp30
 70
     1
102
RTVSPropertyOp31
 70
     1
102
RTVSPropertyOp32
 70
     1
102
RTVSPropertyOp33
 70
     1
102
RTVSPropertyOp34
 70
     1
102
RTVSPropertyOp35
 70
     1
102
RTVSPropertyOp36
 70
     1
102
RTVSPropertyOp37
 70
     1
102
RTVSPropertyOp38
 70
     1
102
RTVSPropertyOp39
 70
     1
102
RTVSPropertyOp40
 70
     1
102
RTVSPropertyOp41
 70
     1
102
RTVSPropertyOp42
 70
     1
102
RTVSPropertyOp43
 70
     1
102
RTVSPropertyOp44
 70
     1
102
RTVSPropertyOp45
 70
     1
102
RTVSPropertyOp46
 70
     1
102
RTVSPropertyOp47
 70
     1
102
RTVSPropertyOp48
 70
     1
102
RTVSPropertyOp49
 70
     1
102
RTVSPropertyOp50
 70
     1
102
RTVSPropertyOp51
 70
     0
102
RTVSPropertyOp52
 70
     0
102
RTVSPropertyOp53
 70
     1
102
RTVSPropertyOp54
 70
     1
102
RTVSPropertyOp55
 70
     1
102
RTVSPropertyOp56
 70
     1
102
RTVSPropertyOp57
 70
     1
102
RTVSPost2010Prop28
280
     0
102
RTVSPost2010PropOp28
 70
     1
102
RTVSPost2010Prop29
280
     1
102
RTVSPost2010PropOp29
 70
     1
102
RTVSPost2010Prop30
280
     1
102
RTVSPost2010PropOp30
 70
     1
102
RTVSPost2010Prop31
280
     0
102
RTVSPost2010PropOp31
 70
     1
102
RTVSPost2010Prop32
280
     0
102
RTVSPost2010PropOp32
 70
     1
102
RTVSPost2010Prop33
280
     0
102
RTVSPost2010PropOp33
 70
     1
102
RTVSPost2010Prop34
280
     0
102
RTVSPost2010PropOp34
 70
     1
102
RTVSPost2010Prop35
280
     0
102
RTVSPost2010PropOp35
 70
     1
102
RTVSPost2010Prop36
280
     0
102
RTVSPost2010PropOp36
 70
     1
102
RTVSPost2010Prop37
 90
       50
102
RTVSPost2010PropOp37
 70
     1
102
RTVSPost2010Prop38
140
0.0
102
RTVSPost2010PropOp38
 70
     1
102
RTVSPost2010Prop39
140
1.0
102
RTVSPost2010PropOp39
 70
     1
102
RTVSPost2010Prop40
 90
        0
102
RTVSPost2010PropOp40
 70
     1
102
RTVSPost2010Prop41ColorIndex
 90
       18
102
RTVSPost2010Prop41ColorRGB
 90
        0
102
RTVSPost2010PropOp41
 70
     1
102
RTVSPost2010Prop42
 90
       50
102
RTVSPost2010PropOp42
 70
     1
102
RTVSPost2010Prop43
 90
        3
102
RTVSPost2010PropOp43
 70
     1
102
RTVSPost2010Prop44ColorIndex
 90
        5
102
RTVSPost2010Prop44ColorRGB
 90
      255
102
RTVSPost2010PropOp44
 70
     1
102
RTVSPost2010Prop45
280
     0
102
RTVSPost2010PropOp45
 70
     1
102
RTVSPost2010Prop46
 90
       50
102
RTVSPost2010PropOp46
 70
     1
102
RTVSPost2010Prop47
 90
       50
102
RTVSPost2010PropOp47
 70
     1
102
RTVSPost2010Prop48
 90
       50
102
RTVSPost2010PropOp48
 70
     1
102
RTVSPost2010Prop49
280
     0
102
RTVSPost2010PropOp49
 70
     1
102
RTVSPost2010Prop50
 90
       50
102
RTVSPost2010PropOp50
 70
     1
102
RTVSPost2010Prop51ColorIndex
 90
      256
102
RTVSPost2010Prop51ColorRGB
 90
-16777216
102
RTVSPost2010PropOp51
 70
     0
102
RTVSPost2010Prop52
140
1.0
102
RTVSPost2010PropOp52
 70
     0
102
RTVSPost2010Prop53
 90
        2
102
RTVSPost2010PropOp53
 70
     1
102
RTVSPost2010Prop54
  1
strokes_ogs.tif
102
RTVSPost2010PropOp54
 70
     1
102
RTVSPost2010Prop55
280
     0
102
RTVSPost2010PropOp55
 70
     1
102
RTVSPost2010Prop56
140
1.0
102
RTVSPost2010PropOp56
 70
     1
102
RTVSPost2010Prop57
140
1.0
102
RTVSPost2010PropOp57
 70
     1
  0
XRECORD
  5
2FA
102
{ACAD_REACTORS
330
2F9
102
}
330
2F9
100
AcDbXrecord
280
     1
102
RTVSPropertyOp0
 70
     1
102
RTVSPropertyOp1
 70
     1
102
RTVSPropertyOp2
 70
     1
102
RTVSPropertyOp3
 70
     1
102
RTVSPropertyOp4
 70
     1
102
RTVSPropertyOp5
 70
     1
102
RTVSPropertyOp6
 70
     1
102
RTVSPropertyOp7
 70
     1
102
RTVSPropertyOp8
 70
     1
102
RTVSPropertyOp9
 70
     1
102
RTVSPropertyOp10
 70
     1
102
RTVSPropertyOp11
 70
     1
102
RTVSPropertyOp12
 70
     1
102
RTVSPropertyOp13
 70
     1
102
RTVSPropertyOp14
 70
     1
102
RTVSPropertyOp15
 70
     1
102
RTVSPropertyOp16
 70
     1
102
RTVSPropertyOp17
 70
     1
102
RTVSPropertyOp18
 70
     1
102
RTVSPropertyOp19
 70
     1
102
RTVSPropertyOp20
 70
     1
102
RTVSPropertyOp21
 70
     1
102
RTVSPropertyOp22
 70
     1
102
RTVSPropertyOp23
 70
     1
102
RTVSPropertyOp24
 70
     1
102
RTVSPropertyOp25
 70
     1
102
RTVSPropertyOp26
 70
     1
102
RTVSPropertyOp27
 70
     1
102
RTVSPropertyOp28
 70
     1
102
RTVSPropertyOp29
 70
     1
102
RTVSPropertyOp30
 70
     1
102
RTVSPropertyOp31
 70
     1
102
RTVSPropertyOp32
 70
     1
102
RTVSPropertyOp33
 70
     1
102
RTVSPropertyOp34
 70
     1
102
RTVSPropertyOp35
 70
     1
102
RTVSPropertyOp36
 70
     1
102
RTVSPropertyOp37
 70
     1
102
RTVSPropertyOp38
 70
     1
102
RTVSPropertyOp39
 70
     1
102
RTVSPropertyOp40
 70
     1
102
RTVSPropertyOp41
 70
     1
102
RTVSPropertyOp42
 70
     1
102
RTVSPropertyOp43
 70
     1
102
RTVSPropertyOp44
 70
     1
102
RTVSPropertyOp45
 70
     1
102
RTVSPropertyOp46
 70
     1
102
RTVSPropertyOp47
 70
     1
102
RTVSPropertyOp48
 70
     1
102
RTVSPropertyOp49
 70
     1
102
RTVSPropertyOp50
 70
     1
102
RTVSPropertyOp51
 70
     0
102
RTVSPropertyOp52
 70
     0
102
RTVSPropertyOp53
 70
     1
102
RTVSPropertyOp54
 70
     1
102
RTVSPropertyOp55
 70
     1
102
RTVSPropertyOp56
 70
     1
102
RTVSPropertyOp57
 70
     1
102
RTVSPost2010Prop28
280
     0
102
RTVSPost2010PropOp28
 70
     1
102
RTVSPost2010Prop29
280
     1
102
RTVSPost2010PropOp29
 70
     1
102
RTVSPost2010Prop30
280
     1
102
RTVSPost2010PropOp30
 70
     1
102
RTVSPost2010Prop31
280
     0
102
RTVSPost2010PropOp31
 70
     1
102
RTVSPost2010Prop32
280
     0
102
RTVSPost2010PropOp32
 70
     1
102
RTVSPost2010Prop33
280
     0
102
RTVSPost2010PropOp33
 70
     1
102
RTVSPost2010Prop34
280
     0
102
RTVSPost2010PropOp34
 70
     1
102
RTVSPost2010Prop35
280
     0
102
RTVSPost2010PropOp35
 70
     1
102
RTVSPost2010Prop36
280
     0
102
RTVSPost2010PropOp36
 70
     1
102
RTVSPost2010Prop37
 90
       50
102
RTVSPost2010PropOp37
 70
     1
102
RTVSPost2010Prop38
140
0.0
102
RTVSPost2010PropOp38
 70
     1
102
RTVSPost2010Prop39
140
1.0
102
RTVSPost2010PropOp39
 70
     1
102
RTVSPost2010Prop40
 90
        0
102
RTVSPost2010PropOp40
 70
     1
102
RTVSPost2010Prop41ColorIndex
 90
       18
102
RTVSPost2010Prop41ColorRGB
 90
        0
102
RTVSPost2010PropOp41
 70
     1
102
RTVSPost2010Prop42
 90
       50
102
RTVSPost2010PropOp42
 70
     1
102
RTVSPost2010Prop43
 90
        3
102
RTVSPost2010PropOp43
 70
     1
102
RTVSPost2010Prop44ColorIndex
 90
        5
102
RTVSPost2010Prop44ColorRGB
 90
      255
102
RTVSPost2010PropOp44
 70
     1
102
RTVSPost2010Prop45
280
     0
102
RTVSPost2010PropOp45
 70
     1
102
RTVSPost2010Prop46
 90
       50
102
RTVSPost2010PropOp46
 70
     1
102
RTVSPost2010Prop47
 90
       50
102
RTVSPost2010PropOp47
 70
     1
102
RTVSPost2010Prop48
 90
       50
102
RTVSPost2010PropOp48
 70
     1
102
RTVSPost2010Prop49
280
     0
102
RTVSPost2010PropOp49
 70
     1
102
RTVSPost2010Prop50
 90
       50
102
RTVSPost2010PropOp50
 70
     1
102
RTVSPost2010Prop51ColorIndex
 90
      256
102
RTVSPost2010Prop51ColorRGB
 90
-16777216
102
RTVSPost2010PropOp51
 70
     0
102
RTVSPost2010Prop52
140
1.0
102
RTVSPost2010PropOp52
 70
     0
102
RTVSPost2010Prop53
 90
        2
102
RTVSPost2010PropOp53
 70
     1
102
RTVSPost2010Prop54
  1
strokes_ogs.tif
102
RTVSPost2010PropOp54
 70
     1
102
RTVSPost2010Prop55
280
     0
102
RTVSPost2010PropOp55
 70
     1
102
RTVSPost2010Prop56
140
1.0
102
RTVSPost2010PropOp56
 70
     1
102
RTVSPost2010Prop57
140
1.0
102
RTVSPost2010PropOp57
 70
     1
  0
ENDSEC
  0
EOF
