  0
SECTION
  2
HEADER
  9
$ACADVER
  1
AC1018
  9
$ACADMAINTVER
 70
     0
  9
$DWGCODEPAGE
  3
ANSI_932
  9
$INSBASE
 10
0.0
 20
0.0
 30
0.0
  9
$EXTMIN
 10
-2100.0
 20
-1485.0
 30
0.0
  9
$EXTMAX
 10
2100.0
 20
1485.0
 30
0.0
  9
$LIMMIN
 10
-2100.0
 20
-1485.0
  9
$LIMMAX
 10
2100.0
 20
1485.0
  9
$ORTHOMODE
 70
     0
  9
$REGENMODE
 70
     1
  9
$FILLMODE
 70
     1
  9
$QTEXTMODE
 70
     0
  9
$MIRRTEXT
 70
     1
  9
$LTSCALE
 40
10.0
  9
$ATTMODE
 70
     1
  9
$TEXTSIZE
 40
2.5
  9
$TRACEWID
 40
1.0
  9
$TEXTSTYLE
  7
Standard
  9
$CLAYER
  8
0
  9
$CELTYPE
  6
ByLayer
  9
$CECOLOR
 62
   256
  9
$CELTSCALE
 40
1.0
  9
$DISPSILH
 70
     0
  9
$DIMSCALE
 40
1.0
  9
$DIMASZ
 40
2.5
  9
$DIMEXO
 40
0.625
  9
$DIMDLI
 40
3.75
  9
$DIMRND
 40
0.0
  9
$DIMDLE
 40
0.0
  9
$DIMEXE
 40
1.25
  9
$DIMTP
 40
0.0
  9
$DIMTM
 40
0.0
  9
$DIMTXT
 40
2.5
  9
$DIMCEN
 40
2.5
  9
$DIMTSZ
 40
0.0
  9
$DIMTOL
 70
     0
  9
$DIMLIM
 70
     0
  9
$DIMTIH
 70
     0
  9
$DIMTOH
 70
     0
  9
$DIMSE1
 70
     0
  9
$DIMSE2
 70
     0
  9
$DIMTAD
 70
     1
  9
$DIMZIN
 70
     8
  9
$DIMBLK
  1

  9
$DIMASO
 70
     1
  9
$DIMSHO
 70
     1
  9
$DIMPOST
  1

  9
$DIMAPOST
  1

  9
$DIMALT
 70
     0
  9
$DIMALTD
 70
     3
  9
$DIMALTF
 40
0.03937007874016
  9
$DIMLFAC
 40
1.0
  9
$DIMTOFL
 70
     1
  9
$DIMTVP
 40
0.0
  9
$DIMTIX
 70
     0
  9
$DIMSOXD
 70
     0
  9
$DIMSAH
 70
     0
  9
$DIMBLK1
  1

  9
$DIMBLK2
  1

  9
$DIMSTYLE
  2
ISO-25
  9
$DIMCLRD
 70
     0
  9
$DIMCLRE
 70
     0
  9
$DIMCLRT
 70
     0
  9
$DIMTFAC
 40
1.0
  9
$DIMGAP
 40
0.625
  9
$DIMJUST
 70
     0
  9
$DIMSD1
 70
     0
  9
$DIMSD2
 70
     0
  9
$DIMTOLJ
 70
     0
  9
$DIMTZIN
 70
     8
  9
$DIMALTZ
 70
     0
  9
$DIMALTTZ
 70
     0
  9
$DIMUPT
 70
     0
  9
$DIMDEC
 70
     2
  9
$DIMTDEC
 70
     2
  9
$DIMALTU
 70
     2
  9
$DIMALTTD
 70
     3
  9
$DIMTXSTY
  7
Standard
  9
$DIMAUNIT
 70
     0
  9
$DIMADEC
 70
     0
  9
$DIMALTRND
 40
0.0
  9
$DIMAZIN
 70
     0
  9
$DIMDSEP
 70
    44
  9
$DIMATFIT
 70
     3
  9
$DIMFRAC
 70
     0
  9
$DIMLDRBLK
  1

  9
$DIMLUNIT
 70
     2
  9
$DIMLWD
 70
    -2
  9
$DIMLWE
 70
    -2
  9
$DIMTMOVE
 70
     0
  9
$LUNITS
 70
     2
  9
$LUPREC
 70
     4
  9
$SKETCHINC
 40
1.0
  9
$FILLETRAD
 40
10.0
  9
$AUNITS
 70
     0
  9
$AUPREC
 70
     0
  9
$MENU
  1
.
  9
$ELEVATION
 40
0.0
  9
$PELEVATION
 40
0.0
  9
$THICKNESS
 40
0.0
  9
$LIMCHECK
 70
     0
  9
$CHAMFERA
 40
10.0
  9
$CHAMFERB
 40
10.0
  9
$CHAMFERC
 40
20.0
  9
$CHAMFERD
 40
0.0
  9
$SKPOLY
 70
     0
  9
$TDCREATE
 40
2456499.588207176
  9
$TDUCREATE
 40
2456499.213207176
  9
$TDUPDATE
 40
2456499.588207188
  9
$TDUUPDATE
 40
2456499.213207188
  9
$TDINDWG
 40
0.0000000116
  9
$TDUSRTIMER
 40
0.0000000116
  9
$USRTIMER
 70
     1
  9
$ANGBASE
 50
0.0
  9
$ANGDIR
 70
     0
  9
$PDMODE
 70
     0
  9
$PDSIZE
 40
0.0
  9
$PLINEWID
 40
0.0
  9
$SPLFRAME
 70
     0
  9
$SPLINETYPE
 70
     6
  9
$SPLINESEGS
 70
     8
  9
$HANDSEED
  5
1DB
  9
$SURFTAB1
 70
     6
  9
$SURFTAB2
 70
     6
  9
$SURFTYPE
 70
     6
  9
$SURFU
 70
     6
  9
$SURFV
 70
     6
  9
$UCSBASE
  2

  9
$UCSNAME
  2

  9
$UCSORG
 10
0.0
 20
0.0
 30
0.0
  9
$UCSXDIR
 10
1.0
 20
0.0
 30
0.0
  9
$UCSYDIR
 10
0.0
 20
1.0
 30
0.0
  9
$UCSORTHOREF
  2

  9
$UCSORTHOVIEW
 70
     0
  9
$UCSORGTOP
 10
0.0
 20
0.0
 30
0.0
  9
$UCSORGBOTTOM
 10
0.0
 20
0.0
 30
0.0
  9
$UCSORGLEFT
 10
0.0
 20
0.0
 30
0.0
  9
$UCSORGRIGHT
 10
0.0
 20
0.0
 30
0.0
  9
$UCSORGFRONT
 10
0.0
 20
0.0
 30
0.0
  9
$UCSORGBACK
 10
0.0
 20
0.0
 30
0.0
  9
$PUCSBASE
  2

  9
$PUCSNAME
  2

  9
$PUCSORG
 10
0.0
 20
0.0
 30
0.0
  9
$PUCSXDIR
 10
1.0
 20
0.0
 30
0.0
  9
$PUCSYDIR
 10
0.0
 20
1.0
 30
0.0
  9
$PUCSORTHOREF
  2

  9
$PUCSORTHOVIEW
 70
     0
  9
$PUCSORGTOP
 10
0.0
 20
0.0
 30
0.0
  9
$PUCSORGBOTTOM
 10
0.0
 20
0.0
 30
0.0
  9
$PUCSORGLEFT
 10
0.0
 20
0.0
 30
0.0
  9
$PUCSORGRIGHT
 10
0.0
 20
0.0
 30
0.0
  9
$PUCSORGFRONT
 10
0.0
 20
0.0
 30
0.0
  9
$PUCSORGBACK
 10
0.0
 20
0.0
 30
0.0
  9
$USERI1
 70
     0
  9
$USERI2
 70
     0
  9
$USERI3
 70
     0
  9
$USERI4
 70
     0
  9
$USERI5
 70
     0
  9
$USERR1
 40
0.0
  9
$USERR2
 40
0.0
  9
$USERR3
 40
0.0
  9
$USERR4
 40
0.0
  9
$USERR5
 40
0.0
  9
$WORLDVIEW
 70
     1
  9
$SHADEDGE
 70
     3
  9
$SHADEDIF
 70
    70
  9
$TILEMODE
 70
     1
  9
$MAXACTVP
 70
    64
  9
$PINSBASE
 10
0.0
 20
0.0
 30
0.0
  9
$PLIMCHECK
 70
     0
  9
$PEXTMIN
 10
1.000000000000000E+20
 20
1.000000000000000E+20
 30
1.000000000000000E+20
  9
$PEXTMAX
 10
-1.000000000000000E+20
 20
-1.000000000000000E+20
 30
-1.000000000000000E+20
  9
$PLIMMIN
 10
0.0
 20
0.0
  9
$PLIMMAX
 10
420.0
 20
297.0
  9
$UNITMODE
 70
     0
  9
$VISRETAIN
 70
     1
  9
$PLINEGEN
 70
     0
  9
$PSLTSCALE
 70
     1
  9
$TREEDEPTH
 70
  3020
  9
$CMLSTYLE
  2
Standard
  9
$CMLJUST
 70
     0
  9
$CMLSCALE
 40
20.0
  9
$PROXYGRAPHICS
 70
     1
  9
$MEASUREMENT
 70
     1
  9
$CELWEIGHT
370
    -1
  9
$ENDCAPS
280
     0
  9
$JOINSTYLE
280
     0
  9
$LWDISPLAY
290
     0
  9
$INSUNITS
 70
     4
  9
$HYPERLINKBASE
  1

  9
$STYLESHEET
  1

  9
$XEDIT
290
     1
  9
$CEPSNTYPE
380
     0
  9
$PSTYLEMODE
290
     1
  9
$FINGERPRINTGUID
  2
{1DE41398-44E1-46AF-B49C-BDE831C81C87}
  9
$VERSIONGUID
  2
{FAEB1C32-E019-11D5-929B-00C0DF256EC4}
  9
$EXTNAMES
290
     1
  9
$PSVPSCALE
 40
0.0
  9
$OLESTARTUP
290
     0
  9
$SORTENTS
280
   127
  9
$INDEXCTL
280
     0
  9
$HIDETEXT
280
     1
  9
$XCLIPFRAME
290
     0
  9
$HALOGAP
280
     0
  9
$OBSCOLOR
 70
   257
  9
$OBSLTYPE
280
     0
  9
$INTERSECTIONDISPLAY
280
     0
  9
$INTERSECTIONCOLOR
 70
   257
  9
$DIMASSOC
280
     2
  9
$PROJECTNAME
  1

  0
ENDSEC
  0
SECTION
  2
CLASSES
  0
CLASS
  1
ACDBDICTIONARYWDFLT
  2
AcDbDictionaryWithDefault
  3
ObjectDBX Classes
 90
        0
 91
        4
280
     0
281
     0
  0
CLASS
  1
VISUALSTYLE
  2
AcDbVisualStyle
  3
ObjectDBX Classes
 90
     4095
 91
        4
280
     0
281
     0
  0
ENDSEC
  0
SECTION
  2
TABLES
  0
TABLE
  2
VPORT
  5
8
330
0
100
AcDbSymbolTable
 70
     1
  0
VPORT
  5
29
330
8
100
AcDbSymbolTableRecord
100
AcDbViewportTableRecord
  2
*Active
 70
     0
 10
0.0
 20
0.0
 11
1.0
 21
1.0
 12
0.0
 22
0.0
 13
0.0
 23
0.0
 14
10.0
 24
10.0
 15
10.0
 25
10.0
 16
0.0
 26
0.0
 36
1.0
 17
0.0
 27
0.0
 37
0.0
 40
3267.0
 41
1.414141414141414
 42
50.0
 43
0.0
 44
0.0
 50
0.0
 51
0.0
 71
     0
 72
 10000
 73
     1
 74
     3
 75
     0
 76
     0
 77
     0
 78
     0
281
     0
 65
     1
110
0.0
120
0.0
130
0.0
111
1.0
121
0.0
131
0.0
112
0.0
122
1.0
132
0.0
 79
     0
146
0.0
  0
ENDTAB
  0
TABLE
  2
LTYPE
  5
5
330
0
100
AcDbSymbolTable
 70
     5
  0
LTYPE
  5
14
330
5
100
AcDbSymbolTableRecord
100
AcDbLinetypeTableRecord
  2
ByBlock
 70
     0
  3

 72
    65
 73
     0
 40
0.0
  0
LTYPE
  5
15
330
5
100
AcDbSymbolTableRecord
100
AcDbLinetypeTableRecord
  2
ByLayer
 70
     0
  3

 72
    65
 73
     0
 40
0.0
  0
LTYPE
  5
16
330
5
100
AcDbSymbolTableRecord
100
AcDbLinetypeTableRecord
  2
Continuous
 70
     0
  3
Solid line
 72
    65
 73
     0
 40
0.0
  0
LTYPE
  5
3C
330
5
100
AcDbSymbolTableRecord
100
AcDbLinetypeTableRecord
  2
JWW_CENTER1
 70
     0
  3
-----  --  ----------  --  -----
 72
    65
 73
     4
 40
6.773333333333333
 49
4.233333333333333
 74
     0
 49
-0.8466666666666667
 74
     0
 49
0.8466666666666667
 74
     0
 49
-0.8466666666666667
 74
     0
  0
LTYPE
  5
3D
330
5
100
AcDbSymbolTableRecord
100
AcDbLinetypeTableRecord
  2
JWW_DASHED1
 70
     0
  3
-  --  --  --  --  --  --  --  -
 72
    65
 73
     2
 40
1.693333333333333
 49
0.8466666666666667
 74
     0
 49
-0.8466666666666667
 74
     0
  0
LTYPE
  5
3E
330
5
100
AcDbSymbolTableRecord
100
AcDbLinetypeTableRecord
  2
JWW_PHANTOM1
 70
     0
  3
----  -  -  --------  -  -  ----
 72
    65
 73
     6
 40
6.773333333333333
 49
3.386666666666667
 74
     0
 49
-0.8466666666666667
 74
     0
 49
0.4233333333333333
 74
     0
 49
-0.8466666666666667
 74
     0
 49
0.4233333333333333
 74
     0
 49
-0.8466666666666667
 74
     0
  0
LTYPE
  5
3F
330
5
100
AcDbSymbolTableRecord
100
AcDbLinetypeTableRecord
  2
JWW_DASHED2
 70
     0
  3
--    ----    ----    ----    --
 72
    65
 73
     2
 40
3.386666666666667
 49
1.693333333333333
 74
     0
 49
-1.693333333333333
 74
     0
  0
ENDTAB
  0
TABLE
  2
LAYER
  5
2
330
0
100
AcDbSymbolTable
 70
     8
  0
LAYER
  5
10
330
2
100
AcDbSymbolTableRecord
100
AcDbLayerTableRecord
  2
0
 70
     0
 62
     7
  6
Continuous
370
    -3
390
F
  0
LAYER
  5
40
330
2
100
AcDbSymbolTableRecord
100
AcDbLayerTableRecord
  2
1-F
 70
     0
 62
     7
  6
Continuous
370
    -3
390
F
  0
LAYER
  5
41
330
2
100
AcDbSymbolTableRecord
100
AcDbLayerTableRecord
  2
1-0
 70
     0
 62
     7
  6
Continuous
370
    -3
390
F
  0
LAYER
  5
42
330
2
100
AcDbSymbolTableRecord
100
AcDbLayerTableRecord
  2
1-D
 70
     0
 62
     7
  6
Continuous
370
    -3
390
F
  0
LAYER
  5
43
330
2
100
AcDbSymbolTableRecord
100
AcDbLayerTableRecord
  2
1-1
 70
     0
 62
     7
  6
Continuous
370
    -3
390
F
  0
LAYER
  5
44
330
2
100
AcDbSymbolTableRecord
100
AcDbLayerTableRecord
  2
1-4
 70
     0
 62
     7
  6
Continuous
370
    -3
390
F
  0
LAYER
  5
45
330
2
100
AcDbSymbolTableRecord
100
AcDbLayerTableRecord
  2
F-5
 70
     0
 62
     7
  6
Continuous
370
    -3
390
F
  0
LAYER
  5
46
330
2
100
AcDbSymbolTableRecord
100
AcDbLayerTableRecord
  2
1-5
 70
     0
 62
     7
  6
Continuous
370
    -3
390
F
  0
ENDTAB
  0
TABLE
  2
STYLE
  5
3
330
0
100
AcDbSymbolTable
 70
     2
  0
STYLE
  5
11
330
3
100
AcDbSymbolTableRecord
100
AcDbTextStyleTableRecord
  2
Standard
 70
     0
 40
0.0
 41
1.0
 50
0.0
 71
     0
 42
2.5
  3
txt
  4

1001
ACAD
1000

1071
        0
  0
STYLE
  5
3B
330
3
100
AcDbSymbolTableRecord
100
AcDbTextStyleTableRecord
  2
ＭＳ ゴシック
 70
     0
 40
1.0
 41
1.0
 50
0.0
 71
     0
 42
10.0
  3

  4

1001
ACAD
1000
MS Gothic
1071
    32817
  0
ENDTAB
  0
TABLE
  2
VIEW
  5
6
330
0
100
AcDbSymbolTable
 70
     0
  0
ENDTAB
  0
TABLE
  2
UCS
  5
7
330
0
100
AcDbSymbolTable
 70
     0
  0
ENDTAB
  0
TABLE
  2
APPID
  5
9
330
0
100
AcDbSymbolTable
 70
     1
  0
APPID
  5
12
330
9
100
AcDbSymbolTableRecord
100
AcDbRegAppTableRecord
  2
ACAD
 70
     0
  0
ENDTAB
  0
TABLE
  2
DIMSTYLE
  5
A
330
0
100
AcDbSymbolTable
 70
     1
100
AcDbDimStyleTable
  0
DIMSTYLE
105
27
330
A
100
AcDbSymbolTableRecord
100
AcDbDimStyleTableRecord
  2
ISO-25
 70
     0
 41
2.5
 42
0.625
 43
3.75
 44
1.25
 73
     0
 74
     0
 77
     1
 78
     8
140
2.5
141
2.5
143
0.03937007874016
147
0.625
171
     3
172
     1
271
     2
272
     2
274
     3
278
    44
283
     0
284
     8
340
11
  0
ENDTAB
  0
TABLE
  2
BLOCK_RECORD
  5
1
330
0
100
AcDbSymbolTable
 70
     1
  0
BLOCK_RECORD
  5
1F
330
1
100
AcDbSymbolTableRecord
100
AcDbBlockTableRecord
  2
*Model_Space
340
22
  0
BLOCK_RECORD
  5
1B
330
1
100
AcDbSymbolTableRecord
100
AcDbBlockTableRecord
  2
*Paper_Space
340
1E
  0
BLOCK_RECORD
  5
23
330
1
100
AcDbSymbolTableRecord
100
AcDbBlockTableRecord
  2
*Paper_Space0
340
26
  0
ENDTAB
  0
ENDSEC
  0
SECTION
  2
BLOCKS
  0
BLOCK
  5
20
330
1F
100
AcDbEntity
  8
0
100
AcDbBlockBegin
  2
*Model_Space
 70
     0
 10
0.0
 20
0.0
 30
0.0
  3
*Model_Space
  1

  0
ENDBLK
  5
21
330
1F
100
AcDbEntity
  8
0
100
AcDbBlockEnd
  0
BLOCK
  5
1C
330
1B
100
AcDbEntity
 67
     1
  8
0
100
AcDbBlockBegin
  2
*Paper_Space
 70
     0
 10
0.0
 20
0.0
 30
0.0
  3
*Paper_Space
  1

  0
ENDBLK
  5
1D
330
1B
100
AcDbEntity
 67
     1
  8
0
100
AcDbBlockEnd
  0
BLOCK
  5
24
330
23
100
AcDbEntity
  8
0
100
AcDbBlockBegin
  2
*Paper_Space0
 70
     0
 10
0.0
 20
0.0
 30
0.0
  3
*Paper_Space0
  1

  0
ENDBLK
  5
25
330
23
100
AcDbEntity
  8
0
100
AcDbBlockEnd
  0
ENDSEC
  0
SECTION
  2
ENTITIES
  0
LINE
  5
47
330
1F
100
AcDbEntity
  8
1-F
  6
Continuous
 62
     7
370
    13
100
AcDbLine
 10
-1457.432679872255
 20
401.3303931983742
 30
0.0
 11
-1457.432679872255
 21
592.4755529455238
 31
0.0
  0
LINE
  5
48
330
1F
100
AcDbEntity
  8
1-F
  6
Continuous
 62
     7
370
    13
100
AcDbLine
 10
42.56756756756772
 20
401.3303931983742
 30
0.0
 11
42.56756756756772
 21
592.4755529455238
 31
0.0
  0
LINE
  5
49
330
1F
100
AcDbEntity
  8
1-F
  6
Continuous
 62
     7
370
    13
100
AcDbLine
 10
-1457.432679872255
 20
590.6756756756758
 30
0.0
 11
42.56756756756772
 21
590.6756756756758
 31
0.0
  0
LINE
  5
4A
330
1F
100
AcDbEntity
  8
1-0
  6
JWW_CENTER1
 62
     3
370
    13
100
AcDbLine
 10
12.31755437077709
 20
325.4267429661107
 30
0.0
 11
12.31755437077709
 21
-411.2257344013935
 31
0.0
  0
LINE
  5
4B
330
1F
100
AcDbEntity
  8
1-0
  6
Continuous
 62
     3
370
    13
100
AcDbLine
 10
-1396.932653478674
 20
133.6778300517315
 30
0.0
 11
-1396.932653478674
 21
-369.3225427576013
 31
0.0
  0
LINE
  5
4C
330
1F
100
AcDbEntity
  8
1-0
  6
Continuous
 62
     3
370
    13
100
AcDbLine
 10
-1457.432432432432
 20
325.4266192461995
 30
0.0
 11
-1457.432432432432
 21
-369.3225427576013
 31
0.0
  0
LINE
  5
4D
330
1F
100
AcDbEntity
  8
1-0
  6
Continuous
 62
     3
370
    13
100
AcDbLine
 10
767.4558897276182
 20
500.4273203256969
 30
0.0
 11
874.4830157305745
 21
500.4276914854307
 31
0.0
  0
LINE
  5
4E
330
1F
100
AcDbEntity
  8
1-F
  6
Continuous
 62
     7
370
    13
100
AcDbLine
 10
849.5945286106422
 20
299.2260824667443
 30
0.0
 11
910.493427998311
 21
404.7064621384081
 31
0.0
  0
LINE
  5
4F
330
1F
100
AcDbEntity
  8
1-F
  6
Continuous
 62
     7
370
    13
100
AcDbLine
 10
-1308.014287175359
 20
530.6764674831084
 30
0.0
 11
-1631.005498525259
 21
530.6764674831084
 31
0.0
  0
LINE
  5
50
330
1F
100
AcDbEntity
  8
1-0
  6
Continuous
 62
     3
370
    13
100
AcDbLine
 10
-222.4325644003378
 20
167.6745770428633
 30
0.0
 11
-1396.932653478674
 21
167.6777937605576
 31
0.0
  0
LINE
  5
51
330
1F
100
AcDbEntity
  8
1-0
  6
Continuous
 62
     3
370
    13
100
AcDbLine
 10
-1396.932653478674
 20
325.4262480864654
 30
0.0
 11
-1396.932653478674
 21
167.6777937605576
 31
0.0
  0
LINE
  5
52
330
1F
100
AcDbEntity
  8
1-0
  6
JWW_CENTER1
 62
     3
370
    13
100
AcDbLine
 10
-707.432679872255
 20
549.713868837099
 30
0.0
 11
-707.432679872255
 21
96.19737779771981
 31
0.0
  0
LINE
  5
53
330
1F
100
AcDbEntity
  8
1-F
  6
Continuous
 62
     7
370
    13
100
AcDbLine
 10
-212.4326551282726
 20
150.6744714685391
 30
0.0
 11
-212.4326551282726
 21
530.6764674831084
 31
0.0
  0
LINE
  5
54
330
1F
100
AcDbEntity
  8
1-0
  6
JWW_CENTER1
 62
     3
370
    13
100
AcDbLine
 10
781.6089527027026
 20
150.6774407464107
 30
0.0
 11
855.8027937605578
 21
150.6774407464107
 31
0.0
  0
LINE
  5
55
330
1F
100
AcDbEntity
  8
1-F
  6
Continuous
 62
     7
370
    13
100
AcDbLine
 10
-1328.503789128484
 20
133.677211452175
 30
0.0
 11
-1245.002127982475
 21
-10.95173603779557
 31
0.0
  0
LINE
  5
56
330
1F
100
AcDbEntity
  8
1-0
  6
Continuous
 62
     3
370
    13
100
AcDbLine
 10
-17.93245882601326
 20
135.9730818464951
 30
0.0
 11
-707.432679872255
 21
135.9754325248102
 31
0.0
  0
LINE
  5
57
330
1F
100
AcDbEntity
  8
1-0
  6
Continuous
 62
     3
370
    13
100
AcDbLine
 10
-17.93245882601326
 20
325.4262480864654
 30
0.0
 11
-17.93245882601326
 21
-369.3225427576013
 31
0.0
  0
LINE
  5
58
330
1F
100
AcDbEntity
  8
1-0
  6
Continuous
 62
     3
370
    13
100
AcDbLine
 10
-15.13242979307421
 20
325.4262480864654
 30
0.0
 11
-15.13242979307421
 21
-369.3225427576013
 31
0.0
  0
LINE
  5
59
330
1F
100
AcDbEntity
  8
1-0
  6
Continuous
 62
     3
370
    13
100
AcDbLine
 10
39.76729109480573
 20
325.4266192461995
 30
0.0
 11
39.76729109480573
 21
-369.3225427576013
 31
0.0
  0
LINE
  5
5A
330
1F
100
AcDbEntity
  8
1-0
  6
Continuous
 62
     3
370
    13
100
AcDbLine
 10
42.56732012774506
 20
325.4266192461995
 30
0.0
 11
42.56732012774506
 21
-369.3225427576013
 31
0.0
  0
LINE
  5
5B
330
1F
100
AcDbEntity
  8
1-0
  6
JWW_CENTER1
 62
     3
370
    13
100
AcDbLine
 10
819.3445154138516
 20
549.713868837099
 30
0.0
 11
819.3445154138516
 21
-411.2257344013935
 31
0.0
  0
LINE
  5
5C
330
1F
100
AcDbEntity
  8
1-0
  6
Continuous
 62
     3
370
    13
100
AcDbLine
 10
-202.4326221362963
 20
470.1763173696159
 30
0.0
 11
-162.6832704286318
 21
470.1764410895271
 31
0.0
  0
LINE
  5
5D
330
1F
100
AcDbEntity
  8
1-0
  6
Continuous
 62
     3
370
    13
100
AcDbLine
 10
-202.4326221362963
 20
472.976346402555
 30
0.0
 11
-162.6832704286318
 21
472.9764701224664
 31
0.0
  0
LINE
  5
5E
330
1F
100
AcDbEntity
  8
1-0
  6
JWW_CENTER1
 62
     3
370
    13
100
AcDbLine
 10
-202.4326221362963
 20
500.4263305664062
 30
0.0
 11
-162.6832704286318
 21
500.4265780062289
 31
0.0
  0
LINE
  5
5F
330
1F
100
AcDbEntity
  8
1-0
  6
Continuous
 62
     3
370
    13
100
AcDbLine
 10
-202.4326221362963
 20
527.876438450169
 30
0.0
 11
-162.6832704286318
 21
527.8765621700804
 31
0.0
  0
LINE
  5
60
330
1F
100
AcDbEntity
  8
1-0
  6
Continuous
 62
     3
370
    13
100
AcDbLine
 10
-707.432679872255
 20
527.8754486908783
 30
0.0
 11
-222.4325644003378
 21
527.8763147302578
 31
0.0
  0
LINE
  5
61
330
1F
100
AcDbEntity
  8
1-0
  6
Continuous
 62
     3
370
    13
100
AcDbLine
 10
-707.432679872255
 20
472.9752329233531
 30
0.0
 11
-222.4325644003378
 21
472.9760989627323
 31
0.0
  0
LINE
  5
62
330
1F
100
AcDbEntity
  8
1-0
  6
Continuous
 62
     3
370
    13
100
AcDbLine
 10
-17.93245882601326
 20
167.6730924039273
 30
0.0
 11
-202.4326221362963
 21
167.6744533229518
 31
0.0
  0
LINE
  5
63
330
1F
100
AcDbEntity
  8
1-0
  6
Continuous
 62
     3
370
    13
100
AcDbLine
 10
-17.93245882601326
 20
165.3731392525339
 30
0.0
 11
-202.4326221362963
 21
165.3743764516472
 31
0.0
  0
LINE
  5
64
330
1F
100
AcDbEntity
  8
1-0
  6
Continuous
 62
     3
370
    13
100
AcDbLine
 10
-222.4325644003378
 20
165.3746238914698
 30
0.0
 11
-707.432679872255
 21
165.375489930849
 31
0.0
  0
LINE
  5
65
330
1F
100
AcDbEntity
  8
1-0
  6
Continuous
 62
     3
370
    13
100
AcDbLine
 10
-1252.182089315878
 20
470.1764410895271
 30
0.0
 11
-222.4325644003378
 21
470.1760699297932
 31
0.0
  0
LINE
  5
66
330
1F
100
AcDbEntity
  8
1-0
  6
Continuous
 62
     3
370
    13
100
AcDbLine
 10
-162.6832704286318
 20
530.6765912030196
 30
0.0
 11
-1252.181841876056
 21
530.6765912030196
 31
0.0
  0
LINE
  5
67
330
1F
100
AcDbEntity
  8
1-0
  6
JWW_CENTER1
 62
     3
370
    13
100
AcDbLine
 10
-1252.181841876056
 20
500.4265780062289
 30
0.0
 11
-222.4325644003378
 21
500.4262068464951
 31
0.0
  0
LINE
  5
68
330
1F
100
AcDbEntity
  8
1-0
  6
Continuous
 62
     3
370
    13
100
AcDbLine
 10
-17.93245882601326
 20
133.6731286951016
 30
0.0
 11
-1396.932653478674
 21
133.6778300517315
 31
0.0
  0
LINE
  5
69
330
1F
100
AcDbEntity
  8
1-0
  6
Continuous
 62
     3
370
    13
100
AcDbLine
 10
-17.93245882601326
 20
-369.3226664775126
 30
0.0
 11
42.56732012774506
 21
-369.32241903769
 31
0.0
  0
LINE
  5
6A
330
1F
100
AcDbEntity
  8
1-0
  6
Continuous
 62
     3
370
    13
100
AcDbLine
 10
789.094502217061
 20
-369.3226664775126
 30
0.0
 11
849.5945286106422
 21
-369.32241903769
 31
0.0
  0
LINE
  5
6B
330
1F
100
AcDbEntity
  8
1-D
  6
Continuous
 62
     2
370
    13
100
AcDbLine
 10
969.3291741448479
 20
-338.3224157384923
 30
0.0
 11
989.3594277871625
 21
-338.3224157384923
 31
0.0
  0
LINE
  5
6C
330
1F
100
AcDbEntity
  8
1-D
  6
Continuous
 62
     2
370
    13
100
AcDbLine
 10
856.5941063133448
 20
-209.3075396563555
 30
0.0
 11
856.5941063133448
 21
-229.3374221389358
 31
0.0
  0
LINE
  5
6D
330
1F
100
AcDbEntity
  8
1-D
  6
Continuous
 62
     2
370
    13
100
AcDbLine
 10
863.3373363597974
 20
-229.3374221389358
 30
0.0
 11
856.5941063133448
 21
-229.3374221389358
 31
0.0
  0
LINE
  5
6E
330
1F
100
AcDbEntity
  8
1-D
  6
Continuous
 62
     2
370
    13
100
AcDbLine
 10
863.3373363597974
 20
-209.3075396563555
 30
0.0
 11
856.5941063133448
 21
-209.3075396563555
 31
0.0
  0
LINE
  5
6F
330
1F
100
AcDbEntity
  8
1-D
  6
Continuous
 62
     2
370
    13
100
AcDbLine
 10
864.0942547772386
 20
-211.3148952174831
 30
0.0
 11
864.0942547772386
 21
-227.3298191379855
 31
0.0
  0
LINE
  5
70
330
1F
100
AcDbEntity
  8
1-D
  6
Continuous
 62
     2
370
    13
100
AcDbLine
 10
773.2202478357266
 20
-230.2723735087626
 30
0.0
 11
782.094429634713
 21
-230.2723735087626
 31
0.0
  0
LINE
  5
71
330
1F
100
AcDbEntity
  8
1-D
  6
Continuous
 62
     2
370
    13
100
AcDbLine
 10
782.094429634713
 20
-230.2723735087626
 30
0.0
 11
782.094429634713
 21
-208.372340846706
 31
0.0
  0
LINE
  5
72
330
1F
100
AcDbEntity
  8
1-D
  6
Continuous
 62
     2
370
    13
100
AcDbLine
 10
773.2202478357266
 20
-208.372340846706
 30
0.0
 11
782.094429634713
 21
-208.372340846706
 31
0.0
  0
LINE
  5
73
330
1F
100
AcDbEntity
  8
1-D
  6
Continuous
 62
     2
370
    13
100
AcDbLine
 10
773.2202478357266
 20
-224.7874986803208
 30
0.0
 11
782.094429634713
 21
-224.7874986803208
 31
0.0
  0
LINE
  5
74
330
1F
100
AcDbEntity
  8
1-D
  6
Continuous
 62
     2
370
    13
100
AcDbLine
 10
773.2202478357266
 20
-213.8572156751478
 30
0.0
 11
782.094429634713
 21
-213.8572156751478
 31
0.0
  0
LINE
  5
75
330
1F
100
AcDbEntity
  8
1-D
  6
Continuous
 62
     2
370
    13
100
AcDbLine
 10
772.0943966427365
 20
-227.5299979544974
 30
0.0
 11
772.0943966427365
 21
-211.1147164009712
 31
0.0
  0
LINE
  5
76
330
1F
100
AcDbEntity
  8
1-D
  6
Continuous
 62
     2
370
    13
100
AcDbLine
 10
766.5943042652026
 20
-224.375387655722
 30
0.0
 11
767.54150390625
 21
-225.3223398569467
 31
0.0
  0
LINE
  5
77
330
1F
100
AcDbEntity
  8
1-D
  6
Continuous
 62
     2
370
    13
100
AcDbLine
 10
766.5943042652026
 20
-224.375387655722
 30
0.0
 11
766.5943042652026
 21
-214.2693266997466
 31
0.0
  0
LINE
  5
78
330
1F
100
AcDbEntity
  8
1-D
  6
Continuous
 62
     2
370
    13
100
AcDbLine
 10
766.5943042652026
 20
-214.2693266997466
 30
0.0
 11
767.54150390625
 21
-213.3222507786105
 31
0.0
  0
LINE
  5
79
330
1F
100
AcDbEntity
  8
1-D
  6
Continuous
 62
     2
370
    13
100
AcDbLine
 10
767.54150390625
 20
-213.3222507786105
 30
0.0
 11
767.54150390625
 21
-225.3223398569467
 31
0.0
  0
LINE
  5
7A
330
1F
100
AcDbEntity
  8
1-D
  6
Continuous
 62
     2
370
    13
100
AcDbLine
 10
863.3373363597974
 20
-213.3222507786105
 30
0.0
 11
782.094429634713
 21
-213.3222507786105
 31
0.0
  0
LINE
  5
7B
330
1F
100
AcDbEntity
  8
1-D
  6
Continuous
 62
     2
370
    13
100
AcDbLine
 10
772.0943966427365
 20
-213.3222507786105
 30
0.0
 11
767.54150390625
 21
-213.3222507786105
 31
0.0
  0
LINE
  5
7C
330
1F
100
AcDbEntity
  8
1-D
  6
Continuous
 62
     2
370
    13
100
AcDbLine
 10
856.5941063133448
 20
-224.375387655722
 30
0.0
 11
782.094429634713
 21
-224.375387655722
 31
0.0
  0
LINE
  5
7D
330
1F
100
AcDbEntity
  8
1-D
  6
Continuous
 62
     2
370
    13
100
AcDbLine
 10
772.0943966427365
 20
-224.375387655722
 30
0.0
 11
766.5943042652026
 21
-224.375387655722
 31
0.0
  0
LINE
  5
7E
330
1F
100
AcDbEntity
  8
1-D
  6
Continuous
 62
     2
370
    13
100
AcDbLine
 10
863.3373363597974
 20
-225.3223398569467
 30
0.0
 11
782.094429634713
 21
-225.3223398569467
 31
0.0
  0
LINE
  5
7F
330
1F
100
AcDbEntity
  8
1-D
  6
Continuous
 62
     2
370
    13
100
AcDbLine
 10
772.0943966427365
 20
-225.3223398569467
 30
0.0
 11
767.54150390625
 21
-225.3223398569467
 31
0.0
  0
LINE
  5
80
330
1F
100
AcDbEntity
  8
1-D
  6
Continuous
 62
     2
370
    13
100
AcDbLine
 10
856.5941063133448
 20
-214.2693266997466
 30
0.0
 11
782.094429634713
 21
-214.2693266997466
 31
0.0
  0
LINE
  5
81
330
1F
100
AcDbEntity
  8
1-D
  6
Continuous
 62
     2
370
    13
100
AcDbLine
 10
772.0943966427365
 20
-214.2693266997466
 30
0.0
 11
766.5943042652026
 21
-214.2693266997466
 31
0.0
  0
LINE
  5
82
330
1F
100
AcDbEntity
  8
1-D
  6
JWW_CENTER1
 62
     2
370
    13
100
AcDbLine
 10
870.0676995354729
 20
-219.3222953177786
 30
0.0
 11
764.2847009607266
 21
-219.3222953177786
 31
0.0
  0
LINE
  5
83
330
1F
100
AcDbEntity
  8
1-0
  6
Continuous
 62
     2
370
    13
100
AcDbLine
 10
842.3158387880068
 20
-369.7956476984797
 30
0.0
 11
850.1230600717906
 21
-369.3495136982685
 31
0.0
  0
LINE
  5
84
330
1F
100
AcDbEntity
  8
1-0
  6
Continuous
 62
     2
370
    13
100
AcDbLine
 10
841.8447133657094
 20
-370.2947338207348
 30
0.0
 11
841.8447133657094
 21
-380.3224800728462
 31
0.0
  0
LINE
  5
85
330
1F
100
AcDbEntity
  8
1-0
  6
Continuous
 62
     2
370
    13
100
AcDbLine
 10
1010.700370169975
 20
-348.8199264938767
 30
0.0
 11
1001.88458416913
 21
-347.6040072054475
 31
0.0
  0
LINE
  5
86
330
1F
100
AcDbEntity
  8
1-0
  6
Continuous
 62
     2
370
    13
100
AcDbLine
 10
851.0945088154563
 20
-212.3224701752532
 30
0.0
 11
856.5941063133448
 21
-212.3224701752532
 31
0.0
  0
LINE
  5
87
330
1F
100
AcDbEntity
  8
1-0
  6
Continuous
 62
     2
370
    13
100
AcDbLine
 10
851.0945088154563
 20
-226.3223679001266
 30
0.0
 11
856.5941063133448
 21
-226.3223679001266
 31
0.0
  0
LINE
  5
88
330
1F
100
AcDbEntity
  8
1-0
  6
Continuous
 62
     2
370
    13
100
AcDbLine
 10
869.2414979676943
 20
-329.3224107896958
 30
0.0
 11
861.5943702491558
 21
-329.3224107896958
 31
0.0
  0
LINE
  5
89
330
1F
100
AcDbEntity
  8
1-0
  6
Continuous
 62
     2
370
    13
100
AcDbLine
 10
869.4463781408365
 20
-329.336514859586
 30
0.0
 11
934.4921215160474
 21
-338.3083116686021
 31
0.0
  0
LINE
  5
8A
330
1F
100
AcDbEntity
  8
1-0
  6
Continuous
 62
     2
370
    13
100
AcDbLine
 10
998.0000263935813
 20
-338.3224157384923
 30
0.0
 11
934.6970016891896
 21
-338.3224157384923
 31
0.0
  0
LINE
  5
8B
330
1F
100
AcDbEntity
  8
1-0
  6
Continuous
 62
     2
370
    13
100
AcDbLine
 10
999.4913462046031
 20
-339.6587145006333
 30
0.0
 11
1000.170073638091
 21
-345.8409984691723
 31
0.0
  0
LINE
  5
8C
330
1F
100
AcDbEntity
  8
1-0
  6
Continuous
 62
     2
370
    13
100
AcDbLine
 10
1019.273417704815
 20
-378.8972266944678
 30
0.0
 11
1014.949406804265
 21
-352.9511817725928
 31
0.0
  0
LINE
  5
8D
330
1F
100
AcDbEntity
  8
1-0
  6
Continuous
 62
     2
370
    13
100
AcDbLine
 10
856.5941063133448
 20
-170.8223580025336
 30
0.0
 11
856.5941063133448
 21
-213.3222507786105
 31
0.0
  0
LINE
  5
8E
330
1F
100
AcDbEntity
  8
1-0
  6
Continuous
 62
     2
370
    13
100
AcDbLine
 10
856.5941063133448
 20
-225.3223398569467
 30
0.0
 11
856.5941063133448
 21
-324.3223942937077
 31
0.0
  0
LINE
  5
8F
330
1F
100
AcDbEntity
  8
1-0
  6
Continuous
 62
     2
370
    13
100
AcDbLine
 10
850.5944329339104
 20
-169.3225015176307
 30
0.0
 11
850.5944329339104
 21
-213.3222507786105
 31
0.0
  0
LINE
  5
90
330
1F
100
AcDbEntity
  8
1-0
  6
Continuous
 62
     2
370
    13
100
AcDbLine
 10
850.5944329339104
 20
-225.3223398569467
 30
0.0
 11
850.5944329339104
 21
-368.8503038561021
 31
0.0
  0
LINE
  5
91
330
1F
100
AcDbEntity
  8
1-0
  6
Continuous
 62
     2
370
    13
100
AcDbLine
 10
1019.178648252745
 20
-379.7207064241975
 30
0.0
 11
1015.17804120038
 21
-389.3223613017313
 31
0.0
  0
LINE
  5
92
330
1F
100
AcDbEntity
  8
1-0
  6
Continuous
 62
     2
370
    13
100
AcDbLine
 10
963.4351575696792
 20
-389.3223613017313
 30
0.0
 11
959.7443451752537
 21
-381.2018812024916
 31
0.0
  0
LINE
  5
93
330
1F
100
AcDbEntity
  8
1-0
  6
Continuous
 62
     2
370
    13
100
AcDbLine
 10
986.3443735483531
 20
-338.3224157384923
 30
0.0
 11
986.3443735483531
 21
-389.3223613017313
 31
0.0
  0
LINE
  5
94
330
1F
100
AcDbEntity
  8
1-0
  6
Continuous
 62
     2
370
    13
100
AcDbLine
 10
972.3444758234797
 20
-338.3224157384923
 30
0.0
 11
972.3444758234797
 21
-389.3223613017313
 31
0.0
  0
LINE
  5
95
330
1F
100
AcDbEntity
  8
1-0
  6
Continuous
 62
     2
370
    13
100
AcDbLine
 10
796.3731920396958
 20
-369.7956476984797
 30
0.0
 11
788.5659707559125
 21
-369.3495136982685
 31
0.0
  0
LINE
  5
96
330
1F
100
AcDbEntity
  8
1-0
  6
Continuous
 62
     2
370
    13
100
AcDbLine
 10
796.8445649018162
 20
-370.2947338207348
 30
0.0
 11
796.8445649018162
 21
-380.3224800728462
 31
0.0
  0
LINE
  5
97
330
1F
100
AcDbEntity
  8
1-0
  6
Continuous
 62
     2
370
    13
100
AcDbLine
 10
627.9884132179058
 20
-348.8199264938767
 30
0.0
 11
636.80419921875
 21
-347.6040072054475
 31
0.0
  0
LINE
  5
98
330
1F
100
AcDbEntity
  8
1-0
  6
Continuous
 62
     2
370
    13
100
AcDbLine
 10
787.5945220122469
 20
-212.3224701752532
 30
0.0
 11
782.094429634713
 21
-212.3224701752532
 31
0.0
  0
LINE
  5
99
330
1F
100
AcDbEntity
  8
1-0
  6
Continuous
 62
     2
370
    13
100
AcDbLine
 10
787.5945220122469
 20
-226.3223679001266
 30
0.0
 11
782.094429634713
 21
-226.3223679001266
 31
0.0
  0
LINE
  5
9A
330
1F
100
AcDbEntity
  8
1-0
  6
Continuous
 62
     2
370
    13
100
AcDbLine
 10
769.4477802998313
 20
-329.3224107896958
 30
0.0
 11
777.0946605785474
 21
-329.3224107896958
 31
0.0
  0
LINE
  5
9B
330
1F
100
AcDbEntity
  8
1-0
  6
Continuous
 62
     2
370
    13
100
AcDbLine
 10
769.2424052470443
 20
-329.336514859586
 30
0.0
 11
704.1964144320104
 21
-338.3083116686021
 31
0.0
  0
LINE
  5
9C
330
1F
100
AcDbEntity
  8
1-0
  6
Continuous
 62
     2
370
    13
100
AcDbLine
 10
640.688756994299
 20
-338.3224157384923
 30
0.0
 11
703.9915342588682
 21
-338.3224157384923
 31
0.0
  0
LINE
  5
9D
330
1F
100
AcDbEntity
  8
1-0
  6
Continuous
 62
     2
370
    13
100
AcDbLine
 10
639.1974371832771
 20
-339.6587145006333
 30
0.0
 11
638.5189571896115
 21
-345.8409984691723
 31
0.0
  0
LINE
  5
9E
330
1F
100
AcDbEntity
  8
1-0
  6
Continuous
 62
     2
370
    13
100
AcDbLine
 10
619.4153656830662
 20
-378.8972266944678
 30
0.0
 11
623.7393765836151
 21
-352.9511817725928
 31
0.0
  0
LINE
  5
9F
330
1F
100
AcDbEntity
  8
1-0
  6
Continuous
 62
     2
370
    13
100
AcDbLine
 10
782.094429634713
 20
-170.8223580025336
 30
0.0
 11
782.094429634713
 21
-213.3222507786105
 31
0.0
  0
LINE
  5
A0
330
1F
100
AcDbEntity
  8
1-0
  6
Continuous
 62
     2
370
    13
100
AcDbLine
 10
782.094429634713
 20
-225.3223398569467
 30
0.0
 11
782.094429634713
 21
-324.3223942937077
 31
0.0
  0
LINE
  5
A1
330
1F
100
AcDbEntity
  8
1-0
  6
Continuous
 62
     2
370
    13
100
AcDbLine
 10
788.0943504539698
 20
-169.3225015176307
 30
0.0
 11
788.0943504539698
 21
-213.3222507786105
 31
0.0
  0
LINE
  5
A2
330
1F
100
AcDbEntity
  8
1-0
  6
Continuous
 62
     2
370
    13
100
AcDbLine
 10
788.0943504539698
 20
-225.3223398569467
 30
0.0
 11
788.0943504539698
 21
-368.8503038561021
 31
0.0
  0
LINE
  5
A3
330
1F
100
AcDbEntity
  8
1-0
  6
Continuous
 62
     2
370
    13
100
AcDbLine
 10
619.5103825749578
 20
-379.7207064241975
 30
0.0
 11
623.5112370671453
 21
-389.3224850216427
 31
0.0
  0
LINE
  5
A4
330
1F
100
AcDbEntity
  8
1-0
  6
Continuous
 62
     2
370
    13
100
AcDbLine
 10
675.2533783783787
 20
-389.3224850216427
 30
0.0
 11
678.9446856524495
 21
-381.2018812024916
 31
0.0
  0
LINE
  5
A5
330
1F
100
AcDbEntity
  8
1-0
  6
Continuous
 62
     2
370
    13
100
AcDbLine
 10
652.3444098395271
 20
-338.3224157384923
 30
0.0
 11
652.3444098395271
 21
-389.3224850216427
 31
0.0
  0
LINE
  5
A6
330
1F
100
AcDbEntity
  8
1-0
  6
Continuous
 62
     2
370
    13
100
AcDbLine
 10
666.3440601245776
 20
-338.3224157384923
 30
0.0
 11
666.3440601245776
 21
-389.3224850216427
 31
0.0
  0
LINE
  5
A7
330
1F
100
AcDbEntity
  8
1-0
  6
Continuous
 62
     2
370
    13
100
AcDbLine
 10
783.5944098395271
 20
-169.3225015176307
 30
0.0
 11
789.0940073374156
 21
-169.3225015176307
 31
0.0
  0
LINE
  5
A8
330
1F
100
AcDbEntity
  8
1-0
  6
Continuous
 62
     2
370
    13
100
AcDbLine
 10
855.0946209881761
 20
-169.3225015176307
 30
0.0
 11
849.5945286106422
 21
-169.3225015176307
 31
0.0
  0
LINE
  5
A9
330
1F
100
AcDbEntity
  8
1-0
  6
Continuous
 62
     2
370
    13
100
AcDbLine
 10
789.3382304423568
 20
-369.3225427576013
 30
0.0
 11
849.350305505701
 21
-369.3225427576013
 31
0.0
  0
LINE
  5
AA
330
1F
100
AcDbEntity
  8
1-0
  6
Continuous
 62
     2
370
    13
100
AcDbLine
 10
796.8445649018162
 20
-369.8226186391469
 30
0.0
 11
841.8447133657094
 21
-369.8226186391469
 31
0.0
  0
LINE
  5
AB
330
1F
100
AcDbEntity
  8
1-0
  6
Continuous
 62
     2
370
    13
100
AcDbLine
 10
680.3105534733953
 20
-380.3224800728462
 30
0.0
 11
958.3784773543078
 21
-380.3226037927575
 31
0.0
  0
LINE
  5
AC
330
1F
100
AcDbEntity
  8
1-1
  6
Continuous
 62
     2
370
    13
100
AcDbLine
 10
-1437.197298616976
 20
-219.3225427576013
 30
0.0
 11
-1432.189858926309
 21
-210.6492820945945
 31
0.0
  0
LINE
  5
AD
330
1F
100
AcDbEntity
  8
1-1
  6
Continuous
 62
     2
370
    13
100
AcDbLine
 10
-1432.189858926309
 20
-210.6492820945945
 30
0.0
 11
-1422.174979544975
 21
-210.6492820945945
 31
0.0
  0
LINE
  5
AE
330
1F
100
AcDbEntity
  8
1-1
  6
Continuous
 62
     2
370
    13
100
AcDbLine
 10
-1422.174979544975
 20
-210.6492820945945
 30
0.0
 11
-1417.167539854307
 21
-219.3225427576013
 31
0.0
  0
LINE
  5
AF
330
1F
100
AcDbEntity
  8
1-1
  6
Continuous
 62
     2
370
    13
100
AcDbLine
 10
-1417.167539854307
 20
-219.3225427576013
 30
0.0
 11
-1422.174979544975
 21
-227.9955559807854
 31
0.0
  0
LINE
  5
B0
330
1F
100
AcDbEntity
  8
1-1
  6
Continuous
 62
     2
370
    13
100
AcDbLine
 10
-1432.189858926309
 20
-227.9955559807854
 30
0.0
 11
-1437.197298616976
 21
-219.3225427576013
 31
0.0
  0
LINE
  5
B1
330
1F
100
AcDbEntity
  8
1-D
  6
JWW_CENTER1
 62
     2
370
    13
100
AcDbLine
 10
-1438.585683461782
 20
-219.3225427576013
 30
0.0
 11
-1415.014071077914
 21
-219.3225427576013
 31
0.0
  0
LINE
  5
B2
330
1F
100
AcDbEntity
  8
1-1
  6
Continuous
 62
     2
370
    13
100
AcDbLine
 10
-1422.174979544975
 20
-227.9955559807854
 30
0.0
 11
-1432.189858926309
 21
-227.9955559807854
 31
0.0
  0
LINE
  5
B3
330
1F
100
AcDbEntity
  8
1-0
  6
Continuous
 62
     2
370
    13
100
AcDbLine
 10
-1479.918402594489
 20
-351.1702336491765
 30
0.0
 11
-1427.182542955553
 21
-349.3224767736485
 31
0.0
  0
LINE
  5
B4
330
1F
100
AcDbEntity
  8
1-0
  6
Continuous
 62
     2
370
    13
100
AcDbLine
 10
-1477.841021563556
 20
-331.1644765493031
 30
0.0
 11
-1427.182542955553
 21
-329.3222870697845
 31
0.0
  0
LINE
  5
B5
330
1F
100
AcDbEntity
  8
1-0
  6
Continuous
 62
     2
370
    13
100
AcDbLine
 10
-1374.446559596706
 20
-351.1702336491765
 30
0.0
 11
-1427.182542955553
 21
-349.3224767736485
 31
0.0
  0
LINE
  5
B6
330
1F
100
AcDbEntity
  8
1-0
  6
Continuous
 62
     2
370
    13
100
AcDbLine
 10
-1376.523693187817
 20
-331.1644765493031
 30
0.0
 11
-1427.182542955553
 21
-329.3222870697845
 31
0.0
  0
LINE
  5
B7
330
1F
100
AcDbEntity
  8
1-0
  6
Continuous
 62
     2
370
    13
100
AcDbLine
 10
-1367.858969198691
 20
-379.3224520296662
 30
0.0
 11
-1486.604597761824
 21
-379.3224520296662
 31
0.0
  0
LINE
  5
B8
330
1F
100
AcDbEntity
  8
1-0
  6
Continuous
 62
     2
370
    13
100
AcDbLine
 10
-1447.402211782095
 20
-340.4820705104518
 30
0.0
 11
-1447.873584644215
 21
-342.9655002903293
 31
0.0
  0
LINE
  5
B9
330
1F
100
AcDbEntity
  8
1-0
  6
Continuous
 62
     2
370
    13
100
AcDbLine
 10
-1446.003681904561
 20
-339.2634293839737
 30
0.0
 11
-1427.182542955553
 21
-338.3225394584036
 31
0.0
  0
LINE
  5
BA
330
1F
100
AcDbEntity
  8
1-0
  6
Continuous
 62
     2
370
    13
100
AcDbLine
 10
-1408.361032846811
 20
-339.2634293839737
 30
0.0
 11
-1427.182542955553
 21
-338.3225394584036
 31
0.0
  0
LINE
  5
BB
330
1F
100
AcDbEntity
  8
1-0
  6
Continuous
 62
     2
370
    13
100
AcDbLine
 10
-1406.962379249367
 20
-340.4820705104518
 30
0.0
 11
-1406.491130107158
 21
-342.9655002903293
 31
0.0
  0
LINE
  5
BC
330
1F
100
AcDbEntity
  8
1-0
  6
Continuous
 62
     2
370
    13
100
AcDbLine
 10
-1464.432257574958
 20
-172.7410063872466
 30
0.0
 11
-1464.432257574958
 21
-330.677020098712
 31
0.0
  0
LINE
  5
BD
330
1F
100
AcDbEntity
  8
1-0
  6
Continuous
 62
     2
370
    13
100
AcDbLine
 10
-1463.012447872677
 20
-171.2430057010135
 30
0.0
 11
-1427.182542955553
 21
-169.3226252375422
 31
0.0
  0
LINE
  5
BE
330
1F
100
AcDbEntity
  8
1-0
  6
Continuous
 62
     2
370
    13
100
AcDbLine
 10
-1391.352143158784
 20
-171.2430057010135
 30
0.0
 11
-1427.182542955553
 21
-169.3226252375422
 31
0.0
  0
LINE
  5
BF
330
1F
100
AcDbEntity
  8
1-0
  6
Continuous
 62
     2
370
    13
100
AcDbLine
 10
-1389.932333456503
 20
-172.7410063872466
 30
0.0
 11
-1389.932333456503
 21
-330.677020098712
 31
0.0
  0
LINE
  5
C0
330
1F
100
AcDbEntity
  8
1-0
  6
Continuous
 62
     2
370
    13
100
AcDbLine
 10
-1487.140181257918
 20
-378.9172693201013
 30
0.0
 11
-1482.632693728885
 21
-335.6432610589104
 31
0.0
  0
LINE
  5
C1
330
1F
100
AcDbEntity
  8
1-0
  6
Continuous
 62
     2
370
    13
100
AcDbLine
 10
-1367.224533493454
 20
-378.9172693201013
 30
0.0
 11
-1371.732392182221
 21
-335.6432610589104
 31
0.0
  0
LINE
  5
C2
330
1F
100
AcDbEntity
  8
1-1
  6
JWW_DASHED1
 62
     4
370
    13
100
AcDbLine
 10
-1457.432432432432
 20
-170.9438509554477
 30
0.0
 11
-1457.432432432432
 21
-369.3225427576013
 31
0.0
  0
LINE
  5
C3
330
1F
100
AcDbEntity
  8
1-1
  6
JWW_DASHED1
 62
     4
370
    13
100
AcDbLine
 10
-1396.932406038851
 20
-170.9438509554477
 30
0.0
 11
-1396.932406038851
 21
-369.3225427576013
 31
0.0
  0
LINE
  5
C4
330
1F
100
AcDbEntity
  8
1-0
  6
Continuous
 62
     2
370
    13
100
AcDbLine
 10
-1482.637147645692
 20
-389.3223613017313
 30
0.0
 11
-1487.013863228463
 21
-379.6934880437077
 31
0.0
  0
LINE
  5
C5
330
1F
100
AcDbEntity
  8
1-0
  6
Continuous
 62
     2
370
    13
100
AcDbLine
 10
-1371.72756710568
 20
-389.3223613017313
 30
0.0
 11
-1367.350975242821
 21
-379.6934880437077
 31
0.0
  0
LINE
  5
C6
330
1F
100
AcDbEntity
  8
1-0
  6
JWW_DASHED1
 62
     2
370
    13
100
AcDbLine
 10
-1404.211095861486
 20
-369.7955239785683
 30
0.0
 11
-1396.403874577702
 21
-369.3495136982685
 31
0.0
  0
LINE
  5
C7
330
1F
100
AcDbEntity
  8
1-0
  6
JWW_DASHED1
 62
     2
370
    13
100
AcDbLine
 10
-1450.15399004962
 20
-369.7955239785683
 30
0.0
 11
-1457.960963893581
 21
-369.3495136982685
 31
0.0
  0
LINE
  5
C8
330
1F
100
AcDbEntity
  8
1-0
  6
JWW_DASHED1
 62
     2
370
    13
100
AcDbLine
 10
-1457.188580487225
 20
-369.3225427576013
 30
0.0
 11
-1397.17638170397
 21
-369.3225427576013
 31
0.0
  0
LINE
  5
C9
330
1F
100
AcDbEntity
  8
1-0
  6
JWW_DASHED1
 62
     2
370
    13
100
AcDbLine
 10
-1449.682369747677
 20
-369.8224949192355
 30
0.0
 11
-1404.682468723606
 21
-369.8224949192355
 31
0.0
  0
LINE
  5
CA
330
1F
100
AcDbEntity
  8
1-0
  6
JWW_DASHED1
 62
     2
370
    13
100
AcDbLine
 10
-1395.932501715583
 20
-170.9975453969594
 30
0.0
 11
-1395.932501715583
 21
-368.8501801361909
 31
0.0
  0
LINE
  5
CB
330
1F
100
AcDbEntity
  8
1-0
  6
JWW_DASHED1
 62
     2
370
    13
100
AcDbLine
 10
-1458.432336755701
 20
-170.9975453969594
 30
0.0
 11
-1458.432336755701
 21
-368.8501801361909
 31
0.0
  0
LINE
  5
CC
330
1F
100
AcDbEntity
  8
1-0
  6
JWW_DASHED1
 62
     2
370
    13
100
AcDbLine
 10
-1449.682369747677
 20
-370.2946101008234
 30
0.0
 11
-1449.682369747677
 21
-379.9474850216427
 31
0.0
  0
LINE
  5
CD
330
1F
100
AcDbEntity
  8
1-0
  6
JWW_DASHED1
 62
     2
370
    13
100
AcDbLine
 10
-1487.12719066723
 20
-379.3234417889569
 30
0.0
 11
-1427.182542955553
 21
-380.3224800728462
 31
0.0
  0
LINE
  5
CE
330
1F
100
AcDbEntity
  8
1-0
  6
JWW_DASHED1
 62
     2
370
    13
100
AcDbLine
 10
-1367.237895243877
 20
-379.3234417889569
 30
0.0
 11
-1427.182542955553
 21
-380.3224800728462
 31
0.0
  0
LINE
  5
CF
330
1F
100
AcDbEntity
  8
1-0
  6
JWW_DASHED1
 62
     2
370
    13
100
AcDbLine
 10
-1404.682468723606
 20
-370.2946101008234
 30
0.0
 11
-1404.682468723606
 21
-379.9474850216427
 31
0.0
  0
LINE
  5
D0
330
1F
100
AcDbEntity
  8
1-1
  6
Continuous
 62
     4
370
    13
100
AcDbLine
 10
789.0940073374156
 20
-212.3223464553421
 30
0.0
 11
791.89453125
 21
-212.3223464553421
 31
0.0
  0
LINE
  5
D1
330
1F
100
AcDbEntity
  8
1-1
  6
Continuous
 62
     4
370
    13
100
AcDbLine
 10
849.5945286106422
 20
-212.3223464553421
 30
0.0
 11
846.7944995777026
 21
-212.3223464553421
 31
0.0
  0
LINE
  5
D2
330
1F
100
AcDbEntity
  8
1-1
  6
Continuous
 62
     4
370
    13
100
AcDbLine
 10
789.0940073374156
 20
-226.3223679001266
 30
0.0
 11
791.89453125
 21
-226.3223679001266
 31
0.0
  0
LINE
  5
D3
330
1F
100
AcDbEntity
  8
1-1
  6
Continuous
 62
     4
370
    13
100
AcDbLine
 10
849.5945286106422
 20
-226.3223679001266
 30
0.0
 11
846.7944995777026
 21
-226.3223679001266
 31
0.0
  0
LINE
  5
D4
330
1F
100
AcDbEntity
  8
1-0
  6
Continuous
 62
     2
370
    13
100
AcDbLine
 10
-1427.182542955553
 20
-391.3224173880911
 30
0.0
 11
-1427.182542955553
 21
-338.3225394584036
 31
0.0
  0
LINE
  5
D5
330
1F
100
AcDbEntity
  8
1-1
  6
Continuous
 62
     2
370
    13
100
AcDbLine
 10
2.302674989442721
 20
-219.3225427576013
 30
0.0
 11
7.309867240287247
 21
-210.6492820945945
 31
0.0
  0
LINE
  5
D6
330
1F
100
AcDbEntity
  8
1-1
  6
Continuous
 62
     2
370
    13
100
AcDbLine
 10
7.309867240287247
 20
-210.6492820945945
 30
0.0
 11
17.32474662162161
 21
-210.6492820945945
 31
0.0
  0
LINE
  5
D7
330
1F
100
AcDbEntity
  8
1-1
  6
Continuous
 62
     2
370
    13
100
AcDbLine
 10
17.32474662162161
 20
-210.6492820945945
 30
0.0
 11
22.33243375211174
 21
-219.3225427576013
 31
0.0
  0
LINE
  5
D8
330
1F
100
AcDbEntity
  8
1-1
  6
Continuous
 62
     2
370
    13
100
AcDbLine
 10
22.33243375211174
 20
-219.3225427576013
 30
0.0
 11
17.32474662162161
 21
-227.9955559807854
 31
0.0
  0
LINE
  5
D9
330
1F
100
AcDbEntity
  8
1-1
  6
Continuous
 62
     2
370
    13
100
AcDbLine
 10
7.309867240287247
 20
-227.9955559807854
 30
0.0
 11
2.302674989442721
 21
-219.3225427576013
 31
0.0
  0
LINE
  5
DA
330
1F
100
AcDbEntity
  8
1-D
  6
JWW_CENTER1
 62
     2
370
    13
100
AcDbLine
 10
0.9140427048143351
 20
-219.3225427576013
 30
0.0
 11
24.48565508868256
 21
-219.3225427576013
 31
0.0
  0
LINE
  5
DB
330
1F
100
AcDbEntity
  8
1-1
  6
Continuous
 62
     2
370
    13
100
AcDbLine
 10
17.32474662162161
 20
-227.9955559807854
 30
0.0
 11
7.309867240287247
 21
-227.9955559807854
 31
0.0
  0
LINE
  5
DC
330
1F
100
AcDbEntity
  8
1-0
  6
Continuous
 62
     2
370
    13
100
AcDbLine
 10
-40.41855270798123
 20
-351.1702336491765
 30
0.0
 11
12.31730693095443
 21
-349.3224767736485
 31
0.0
  0
LINE
  5
DD
330
1F
100
AcDbEntity
  8
1-0
  6
Continuous
 62
     2
370
    13
100
AcDbLine
 10
-38.34129539695937
 20
-331.1644765493031
 30
0.0
 11
12.31730693095443
 21
-329.3222870697845
 31
0.0
  0
LINE
  5
DE
330
1F
100
AcDbEntity
  8
1-0
  6
Continuous
 62
     2
370
    13
100
AcDbLine
 10
65.05341400971304
 20
-351.1702336491765
 30
0.0
 11
12.31730693095443
 21
-349.3224767736485
 31
0.0
  0
LINE
  5
DF
330
1F
100
AcDbEntity
  8
1-0
  6
Continuous
 62
     2
370
    13
100
AcDbLine
 10
62.97590925886823
 20
-331.1644765493031
 30
0.0
 11
12.31730693095443
 21
-329.3222870697845
 31
0.0
  0
LINE
  5
E0
330
1F
100
AcDbEntity
  8
1-0
  6
Continuous
 62
     2
370
    13
100
AcDbLine
 10
71.64075696790547
 20
-379.3224520296662
 30
0.0
 11
-47.10462415540519
 21
-379.3224520296662
 31
0.0
  0
LINE
  5
E1
330
1F
100
AcDbEntity
  8
1-0
  6
Continuous
 62
     2
370
    13
100
AcDbLine
 10
-7.902238175675507
 20
-340.4820705104518
 30
0.0
 11
-8.373858477618228
 21
-342.9655002903293
 31
0.0
  0
LINE
  5
E2
330
1F
100
AcDbEntity
  8
1-0
  6
Continuous
 62
     2
370
    13
100
AcDbLine
 10
-6.503708298141646
 20
-339.2634293839737
 30
0.0
 11
12.31730693095443
 21
-338.3225394584036
 31
0.0
  0
LINE
  5
E3
330
1F
100
AcDbEntity
  8
1-0
  6
Continuous
 62
     2
370
    13
100
AcDbLine
 10
31.13881703969611
 20
-339.2634293839737
 30
0.0
 11
12.31730693095443
 21
-338.3225394584036
 31
0.0
  0
LINE
  5
E4
330
1F
100
AcDbEntity
  8
1-0
  6
Continuous
 62
     2
370
    13
100
AcDbLine
 10
32.53734691722997
 20
-340.4820705104518
 30
0.0
 11
33.00847233952709
 21
-342.9655002903293
 31
0.0
  0
LINE
  5
E5
330
1F
100
AcDbEntity
  8
1-0
  6
Continuous
 62
     2
370
    13
100
AcDbLine
 10
-24.93253140836146
 20
-172.7410063872466
 30
0.0
 11
-24.93253140836146
 21
-330.677020098712
 31
0.0
  0
LINE
  5
E6
330
1F
100
AcDbEntity
  8
1-0
  6
Continuous
 62
     2
370
    13
100
AcDbLine
 10
-23.51272170608098
 20
-171.2430057010135
 30
0.0
 11
12.31730693095443
 21
-169.3226252375422
 31
0.0
  0
LINE
  5
E7
330
1F
100
AcDbEntity
  8
1-0
  6
Continuous
 62
     2
370
    13
100
AcDbLine
 10
48.14783044763516
 20
-171.2430057010135
 30
0.0
 11
12.31730693095443
 21
-169.3226252375422
 31
0.0
  0
LINE
  5
E8
330
1F
100
AcDbEntity
  8
1-0
  6
Continuous
 62
     2
370
    13
100
AcDbLine
 10
49.56739271009297
 20
-172.7410063872466
 30
0.0
 11
49.56739271009297
 21
-330.677020098712
 31
0.0
  0
LINE
  5
E9
330
1F
100
AcDbEntity
  8
1-0
  6
Continuous
 62
     2
370
    13
100
AcDbLine
 10
-47.64008393158775
 20
-378.9172693201013
 30
0.0
 11
-43.13272012246614
 21
-335.6432610589104
 31
0.0
  0
LINE
  5
EA
330
1F
100
AcDbEntity
  8
1-0
  6
Continuous
 62
     2
370
    13
100
AcDbLine
 10
72.27519267314193
 20
-378.9172693201013
 30
0.0
 11
67.76758142419766
 21
-335.6432610589104
 31
0.0
  0
LINE
  5
EB
330
1F
100
AcDbEntity
  8
1-1
  6
JWW_DASHED1
 62
     4
370
    13
100
AcDbLine
 10
-17.93245882601326
 20
-170.9438509554477
 30
0.0
 11
-17.93245882601326
 21
-369.3225427576013
 31
0.0
  0
LINE
  5
EC
330
1F
100
AcDbEntity
  8
1-1
  6
JWW_DASHED1
 62
     4
370
    13
100
AcDbLine
 10
42.56756756756772
 20
-170.9438509554477
 30
0.0
 11
42.56756756756772
 21
-369.3225427576013
 31
0.0
  0
LINE
  5
ED
330
1F
100
AcDbEntity
  8
1-0
  6
Continuous
 62
     2
370
    13
100
AcDbLine
 10
-43.13717403927342
 20
-389.3223613017313
 30
0.0
 11
-47.51388962204373
 21
-379.6934880437077
 31
0.0
  0
LINE
  5
EE
330
1F
100
AcDbEntity
  8
1-0
  6
Continuous
 62
     2
370
    13
100
AcDbLine
 10
67.77228278082788
 20
-389.3223613017313
 30
0.0
 11
72.1489983635982
 21
-379.6934880437077
 31
0.0
  0
LINE
  5
EF
330
1F
100
AcDbEntity
  8
1-0
  6
JWW_DASHED1
 62
     2
370
    13
100
AcDbLine
 10
35.28887774493256
 20
-369.7955239785683
 30
0.0
 11
43.09585158889377
 21
-369.3495136982685
 31
0.0
  0
LINE
  5
F0
330
1F
100
AcDbEntity
  8
1-0
  6
JWW_DASHED1
 62
     2
370
    13
100
AcDbLine
 10
-10.65401644320076
 20
-369.7955239785683
 30
0.0
 11
-18.46099028716196
 21
-369.3495136982685
 31
0.0
  0
LINE
  5
F1
330
1F
100
AcDbEntity
  8
1-0
  6
JWW_DASHED1
 62
     2
370
    13
100
AcDbLine
 10
-17.68873060071769
 20
-369.3225427576013
 30
0.0
 11
42.32359190244949
 21
-369.3225427576013
 31
0.0
  0
LINE
  5
F2
330
1F
100
AcDbEntity
  8
1-0
  6
JWW_DASHED1
 62
     2
370
    13
100
AcDbLine
 10
-10.18264358108098
 20
-369.8224949192355
 30
0.0
 11
34.81725744298984
 21
-369.8224949192355
 31
0.0
  0
LINE
  5
F3
330
1F
100
AcDbEntity
  8
1-0
  6
JWW_DASHED1
 62
     2
370
    13
100
AcDbLine
 10
43.56722445101354
 20
-170.9975453969594
 30
0.0
 11
43.56722445101354
 21
-368.8501801361909
 31
0.0
  0
LINE
  5
F4
330
1F
100
AcDbEntity
  8
1-0
  6
JWW_DASHED1
 62
     2
370
    13
100
AcDbLine
 10
-18.93261058910468
 20
-170.9975453969594
 30
0.0
 11
-18.93261058910468
 21
-368.8501801361909
 31
0.0
  0
LINE
  5
F5
330
1F
100
AcDbEntity
  8
1-0
  6
Continuous
 62
     2
370
    13
100
AcDbLine
 10
12.31730693095443
 20
-338.3225394584036
 30
0.0
 11
12.31730693095443
 21
-329.3222870697845
 31
0.0
  0
LINE
  5
F6
330
1F
100
AcDbEntity
  8
1-0
  6
JWW_DASHED1
 62
     2
370
    13
100
AcDbLine
 10
-10.18264358108098
 20
-370.2946101008234
 30
0.0
 11
-10.18264358108098
 21
-379.9474850216427
 31
0.0
  0
LINE
  5
F7
330
1F
100
AcDbEntity
  8
1-0
  6
JWW_DASHED1
 62
     2
370
    13
100
AcDbLine
 10
-47.62721706081066
 20
-379.3234417889569
 30
0.0
 11
12.31730693095443
 21
-380.3224800728462
 31
0.0
  0
LINE
  5
F8
330
1F
100
AcDbEntity
  8
1-0
  6
JWW_DASHED1
 62
     2
370
    13
100
AcDbLine
 10
72.26232580236513
 20
-379.3234417889569
 30
0.0
 11
12.31730693095443
 21
-380.3224800728462
 31
0.0
  0
LINE
  5
F9
330
1F
100
AcDbEntity
  8
1-0
  6
JWW_DASHED1
 62
     2
370
    13
100
AcDbLine
 10
34.81725744298984
 20
-370.2946101008234
 30
0.0
 11
34.81725744298984
 21
-379.9474850216427
 31
0.0
  0
LINE
  5
FA
330
1F
100
AcDbEntity
  8
1-0
  6
Continuous
 62
     2
370
    13
100
AcDbLine
 10
12.31730693095443
 20
-391.3224173880911
 30
0.0
 11
12.31730693095443
 21
-338.3225394584036
 31
0.0
  0
LINE
  5
FB
330
1F
100
AcDbEntity
  8
1-F
  6
Continuous
 62
     7
370
    13
100
AcDbLine
 10
-1555.721963418497
 20
-389.32223758182
 30
0.0
 11
-1555.721963418497
 21
-169.3226252375422
 31
0.0
  0
LINE
  5
FC
330
1F
100
AcDbEntity
  8
1-F
  6
Continuous
 62
     7
370
    13
100
AcDbLine
 10
-1461.239788983319
 20
-169.3226252375422
 30
0.0
 11
-1557.522088128167
 21
-169.3226252375422
 31
0.0
  0
LINE
  5
FD
330
1F
100
AcDbEntity
  8
1-D
  6
JWW_CENTER1
 62
     2
370
    13
100
AcDbLine
 10
659.344482421875
 20
-327.229193610114
 30
0.0
 11
659.344482421875
 21
-397.5778198242188
 31
0.0
  0
LINE
  5
FE
330
1F
100
AcDbEntity
  8
1-D
  6
JWW_CENTER1
 62
     2
370
    13
100
AcDbLine
 10
979.3445484058276
 20
-328.2292216532938
 30
0.0
 11
979.3445484058276
 21
-397.5778198242188
 31
0.0
  0
LINE
  5
FF
330
1F
100
AcDbEntity
  8
1-0
  6
Continuous
 62
     2
370
    13
100
AcDbLine
 10
-1427.182542955553
 20
-329.3222870697845
 30
0.0
 11
-1427.182542955553
 21
-338.3224157384923
 31
0.0
  0
LINE
  5
100
330
1F
100
AcDbEntity
  8
1-F
  6
Continuous
 62
     7
370
    13
100
AcDbLine
 10
619.3945807379646
 20
-528.1432775548985
 30
0.0
 11
1019.29370777027
 21
-528.1432775548985
 31
0.0
  0
LINE
  5
101
330
1F
100
AcDbEntity
  8
1-F
  6
Continuous
 62
     7
370
    13
100
AcDbLine
 10
619.3945807379646
 20
-391.1437658361485
 30
0.0
 11
619.3945807379646
 21
-529.9432785446579
 31
0.0
  0
LINE
  5
102
330
1F
100
AcDbEntity
  8
1-F
  6
Continuous
 62
     7
370
    13
100
AcDbLine
 10
1019.29370777027
 20
-391.1437658361485
 30
0.0
 11
1019.29370777027
 21
-529.9432785446579
 31
0.0
  0
LINE
  5
103
330
1F
100
AcDbEntity
  8
1-F
  6
Continuous
 62
     7
370
    13
100
AcDbLine
 10
-1427.182419235642
 20
-479.779432142103
 30
0.0
 11
12.31755437077709
 21
-479.779432142103
 31
0.0
  0
LINE
  5
104
330
1F
100
AcDbEntity
  8
1-F
  6
Continuous
 62
     7
370
    13
100
AcDbLine
 10
-1427.182419235642
 20
-423.2256997598183
 30
0.0
 11
-1427.182419235642
 21
-481.5794331318622
 31
0.0
  0
LINE
  5
105
330
1F
100
AcDbEntity
  8
1-F
  6
Continuous
 62
     7
370
    13
100
AcDbLine
 10
12.31755437077709
 20
-423.2256997598183
 30
0.0
 11
12.31755437077709
 21
-481.5794331318622
 31
0.0
  0
LINE
  5
106
330
1F
100
AcDbEntity
  8
1-F
  6
Continuous
 62
     7
370
    13
100
AcDbLine
 10
659.344482421875
 20
-479.779432142103
 30
0.0
 11
979.3445484058276
 21
-479.779432142103
 31
0.0
  0
LINE
  5
107
330
1F
100
AcDbEntity
  8
1-F
  6
Continuous
 62
     7
370
    13
100
AcDbLine
 10
659.344482421875
 20
-409.5777851826435
 30
0.0
 11
659.344482421875
 21
-481.5794331318622
 31
0.0
  0
LINE
  5
108
330
1F
100
AcDbEntity
  8
1-F
  6
Continuous
 62
     7
370
    13
100
AcDbLine
 10
979.3445484058276
 20
-409.5777851826435
 30
0.0
 11
979.3445484058276
 21
-481.5794331318622
 31
0.0
  0
LINE
  5
109
330
1F
100
AcDbEntity
  8
1-F
  6
Continuous
 62
     7
370
    13
100
AcDbLine
 10
-47.64849688555728
 20
-538.3191165408572
 30
0.0
 11
72.28311074746642
 21
-538.3191165408572
 31
0.0
  0
LINE
  5
10A
330
1F
100
AcDbEntity
  8
1-F
  6
Continuous
 62
     7
370
    13
100
AcDbLine
 10
72.28311074746642
 20
-404.6623931059966
 30
0.0
 11
72.28311074746642
 21
-540.1191175306166
 31
0.0
  0
LINE
  5
10B
330
1F
100
AcDbEntity
  8
1-F
  6
Continuous
 62
     7
370
    13
100
AcDbLine
 10
-47.64849688555728
 20
-492.1552585911105
 30
0.0
 11
-47.64849688555728
 21
-540.1191175306166
 31
0.0
  0
LINE
  5
10C
330
1F
100
AcDbEntity
  8
1-F
  6
Continuous
 62
     7
370
    13
100
AcDbLine
 10
-47.64849688555728
 20
-404.6623931059966
 30
0.0
 11
-47.64849688555728
 21
-466.0828956397803
 31
0.0
  0
LINE
  5
10D
330
1F
100
AcDbEntity
  8
1-F
  6
Continuous
 62
     7
370
    13
100
AcDbLine
 10
979.3445484058276
 20
-338.3224157384923
 30
0.0
 11
1022.324350717906
 21
-263.8784130199535
 31
0.0
  0
LINE
  5
10E
330
1F
100
AcDbEntity
  8
1-F
  6
Continuous
 62
     7
370
    13
100
AcDbLine
 10
898.6440297719594
 20
-333.3637216928843
 30
0.0
 11
997.5434999208193
 21
-162.044677734375
 31
0.0
  0
LINE
  5
10F
330
1F
100
AcDbEntity
  8
1-F
  6
Continuous
 62
     7
370
    13
100
AcDbLine
 10
863.3373363597974
 20
-209.3075396563555
 30
0.0
 11
951.3343604835308
 21
-56.44750646642734
 31
0.0
  0
LINE
  5
110
330
1F
100
AcDbEntity
  8
1-F
  6
Continuous
 62
     7
370
    13
100
AcDbLine
 10
-1629.205497535499
 20
-389.3223613017313
 30
0.0
 11
-1629.205497535499
 21
530.6764674831084
 31
0.0
  0
LINE
  5
111
330
1F
100
AcDbEntity
  8
1-4
  6
Continuous
 62
     7
370
    13
100
AcDbLine
 10
-1555.721963418497
 20
-169.3226252375422
 30
0.0
 11
-1555.721963418497
 21
530.6762200432856
 31
0.0
  0
LINE
  5
112
330
1F
100
AcDbEntity
  8
1-4
  6
Continuous
 62
     7
370
    13
100
AcDbLine
 10
-1546.7219584697
 20
-169.3226252375422
 30
0.0
 11
-1553.921962428737
 21
-169.3226252375422
 31
0.0
  0
LINE
  5
113
330
1F
100
AcDbEntity
  8
1-4
  6
Continuous
 62
     7
370
    13
100
AcDbLine
 10
-1546.7219584697
 20
530.6762200432856
 30
0.0
 11
-1553.921962428737
 21
530.6762200432856
 31
0.0
  0
LINE
  5
114
330
1F
100
AcDbEntity
  8
1-0
  6
Continuous
 62
     3
370
    13
100
AcDbLine
 10
789.094502217061
 20
500.4274440456084
 30
0.0
 11
789.094502217061
 21
-213.3222507786105
 31
0.0
  0
LINE
  5
115
330
1F
100
AcDbEntity
  8
1-0
  6
Continuous
 62
     3
370
    13
100
AcDbLine
 10
789.094502217061
 20
-225.3223398569467
 30
0.0
 11
789.094502217061
 21
-369.3229139173353
 31
0.0
  0
LINE
  5
116
330
1F
100
AcDbEntity
  8
1-0
  6
Continuous
 62
     3
370
    13
100
AcDbLine
 10
849.5945286106422
 20
500.4275677655195
 30
0.0
 11
849.5945286106422
 21
-369.3225427576013
 31
0.0
  0
LINE
  5
117
330
1F
100
AcDbEntity
  8
1-0
  6
Continuous
 62
     3
370
    13
100
AcDbLine
 10
846.7944995777026
 20
-369.32241903769
 30
0.0
 11
846.7944995777026
 21
500.4275677655195
 31
0.0
  0
LINE
  5
118
330
1F
100
AcDbEntity
  8
1-F
  6
Continuous
 62
     7
370
    13
100
AcDbLine
 10
-1223.168718492662
 20
308.6755618533573
 30
0.0
 11
-1403.737124881229
 21
412.9266604861698
 31
0.0
  0
LINE
  5
119
330
1F
100
AcDbEntity
  8
1-0
  6
JWW_CENTER1
 62
     3
370
    13
100
AcDbLine
 10
-1427.182542955553
 20
325.4267429661107
 30
0.0
 11
-1427.182542955553
 21
223.5979564769849
 31
0.0
  0
LINE
  5
11A
330
1F
100
AcDbEntity
  8
1-0
  6
JWW_CENTER1
 62
     3
370
    13
100
AcDbLine
 10
-1427.182542955553
 20
187.0660647830448
 30
0.0
 11
-1427.182542955553
 21
-411.2257344013935
 31
0.0
  0
LINE
  5
11B
330
1F
100
AcDbEntity
  8
1-F
  6
Continuous
 62
     7
370
    13
100
AcDbLine
 10
303.8454622835727
 20
-389.3223613017313
 30
0.0
 11
-1700.382057396141
 21
-389.3223613017313
 31
0.0
  0
LINE
  5
11C
330
1F
100
AcDbEntity
  8
1-F
  6
Continuous
 62
     7
370
    13
100
AcDbLine
 10
951.3343604835308
 20
-56.44750646642734
 30
0.0
 11
1388.966080949114
 21
-56.44750646642734
 31
0.0
  0
LINE
  5
11D
330
1F
100
AcDbEntity
  8
1-F
  6
Continuous
 62
     7
370
    13
100
AcDbLine
 10
1022.324350717906
 20
-263.8784130199535
 30
0.0
 11
1358.135326488598
 21
-263.8784130199535
 31
0.0
  0
LINE
  5
11E
330
1F
100
AcDbEntity
  8
1-F
  6
Continuous
 62
     7
370
    13
100
AcDbLine
 10
997.5434999208193
 20
-162.044677734375
 30
0.0
 11
1471.439753351985
 21
-162.044677734375
 31
0.0
  0
LINE
  5
11F
330
1F
100
AcDbEntity
  8
1-F
  6
Continuous
 62
     7
370
    13
100
AcDbLine
 10
1531.962791649071
 20
-389.3223613017313
 30
0.0
 11
484.5500224345443
 21
-389.3223613017313
 31
0.0
  0
LINE
  5
120
330
1F
100
AcDbEntity
  8
1-4
  6
Continuous
 62
     7
370
    13
100
AcDbLine
 10
-1427.182419235642
 20
-479.779432142103
 30
0.0
 11
-1402.396310342325
 21
-476.5162576211465
 31
0.0
  0
LINE
  5
121
330
1F
100
AcDbEntity
  8
1-4
  6
Continuous
 62
     7
370
    13
100
AcDbLine
 10
-1427.182419235642
 20
-479.779432142103
 30
0.0
 11
-1402.396310342325
 21
-483.0426066630595
 31
0.0
  0
LINE
  5
122
330
1F
100
AcDbEntity
  8
1-4
  6
Continuous
 62
     7
370
    13
100
AcDbLine
 10
12.31755437077709
 20
-479.779432142103
 30
0.0
 11
-12.46849266258437
 21
-483.0426066630595
 31
0.0
  0
LINE
  5
123
330
1F
100
AcDbEntity
  8
1-4
  6
Continuous
 62
     7
370
    13
100
AcDbLine
 10
12.31755437077709
 20
-479.779432142103
 30
0.0
 11
-12.46849266258437
 21
-476.5162576211465
 31
0.0
  0
LINE
  5
124
330
1F
100
AcDbEntity
  8
1-4
  6
Continuous
 62
     7
370
    13
100
AcDbLine
 10
-47.64849688555728
 20
-538.3191165408572
 30
0.0
 11
-22.86244985219582
 21
-535.0559420199006
 31
0.0
  0
LINE
  5
125
330
1F
100
AcDbEntity
  8
1-4
  6
Continuous
 62
     7
370
    13
100
AcDbLine
 10
-47.64849688555728
 20
-538.3191165408572
 30
0.0
 11
-22.86244985219582
 21
-541.5822910618136
 31
0.0
  0
LINE
  5
126
330
1F
100
AcDbEntity
  8
1-4
  6
Continuous
 62
     7
370
    13
100
AcDbLine
 10
72.28311074746642
 20
-538.3191165408572
 30
0.0
 11
47.49706371410497
 21
-541.5822910618136
 31
0.0
  0
LINE
  5
127
330
1F
100
AcDbEntity
  8
1-4
  6
Continuous
 62
     7
370
    13
100
AcDbLine
 10
72.28311074746642
 20
-538.3191165408572
 30
0.0
 11
47.49706371410497
 21
-535.0559420199006
 31
0.0
  0
LINE
  5
128
330
1F
100
AcDbEntity
  8
1-4
  6
Continuous
 62
     7
370
    13
100
AcDbLine
 10
-1629.205497535499
 20
-389.3223613017313
 30
0.0
 11
-1632.468641126478
 21
-364.5361905484586
 31
0.0
  0
LINE
  5
129
330
1F
100
AcDbEntity
  8
1-4
  6
Continuous
 62
     7
370
    13
100
AcDbLine
 10
-1629.205497535499
 20
-389.3223613017313
 30
0.0
 11
-1625.942353944521
 21
-364.5361905484586
 31
0.0
  0
LINE
  5
12A
330
1F
100
AcDbEntity
  8
1-4
  6
Continuous
 62
     7
370
    13
100
AcDbLine
 10
-1555.721963418497
 20
-389.32223758182
 30
0.0
 11
-1558.985137939453
 21
-364.5360668285473
 31
0.0
  0
LINE
  5
12B
330
1F
100
AcDbEntity
  8
1-4
  6
Continuous
 62
     7
370
    13
100
AcDbLine
 10
-1555.721963418497
 20
-389.32223758182
 30
0.0
 11
-1552.45878889754
 21
-364.5360668285473
 31
0.0
  0
LINE
  5
12C
330
1F
100
AcDbEntity
  8
1-4
  6
Continuous
 62
     7
370
    13
100
AcDbLine
 10
-1555.721963418497
 20
-169.3226252375422
 30
0.0
 11
-1552.45878889754
 21
-194.1087959908148
 31
0.0
  0
LINE
  5
12D
330
1F
100
AcDbEntity
  8
1-4
  6
Continuous
 62
     7
370
    13
100
AcDbLine
 10
-1555.721963418497
 20
-169.3226252375422
 30
0.0
 11
-1558.985137939453
 21
-194.1087959908148
 31
0.0
  0
LINE
  5
12E
330
1F
100
AcDbEntity
  8
1-4
  6
Continuous
 62
     7
370
    13
100
AcDbLine
 10
-1555.721963418497
 20
-169.3226252375422
 30
0.0
 11
-1558.985137939453
 21
-144.5364544842693
 31
0.0
  0
LINE
  5
12F
330
1F
100
AcDbEntity
  8
1-4
  6
Continuous
 62
     7
370
    13
100
AcDbLine
 10
-1555.721963418497
 20
-169.3226252375422
 30
0.0
 11
-1552.45878889754
 21
-144.5364544842693
 31
0.0
  0
LINE
  5
130
330
1F
100
AcDbEntity
  8
1-4
  6
Continuous
 62
     7
370
    13
100
AcDbLine
 10
-1629.205497535499
 20
530.6764674831084
 30
0.0
 11
-1625.942353944521
 21
505.8902967298354
 31
0.0
  0
LINE
  5
131
330
1F
100
AcDbEntity
  8
1-4
  6
Continuous
 62
     7
370
    13
100
AcDbLine
 10
-1629.205497535499
 20
530.6764674831084
 30
0.0
 11
-1632.468641126478
 21
505.8902967298354
 31
0.0
  0
LINE
  5
132
330
1F
100
AcDbEntity
  8
1-4
  6
Continuous
 62
     7
370
    13
100
AcDbLine
 10
-1555.721963418497
 20
530.6762200432856
 30
0.0
 11
-1552.45878889754
 21
505.8900492900128
 31
0.0
  0
LINE
  5
133
330
1F
100
AcDbEntity
  8
1-4
  6
Continuous
 62
     7
370
    13
100
AcDbLine
 10
-1555.721963418497
 20
530.6762200432856
 30
0.0
 11
-1558.985137939453
 21
505.8900492900128
 31
0.0
  0
LINE
  5
134
330
1F
100
AcDbEntity
  8
1-4
  6
Continuous
 62
     7
370
    13
100
AcDbLine
 10
-1396.932653478674
 20
205.6737868850297
 30
0.0
 11
-1372.146544585357
 21
208.9368995460305
 31
0.0
  0
LINE
  5
135
330
1F
100
AcDbEntity
  8
1-4
  6
Continuous
 62
     7
370
    13
100
AcDbLine
 10
-1396.932653478674
 20
205.6737868850297
 30
0.0
 11
-1372.146544585357
 21
202.4106742240289
 31
0.0
  0
LINE
  5
136
330
1F
100
AcDbEntity
  8
1-4
  6
Continuous
 62
     7
370
    13
100
AcDbLine
 10
-1457.432432432432
 20
205.6737868850297
 30
0.0
 11
-1482.218541325749
 21
208.9368995460305
 31
0.0
  0
LINE
  5
137
330
1F
100
AcDbEntity
  8
1-4
  6
Continuous
 62
     7
370
    13
100
AcDbLine
 10
-1457.432432432432
 20
205.6737868850297
 30
0.0
 11
-1482.218541325749
 21
202.4106742240289
 31
0.0
  0
LINE
  5
138
330
1F
100
AcDbEntity
  8
1-F
  6
Continuous
 62
     7
370
    13
100
AcDbLine
 10
-1229.212745460304
 20
205.6737868850297
 30
0.0
 11
-1511.301257159259
 21
205.6737868850297
 31
0.0
  0
LINE
  5
139
330
1F
100
AcDbEntity
  8
1-F
  6
Continuous
 62
     7
370
    13
100
AcDbLine
 10
-983.8926160657728
 20
287.0479604360222
 30
0.0
 11
-983.8926160657728
 21
94.77422765783359
 31
0.0
  0
LINE
  5
13A
330
1F
100
AcDbEntity
  8
1-4
  6
Continuous
 62
     7
370
    13
100
AcDbLine
 10
-983.8924923458615
 20
167.6770514410896
 30
0.0
 11
-987.1557287267735
 21
192.4632221943625
 31
0.0
  0
LINE
  5
13B
330
1F
100
AcDbEntity
  8
1-4
  6
Continuous
 62
     7
370
    13
100
AcDbLine
 10
-983.8924923458615
 20
167.6770514410896
 30
0.0
 11
-980.6292559649492
 21
192.4632221943625
 31
0.0
  0
LINE
  5
13C
330
1F
100
AcDbEntity
  8
1-4
  6
Continuous
 62
     7
370
    13
100
AcDbLine
 10
-983.8926160657728
 20
133.6769640123524
 30
0.0
 11
-987.1559761665962
 21
108.8907932590794
 31
0.0
  0
LINE
  5
13D
330
1F
100
AcDbEntity
  8
1-4
  6
Continuous
 62
     7
370
    13
100
AcDbLine
 10
-983.8926160657728
 20
133.6769640123524
 30
0.0
 11
-980.6295034047719
 21
108.8907932590794
 31
0.0
  0
LINE
  5
13E
330
1F
100
AcDbEntity
  8
1-4
  6
Continuous
 62
     7
370
    13
100
AcDbLine
 10
-1403.737124881229
 20
412.9266604861698
 30
0.0
 11
-1380.640102077175
 21
403.359647183805
 31
0.0
  0
LINE
  5
13F
330
1F
100
AcDbEntity
  8
1-4
  6
Continuous
 62
     7
370
    13
100
AcDbLine
 10
-1403.737124881229
 20
412.9266604861698
 30
0.0
 11
-1383.903276598131
 21
397.7076267551732
 31
0.0
  0
LINE
  5
140
330
1F
100
AcDbEntity
  8
1-4
  6
Continuous
 62
     7
370
    13
100
AcDbLine
 10
-1457.432679872255
 20
590.6756756756758
 30
0.0
 11
-1432.646570978938
 21
593.938912056588
 31
0.0
  0
LINE
  5
141
330
1F
100
AcDbEntity
  8
1-4
  6
Continuous
 62
     7
370
    13
100
AcDbLine
 10
-1457.432679872255
 20
590.6756756756758
 30
0.0
 11
-1432.646570978938
 21
587.412563014675
 31
0.0
  0
LINE
  5
142
330
1F
100
AcDbEntity
  8
1-4
  6
Continuous
 62
     7
370
    13
100
AcDbLine
 10
-1328.503789128484
 20
133.677211452175
 30
0.0
 11
-1313.284755397487
 21
113.8434250290331
 31
0.0
  0
LINE
  5
143
330
1F
100
AcDbEntity
  8
1-4
  6
Continuous
 62
     7
370
    13
100
AcDbLine
 10
-1328.503789128484
 20
133.677211452175
 30
0.0
 11
-1318.936713966164
 21
110.5801886481208
 31
0.0
  0
LINE
  5
144
330
1F
100
AcDbEntity
  8
1-4
  6
Continuous
 62
     7
370
    13
100
AcDbLine
 10
-514.6683976456925
 20
167.6756905220651
 30
0.0
 11
-517.9315103066932
 21
192.461861275338
 31
0.0
  0
LINE
  5
145
330
1F
100
AcDbEntity
  8
1-4
  6
Continuous
 62
     7
370
    13
100
AcDbLine
 10
-514.6683976456925
 20
167.6756905220651
 30
0.0
 11
-511.4052849846917
 21
192.461861275338
 31
0.0
  0
LINE
  5
146
330
1F
100
AcDbEntity
  8
1-4
  6
Continuous
 62
     7
370
    13
100
AcDbLine
 10
-514.6683976456925
 20
165.375489930849
 30
0.0
 11
-517.9316340266047
 21
140.589319177576
 31
0.0
  0
LINE
  5
147
330
1F
100
AcDbEntity
  8
1-4
  6
Continuous
 62
     7
370
    13
100
AcDbLine
 10
-514.6683976456925
 20
165.375489930849
 30
0.0
 11
-511.4054087046028
 21
140.589319177576
 31
0.0
  0
LINE
  5
148
330
1F
100
AcDbEntity
  8
1-F
  6
Continuous
 62
     7
370
    13
100
AcDbLine
 10
-514.6683976456925
 20
260.0276555241766
 30
0.0
 11
-514.6683976456925
 21
124.8517752982477
 31
0.0
  0
LINE
  5
149
330
1F
100
AcDbEntity
  8
1-4
  6
Continuous
 62
     7
370
    13
100
AcDbLine
 10
-212.4326551282726
 20
530.6764674831084
 30
0.0
 11
-209.1695424672719
 21
505.8902967298354
 31
0.0
  0
LINE
  5
14A
330
1F
100
AcDbEntity
  8
1-4
  6
Continuous
 62
     7
370
    13
100
AcDbLine
 10
-212.4326551282726
 20
530.6764674831084
 30
0.0
 11
-215.6957677892734
 21
505.8902967298354
 31
0.0
  0
LINE
  5
14B
330
1F
100
AcDbEntity
  8
1-4
  6
Continuous
 62
     7
370
    13
100
AcDbLine
 10
-212.4326551282726
 20
150.6744714685391
 30
0.0
 11
-215.6957677892734
 21
175.4606422218117
 31
0.0
  0
LINE
  5
14C
330
1F
100
AcDbEntity
  8
1-4
  6
Continuous
 62
     7
370
    13
100
AcDbLine
 10
-212.4326551282726
 20
150.6744714685391
 30
0.0
 11
-209.1695424672719
 21
175.4606422218117
 31
0.0
  0
LINE
  5
14D
330
1F
100
AcDbEntity
  8
1-4
  6
Continuous
 62
     7
370
    13
100
AcDbLine
 10
42.56756756756772
 20
590.6756756756758
 30
0.0
 11
17.78152053420627
 21
587.412563014675
 31
0.0
  0
LINE
  5
14E
330
1F
100
AcDbEntity
  8
1-4
  6
Continuous
 62
     7
370
    13
100
AcDbLine
 10
42.56756756756772
 20
590.6756756756758
 30
0.0
 11
17.78152053420627
 21
593.938912056588
 31
0.0
  0
LINE
  5
14F
330
1F
100
AcDbEntity
  8
1-4
  6
Continuous
 62
     7
370
    13
100
AcDbLine
 10
42.56732012774506
 20
205.6737868850297
 30
0.0
 11
67.35336716110652
 21
208.9368995460305
 31
0.0
  0
LINE
  5
150
330
1F
100
AcDbEntity
  8
1-4
  6
Continuous
 62
     7
370
    13
100
AcDbLine
 10
42.56732012774506
 20
205.6737868850297
 30
0.0
 11
67.35336716110652
 21
202.4106742240289
 31
0.0
  0
LINE
  5
151
330
1F
100
AcDbEntity
  8
1-4
  6
Continuous
 62
     7
370
    13
100
AcDbLine
 10
39.76729109480573
 20
205.6737868850297
 30
0.0
 11
14.98124406144427
 21
208.9368995460305
 31
0.0
  0
LINE
  5
152
330
1F
100
AcDbEntity
  8
1-4
  6
Continuous
 62
     7
370
    13
100
AcDbLine
 10
39.76729109480573
 20
205.6737868850297
 30
0.0
 11
14.98124406144427
 21
202.4106742240289
 31
0.0
  0
LINE
  5
153
330
1F
100
AcDbEntity
  8
1-F
  6
Continuous
 62
     7
370
    13
100
AcDbLine
 10
138.5890651393584
 20
205.6737868850297
 30
0.0
 11
-5.407055004222912
 21
205.6737868850297
 31
0.0
  0
LINE
  5
154
330
1F
100
AcDbEntity
  8
1-4
  6
Continuous
 62
     7
370
    13
100
AcDbLine
 10
619.3945807379646
 20
-528.1432775548985
 30
0.0
 11
644.180627771326
 21
-524.8801030339421
 31
0.0
  0
LINE
  5
155
330
1F
100
AcDbEntity
  8
1-4
  6
Continuous
 62
     7
370
    13
100
AcDbLine
 10
619.3945807379646
 20
-528.1432775548985
 30
0.0
 11
644.180627771326
 21
-531.4064520758551
 31
0.0
  0
LINE
  5
156
330
1F
100
AcDbEntity
  8
1-4
  6
Continuous
 62
     7
370
    13
100
AcDbLine
 10
659.344482421875
 20
-479.779432142103
 30
0.0
 11
684.1305294552365
 21
-476.5162576211465
 31
0.0
  0
LINE
  5
157
330
1F
100
AcDbEntity
  8
1-4
  6
Continuous
 62
     7
370
    13
100
AcDbLine
 10
659.344482421875
 20
-479.779432142103
 30
0.0
 11
684.1305294552365
 21
-483.0426066630595
 31
0.0
  0
LINE
  5
158
330
1F
100
AcDbEntity
  8
1-4
  6
Continuous
 62
     7
370
    13
100
AcDbLine
 10
979.3445484058276
 20
-479.779432142103
 30
0.0
 11
954.5585013724661
 21
-483.0426066630595
 31
0.0
  0
LINE
  5
159
330
1F
100
AcDbEntity
  8
1-4
  6
Continuous
 62
     7
370
    13
100
AcDbLine
 10
979.3445484058276
 20
-479.779432142103
 30
0.0
 11
954.5585013724661
 21
-476.5162576211465
 31
0.0
  0
LINE
  5
15A
330
1F
100
AcDbEntity
  8
1-4
  6
Continuous
 62
     7
370
    13
100
AcDbLine
 10
1019.29370777027
 20
-528.1432775548985
 30
0.0
 11
994.5076607369089
 21
-531.4064520758551
 31
0.0
  0
LINE
  5
15B
330
1F
100
AcDbEntity
  8
1-4
  6
Continuous
 62
     7
370
    13
100
AcDbLine
 10
1019.29370777027
 20
-528.1432775548985
 30
0.0
 11
994.5076607369089
 21
-524.8801030339421
 31
0.0
  0
LINE
  5
15C
330
1F
100
AcDbEntity
  8
1-4
  6
Continuous
 62
     7
370
    13
100
AcDbLine
 10
898.6440297719594
 20
-333.3637216928843
 30
0.0
 11
908.2100533150339
 21
-310.2662040091849
 31
0.0
  0
LINE
  5
15D
330
1F
100
AcDbEntity
  8
1-4
  6
Continuous
 62
     7
370
    13
100
AcDbLine
 10
898.6440297719594
 20
-333.3637216928843
 30
0.0
 11
913.8620737436656
 21
-313.5290692303631
 31
0.0
  0
LINE
  5
15E
330
1F
100
AcDbEntity
  8
1-4
  6
Continuous
 62
     7
370
    13
100
AcDbLine
 10
979.3445484058276
 20
-338.3224157384923
 30
0.0
 11
988.9115617081927
 21
-315.2253929344383
 31
0.0
  0
LINE
  5
15F
330
1F
100
AcDbEntity
  8
1-4
  6
Continuous
 62
     7
370
    13
100
AcDbLine
 10
979.3445484058276
 20
-338.3224157384923
 30
0.0
 11
994.5635821368245
 21
-318.4885055954392
 31
0.0
  0
LINE
  5
160
330
1F
100
AcDbEntity
  8
1-4
  6
Continuous
 62
     7
370
    13
100
AcDbLine
 10
863.3373363597974
 20
-209.3075396563555
 30
0.0
 11
872.8753992029141
 21
-186.1985160209036
 31
0.0
  0
LINE
  5
161
330
1F
100
AcDbEntity
  8
1-4
  6
Continuous
 62
     7
370
    13
100
AcDbLine
 10
863.3373363597974
 20
-209.3075396563555
 30
0.0
 11
878.5313786687078
 21
-189.4545766469594
 31
0.0
  0
LINE
  5
162
330
1F
100
AcDbEntity
  8
1-4
  6
Continuous
 62
     7
370
    13
100
AcDbLine
 10
849.5945286106422
 20
299.2260824667443
 30
0.0
 11
859.1615419130068
 21
322.3231052707982
 31
0.0
  0
LINE
  5
163
330
1F
100
AcDbEntity
  8
1-4
  6
Continuous
 62
     7
370
    13
100
AcDbLine
 10
849.5945286106422
 20
299.2260824667443
 30
0.0
 11
864.8135623416385
 21
319.0599926097974
 31
0.0
  0
LINE
  5
164
330
1F
100
AcDbEntity
  8
1-0
  6
JWW_CENTER1
 62
     3
370
    13
100
AcDbLine
 10
21.49460251266902
 20
150.6712547508448
 30
0.0
 11
-960.4933455183699
 21
150.6759561074747
 31
0.0
  0
LINE
  5
165
330
1F
100
AcDbEntity
  8
1-0
  6
JWW_CENTER1
 62
     3
370
    13
100
AcDbLine
 10
-1004.171917889569
 20
150.6760798273859
 30
0.0
 11
-1432.362448202597
 21
150.6781830658784
 31
0.0
  0
LINE
  5
166
330
1F
100
AcDbEntity
  8
1-0
  6
Continuous
 62
     3
370
    13
100
AcDbLine
 10
791.89453125
 20
-369.3226664775126
 30
0.0
 11
791.89453125
 21
500.4273203256969
 31
0.0
  0
ARC
  5
167
330
1F
100
AcDbEntity
  8
1-0
  6
JWW_CENTER1
 62
     3
370
    13
100
AcDbCircle
 10
-1252.182584195524
 20
325.4267429661107
 30
0.0
 40
175.0000051549963
100
AcDbArc
 50
89.999755859375
 51
180.0
  0
ARC
  5
168
330
1F
100
AcDbEntity
  8
1-0
  6
Continuous
 62
     3
370
    13
100
AcDbCircle
 10
-1252.182584195524
 20
325.4266192461995
 30
0.0
 40
205.2500028867979
100
AcDbArc
 50
89.99977111816406
 51
180.0
  0
ARC
  5
169
330
1F
100
AcDbEntity
  8
1-0
  6
Continuous
 62
     3
370
    13
100
AcDbCircle
 10
-1252.182584195524
 20
325.4262480864654
 30
0.0
 40
144.7500074231947
100
AcDbArc
 50
89.9998016357422
 51
180.0
  0
ARC
  5
16A
330
1F
100
AcDbEntity
  8
1-0
  6
JWW_CENTER1
 62
     3
370
    13
100
AcDbCircle
 10
-162.6825281091638
 20
325.4267429661107
 30
0.0
 40
175.0000051549963
100
AcDbArc
 50
0.0
 51
90.00024414062499
  0
ARC
  5
16B
330
1F
100
AcDbEntity
  8
1-0
  6
Continuous
 62
     3
370
    13
100
AcDbCircle
 10
-162.6825281091638
 20
325.4266192461995
 30
0.0
 40
205.2500028867979
100
AcDbArc
 50
0.0
 51
90.00022888183595
  0
ARC
  5
16C
330
1F
100
AcDbEntity
  8
1-0
  6
Continuous
 62
     3
370
    13
100
AcDbCircle
 10
-162.6825281091638
 20
325.4262480864654
 30
0.0
 40
144.7500074231947
100
AcDbArc
 50
0.0
 51
90.00019836425781
  0
ARC
  5
16D
330
1F
100
AcDbEntity
  8
1-0
  6
Continuous
 62
     3
370
    13
100
AcDbCircle
 10
819.3445154138516
 20
500.4274440456084
 30
0.0
 40
30.24996486870018
100
AcDbArc
 50
0.0
 51
180.0
  0
ARC
  5
16E
330
1F
100
AcDbEntity
  8
1-0
  6
Continuous
 62
     3
370
    13
100
AcDbCircle
 10
-1396.932653478674
 20
150.6779356260557
 30
0.0
 40
17.00000698501999
100
AcDbArc
 50
90.0
 51
270.0
  0
ARC
  5
16F
330
1F
100
AcDbEntity
  8
1-0
  6
JWW_PHANTOM1
 62
     3
370
    13
100
AcDbCircle
 10
-17.93245882601326
 20
150.6779356260557
 30
0.0
 40
17.00000698501999
100
AcDbArc
 50
270.0
 51
90.0
  0
CIRCLE
  5
170
330
1F
100
AcDbEntity
  8
1-0
  6
JWW_DASHED2
 62
     3
370
    13
100
AcDbCircle
 10
819.3445154138516
 20
150.6774407464107
 30
0.0
 40
17.00000118564915
  0
ARC
  5
171
330
1F
100
AcDbEntity
  8
1-0
  6
Continuous
 62
     3
370
    13
100
AcDbCircle
 10
-162.6825281091638
 20
325.4266192461995
 30
0.0
 40
202.4500202488255
100
AcDbArc
 50
0.0
 51
90.00022888183595
  0
ARC
  5
172
330
1F
100
AcDbEntity
  8
1-0
  6
Continuous
 62
     3
370
    13
100
AcDbCircle
 10
-162.6825281091638
 20
325.4262480864654
 30
0.0
 40
147.550005526156
100
AcDbArc
 50
0.0
 51
90.00019836425781
  0
ARC
  5
173
330
1F
100
AcDbEntity
  8
1-0
  6
JWW_PHANTOM1
 62
     3
370
    13
100
AcDbCircle
 10
-17.93245882601326
 20
150.6731105495143
 30
0.0
 40
14.6999301137151
100
AcDbArc
 50
270.0
 51
90.0002899169922
  0
ARC
  5
174
330
1F
100
AcDbEntity
  8
1-D
  6
Continuous
 62
     2
370
    13
100
AcDbCircle
 10
861.0544565561656
 20
-227.3298191379855
 30
0.0
 40
3.040000232490334
100
AcDbArc
 50
318.6724548339844
 51
41.32754516601565
  0
ARC
  5
175
330
1F
100
AcDbEntity
  8
1-D
  6
Continuous
 62
     2
370
    13
100
AcDbCircle
 10
861.0544565561656
 20
-211.3148952174831
 30
0.0
 40
3.040000232490334
100
AcDbArc
 50
318.6724548339844
 51
41.32754516601565
  0
ARC
  5
176
330
1F
100
AcDbEntity
  8
1-D
  6
Continuous
 62
     2
370
    13
100
AcDbCircle
 10
839.9406639305323
 20
-219.3222953177786
 30
0.0
 40
24.15347292616561
100
AcDbArc
 50
345.6165313720703
 51
14.38359069824219
  0
ARC
  5
177
330
1F
100
AcDbEntity
  8
1-D
  6
Continuous
 62
     2
370
    13
100
AcDbCircle
 10
775.9975124049834
 20
-227.5299979544974
 30
0.0
 40
3.903030463167139
100
AcDbArc
 50
135.3612976074219
 51
224.6389617919922
  0
ARC
  5
178
330
1F
100
AcDbEntity
  8
1-D
  6
Continuous
 62
     2
370
    13
100
AcDbCircle
 10
785.9223236908787
 20
-219.3222953177786
 30
0.0
 40
13.8279009509731
100
AcDbArc
 50
156.7198028564453
 51
203.2803039550781
  0
ARC
  5
179
330
1F
100
AcDbEntity
  8
1-D
  6
Continuous
 62
     2
370
    13
100
AcDbCircle
 10
775.9975124049834
 20
-211.1147164009712
 30
0.0
 40
3.903060909864065
100
AcDbArc
 50
135.3612976074219
 51
224.63818359375
  0
ARC
  5
17A
330
1F
100
AcDbEntity
  8
1-0
  6
Continuous
 62
     2
370
    13
100
AcDbCircle
 10
1002.158005173142
 20
-345.6225091057854
 30
0.0
 40
2.000000146595208
100
AcDbArc
 50
186.2657318115234
 51
262.1466522216797
  0
ARC
  5
17B
330
1F
100
AcDbEntity
  8
1-0
  6
Continuous
 62
     2
370
    13
100
AcDbCircle
 10
1010.017436259502
 20
-353.7730531434754
 30
0.0
 40
5.000001030999261
100
AcDbArc
 50
9.462356567382812
 51
82.14665222167969
  0
ARC
  5
17C
330
1F
100
AcDbEntity
  8
1-0
  6
Continuous
 62
     2
370
    13
100
AcDbCircle
 10
861.5943702491558
 20
-324.3223942937077
 30
0.0
 40
5.000001030999261
100
AcDbArc
 50
180.0
 51
270.0
  0
ARC
  5
17D
330
1F
100
AcDbEntity
  8
1-0
  6
Continuous
 62
     2
370
    13
100
AcDbCircle
 10
850.0943570523651
 20
-368.8503038561021
 30
0.0
 40
0.5000000366488019
100
AcDbArc
 50
273.2700347900391
 51
0.0000000000000127
  0
ARC
  5
17E
330
1F
100
AcDbEntity
  8
1-0
  6
Continuous
 62
     2
370
    13
100
AcDbCircle
 10
842.3442943676099
 20
-370.2947338207348
 30
0.0
 40
0.5000000366488019
100
AcDbArc
 50
93.27003479003906
 51
180.0
  0
ARC
  5
17F
330
1F
100
AcDbEntity
  8
1-0
  6
Continuous
 62
     2
370
    13
100
AcDbCircle
 10
851.0945088154563
 20
-211.8223942937077
 30
0.0
 40
0.5000000366488019
100
AcDbArc
 50
180.0
 51
270.0
  0
ARC
  5
180
330
1F
100
AcDbEntity
  8
1-0
  6
Continuous
 62
     2
370
    13
100
AcDbCircle
 10
851.0945088154563
 20
-226.8224437816723
 30
0.0
 40
0.5000000366488019
100
AcDbArc
 50
90.0
 51
180.0
  0
ARC
  5
181
330
1F
100
AcDbEntity
  8
1-0
  6
Continuous
 62
     2
370
    13
100
AcDbCircle
 10
934.6970016891896
 20
-336.8223118137668
 30
0.0
 40
1.500000260971688
100
AcDbArc
 50
262.1459045410156
 51
270.0
  0
ARC
  5
182
330
1F
100
AcDbEntity
  8
1-0
  6
Continuous
 62
     2
370
    13
100
AcDbCircle
 10
855.0946209881761
 20
-170.8223580025336
 30
0.0
 40
1.500000260971688
100
AcDbArc
 50
0.0
 51
90.0
  0
ARC
  5
183
330
1F
100
AcDbEntity
  8
1-0
  6
Continuous
 62
     2
370
    13
100
AcDbCircle
 10
869.2414979676943
 20
-330.8225147144213
 30
0.0
 40
1.500000260971688
100
AcDbArc
 50
82.1468505859375
 51
90.0
  0
ARC
  5
184
330
1F
100
AcDbEntity
  8
1-0
  6
Continuous
 62
     2
370
    13
100
AcDbCircle
 10
998.0000263935813
 20
-339.8225196632178
 30
0.0
 40
1.500000260971688
100
AcDbArc
 50
6.265106201171876
 51
90.00000000000001
  0
ARC
  5
185
330
1F
100
AcDbEntity
  8
1-0
  6
Continuous
 62
     2
370
    13
100
AcDbCircle
 10
958.3784773543078
 20
-381.8224602776604
 30
0.0
 40
1.500000260971688
100
AcDbArc
 50
24.44400024414062
 51
90.0
  0
ARC
  5
186
330
1F
100
AcDbEntity
  8
1-0
  6
Continuous
 62
     2
370
    13
100
AcDbCircle
 10
1017.793975005279
 20
-379.1438004777237
 30
0.0
 40
1.500000260971688
100
AcDbArc
 50
337.3799133300782
 51
9.462326049804753
  0
ARC
  5
187
330
1F
100
AcDbEntity
  8
1-0
  6
Continuous
 62
     2
370
    13
100
AcDbCircle
 10
636.531025654561
 20
-345.6225091057854
 30
0.0
 40
2.000000146595208
100
AcDbArc
 50
277.8533477783204
 51
353.7342681884766
  0
ARC
  5
188
330
1F
100
AcDbEntity
  8
1-0
  6
Continuous
 62
     2
370
    13
100
AcDbCircle
 10
628.671842008024
 20
-353.7730531434754
 30
0.0
 40
5.000001030999261
100
AcDbArc
 50
97.85334777832031
 51
170.5376434326172
  0
ARC
  5
189
330
1F
100
AcDbEntity
  8
1-0
  6
Continuous
 62
     2
370
    13
100
AcDbCircle
 10
777.0946605785474
 20
-324.3223942937077
 30
0.0
 40
5.000001030999261
100
AcDbArc
 50
270.0
 51
0.0
  0
ARC
  5
18A
330
1F
100
AcDbEntity
  8
1-0
  6
Continuous
 62
     2
370
    13
100
AcDbCircle
 10
788.5944263355151
 20
-368.8503038561021
 30
0.0
 40
0.5000000366488019
100
AcDbArc
 50
180.0
 51
266.7299652099609
  0
ARC
  5
18B
330
1F
100
AcDbEntity
  8
1-0
  6
Continuous
 62
     2
370
    13
100
AcDbCircle
 10
796.3444890202703
 20
-370.2947338207348
 30
0.0
 40
0.5000000366488019
100
AcDbArc
 50
0.0
 51
86.72996520996094
  0
ARC
  5
18C
330
1F
100
AcDbEntity
  8
1-0
  6
Continuous
 62
     2
370
    13
100
AcDbCircle
 10
787.5945220122469
 20
-211.8223942937077
 30
0.0
 40
0.5000000366488019
100
AcDbArc
 50
270.0
 51
0.0
  0
ARC
  5
18D
330
1F
100
AcDbEntity
  8
1-0
  6
Continuous
 62
     2
370
    13
100
AcDbCircle
 10
787.5945220122469
 20
-226.8224437816723
 30
0.0
 40
0.5000000366488019
100
AcDbArc
 50
0.0
 51
90.0
  0
ARC
  5
18E
330
1F
100
AcDbEntity
  8
1-0
  6
Continuous
 62
     2
370
    13
100
AcDbCircle
 10
703.9915342588682
 20
-336.8223118137668
 30
0.0
 40
1.500000260971688
100
AcDbArc
 50
270.0
 51
277.8540954589844
  0
ARC
  5
18F
330
1F
100
AcDbEntity
  8
1-0
  6
Continuous
 62
     2
370
    13
100
AcDbCircle
 10
783.5944098395271
 20
-170.8223580025336
 30
0.0
 40
1.500000260971688
100
AcDbArc
 50
90.0
 51
180.0
  0
ARC
  5
190
330
1F
100
AcDbEntity
  8
1-0
  6
Continuous
 62
     2
370
    13
100
AcDbCircle
 10
769.4477802998313
 20
-330.8225147144213
 30
0.0
 40
1.500000260971688
100
AcDbArc
 50
90.0
 51
97.8531494140625
  0
ARC
  5
191
330
1F
100
AcDbEntity
  8
1-0
  6
Continuous
 62
     2
370
    13
100
AcDbCircle
 10
640.688756994299
 20
-339.8225196632178
 30
0.0
 40
1.500000260971688
100
AcDbArc
 50
90.0
 51
173.7348937988281
  0
ARC
  5
192
330
1F
100
AcDbEntity
  8
1-0
  6
Continuous
 62
     2
370
    13
100
AcDbCircle
 10
680.3105534733953
 20
-381.8224602776604
 30
0.0
 40
1.500000260971688
100
AcDbArc
 50
90.0
 51
155.5559997558594
  0
ARC
  5
193
330
1F
100
AcDbEntity
  8
1-0
  6
Continuous
 62
     2
370
    13
100
AcDbCircle
 10
620.8948083826016
 20
-379.1438004777237
 30
0.0
 40
1.500000260971688
100
AcDbArc
 50
170.5376739501953
 51
202.6200866699219
  0
CIRCLE
  5
194
330
1F
100
AcDbEntity
  8
1-1
  6
Continuous
 62
     2
370
    13
100
AcDbCircle
 10
-1427.182542955553
 20
-219.3222953177786
 30
0.0
 40
8.673236498961579
  0
ELLIPSE
  5
195
330
1F
100
AcDbEntity
  8
1-0
  6
Continuous
 62
     2
370
    13
100
AcDbEllipse
 10
-1427.182171795819
 20
-344.592664563978
 30
0.0
 11
20.99997997283936
 21
0.0
 31
0.0
210
0.0
220
0.0
230
1.0
 40
0.1351
 41
3.141592653589792
 42
6.283185307179586
  0
ARC
  5
196
330
1F
100
AcDbEntity
  8
1-0
  6
Continuous
 62
     2
370
    13
100
AcDbCircle
 10
-1449.83850427576
 20
-342.5927321975296
 30
0.0
 40
2.000000146595208
100
AcDbArc
 50
270.0
 51
349.2559356689454
  0
CIRCLE
  5
197
330
1F
100
AcDbEntity
  8
1-0
  6
Continuous
 62
     2
370
    13
100
AcDbCircle
 10
-1427.182542955553
 20
-219.3225427576013
 30
0.0
 40
6.999993324279785
  0
ARC
  5
198
330
1F
100
AcDbEntity
  8
1-0
  6
Continuous
 62
     2
370
    13
100
AcDbCircle
 10
-1404.526210475612
 20
-342.5927321975296
 30
0.0
 40
2.000000146595208
100
AcDbArc
 50
190.7440643310547
 51
270.0
  0
ARC
  5
199
330
1F
100
AcDbEntity
  8
1-0
  6
Continuous
 62
     2
370
    13
100
AcDbCircle
 10
-1479.743215200063
 20
-356.1671571473817
 30
0.0
 40
5.000001030999261
100
AcDbArc
 50
92.00708007812499
 51
174.0531921386719
  0
ARC
  5
19A
330
1F
100
AcDbEntity
  8
1-0
  6
Continuous
 62
     2
370
    13
100
AcDbCircle
 10
-1477.659400733742
 20
-336.161276327597
 30
0.0
 40
5.000001030999261
100
AcDbArc
 50
92.08251953125
 51
174.0531005859375
  0
ARC
  5
19B
330
1F
100
AcDbEntity
  8
1-0
  6
Continuous
 62
     2
370
    13
100
AcDbCircle
 10
-1374.621499551309
 20
-356.1671571473817
 30
0.0
 40
5.000001030999261
100
AcDbArc
 50
5.946807861328125
 51
87.992919921875
  0
ARC
  5
19C
330
1F
100
AcDbEntity
  8
1-0
  6
Continuous
 62
     2
370
    13
100
AcDbCircle
 10
-1376.705437737542
 20
-336.161276327597
 30
0.0
 40
5.000001030999261
100
AcDbArc
 50
5.9468994140625
 51
87.91748046875
  0
ARC
  5
19D
330
1F
100
AcDbEntity
  8
1-0
  6
Continuous
 62
     2
370
    13
100
AcDbCircle
 10
-1445.92846019848
 20
-340.7615537901182
 30
0.0
 40
1.500000260971688
100
AcDbArc
 50
92.86273193359376
 51
169.2561798095703
  0
ARC
  5
19E
330
1F
100
AcDbEntity
  8
1-0
  6
Continuous
 62
     2
370
    13
100
AcDbCircle
 10
-1408.436130832981
 20
-340.7615537901182
 30
0.0
 40
1.500000260971688
100
AcDbArc
 50
10.74382019042969
 51
87.13726806640625
  0
ARC
  5
19F
330
1F
100
AcDbEntity
  8
1-0
  6
Continuous
 62
     2
370
    13
100
AcDbCircle
 10
-1462.932277370144
 20
-172.7410063872466
 30
0.0
 40
1.500000260971688
100
AcDbArc
 50
93.06739807128908
 51
180.0
  0
ARC
  5
1A0
330
1F
100
AcDbEntity
  8
1-0
  6
Continuous
 62
     2
370
    13
100
AcDbCircle
 10
-1391.432437381229
 20
-172.7410063872466
 30
0.0
 40
1.500000260971688
100
AcDbArc
 50
0.0
 51
86.93260192871094
  0
ARC
  5
1A1
330
1F
100
AcDbEntity
  8
1-0
  6
Continuous
 62
     2
370
    13
100
AcDbCircle
 10
-1485.64824284734
 20
-379.0726615287161
 30
0.0
 40
1.500000260971688
100
AcDbArc
 50
174.0530242919922
 51
204.4447784423828
  0
ARC
  5
1A2
330
1F
100
AcDbEntity
  8
1-0
  6
Continuous
 62
     2
370
    13
100
AcDbCircle
 10
-1368.716348184122
 20
-379.0726615287161
 30
0.0
 40
1.500000260971688
100
AcDbArc
 50
335.5550079345703
 51
5.946975708007843
  0
ARC
  5
1A3
330
1F
100
AcDbEntity
  8
1-0
  6
JWW_DASHED1
 62
     2
370
    13
100
AcDbCircle
 10
-1396.432330157306
 20
-368.8501801361909
 30
0.0
 40
0.5000000366488019
100
AcDbArc
 50
273.2700347900391
 51
0.0000000000000127
  0
ARC
  5
1A4
330
1F
100
AcDbEntity
  8
1-0
  6
JWW_DASHED1
 62
     2
370
    13
100
AcDbCircle
 10
-1404.182516561972
 20
-370.2946101008234
 30
0.0
 40
0.5000000366488019
100
AcDbArc
 50
93.27003479003906
 51
180.0
  0
ARC
  5
1A5
330
1F
100
AcDbEntity
  8
1-0
  6
JWW_DASHED1
 62
     2
370
    13
100
AcDbCircle
 10
-1457.932508313978
 20
-368.8501801361909
 30
0.0
 40
0.5000000366488019
100
AcDbArc
 50
180.0
 51
266.7299652099609
  0
ARC
  5
1A6
330
1F
100
AcDbEntity
  8
1-0
  6
JWW_DASHED1
 62
     2
370
    13
100
AcDbCircle
 10
-1450.182445629223
 20
-370.2946101008234
 30
0.0
 40
0.5000000366488019
100
AcDbArc
 50
0.0
 51
86.72996520996094
  0
CIRCLE
  5
1A7
330
1F
100
AcDbEntity
  8
1-1
  6
Continuous
 62
     2
370
    13
100
AcDbCircle
 10
12.31730693095443
 20
-219.3222953177786
 30
0.0
 40
8.673236498961579
  0
ELLIPSE
  5
1A8
330
1F
100
AcDbEntity
  8
1-0
  6
Continuous
 62
     2
370
    13
100
AcDbEllipse
 10
12.31755437077709
 20
-344.592664563978
 30
0.0
 11
20.99997997283936
 21
0.0
 31
0.0
210
0.0
220
0.0
230
1.0
 40
0.1351
 41
3.141592653589792
 42
6.283185307179586
  0
ARC
  5
1A9
330
1F
100
AcDbEntity
  8
1-0
  6
Continuous
 62
     2
370
    13
100
AcDbCircle
 10
-10.33853066934114
 20
-342.5927321975296
 30
0.0
 40
2.000000146595208
100
AcDbArc
 50
270.0
 51
349.2559356689454
  0
CIRCLE
  5
1AA
330
1F
100
AcDbEntity
  8
1-0
  6
Continuous
 62
     2
370
    13
100
AcDbCircle
 10
12.31730693095443
 20
-219.3225427576013
 30
0.0
 40
6.999993324279785
  0
ARC
  5
1AB
330
1F
100
AcDbEntity
  8
1-0
  6
Continuous
 62
     2
370
    13
100
AcDbCircle
 10
34.97363941089532
 20
-342.5927321975296
 30
0.0
 40
2.000000146595208
100
AcDbArc
 50
190.7440643310547
 51
270.0
  0
ARC
  5
1AC
330
1F
100
AcDbEntity
  8
1-0
  6
Continuous
 62
     2
370
    13
100
AcDbCircle
 10
-40.24336531355573
 20
-356.1671571473817
 30
0.0
 40
5.000001030999261
100
AcDbArc
 50
92.00708007812499
 51
174.0531921386719
  0
ARC
  5
1AD
330
1F
100
AcDbEntity
  8
1-0
  6
Continuous
 62
     2
370
    13
100
AcDbCircle
 10
-38.15942712732266
 20
-336.161276327597
 30
0.0
 40
5.000001030999261
100
AcDbArc
 50
92.08251953125
 51
174.0531005859375
  0
ARC
  5
1AE
330
1F
100
AcDbEntity
  8
1-0
  6
Continuous
 62
     2
370
    13
100
AcDbCircle
 10
64.8784740551099
 20
-356.1671571473817
 30
0.0
 40
5.000001030999261
100
AcDbArc
 50
5.946807861328125
 51
87.992919921875
  0
ARC
  5
1AF
330
1F
100
AcDbEntity
  8
1-0
  6
Continuous
 62
     2
370
    13
100
AcDbCircle
 10
62.79478330869949
 20
-336.161276327597
 30
0.0
 40
5.000001030999261
100
AcDbArc
 50
5.9468994140625
 51
87.91748046875
  0
ARC
  5
1B0
330
1F
100
AcDbEntity
  8
1-0
  6
Continuous
 62
     2
370
    13
100
AcDbCircle
 10
-6.428486592060665
 20
-340.7615537901182
 30
0.0
 40
1.500000260971688
100
AcDbArc
 50
92.86273193359376
 51
169.2561798095703
  0
ARC
  5
1B1
330
1F
100
AcDbEntity
  8
1-0
  6
Continuous
 62
     2
370
    13
100
AcDbCircle
 10
31.06359533361484
 20
-340.7615537901182
 30
0.0
 40
1.500000260971688
100
AcDbArc
 50
10.74382019042969
 51
87.13726806640625
  0
ARC
  5
1B2
330
1F
100
AcDbEntity
  8
1-0
  6
Continuous
 62
     2
370
    13
100
AcDbCircle
 10
-23.43230376372446
 20
-172.7410063872466
 30
0.0
 40
1.500000260971688
100
AcDbArc
 50
93.06739807128908
 51
180.0
  0
ARC
  5
1B3
330
1F
100
AcDbEntity
  8
1-0
  6
Continuous
 62
     2
370
    13
100
AcDbCircle
 10
48.06716506545627
 20
-172.7410063872466
 30
0.0
 40
1.500000260971688
100
AcDbArc
 50
0.0
 51
86.93260192871094
  0
ARC
  5
1B4
330
1F
100
AcDbEntity
  8
1-0
  6
Continuous
 62
     2
370
    13
100
AcDbCircle
 10
-46.14851668074323
 20
-379.0726615287161
 30
0.0
 40
1.500000260971688
100
AcDbArc
 50
174.0530242919922
 51
204.4447784423828
  0
ARC
  5
1B5
330
1F
100
AcDbEntity
  8
1-0
  6
Continuous
 62
     2
370
    13
100
AcDbCircle
 10
70.7836254222974
 20
-379.0726615287161
 30
0.0
 40
1.500000260971688
100
AcDbArc
 50
335.5550079345703
 51
5.946975708007843
  0
ARC
  5
1B6
330
1F
100
AcDbEntity
  8
1-0
  6
JWW_DASHED1
 62
     2
370
    13
100
AcDbCircle
 10
43.06739600929063
 20
-368.8501801361909
 30
0.0
 40
0.5000000366488019
100
AcDbArc
 50
273.2700347900391
 51
0.0000000000000127
  0
ARC
  5
1B7
330
1F
100
AcDbEntity
  8
1-0
  6
JWW_DASHED1
 62
     2
370
    13
100
AcDbCircle
 10
35.31708588471304
 20
-370.2946101008234
 30
0.0
 40
0.5000000366488019
100
AcDbArc
 50
93.27003479003906
 51
180.0
  0
ARC
  5
1B8
330
1F
100
AcDbEntity
  8
1-0
  6
JWW_DASHED1
 62
     2
370
    13
100
AcDbCircle
 10
-18.43278214738177
 20
-368.8501801361909
 30
0.0
 40
0.5000000366488019
100
AcDbArc
 50
180.0
 51
266.7299652099609
  0
ARC
  5
1B9
330
1F
100
AcDbEntity
  8
1-0
  6
JWW_DASHED1
 62
     2
370
    13
100
AcDbCircle
 10
-10.68247202280389
 20
-370.2946101008234
 30
0.0
 40
0.5000000366488019
100
AcDbArc
 50
0.0
 51
86.72996520996094
  0
ARC
  5
1BA
330
1F
100
AcDbEntity
  8
1-0
  6
Continuous
 62
     3
370
    13
100
AcDbCircle
 10
819.3445154138516
 20
500.4274440456084
 30
0.0
 40
27.449935835761
100
AcDbArc
 50
0.00030517578125
 51
180.0003051757812
  0
TEXT
  5
1BB
330
1F
100
AcDbEntity
  8
1-F
  6
Continuous
 62
     2
370
    13
100
AcDbText
 10
-1366.474046449404
 20
217.3139551441091
 30
0.0
 40
30.48
  1
φ60.5
 41
1.104166666666667
  7
ＭＳ ゴシック
100
AcDbText
  0
TEXT
  5
1BC
330
1F
100
AcDbEntity
  8
1-F
  6
Continuous
 62
     2
370
    13
100
AcDbText
 10
-1297.738413575084
 20
364.4190876980432
 30
0.0
 40
30.48
  1
R175
 50
329.9999485295191
 41
1.09375
  7
ＭＳ ゴシック
100
AcDbText
  0
TEXT
  5
1BD
330
1F
100
AcDbEntity
  8
1-F
  6
Continuous
 62
     2
370
    13
100
AcDbText
 10
-224.0726996674409
 20
308.1755931957349
 30
0.0
 40
30.48
  1
380
 50
90.0
 41
1.083333333333333
  7
ＭＳ ゴシック
100
AcDbText
  0
TEXT
  5
1BE
330
1F
100
AcDbEntity
  8
1-F
  6
Continuous
 62
     2
370
    13
100
AcDbText
 10
-995.5325368850296
 20
189.1320842021221
 30
0.0
 40
30.48
  1
φ34
 50
90.0
 41
1.09375
  7
ＭＳ ゴシック
100
AcDbText
  0
TEXT
  5
1BF
330
1F
100
AcDbEntity
  8
1-F
  6
Continuous
 62
     2
370
    13
100
AcDbText
 10
-526.3085659047719
 20
188.0827785182645
 30
0.0
 40
30.48
  1
2.3
 50
90.0
 41
1.083333333333333
  7
ＭＳ ゴシック
100
AcDbText
  0
TEXT
  5
1C0
330
1F
100
AcDbEntity
  8
1-F
  6
Continuous
 62
     2
370
    13
100
AcDbText
 10
68.02170709646532
 20
217.3140788640422
 30
0.0
 40
30.48
  1
2.8
 50
359.9997818882351
 41
1.083333333333333
  7
ＭＳ ゴシック
100
AcDbText
  0
TEXT
  5
1C1
330
1F
100
AcDbEntity
  8
1-F
  6
Continuous
 62
     2
370
    13
100
AcDbText
 10
153.5212669013546
 20
-370.5564210304693
 30
0.0
 40
30.48
  1
G.L.
 50
0.0000810129764819
 41
1.09375
  7
ＭＳ ゴシック
100
AcDbText
  0
TEXT
  5
1C2
330
1F
100
AcDbEntity
  8
1-F
  6
Continuous
 62
     2
370
    13
100
AcDbText
 10
-1564.362171267948
 20
-311.8224932696368
 30
0.0
 40
30.48
  1
220
 50
90.0
 41
1.083333333333333
  7
ＭＳ ゴシック
100
AcDbText
  0
TEXT
  5
1C3
330
1F
100
AcDbEntity
  8
1-F
  6
Continuous
 62
     2
370
    13
100
AcDbText
 10
786.844267974029
 20
-519.5033171452702
 30
0.0
 40
30.48
  1
400
 41
1.083333333333333
  7
ＭＳ ゴシック
100
AcDbText
  0
TEXT
  5
1C4
330
1F
100
AcDbEntity
  8
1-F
  6
Continuous
 62
     2
370
    13
100
AcDbText
 10
786.844267974029
 20
-471.1394717324746
 30
0.0
 40
30.48
  1
320
 41
1.083333333333333
  7
ＭＳ ゴシック
100
AcDbText
  0
TEXT
  5
1C5
330
1F
100
AcDbEntity
  8
1-F
  6
Continuous
 62
     2
370
    13
100
AcDbText
 10
-20.18244562922277
 20
-529.6790324113176
 30
0.0
 40
30.48
  1
120
 41
1.083333333333333
  7
ＭＳ ゴシック
100
AcDbText
  0
TEXT
  5
1C6
330
1F
100
AcDbEntity
  8
1-F
  6
Continuous
 62
     7
370
    13
100
AcDbText
 10
1029.236351219384
 20
-254.4631878167229
 30
0.0
 40
22.86
  1
アンカー穴：φ１４
 41
1.148148148148148
  7
ＭＳ ゴシック
100
AcDbText
  0
TEXT
  5
1C7
330
1F
100
AcDbEntity
  8
1-F
  6
Continuous
 62
     7
370
    13
100
AcDbText
 10
1046.201006915118
 20
-152.6295762510557
 30
0.0
 40
22.86
  1
支持脚：ＦＣＤ５００
 41
1.15
  7
ＭＳ ゴシック
100
AcDbText
  0
TEXT
  5
1C8
330
1F
100
AcDbEntity
  8
1-F
  6
Continuous
 62
     7
370
    13
100
AcDbText
 10
959.9384039801521
 20
-33.30394874366534
 30
0.0
 40
22.86
  1
六角ボルト：Ｍ１２×９０
 41
1.152777777777778
  7
ＭＳ ゴシック
100
AcDbText
  0
TEXT
  5
1C9
330
1F
100
AcDbEntity
  8
1-F
  6
Continuous
 62
     7
370
    13
100
AcDbText
 10
959.9383544921877
 20
3.84456298828125
 30
0.0
 40
22.86
  1
六角ナット：Ｍ１２
 41
1.148148148148148
  7
ＭＳ ゴシック
100
AcDbText
  0
TEXT
  5
1CA
330
1F
100
AcDbEntity
  8
1-F
  6
Continuous
 62
     7
370
    13
100
AcDbText
 10
1042.017121186127
 20
-93.6703576330237
 30
0.0
 40
22.86
  1
溶融亜鉛めっき
 41
1.142857142857143
  7
ＭＳ ゴシック
100
AcDbText
  0
TEXT
  5
1CB
330
1F
100
AcDbEntity
  8
1-F
  6
Continuous
 62
     2
370
    13
100
AcDbText
 10
-1640.845542074667
 20
38.17705309068842
 30
0.0
 40
30.48
  1
920
 50
90.0
 41
1.083333333333333
  7
ＭＳ ゴシック
100
AcDbText
  0
TEXT
  5
1CC
330
1F
100
AcDbEntity
  8
1-4
  6
Continuous
 62
     2
370
    13
100
AcDbText
 10
-1567.362007957665
 20
148.1767974028718
 30
0.0
 40
30.48
  1
700
 50
90.0
 41
1.083333333333333
  7
ＭＳ ゴシック
100
AcDbText
  0
TEXT
  5
1CD
330
1F
100
AcDbEntity
  8
1-F
  6
Continuous
 62
     2
370
    13
100
AcDbText
 10
-751.182494292388
 20
606.3157086676521
 30
0.0
 40
30.48
  1
1500
 41
1.09375
  7
ＭＳ ゴシック
100
AcDbText
  0
TEXT
  5
1CE
330
1F
100
AcDbEntity
  8
1-F
  6
Continuous
 62
     2
370
    13
100
AcDbText
 10
-773.6824324324323
 20
-464.1394610100823
 30
0.0
 40
30.48
  1
1439.5
 41
1.104166666666667
  7
ＭＳ ゴシック
100
AcDbText
  0
TEXT
  5
1CF
330
1F
100
AcDbEntity
  8
F-5
  6
Continuous
 62
     2
370
    13
100
AcDbText
 10
-941.8206168509817
 20
-1367.321475269214
 30
0.0
 40
30.48
  1
アーチ型横バー付　据置式スチール製車止め　ＹＢＷ６Ｌ１５－Ｓ
 41
1.120833333333333
  7
ＭＳ ゴシック
100
AcDbText
  0
TEXT
  5
1D0
330
1F
100
AcDbEntity
  8
1-F
  6
Continuous
 62
     7
370
    13
100
AcDbText
 10
1004.455483926309
 20
-195.0669904719172
 30
0.0
 40
22.86
  1
溶融亜鉛めっき＋樹脂系塗装
 41
1.153846153846154
  7
ＭＳ ゴシック
100
AcDbText
  0
TEXT
  5
1D1
330
1F
100
AcDbEntity
  8
1-F
  6
Continuous
 62
     7
370
    13
100
AcDbText
 10
-1209.116470749314
 20
3.16818623310807
 30
0.0
 40
22.86
  1
横柵：ＳＴＫ４００
 41
1.148148148148148
  7
ＭＳ ゴシック
100
AcDbText
  0
TEXT
  5
1D2
330
1F
100
AcDbEntity
  8
1-F
  6
Continuous
 62
     7
370
    13
100
AcDbText
 10
-1235.213399031665
 20
-50.47514763890797
 30
0.0
 40
22.86
  1
溶融亜鉛めっき＋焼付塗装
 41
1.152777777777778
  7
ＭＳ ゴシック
100
AcDbText
  0
TEXT
  5
1D3
330
1F
100
AcDbEntity
  8
1-5
  6
Continuous
 62
     7
370
    13
100
AcDbText
 10
-1153.584675845956
 20
-90.39982997608944
 30
0.0
 40
22.86
  1
（黄または白）
 41
1.142857142857143
  7
ＭＳ ゴシック
100
AcDbText
  0
TEXT
  5
1D4
330
1F
100
AcDbEntity
  8
1-F
  6
Continuous
 62
     7
370
    13
100
AcDbText
 10
922.0213389914775
 20
368.1571001362671
 30
0.0
 40
22.86
  1
溶融亜鉛めっき＋焼付塗装
 41
1.152777777777778
  7
ＭＳ ゴシック
100
AcDbText
  0
TEXT
  5
1D5
330
1F
100
AcDbEntity
  8
1-F
  6
Continuous
 62
     7
370
    13
100
AcDbText
 10
970.0285358640199
 20
423.1939384476246
 30
0.0
 40
22.86
  1
本体：ＳＴＫ４００
 41
1.148148148148148
  7
ＭＳ ゴシック
100
AcDbText
  0
TEXT
  5
1D6
330
1F
100
AcDbEntity
  8
1-5
  6
Continuous
 62
     7
370
    13
100
AcDbText
 10
1011.767740555206
 20
328.8450727710117
 30
0.0
 40
22.86
  1
（黄または白）
 41
1.142857142857143
  7
ＭＳ ゴシック
100
AcDbText
  0
LINE
  5
1D7
330
1F
100
AcDbEntity
  8
1-F
  6
Continuous
 62
     7
370
    13
100
AcDbLine
 10
910.493427998311
 20
404.7064621384081
 30
0.0
 11
1336.190282854534
 21
404.7064621384081
 31
0.0
  0
LINE
  5
1D8
330
1F
100
AcDbEntity
  8
1-F
  6
Continuous
 62
     7
370
    13
100
AcDbLine
 10
-1245.002127982475
 20
-10.95173603779557
 30
0.0
 11
-815.7552005776461
 21
-10.95173603779557
 31
0.0
  0
ENDSEC
  0
SECTION
  2
OBJECTS
  0
DICTIONARY
  5
C
330
0
100
AcDbDictionary
281
     1
  3
ACAD_GROUP
350
D
  3
ACAD_LAYOUT
350
1A
  3
ACAD_MLEADERSTYLE
350
1DA
  3
ACAD_MLINESTYLE
350
17
  3
ACAD_PLOTSETTINGS
350
19
  3
ACAD_PLOTSTYLENAME
350
E
  3
ACAD_TABLESTYLE
350
1D9
  3
ACAD_VISUALSTYLE
350
2A
  0
DICTIONARY
  5
D
102
{ACAD_REACTORS
330
C
102
}
330
C
100
AcDbDictionary
281
     1
  0
DICTIONARY
  5
1A
102
{ACAD_REACTORS
330
C
102
}
330
C
100
AcDbDictionary
281
     1
  3
Layout1
350
1E
  3
Layout2
350
26
  3
Model
350
22
  0
DICTIONARY
  5
1DA
102
{ACAD_REACTORS
330
C
102
}
330
C
100
AcDbDictionary
281
     1
  0
DICTIONARY
  5
17
102
{ACAD_REACTORS
330
C
102
}
330
C
100
AcDbDictionary
281
     1
  3
Standard
350
18
  0
DICTIONARY
  5
19
102
{ACAD_REACTORS
330
C
102
}
330
C
100
AcDbDictionary
281
     1
  0
ACDBDICTIONARYWDFLT
  5
E
102
{ACAD_REACTORS
330
C
102
}
330
C
100
AcDbDictionary
281
     1
  3
Normal
350
F
100
AcDbDictionaryWithDefault
340
F
  0
DICTIONARY
  5
1D9
102
{ACAD_REACTORS
330
C
102
}
330
C
100
AcDbDictionary
281
     1
  0
DICTIONARY
  5
2A
102
{ACAD_REACTORS
330
C
102
}
330
C
100
AcDbDictionary
281
     1
  3
2dWireframe
350
2F
  3
3D Hidden
350
31
  3
3dWireframe
350
30
  3
Basic
350
32
  3
Brighten
350
36
  3
ColorChange
350
3A
  3
Conceptual
350
34
  3
Dim
350
35
  3
Facepattern
350
39
  3
Flat
350
2B
  3
FlatWithEdges
350
2C
  3
Gouraud
350
2D
  3
GouraudWithEdges
350
2E
  3
Linepattern
350
38
  3
Realistic
350
33
  3
Thicken
350
37
  0
LAYOUT
  5
1E
102
{ACAD_REACTORS
330
1A
102
}
330
1A
100
AcDbPlotSettings
  1

  2
none_device
  4

  6

 40
0.0
 41
0.0
 42
0.0
 43
0.0
 44
0.0
 45
0.0
 46
0.0
 47
0.0
 48
0.0
 49
0.0
140
0.0
141
0.0
142
1.0
143
1.0
 70
   688
 72
     0
 73
     0
 74
     5
  7

 75
    16
 76
     0
 77
     5
 78
   300
147
1.0
148
0.0
149
0.0
100
AcDbLayout
  1
Layout1
 70
     1
 71
     1
 10
0.0
 20
0.0
 11
420.0
 21
297.0
 12
0.0
 22
0.0
 32
0.0
 14
1.000000000000000E+20
 24
1.000000000000000E+20
 34
1.000000000000000E+20
 15
-1.000000000000000E+20
 25
-1.000000000000000E+20
 35
-1.000000000000000E+20
146
0.0
 13
0.0
 23
0.0
 33
0.0
 16
1.0
 26
0.0
 36
0.0
 17
0.0
 27
1.0
 37
0.0
 76
     0
330
1B
  0
LAYOUT
  5
26
102
{ACAD_REACTORS
330
1A
102
}
330
1A
100
AcDbPlotSettings
  1

  2
none_device
  4

  6

 40
0.0
 41
0.0
 42
0.0
 43
0.0
 44
0.0
 45
0.0
 46
0.0
 47
0.0
 48
0.0
 49
0.0
140
0.0
141
0.0
142
1.0
143
1.0
 70
   688
 72
     0
 73
     0
 74
     5
  7

 75
    16
 76
     0
 77
     5
 78
   300
147
1.0
148
0.0
149
0.0
100
AcDbLayout
  1
Layout2
 70
     1
 71
     2
 10
0.0
 20
0.0
 11
0.0
 21
0.0
 12
0.0
 22
0.0
 32
0.0
 14
0.0
 24
0.0
 34
0.0
 15
0.0
 25
0.0
 35
0.0
146
0.0
 13
0.0
 23
0.0
 33
0.0
 16
1.0
 26
0.0
 36
0.0
 17
0.0
 27
1.0
 37
0.0
 76
     0
330
23
  0
LAYOUT
  5
22
102
{ACAD_REACTORS
330
1A
102
}
330
1A
100
AcDbPlotSettings
  1

  2
none_device
  4

  6

 40
0.0
 41
0.0
 42
0.0
 43
0.0
 44
0.0
 45
0.0
 46
0.0
 47
0.0
 48
0.0
 49
0.0
140
0.0
141
0.0
142
1.0
143
1.0
 70
  1712
 72
     0
 73
     0
 74
     0
  7

 75
     0
 76
     0
 77
     5
 78
   300
147
1.0
148
0.0
149
0.0
100
AcDbLayout
  1
Model
 70
     1
 71
     0
 10
-2100.0
 20
-1485.0
 11
2100.0
 21
1485.0
 12
0.0
 22
0.0
 32
0.0
 14
-2100.0
 24
-1485.0
 34
0.0
 15
2100.0
 25
1485.0
 35
0.0
146
0.0
 13
0.0
 23
0.0
 33
0.0
 16
1.0
 26
0.0
 36
0.0
 17
0.0
 27
1.0
 37
0.0
 76
     0
330
1F
331
29
  0
MLINESTYLE
  5
18
102
{ACAD_REACTORS
330
17
102
}
330
17
100
AcDbMlineStyle
  2
Standard
 70
     0
  3

 62
   256
 51
90.0
 52
90.0
 71
     2
 49
0.5
 62
   256
  6
BYLAYER
 49
-0.5
 62
   256
  6
BYLAYER
  0
ACDBPLACEHOLDER
  5
F
102
{ACAD_REACTORS
330
E
102
}
330
E
  0
VISUALSTYLE
  5
2F
102
{ACAD_REACTORS
330
2A
102
}
330
2A
100
AcDbVisualStyle
  2
2dWireframe
 70
     4
 71
     0
 72
     2
 73
     0
 90
        0
 40
-0.6
 41
-30.0
 62
     5
 63
     7
421
 16777215
 74
     1
 91
        4
 64
     7
 65
   257
 75
     1
175
     1
 42
1.0
 92
        0
 66
   257
 43
1.0
 76
     1
 77
     6
 78
     2
 67
     7
 79
     5
170
     0
171
     0
290
     0
174
     0
 93
        1
 44
0.0
173
     0
291
     0
 45
0.0
1001
ACAD
1000
AcDbSavedByObjectVersion
1070
     0
  0
VISUALSTYLE
  5
31
102
{ACAD_REACTORS
330
2A
102
}
330
2A
100
AcDbVisualStyle
  2
3D Hidden
 70
     6
 71
     1
 72
     2
 73
     2
 90
        0
 40
-0.6
 41
-30.0
 62
     5
 63
     7
421
 16777215
 74
     2
 91
        2
 64
     7
 65
   257
 75
     2
175
     1
 42
40.0
 92
        0
 66
   257
 43
1.0
 76
     1
 77
     6
 78
     2
 67
     7
 79
     3
170
     0
171
     0
290
     0
174
     0
 93
        1
 44
0.0
173
     0
291
     0
 45
0.0
1001
ACAD
1000
AcDbSavedByObjectVersion
1070
     0
  0
VISUALSTYLE
  5
30
102
{ACAD_REACTORS
330
2A
102
}
330
2A
100
AcDbVisualStyle
  2
3dWireframe
 70
     5
 71
     0
 72
     2
 73
     0
 90
        0
 40
-0.6
 41
-30.0
 62
     5
 63
     7
421
 16777215
 74
     1
 91
        4
 64
     7
 65
   257
 75
     1
175
     1
 42
1.0
 92
        0
 66
   257
 43
1.0
 76
     1
 77
     6
 78
     2
 67
     7
 79
     5
170
     0
171
     0
290
     0
174
     0
 93
        1
 44
0.0
173
     0
291
     0
 45
0.0
1001
ACAD
1000
AcDbSavedByObjectVersion
1070
     0
  0
VISUALSTYLE
  5
32
102
{ACAD_REACTORS
330
2A
102
}
330
2A
100
AcDbVisualStyle
  2
Basic
 70
     7
 71
     1
 72
     0
 73
     1
 90
        0
 40
-0.6
 41
-30.0
 62
     5
 63
     7
421
 16777215
 74
     0
 91
        4
 64
     7
 65
   257
 75
     1
175
     1
 42
1.0
 92
        8
 66
     7
 43
1.0
 76
     1
 77
     6
 78
     2
 67
     7
 79
     5
170
     0
171
     0
290
     0
174
     0
 93
        1
 44
0.0
173
     0
291
     1
 45
0.0
1001
ACAD
1000
AcDbSavedByObjectVersion
1070
     0
  0
VISUALSTYLE
  5
36
102
{ACAD_REACTORS
330
2A
102
}
330
2A
100
AcDbVisualStyle
  2
Brighten
 70
    12
 71
     2
 72
     2
 73
     0
 90
        0
 40
-0.6
 41
-30.0
 62
     5
 63
     7
421
 16777215
 74
     1
 91
        4
 64
     7
 65
   257
 75
     1
175
     1
 42
1.0
 92
        8
 66
     7
 43
1.0
 76
     1
 77
     6
 78
     2
 67
     7
 79
     5
170
     0
171
     0
290
     0
174
     0
 93
        1
 44
50.0
173
     0
291
     1
 45
0.0
1001
ACAD
1000
AcDbSavedByObjectVersion
1070
     0
  0
VISUALSTYLE
  5
3A
102
{ACAD_REACTORS
330
2A
102
}
330
2A
100
AcDbVisualStyle
  2
ColorChange
 70
    16
 71
     2
 72
     2
 73
     3
 90
        0
 40
-0.6
 41
-30.0
 62
     5
 63
     8
421
  8421504
 74
     1
 91
        4
 64
     7
 65
   257
 75
     1
175
     1
 42
1.0
 92
        8
 66
     8
424
  8421504
 43
1.0
 76
     1
 77
     6
 78
     2
 67
     7
 79
     5
170
     0
171
     0
290
     0
174
     0
 93
        1
 44
0.0
173
     0
291
     1
 45
0.0
1001
ACAD
1000
AcDbSavedByObjectVersion
1070
     0
  0
VISUALSTYLE
  5
34
102
{ACAD_REACTORS
330
2A
102
}
330
2A
100
AcDbVisualStyle
  2
Conceptual
 70
     9
 71
     3
 72
     2
 73
     0
 90
        0
 40
-0.6
 41
-30.0
 62
     5
 63
     7
421
 16777215
 74
     2
 91
        2
 64
     7
 65
   257
 75
     1
175
     1
 42
40.0
 92
        8
 66
     7
 43
1.0
 76
     1
 77
     6
 78
     2
 67
     7
 79
     3
170
     0
171
     0
290
     0
174
     0
 93
        1
 44
0.0
173
     0
291
     0
 45
0.0
1001
ACAD
1000
AcDbSavedByObjectVersion
1070
     0
  0
VISUALSTYLE
  5
35
102
{ACAD_REACTORS
330
2A
102
}
330
2A
100
AcDbVisualStyle
  2
Dim
 70
    11
 71
     2
 72
     2
 73
     0
 90
        0
 40
-0.6
 41
-30.0
 62
     5
 63
     7
421
 16777215
 74
     1
 91
        4
 64
     7
 65
   257
 75
     1
175
     1
 42
1.0
 92
        8
 66
     7
 43
1.0
 76
     1
 77
     6
 78
     2
 67
     7
 79
     5
170
     0
171
     0
290
     0
174
     0
 93
        1
 44
-50.0
173
     0
291
     1
 45
0.0
1001
ACAD
1000
AcDbSavedByObjectVersion
1070
     0
  0
VISUALSTYLE
  5
39
102
{ACAD_REACTORS
330
2A
102
}
330
2A
100
AcDbVisualStyle
  2
Facepattern
 70
    15
 71
     2
 72
     2
 73
     0
 90
        0
 40
-0.6
 41
-30.0
 62
     5
 63
     7
421
 16777215
 74
     1
 91
        4
 64
     7
 65
   257
 75
     1
175
     1
 42
1.0
 92
        8
 66
     7
 43
1.0
 76
     1
 77
     6
 78
     2
 67
     7
 79
     5
170
     0
171
     0
290
     0
174
     0
 93
        1
 44
0.0
173
     0
291
     1
 45
0.0
1001
ACAD
1000
AcDbSavedByObjectVersion
1070
     0
  0
VISUALSTYLE
  5
2B
102
{ACAD_REACTORS
330
2A
102
}
330
2A
100
AcDbVisualStyle
  2
Flat
 70
     0
 71
     2
 72
     1
 73
     1
 90
        2
 40
-0.6
 41
30.0
 62
     5
 63
     7
421
 16777215
 74
     0
 91
        4
 64
     7
 65
   257
 75
     1
175
     1
 42
1.0
 92
        8
 66
     7
 43
1.0
 76
     1
 77
     6
 78
     2
 67
     7
 79
     5
170
     0
171
     0
290
     0
174
     0
 93
       13
 44
0.0
173
     0
291
     1
 45
0.0
1001
ACAD
1000
AcDbSavedByObjectVersion
1070
     0
  0
VISUALSTYLE
  5
2C
102
{ACAD_REACTORS
330
2A
102
}
330
2A
100
AcDbVisualStyle
  2
FlatWithEdges
 70
     1
 71
     2
 72
     1
 73
     1
 90
        2
 40
-0.6
 41
30.0
 62
     5
 63
     7
421
 16777215
 74
     1
 91
        4
 64
     7
 65
   257
 75
     1
175
     1
 42
1.0
 92
        0
 66
   257
 43
1.0
 76
     1
 77
     6
 78
     2
 67
     7
 79
     5
170
     0
171
     0
290
     0
174
     0
 93
       13
 44
0.0
173
     0
291
     1
 45
0.0
1001
ACAD
1000
AcDbSavedByObjectVersion
1070
     0
  0
VISUALSTYLE
  5
2D
102
{ACAD_REACTORS
330
2A
102
}
330
2A
100
AcDbVisualStyle
  2
Gouraud
 70
     2
 71
     2
 72
     2
 73
     1
 90
        2
 40
-0.6
 41
30.0
 62
     5
 63
     7
421
 16777215
 74
     0
 91
        4
 64
     7
 65
   257
 75
     1
175
     1
 42
1.0
 92
        0
 66
     7
 43
1.0
 76
     1
 77
     6
 78
     2
 67
     7
 79
     5
170
     0
171
     0
290
     0
174
     0
 93
       13
 44
0.0
173
     0
291
     1
 45
0.0
1001
ACAD
1000
AcDbSavedByObjectVersion
1070
     0
  0
VISUALSTYLE
  5
2E
102
{ACAD_REACTORS
330
2A
102
}
330
2A
100
AcDbVisualStyle
  2
GouraudWithEdges
 70
     3
 71
     2
 72
     2
 73
     1
 90
        2
 40
-0.6
 41
30.0
 62
     5
 63
     7
421
 16777215
 74
     1
 91
        4
 64
     7
 65
   257
 75
     1
175
     1
 42
1.0
 92
        0
 66
   257
 43
1.0
 76
     1
 77
     6
 78
     2
 67
     7
 79
     5
170
     0
171
     0
290
     0
174
     0
 93
       13
 44
0.0
173
     0
291
     1
 45
0.0
1001
ACAD
1000
AcDbSavedByObjectVersion
1070
     0
  0
VISUALSTYLE
  5
38
102
{ACAD_REACTORS
330
2A
102
}
330
2A
100
AcDbVisualStyle
  2
Linepattern
 70
    14
 71
     2
 72
     2
 73
     0
 90
        0
 40
-0.6
 41
-30.0
 62
     5
 63
     7
421
 16777215
 74
     1
 91
        4
 64
     7
 65
   257
 75
     7
175
     7
 42
1.0
 92
        8
 66
     7
 43
1.0
 76
     1
 77
     6
 78
     2
 67
     7
 79
     5
170
     0
171
     0
290
     0
174
     0
 93
        1
 44
0.0
173
     0
291
     1
 45
0.0
1001
ACAD
1000
AcDbSavedByObjectVersion
1070
     0
  0
VISUALSTYLE
  5
33
102
{ACAD_REACTORS
330
2A
102
}
330
2A
100
AcDbVisualStyle
  2
Realistic
 70
     8
 71
     2
 72
     2
 73
     0
 90
        0
 40
-0.6
 41
-30.0
 62
     5
 63
     7
421
 16777215
 74
     1
 91
        0
 64
     7
 65
   257
 75
     1
175
     1
 42
1.0
 92
        8
 66
     8
424
  7895160
 43
1.0
 76
     1
 77
     6
 78
     2
 67
     7
 79
     5
170
     0
171
     0
290
     0
174
     0
 93
       13
 44
0.0
173
     0
291
     0
 45
0.0
1001
ACAD
1000
AcDbSavedByObjectVersion
1070
     0
  0
VISUALSTYLE
  5
37
102
{ACAD_REACTORS
330
2A
102
}
330
2A
100
AcDbVisualStyle
  2
Thicken
 70
    13
 71
     2
 72
     2
 73
     0
 90
        0
 40
-0.6
 41
-30.0
 62
     5
 63
     7
421
 16777215
 74
     1
 91
        4
 64
     7
 65
   257
 75
     1
175
     1
 42
1.0
 92
       12
 66
     7
 43
1.0
 76
     1
 77
     6
 78
     2
 67
     7
 79
     5
170
     0
171
     0
290
     0
174
     0
 93
        1
 44
0.0
173
     0
291
     1
 45
0.0
1001
ACAD
1000
AcDbSavedByObjectVersion
1070
     0
  0
ENDSEC
  0
EOF
