  0
SECTION
  2
HEADER
  9
$ACADVER
  1
AC1018
  9
$ACADMAINTVER
 70
     0
  9
$DWGCODEPAGE
  3
ANSI_932
  9
$INSBASE
 10
0.0
 20
0.0
 30
0.0
  9
$EXTMIN
 10
-3150.0
 20
-2227.5
 30
0.0
  9
$EXTMAX
 10
3150.0
 20
2227.5
 30
0.0
  9
$LIMMIN
 10
-3150.0
 20
-2227.5
  9
$LIMMAX
 10
3150.0
 20
2227.5
  9
$ORTHOMODE
 70
     0
  9
$REGENMODE
 70
     1
  9
$FILLMODE
 70
     1
  9
$QTEXTMODE
 70
     0
  9
$MIRRTEXT
 70
     1
  9
$LTSCALE
 40
15.0
  9
$ATTMODE
 70
     1
  9
$TEXTSIZE
 40
2.5
  9
$TRACEWID
 40
1.0
  9
$TEXTSTYLE
  7
Standard
  9
$CLAYER
  8
0
  9
$CELTYPE
  6
ByLayer
  9
$CECOLOR
 62
   256
  9
$CELTSCALE
 40
1.0
  9
$DISPSILH
 70
     0
  9
$DIMSCALE
 40
1.0
  9
$DIMASZ
 40
2.5
  9
$DIMEXO
 40
0.625
  9
$DIMDLI
 40
3.75
  9
$DIMRND
 40
0.0
  9
$DIMDLE
 40
0.0
  9
$DIMEXE
 40
1.25
  9
$DIMTP
 40
0.0
  9
$DIMTM
 40
0.0
  9
$DIMTXT
 40
2.5
  9
$DIMCEN
 40
2.5
  9
$DIMTSZ
 40
0.0
  9
$DIMTOL
 70
     0
  9
$DIMLIM
 70
     0
  9
$DIMTIH
 70
     0
  9
$DIMTOH
 70
     0
  9
$DIMSE1
 70
     0
  9
$DIMSE2
 70
     0
  9
$DIMTAD
 70
     1
  9
$DIMZIN
 70
     8
  9
$DIMBLK
  1

  9
$DIMASO
 70
     1
  9
$DIMSHO
 70
     1
  9
$DIMPOST
  1

  9
$DIMAPOST
  1

  9
$DIMALT
 70
     0
  9
$DIMALTD
 70
     3
  9
$DIMALTF
 40
0.03937007874016
  9
$DIMLFAC
 40
1.0
  9
$DIMTOFL
 70
     1
  9
$DIMTVP
 40
0.0
  9
$DIMTIX
 70
     0
  9
$DIMSOXD
 70
     0
  9
$DIMSAH
 70
     0
  9
$DIMBLK1
  1

  9
$DIMBLK2
  1

  9
$DIMSTYLE
  2
ISO-25
  9
$DIMCLRD
 70
     0
  9
$DIMCLRE
 70
     0
  9
$DIMCLRT
 70
     0
  9
$DIMTFAC
 40
1.0
  9
$DIMGAP
 40
0.625
  9
$DIMJUST
 70
     0
  9
$DIMSD1
 70
     0
  9
$DIMSD2
 70
     0
  9
$DIMTOLJ
 70
     0
  9
$DIMTZIN
 70
     8
  9
$DIMALTZ
 70
     0
  9
$DIMALTTZ
 70
     0
  9
$DIMUPT
 70
     0
  9
$DIMDEC
 70
     2
  9
$DIMTDEC
 70
     2
  9
$DIMALTU
 70
     2
  9
$DIMALTTD
 70
     3
  9
$DIMTXSTY
  7
Standard
  9
$DIMAUNIT
 70
     0
  9
$DIMADEC
 70
     0
  9
$DIMALTRND
 40
0.0
  9
$DIMAZIN
 70
     0
  9
$DIMDSEP
 70
    44
  9
$DIMATFIT
 70
     3
  9
$DIMFRAC
 70
     0
  9
$DIMLDRBLK
  1

  9
$DIMLUNIT
 70
     2
  9
$DIMLWD
 70
    -2
  9
$DIMLWE
 70
    -2
  9
$DIMTMOVE
 70
     0
  9
$LUNITS
 70
     2
  9
$LUPREC
 70
     4
  9
$SKETCHINC
 40
1.0
  9
$FILLETRAD
 40
10.0
  9
$AUNITS
 70
     0
  9
$AUPREC
 70
     0
  9
$MENU
  1
.
  9
$ELEVATION
 40
0.0
  9
$PELEVATION
 40
0.0
  9
$THICKNESS
 40
0.0
  9
$LIMCHECK
 70
     0
  9
$CHAMFERA
 40
0.0
  9
$CHAMFERB
 40
0.0
  9
$CHAMFERC
 40
0.0
  9
$CHAMFERD
 40
0.0
  9
$SKPOLY
 70
     0
  9
$TDCREATE
 40
2459010.436671308
  9
$TDUCREATE
 40
2459010.061671308
  9
$TDUPDATE
 40
2459010.436671447
  9
$TDUUPDATE
 40
2459010.061671447
  9
$TDINDWG
 40
0.0000000116
  9
$TDUSRTIMER
 40
0.0000000116
  9
$USRTIMER
 70
     1
  9
$ANGBASE
 50
0.0
  9
$ANGDIR
 70
     0
  9
$PDMODE
 70
     0
  9
$PDSIZE
 40
0.0
  9
$PLINEWID
 40
0.0
  9
$SPLFRAME
 70
     0
  9
$SPLINETYPE
 70
     6
  9
$SPLINESEGS
 70
     8
  9
$HANDSEED
  5
2DA
  9
$SURFTAB1
 70
     6
  9
$SURFTAB2
 70
     6
  9
$SURFTYPE
 70
     6
  9
$SURFU
 70
     6
  9
$SURFV
 70
     6
  9
$UCSBASE
  2

  9
$UCSNAME
  2

  9
$UCSORG
 10
0.0
 20
0.0
 30
0.0
  9
$UCSXDIR
 10
1.0
 20
0.0
 30
0.0
  9
$UCSYDIR
 10
0.0
 20
1.0
 30
0.0
  9
$UCSORTHOREF
  2

  9
$UCSORTHOVIEW
 70
     0
  9
$UCSORGTOP
 10
0.0
 20
0.0
 30
0.0
  9
$UCSORGBOTTOM
 10
0.0
 20
0.0
 30
0.0
  9
$UCSORGLEFT
 10
0.0
 20
0.0
 30
0.0
  9
$UCSORGRIGHT
 10
0.0
 20
0.0
 30
0.0
  9
$UCSORGFRONT
 10
0.0
 20
0.0
 30
0.0
  9
$UCSORGBACK
 10
0.0
 20
0.0
 30
0.0
  9
$PUCSBASE
  2

  9
$PUCSNAME
  2

  9
$PUCSORG
 10
0.0
 20
0.0
 30
0.0
  9
$PUCSXDIR
 10
1.0
 20
0.0
 30
0.0
  9
$PUCSYDIR
 10
0.0
 20
1.0
 30
0.0
  9
$PUCSORTHOREF
  2

  9
$PUCSORTHOVIEW
 70
     0
  9
$PUCSORGTOP
 10
0.0
 20
0.0
 30
0.0
  9
$PUCSORGBOTTOM
 10
0.0
 20
0.0
 30
0.0
  9
$PUCSORGLEFT
 10
0.0
 20
0.0
 30
0.0
  9
$PUCSORGRIGHT
 10
0.0
 20
0.0
 30
0.0
  9
$PUCSORGFRONT
 10
0.0
 20
0.0
 30
0.0
  9
$PUCSORGBACK
 10
0.0
 20
0.0
 30
0.0
  9
$USERI1
 70
     0
  9
$USERI2
 70
     0
  9
$USERI3
 70
     0
  9
$USERI4
 70
     0
  9
$USERI5
 70
     0
  9
$USERR1
 40
0.0
  9
$USERR2
 40
0.0
  9
$USERR3
 40
0.0
  9
$USERR4
 40
0.0
  9
$USERR5
 40
0.0
  9
$WORLDVIEW
 70
     1
  9
$SHADEDGE
 70
     3
  9
$SHADEDIF
 70
    70
  9
$TILEMODE
 70
     1
  9
$MAXACTVP
 70
    64
  9
$PINSBASE
 10
0.0
 20
0.0
 30
0.0
  9
$PLIMCHECK
 70
     0
  9
$PEXTMIN
 10
1.000000000000000E+20
 20
1.000000000000000E+20
 30
1.000000000000000E+20
  9
$PEXTMAX
 10
-1.000000000000000E+20
 20
-1.000000000000000E+20
 30
-1.000000000000000E+20
  9
$PLIMMIN
 10
0.0
 20
0.0
  9
$PLIMMAX
 10
420.0
 20
297.0
  9
$UNITMODE
 70
     0
  9
$VISRETAIN
 70
     1
  9
$PLINEGEN
 70
     0
  9
$PSLTSCALE
 70
     1
  9
$TREEDEPTH
 70
  3020
  9
$CMLSTYLE
  2
Standard
  9
$CMLJUST
 70
     0
  9
$CMLSCALE
 40
20.0
  9
$PROXYGRAPHICS
 70
     1
  9
$MEASUREMENT
 70
     1
  9
$CELWEIGHT
370
    -1
  9
$ENDCAPS
280
     0
  9
$JOINSTYLE
280
     0
  9
$LWDISPLAY
290
     0
  9
$INSUNITS
 70
     4
  9
$HYPERLINKBASE
  1

  9
$STYLESHEET
  1

  9
$XEDIT
290
     1
  9
$CEPSNTYPE
380
     0
  9
$PSTYLEMODE
290
     1
  9
$FINGERPRINTGUID
  2
{E6A88E6D-8D10-4024-AEAB-5AD62974B7F8}
  9
$VERSIONGUID
  2
{FAEB1C32-E019-11D5-929B-00C0DF256EC4}
  9
$EXTNAMES
290
     1
  9
$PSVPSCALE
 40
0.0
  9
$OLESTARTUP
290
     0
  9
$SORTENTS
280
   127
  9
$INDEXCTL
280
     0
  9
$HIDETEXT
280
     1
  9
$XCLIPFRAME
290
     0
  9
$HALOGAP
280
     0
  9
$OBSCOLOR
 70
   257
  9
$OBSLTYPE
280
     0
  9
$INTERSECTIONDISPLAY
280
     0
  9
$INTERSECTIONCOLOR
 70
   257
  9
$DIMASSOC
280
     2
  9
$PROJECTNAME
  1

  0
ENDSEC
  0
SECTION
  2
CLASSES
  0
CLASS
  1
ACDBDICTIONARYWDFLT
  2
AcDbDictionaryWithDefault
  3
ObjectDBX Classes
 90
        0
 91
        4
280
     0
281
     0
  0
CLASS
  1
VISUALSTYLE
  2
AcDbVisualStyle
  3
ObjectDBX Classes
 90
     4095
 91
        4
280
     0
281
     0
  0
CLASS
  1
MATERIAL
  2
AcDbMaterial
  3
ObjectDBX Classes
 90
     1153
 91
        4
280
     0
281
     0
  0
CLASS
  1
SCALE
  2
AcDbScale
  3
ObjectDBX Classes
 90
     1153
 91
        4
280
     0
281
     0
  0
CLASS
  1
TABLESTYLE
  2
AcDbTableStyle
  3
ObjectDBX Classes
 90
     4095
 91
        4
280
     0
281
     0
  0
CLASS
  1
MLEADERSTYLE
  2
AcDbMLeaderStyle
  3
ACDB_MLEADERSTYLE_CLASS
 90
     4095
 91
        4
280
     0
281
     0
  0
CLASS
  1
SUN
  2
AcDbSun
  3
SCENEOE
 90
     1153
 91
        4
280
     0
281
     0
  0
CLASS
  1
DICTIONARYVAR
  2
AcDbDictionaryVar
  3
ObjectDBX Classes
 90
        0
 91
        4
280
     0
281
     0
  0
CLASS
  1
CELLSTYLEMAP
  2
AcDbCellStyleMap
  3
ObjectDBX Classes
 90
     1152
 91
        4
280
     0
281
     0
  0
ENDSEC
  0
SECTION
  2
TABLES
  0
TABLE
  2
VPORT
  5
8
102
{ACAD_XDICTIONARY
360
291
102
}
330
0
100
AcDbSymbolTable
 70
     1
  0
VPORT
  5
29
330
8
100
AcDbSymbolTableRecord
100
AcDbViewportTableRecord
  2
*Active
 70
     0
 10
0.0
 20
0.0
 11
1.0
 21
1.0
 12
0.0
 22
0.0
 13
0.0
 23
0.0
 14
10.0
 24
10.0
 15
10.0
 25
10.0
 16
0.0
 26
0.0
 36
1.0
 17
0.0
 27
0.0
 37
0.0
 40
4900.5
 41
1.414141414141414
 42
50.0
 43
0.0
 44
0.0
 50
0.0
 51
0.0
 71
     0
 72
 10000
 73
     1
 74
     3
 75
     0
 76
     0
 77
     0
 78
     0
281
     0
 65
     1
110
0.0
120
0.0
130
0.0
111
1.0
121
0.0
131
0.0
112
0.0
122
1.0
132
0.0
 79
     0
146
0.0
  0
ENDTAB
  0
TABLE
  2
LTYPE
  5
5
330
0
100
AcDbSymbolTable
 70
     6
  0
LTYPE
  5
14
330
5
100
AcDbSymbolTableRecord
100
AcDbLinetypeTableRecord
  2
ByBlock
 70
     0
  3

 72
    65
 73
     0
 40
0.0
  0
LTYPE
  5
15
330
5
100
AcDbSymbolTableRecord
100
AcDbLinetypeTableRecord
  2
ByLayer
 70
     0
  3

 72
    65
 73
     0
 40
0.0
  0
LTYPE
  5
16
330
5
100
AcDbSymbolTableRecord
100
AcDbLinetypeTableRecord
  2
Continuous
 70
     0
  3
Solid line
 72
    65
 73
     0
 40
0.0
  0
LTYPE
  5
6F
330
5
100
AcDbSymbolTableRecord
100
AcDbLinetypeTableRecord
  2
JWW_DASHED2
 70
     0
  3
--    ----    ----    ----    --
 72
    65
 73
     2
 40
3.386666666666667
 49
1.693333333333333
 74
     0
 49
-1.693333333333333
 74
     0
  0
LTYPE
  5
70
330
5
100
AcDbSymbolTableRecord
100
AcDbLinetypeTableRecord
  2
JWW_CENTER2
 70
     0
  3
-------------  --  -------------
 72
    65
 73
     4
 40
13.54666666666667
 49
11.00666666666667
 74
     0
 49
-0.8466666666666667
 74
     0
 49
0.8466666666666667
 74
     0
 49
-0.8466666666666667
 74
     0
  0
LTYPE
  5
71
330
5
100
AcDbSymbolTableRecord
100
AcDbLinetypeTableRecord
  2
JWW_CENTER1
 70
     0
  3
-----  --  ----------  --  -----
 72
    65
 73
     4
 40
6.773333333333333
 49
4.233333333333333
 74
     0
 49
-0.8466666666666667
 74
     0
 49
0.8466666666666667
 74
     0
 49
-0.8466666666666667
 74
     0
  0
LTYPE
  5
72
330
5
100
AcDbSymbolTableRecord
100
AcDbLinetypeTableRecord
  2
JWW_DASHED1
 70
     0
  3
-  --  --  --  --  --  --  --  -
 72
    65
 73
     2
 40
1.693333333333333
 49
0.8466666666666667
 74
     0
 49
-0.8466666666666667
 74
     0
  0
LTYPE
  5
73
330
5
100
AcDbSymbolTableRecord
100
AcDbLinetypeTableRecord
  2
JWW_PHANTOM1
 70
     0
  3
----  -  -  --------  -  -  ----
 72
    65
 73
     6
 40
6.773333333333333
 49
3.386666666666667
 74
     0
 49
-0.8466666666666667
 74
     0
 49
0.4233333333333333
 74
     0
 49
-0.8466666666666667
 74
     0
 49
0.4233333333333333
 74
     0
 49
-0.8466666666666667
 74
     0
  0
ENDTAB
  0
TABLE
  2
LAYER
  5
2
330
0
100
AcDbSymbolTable
 70
    20
  0
LAYER
  5
10
330
2
100
AcDbSymbolTableRecord
100
AcDbLayerTableRecord
  2
0
 70
     0
 62
     7
  6
Continuous
370
    -3
390
F
  0
LAYER
  5
74
330
2
100
AcDbSymbolTableRecord
100
AcDbLayerTableRecord
  2
F-Fﾚｲﾔ
 70
     0
 62
     7
  6
Continuous
370
    -3
390
F
  0
LAYER
  5
75
330
2
100
AcDbSymbolTableRecord
100
AcDbLayerTableRecord
  2
A-4_文字
 70
     0
 62
     7
  6
Continuous
370
    -3
390
F
  0
LAYER
  5
76
330
2
100
AcDbSymbolTableRecord
100
AcDbLayerTableRecord
  2
A-0_通り芯
 70
     0
 62
     7
  6
Continuous
370
    -3
390
F
  0
LAYER
  5
77
330
2
100
AcDbSymbolTableRecord
100
AcDbLayerTableRecord
  2
A-1_躯体
 70
     0
 62
     7
  6
Continuous
370
    -3
390
F
  0
LAYER
  5
78
330
2
100
AcDbSymbolTableRecord
100
AcDbLayerTableRecord
  2
A-3_寸法
 70
     0
 62
     7
  6
Continuous
370
    -3
390
F
  0
LAYER
  5
79
330
2
100
AcDbSymbolTableRecord
100
AcDbLayerTableRecord
  2
A-E_見え係り
 70
     0
 62
     7
  6
Continuous
370
    -3
390
F
  0
LAYER
  5
7A
330
2
100
AcDbSymbolTableRecord
100
AcDbLayerTableRecord
  2
A-2_仕上
 70
     0
 62
     7
  6
Continuous
370
    -3
390
F
  0
LAYER
  5
7B
330
2
100
AcDbSymbolTableRecord
100
AcDbLayerTableRecord
  2
A-5_建具
 70
     0
 62
     7
  6
Continuous
370
    -3
390
F
  0
LAYER
  5
7C
330
2
100
AcDbSymbolTableRecord
100
AcDbLayerTableRecord
  2
D-E_見え係り
 70
     0
 62
     7
  6
Continuous
370
    -3
390
F
  0
LAYER
  5
7D
330
2
100
AcDbSymbolTableRecord
100
AcDbLayerTableRecord
  2
A-6_間仕切
 70
     0
 62
     7
  6
Continuous
370
    -3
390
F
  0
LAYER
  5
7E
330
2
100
AcDbSymbolTableRecord
100
AcDbLayerTableRecord
  2
A-A_インテリア
 70
     0
 62
     7
  6
Continuous
370
    -3
390
F
  0
LAYER
  5
7F
330
2
100
AcDbSymbolTableRecord
100
AcDbLayerTableRecord
  2
D-4_文字
 70
     0
 62
     7
  6
Continuous
370
    -3
390
F
  0
LAYER
  5
80
330
2
100
AcDbSymbolTableRecord
100
AcDbLayerTableRecord
  2
D-1_躯体
 70
     0
 62
     7
  6
Continuous
370
    -3
390
F
  0
LAYER
  5
81
330
2
100
AcDbSymbolTableRecord
100
AcDbLayerTableRecord
  2
D-A_インテリア
 70
     0
 62
     7
  6
Continuous
370
    -3
390
F
  0
LAYER
  5
82
330
2
100
AcDbSymbolTableRecord
100
AcDbLayerTableRecord
  2
D-6_間仕切
 70
     0
 62
     7
  6
Continuous
370
    -3
390
F
  0
LAYER
  5
83
330
2
100
AcDbSymbolTableRecord
100
AcDbLayerTableRecord
  2
D-0_通り芯
 70
     0
 62
     7
  6
Continuous
370
    -3
390
F
  0
LAYER
  5
84
330
2
100
AcDbSymbolTableRecord
100
AcDbLayerTableRecord
  2
D-5_建具
 70
     0
 62
     7
  6
Continuous
370
    -3
390
F
  0
LAYER
  5
85
330
2
100
AcDbSymbolTableRecord
100
AcDbLayerTableRecord
  2
D-2_仕上
 70
     0
 62
     7
  6
Continuous
370
    -3
390
F
  0
LAYER
  5
86
330
2
100
AcDbSymbolTableRecord
100
AcDbLayerTableRecord
  2
F-5ﾚｲﾔ
 70
     0
 62
     7
  6
Continuous
370
    -3
390
F
  0
ENDTAB
  0
TABLE
  2
STYLE
  5
3
330
0
100
AcDbSymbolTable
 70
     2
  0
STYLE
  5
11
330
3
100
AcDbSymbolTableRecord
100
AcDbTextStyleTableRecord
  2
Standard
 70
     0
 40
0.0
 41
1.0
 50
0.0
 71
     0
 42
2.5
  3
txt
  4

  0
STYLE
  5
6E
330
3
100
AcDbSymbolTableRecord
100
AcDbTextStyleTableRecord
  2
ＭＳ ゴシック
 70
     0
 40
1.0
 41
1.0
 50
0.0
 71
     0
 42
2.5
  3

  4

1001
ACAD
1000
MS Gothic
1071
    32817
  0
ENDTAB
  0
TABLE
  2
VIEW
  5
6
330
0
100
AcDbSymbolTable
 70
     0
  0
ENDTAB
  0
TABLE
  2
UCS
  5
7
330
0
100
AcDbSymbolTable
 70
     0
  0
ENDTAB
  0
TABLE
  2
APPID
  5
9
330
0
100
AcDbSymbolTable
 70
     2
  0
APPID
  5
12
330
9
100
AcDbSymbolTableRecord
100
AcDbRegAppTableRecord
  2
ACAD
 70
     0
  0
APPID
  5
2D0
330
9
100
AcDbSymbolTableRecord
100
AcDbRegAppTableRecord
  2
ACAD_MLEADERVER
 70
     0
  0
ENDTAB
  0
TABLE
  2
DIMSTYLE
  5
A
330
0
100
AcDbSymbolTable
 70
     1
100
AcDbDimStyleTable
  0
DIMSTYLE
105
27
330
A
100
AcDbSymbolTableRecord
100
AcDbDimStyleTableRecord
  2
ISO-25
 70
     0
 41
2.5
 42
0.625
 43
3.75
 44
1.25
 73
     0
 74
     0
 77
     1
 78
     8
140
2.5
141
2.5
143
0.03937007874016
147
0.625
171
     3
172
     1
178
     0
271
     2
272
     2
274
     3
278
    44
283
     0
284
     8
340
11
  0
ENDTAB
  0
TABLE
  2
BLOCK_RECORD
  5
1
330
0
100
AcDbSymbolTable
 70
     1
  0
BLOCK_RECORD
  5
1F
330
1
100
AcDbSymbolTableRecord
100
AcDbBlockTableRecord
  2
*Model_Space
340
22
  0
BLOCK_RECORD
  5
1B
330
1
100
AcDbSymbolTableRecord
100
AcDbBlockTableRecord
  2
*Paper_Space
340
1E
  0
BLOCK_RECORD
  5
23
330
1
100
AcDbSymbolTableRecord
100
AcDbBlockTableRecord
  2
*Paper_Space0
340
26
  0
ENDTAB
  0
ENDSEC
  0
SECTION
  2
BLOCKS
  0
BLOCK
  5
20
330
1F
100
AcDbEntity
  8
0
100
AcDbBlockBegin
  2
*Model_Space
 70
     0
 10
0.0
 20
0.0
 30
0.0
  3
*Model_Space
  1

  0
ENDBLK
  5
21
330
1F
100
AcDbEntity
  8
0
100
AcDbBlockEnd
  0
BLOCK
  5
1C
330
1B
100
AcDbEntity
 67
     1
  8
0
100
AcDbBlockBegin
  2
*Paper_Space
 70
     0
 10
0.0
 20
0.0
 30
0.0
  3
*Paper_Space
  1

  0
ENDBLK
  5
1D
330
1B
100
AcDbEntity
 67
     1
  8
0
100
AcDbBlockEnd
  0
BLOCK
  5
24
330
23
100
AcDbEntity
  8
0
100
AcDbBlockBegin
  2
*Paper_Space0
 70
     0
 10
0.0
 20
0.0
 30
0.0
  3
*Paper_Space0
  1

  0
ENDBLK
  5
25
330
23
100
AcDbEntity
  8
0
100
AcDbBlockEnd
  0
ENDSEC
  0
SECTION
  2
ENTITIES
  0
LINE
  5
87
330
1F
100
AcDbEntity
  8
F-Fﾚｲﾔ
  6
Continuous
 62
     7
370
     9
100
AcDbLine
 10
-9.534292911265538
 20
-2117.756789213723
 30
0.0
 11
-9.534292911265538
 21
-2417.756758283745
 31
0.0
  0
TEXT
  5
88
330
1F
100
AcDbEntity
  8
A-4_文字
  6
Continuous
 62
     2
370
   211
100
AcDbText
 10
-1687.675061010903
 20
439.5965523654212
 30
0.0
 40
45.72
  1
251.5
 50
90.0
 41
1.1
  7
ＭＳ ゴシック
100
AcDbText
  0
LINE
  5
89
330
1F
100
AcDbEntity
  8
A-4_文字
  6
Continuous
 62
     7
370
     9
100
AcDbLine
 10
-1665.715061010903
 20
396.3465581390171
 30
0.0
 11
-1802.935427797715
 21
396.3465581390171
 31
0.0
  0
LINE
  5
8A
330
1F
100
AcDbEntity
  8
A-4_文字
  6
Continuous
 62
     7
370
     9
100
AcDbLine
 10
-1670.215061010903
 20
647.8465465918254
 30
0.0
 11
-1665.320328802651
 21
610.6673642903075
 31
0.0
  0
LINE
  5
8B
330
1F
100
AcDbEntity
  8
A-4_文字
  6
Continuous
 62
     7
370
     9
100
AcDbLine
 10
-1670.215061010903
 20
647.8465465918254
 30
0.0
 11
-1675.109793219155
 21
610.6673642903075
 31
0.0
  0
LINE
  5
8C
330
1F
100
AcDbEntity
  8
A-4_文字
  6
Continuous
 62
     7
370
     9
100
AcDbLine
 10
-1670.215061010903
 20
396.3465581390171
 30
0.0
 11
-1665.320328802651
 21
433.5257404405349
 31
0.0
  0
LINE
  5
8D
330
1F
100
AcDbEntity
  8
A-4_文字
  6
Continuous
 62
     7
370
     9
100
AcDbLine
 10
-1670.215061010903
 20
396.3465581390171
 30
0.0
 11
-1675.109793219155
 21
433.5257404405349
 31
0.0
  0
LINE
  5
8E
330
1F
100
AcDbEntity
  8
A-4_文字
  6
Continuous
 62
     7
370
     9
100
AcDbLine
 10
-1670.215061010903
 20
396.3465581390171
 30
0.0
 11
-1670.215061010903
 21
647.8465465918254
 31
0.0
  0
LINE
  5
8F
330
1F
100
AcDbEntity
  8
A-0_通り芯
  6
Continuous
 62
     4
370
     9
100
AcDbLine
 10
-2070.43547728568
 20
647.8465465918254
 30
0.0
 11
-2032.935427797716
 21
647.8465465918254
 31
0.0
  0
LINE
  5
90
330
1F
100
AcDbEntity
  8
A-0_通り芯
  6
Continuous
 62
     4
370
     9
100
AcDbLine
 10
-1995.435378309751
 20
647.8465465918254
 30
0.0
 11
-2032.935427797716
 21
647.8465465918254
 31
0.0
  0
LINE
  5
91
330
1F
100
AcDbEntity
  8
A-0_通り芯
  6
Continuous
 62
     4
370
     9
100
AcDbLine
 10
-1995.435378309751
 20
647.8465465918254
 30
0.0
 11
-1995.435378309751
 21
646.346541643029
 31
0.0
  0
LINE
  5
92
330
1F
100
AcDbEntity
  8
A-0_通り芯
  6
Continuous
 62
     4
370
     9
100
AcDbLine
 10
-1998.935414600926
 20
646.346541643029
 30
0.0
 11
-1998.935414600926
 21
397.8465259718399
 31
0.0
  0
LINE
  5
93
330
1F
100
AcDbEntity
  8
A-1_躯体
  6
Continuous
 62
     7
370
     9
100
AcDbLine
 10
-1992.935394805739
 20
397.8465259718399
 30
0.0
 11
-2072.935460789693
 21
397.8465259718399
 31
0.0
  0
LINE
  5
94
330
1F
100
AcDbEntity
  8
A-3_寸法
  6
JWW_DASHED2
 62
     3
370
     9
100
AcDbLine
 10
-2002.685315624997
 20
647.8465465918254
 30
0.0
 11
-2002.685315624997
 21
397.8465259718399
 31
0.0
  0
LINE
  5
95
330
1F
100
AcDbEntity
  8
A-0_通り芯
  6
JWW_DASHED2
 62
     4
370
     9
100
AcDbLine
 10
-2000.435493780097
 20
646.346541643029
 30
0.0
 11
-2000.435493780097
 21
397.8465259718399
 31
0.0
  0
ARC
  5
96
330
1F
100
AcDbEntity
  8
A-0_通り芯
  6
JWW_DASHED2
 62
     4
370
     9
100
AcDbCircle
 10
-1998.935414599355
 20
646.346541643029
 30
0.0
 40
1.499999874346965
100
AcDbArc
 50
90.0
 51
180.0
  0
LINE
  5
97
330
1F
100
AcDbEntity
  8
A-0_通り芯
  6
Continuous
 62
     4
370
     9
100
AcDbLine
 10
-2070.435328821786
 20
647.8465465918254
 30
0.0
 11
-2070.435328821786
 21
646.346541643029
 31
0.0
  0
LINE
  5
98
330
1F
100
AcDbEntity
  8
A-0_通り芯
  6
Continuous
 62
     4
370
     9
100
AcDbLine
 10
-2066.935440994507
 20
646.346541643029
 30
0.0
 11
-2066.935440994507
 21
397.8465259718399
 31
0.0
  0
LINE
  5
99
330
1F
100
AcDbEntity
  8
A-0_通り芯
  6
Continuous
 62
     4
370
     9
100
AcDbLine
 10
-2066.935440994506
 20
646.346541643029
 30
0.0
 11
-2070.43547728568
 21
646.346541643029
 31
0.0
  0
LINE
  5
9A
330
1F
100
AcDbEntity
  8
A-0_通り芯
  6
Continuous
 62
     4
370
     9
100
AcDbLine
 10
-2070.43547728568
 20
647.8465465918254
 30
0.0
 11
-2070.43547728568
 21
646.346541643029
 31
0.0
  0
LINE
  5
9B
330
1F
100
AcDbEntity
  8
A-3_寸法
  6
JWW_DASHED2
 62
     3
370
     9
100
AcDbLine
 10
-2063.185539970435
 20
647.8465465918254
 30
0.0
 11
-2063.185539970435
 21
397.8465259718399
 31
0.0
  0
LINE
  5
9C
330
1F
100
AcDbEntity
  8
A-0_通り芯
  6
JWW_DASHED2
 62
     4
370
     9
100
AcDbLine
 10
-2065.435361815335
 20
646.346541643029
 30
0.0
 11
-2065.435361815335
 21
397.8465259718399
 31
0.0
  0
ARC
  5
9D
330
1F
100
AcDbEntity
  8
A-0_通り芯
  6
JWW_DASHED2
 62
     4
370
     9
100
AcDbCircle
 10
-2066.935440996079
 20
646.346541643029
 30
0.0
 40
1.499999874346965
100
AcDbArc
 50
0.0000000000000127
 51
90.00000000000001
  0
LINE
  5
9E
330
1F
100
AcDbEntity
  8
A-0_通り芯
  6
Continuous
 62
     4
370
     9
100
AcDbLine
 10
-1995.435378309751
 20
646.346541643029
 30
0.0
 11
-1998.935414600926
 21
646.346541643029
 31
0.0
  0
LINE
  5
9F
330
1F
100
AcDbEntity
  8
A-E_見え係り
  6
Continuous
 62
     6
370
     5
100
AcDbLine
 10
-2066.935440994507
 20
613.6551069912964
 30
0.0
 11
-2182.935427797716
 21
497.655120188087
 31
0.0
  0
LINE
  5
A0
330
1F
100
AcDbEntity
  8
A-E_見え係り
  6
Continuous
 62
     6
370
     5
100
AcDbLine
 10
-2066.935440994507
 20
599.5129713675652
 30
0.0
 11
-2182.935427797716
 21
483.5129845643559
 31
0.0
  0
LINE
  5
A1
330
1F
100
AcDbEntity
  8
A-E_見え係り
  6
Continuous
 62
     6
370
     5
100
AcDbLine
 10
-2066.935440994506
 20
585.3708357438348
 30
0.0
 11
-2182.935427797716
 21
469.3708489406248
 31
0.0
  0
LINE
  5
A2
330
1F
100
AcDbEntity
  8
A-E_見え係り
  6
Continuous
 62
     6
370
     5
100
AcDbLine
 10
-1882.935427797715
 20
598.7739586056966
 30
0.0
 11
-1998.935414600926
 21
482.7739718024868
 31
0.0
  0
LINE
  5
A3
330
1F
100
AcDbEntity
  8
A-E_見え係り
  6
Continuous
 62
     6
370
     5
100
AcDbLine
 10
-1882.935427797715
 20
584.6318229819656
 30
0.0
 11
-1998.935414600926
 21
468.6318361787562
 31
0.0
  0
LINE
  5
A4
330
1F
100
AcDbEntity
  8
A-E_見え係り
  6
Continuous
 62
     6
370
     5
100
AcDbLine
 10
-1882.935427797715
 20
570.4896873582346
 30
0.0
 11
-1998.935414600926
 21
454.4897005550246
 31
0.0
  0
LINE
  5
A5
330
1F
100
AcDbEntity
  8
A-E_見え係り
  6
Continuous
 62
     6
370
     5
100
AcDbLine
 10
-2182.935427797716
 20
396.3465581390171
 30
0.0
 11
-2182.935427797716
 21
647.8465581390174
 31
0.0
  0
LINE
  5
A6
330
1F
100
AcDbEntity
  8
A-E_見え係り
  6
Continuous
 62
     6
370
     5
100
AcDbLine
 10
-1882.935427797715
 20
396.3465581390171
 30
0.0
 11
-1882.935427797715
 21
647.8465581390174
 31
0.0
  0
LINE
  5
A7
330
1F
100
AcDbEntity
  8
A-E_見え係り
  6
Continuous
 62
     6
370
     5
100
AcDbLine
 10
-1832.935427797715
 20
296.3465581390171
 30
0.0
 11
-1832.935427797715
 21
396.3465581390171
 31
0.0
  0
LINE
  5
A8
330
1F
100
AcDbEntity
  8
A-E_見え係り
  6
Continuous
 62
     6
370
     5
100
AcDbLine
 10
-2232.935427797715
 20
396.3465581390171
 30
0.0
 11
-1832.935427797715
 21
396.3465581390171
 31
0.0
  0
LINE
  5
A9
330
1F
100
AcDbEntity
  8
A-E_見え係り
  6
Continuous
 62
     6
370
     5
100
AcDbLine
 10
-2232.935427797715
 20
296.3465581390171
 30
0.0
 11
-2232.935427797715
 21
396.3465581390171
 31
0.0
  0
LINE
  5
AA
330
1F
100
AcDbEntity
  8
A-E_見え係り
  6
Continuous
 62
     6
370
     5
100
AcDbLine
 10
-2232.935427797715
 20
296.3465581390171
 30
0.0
 11
-1832.935427797715
 21
296.3465581390171
 31
0.0
  0
LINE
  5
AB
330
1F
100
AcDbEntity
  8
A-E_見え係り
  6
Continuous
 62
     6
370
     5
100
AcDbLine
 10
-2032.935427797716
 20
396.3465581390171
 30
0.0
 11
-2059.730347040828
 21
296.3465581390171
 31
0.0
  0
LINE
  5
AC
330
1F
100
AcDbEntity
  8
A-E_見え係り
  6
Continuous
 62
     6
370
     5
100
AcDbLine
 10
-2046.680978227289
 20
296.3465581390171
 30
0.0
 11
-2053.205662634059
 21
320.697011848435
 31
0.0
  0
LINE
  5
AD
330
1F
100
AcDbEntity
  8
A-E_見え係り
  6
Continuous
 62
     6
370
     5
100
AcDbLine
 10
-2045.984796611256
 20
396.3465581390171
 30
0.0
 11
-2039.460112204486
 21
371.9961044295991
 31
0.0
  0
LINE
  5
AE
330
1F
100
AcDbEntity
  8
A-E_見え係り
  6
Continuous
 62
     6
370
     5
100
AcDbLine
 10
-2082.935427797715
 20
396.3465581390171
 30
0.0
 11
-2109.730347040828
 21
296.3465581390171
 31
0.0
  0
LINE
  5
AF
330
1F
100
AcDbEntity
  8
A-E_見え係り
  6
Continuous
 62
     6
370
     5
100
AcDbLine
 10
-2096.680978227289
 20
296.3465581390171
 30
0.0
 11
-2103.205662634058
 21
320.697011848435
 31
0.0
  0
LINE
  5
B0
330
1F
100
AcDbEntity
  8
A-E_見え係り
  6
Continuous
 62
     6
370
     5
100
AcDbLine
 10
-2095.984796611255
 20
396.3465581390171
 30
0.0
 11
-2089.460112204486
 21
371.9961044295991
 31
0.0
  0
LINE
  5
B1
330
1F
100
AcDbEntity
  8
A-E_見え係り
  6
Continuous
 62
     6
370
     5
100
AcDbLine
 10
-2132.935427797715
 20
396.3465581390171
 30
0.0
 11
-2159.73034704083
 21
296.3465581390171
 31
0.0
  0
LINE
  5
B2
330
1F
100
AcDbEntity
  8
A-E_見え係り
  6
Continuous
 62
     6
370
     5
100
AcDbLine
 10
-2146.680978227288
 20
296.3465581390171
 30
0.0
 11
-2153.20566263406
 21
320.697011848435
 31
0.0
  0
LINE
  5
B3
330
1F
100
AcDbEntity
  8
A-E_見え係り
  6
Continuous
 62
     6
370
     5
100
AcDbLine
 10
-2145.984796611256
 20
396.3465581390171
 30
0.0
 11
-2139.460112204486
 21
371.9961044295991
 31
0.0
  0
LINE
  5
B4
330
1F
100
AcDbEntity
  8
A-E_見え係り
  6
Continuous
 62
     6
370
     5
100
AcDbLine
 10
-2182.935427797716
 20
396.3465581390171
 30
0.0
 11
-2209.730347040828
 21
296.3465581390171
 31
0.0
  0
LINE
  5
B5
330
1F
100
AcDbEntity
  8
A-E_見え係り
  6
Continuous
 62
     6
370
     5
100
AcDbLine
 10
-2196.680978227289
 20
296.3465581390171
 30
0.0
 11
-2203.205662634058
 21
320.697011848435
 31
0.0
  0
LINE
  5
B6
330
1F
100
AcDbEntity
  8
A-E_見え係り
  6
Continuous
 62
     6
370
     5
100
AcDbLine
 10
-2195.984796611256
 20
396.3465581390171
 30
0.0
 11
-2189.460112204486
 21
371.9961044295991
 31
0.0
  0
LINE
  5
B7
330
1F
100
AcDbEntity
  8
A-E_見え係り
  6
Continuous
 62
     6
370
     5
100
AcDbLine
 10
-1982.935427797715
 20
396.3465581390171
 30
0.0
 11
-2009.730347040828
 21
296.3465581390171
 31
0.0
  0
LINE
  5
B8
330
1F
100
AcDbEntity
  8
A-E_見え係り
  6
Continuous
 62
     6
370
     5
100
AcDbLine
 10
-1996.680978227289
 20
296.3465581390171
 30
0.0
 11
-2003.205662634059
 21
320.697011848435
 31
0.0
  0
LINE
  5
B9
330
1F
100
AcDbEntity
  8
A-E_見え係り
  6
Continuous
 62
     6
370
     5
100
AcDbLine
 10
-1995.984796611256
 20
396.3465581390171
 30
0.0
 11
-1989.460112204486
 21
371.9961044295991
 31
0.0
  0
LINE
  5
BA
330
1F
100
AcDbEntity
  8
A-E_見え係り
  6
Continuous
 62
     6
370
     5
100
AcDbLine
 10
-1932.935427797715
 20
396.3465581390171
 30
0.0
 11
-1959.730347040828
 21
296.3465581390171
 31
0.0
  0
LINE
  5
BB
330
1F
100
AcDbEntity
  8
A-E_見え係り
  6
Continuous
 62
     6
370
     5
100
AcDbLine
 10
-1946.680978227289
 20
296.3465581390171
 30
0.0
 11
-1953.205662634058
 21
320.697011848435
 31
0.0
  0
LINE
  5
BC
330
1F
100
AcDbEntity
  8
A-E_見え係り
  6
Continuous
 62
     6
370
     5
100
AcDbLine
 10
-1945.984796611255
 20
396.3465581390171
 30
0.0
 11
-1939.460112204486
 21
371.9961044295991
 31
0.0
  0
LINE
  5
BD
330
1F
100
AcDbEntity
  8
A-E_見え係り
  6
Continuous
 62
     6
370
     5
100
AcDbLine
 10
-1882.935427797715
 20
396.3465581390171
 30
0.0
 11
-1909.730347040828
 21
296.3465581390171
 31
0.0
  0
LINE
  5
BE
330
1F
100
AcDbEntity
  8
A-E_見え係り
  6
Continuous
 62
     6
370
     5
100
AcDbLine
 10
-1896.680978227289
 20
296.3465581390171
 30
0.0
 11
-1903.205662634058
 21
320.697011848435
 31
0.0
  0
LINE
  5
BF
330
1F
100
AcDbEntity
  8
A-E_見え係り
  6
Continuous
 62
     6
370
     5
100
AcDbLine
 10
-1895.984796611256
 20
396.3465581390171
 30
0.0
 11
-1889.460112204486
 21
371.9961044295991
 31
0.0
  0
LINE
  5
C0
330
1F
100
AcDbEntity
  8
A-E_見え係り
  6
Continuous
 62
     6
370
     5
100
AcDbLine
 10
-1832.935427797715
 20
396.3465581390171
 30
0.0
 11
-1859.730347040828
 21
296.3465581390171
 31
0.0
  0
LINE
  5
C1
330
1F
100
AcDbEntity
  8
A-E_見え係り
  6
Continuous
 62
     6
370
     5
100
AcDbLine
 10
-1846.680978227289
 20
296.3465581390171
 30
0.0
 11
-1853.205662634058
 21
320.697011848435
 31
0.0
  0
LINE
  5
C2
330
1F
100
AcDbEntity
  8
A-E_見え係り
  6
Continuous
 62
     6
370
     5
100
AcDbLine
 10
-1845.984796611256
 20
396.3465581390171
 30
0.0
 11
-1839.460112204486
 21
371.9961044295991
 31
0.0
  0
LINE
  5
C3
330
1F
100
AcDbEntity
  8
A-1_躯体
  6
Continuous
 62
     7
370
     9
100
AcDbLine
 10
-2072.935460789693
 20
397.8465259718399
 30
0.0
 11
-2072.935460789693
 21
396.3465581390171
 31
0.0
  0
LINE
  5
C4
330
1F
100
AcDbEntity
  8
A-1_躯体
  6
Continuous
 62
     7
370
     9
100
AcDbLine
 10
-2045.435493781669
 20
397.8465259718399
 30
0.0
 11
-2045.435493781669
 21
396.3465581390171
 31
0.0
  0
LINE
  5
C5
330
1F
100
AcDbEntity
  8
A-1_躯体
  6
Continuous
 62
     7
370
     9
100
AcDbLine
 10
-2020.435361813763
 20
397.8465259718399
 30
0.0
 11
-2020.435361813763
 21
396.3465581390171
 31
0.0
  0
LINE
  5
C6
330
1F
100
AcDbEntity
  8
A-1_躯体
  6
Continuous
 62
     7
370
     9
100
AcDbLine
 10
-1992.935394805739
 20
397.8465259718399
 30
0.0
 11
-1992.935394805739
 21
396.3465581390171
 31
0.0
  0
LINE
  5
C7
330
1F
100
AcDbEntity
  8
A-2_仕上
  6
Continuous
 62
     3
370
     9
100
AcDbLine
 10
-2002.68535274097
 20
900.8458974746904
 30
0.0
 11
-63.18542037152682
 21
900.8444128360478
 31
0.0
  0
ARC
  5
C8
330
1F
100
AcDbEntity
  8
A-0_通り芯
  6
JWW_CENTER2
 62
     7
370
     9
100
AcDbCircle
 10
-1857.935469037686
 20
1092.595738288405
 30
0.0
 40
175.0000051549963
100
AcDbArc
 50
89.999755859375
 51
180.0
  0
LINE
  5
C9
330
1F
100
AcDbEntity
  8
A-0_通り芯
  6
JWW_CENTER2
 62
     7
370
     9
100
AcDbLine
 10
-2032.935427797716
 20
1092.595738288405
 30
0.0
 11
-2032.935427797716
 21
355.9433227808556
 31
0.0
  0
ARC
  5
CA
330
1F
100
AcDbEntity
  8
A-2_仕上
  6
Continuous
 62
     3
370
     9
100
AcDbCircle
 10
-1857.935469037686
 20
1092.595738288405
 30
0.0
 40
205.2500106192924
100
AcDbArc
 50
89.99977111816406
 51
180.0
  0
ARC
  5
CB
330
1F
100
AcDbEntity
  8
A-2_仕上
  6
Continuous
 62
     3
370
     9
100
AcDbCircle
 10
-1857.935283457819
 20
1092.595367128671
 30
0.0
 40
144.7500112894419
100
AcDbArc
 50
89.9998016357422
 51
180.0
  0
LINE
  5
CC
330
1F
100
AcDbEntity
  8
A-2_仕上
  6
Continuous
 62
     3
370
     9
100
AcDbLine
 10
-2002.68535274097
 20
1092.595367128671
 30
0.0
 11
-2002.68535274097
 21
934.8459849034275
 31
0.0
  0
ARC
  5
CD
330
1F
100
AcDbEntity
  8
A-2_仕上
  6
Continuous
 62
     3
370
     9
100
AcDbCircle
 10
-2002.68535274097
 20
917.8459411890592
 30
0.0
 40
16.99998282097481
100
AcDbArc
 50
89.99958801269531
 51
270.0
  0
LINE
  5
CE
330
1F
100
AcDbEntity
  8
A-2_仕上
  6
Continuous
 62
     3
370
     9
100
AcDbLine
 10
-2002.68535274097
 20
900.8458974746904
 30
0.0
 11
-2002.68535274097
 21
397.8465465918251
 31
0.0
  0
LINE
  5
CF
330
1F
100
AcDbEntity
  8
A-2_仕上
  6
Continuous
 62
     3
370
     9
100
AcDbLine
 10
-2063.185502854461
 20
1092.595738288405
 30
0.0
 11
-2063.185502854461
 21
397.8465465918251
 31
0.0
  0
LINE
  5
D0
330
1F
100
AcDbEntity
  8
A-0_通り芯
  6
JWW_CENTER2
 62
     7
370
     9
100
AcDbLine
 10
-63.18542037452075
 20
1267.594583569232
 30
0.0
 11
-1857.934726718218
 21
1267.595697048434
 31
0.0
  0
LINE
  5
D1
330
1F
100
AcDbEntity
  8
A-0_通り芯
  6
JWW_CENTER2
 62
     7
370
     9
100
AcDbLine
 10
-63.18523479465412
 20
917.844270970256
 30
0.0
 11
-2040.522303919443
 21
917.846126768926
 31
0.0
  0
LINE
  5
D2
330
1F
100
AcDbEntity
  8
A-0_通り芯
  6
JWW_CENTER2
 62
     7
370
     9
100
AcDbLine
 10
-63.18542037452075
 20
1267.594583569232
 30
0.0
 11
731.5638859691767
 21
1267.595697048434
 31
0.0
  0
LINE
  5
D3
330
1F
100
AcDbEntity
  8
A-0_通り芯
  6
JWW_CENTER2
 62
     7
370
     9
100
AcDbLine
 10
917.018115375585
 20
917.8427863313206
 30
0.0
 11
-63.18523479465412
 21
917.844270970256
 31
0.0
  0
LINE
  5
D4
330
1F
100
AcDbEntity
  8
A-2_仕上
  6
Continuous
 62
     3
370
     9
100
AcDbLine
 10
-63.18542037452075
 20
1297.844473046112
 30
0.0
 11
-1857.934541138351
 21
1297.845957685047
 31
0.0
  0
LINE
  5
D5
330
1F
100
AcDbEntity
  8
A-2_仕上
  6
Continuous
 62
     3
370
     9
100
AcDbLine
 10
-63.18542037452075
 20
1237.344322932619
 30
0.0
 11
-1857.934912298085
 21
1237.345436411821
 31
0.0
  0
LINE
  5
D6
330
1F
100
AcDbEntity
  8
A-2_仕上
  6
Continuous
 62
     3
370
     9
100
AcDbLine
 10
-63.18523479465412
 20
934.8443146846248
 30
0.0
 11
-2002.68535274097
 21
934.8459849034275
 31
0.0
  0
ARC
  5
D7
330
1F
100
AcDbEntity
  8
A-0_通り芯
  6
JWW_CENTER2
 62
     7
370
     9
100
AcDbCircle
 10
731.5646282886444
 20
1092.595738288405
 30
0.0
 40
175.0000051549963
100
AcDbArc
 50
0.0000000000000127
 51
90.000244140625
  0
LINE
  5
D8
330
1F
100
AcDbEntity
  8
A-0_通り芯
  6
JWW_CENTER2
 62
     7
370
     9
100
AcDbLine
 10
906.564587048674
 20
1092.595738288405
 30
0.0
 11
906.564587048674
 21
355.9433227808556
 31
0.0
  0
LINE
  5
D9
330
1F
100
AcDbEntity
  8
A-2_仕上
  6
Continuous
 62
     3
370
     9
100
AcDbLine
 10
-63.18542037452075
 20
1297.844473046112
 30
0.0
 11
731.56370038931
 21
1297.845957685047
 31
0.0
  0
ARC
  5
DA
330
1F
100
AcDbEntity
  8
A-2_仕上
  6
Continuous
 62
     3
370
     9
100
AcDbCircle
 10
731.5646282886444
 20
1092.595738288405
 30
0.0
 40
205.2500106192924
100
AcDbArc
 50
0.0
 51
90.00022888183592
  0
ARC
  5
DB
330
1F
100
AcDbEntity
  8
A-2_仕上
  6
Continuous
 62
     3
370
     9
100
AcDbCircle
 10
731.5644427087776
 20
1092.595367128671
 30
0.0
 40
144.7500112894419
100
AcDbArc
 50
0.0
 51
90.0001983642578
  0
LINE
  5
DC
330
1F
100
AcDbEntity
  8
A-2_仕上
  6
Continuous
 62
     3
370
     9
100
AcDbLine
 10
-63.18542037452075
 20
1237.344322932619
 30
0.0
 11
731.5640715490438
 21
1237.345436411821
 31
0.0
  0
LINE
  5
DD
330
1F
100
AcDbEntity
  8
A-2_仕上
  6
Continuous
 62
     3
370
     9
100
AcDbLine
 10
876.3145119919282
 20
1092.595367128671
 30
0.0
 11
876.3145119919282
 21
934.8459849034275
 31
0.0
  0
ARC
  5
DE
330
1F
100
AcDbEntity
  8
A-2_仕上
  6
Continuous
 62
     3
370
     9
100
AcDbCircle
 10
876.3145119919282
 20
917.8459411890592
 30
0.0
 40
16.99998282097481
100
AcDbArc
 50
270.0
 51
90.00041198730467
  0
LINE
  5
DF
330
1F
100
AcDbEntity
  8
A-2_仕上
  6
Continuous
 62
     3
370
     9
100
AcDbLine
 10
-63.18560595438736
 20
934.8443146846248
 30
0.0
 11
876.3145119919282
 21
934.8459849034275
 31
0.0
  0
LINE
  5
E0
330
1F
100
AcDbEntity
  8
A-2_仕上
  6
Continuous
 62
     3
370
     9
100
AcDbLine
 10
876.3145119919282
 20
900.8458974746904
 30
0.0
 11
-63.18542037122722
 21
900.8444128360478
 31
0.0
  0
LINE
  5
E1
330
1F
100
AcDbEntity
  8
A-2_仕上
  6
Continuous
 62
     3
370
     9
100
AcDbLine
 10
876.3145119919282
 20
900.8458974746904
 30
0.0
 11
876.3145119919282
 21
397.8465465918251
 31
0.0
  0
LINE
  5
E2
330
1F
100
AcDbEntity
  8
A-2_仕上
  6
Continuous
 62
     3
370
     9
100
AcDbLine
 10
936.8146621054204
 20
1092.595738288405
 30
0.0
 11
936.8146621054204
 21
397.8465465918251
 31
0.0
  0
LINE
  5
E3
330
1F
100
AcDbEntity
  8
A-4_文字
  6
Continuous
 62
     7
370
     9
100
AcDbLine
 10
-2063.185502854461
 20
1456.254987490552
 30
0.0
 11
936.8146621054206
 21
1456.254987490552
 31
0.0
  0
LINE
  5
E4
330
1F
100
AcDbEntity
  8
A-4_文字
  6
Continuous
 62
     7
370
     9
100
AcDbLine
 10
-2063.185502854461
 20
1456.254987490552
 30
0.0
 11
-2026.006320552943
 21
1461.149719698804
 31
0.0
  0
LINE
  5
E5
330
1F
100
AcDbEntity
  8
A-4_文字
  6
Continuous
 62
     7
370
     9
100
AcDbLine
 10
-2063.185502854461
 20
1456.254987490552
 30
0.0
 11
-2026.006320552943
 21
1451.3602552823
 31
0.0
  0
LINE
  5
E6
330
1F
100
AcDbEntity
  8
A-4_文字
  6
Continuous
 62
     7
370
     9
100
AcDbLine
 10
936.8146621054206
 20
1456.254987490552
 30
0.0
 11
899.6354798039026
 21
1461.149719698804
 31
0.0
  0
LINE
  5
E7
330
1F
100
AcDbEntity
  8
A-4_文字
  6
Continuous
 62
     7
370
     9
100
AcDbLine
 10
936.8146621054206
 20
1456.254987490552
 30
0.0
 11
899.6354798039026
 21
1451.3602552823
 31
0.0
  0
TEXT
  5
E8
330
1F
100
AcDbEntity
  8
A-4_文字
  6
Continuous
 62
     2
370
   211
100
AcDbText
 10
-628.8104203745203
 20
1473.714987490552
 30
0.0
 40
45.72
  1
3000
 41
1.09375
  7
ＭＳ ゴシック
100
AcDbText
  0
LINE
  5
E9
330
1F
100
AcDbEntity
  8
A-4_文字
  6
Continuous
 62
     7
370
     9
100
AcDbLine
 10
1120.206415725353
 20
917.8427863313206
 30
0.0
 11
1120.206415725353
 21
1297.845957685047
 31
0.0
  0
LINE
  5
EA
330
1F
100
AcDbEntity
  8
A-4_文字
  6
Continuous
 62
     7
370
     9
100
AcDbLine
 10
1120.206415725353
 20
917.8427863313206
 30
0.0
 11
1115.311683517101
 21
955.0219686328386
 31
0.0
  0
LINE
  5
EB
330
1F
100
AcDbEntity
  8
A-4_文字
  6
Continuous
 62
     7
370
     9
100
AcDbLine
 10
1120.206415725353
 20
917.8427863313206
 30
0.0
 11
1125.101147933605
 21
955.0219686328386
 31
0.0
  0
LINE
  5
EC
330
1F
100
AcDbEntity
  8
A-4_文字
  6
Continuous
 62
     7
370
     9
100
AcDbLine
 10
1120.206415725353
 20
1297.845957685047
 30
0.0
 11
1115.311683517101
 21
1260.666775383529
 31
0.0
  0
LINE
  5
ED
330
1F
100
AcDbEntity
  8
A-4_文字
  6
Continuous
 62
     7
370
     9
100
AcDbLine
 10
1120.206415725353
 20
1297.845957685047
 30
0.0
 11
1125.101147933605
 21
1260.666775383529
 31
0.0
  0
TEXT
  5
EE
330
1F
100
AcDbEntity
  8
A-4_文字
  6
Continuous
 62
     2
370
   211
100
AcDbText
 10
1102.746415725353
 20
1059.094372008184
 30
0.0
 40
45.72
  1
380
 50
90.0
 41
1.083333333333333
  7
ＭＳ ゴシック
100
AcDbText
  0
LINE
  5
EF
330
1F
100
AcDbEntity
  8
A-4_文字
  6
Continuous
 62
     7
370
     9
100
AcDbLine
 10
-2232.935427797715
 20
-0.4144312076824619
 30
0.0
 11
-1832.935427797716
 21
-0.4144312076824619
 31
0.0
  0
LINE
  5
F0
330
1F
100
AcDbEntity
  8
A-4_文字
  6
Continuous
 62
     7
370
     9
100
AcDbLine
 10
-2232.935427797715
 20
-0.4144312076824619
 30
0.0
 11
-2195.756245496197
 21
4.480301000569575
 31
0.0
  0
LINE
  5
F1
330
1F
100
AcDbEntity
  8
A-4_文字
  6
Continuous
 62
     7
370
     9
100
AcDbLine
 10
-2232.935427797715
 20
-0.4144312076824619
 30
0.0
 11
-2195.756245496197
 21
-5.309163415934499
 31
0.0
  0
LINE
  5
F2
330
1F
100
AcDbEntity
  8
A-4_文字
  6
Continuous
 62
     7
370
     9
100
AcDbLine
 10
-1832.935427797716
 20
-0.4144312076824619
 30
0.0
 11
-1870.114610099233
 21
4.480301000569575
 31
0.0
  0
LINE
  5
F3
330
1F
100
AcDbEntity
  8
A-4_文字
  6
Continuous
 62
     7
370
     9
100
AcDbLine
 10
-1832.935427797716
 20
-0.4144312076824619
 30
0.0
 11
-1870.114610099233
 21
-5.309163415934499
 31
0.0
  0
LINE
  5
F4
330
1F
100
AcDbEntity
  8
A-4_文字
  6
Continuous
 62
     7
370
     9
100
AcDbLine
 10
-2232.935427797715
 20
-4.914431207682632
 30
0.0
 11
-2232.935427797715
 21
267.8465465918252
 31
0.0
  0
LINE
  5
F5
330
1F
100
AcDbEntity
  8
A-4_文字
  6
Continuous
 62
     7
370
     9
100
AcDbLine
 10
-1832.935427797716
 20
-4.914431207682632
 30
0.0
 11
-1832.935427797716
 21
267.8465465918252
 31
0.0
  0
TEXT
  5
F6
330
1F
100
AcDbEntity
  8
A-4_文字
  6
Continuous
 62
     2
370
   211
100
AcDbText
 10
-2115.435427797715
 20
17.04556879231788
 30
0.0
 40
45.72
  1
□400
 41
1.1
  7
ＭＳ ゴシック
100
AcDbText
  0
LINE
  5
F7
330
1F
100
AcDbEntity
  8
A-4_文字
  6
Continuous
 62
     7
370
     9
100
AcDbLine
 10
-2182.935427797716
 20
132.6387602816799
 30
0.0
 11
-1882.935427797716
 21
132.6387602816799
 31
0.0
  0
LINE
  5
F8
330
1F
100
AcDbEntity
  8
A-4_文字
  6
Continuous
 62
     7
370
     9
100
AcDbLine
 10
-2182.935427797716
 20
132.6387602816799
 30
0.0
 11
-2145.756245496198
 21
137.5334924899319
 31
0.0
  0
LINE
  5
F9
330
1F
100
AcDbEntity
  8
A-4_文字
  6
Continuous
 62
     7
370
     9
100
AcDbLine
 10
-2182.935427797716
 20
132.6387602816799
 30
0.0
 11
-2145.756245496198
 21
127.7440280734278
 31
0.0
  0
LINE
  5
FA
330
1F
100
AcDbEntity
  8
A-4_文字
  6
Continuous
 62
     7
370
     9
100
AcDbLine
 10
-1882.935427797716
 20
132.6387602816799
 30
0.0
 11
-1920.114610099233
 21
137.5334924899319
 31
0.0
  0
LINE
  5
FB
330
1F
100
AcDbEntity
  8
A-4_文字
  6
Continuous
 62
     7
370
     9
100
AcDbLine
 10
-1882.935427797716
 20
132.6387602816799
 30
0.0
 11
-1920.114610099233
 21
127.7440280734278
 31
0.0
  0
TEXT
  5
FC
330
1F
100
AcDbEntity
  8
A-4_文字
  6
Continuous
 62
     2
370
   211
100
AcDbText
 10
-2115.435427797716
 20
150.0987602816802
 30
0.0
 40
45.72
  1
□300
 41
1.1
  7
ＭＳ ゴシック
100
AcDbText
  0
LINE
  5
FD
330
1F
100
AcDbEntity
  8
A-4_文字
  6
Continuous
 62
     7
370
     9
100
AcDbLine
 10
-2182.935427797716
 20
128.1387602816797
 30
0.0
 11
-2182.935427797716
 21
267.8465465918252
 31
0.0
  0
LINE
  5
FE
330
1F
100
AcDbEntity
  8
A-4_文字
  6
Continuous
 62
     7
370
     9
100
AcDbLine
 10
-1882.935427797716
 20
128.1387602816797
 30
0.0
 11
-1882.935427797716
 21
267.8465465918252
 31
0.0
  0
LINE
  5
FF
330
1F
100
AcDbEntity
  8
A-4_文字
  6
Continuous
 62
     7
370
     9
100
AcDbLine
 10
-2063.185502854461
 20
1460.754987490552
 30
0.0
 11
-2063.185502854461
 21
1165.341719169039
 31
0.0
  0
LINE
  5
100
330
1F
100
AcDbEntity
  8
A-4_文字
  6
Continuous
 62
     7
370
     9
100
AcDbLine
 10
936.8146621054206
 20
1460.754987490552
 30
0.0
 11
936.8146621054206
 21
1165.341719169039
 31
0.0
  0
LINE
  5
101
330
1F
100
AcDbEntity
  8
A-4_文字
  6
Continuous
 62
     7
370
     9
100
AcDbLine
 10
1124.706415725353
 20
1297.845957685047
 30
0.0
 11
805.852593818337
 21
1297.845957685047
 31
0.0
  0
LINE
  5
102
330
1F
100
AcDbEntity
  8
A-4_文字
  6
Continuous
 62
     7
370
     9
100
AcDbLine
 10
1124.706415725353
 20
917.8427863313206
 30
0.0
 11
959.8525938183371
 21
917.8427863313206
 31
0.0
  0
LINE
  5
103
330
1F
100
AcDbEntity
  8
A-4_文字
  6
Continuous
 62
     7
370
     9
100
AcDbLine
 10
-1981.679344970331
 20
1216.339799800917
 30
0.0
 11
-1951.935750710781
 21
1193.501923355783
 31
0.0
  0
LINE
  5
104
330
1F
100
AcDbEntity
  8
A-4_文字
  6
Continuous
 62
     7
370
     9
100
AcDbLine
 10
-1981.679344970331
 20
1216.339799800917
 30
0.0
 11
-1958.860116482067
 21
1186.581896460789
 31
0.0
  0
LINE
  5
105
330
1F
100
AcDbEntity
  8
A-4_文字
  6
Continuous
 62
     7
370
     9
100
AcDbLine
 10
-1834.964012640914
 20
1069.532476546184
 30
0.0
 11
-1981.679344970331
 21
1216.339799800917
 31
0.0
  0
TEXT
  5
106
330
1F
100
AcDbEntity
  8
A-4_文字
  6
Continuous
 62
     2
370
   211
100
AcDbText
 10
-1918.646457159024
 20
1172.691147695748
 30
0.0
 40
45.72000000000106
  1
R175
 50
314.9999999999961
 41
1.093749999999958
  7
ＭＳ ゴシック
100
AcDbText
  0
LINE
  5
107
330
1F
100
AcDbEntity
  8
A-4_文字
  6
Continuous
 62
     7
370
     9
100
AcDbLine
 10
-1644.809338306309
 20
900.8459583680847
 30
0.0
 11
-1621.899763628206
 21
871.157553424935
 31
0.0
  0
LINE
  5
108
330
1F
100
AcDbEntity
  8
A-4_文字
  6
Continuous
 62
     7
370
     9
100
AcDbLine
 10
-1644.809338306309
 20
900.8459583680847
 30
0.0
 11
-1630.364313073434
 21
866.239727050277
 31
0.0
  0
LINE
  5
109
330
1F
100
AcDbEntity
  8
A-5_建具
  6
Continuous
 62
     7
370
     9
100
AcDbLine
 10
-1644.809338306309
 20
900.8459583680847
 30
0.0
 11
-1563.494952924762
 21
760.8878583389246
 31
0.0
  0
LINE
  5
10A
330
1F
100
AcDbEntity
  8
A-5_建具
  6
Continuous
 62
     7
370
     9
100
AcDbLine
 10
-1563.494952924762
 20
760.8878583389246
 30
0.0
 11
-793.8995593958686
 21
760.8878583389246
 31
0.0
  0
TEXT
  5
10B
330
1F
100
AcDbEntity
  8
A-5_建具
  6
Continuous
 62
     7
370
     9
100
AcDbText
 10
-1553.019574590097
 20
778.6497796782401
 30
0.0
 40
34.29
  1
横柵：φ34.0×2.3
 41
1.156862745098039
  7
ＭＳ ゴシック
100
AcDbText
  0
TEXT
  5
10C
330
1F
100
AcDbEntity
  8
A-5_建具
  6
Continuous
 62
     7
370
     9
100
AcDbText
 10
-1553.019574590097
 20
706.8767300328499
 30
0.0
 40
34.29
  1
STK　溶融亜鉛めっき＋焼付塗装
 41
1.155172413793103
  7
ＭＳ ゴシック
100
AcDbText
  0
LINE
  5
10D
330
1F
100
AcDbEntity
  8
A-E_見え係り
  6
Continuous
 62
     6
370
     5
100
AcDbLine
 10
1272.303720671553
 20
647.8465465918254
 30
0.0
 11
936.8146621054204
 21
647.8465465918254
 31
0.0
  0
LINE
  5
10E
330
1F
100
AcDbEntity
  8
A-0_通り芯
  6
Continuous
 62
     4
370
     9
100
AcDbLine
 10
869.0645375607096
 20
647.8465465918254
 30
0.0
 11
906.5645870486744
 21
647.8465465918254
 31
0.0
  0
LINE
  5
10F
330
1F
100
AcDbEntity
  8
A-0_通り芯
  6
Continuous
 62
     4
370
     9
100
AcDbLine
 10
944.0646365366393
 20
647.8465465918254
 30
0.0
 11
906.5645870486744
 21
647.8465465918254
 31
0.0
  0
LINE
  5
110
330
1F
100
AcDbEntity
  8
A-0_通り芯
  6
Continuous
 62
     4
370
     9
100
AcDbLine
 10
944.0646365366393
 20
647.8465465918254
 30
0.0
 11
944.0646365366393
 21
646.346541643029
 31
0.0
  0
LINE
  5
111
330
1F
100
AcDbEntity
  8
A-0_通り芯
  6
Continuous
 62
     4
370
     9
100
AcDbLine
 10
940.5646002454642
 20
646.346541643029
 30
0.0
 11
940.5646002454642
 21
397.8465259718399
 31
0.0
  0
LINE
  5
112
330
1F
100
AcDbEntity
  8
A-1_躯体
  6
Continuous
 62
     7
370
     9
100
AcDbLine
 10
946.5646200406511
 20
397.8465259718399
 30
0.0
 11
866.564554056697
 21
397.8465259718399
 31
0.0
  0
LINE
  5
113
330
1F
100
AcDbEntity
  8
A-3_寸法
  6
JWW_DASHED2
 62
     3
370
     9
100
AcDbLine
 10
936.8146992213931
 20
647.8465465918254
 30
0.0
 11
936.8146992213931
 21
397.8465259718399
 31
0.0
  0
LINE
  5
114
330
1F
100
AcDbEntity
  8
A-0_通り芯
  6
JWW_DASHED2
 62
     4
370
     9
100
AcDbLine
 10
939.0645210662927
 20
646.346541643029
 30
0.0
 11
939.0645210662927
 21
397.8465259718399
 31
0.0
  0
ARC
  5
115
330
1F
100
AcDbEntity
  8
A-0_通り芯
  6
JWW_DASHED2
 62
     4
370
     9
100
AcDbCircle
 10
940.5646002470357
 20
646.346541643029
 30
0.0
 40
1.499999874346965
100
AcDbArc
 50
90.0
 51
180.0
  0
LINE
  5
116
330
1F
100
AcDbEntity
  8
A-0_通り芯
  6
Continuous
 62
     4
370
     9
100
AcDbLine
 10
869.0646860246043
 20
647.8465465918254
 30
0.0
 11
869.0646860246043
 21
646.346541643029
 31
0.0
  0
LINE
  5
117
330
1F
100
AcDbEntity
  8
A-0_通り芯
  6
Continuous
 62
     4
370
     9
100
AcDbLine
 10
872.564573851883
 20
646.346541643029
 30
0.0
 11
872.564573851883
 21
397.8465259718399
 31
0.0
  0
LINE
  5
118
330
1F
100
AcDbEntity
  8
A-0_通り芯
  6
Continuous
 62
     4
370
     9
100
AcDbLine
 10
872.5645738518838
 20
646.346541643029
 30
0.0
 11
869.0645375607096
 21
646.346541643029
 31
0.0
  0
LINE
  5
119
330
1F
100
AcDbEntity
  8
A-0_通り芯
  6
Continuous
 62
     4
370
     9
100
AcDbLine
 10
869.0645375607096
 20
647.8465465918254
 30
0.0
 11
869.0645375607096
 21
646.346541643029
 31
0.0
  0
LINE
  5
11A
330
1F
100
AcDbEntity
  8
A-3_寸法
  6
JWW_DASHED2
 62
     3
370
     9
100
AcDbLine
 10
876.3144748759549
 20
647.8465465918254
 30
0.0
 11
876.3144748759549
 21
397.8465259718399
 31
0.0
  0
LINE
  5
11B
330
1F
100
AcDbEntity
  8
A-0_通り芯
  6
JWW_DASHED2
 62
     4
370
     9
100
AcDbLine
 10
874.0646530310553
 20
646.346541643029
 30
0.0
 11
874.0646530310553
 21
397.8465259718399
 31
0.0
  0
ARC
  5
11C
330
1F
100
AcDbEntity
  8
A-0_通り芯
  6
JWW_DASHED2
 62
     4
370
     9
100
AcDbCircle
 10
872.5645738503115
 20
646.346541643029
 30
0.0
 40
1.499999874346965
100
AcDbArc
 50
0.0000000000000127
 51
90.00000000000001
  0
LINE
  5
11D
330
1F
100
AcDbEntity
  8
A-0_通り芯
  6
Continuous
 62
     4
370
     9
100
AcDbLine
 10
944.0646365366393
 20
646.346541643029
 30
0.0
 11
940.5646002454642
 21
646.346541643029
 31
0.0
  0
LINE
  5
11E
330
1F
100
AcDbEntity
  8
A-E_見え係り
  6
Continuous
 62
     6
370
     5
100
AcDbLine
 10
872.564573851883
 20
613.6551069912964
 30
0.0
 11
756.5645870486744
 21
497.655120188087
 31
0.0
  0
LINE
  5
11F
330
1F
100
AcDbEntity
  8
A-E_見え係り
  6
Continuous
 62
     6
370
     5
100
AcDbLine
 10
872.564573851883
 20
599.5129713675652
 30
0.0
 11
756.5645870486744
 21
483.5129845643559
 31
0.0
  0
LINE
  5
120
330
1F
100
AcDbEntity
  8
A-E_見え係り
  6
Continuous
 62
     6
370
     5
100
AcDbLine
 10
872.5645738518838
 20
585.3708357438348
 30
0.0
 11
756.5645870486744
 21
469.3708489406248
 31
0.0
  0
LINE
  5
121
330
1F
100
AcDbEntity
  8
A-E_見え係り
  6
Continuous
 62
     6
370
     5
100
AcDbLine
 10
1056.564587048675
 20
598.7739586056966
 30
0.0
 11
940.5646002454642
 21
482.7739718024868
 31
0.0
  0
LINE
  5
122
330
1F
100
AcDbEntity
  8
A-E_見え係り
  6
Continuous
 62
     6
370
     5
100
AcDbLine
 10
1056.564587048675
 20
584.6318229819656
 30
0.0
 11
940.5646002454642
 21
468.6318361787562
 31
0.0
  0
LINE
  5
123
330
1F
100
AcDbEntity
  8
A-E_見え係り
  6
Continuous
 62
     6
370
     5
100
AcDbLine
 10
1056.564587048675
 20
570.4896873582346
 30
0.0
 11
940.5646002454642
 21
454.4897005550246
 31
0.0
  0
LINE
  5
124
330
1F
100
AcDbEntity
  8
A-E_見え係り
  6
Continuous
 62
     6
370
     5
100
AcDbLine
 10
756.5645870486744
 20
396.3465581390171
 30
0.0
 11
756.5645870486744
 21
647.8465581390174
 31
0.0
  0
LINE
  5
125
330
1F
100
AcDbEntity
  8
A-E_見え係り
  6
Continuous
 62
     6
370
     5
100
AcDbLine
 10
1056.564587048675
 20
396.3465581390171
 30
0.0
 11
1056.564587048675
 21
647.8465581390174
 31
0.0
  0
LINE
  5
126
330
1F
100
AcDbEntity
  8
A-E_見え係り
  6
Continuous
 62
     6
370
     5
100
AcDbLine
 10
1106.564587048675
 20
296.3465581390171
 30
0.0
 11
1106.564587048675
 21
396.3465581390171
 31
0.0
  0
LINE
  5
127
330
1F
100
AcDbEntity
  8
A-E_見え係り
  6
Continuous
 62
     6
370
     5
100
AcDbLine
 10
706.5645870486748
 20
396.3465581390171
 30
0.0
 11
1106.564587048675
 21
396.3465581390171
 31
0.0
  0
LINE
  5
128
330
1F
100
AcDbEntity
  8
A-E_見え係り
  6
Continuous
 62
     6
370
     5
100
AcDbLine
 10
706.5645870486748
 20
296.3465581390171
 30
0.0
 11
706.5645870486748
 21
396.3465581390171
 31
0.0
  0
LINE
  5
129
330
1F
100
AcDbEntity
  8
A-E_見え係り
  6
Continuous
 62
     6
370
     5
100
AcDbLine
 10
706.5645870486748
 20
296.3465581390171
 30
0.0
 11
1106.564587048675
 21
296.3465581390171
 31
0.0
  0
LINE
  5
12A
330
1F
100
AcDbEntity
  8
A-E_見え係り
  6
Continuous
 62
     6
370
     5
100
AcDbLine
 10
906.5645870486744
 20
396.3465581390171
 30
0.0
 11
879.7696678055624
 21
296.3465581390171
 31
0.0
  0
LINE
  5
12B
330
1F
100
AcDbEntity
  8
A-E_見え係り
  6
Continuous
 62
     6
370
     5
100
AcDbLine
 10
892.8190366191006
 20
296.3465581390171
 30
0.0
 11
886.2943522123311
 21
320.697011848435
 31
0.0
  0
LINE
  5
12C
330
1F
100
AcDbEntity
  8
A-E_見え係り
  6
Continuous
 62
     6
370
     5
100
AcDbLine
 10
893.5152182351345
 20
396.3465581390171
 30
0.0
 11
900.0399026419041
 21
371.9961044295991
 31
0.0
  0
LINE
  5
12D
330
1F
100
AcDbEntity
  8
A-E_見え係り
  6
Continuous
 62
     6
370
     5
100
AcDbLine
 10
856.5645870486748
 20
396.3465581390171
 30
0.0
 11
829.7696678055618
 21
296.3465581390171
 31
0.0
  0
LINE
  5
12E
330
1F
100
AcDbEntity
  8
A-E_見え係り
  6
Continuous
 62
     6
370
     5
100
AcDbLine
 10
842.8190366191009
 20
296.3465581390171
 30
0.0
 11
836.2943522123322
 21
320.697011848435
 31
0.0
  0
LINE
  5
12F
330
1F
100
AcDbEntity
  8
A-E_見え係り
  6
Continuous
 62
     6
370
     5
100
AcDbLine
 10
843.5152182351349
 20
396.3465581390171
 30
0.0
 11
850.0399026419043
 21
371.9961044295991
 31
0.0
  0
LINE
  5
130
330
1F
100
AcDbEntity
  8
A-E_見え係り
  6
Continuous
 62
     6
370
     5
100
AcDbLine
 10
806.5645870486751
 20
396.3465581390171
 30
0.0
 11
779.7696678055604
 21
296.3465581390171
 31
0.0
  0
LINE
  5
131
330
1F
100
AcDbEntity
  8
A-E_見え係り
  6
Continuous
 62
     6
370
     5
100
AcDbLine
 10
792.819036619102
 20
296.3465581390171
 30
0.0
 11
786.2943522123308
 21
320.697011848435
 31
0.0
  0
LINE
  5
132
330
1F
100
AcDbEntity
  8
A-E_見え係り
  6
Continuous
 62
     6
370
     5
100
AcDbLine
 10
793.5152182351342
 20
396.3465581390171
 30
0.0
 11
800.0399026419038
 21
371.9961044295991
 31
0.0
  0
LINE
  5
133
330
1F
100
AcDbEntity
  8
A-E_見え係り
  6
Continuous
 62
     6
370
     5
100
AcDbLine
 10
756.5645870486744
 20
396.3465581390171
 30
0.0
 11
729.7696678055624
 21
296.3465581390171
 31
0.0
  0
LINE
  5
134
330
1F
100
AcDbEntity
  8
A-E_見え係り
  6
Continuous
 62
     6
370
     5
100
AcDbLine
 10
742.8190366191006
 20
296.3465581390171
 30
0.0
 11
736.2943522123319
 21
320.697011848435
 31
0.0
  0
LINE
  5
135
330
1F
100
AcDbEntity
  8
A-E_見え係り
  6
Continuous
 62
     6
370
     5
100
AcDbLine
 10
743.5152182351345
 20
396.3465581390171
 30
0.0
 11
750.0399026419041
 21
371.9961044295991
 31
0.0
  0
LINE
  5
136
330
1F
100
AcDbEntity
  8
A-E_見え係り
  6
Continuous
 62
     6
370
     5
100
AcDbLine
 10
956.5645870486751
 20
396.3465581390171
 30
0.0
 11
929.7696678055621
 21
296.3465581390171
 31
0.0
  0
LINE
  5
137
330
1F
100
AcDbEntity
  8
A-E_見え係り
  6
Continuous
 62
     6
370
     5
100
AcDbLine
 10
942.8190366191012
 20
296.3465581390171
 30
0.0
 11
936.2943522123308
 21
320.697011848435
 31
0.0
  0
LINE
  5
138
330
1F
100
AcDbEntity
  8
A-E_見え係り
  6
Continuous
 62
     6
370
     5
100
AcDbLine
 10
943.5152182351342
 20
396.3465581390171
 30
0.0
 11
950.0399026419046
 21
371.9961044295991
 31
0.0
  0
LINE
  5
139
330
1F
100
AcDbEntity
  8
A-E_見え係り
  6
Continuous
 62
     6
370
     5
100
AcDbLine
 10
1006.564587048675
 20
396.3465581390171
 30
0.0
 11
979.7696678055618
 21
296.3465581390171
 31
0.0
  0
LINE
  5
13A
330
1F
100
AcDbEntity
  8
A-E_見え係り
  6
Continuous
 62
     6
370
     5
100
AcDbLine
 10
992.8190366191009
 20
296.3465581390171
 30
0.0
 11
986.2943522123322
 21
320.697011848435
 31
0.0
  0
LINE
  5
13B
330
1F
100
AcDbEntity
  8
A-E_見え係り
  6
Continuous
 62
     6
370
     5
100
AcDbLine
 10
993.5152182351349
 20
396.3465581390171
 30
0.0
 11
1000.039902641904
 21
371.9961044295991
 31
0.0
  0
LINE
  5
13C
330
1F
100
AcDbEntity
  8
A-E_見え係り
  6
Continuous
 62
     6
370
     5
100
AcDbLine
 10
1056.564587048675
 20
396.3465581390171
 30
0.0
 11
1029.769667805562
 21
296.3465581390171
 31
0.0
  0
LINE
  5
13D
330
1F
100
AcDbEntity
  8
A-E_見え係り
  6
Continuous
 62
     6
370
     5
100
AcDbLine
 10
1042.819036619101
 20
296.3465581390171
 30
0.0
 11
1036.294352212332
 21
320.697011848435
 31
0.0
  0
LINE
  5
13E
330
1F
100
AcDbEntity
  8
A-E_見え係り
  6
Continuous
 62
     6
370
     5
100
AcDbLine
 10
1043.515218235134
 20
396.3465581390171
 30
0.0
 11
1050.039902641904
 21
371.9961044295991
 31
0.0
  0
LINE
  5
13F
330
1F
100
AcDbEntity
  8
A-E_見え係り
  6
Continuous
 62
     6
370
     5
100
AcDbLine
 10
1106.564587048675
 20
396.3465581390171
 30
0.0
 11
1079.769667805562
 21
296.3465581390171
 31
0.0
  0
LINE
  5
140
330
1F
100
AcDbEntity
  8
A-E_見え係り
  6
Continuous
 62
     6
370
     5
100
AcDbLine
 10
1092.819036619101
 20
296.3465581390171
 30
0.0
 11
1086.294352212332
 21
320.697011848435
 31
0.0
  0
LINE
  5
141
330
1F
100
AcDbEntity
  8
A-E_見え係り
  6
Continuous
 62
     6
370
     5
100
AcDbLine
 10
1093.515218235134
 20
396.3465581390171
 30
0.0
 11
1100.039902641905
 21
371.9961044295991
 31
0.0
  0
LINE
  5
142
330
1F
100
AcDbEntity
  8
A-1_躯体
  6
Continuous
 62
     7
370
     9
100
AcDbLine
 10
866.564554056697
 20
397.8465259718399
 30
0.0
 11
866.564554056697
 21
396.3465581390171
 31
0.0
  0
LINE
  5
143
330
1F
100
AcDbEntity
  8
A-1_躯体
  6
Continuous
 62
     7
370
     9
100
AcDbLine
 10
894.0645210647212
 20
397.8465259718399
 30
0.0
 11
894.0645210647212
 21
396.3465581390171
 31
0.0
  0
LINE
  5
144
330
1F
100
AcDbEntity
  8
A-1_躯体
  6
Continuous
 62
     7
370
     9
100
AcDbLine
 10
919.0646530326268
 20
397.8465259718399
 30
0.0
 11
919.0646530326268
 21
396.3465581390171
 31
0.0
  0
LINE
  5
145
330
1F
100
AcDbEntity
  8
A-1_躯体
  6
Continuous
 62
     7
370
     9
100
AcDbLine
 10
946.5646200406511
 20
397.8465259718399
 30
0.0
 11
946.5646200406511
 21
396.3465581390171
 31
0.0
  0
LINE
  5
146
330
1F
100
AcDbEntity
  8
A-5_建具
  6
Continuous
 62
     7
370
     9
100
AcDbLine
 10
-1998.935414600926
 20
550.7030540250446
 30
0.0
 11
-1774.8858404829
 21
159.8562150700076
 31
0.0
  0
TEXT
  5
147
330
1F
100
AcDbEntity
  8
A-5_建具
  6
Continuous
 62
     7
370
     9
100
AcDbText
 10
-1763.105586158953
 20
178.8761487216508
 30
0.0
 40
34.29000000000049
  1
脱着用埋設管
 41
1.138888888888898
  7
ＭＳ ゴシック
100
AcDbText
  0
LINE
  5
148
330
1F
100
AcDbEntity
  8
A-4_文字
  6
Continuous
 62
     7
370
     9
100
AcDbLine
 10
-1998.935414600926
 20
550.7030540250446
 30
0.0
 11
-1976.198815086667
 21
520.8819701659995
 31
0.0
  0
LINE
  5
149
330
1F
100
AcDbEntity
  8
A-4_文字
  6
Continuous
 62
     7
370
     9
100
AcDbLine
 10
-1998.935414600926
 20
550.7030540250446
 30
0.0
 11
-1984.691810376432
 21
516.0134339825019
 31
0.0
  0
LINE
  5
14A
330
1F
100
AcDbEntity
  8
A-4_文字
  6
Continuous
 62
     7
370
     9
100
AcDbLine
 10
-2480.406385571544
 20
397.8465465918251
 30
0.0
 11
-2480.406385571544
 21
1297.845957685047
 31
0.0
  0
LINE
  5
14B
330
1F
100
AcDbEntity
  8
A-4_文字
  6
Continuous
 62
     7
370
     9
100
AcDbLine
 10
-2480.406385571544
 20
397.8465465918251
 30
0.0
 11
-2485.301117779796
 21
435.0257288933432
 31
0.0
  0
LINE
  5
14C
330
1F
100
AcDbEntity
  8
A-4_文字
  6
Continuous
 62
     7
370
     9
100
AcDbLine
 10
-2480.406385571544
 20
397.8465465918251
 30
0.0
 11
-2475.511653363292
 21
435.0257288933432
 31
0.0
  0
LINE
  5
14D
330
1F
100
AcDbEntity
  8
A-4_文字
  6
Continuous
 62
     7
370
     9
100
AcDbLine
 10
-2480.406385571544
 20
1297.845957685047
 30
0.0
 11
-2485.301117779796
 21
1260.666775383529
 31
0.0
  0
LINE
  5
14E
330
1F
100
AcDbEntity
  8
A-4_文字
  6
Continuous
 62
     7
370
     9
100
AcDbLine
 10
-2480.406385571544
 20
1297.845957685047
 30
0.0
 11
-2475.511653363292
 21
1260.666775383529
 31
0.0
  0
TEXT
  5
14F
330
1F
100
AcDbEntity
  8
A-4_文字
  6
Continuous
 62
     2
370
   211
100
AcDbText
 10
-2497.866385571544
 20
799.0962521384363
 30
0.0
 40
45.72
  1
900
 50
90.0
 41
1.083333333333333
  7
ＭＳ ゴシック
100
AcDbText
  0
LINE
  5
150
330
1F
100
AcDbEntity
  8
A-4_文字
  6
Continuous
 62
     7
370
     9
100
AcDbLine
 10
-2348.307545539826
 20
397.8465465918251
 30
0.0
 11
-2348.307545539826
 21
1297.845957685047
 31
0.0
  0
LINE
  5
151
330
1F
100
AcDbEntity
  8
A-4_文字
  6
Continuous
 62
     7
370
     9
100
AcDbLine
 10
-2348.307545539826
 20
647.8465465918254
 30
0.0
 11
-2353.202277748078
 21
685.0257288933435
 31
0.0
  0
LINE
  5
152
330
1F
100
AcDbEntity
  8
A-4_文字
  6
Continuous
 62
     7
370
     9
100
AcDbLine
 10
-2348.307545539826
 20
647.8465465918254
 30
0.0
 11
-2343.412813331573
 21
685.0257288933435
 31
0.0
  0
LINE
  5
153
330
1F
100
AcDbEntity
  8
A-4_文字
  6
Continuous
 62
     7
370
     9
100
AcDbLine
 10
-2348.307545539826
 20
1297.845957685047
 30
0.0
 11
-2353.202277748078
 21
1260.666775383529
 31
0.0
  0
LINE
  5
154
330
1F
100
AcDbEntity
  8
A-4_文字
  6
Continuous
 62
     7
370
     9
100
AcDbLine
 10
-2348.307545539826
 20
1297.845957685047
 30
0.0
 11
-2343.412813331573
 21
1260.666775383529
 31
0.0
  0
TEXT
  5
155
330
1F
100
AcDbEntity
  8
A-4_文字
  6
Continuous
 62
     2
370
   211
100
AcDbText
 10
-2365.767545539826
 20
924.0962521384361
 30
0.0
 40
45.72
  1
650
 50
90.0
 41
1.083333333333335
  7
ＭＳ ゴシック
100
AcDbText
  0
LINE
  5
156
330
1F
100
AcDbEntity
  8
A-4_文字
  6
Continuous
 62
     7
370
     9
100
AcDbLine
 10
-2348.307545539826
 20
397.8465465918251
 30
0.0
 11
-2353.202277748078
 21
435.0257288933432
 31
0.0
  0
LINE
  5
157
330
1F
100
AcDbEntity
  8
A-4_文字
  6
Continuous
 62
     7
370
     9
100
AcDbLine
 10
-2348.307545539826
 20
397.8465465918251
 30
0.0
 11
-2343.412813331573
 21
435.0257288933432
 31
0.0
  0
LINE
  5
158
330
1F
100
AcDbEntity
  8
A-4_文字
  6
Continuous
 62
     7
370
     9
100
AcDbLine
 10
-2348.307545539826
 20
647.846571143633
 30
0.0
 11
-2353.202277748078
 21
610.667388842115
 31
0.0
  0
LINE
  5
159
330
1F
100
AcDbEntity
  8
A-4_文字
  6
Continuous
 62
     7
370
     9
100
AcDbLine
 10
-2348.307545539826
 20
647.846571143633
 30
0.0
 11
-2343.412813331573
 21
610.667388842115
 31
0.0
  0
TEXT
  5
15A
330
1F
100
AcDbEntity
  8
A-4_文字
  6
Continuous
 62
     2
370
   211
100
AcDbText
 10
-2365.767545539826
 20
474.0965588677288
 30
0.0
 40
45.72
  1
250
 50
90.0
 41
1.083333333333333
  7
ＭＳ ゴシック
100
AcDbText
  0
LINE
  5
15B
330
1F
100
AcDbEntity
  8
A-4_文字
  6
Continuous
 62
     7
370
     9
100
AcDbLine
 10
-2484.906385571544
 20
1297.845957685047
 30
0.0
 11
-1928.408044479535
 21
1297.845957685047
 31
0.0
  0
LINE
  5
15C
330
1F
100
AcDbEntity
  8
A-E_見え係り
  6
Continuous
 62
     6
370
     5
100
AcDbLine
 10
-2070.435328821786
 20
647.8465465918254
 30
0.0
 11
-2415.844009948913
 21
647.8465465918254
 31
0.0
  0
LINE
  5
15D
330
1F
100
AcDbEntity
  8
A-4_文字
  6
Continuous
 62
     7
370
     9
100
AcDbLine
 10
-2348.307545539826
 20
397.8465465918251
 30
0.0
 11
-2348.307545539826
 21
396.3465581390171
 31
0.0
  0
LINE
  5
15E
330
1F
100
AcDbEntity
  8
A-4_文字
  6
Continuous
 62
     7
370
     9
100
AcDbLine
 10
-2348.307545539826
 20
396.3465581390171
 30
0.0
 11
-2353.202277748078
 21
359.1673758374992
 31
0.0
  0
LINE
  5
15F
330
1F
100
AcDbEntity
  8
A-4_文字
  6
Continuous
 62
     7
370
     9
100
AcDbLine
 10
-2348.307545539826
 20
396.3465581390171
 30
0.0
 11
-2343.412813331573
 21
359.1673758374992
 31
0.0
  0
LINE
  5
160
330
1F
100
AcDbEntity
  8
A-4_文字
  6
Continuous
 62
     7
370
     9
100
AcDbLine
 10
-2352.807545539826
 20
396.3465581390171
 30
0.0
 11
-2262.935427797715
 21
396.3465581390171
 31
0.0
  0
LINE
  5
161
330
1F
100
AcDbEntity
  8
A-4_文字
  6
Continuous
 62
     7
370
     9
100
AcDbLine
 10
-2348.307545539826
 20
396.3465581390171
 30
0.0
 11
-2348.307545539826
 21
265.5914079809253
 31
0.0
  0
TEXT
  5
162
330
1F
100
AcDbEntity
  8
A-4_文字
  6
Continuous
 62
     2
370
   211
100
AcDbText
 10
-2365.767545539826
 20
275.3000368225328
 30
0.0
 40
45.72
  1
1.5
 50
90.0
 41
1.083333333333333
  7
ＭＳ ゴシック
100
AcDbText
  0
LINE
  5
163
330
1F
100
AcDbEntity
  8
A-4_文字
  6
Continuous
 62
     7
370
     9
100
AcDbLine
 10
-2484.906385571544
 20
397.8465465918251
 30
0.0
 11
-2086.888759680024
 21
397.8465465918251
 31
0.0
  0
LINE
  5
164
330
1F
100
AcDbEntity
  8
A-4_文字
  6
Continuous
 62
     7
370
     9
100
AcDbLine
 10
-1670.215061010903
 20
296.3465581390171
 30
0.0
 11
-1670.215061010903
 21
396.3465581390171
 31
0.0
  0
LINE
  5
165
330
1F
100
AcDbEntity
  8
A-4_文字
  6
Continuous
 62
     7
370
     9
100
AcDbLine
 10
-1670.215061010903
 20
296.3465581390171
 30
0.0
 11
-1675.109793219155
 21
333.525740440535
 31
0.0
  0
LINE
  5
166
330
1F
100
AcDbEntity
  8
A-4_文字
  6
Continuous
 62
     7
370
     9
100
AcDbLine
 10
-1670.215061010903
 20
296.3465581390171
 30
0.0
 11
-1665.320328802651
 21
333.525740440535
 31
0.0
  0
LINE
  5
167
330
1F
100
AcDbEntity
  8
A-4_文字
  6
Continuous
 62
     7
370
     9
100
AcDbLine
 10
-1670.215061010903
 20
396.3465581390171
 30
0.0
 11
-1675.109793219155
 21
359.1673758374992
 31
0.0
  0
LINE
  5
168
330
1F
100
AcDbEntity
  8
A-4_文字
  6
Continuous
 62
     7
370
     9
100
AcDbLine
 10
-1670.215061010903
 20
396.3465581390171
 30
0.0
 11
-1665.320328802651
 21
359.1673758374992
 31
0.0
  0
LINE
  5
169
330
1F
100
AcDbEntity
  8
A-4_文字
  6
Continuous
 62
     7
370
     9
100
AcDbLine
 10
-1665.715061010903
 20
296.3465581390171
 30
0.0
 11
-1802.935427797715
 21
296.3465581390171
 31
0.0
  0
TEXT
  5
16A
330
1F
100
AcDbEntity
  8
A-4_文字
  6
Continuous
 62
     2
370
   211
100
AcDbText
 10
-1687.675061010903
 20
297.5965581390171
 30
0.0
 40
45.72
  1
100
 50
90.0
 41
1.083333333333333
  7
ＭＳ ゴシック
100
AcDbText
  0
LINE
  5
16B
330
1F
100
AcDbEntity
  8
A-4_文字
  6
Continuous
 62
     7
370
     9
100
AcDbLine
 10
-1644.809574944327
 20
1237.344910803746
 30
0.0
 11
-1621.980937992316
 21
1207.594224510599
 31
0.0
  0
LINE
  5
16C
330
1F
100
AcDbEntity
  8
A-4_文字
  6
Continuous
 62
     7
370
     9
100
AcDbLine
 10
-1644.809574944327
 20
1237.344910803746
 30
0.0
 11
-1630.45884915094
 21
1202.699468546459
 31
0.0
  0
LINE
  5
16D
330
1F
100
AcDbEntity
  8
A-5_建具
  6
Continuous
 62
     7
370
     9
100
AcDbLine
 10
-1644.809574944327
 20
1237.344910803746
 30
0.0
 11
-1561.820907932777
 21
1093.605253249601
 31
0.0
  0
TEXT
  5
16E
330
1F
100
AcDbEntity
  8
A-5_建具
  6
Continuous
 62
     7
370
     9
100
AcDbText
 10
-1550.166271557393
 20
1111.666471947286
 30
0.0
 40
34.29
  1
本体：φ60.5×2.8
 41
1.156862745098039
  7
ＭＳ ゴシック
100
AcDbText
  0
TEXT
  5
16F
330
1F
100
AcDbEntity
  8
A-5_建具
  6
Continuous
 62
     7
370
     9
100
AcDbText
 10
-1550.166271557393
 20
1043.846140978018
 30
0.0
 40
34.29
  1
STK　溶融亜鉛めっき＋焼付塗装
 41
1.155172413793103
  7
ＭＳ ゴシック
100
AcDbText
  0
LINE
  5
170
330
1F
100
AcDbEntity
  8
A-5_建具
  6
Continuous
 62
     7
370
     9
100
AcDbLine
 10
-1561.820907932777
 20
1093.605253249601
 30
0.0
 11
-797.8369549879914
 21
1093.605253249601
 31
0.0
  0
LINE
  5
171
330
1F
100
AcDbEntity
  8
A-4_文字
  6
Continuous
 62
     7
370
     9
100
AcDbLine
 10
-608.1968618354598
 20
934.8444056179784
 30
0.0
 11
-608.1968618354598
 21
900.8445417246877
 31
0.0
  0
LINE
  5
172
330
1F
100
AcDbEntity
  8
A-4_文字
  6
Continuous
 62
     7
370
     9
100
AcDbLine
 10
-608.1968618354598
 20
934.8444056179784
 30
0.0
 11
-613.0915940437119
 21
972.0235879194967
 31
0.0
  0
LINE
  5
173
330
1F
100
AcDbEntity
  8
A-4_文字
  6
Continuous
 62
     7
370
     9
100
AcDbLine
 10
-608.1968618354598
 20
934.8444056179784
 30
0.0
 11
-603.302129627208
 21
972.0235879194967
 31
0.0
  0
LINE
  5
174
330
1F
100
AcDbEntity
  8
A-4_文字
  6
Continuous
 62
     7
370
     9
100
AcDbLine
 10
-608.1968618354598
 20
900.8445417246877
 30
0.0
 11
-613.0915940437119
 21
863.6653594231697
 31
0.0
  0
LINE
  5
175
330
1F
100
AcDbEntity
  8
A-4_文字
  6
Continuous
 62
     7
370
     9
100
AcDbLine
 10
-608.1968618354598
 20
900.8445417246877
 30
0.0
 11
-603.302129627208
 21
863.6653594231697
 31
0.0
  0
LINE
  5
176
330
1F
100
AcDbEntity
  8
A-4_文字
  6
Continuous
 62
     7
370
     9
100
AcDbLine
 10
-608.1968681625651
 20
900.8444936655502
 30
0.0
 11
-608.1968681625651
 21
857.8242513466016
 31
0.0
  0
LINE
  5
177
330
1F
100
AcDbEntity
  8
A-4_文字
  6
Continuous
 62
     7
370
     9
100
AcDbLine
 10
-608.1968618354598
 20
934.8444056179784
 30
0.0
 11
-608.1968618354598
 21
1119.119759620834
 31
0.0
  0
TEXT
  5
178
330
1F
100
AcDbEntity
  8
A-4_文字
  6
Continuous
 62
     2
370
     9
100
AcDbText
 10
-624.9437018669809
 20
986.714617776862
 30
0.0
 40
45.72000000000065
  1
φ34
 50
90.0
 41
1.093749999999985
  7
ＭＳ ゴシック
100
AcDbText
  0
LINE
  5
179
330
1F
100
AcDbEntity
  8
A-1_躯体
  6
Continuous
 62
     3
370
     9
100
AcDbLine
 10
845.3145738518828
 20
650.1465465918251
 30
0.0
 11
876.3145738518841
 21
650.1465465918251
 31
0.0
  0
ARC
  5
17A
330
1F
100
AcDbEntity
  8
A-1_躯体
  6
Continuous
 62
     3
370
     9
100
AcDbCircle
 10
845.3145738518828
 20
648.6465465918247
 30
0.0
 40
1.5
100
AcDbArc
 50
90.0
 51
180.0
  0
LINE
  5
17B
330
1F
100
AcDbEntity
  8
A-2_仕上
  6
Continuous
 62
     4
370
     9
100
AcDbLine
 10
873.1205358109145
 20
720.0274814604229
 30
0.0
 11
869.3031580193497
 21
723.8446661765993
 31
0.0
  0
LINE
  5
17C
330
1F
100
AcDbEntity
  8
A-2_仕上
  6
Continuous
 62
     4
370
     9
100
AcDbLine
 10
868.1353428354402
 20
732.1860493238499
 30
0.0
 11
870.4005301390481
 21
731.786627598277
 31
0.0
  0
ARC
  5
17D
330
1F
100
AcDbEntity
  8
A-2_仕上
  6
Continuous
 62
     4
370
     9
100
AcDbCircle
 10
861.90556543838
 20
666.3330476489035
 30
0.0
 40
3.000000038662472
100
AcDbArc
 50
295.0017242431641
 51
349.9996490478515
  0
LINE
  5
17E
330
1F
100
AcDbEntity
  8
A-2_仕上
  6
Continuous
 62
     4
370
     9
100
AcDbLine
 10
863.1892134837909
 20
663.6215447579808
 30
0.0
 11
858.2805377645951
 21
661.3324259393584
 31
0.0
  0
ARC
  5
17F
330
1F
100
AcDbEntity
  8
A-2_仕上
  6
Continuous
 62
     4
370
     9
100
AcDbCircle
 10
858.5763744642298
 20
660.6980678117902
 30
0.0
 40
0.7000000090212437
100
AcDbArc
 50
115.0022735595703
 51
170.00244140625
  0
ARC
  5
180
330
1F
100
AcDbEntity
  8
A-2_仕上
  6
Continuous
 62
     4
370
     9
100
AcDbCircle
 10
870.999137988394
 20
717.9061435193289
 30
0.0
 40
3.000000038662472
100
AcDbArc
 50
349.9995574951172
 51
44.99919128417969
  0
ARC
  5
181
330
1F
100
AcDbEntity
  8
A-2_仕上
  6
Continuous
 62
     4
370
     9
100
AcDbCircle
 10
869.7982350253375
 20
724.339723941588
 30
0.0
 40
0.7000000090212437
100
AcDbArc
 50
169.9979858398437
 51
224.9988861083984
  0
LINE
  5
182
330
1F
100
AcDbEntity
  8
A-2_仕上
  6
Continuous
 62
     4
370
     9
100
AcDbLine
 10
853.6696824412792
 20
650.1465426327878
 30
0.0
 11
866.9346101886597
 21
725.3763471786705
 31
0.0
  0
LINE
  5
183
330
1F
100
AcDbEntity
  8
A-2_仕上
  6
Continuous
 62
     4
370
     9
100
AcDbLine
 10
868.1353428354402
 20
732.1860493238499
 30
0.0
 11
866.9346101838353
 21
725.3763471513098
 31
0.0
  0
LINE
  5
184
330
1F
100
AcDbEntity
  8
A-2_仕上
  6
Continuous
 62
     4
370
     9
100
AcDbLine
 10
856.00653584653
 20
650.1465426327878
 30
0.0
 11
870.4005301390481
 21
731.786627598277
 31
0.0
  0
LINE
  5
185
330
1F
100
AcDbEntity
  8
A-2_仕上
  6
Continuous
 62
     4
370
     9
100
AcDbLine
 10
864.8600122692
 20
665.8120803003426
 30
0.0
 11
866.475703646646
 21
674.9752554408026
 31
0.0
  0
LINE
  5
186
330
1F
100
AcDbEntity
  8
A-2_仕上
  6
Continuous
 62
     4
370
     9
100
AcDbLine
 10
873.9535824105548
 20
717.3851717278485
 30
0.0
 11
866.475703646212
 21
674.9752554383401
 31
0.0
  0
CIRCLE
  5
187
330
1F
100
AcDbEntity
  8
A-E_見え係り
  6
Continuous
 62
     4
370
     9
100
AcDbCircle
 10
860.2145738518828
 20
642.3465465918254
 30
0.0
 40
2.5
  0
LINE
  5
188
330
1F
100
AcDbEntity
  8
A-1_躯体
  6
Continuous
 62
     3
370
     9
100
AcDbLine
 10
843.8145738518841
 20
631.1465465918253
 30
0.0
 11
843.8145738518841
 21
648.6465465918247
 31
0.0
  0
ARC
  5
189
330
1F
100
AcDbEntity
  8
A-1_躯体
  6
Continuous
 62
     3
370
     9
100
AcDbCircle
 10
845.3145738518828
 20
631.1465465918253
 30
0.0
 40
1.5
100
AcDbArc
 50
180.0
 51
270.0
  0
LINE
  5
18A
330
1F
100
AcDbEntity
  8
A-1_躯体
  6
Continuous
 62
     3
370
     9
100
AcDbLine
 10
845.3145738518828
 20
629.646546591825
 30
0.0
 11
872.5645738518841
 21
629.646546591825
 31
0.0
  0
LINE
  5
18B
330
1F
100
AcDbEntity
  8
A-1_躯体
  6
Continuous
 62
     3
370
     9
100
AcDbLine
 10
-1971.685414600925
 20
650.1465465918251
 30
0.0
 11
-2002.685414600926
 21
650.1465465918251
 31
0.0
  0
ELLIPSE
  5
18C
330
1F
100
AcDbEntity
  8
A-1_躯体
  6
Continuous
 62
     3
370
     9
100
AcDbEllipse
 10
-1971.685414600925
 20
648.6465465918247
 30
0.0
 11
-1.060660171779821
 21
-1.060660171779821
 31
0.0
210
0.0
220
0.0
230
1.0
 40
0.9999999999999999
 41
2.356194490192345
 42
3.926990816987241
  0
LINE
  5
18D
330
1F
100
AcDbEntity
  8
A-1_躯体
  6
Continuous
 62
     3
370
     9
100
AcDbLine
 10
-1970.185414600926
 20
631.1465465918253
 30
0.0
 11
-1970.185414600926
 21
648.6465465918247
 31
0.0
  0
ELLIPSE
  5
18E
330
1F
100
AcDbEntity
  8
A-1_躯体
  6
Continuous
 62
     3
370
     9
100
AcDbEllipse
 10
-1971.685414600925
 20
631.1465465918253
 30
0.0
 11
-1.060660171779821
 21
-1.060660171779821
 31
0.0
210
0.0
220
0.0
230
1.0
 40
0.9999999999999999
 41
0.7853981633974483
 42
2.356194490192345
  0
CIRCLE
  5
18F
330
1F
100
AcDbEntity
  8
A-E_見え係り
  6
Continuous
 62
     4
370
     9
100
AcDbCircle
 10
-1986.585414600925
 20
642.3465465918254
 30
0.0
 40
2.5
  0
LINE
  5
190
330
1F
100
AcDbEntity
  8
A-2_仕上
  6
Continuous
 62
     4
370
     9
100
AcDbLine
 10
-1999.49137655337
 20
720.0274814604229
 30
0.0
 11
-1995.673998761805
 21
723.8446661765993
 31
0.0
  0
LINE
  5
191
330
1F
100
AcDbEntity
  8
A-2_仕上
  6
Continuous
 62
     4
370
     9
100
AcDbLine
 10
-1994.506183577895
 20
732.1860493238499
 30
0.0
 11
-1996.771370881504
 21
731.786627598277
 31
0.0
  0
ARC
  5
192
330
1F
100
AcDbEntity
  8
A-2_仕上
  6
Continuous
 62
     4
370
     9
100
AcDbCircle
 10
-1988.276406180835
 20
666.3330476489035
 30
0.0
 40
3.000000038662472
100
AcDbArc
 50
190.0003509521485
 51
244.9982757568359
  0
LINE
  5
193
330
1F
100
AcDbEntity
  8
A-2_仕上
  6
Continuous
 62
     4
370
     9
100
AcDbLine
 10
-1989.560054226246
 20
663.6215447579808
 30
0.0
 11
-1984.65137850705
 21
661.3324259393584
 31
0.0
  0
ARC
  5
194
330
1F
100
AcDbEntity
  8
A-2_仕上
  6
Continuous
 62
     4
370
     9
100
AcDbCircle
 10
-1984.947215206685
 20
660.6980678117902
 30
0.0
 40
0.7000000090212437
100
AcDbArc
 50
9.997558593750014
 51
64.9977264404297
  0
ARC
  5
195
330
1F
100
AcDbEntity
  8
A-2_仕上
  6
Continuous
 62
     4
370
     9
100
AcDbCircle
 10
-1997.369978730849
 20
717.9061435193289
 30
0.0
 40
3.000000038662472
100
AcDbArc
 50
135.0008087158203
 51
190.0004425048828
  0
ARC
  5
196
330
1F
100
AcDbEntity
  8
A-2_仕上
  6
Continuous
 62
     4
370
     9
100
AcDbCircle
 10
-1996.169075767792
 20
724.339723941588
 30
0.0
 40
0.7000000090212437
100
AcDbArc
 50
315.0011138916016
 51
10.00201416015627
  0
LINE
  5
197
330
1F
100
AcDbEntity
  8
A-2_仕上
  6
Continuous
 62
     4
370
     9
100
AcDbLine
 10
-1991.230853011655
 20
665.8120803003426
 30
0.0
 11
-1992.846544367119
 21
674.9752553161322
 31
0.0
  0
LINE
  5
198
330
1F
100
AcDbEntity
  8
A-2_仕上
  6
Continuous
 62
     4
370
     9
100
AcDbLine
 10
-2000.32442315301
 20
717.3851717278485
 30
0.0
 11
-1992.846544404892
 21
674.9752555303565
 31
0.0
  0
LINE
  5
199
330
1F
100
AcDbEntity
  8
A-2_仕上
  6
Continuous
 62
     4
370
     9
100
AcDbLine
 10
-1980.040523183734
 20
650.1465426327878
 30
0.0
 11
-1993.305450950208
 21
725.3763472869547
 31
0.0
  0
LINE
  5
19A
330
1F
100
AcDbEntity
  8
A-2_仕上
  6
Continuous
 62
     4
370
     9
100
AcDbLine
 10
-1994.506183577895
 20
732.1860493238499
 30
0.0
 11
-1993.305450959067
 21
725.3763473371929
 31
0.0
  0
LINE
  5
19B
330
1F
100
AcDbEntity
  8
A-2_仕上
  6
Continuous
 62
     4
370
     9
100
AcDbLine
 10
-1982.377376588985
 20
650.1465426327878
 30
0.0
 11
-1996.771370881504
 21
731.786627598277
 31
0.0
  0
LINE
  5
19C
330
1F
100
AcDbEntity
  8
A-1_躯体
  6
Continuous
 62
     3
370
     9
100
AcDbLine
 10
-1971.685414600925
 20
629.646546591825
 30
0.0
 11
-1998.935414600926
 21
629.646546591825
 31
0.0
  0
LINE
  5
19D
330
1F
100
AcDbEntity
  8
A-E_見え係り
  6
Continuous
 62
     6
370
     5
100
AcDbLine
 10
-1970.185414600926
 20
647.8465465918254
 30
0.0
 11
843.814573851884
 21
647.8465465918254
 31
0.0
  0
LINE
  5
19E
330
1F
100
AcDbEntity
  8
A-4_文字
  6
Continuous
 62
     7
370
     9
100
AcDbLine
 10
-2002.68535274097
 20
781.559944400663
 30
0.0
 11
-2063.185502854461
 21
781.559944400663
 31
0.0
  0
LINE
  5
19F
330
1F
100
AcDbEntity
  8
A-4_文字
  6
Continuous
 62
     7
370
     9
100
AcDbLine
 10
-2002.68535274097
 20
781.559944400663
 30
0.0
 11
-1965.506170439452
 21
786.4546766089151
 31
0.0
  0
LINE
  5
1A0
330
1F
100
AcDbEntity
  8
A-4_文字
  6
Continuous
 62
     7
370
     9
100
AcDbLine
 10
-2002.68535274097
 20
781.559944400663
 30
0.0
 11
-1965.506170439452
 21
776.665212192411
 31
0.0
  0
LINE
  5
1A1
330
1F
100
AcDbEntity
  8
A-4_文字
  6
Continuous
 62
     7
370
     9
100
AcDbLine
 10
-2063.185502854461
 20
781.559944400663
 30
0.0
 11
-2100.364685155979
 21
786.4546766089151
 31
0.0
  0
LINE
  5
1A2
330
1F
100
AcDbEntity
  8
A-4_文字
  6
Continuous
 62
     7
370
     9
100
AcDbLine
 10
-2063.185502854461
 20
781.559944400663
 30
0.0
 11
-2100.364685155979
 21
776.665212192411
 31
0.0
  0
TEXT
  5
1A3
330
1F
100
AcDbEntity
  8
A-4_文字
  6
Continuous
 62
     2
370
     9
100
AcDbText
 10
-1952.869923912158
 20
797.509306102791
 30
0.0
 40
45.71999999999903
  1
φ60.5
 41
1.10416666666669
  7
ＭＳ ゴシック
100
AcDbText
  0
LINE
  5
1A4
330
1F
100
AcDbEntity
  8
A-4_文字
  6
Continuous
 62
     7
370
     9
100
AcDbLine
 10
-2002.68535274097
 20
781.559944400663
 30
0.0
 11
-1742.090668593009
 21
781.559944400663
 31
0.0
  0
LINE
  5
1A5
330
1F
100
AcDbEntity
  8
A-4_文字
  6
Continuous
 62
     7
370
     9
100
AcDbLine
 10
-2063.185502854461
 20
781.559944400663
 30
0.0
 11
-2109.169076788438
 21
781.559944400663
 31
0.0
  0
LINE
  5
1A6
330
1F
100
AcDbEntity
  8
D-E_見え係り
  6
Continuous
 62
     6
370
     5
100
AcDbLine
 10
2672.473334003666
 20
-2604.532558515842
 30
0.0
 11
2674.18124142357
 21
-2604.532558515842
 31
0.0
  0
TEXT
  5
1A7
330
1F
100
AcDbEntity
  8
A-5_建具
  6
Continuous
 62
     7
370
     9
100
AcDbText
 10
-1763.105586158953
 20
45.66005058298553
 30
0.0
 40
34.29000000000008
  1
埋設管本体：SUS
 41
1.155555555555553
  7
ＭＳ ゴシック
100
AcDbText
  0
TEXT
  5
1A8
330
1F
100
AcDbEntity
  8
A-5_建具
  6
Continuous
 62
     7
370
     9
100
AcDbText
 10
-1763.105586158953
 20
103.0784902992948
 30
0.0
 40
34.28999999999968
  1
蓋：SPHC　溶融亜鉛めっき
 41
1.152777777777789
  7
ＭＳ ゴシック
100
AcDbText
  0
LINE
  5
1A9
330
1F
100
AcDbEntity
  8
A-5_建具
  6
Continuous
 62
     7
370
     9
100
AcDbLine
 10
-1134.478533790248
 20
159.8562150700076
 30
0.0
 11
-1774.8858404829
 21
159.8562150700076
 31
0.0
  0
LINE
  5
1AA
330
1F
100
AcDbEntity
  8
A-6_間仕切
  6
Continuous
 62
     7
370
     9
100
AcDbLine
 10
858.8238608930897
 20
689.0826658695718
 30
0.0
 11
858.8238608930897
 21
707.0826510231825
 31
0.0
  0
LINE
  5
1AB
330
1F
100
AcDbEntity
  8
A-6_間仕切
  6
Continuous
 62
     7
370
     9
100
AcDbLine
 10
860.358789521224
 20
688.0826873143566
 30
0.0
 11
859.823913680251
 21
688.0826873143566
 31
0.0
  0
LINE
  5
1AC
330
1F
100
AcDbEntity
  8
A-6_間仕切
  6
Continuous
 62
     7
370
     9
100
AcDbLine
 10
859.823913680251
 20
708.0827038103445
 30
0.0
 11
863.8852782602044
 21
708.0827038103445
 31
0.0
  0
LINE
  5
1AD
330
1F
100
AcDbEntity
  8
A-A_インテリア
  6
Continuous
 62
     2
370
     9
100
AcDbLine
 10
965.0739763650064
 20
696.8327038103445
 30
0.0
 11
965.0739763650064
 21
679.0825833896309
 31
0.0
  0
LINE
  5
1AE
330
1F
100
AcDbEntity
  8
A-A_インテリア
  6
Continuous
 62
     2
370
     9
100
AcDbLine
 10
960.5738872866698
 20
696.8327038103445
 30
0.0
 11
960.5738872866698
 21
679.0825833896309
 31
0.0
  0
LINE
  5
1AF
330
1F
100
AcDbEntity
  8
A-A_インテリア
  6
Continuous
 62
     2
370
     9
100
AcDbLine
 10
960.074157820876
 20
679.0825833896309
 30
0.0
 11
960.074157820876
 21
655.5826790663622
 31
0.0
  0
LINE
  5
1B0
330
1F
100
AcDbEntity
  8
A-A_インテリア
  6
Continuous
 62
     2
370
     9
100
AcDbLine
 10
957.8240390497615
 20
679.0825833896309
 30
0.0
 11
967.8239730658089
 21
679.0825833896309
 31
0.0
  0
LINE
  5
1B1
330
1F
100
AcDbEntity
  8
A-A_インテリア
  6
Continuous
 62
     2
370
     9
100
AcDbLine
 10
965.5740027585877
 20
679.0825833896309
 30
0.0
 11
965.5740027585877
 21
655.5826790663622
 31
0.0
  0
LINE
  5
1B2
330
1F
100
AcDbEntity
  8
A-A_インテリア
  6
Continuous
 62
     2
370
     9
100
AcDbLine
 10
967.8239730658089
 20
679.0825833896309
 30
0.0
 11
967.8239730658089
 21
655.5826790663622
 31
0.0
  0
LINE
  5
1B3
330
1F
100
AcDbEntity
  8
A-A_インテリア
  6
Continuous
 62
     2
370
     9
100
AcDbLine
 10
957.8240390497615
 20
679.0825833896309
 30
0.0
 11
957.8240390497615
 21
655.5826790663622
 31
0.0
  0
LINE
  5
1B4
330
1F
100
AcDbEntity
  8
A-A_インテリア
  6
Continuous
 62
     2
370
     9
100
AcDbLine
 10
957.8240390497615
 20
655.5826790663622
 30
0.0
 11
967.8239730658089
 21
655.5826790663622
 31
0.0
  0
ARC
  5
1B5
330
1F
100
AcDbEntity
  8
A-A_インテリア
  6
Continuous
 62
     2
370
     9
100
AcDbCircle
 10
962.8240060577855
 20
696.8327038103445
 30
0.0
 40
2.250000318965396
100
AcDbArc
 50
0.0000000000000064
 51
180.0
  0
LINE
  5
1B6
330
1F
100
AcDbEntity
  8
A-6_間仕切
  6
JWW_CENTER1
 62
     7
370
     9
100
AcDbLine
 10
962.8240060577855
 20
702.5988929731401
 30
0.0
 11
962.8240060577855
 21
693.5365826770043
 31
0.0
  0
LINE
  5
1B7
330
1F
100
AcDbEntity
  8
A-6_間仕切
  6
Continuous
 62
     7
370
     9
100
AcDbLine
 10
970.8238344995085
 20
703.0826625703742
 30
0.0
 11
970.8238344995085
 21
693.08265432238
 31
0.0
  0
ARC
  5
1B8
330
1F
100
AcDbEntity
  8
A-6_間仕切
  6
Continuous
 62
     7
370
     9
100
AcDbCircle
 10
969.8239301762397
 20
703.0826625703742
 30
0.0
 40
1.000000012887491
100
AcDbArc
 50
0.0000000000000127
 51
90.00000000000001
  0
ARC
  5
1B9
330
1F
100
AcDbEntity
  8
A-6_間仕切
  6
Continuous
 62
     7
370
     9
100
AcDbCircle
 10
969.8239301762397
 20
693.08265432238
 30
0.0
 40
1.000000012887491
100
AcDbArc
 50
270.0
 51
0.0
  0
ARC
  5
1BA
330
1F
100
AcDbEntity
  8
A-6_間仕切
  6
Continuous
 62
     7
370
     9
100
AcDbCircle
 10
962.8240060577855
 20
698.0826213304035
 30
0.0
 40
3.500000045106217
100
AcDbArc
 50
310.0047302246094
 51
229.9922332763672
  0
ARC
  5
1BB
330
1F
100
AcDbEntity
  8
A-6_間仕切
  6
Continuous
 62
     7
370
     9
100
AcDbCircle
 10
859.823913680251
 20
689.0826658695718
 30
0.0
 40
1.000000012887491
100
AcDbArc
 50
180.0
 51
270.0
  0
ARC
  5
1BC
330
1F
100
AcDbEntity
  8
A-6_間仕切
  6
Continuous
 62
     7
370
     9
100
AcDbCircle
 10
859.823913680251
 20
707.0826510231825
 30
0.0
 40
1.000000012887491
100
AcDbArc
 50
90.0
 51
180.0
  0
LINE
  5
1BD
330
1F
100
AcDbEntity
  8
A-6_間仕切
  6
Continuous
 62
     7
370
     9
100
AcDbLine
 10
952.8239235778443
 20
704.0826411255897
 30
0.0
 11
952.8239235778443
 21
692.0826757671648
 31
0.0
  0
LINE
  5
1BE
330
1F
100
AcDbEntity
  8
A-6_間仕切
  6
Continuous
 62
     7
370
     9
100
AcDbLine
 10
969.8239301762397
 20
692.0826757671648
 30
0.0
 11
965.0739763650064
 21
692.0826757671648
 31
0.0
  0
LINE
  5
1BF
330
1F
100
AcDbEntity
  8
A-6_間仕切
  6
Continuous
 62
     7
370
     9
100
AcDbLine
 10
876.3145119985152
 20
704.0826411255897
 30
0.0
 11
871.6080292992058
 21
704.0826411255897
 31
0.0
  0
LINE
  5
1C0
330
1F
100
AcDbEntity
  8
A-6_間仕切
  6
Continuous
 62
     7
370
     9
100
AcDbLine
 10
876.3145119985152
 20
692.0826757671648
 30
0.0
 11
869.492149477278
 21
692.0826757671648
 31
0.0
  0
LINE
  5
1C1
330
1F
100
AcDbEntity
  8
A-6_間仕切
  6
JWW_DASHED1
 62
     7
370
     9
100
AcDbLine
 10
936.8146621120068
 20
704.0826411255897
 30
0.0
 11
876.3145119985152
 21
704.0826411255897
 31
0.0
  0
LINE
  5
1C2
330
1F
100
AcDbEntity
  8
A-6_間仕切
  6
JWW_DASHED1
 62
     7
370
     9
100
AcDbLine
 10
936.8146621120068
 20
692.0826757671648
 30
0.0
 11
876.3145119985152
 21
692.0826757671648
 31
0.0
  0
LINE
  5
1C3
330
1F
100
AcDbEntity
  8
A-6_間仕切
  6
Continuous
 62
     7
370
     9
100
AcDbLine
 10
960.5738872866698
 20
692.0826757671648
 30
0.0
 11
936.8146621120068
 21
692.0826757671648
 31
0.0
  0
LINE
  5
1C4
330
1F
100
AcDbEntity
  8
A-6_間仕切
  6
Continuous
 62
     7
370
     9
100
AcDbLine
 10
969.8239301762397
 20
704.0826411255897
 30
0.0
 11
936.8146621120068
 21
704.0826411255897
 31
0.0
  0
LINE
  5
1C5
330
1F
100
AcDbEntity
  8
A-0_通り芯
  6
JWW_CENTER2
 62
     7
370
     9
100
AcDbLine
 10
854.7020865132515
 20
698.0823678420023
 30
0.0
 11
973.306773353412
 21
698.0823678420023
 31
0.0
  0
LINE
  5
1C6
330
1F
100
AcDbEntity
  8
D-4_文字
  6
Continuous
 62
     7
370
     9
100
AcDbLine
 10
2157.052972254989
 20
-671.9127255876986
 30
0.0
 11
2062.639305197014
 21
-671.9127255876986
 31
0.0
  0
LINE
  5
1C7
330
1F
100
AcDbEntity
  8
D-1_躯体
  6
Continuous
 62
     3
370
     9
100
AcDbLine
 10
1505.140030951251
 20
-755.4123664975486
 30
0.0
 11
1505.140030951251
 21
-667.9125726974006
 31
0.0
  0
LINE
  5
1C8
330
1F
100
AcDbEntity
  8
D-1_躯体
  6
Continuous
 62
     3
370
     9
100
AcDbLine
 10
1512.638942216032
 20
-762.9120200817966
 30
0.0
 11
1667.639701031489
 21
-762.9120200817966
 31
0.0
  0
ARC
  5
1C9
330
1F
100
AcDbEntity
  8
D-1_躯体
  6
Continuous
 62
     3
370
     9
100
AcDbCircle
 10
1512.638942216032
 20
-667.9125726974006
 30
0.0
 40
7.499999371734825
100
AcDbArc
 50
90.0
 51
180.0
  0
ARC
  5
1CA
330
1F
100
AcDbEntity
  8
D-1_躯体
  6
Continuous
 62
     3
370
     9
100
AcDbCircle
 10
1512.638942216032
 20
-755.4123664975486
 30
0.0
 40
7.499999371734825
100
AcDbArc
 50
180.0
 51
270.0
  0
CIRCLE
  5
1CB
330
1F
100
AcDbEntity
  8
D-A_インテリア
  6
Continuous
 62
     2
370
     9
100
AcDbCircle
 10
1587.139608653954
 20
-699.4121569984986
 30
0.0
 40
12.50000016109364
  0
LINE
  5
1CC
330
1F
100
AcDbEntity
  8
D-1_躯体
  6
Continuous
 62
     3
370
     9
100
AcDbLine
 10
1686.389206151842
 20
-660.4121767936847
 30
0.0
 11
1512.638942216032
 21
-660.4121767936847
 31
0.0
  0
LINE
  5
1CD
330
1F
100
AcDbEntity
  8
D-A_インテリア
  6
Continuous
 62
     2
370
     9
100
AcDbLine
 10
2095.41208520059
 20
-428.1619425506522
 30
0.0
 11
2095.41208520059
 21
-516.9125446542206
 31
0.0
  0
LINE
  5
1CE
330
1F
100
AcDbEntity
  8
D-A_インテリア
  6
Continuous
 62
     2
370
     9
100
AcDbLine
 10
2072.911639808907
 20
-428.1619425506522
 30
0.0
 11
2072.911639808907
 21
-516.9125446542206
 31
0.0
  0
LINE
  5
1CF
330
1F
100
AcDbEntity
  8
D-A_インテリア
  6
Continuous
 62
     2
370
     9
100
AcDbLine
 10
2070.412992479938
 20
-516.9125446542206
 30
0.0
 11
2070.412992479938
 21
-634.412066270564
 31
0.0
  0
LINE
  5
1D0
330
1F
100
AcDbEntity
  8
D-A_インテリア
  6
Continuous
 62
     2
370
     9
100
AcDbLine
 10
2059.162398624365
 20
-516.9125446542206
 30
0.0
 11
2109.162068704601
 21
-516.9125446542206
 31
0.0
  0
LINE
  5
1D1
330
1F
100
AcDbEntity
  8
D-A_インテリア
  6
Continuous
 62
     2
370
     9
100
AcDbLine
 10
2097.912217168493
 20
-516.9125446542206
 30
0.0
 11
2097.912217168493
 21
-634.412066270564
 31
0.0
  0
LINE
  5
1D2
330
1F
100
AcDbEntity
  8
D-A_インテリア
  6
Continuous
 62
     2
370
     9
100
AcDbLine
 10
2109.162068704601
 20
-516.9125446542206
 30
0.0
 11
2109.162068704601
 21
-634.412066270564
 31
0.0
  0
LINE
  5
1D3
330
1F
100
AcDbEntity
  8
D-A_インテリア
  6
Continuous
 62
     2
370
     9
100
AcDbLine
 10
2059.162398624365
 20
-516.9125446542206
 30
0.0
 11
2059.162398624365
 21
-634.412066270564
 31
0.0
  0
LINE
  5
1D4
330
1F
100
AcDbEntity
  8
D-A_インテリア
  6
Continuous
 62
     2
370
     9
100
AcDbLine
 10
2059.162398624365
 20
-634.412066270564
 30
0.0
 11
2109.162068704601
 21
-634.412066270564
 31
0.0
  0
ARC
  5
1D5
330
1F
100
AcDbEntity
  8
D-A_インテリア
  6
Continuous
 62
     2
370
     9
100
AcDbCircle
 10
2084.162233664482
 20
-428.1619425506522
 30
0.0
 40
11.25000159482698
100
AcDbArc
 50
0.0000000000000064
 51
180.0
  0
LINE
  5
1D6
330
1F
100
AcDbEntity
  8
D-6_間仕切
  6
JWW_CENTER1
 62
     7
370
     9
100
AcDbLine
 10
2084.162233664482
 20
-399.3309967366741
 30
0.0
 11
2084.162233664482
 21
-444.6425482173537
 31
0.0
  0
LINE
  5
1D7
330
1F
100
AcDbEntity
  8
D-6_間仕切
  6
Continuous
 62
     7
370
     9
100
AcDbLine
 10
2124.161375873097
 20
-396.9121487505044
 30
0.0
 11
2124.161375873097
 21
-446.9121899904749
 31
0.0
  0
ARC
  5
1D8
330
1F
100
AcDbEntity
  8
D-6_間仕切
  6
Continuous
 62
     7
370
     9
100
AcDbCircle
 10
2119.161854256753
 20
-396.9121487505044
 30
0.0
 40
5.000000064437454
100
AcDbArc
 50
0.0000000000000127
 51
90.00000000000001
  0
ARC
  5
1D9
330
1F
100
AcDbEntity
  8
D-6_間仕切
  6
Continuous
 62
     7
370
     9
100
AcDbCircle
 10
2119.161854256753
 20
-446.9121899904749
 30
0.0
 40
5.000000064437454
100
AcDbArc
 50
270.0
 51
0.0
  0
ARC
  5
1DA
330
1F
100
AcDbEntity
  8
D-6_間仕切
  6
Continuous
 62
     7
370
     9
100
AcDbCircle
 10
2084.162233664482
 20
-421.9123549503569
 30
0.0
 40
17.50000022553109
100
AcDbArc
 50
310.0047302246094
 51
229.9922332763672
  0
LINE
  5
1DB
330
1F
100
AcDbEntity
  8
D-6_間仕切
  6
Continuous
 62
     7
370
     9
100
AcDbLine
 10
1564.161507841002
 20
-466.9121322545163
 30
0.0
 11
1564.161507841002
 21
-376.9122064864632
 31
0.0
  0
ARC
  5
1DC
330
1F
100
AcDbEntity
  8
D-6_間仕切
  6
Continuous
 62
     7
370
     9
100
AcDbCircle
 10
1569.161771776813
 20
-466.9121322545163
 30
0.0
 40
5.000000064437454
100
AcDbArc
 50
180.0
 51
270.0
  0
ARC
  5
1DD
330
1F
100
AcDbEntity
  8
D-6_間仕切
  6
Continuous
 62
     7
370
     9
100
AcDbCircle
 10
1569.161771776813
 20
-376.9122064864632
 30
0.0
 40
5.000000064437454
100
AcDbArc
 50
90.0
 51
180.0
  0
LINE
  5
1DE
330
1F
100
AcDbEntity
  8
D-6_間仕切
  6
Continuous
 62
     7
370
     9
100
AcDbLine
 10
2119.161854256753
 20
-391.9122559744272
 30
0.0
 11
1988.890327879039
 21
-391.9122559744272
 31
0.0
  0
LINE
  5
1DF
330
1F
100
AcDbEntity
  8
D-6_間仕切
  6
Continuous
 62
     7
370
     9
100
AcDbLine
 10
1571.836150981677
 20
-471.9120250305928
 30
0.0
 11
1569.161771776813
 21
-471.9120250305928
 31
0.0
  0
LINE
  5
1E0
330
1F
100
AcDbEntity
  8
D-6_間仕切
  6
Continuous
 62
     7
370
     9
100
AcDbLine
 10
1569.161771776813
 20
-371.9119425506522
 30
0.0
 11
1582.346316236793
 21
-371.9119425506522
 31
0.0
  0
LINE
  5
1E1
330
1F
100
AcDbEntity
  8
D-6_間仕切
  6
Continuous
 62
     7
370
     9
100
AcDbLine
 10
1686.389206151842
 20
-391.9122559744272
 30
0.0
 11
1621.972949685415
 21
-391.9122559744272
 31
0.0
  0
LINE
  5
1E2
330
1F
100
AcDbEntity
  8
D-6_間仕切
  6
Continuous
 62
     7
370
     9
100
AcDbLine
 10
1686.389206151842
 20
-451.9120827665514
 30
0.0
 11
1615.666945805559
 21
-451.9120827665514
 31
0.0
  0
LINE
  5
1E3
330
1F
100
AcDbEntity
  8
D-6_間仕切
  6
JWW_DASHED1
 62
     7
370
     9
100
AcDbLine
 10
1988.890327879039
 20
-391.9122559744272
 30
0.0
 11
1686.389206151842
 21
-391.9122559744272
 31
0.0
  0
LINE
  5
1E4
330
1F
100
AcDbEntity
  8
D-6_間仕切
  6
JWW_DASHED1
 62
     7
370
     9
100
AcDbLine
 10
1988.890327879039
 20
-451.9120827665514
 30
0.0
 11
1686.389114935835
 21
-451.9120827665514
 31
0.0
  0
LINE
  5
1E5
330
1F
100
AcDbEntity
  8
D-0_通り芯
  6
Continuous
 62
     4
370
     9
100
AcDbLine
 10
1667.639701031487
 20
-679.4122147344572
 30
0.0
 11
1667.639701031487
 21
-898.8882489204667
 31
0.0
  0
LINE
  5
1E6
330
1F
100
AcDbEntity
  8
D-0_通り芯
  6
Continuous
 62
     4
370
     9
100
AcDbLine
 10
2007.639832999393
 20
-679.4122147344572
 30
0.0
 11
2007.639832999393
 21
-898.8882489204667
 31
0.0
  0
LINE
  5
1E7
330
1F
100
AcDbEntity
  8
D-5_建具
  6
Continuous
 62
     7
370
     9
100
AcDbLine
 10
1534.548475932332
 20
-188.5060750851081
 30
0.0
 11
1446.34500875599
 21
-188.5060750851081
 31
0.0
  0
TEXT
  5
1E8
330
1F
100
AcDbEntity
  8
D-5_建具
  6
Continuous
 62
     7
370
     9
100
AcDbText
 10
1446.34500875599
 20
-172.1610750851082
 30
0.0
 40
34.29
  1
蓋
  7
ＭＳ ゴシック
100
AcDbText
  0
LINE
  5
1E9
330
1F
100
AcDbEntity
  8
D-5_建具
  6
Continuous
 62
     7
370
     9
100
AcDbLine
 10
1591.292935572837
 20
-286.7903622305034
 30
0.0
 11
1534.548475932332
 21
-188.5060750851081
 31
0.0
  0
LINE
  5
1EA
330
1F
100
AcDbEntity
  8
D-5_建具
  6
Continuous
 62
     7
370
     9
100
AcDbLine
 10
1591.292935572837
 20
-286.7903622305034
 30
0.0
 11
1576.942306859146
 21
-252.1448797613297
 31
0.0
  0
LINE
  5
1EB
330
1F
100
AcDbEntity
  8
D-5_建具
  6
Continuous
 62
     7
370
     9
100
AcDbLine
 10
1591.292935572837
 20
-286.7903622305034
 30
0.0
 11
1568.464381985011
 21
-257.0396119695818
 31
0.0
  0
LINE
  5
1EC
330
1F
100
AcDbEntity
  8
D-5_建具
  6
Continuous
 62
     7
370
     9
100
AcDbLine
 10
2124.161854321193
 20
-396.9121487505044
 30
0.0
 11
2219.823286075811
 21
-231.2216886267211
 31
0.0
  0
LINE
  5
1ED
330
1F
100
AcDbEntity
  8
D-5_建具
  6
Continuous
 62
     7
370
     9
100
AcDbLine
 10
2124.161854321193
 20
-396.9121487505044
 30
0.0
 11
2138.512483034884
 21
-362.266666281331
 31
0.0
  0
LINE
  5
1EE
330
1F
100
AcDbEntity
  8
D-5_建具
  6
Continuous
 62
     7
370
     9
100
AcDbLine
 10
2124.161854321193
 20
-396.9121487505044
 30
0.0
 11
2146.990407909019
 21
-367.161398489583
 31
0.0
  0
ARC
  5
1EF
330
1F
100
AcDbEntity
  8
D-0_通り芯
  6
Continuous
 62
     4
370
     9
100
AcDbCircle
 10
1752.639734023463
 20
-813.1738830827935
 30
0.0
 40
120.7143658376731
100
AcDbArc
 50
225.2397455553741
 51
314.7602544446259
  0
ARC
  5
1F0
330
1F
100
AcDbEntity
  8
D-0_通り芯
  6
Continuous
 62
     4
370
     9
100
AcDbCircle
 10
1752.639734023463
 20
-984.6026147581399
 30
0.0
 40
120.7143658376731
100
AcDbArc
 50
45.23974555537411
 51
134.7602544446259
  0
ARC
  5
1F1
330
1F
100
AcDbEntity
  8
D-0_通り芯
  6
Continuous
 62
     4
370
     9
100
AcDbCircle
 10
1922.639800007417
 20
-813.1738830827935
 30
0.0
 40
120.7143658376731
100
AcDbArc
 50
225.2397455553741
 51
314.7602544446259
  0
LINE
  5
1F2
330
1F
100
AcDbEntity
  8
D-4_文字
  6
Continuous
 62
     7
370
     9
100
AcDbLine
 10
2034.161375873098
 20
-391.9122559744272
 30
0.0
 11
2034.161375873098
 21
-451.9120827665514
 31
0.0
  0
LINE
  5
1F3
330
1F
100
AcDbEntity
  8
D-0_通り芯
  6
Continuous
 62
     4
370
     9
100
AcDbLine
 10
2032.639272135795
 20
-671.9121899904752
 30
0.0
 11
2032.639272135795
 21
-679.4122147344572
 31
0.0
  0
LINE
  5
1F4
330
1F
100
AcDbEntity
  8
D-0_通り芯
  6
Continuous
 62
     4
370
     9
100
AcDbLine
 10
1642.639519575617
 20
-671.9121899904752
 30
0.0
 11
1642.639519575617
 21
-679.4122147344572
 31
0.0
  0
LINE
  5
1F5
330
1F
100
AcDbEntity
  8
D-0_通り芯
  6
Continuous
 62
     4
370
     9
100
AcDbLine
 10
1642.639519575617
 20
-679.4122147344572
 30
0.0
 11
2032.639272135795
 21
-679.4122147344572
 31
0.0
  0
ARC
  5
1F6
330
1F
100
AcDbEntity
  8
D-0_通り芯
  6
JWW_PHANTOM1
 62
     4
370
     9
100
AcDbCircle
 10
1587.139608653954
 20
-699.4121569984986
 30
0.0
 40
446.3476205244918
100
AcDbArc
 50
3.532293018336564
 51
87.53222413509872
  0
LINE
  5
1F7
330
1F
100
AcDbEntity
  8
D-2_仕上
  6
JWW_PHANTOM1
 62
     6
370
     5
100
AcDbLine
 10
1923.688092541491
 20
-671.9124754424859
 30
0.0
 11
1676.080709704555
 21
-671.9120585481178
 31
0.0
  0
LINE
  5
1F8
330
1F
100
AcDbEntity
  8
D-2_仕上
  6
JWW_PHANTOM1
 62
     6
370
     5
100
AcDbLine
 10
1913.433986249125
 20
-671.9146449721392
 30
0.0
 11
2032.639305197014
 21
-671.9127255876986
 31
0.0
  0
LWPOLYLINE
  5
1F9
330
1F
100
AcDbEntity
  8
D-4_文字
  6
Continuous
 62
     7
370
     9
100
AcDbPolyline
 90
        4
 70
     1
 43
3.0
 10
2154.05297225499
 20
-660.4120016703077
 42
0.4142135623731
 10
2152.55297225499
 20
-658.9120016703077
 42
0.4142135623731
 10
2151.05297225499
 20
-660.4120016703077
 42
0.4142135623731
 10
2152.55297225499
 20
-661.9120016703077
 42
0.4142135623731
  0
LWPOLYLINE
  5
1FA
330
1F
100
AcDbEntity
  8
D-4_文字
  6
Continuous
 62
     7
370
     9
100
AcDbPolyline
 90
        4
 70
     1
 43
3.0
 10
2154.05297225499
 20
-671.9127255876986
 42
0.4142135623731
 10
2152.55297225499
 20
-670.4127255876986
 42
0.4142135623731
 10
2151.05297225499
 20
-671.9127255876986
 42
0.4142135623731
 10
2152.55297225499
 20
-673.4127255876986
 42
0.4142135623731
  0
LINE
  5
1FB
330
1F
100
AcDbEntity
  8
D-4_文字
  6
Continuous
 62
     7
370
     9
100
AcDbLine
 10
2157.052972254989
 20
-660.4120016703077
 30
0.0
 11
2062.639345020819
 21
-660.4120016703077
 31
0.0
  0
LINE
  5
1FC
330
1F
100
AcDbEntity
  8
D-4_文字
  6
Continuous
 62
     7
370
     9
100
AcDbLine
 10
2152.55297225499
 20
-660.4120016703077
 30
0.0
 11
2152.55297225499
 21
-777.1030614420947
 31
0.0
  0
LINE
  5
1FD
330
1F
100
AcDbEntity
  8
D-2_仕上
  6
Continuous
 62
     4
370
     9
100
AcDbLine
 10
1602.125856005008
 20
-580.7500457469737
 30
0.0
 11
1615.666945805559
 21
-451.9120827665514
 31
0.0
  0
LINE
  5
1FE
330
1F
100
AcDbEntity
  8
D-2_仕上
  6
Continuous
 62
     4
370
     9
100
AcDbLine
 10
1594.556232162533
 20
-592.2587884443888
 30
0.0
 11
1570.871044287109
 21
-605.3885611901628
 31
0.0
  0
ARC
  5
1FF
330
1F
100
AcDbEntity
  8
D-2_仕上
  6
Continuous
 62
     4
370
     9
100
AcDbCircle
 10
1587.207902045001
 20
-579.182013219466
 30
0.0
 40
15.00000019331236
100
AcDbArc
 50
299.0017242431641
 51
353.9996490478516
  0
ARC
  5
200
330
1F
100
AcDbEntity
  8
D-2_仕上
  6
Continuous
 62
     4
370
     9
100
AcDbCircle
 10
1572.567877498971
 20
-608.4494428805722
 30
0.0
 40
3.500000045106218
100
AcDbArc
 50
119.0022735595703
 51
174.00244140625
  0
LINE
  5
201
330
1F
100
AcDbEntity
  8
D-2_仕上
  6
Continuous
 62
     4
370
     9
100
AcDbLine
 10
1569.088153905254
 20
-608.0838591503149
 30
0.0
 11
1563.588286032346
 21
-660.412280788371
 31
0.0
  0
LINE
  5
202
330
1F
100
AcDbEntity
  8
D-2_仕上
  6
Continuous
 62
     4
370
     9
100
AcDbLine
 10
1552.024263975336
 20
-660.4122629852812
 30
0.0
 11
1581.49022758343
 21
-380.0582941830174
 31
0.0
  0
LINE
  5
203
330
1F
100
AcDbEntity
  8
D-2_仕上
  6
Continuous
 62
     4
370
     9
100
AcDbLine
 10
1594.969469066667
 20
-361.8328214659467
 30
0.0
 11
1569.087035234419
 21
-608.0837415747869
 31
0.0
  0
ARC
  5
204
330
1F
100
AcDbEntity
  8
D-2_仕上
  6
Continuous
 62
     4
370
     9
100
AcDbCircle
 10
1606.343413288667
 20
-287.1023145021937
 30
0.0
 40
3.500000045106218
100
AcDbArc
 50
173.9979858398438
 51
228.9988861083984
  0
LINE
  5
205
330
1F
100
AcDbEntity
  8
D-2_仕上
  6
Continuous
 62
     4
370
     9
100
AcDbLine
 10
1593.899780738486
 20
-372.0309814687384
 30
0.0
 11
1606.358220671587
 21
-253.4784811003987
 31
0.0
  0
LINE
  5
206
330
1F
100
AcDbEntity
  8
D-2_仕上
  6
Continuous
 62
     4
370
     9
100
AcDbLine
 10
1624.418486574952
 20
-307.452244940667
 30
0.0
 11
1604.046725592175
 21
-289.7442477788185
 31
0.0
  0
ARC
  5
207
330
1F
100
AcDbEntity
  8
D-2_仕上
  6
Continuous
 62
     4
370
     9
100
AcDbCircle
 10
1614.577220826673
 20
-318.7730034406441
 30
0.0
 40
15.00000019331236
100
AcDbArc
 50
353.9995574951172
 51
48.99919128417969
  0
LINE
  5
208
330
1F
100
AcDbEntity
  8
D-2_仕上
  6
Continuous
 62
     4
370
     9
100
AcDbLine
 10
1612.836458076784
 20
-478.8427242506814
 30
0.0
 11
1629.495164322338
 21
-320.3410589687293
 31
0.0
  0
LINE
  5
209
330
1F
100
AcDbEntity
  8
D-2_仕上
  6
Continuous
 62
     4
370
     9
100
AcDbLine
 10
1580.805473867173
 20
-386.5721099948878
 30
0.0
 11
1594.920503085877
 21
-252.276288497202
 31
0.0
  0
LINE
  5
20A
330
1F
100
AcDbEntity
  8
D-2_仕上
  6
Continuous
 62
     4
370
     9
100
AcDbLine
 10
1594.920503085877
 20
-252.276288497202
 30
0.0
 11
1606.358220671587
 21
-253.4784811003987
 31
0.0
  0
LINE
  5
20B
330
1F
100
AcDbEntity
  8
D-0_通り芯
  6
JWW_PHANTOM1
 62
     4
370
     9
100
AcDbLine
 10
1897.603787771693
 20
-660.4120319029628
 30
0.0
 11
2032.639345020819
 21
-660.4120016703077
 31
0.0
  0
LINE
  5
20C
330
1F
100
AcDbEntity
  8
D-0_通り芯
  6
JWW_PHANTOM1
 62
     4
370
     9
100
AcDbLine
 10
2032.639345020819
 20
-660.4120016703077
 30
0.0
 11
2032.639305197014
 21
-671.9127255876986
 31
0.0
  0
LINE
  5
20D
330
1F
100
AcDbEntity
  8
D-0_通り芯
  6
JWW_PHANTOM1
 62
     4
370
     9
100
AcDbLine
 10
1622.25530415077
 20
-660.4125788634062
 30
0.0
 11
1904.15349647267
 21
-660.412155309892
 31
0.0
  0
LINE
  5
20E
330
1F
100
AcDbEntity
  8
D-0_通り芯
  6
JWW_PHANTOM1
 62
     4
370
     9
100
AcDbLine
 10
1676.080709706061
 20
-671.9131833807455
 30
0.0
 11
1623.464055900021
 21
-671.9132538585541
 31
0.0
  0
LINE
  5
20F
330
1F
100
AcDbEntity
  8
D-1_躯体
  6
Continuous
 62
     3
370
     9
100
AcDbLine
 10
1686.389114935835
 20
-451.9120827665378
 30
0.0
 11
1686.389082431931
 21
-671.9109093516768
 31
0.0
  0
LINE
  5
210
330
1F
100
AcDbEntity
  8
D-0_通り芯
  6
JWW_PHANTOM1
 62
     4
370
     9
100
AcDbLine
 10
2032.639272135795
 20
-671.9121899904752
 30
0.0
 11
1676.080709706061
 21
-671.9121899904752
 31
0.0
  0
LINE
  5
211
330
1F
100
AcDbEntity
  8
D-0_通り芯
  6
JWW_CENTER2
 62
     7
370
     9
100
AcDbLine
 10
1540.088829816297
 20
-421.9123549503568
 30
0.0
 11
2133.112264017101
 21
-421.9123549503568
 31
0.0
  0
LINE
  5
212
330
1F
100
AcDbEntity
  8
D-6_間仕切
  6
Continuous
 62
     7
370
     9
100
AcDbLine
 10
2119.161854256753
 20
-451.9120827665514
 30
0.0
 11
2095.41208520059
 21
-451.9120827665514
 31
0.0
  0
LINE
  5
213
330
1F
100
AcDbEntity
  8
D-6_間仕切
  6
Continuous
 62
     7
370
     9
100
AcDbLine
 10
2072.911639808907
 20
-451.9120827665514
 30
0.0
 11
1988.890327879039
 21
-451.9120827665514
 31
0.0
  0
LINE
  5
214
330
1F
100
AcDbEntity
  8
D-5_建具
  6
Continuous
 62
     7
370
     9
100
AcDbLine
 10
2109.161433673494
 20
-556.6455430044268
 30
0.0
 11
2131.98998726132
 21
-526.8947927435057
 31
0.0
  0
LINE
  5
215
330
1F
100
AcDbEntity
  8
D-5_建具
  6
Continuous
 62
     7
370
     9
100
AcDbLine
 10
2109.161433673494
 20
-556.6455430044268
 30
0.0
 11
2123.512062387185
 21
-522.0000605352536
 31
0.0
  0
LINE
  5
216
330
1F
100
AcDbEntity
  8
D-5_建具
  6
Continuous
 62
     7
370
     9
100
AcDbLine
 10
2109.161433673494
 20
-556.6455430044268
 30
0.0
 11
2169.415194567616
 21
-452.4083667898626
 31
0.0
  0
LINE
  5
217
330
1F
100
AcDbEntity
  8
D-1_躯体
  6
Continuous
 62
     3
370
     9
100
AcDbLine
 10
1988.890327879039
 20
-96.93416076516307
 30
0.0
 11
1988.890327879039
 21
-671.9121899904752
 31
0.0
  0
ARC
  5
218
330
1F
100
AcDbEntity
  8
D-1_躯体
  6
Continuous
 62
     3
370
     9
100
AcDbCircle
 10
1913.265047447238
 20
-32.73154590247294
 30
0.0
 40
99.20261486268966
100
AcDbArc
 50
220.3298268570517
 51
319.6701731429483
  0
ARC
  5
219
330
1F
100
AcDbEntity
  8
D-1_躯体
  6
Continuous
 62
     3
370
     9
100
AcDbCircle
 10
1913.265047447238
 20
-161.1367756278523
 30
0.0
 40
99.20261486268966
100
AcDbArc
 50
40.32982685705169
 51
139.6701731429483
  0
ARC
  5
21A
330
1F
100
AcDbEntity
  8
D-1_躯体
  6
Continuous
 62
     3
370
     9
100
AcDbCircle
 10
1762.014486583642
 20
-161.1367756278523
 30
0.0
 40
99.20261486268966
100
AcDbArc
 50
40.32982685705169
 51
139.6701731429483
  0
LINE
  5
21B
330
1F
100
AcDbEntity
  8
D-1_躯体
  6
Continuous
 62
     3
370
     9
100
AcDbLine
 10
1686.389206151842
 20
-96.93416076516307
 30
0.0
 11
1686.389206151842
 21
-671.9119424027751
 31
0.0
  0
LINE
  5
21C
330
1F
100
AcDbEntity
  8
D-0_通り芯
  6
JWW_CENTER2
 62
     7
370
     9
100
AcDbLine
 10
1837.63976701544
 20
-9.766064753503763
 30
0.0
 11
1837.63976701544
 21
-962.7457378986509
 31
0.0
  0
LINE
  5
21D
330
1F
100
AcDbEntity
  8
D-E_見え係り
  6
Continuous
 62
     6
370
     5
100
AcDbLine
 10
1505.140030951251
 20
-671.9122070614679
 30
0.0
 11
1209.855560451505
 21
-671.9122070614679
 31
0.0
  0
LINE
  5
21E
330
1F
100
AcDbEntity
  8
D-E_見え係り
  6
Continuous
 62
     6
370
     5
100
AcDbLine
 10
2033.151677422985
 20
-671.9121899904752
 30
0.0
 11
2481.148432369996
 21
-671.9121899904752
 31
0.0
  0
TEXT
  5
21F
330
1F
100
AcDbEntity
  8
D-5_建具
  6
Continuous
 62
     7
370
     9
100
AcDbText
 10
2219.8232890104
 20
-214.8766886267219
 30
0.0
 40
34.29
  1
ロックピン：SCS13A
 50
359.9999735004548
 41
1.157407407407409
  7
ＭＳ ゴシック
100
AcDbText
  0
LINE
  5
220
330
1F
100
AcDbEntity
  8
D-5_建具
  6
Continuous
 62
     7
370
     9
100
AcDbLine
 10
2219.823286075811
 20
-231.2216886267211
 30
0.0
 11
2691.384576883711
 21
-231.2216886267211
 31
0.0
  0
TEXT
  5
221
330
1F
100
AcDbEntity
  8
D-5_建具
  6
Continuous
 62
     7
370
     9
100
AcDbText
 10
2169.415194567616
 20
-439.8647057085263
 30
0.0
 40
34.29
  1
南京錠：CAC202
 41
1.154761904761905
  7
ＭＳ ゴシック
100
AcDbText
  0
LINE
  5
222
330
1F
100
AcDbEntity
  8
D-5_建具
  6
Continuous
 62
     7
370
     9
100
AcDbLine
 10
2169.415194567616
 20
-452.4083667898626
 30
0.0
 11
2534.81249941093
 21
-452.4083667898626
 31
0.0
  0
LINE
  5
223
330
1F
100
AcDbEntity
  8
A-2_仕上
  6
Continuous
 62
     3
370
     9
100
AcDbLine
 10
1807.389506378827
 20
1268.484244440926
 30
0.0
 11
1807.389506378827
 21
718.4594952464579
 31
0.0
  0
LINE
  5
224
330
1F
100
AcDbEntity
  8
A-2_仕上
  6
Continuous
 62
     3
370
     9
100
AcDbLine
 10
1867.889532772408
 20
1268.484244440926
 30
0.0
 11
1867.889532772408
 21
718.526133128977
 31
0.0
  0
LINE
  5
225
330
1F
100
AcDbEntity
  8
A-E_見え係り
  6
Continuous
 62
     6
370
     5
100
AcDbLine
 10
1687.63976701544
 20
396.3465465918251
 30
0.0
 11
1687.63976701544
 21
647.8465465918254
 31
0.0
  0
LINE
  5
226
330
1F
100
AcDbEntity
  8
A-E_見え係り
  6
Continuous
 62
     6
370
     5
100
AcDbLine
 10
1987.639767015441
 20
396.3465465918251
 30
0.0
 11
1987.639767015441
 21
647.8465465918254
 31
0.0
  0
LINE
  5
227
330
1F
100
AcDbEntity
  8
A-E_見え係り
  6
Continuous
 62
     6
370
     5
100
AcDbLine
 10
2037.639767015441
 20
296.346546591825
 30
0.0
 11
2037.639767015441
 21
396.3465465918251
 31
0.0
  0
LINE
  5
228
330
1F
100
AcDbEntity
  8
A-E_見え係り
  6
Continuous
 62
     6
370
     5
100
AcDbLine
 10
1637.63976701544
 20
396.3465465918251
 30
0.0
 11
2037.639767015441
 21
396.3465465918251
 31
0.0
  0
LINE
  5
229
330
1F
100
AcDbEntity
  8
A-E_見え係り
  6
Continuous
 62
     6
370
     5
100
AcDbLine
 10
1637.63976701544
 20
296.346546591825
 30
0.0
 11
1637.63976701544
 21
396.3465465918251
 31
0.0
  0
LINE
  5
22A
330
1F
100
AcDbEntity
  8
A-E_見え係り
  6
Continuous
 62
     6
370
     5
100
AcDbLine
 10
1637.63976701544
 20
296.346546591825
 30
0.0
 11
2037.639767015441
 21
296.346546591825
 31
0.0
  0
LINE
  5
22B
330
1F
100
AcDbEntity
  8
A-E_見え係り
  6
Continuous
 62
     6
370
     5
100
AcDbLine
 10
1837.63976701544
 20
396.3465465918251
 30
0.0
 11
1810.844847772328
 21
296.346546591825
 31
0.0
  0
LINE
  5
22C
330
1F
100
AcDbEntity
  8
A-E_見え係り
  6
Continuous
 62
     6
370
     5
100
AcDbLine
 10
1823.894216585868
 20
296.346546591825
 30
0.0
 11
1817.369532179098
 21
320.697000301243
 31
0.0
  0
LINE
  5
22D
330
1F
100
AcDbEntity
  8
A-E_見え係り
  6
Continuous
 62
     6
370
     5
100
AcDbLine
 10
1824.5903982019
 20
396.3465465918251
 30
0.0
 11
1831.11508260867
 21
371.9960928824071
 31
0.0
  0
LINE
  5
22E
330
1F
100
AcDbEntity
  8
A-E_見え係り
  6
Continuous
 62
     6
370
     5
100
AcDbLine
 10
1787.63976701544
 20
396.3465465918251
 30
0.0
 11
1760.844847772328
 21
296.346546591825
 31
0.0
  0
LINE
  5
22F
330
1F
100
AcDbEntity
  8
A-E_見え係り
  6
Continuous
 62
     6
370
     5
100
AcDbLine
 10
1773.894216585868
 20
296.346546591825
 30
0.0
 11
1767.369532179098
 21
320.697000301243
 31
0.0
  0
LINE
  5
230
330
1F
100
AcDbEntity
  8
A-E_見え係り
  6
Continuous
 62
     6
370
     5
100
AcDbLine
 10
1774.5903982019
 20
396.3465465918251
 30
0.0
 11
1781.11508260867
 21
371.9960928824071
 31
0.0
  0
LINE
  5
231
330
1F
100
AcDbEntity
  8
A-E_見え係り
  6
Continuous
 62
     6
370
     5
100
AcDbLine
 10
1737.63976701544
 20
396.3465465918251
 30
0.0
 11
1710.844847772328
 21
296.346546591825
 31
0.0
  0
LINE
  5
232
330
1F
100
AcDbEntity
  8
A-E_見え係り
  6
Continuous
 62
     6
370
     5
100
AcDbLine
 10
1723.894216585868
 20
296.346546591825
 30
0.0
 11
1717.369532179098
 21
320.697000301243
 31
0.0
  0
LINE
  5
233
330
1F
100
AcDbEntity
  8
A-E_見え係り
  6
Continuous
 62
     6
370
     5
100
AcDbLine
 10
1724.5903982019
 20
396.3465465918251
 30
0.0
 11
1731.11508260867
 21
371.9960928824071
 31
0.0
  0
LINE
  5
234
330
1F
100
AcDbEntity
  8
A-E_見え係り
  6
Continuous
 62
     6
370
     5
100
AcDbLine
 10
1687.63976701544
 20
396.3465465918251
 30
0.0
 11
1660.844847772328
 21
296.346546591825
 31
0.0
  0
LINE
  5
235
330
1F
100
AcDbEntity
  8
A-E_見え係り
  6
Continuous
 62
     6
370
     5
100
AcDbLine
 10
1673.894216585868
 20
296.346546591825
 30
0.0
 11
1667.369532179098
 21
320.697000301243
 31
0.0
  0
LINE
  5
236
330
1F
100
AcDbEntity
  8
A-E_見え係り
  6
Continuous
 62
     6
370
     5
100
AcDbLine
 10
1674.5903982019
 20
396.3465465918251
 30
0.0
 11
1681.11508260867
 21
371.9960928824071
 31
0.0
  0
LINE
  5
237
330
1F
100
AcDbEntity
  8
A-E_見え係り
  6
Continuous
 62
     6
370
     5
100
AcDbLine
 10
1887.63976701544
 20
396.3465465918251
 30
0.0
 11
1860.844847772328
 21
296.346546591825
 31
0.0
  0
LINE
  5
238
330
1F
100
AcDbEntity
  8
A-E_見え係り
  6
Continuous
 62
     6
370
     5
100
AcDbLine
 10
1873.894216585868
 20
296.346546591825
 30
0.0
 11
1867.369532179098
 21
320.697000301243
 31
0.0
  0
LINE
  5
239
330
1F
100
AcDbEntity
  8
A-E_見え係り
  6
Continuous
 62
     6
370
     5
100
AcDbLine
 10
1874.5903982019
 20
396.3465465918251
 30
0.0
 11
1881.11508260867
 21
371.9960928824071
 31
0.0
  0
LINE
  5
23A
330
1F
100
AcDbEntity
  8
A-E_見え係り
  6
Continuous
 62
     6
370
     5
100
AcDbLine
 10
1937.63976701544
 20
396.3465465918251
 30
0.0
 11
1910.844847772328
 21
296.346546591825
 31
0.0
  0
LINE
  5
23B
330
1F
100
AcDbEntity
  8
A-E_見え係り
  6
Continuous
 62
     6
370
     5
100
AcDbLine
 10
1923.894216585868
 20
296.346546591825
 30
0.0
 11
1917.369532179098
 21
320.697000301243
 31
0.0
  0
LINE
  5
23C
330
1F
100
AcDbEntity
  8
A-E_見え係り
  6
Continuous
 62
     6
370
     5
100
AcDbLine
 10
1924.5903982019
 20
396.3465465918251
 30
0.0
 11
1931.11508260867
 21
371.9960928824071
 31
0.0
  0
LINE
  5
23D
330
1F
100
AcDbEntity
  8
A-E_見え係り
  6
Continuous
 62
     6
370
     5
100
AcDbLine
 10
1987.639767015441
 20
396.3465465918251
 30
0.0
 11
1960.844847772328
 21
296.346546591825
 31
0.0
  0
LINE
  5
23E
330
1F
100
AcDbEntity
  8
A-E_見え係り
  6
Continuous
 62
     6
370
     5
100
AcDbLine
 10
1973.894216585868
 20
296.346546591825
 30
0.0
 11
1967.369532179098
 21
320.697000301243
 31
0.0
  0
LINE
  5
23F
330
1F
100
AcDbEntity
  8
A-E_見え係り
  6
Continuous
 62
     6
370
     5
100
AcDbLine
 10
1974.5903982019
 20
396.3465465918251
 30
0.0
 11
1981.11508260867
 21
371.9960928824071
 31
0.0
  0
LINE
  5
240
330
1F
100
AcDbEntity
  8
A-E_見え係り
  6
Continuous
 62
     6
370
     5
100
AcDbLine
 10
2037.639767015441
 20
396.3465465918251
 30
0.0
 11
2010.844847772328
 21
296.346546591825
 31
0.0
  0
LINE
  5
241
330
1F
100
AcDbEntity
  8
A-E_見え係り
  6
Continuous
 62
     6
370
     5
100
AcDbLine
 10
2023.894216585868
 20
296.346546591825
 30
0.0
 11
2017.369532179098
 21
320.697000301243
 31
0.0
  0
LINE
  5
242
330
1F
100
AcDbEntity
  8
A-E_見え係り
  6
Continuous
 62
     6
370
     5
100
AcDbLine
 10
2024.5903982019
 20
396.3465465918251
 30
0.0
 11
2031.11508260867
 21
371.9960928824071
 31
0.0
  0
LINE
  5
243
330
1F
100
AcDbEntity
  8
A-1_躯体
  6
Continuous
 62
     7
370
     9
100
AcDbLine
 10
1797.639734023463
 20
397.8465144246479
 30
0.0
 11
1797.639734023463
 21
396.3465465918251
 31
0.0
  0
LINE
  5
244
330
1F
100
AcDbEntity
  8
A-1_躯体
  6
Continuous
 62
     7
370
     9
100
AcDbLine
 10
1825.139701031487
 20
397.8465144246479
 30
0.0
 11
1825.139701031487
 21
396.3465465918251
 31
0.0
  0
LINE
  5
245
330
1F
100
AcDbEntity
  8
A-1_躯体
  6
Continuous
 62
     7
370
     9
100
AcDbLine
 10
1850.139832999392
 20
397.8465144246479
 30
0.0
 11
1850.139832999392
 21
396.3465465918251
 31
0.0
  0
LINE
  5
246
330
1F
100
AcDbEntity
  8
A-1_躯体
  6
Continuous
 62
     7
370
     9
100
AcDbLine
 10
1877.639800007416
 20
397.8465144246479
 30
0.0
 11
1877.639800007416
 21
396.3465465918251
 31
0.0
  0
LINE
  5
247
330
1F
100
AcDbEntity
  8
A-E_見え係り
  6
Continuous
 62
     6
370
     5
100
AcDbLine
 10
1987.639767015441
 20
598.7739470585046
 30
0.0
 11
1871.639780212231
 21
482.7739602552948
 31
0.0
  0
LINE
  5
248
330
1F
100
AcDbEntity
  8
A-E_見え係り
  6
Continuous
 62
     6
370
     5
100
AcDbLine
 10
1987.639767015441
 20
584.6318114347736
 30
0.0
 11
1871.639780212231
 21
468.6318246315643
 31
0.0
  0
LINE
  5
249
330
1F
100
AcDbEntity
  8
A-E_見え係り
  6
Continuous
 62
     6
370
     5
100
AcDbLine
 10
1987.639767015441
 20
570.4896758110426
 30
0.0
 11
1871.639780212231
 21
454.4896890078326
 31
0.0
  0
LINE
  5
24A
330
1F
100
AcDbEntity
  8
A-E_見え係り
  6
Continuous
 62
     6
370
     5
100
AcDbLine
 10
1803.63975381865
 20
585.3708241966422
 30
0.0
 11
1687.63976701544
 21
469.3708373934329
 31
0.0
  0
LINE
  5
24B
330
1F
100
AcDbEntity
  8
A-E_見え係り
  6
Continuous
 62
     6
370
     5
100
AcDbLine
 10
1803.63975381865
 20
599.5129598203732
 30
0.0
 11
1687.63976701544
 21
483.5129730171639
 31
0.0
  0
LINE
  5
24C
330
1F
100
AcDbEntity
  8
A-E_見え係り
  6
Continuous
 62
     6
370
     5
100
AcDbLine
 10
1803.63975381865
 20
613.6550954441044
 30
0.0
 11
1687.63976701544
 21
497.655108640895
 31
0.0
  0
LINE
  5
24D
330
1F
100
AcDbEntity
  8
A-3_寸法
  6
JWW_DASHED2
 62
     3
370
     9
100
AcDbLine
 10
1807.389654842721
 20
647.8465350446334
 30
0.0
 11
1807.389654842721
 21
397.8465144246479
 31
0.0
  0
LINE
  5
24E
330
1F
100
AcDbEntity
  8
A-0_通り芯
  6
Continuous
 62
     4
370
     9
100
AcDbLine
 10
1803.63975381865
 20
646.346530095837
 30
0.0
 11
1803.63975381865
 21
397.8465144246479
 31
0.0
  0
LINE
  5
24F
330
1F
100
AcDbEntity
  8
A-0_通り芯
  6
JWW_DASHED2
 62
     4
370
     9
100
AcDbLine
 10
1870.139701033058
 20
646.346530095837
 30
0.0
 11
1870.139701033058
 21
397.8465144246479
 31
0.0
  0
LINE
  5
250
330
1F
100
AcDbEntity
  8
A-3_寸法
  6
JWW_DASHED2
 62
     3
370
     9
100
AcDbLine
 10
1867.88987918816
 20
647.8465350446334
 30
0.0
 11
1867.88987918816
 21
397.8465144246479
 31
0.0
  0
LINE
  5
251
330
1F
100
AcDbEntity
  8
A-1_躯体
  6
Continuous
 62
     7
370
     9
100
AcDbLine
 10
1877.639800007416
 20
397.8465144246479
 30
0.0
 11
1797.639734023463
 21
397.8465144246479
 31
0.0
  0
LINE
  5
252
330
1F
100
AcDbEntity
  8
A-0_通り芯
  6
Continuous
 62
     4
370
     9
100
AcDbLine
 10
1871.639780212231
 20
646.346530095837
 30
0.0
 11
1871.639780212231
 21
397.8465144246479
 31
0.0
  0
LINE
  5
253
330
1F
100
AcDbEntity
  8
A-0_通り芯
  6
JWW_DASHED2
 62
     4
370
     9
100
AcDbLine
 10
1805.139832997821
 20
646.346530095837
 30
0.0
 11
1805.139832997821
 21
397.8465144246479
 31
0.0
  0
LINE
  5
254
330
1F
100
AcDbEntity
  8
A-0_通り芯
  6
Continuous
 62
     4
370
     9
100
AcDbLine
 10
1875.139816503405
 20
646.346530095837
 30
0.0
 11
1871.639780212231
 21
646.346530095837
 31
0.0
  0
LINE
  5
255
330
1F
100
AcDbEntity
  8
A-0_通り芯
  6
Continuous
 62
     4
370
     9
100
AcDbLine
 10
1800.139717527476
 20
646.346530095837
 30
0.0
 11
1803.63975381865
 21
646.346530095837
 31
0.0
  0
ARC
  5
256
330
1F
100
AcDbEntity
  8
A-0_通り芯
  6
JWW_DASHED2
 62
     4
370
     9
100
AcDbCircle
 10
1803.639753817078
 20
646.346530095837
 30
0.0
 40
1.499999874346965
100
AcDbArc
 50
0.0000000000000127
 51
90.00000000000001
  0
LINE
  5
257
330
1F
100
AcDbEntity
  8
A-0_通り芯
  6
Continuous
 62
     4
370
     9
100
AcDbLine
 10
1800.139717527476
 20
647.8465350446334
 30
0.0
 11
1800.139717527476
 21
646.346530095837
 31
0.0
  0
LINE
  5
258
330
1F
100
AcDbEntity
  8
A-0_通り芯
  6
Continuous
 62
     4
370
     9
100
AcDbLine
 10
1800.139865991369
 20
647.8465350446334
 30
0.0
 11
1800.139865991369
 21
646.346530095837
 31
0.0
  0
ARC
  5
259
330
1F
100
AcDbEntity
  8
A-0_通り芯
  6
JWW_DASHED2
 62
     4
370
     9
100
AcDbCircle
 10
1871.639780213802
 20
646.346530095837
 30
0.0
 40
1.499999874346965
100
AcDbArc
 50
90.0
 51
180.0
  0
LINE
  5
25A
330
1F
100
AcDbEntity
  8
A-0_通り芯
  6
Continuous
 62
     4
370
     9
100
AcDbLine
 10
1875.139816503405
 20
647.8465350446334
 30
0.0
 11
1875.139816503405
 21
646.346530095837
 31
0.0
  0
LINE
  5
25B
330
1F
100
AcDbEntity
  8
A-0_通り芯
  6
JWW_CENTER2
 62
     7
370
     9
100
AcDbLine
 10
1785.750893889384
 20
1268.483997001103
 30
0.0
 11
1892.77801989234
 21
1268.484491880749
 31
0.0
  0
LINE
  5
25C
330
1F
100
AcDbEntity
  8
A-0_通り芯
  6
JWW_CENTER2
 62
     7
370
     9
100
AcDbLine
 10
1798.854241418528
 20
918.7342411417279
 30
0.0
 11
1875.978570897169
 21
918.7342411417279
 31
0.0
  0
ARC
  5
25D
330
1F
100
AcDbEntity
  8
A-2_仕上
  6
Continuous
 62
     3
370
     9
100
AcDbCircle
 10
1837.639519575617
 20
1268.484244440926
 30
0.0
 40
30.24996486870018
100
AcDbArc
 50
0.0
 51
180.0
  0
ARC
  5
25E
330
1F
100
AcDbEntity
  8
A-2_仕上
  6
JWW_DASHED2
 62
     3
370
     9
100
AcDbCircle
 10
1837.639519575617
 20
1268.484244440926
 30
0.0
 40
30.24996486870018
100
AcDbArc
 50
180.0004730224609
 51
0.0004730224609375
  0
CIRCLE
  5
25F
330
1F
100
AcDbEntity
  8
A-2_仕上
  6
JWW_DASHED2
 62
     3
370
     9
100
AcDbCircle
 10
1837.63976701544
 20
918.7342411417279
 30
0.0
 40
16.99999925252554
  0
LINE
  5
260
330
1F
100
AcDbEntity
  8
A-0_通り芯
  6
JWW_CENTER2
 62
     7
370
     9
100
AcDbLine
 10
1837.63976701544
 20
1325.001726889195
 30
0.0
 11
1837.63976701544
 21
356.8304835933731
 31
0.0
  0
LINE
  5
261
330
1F
100
AcDbEntity
  8
A-1_躯体
  6
Continuous
 62
     3
370
     9
100
AcDbLine
 10
1807.38975381865
 20
752.8247870461183
 30
0.0
 11
1807.38975381865
 21
647.8465350446334
 31
0.0
  0
LINE
  5
262
330
1F
100
AcDbEntity
  8
A-1_躯体
  6
Continuous
 62
     3
370
     9
100
AcDbLine
 10
1867.889780212231
 20
737.3289655087946
 30
0.0
 11
1867.889780212231
 21
647.8465350446334
 31
0.0
  0
LINE
  5
263
330
1F
100
AcDbEntity
  8
A-0_通り芯
  6
Continuous
 62
     4
370
     9
100
AcDbLine
 10
1800.139717527476
 20
647.8465350446334
 30
0.0
 11
1875.139816503405
 21
647.8465350446334
 31
0.0
  0
ELLIPSE
  5
264
330
1F
100
AcDbEntity
  8
A-2_仕上
  6
Continuous
 62
     4
370
     9
100
AcDbEllipse
 10
1837.639841247387
 20
692.9874528484236
 30
0.0
 11
39.75001979518581
 21
0.0
 31
0.0
210
0.0
220
0.0
230
1.0
 40
0.9945000000000002
 41
5.577248869866441
 42
6.987058575626626
  0
ELLIPSE
  5
265
330
1F
100
AcDbEntity
  8
A-2_仕上
  6
Continuous
 62
     4
370
     9
100
AcDbEllipse
 10
1837.639841247387
 20
692.9874528484236
 30
0.0
 11
39.75001979518581
 21
0.0
 31
0.0
210
0.0
220
0.0
230
1.0
 40
0.9945000000000002
 41
2.435661973456155
 42
3.847523333723431
  0
ELLIPSE
  5
266
330
1F
100
AcDbEntity
  8
A-2_仕上
  6
Continuous
 62
     4
370
     9
100
AcDbEllipse
 10
1837.639841247387
 20
692.9874157324501
 30
0.0
 11
30.74998778265876
 21
0.0
 31
0.0
210
0.0
220
0.0
230
1.0
 40
0.9945
 41
2.961031481398526
 42
3.32215382578106
  0
ELLIPSE
  5
267
330
1F
100
AcDbEntity
  8
A-2_仕上
  6
Continuous
 62
     4
370
     9
100
AcDbEllipse
 10
1837.639841247387
 20
692.9874157324501
 30
0.0
 11
30.74998778265876
 21
0.0
 31
0.0
210
0.0
220
0.0
230
1.0
 40
0.9945
 41
6.102597251726474
 42
6.463773362632698
  0
ARC
  5
268
330
1F
100
AcDbEntity
  8
A-5_建具
  6
Continuous
 62
     7
370
     9
100
AcDbCircle
 10
1837.63976701544
 20
698.0826353519931
 30
0.0
 40
6.000019795185811
100
AcDbArc
 50
349.8367004394531
 51
190.1632995605469
  0
LINE
  5
269
330
1F
100
AcDbEntity
  8
A-5_建具
  6
Continuous
 62
     7
370
     9
100
AcDbLine
 10
1835.139783511428
 20
693.3128987269403
 30
0.0
 11
1835.139783511428
 21
702.852371977046
 31
0.0
  0
ARC
  5
26A
330
1F
100
AcDbEntity
  8
A-5_建具
  6
Continuous
 62
     7
370
     9
100
AcDbCircle
 10
1837.63976701544
 20
698.0826353519931
 30
0.0
 40
6.000019795185811
100
AcDbArc
 50
234.7026977539062
 51
305.2973022460938
  0
ARC
  5
26B
330
1F
100
AcDbEntity
  8
A-5_建具
  6
Continuous
 62
     7
370
     9
100
AcDbCircle
 10
1836.139836298591
 20
693.3128987269403
 30
0.0
 40
1.000000012887491
100
AcDbArc
 50
180.0
 51
252.5401763916015
  0
ARC
  5
26C
330
1F
100
AcDbEntity
  8
A-5_建具
  6
Continuous
 62
     7
370
     9
100
AcDbCircle
 10
1839.13969773229
 20
693.3128987269403
 30
0.0
 40
1.000000012887491
100
AcDbArc
 50
287.4598236083985
 51
0.0000000000000127
  0
LINE
  5
26D
330
1F
100
AcDbEntity
  8
A-5_建具
  6
Continuous
 62
     7
370
     9
100
AcDbLine
 10
1840.139750519451
 20
693.3128987269403
 30
0.0
 11
1840.139750519451
 21
702.852371977046
 31
0.0
  0
ARC
  5
26E
330
1F
100
AcDbEntity
  8
A-5_建具
  6
Continuous
 62
     7
370
     9
100
AcDbCircle
 10
1839.13969773229
 20
702.852371977046
 30
0.0
 40
1.000000012887491
100
AcDbArc
 50
0.0
 51
72.54017639160156
  0
ARC
  5
26F
330
1F
100
AcDbEntity
  8
A-5_建具
  6
Continuous
 62
     7
370
     9
100
AcDbCircle
 10
1836.139836298591
 20
702.852371977046
 30
0.0
 40
1.000000012887491
100
AcDbArc
 50
107.4598236083985
 51
180.0
  0
ARC
  5
270
330
1F
100
AcDbEntity
  8
A-6_間仕切
  6
Continuous
 62
     2
370
     9
100
AcDbCircle
 10
1837.63976701544
 20
689.5826691687688
 30
0.0
 40
9.500056666296882
100
AcDbArc
 50
105.2573547363281
 51
180.0
  0
ARC
  5
271
330
1F
100
AcDbEntity
  8
A-6_間仕切
  6
Continuous
 62
     2
370
     9
100
AcDbCircle
 10
1837.63976701544
 20
689.5826691687688
 30
0.0
 40
5.00011547191723
100
AcDbArc
 50
119.9991455078125
 51
180.0
  0
LINE
  5
272
330
1F
100
AcDbEntity
  8
A-6_間仕切
  6
Continuous
 62
     2
370
     9
100
AcDbLine
 10
1832.639651543523
 20
689.5826691687688
 30
0.0
 11
1832.639651543523
 21
679.0825602952469
 31
0.0
  0
LINE
  5
273
330
1F
100
AcDbEntity
  8
A-6_間仕切
  6
Continuous
 62
     2
370
     9
100
AcDbLine
 10
1828.13971092908
 20
689.5826691687688
 30
0.0
 11
1828.13971092908
 21
679.0825602952469
 31
0.0
  0
ARC
  5
274
330
1F
100
AcDbEntity
  8
A-6_間仕切
  6
Continuous
 62
     2
370
     9
100
AcDbCircle
 10
1837.63976701544
 20
689.5826691687688
 30
0.0
 40
5.00011547191723
100
AcDbArc
 50
0.0
 51
60.00085449218751
  0
LINE
  5
275
330
1F
100
AcDbEntity
  8
A-6_間仕切
  6
Continuous
 62
     2
370
     9
100
AcDbLine
 10
1842.639882487357
 20
689.5826691687688
 30
0.0
 11
1842.639882487357
 21
679.0825602952469
 31
0.0
  0
ARC
  5
276
330
1F
100
AcDbEntity
  8
A-6_間仕切
  6
Continuous
 62
     2
370
     9
100
AcDbCircle
 10
1837.63976701544
 20
689.5826691687688
 30
0.0
 40
9.500056666296882
100
AcDbArc
 50
0.0
 51
74.74270629882814
  0
LINE
  5
277
330
1F
100
AcDbEntity
  8
A-6_間仕切
  6
Continuous
 62
     2
370
     9
100
AcDbLine
 10
1849.639806605812
 20
679.0825602952469
 30
0.0
 11
1849.639806605812
 21
655.5826559719784
 31
0.0
  0
LINE
  5
278
330
1F
100
AcDbEntity
  8
A-6_間仕切
  6
Continuous
 62
     2
370
     9
100
AcDbLine
 10
1847.1398231018
 20
689.5826691687688
 30
0.0
 11
1847.1398231018
 21
679.0825602952469
 31
0.0
  0
LINE
  5
279
330
1F
100
AcDbEntity
  8
A-6_間仕切
  6
Continuous
 62
     2
370
     9
100
AcDbLine
 10
1825.639727425068
 20
679.0825602952469
 30
0.0
 11
1849.639806605812
 21
679.0825602952469
 31
0.0
  0
LINE
  5
27A
330
1F
100
AcDbEntity
  8
A-6_間仕切
  6
Continuous
 62
     2
370
     9
100
AcDbLine
 10
1825.639727425068
 20
679.0825602952469
 30
0.0
 11
1825.639727425068
 21
655.5826559719784
 31
0.0
  0
LINE
  5
27B
330
1F
100
AcDbEntity
  8
A-6_間仕切
  6
Continuous
 62
     2
370
     9
100
AcDbLine
 10
1825.639727425068
 20
655.5826559719784
 30
0.0
 11
1849.639806605812
 21
655.5826559719784
 31
0.0
  0
ARC
  5
27C
330
1F
100
AcDbEntity
  8
A-0_通り芯
  6
Continuous
 62
     4
370
     9
100
AcDbCircle
 10
1837.639915479334
 20
698.9230894535556
 30
0.0
 40
6.999924118454394
100
AcDbArc
 50
359.9993896484376
 51
180.0006103515626
  0
LINE
  5
27D
330
1F
100
AcDbEntity
  8
A-0_通り芯
  6
Continuous
 62
     4
370
     9
100
AcDbLine
 10
1844.639839597788
 20
698.9230152216088
 30
0.0
 11
1844.639839597788
 21
697.0106518083909
 31
0.0
  0
ARC
  5
27E
330
1F
100
AcDbEntity
  8
A-0_通り芯
  6
Continuous
 62
     4
370
     9
100
AcDbCircle
 10
1837.639915479334
 20
697.0105775764441
 30
0.0
 40
6.999924118454394
100
AcDbArc
 50
229.5813903808594
 51
310.4159698486328
  0
ARC
  5
27F
330
1F
100
AcDbEntity
  8
A-0_通り芯
  6
Continuous
 62
     4
370
     9
100
AcDbCircle
 10
1837.639915479334
 20
697.0105775764441
 30
0.0
 40
6.999924118454394
100
AcDbArc
 50
352.3052215576173
 51
0.0006103515625301
  0
LINE
  5
280
330
1F
100
AcDbEntity
  8
A-0_通り芯
  6
Continuous
 62
     4
370
     9
100
AcDbLine
 10
1830.639991360879
 20
698.9230152216088
 30
0.0
 11
1830.639991360879
 21
697.0106518083909
 31
0.0
  0
ARC
  5
281
330
1F
100
AcDbEntity
  8
A-0_通り芯
  6
Continuous
 62
     4
370
     9
100
AcDbCircle
 10
1837.639915479334
 20
697.0105775764441
 30
0.0
 40
6.999924118454394
100
AcDbArc
 50
179.9993896484375
 51
187.6925048828125
  0
TEXT
  5
282
330
1F
100
AcDbEntity
  8
F-Fﾚｲﾔ
  6
Continuous
 62
     2
370
     9
100
AcDbText
 10
-1389.534818720889
 20
-2083.180650008755
 30
0.0
 40
40.005
  1
車止め　スチール製　アーチ型横バー付　脱着式　スチール製蓋　鍵付　ＹＢＷ６Ｌ３０－ＤＬ
 41
0.8571428571428571
  7
ＭＳ ゴシック
100
AcDbText
  0
TEXT
  5
283
330
1F
100
AcDbEntity
  8
F-5ﾚｲﾔ
  6
Continuous
 62
     2
370
     9
100
AcDbText
 10
1779.423763934562
 20
-1606.39584742203
 30
0.0
 40
45.72
  1
本体色は、黄または白です。
 41
1.115384615384615
  7
ＭＳ ゴシック
100
AcDbText
  0
TEXT
  5
284
330
1F
100
AcDbEntity
  8
F-5ﾚｲﾔ
  6
Continuous
 62
     2
370
     9
100
AcDbText
 10
1779.423763934562
 20
-1695.602314589921
 30
0.0
 40
45.72
  1
ご注文の際にご指示ください。
 41
1.116071428571429
  7
ＭＳ ゴシック
100
AcDbText
  0
LINE
  5
285
330
1F
100
AcDbEntity
  8
D-5_建具
  6
Continuous
 62
     7
370
     9
100
AcDbLine
 10
1375.639769609901
 20
-1038.275673160943
 30
0.0
 11
2299.6397696099
 21
-1038.275673160943
 31
0.0
  0
LINE
  5
286
330
1F
100
AcDbEntity
  8
D-5_建具
  6
Continuous
 62
     7
370
     9
100
AcDbLine
 10
1375.639769609901
 20
-1143.275673160943
 30
0.0
 11
2299.6397696099
 21
-1143.275673160943
 31
0.0
  0
LINE
  5
287
330
1F
100
AcDbEntity
  8
D-5_建具
  6
Continuous
 62
     7
370
     9
100
AcDbLine
 10
1375.639769609901
 20
-1038.275673160943
 30
0.0
 11
1375.639769609901
 21
-1143.275673160943
 31
0.0
  0
LINE
  5
288
330
1F
100
AcDbEntity
  8
D-5_建具
  6
Continuous
 62
     7
370
     9
100
AcDbLine
 10
2299.6397696099
 20
-1038.275673160943
 30
0.0
 11
2299.6397696099
 21
-1143.275673160943
 31
0.0
  0
TEXT
  5
289
330
1F
100
AcDbEntity
  8
D-5_建具
  6
Continuous
 62
     2
370
     9
100
AcDbText
 10
1402.639769609901
 20
-1112.315673160943
 30
0.0
 40
45.72
  1
南京錠部詳細図　Ｓ＝１：３
 41
1.115384615384615
  7
ＭＳ ゴシック
100
AcDbText
  0
TEXT
  5
28A
330
1F
100
AcDbEntity
  8
F-5ﾚｲﾔ
  6
Continuous
 62
     2
370
     0
100
AcDbText
 10
2037.732059275498
 20
-1518.155849222796
 30
0.0
 40
45.72000000000005
  1
支柱質量：23kg／本
 41
1.111111111111111
  7
ＭＳ ゴシック
100
AcDbText
  0
TEXT
  5
28B
330
1F
100
AcDbEntity
  8
A-5_建具
  6
Continuous
 62
     2
370
     9
100
AcDbText
 10
1938.588586451636
 20
664.3835421267441
 30
0.0
 40
45.71999999999984
  1
▽G.L.
 41
1.104166666666671
  7
ＭＳ ゴシック
100
AcDbText
  0
TEXT
  5
28C
330
1F
100
AcDbEntity
  8
A-5_建具
  6
Continuous
 62
     2
370
     9
100
AcDbText
 10
1079.523473788985
 20
664.3835421267441
 30
0.0
 40
45.71999999999984
  1
▽G.L.
 41
1.104166666666671
  7
ＭＳ ゴシック
100
AcDbText
  0
TEXT
  5
28D
330
1F
100
AcDbEntity
  8
D-4_文字
  6
Continuous
 62
     2
370
     9
100
AcDbText
 10
2294.291087747788
 20
-657.2542030513762
 30
0.0
 40
45.72000000000009
  1
▽G.L.
 41
1.104166666666664
  7
ＭＳ ゴシック
100
AcDbText
  0
LINE
  5
28E
330
1F
100
AcDbEntity
  8
A-E_見え係り
  6
Continuous
 62
     6
370
     5
100
AcDbLine
 10
1875.139816503405
 20
647.8465465918254
 30
0.0
 11
2137.338586451636
 21
647.8465465918254
 31
0.0
  0
LINE
  5
28F
330
1F
100
AcDbEntity
  8
A-E_見え係り
  6
Continuous
 62
     6
370
     5
100
AcDbLine
 10
1540.743198407432
 20
647.8465465918254
 30
0.0
 11
1800.139717527476
 21
647.8465465918254
 31
0.0
  0
TEXT
  5
290
330
1F
100
AcDbEntity
  8
D-4_文字
  6
Continuous
 62
     2
370
   211
100
AcDbText
 10
2135.092972254991
 20
-774.675756477556
 30
0.0
 40
45.72
  1
2.3
 50
90.0
 41
1.083333333333333
  7
ＭＳ ゴシック
100
AcDbText
  0
ENDSEC
  0
SECTION
  2
OBJECTS
  0
DICTIONARY
  5
C
330
0
100
AcDbDictionary
281
     1
  3
ACAD_DETAILVIEWSTYLE
350
2D6
  3
ACAD_GROUP
350
D
  3
ACAD_LAYOUT
350
1A
  3
ACAD_MATERIAL
350
43
  3
ACAD_MLEADERSTYLE
350
6B
  3
ACAD_MLINESTYLE
350
17
  3
ACAD_PLOTSETTINGS
350
19
  3
ACAD_PLOTSTYLENAME
350
E
  3
ACAD_SCALELIST
350
47
  3
ACAD_SECTIONVIEWSTYLE
350
2D7
  3
ACAD_TABLESTYLE
350
69
  3
ACAD_VISUALSTYLE
350
2A
  3
ACDB_RECOMPOSE_DATA
350
2D3
  3
AcDbVariableDictionary
350
293
  0
DICTIONARY
  5
291
330
8
100
AcDbDictionary
280
     1
281
     1
  3
ACAD_XREC_ROUNDTRIP
360
292
  0
DICTIONARY
  5
2D6
102
{ACAD_REACTORS
330
C
102
}
330
C
100
AcDbDictionary
281
     1
  0
DICTIONARY
  5
D
102
{ACAD_REACTORS
330
C
102
}
330
C
100
AcDbDictionary
281
     1
  0
DICTIONARY
  5
1A
102
{ACAD_REACTORS
330
C
102
}
330
C
100
AcDbDictionary
281
     1
  3
Layout1
350
1E
  3
Layout2
350
26
  3
Model
350
22
  0
DICTIONARY
  5
43
102
{ACAD_REACTORS
330
C
102
}
330
C
100
AcDbDictionary
281
     1
  3
ByBlock
350
45
  3
ByLayer
350
44
  3
Global
350
46
  0
DICTIONARY
  5
6B
102
{ACAD_REACTORS
330
C
102
}
330
C
100
AcDbDictionary
281
     1
  3
Standard
350
6C
  0
DICTIONARY
  5
17
102
{ACAD_REACTORS
330
C
102
}
330
C
100
AcDbDictionary
281
     1
  3
Standard
350
18
  0
DICTIONARY
  5
19
102
{ACAD_REACTORS
330
C
102
}
330
C
100
AcDbDictionary
281
     1
  0
ACDBDICTIONARYWDFLT
  5
E
102
{ACAD_REACTORS
330
C
102
}
330
C
100
AcDbDictionary
281
     1
  3
Normal
350
F
100
AcDbDictionaryWithDefault
340
F
  0
DICTIONARY
  5
47
102
{ACAD_REACTORS
330
C
102
}
330
C
100
AcDbDictionary
281
     1
  3
A0
350
48
  3
A1
350
49
  3
A2
350
4A
  3
A3
350
4B
  3
A4
350
4C
  3
A5
350
4D
  3
A6
350
4E
  3
A7
350
4F
  3
A8
350
50
  3
A9
350
51
  3
B0
350
52
  3
B1
350
53
  3
B2
350
54
  3
B3
350
55
  3
B4
350
56
  3
B5
350
57
  3
B6
350
58
  3
B7
350
59
  3
B8
350
5A
  3
B9
350
5B
  3
C0
350
5C
  3
C1
350
5D
  3
C2
350
5E
  3
C3
350
5F
  3
C4
350
60
  3
C5
350
61
  3
C6
350
62
  3
C7
350
63
  3
C8
350
64
  3
C9
350
65
  3
D0
350
66
  3
D1
350
67
  3
D2
350
68
  0
DICTIONARY
  5
2D7
102
{ACAD_REACTORS
330
C
102
}
330
C
100
AcDbDictionary
281
     1
  0
DICTIONARY
  5
69
102
{ACAD_REACTORS
330
C
102
}
330
C
100
AcDbDictionary
281
     1
  3
Standard
350
6A
  0
DICTIONARY
  5
2A
102
{ACAD_REACTORS
330
C
102
}
330
C
100
AcDbDictionary
281
     1
  3
2dWireframe
350
2F
  3
Basic
350
32
  3
Brighten
350
36
  3
ColorChange
350
3A
  3
Conceptual
350
34
  3
Dim
350
35
  3
EdgeColorOff
350
3D
  3
Facepattern
350
39
  3
Flat
350
2B
  3
FlatWithEdges
350
2C
  3
Gouraud
350
2D
  3
GouraudWithEdges
350
2E
  3
Hidden
350
31
  3
JitterOff
350
3B
  3
Linepattern
350
38
  3
OverhangOff
350
3C
  3
Realistic
350
33
  3
Shaded
350
42
  3
Shaded with edges
350
41
  3
Shades of Gray
350
3E
  3
Sketchy
350
3F
  3
Thicken
350
37
  3
Wireframe
350
30
  3
X-Ray
350
40
  0
XRECORD
  5
2D3
102
{ACAD_REACTORS
330
C
102
}
330
C
100
AcDbXrecord
280
     1
 90
        1
330
6A
  0
DICTIONARY
  5
293
102
{ACAD_REACTORS
330
C
102
}
330
C
100
AcDbDictionary
281
     1
  3
CANNOSCALE
350
294
  3
CENTEREXE
350
2D8
  3
CENTERLTYPEFILE
350
2D9
  3
CMLEADERSTYLE
350
2D5
  3
CTABLESTYLE
350
2D4
  3
MSLTSCALE
350
295
  3
XCLIPFRAME
350
296
  0
XRECORD
  5
292
102
{ACAD_REACTORS
330
291
102
}
330
291
100
AcDbXrecord
280
     1
102
VTR_0.000_0.000_1.000_1.000_VISUALSTYLE
340
2F
102
VTR_0.000_0.000_1.000_1.000_GRIDDISPLAY
 70
     3
102
VTR_0.000_0.000_1.000_1.000_GRIDMAJOR
 70
     5
102
VTR_0.000_0.000_1.000_1.000_DEFAULTLIGHTING
280
     1
102
VTR_0.000_0.000_1.000_1.000_DEFAULTLIGHTINGTYPE
 70
     1
102
VTR_0.000_0.000_1.000_1.000_BRIGHTNESS
141
0.0
102
VTR_0.000_0.000_1.000_1.000_CONTRAST
142
0.0
  0
LAYOUT
  5
1E
102
{ACAD_REACTORS
330
1A
102
}
330
1A
100
AcDbPlotSettings
  1

  2
none_device
  4

  6

 40
0.0
 41
0.0
 42
0.0
 43
0.0
 44
0.0
 45
0.0
 46
0.0
 47
0.0
 48
0.0
 49
0.0
140
0.0
141
0.0
142
1.0
143
1.0
 70
   688
 72
     1
 73
     0
 74
     5
  7

 75
    16
 76
     0
 77
     5
 78
   300
147
1.0
148
0.0
149
0.0
100
AcDbLayout
  1
Layout1
 70
     1
 71
     1
 10
0.0
 20
0.0
 11
420.0
 21
297.0
 12
0.0
 22
0.0
 32
0.0
 14
1.000000000000000E+20
 24
1.000000000000000E+20
 34
1.000000000000000E+20
 15
-1.000000000000000E+20
 25
-1.000000000000000E+20
 35
-1.000000000000000E+20
146
0.0
 13
0.0
 23
0.0
 33
0.0
 16
1.0
 26
0.0
 36
0.0
 17
0.0
 27
1.0
 37
0.0
 76
     0
330
1B
  0
LAYOUT
  5
26
102
{ACAD_REACTORS
330
1A
102
}
330
1A
100
AcDbPlotSettings
  1

  2
none_device
  4

  6

 40
0.0
 41
0.0
 42
0.0
 43
0.0
 44
0.0
 45
0.0
 46
0.0
 47
0.0
 48
0.0
 49
0.0
140
0.0
141
0.0
142
1.0
143
1.0
 70
   688
 72
     1
 73
     0
 74
     5
  7

 75
    16
 76
     0
 77
     5
 78
   300
147
1.0
148
0.0
149
0.0
100
AcDbLayout
  1
Layout2
 70
     1
 71
     2
 10
0.0
 20
0.0
 11
0.0
 21
0.0
 12
0.0
 22
0.0
 32
0.0
 14
0.0
 24
0.0
 34
0.0
 15
0.0
 25
0.0
 35
0.0
146
0.0
 13
0.0
 23
0.0
 33
0.0
 16
1.0
 26
0.0
 36
0.0
 17
0.0
 27
1.0
 37
0.0
 76
     0
330
23
  0
LAYOUT
  5
22
102
{ACAD_REACTORS
330
1A
102
}
330
1A
100
AcDbPlotSettings
  1

  2
none_device
  4
Letter_(8.50_x_11.00_Inches)
  6

 40
6.35
 41
6.35
 42
6.35000508
 43
6.35000508
 44
215.9
 45
279.4
 46
0.0
 47
0.0
 48
0.0
 49
0.0
140
0.0
141
0.0
142
1.0
143
1.0
 70
  1712
 72
     1
 73
     0
 74
     0
  7

 75
     0
 76
     0
 77
     5
 78
   300
147
1.0
148
0.0
149
0.0
100
AcDbLayout
  1
Model
 70
     1
 71
     0
 10
-3150.0
 20
-2227.5
 11
3150.0
 21
2227.5
 12
0.0
 22
0.0
 32
0.0
 14
-3150.0
 24
-2227.5
 34
0.0
 15
3150.0
 25
2227.5
 35
0.0
146
0.0
 13
0.0
 23
0.0
 33
0.0
 16
1.0
 26
0.0
 36
0.0
 17
0.0
 27
1.0
 37
0.0
 76
     0
330
1F
331
29
  0
MATERIAL
  5
45
102
{ACAD_REACTORS
330
43
102
}
102
{ACAD_XDICTIONARY
360
2C9
102
}
330
43
100
AcDbMaterial
  1
ByBlock
  0
MATERIAL
  5
44
102
{ACAD_REACTORS
330
43
102
}
102
{ACAD_XDICTIONARY
360
2C7
102
}
330
43
100
AcDbMaterial
  1
ByLayer
  0
MATERIAL
  5
46
102
{ACAD_REACTORS
330
43
102
}
102
{ACAD_XDICTIONARY
360
2CB
102
}
330
43
100
AcDbMaterial
  1
Global
  0
MLEADERSTYLE
  5
6C
102
{ACAD_REACTORS
330
6B
102
}
102
{ACAD_XDICTIONARY
360
2D1
102
}
330
6B
100
AcDbMLeaderStyle
170
     2
171
     1
172
     0
 90
        2
 40
0.0
 41
0.0
173
     1
 91
-1056964608
340
14
 92
       -2
290
     1
 42
2.0
291
     1
 43
8.0
  3
Standard
341
0
 44
4.0
300

342
11
174
     1
178
     6
175
     1
176
     0
 93
-1056964608
 45
4.0
292
     0
297
     0
 46
4.0
343
0
 94
-1056964608
 47
1.0
 49
1.0
140
1.0
293
     1
141
0.0
294
     1
177
     0
142
1.0
295
     0
296
     0
143
3.75
1001
ACAD_MLEADERVER
1070
     2
  0
MLINESTYLE
  5
18
102
{ACAD_REACTORS
330
17
102
}
330
17
100
AcDbMlineStyle
  2
Standard
 70
     0
  3

 62
   256
 51
90.0
 52
90.0
 71
     2
 49
0.5
 62
   256
  6
BYLAYER
 49
-0.5
 62
   256
  6
BYLAYER
  0
ACDBPLACEHOLDER
  5
F
102
{ACAD_REACTORS
330
E
102
}
330
E
  0
SCALE
  5
48
102
{ACAD_REACTORS
330
47
102
}
330
47
100
AcDbScale
 70
     0
300
1:1
140
1.0
141
1.0
290
     1
  0
SCALE
  5
49
102
{ACAD_REACTORS
330
47
102
}
330
47
100
AcDbScale
 70
     0
300
1:2
140
1.0
141
2.0
290
     0
  0
SCALE
  5
4A
102
{ACAD_REACTORS
330
47
102
}
330
47
100
AcDbScale
 70
     0
300
1:4
140
1.0
141
4.0
290
     0
  0
SCALE
  5
4B
102
{ACAD_REACTORS
330
47
102
}
330
47
100
AcDbScale
 70
     0
300
1:5
140
1.0
141
5.0
290
     0
  0
SCALE
  5
4C
102
{ACAD_REACTORS
330
47
102
}
330
47
100
AcDbScale
 70
     0
300
1:8
140
1.0
141
8.0
290
     0
  0
SCALE
  5
4D
102
{ACAD_REACTORS
330
47
102
}
330
47
100
AcDbScale
 70
     0
300
1:10
140
1.0
141
10.0
290
     0
  0
SCALE
  5
4E
102
{ACAD_REACTORS
330
47
102
}
330
47
100
AcDbScale
 70
     0
300
1:16
140
1.0
141
16.0
290
     0
  0
SCALE
  5
4F
102
{ACAD_REACTORS
330
47
102
}
330
47
100
AcDbScale
 70
     0
300
1:20
140
1.0
141
20.0
290
     0
  0
SCALE
  5
50
102
{ACAD_REACTORS
330
47
102
}
330
47
100
AcDbScale
 70
     0
300
1:30
140
1.0
141
30.0
290
     0
  0
SCALE
  5
51
102
{ACAD_REACTORS
330
47
102
}
330
47
100
AcDbScale
 70
     0
300
1:40
140
1.0
141
40.0
290
     0
  0
SCALE
  5
52
102
{ACAD_REACTORS
330
47
102
}
330
47
100
AcDbScale
 70
     0
300
1:50
140
1.0
141
50.0
290
     0
  0
SCALE
  5
53
102
{ACAD_REACTORS
330
47
102
}
330
47
100
AcDbScale
 70
     0
300
1:100
140
1.0
141
100.0
290
     0
  0
SCALE
  5
54
102
{ACAD_REACTORS
330
47
102
}
330
47
100
AcDbScale
 70
     0
300
2:1
140
2.0
141
1.0
290
     0
  0
SCALE
  5
55
102
{ACAD_REACTORS
330
47
102
}
330
47
100
AcDbScale
 70
     0
300
4:1
140
4.0
141
1.0
290
     0
  0
SCALE
  5
56
102
{ACAD_REACTORS
330
47
102
}
330
47
100
AcDbScale
 70
     0
300
8:1
140
8.0
141
1.0
290
     0
  0
SCALE
  5
57
102
{ACAD_REACTORS
330
47
102
}
330
47
100
AcDbScale
 70
     0
300
10:1
140
10.0
141
1.0
290
     0
  0
SCALE
  5
58
102
{ACAD_REACTORS
330
47
102
}
330
47
100
AcDbScale
 70
     0
300
100:1
140
100.0
141
1.0
290
     0
  0
SCALE
  5
59
102
{ACAD_REACTORS
330
47
102
}
330
47
100
AcDbScale
 70
     0
300
1/128" = 1'-0"
140
0.0078125
141
12.0
290
     0
  0
SCALE
  5
5A
102
{ACAD_REACTORS
330
47
102
}
330
47
100
AcDbScale
 70
     0
300
1/64" = 1'-0"
140
0.015625
141
12.0
290
     0
  0
SCALE
  5
5B
102
{ACAD_REACTORS
330
47
102
}
330
47
100
AcDbScale
 70
     0
300
1/32" = 1'-0"
140
0.03125
141
12.0
290
     0
  0
SCALE
  5
5C
102
{ACAD_REACTORS
330
47
102
}
330
47
100
AcDbScale
 70
     0
300
1/16" = 1'-0"
140
0.0625
141
12.0
290
     0
  0
SCALE
  5
5D
102
{ACAD_REACTORS
330
47
102
}
330
47
100
AcDbScale
 70
     0
300
3/32" = 1'-0"
140
0.09375
141
12.0
290
     0
  0
SCALE
  5
5E
102
{ACAD_REACTORS
330
47
102
}
330
47
100
AcDbScale
 70
     0
300
1/8" = 1'-0"
140
0.125
141
12.0
290
     0
  0
SCALE
  5
5F
102
{ACAD_REACTORS
330
47
102
}
330
47
100
AcDbScale
 70
     0
300
3/16" = 1'-0"
140
0.1875
141
12.0
290
     0
  0
SCALE
  5
60
102
{ACAD_REACTORS
330
47
102
}
330
47
100
AcDbScale
 70
     0
300
1/4" = 1'-0"
140
0.25
141
12.0
290
     0
  0
SCALE
  5
61
102
{ACAD_REACTORS
330
47
102
}
330
47
100
AcDbScale
 70
     0
300
3/8" = 1'-0"
140
0.375
141
12.0
290
     0
  0
SCALE
  5
62
102
{ACAD_REACTORS
330
47
102
}
330
47
100
AcDbScale
 70
     0
300
1/2" = 1'-0"
140
0.5
141
12.0
290
     0
  0
SCALE
  5
63
102
{ACAD_REACTORS
330
47
102
}
330
47
100
AcDbScale
 70
     0
300
3/4" = 1'-0"
140
0.75
141
12.0
290
     0
  0
SCALE
  5
64
102
{ACAD_REACTORS
330
47
102
}
330
47
100
AcDbScale
 70
     0
300
1" = 1'-0"
140
1.0
141
12.0
290
     0
  0
SCALE
  5
65
102
{ACAD_REACTORS
330
47
102
}
330
47
100
AcDbScale
 70
     0
300
1-1/2" = 1'-0"
140
1.5
141
12.0
290
     0
  0
SCALE
  5
66
102
{ACAD_REACTORS
330
47
102
}
330
47
100
AcDbScale
 70
     0
300
3" = 1'-0"
140
3.0
141
12.0
290
     0
  0
SCALE
  5
67
102
{ACAD_REACTORS
330
47
102
}
330
47
100
AcDbScale
 70
     0
300
6" = 1'-0"
140
6.0
141
12.0
290
     0
  0
SCALE
  5
68
102
{ACAD_REACTORS
330
47
102
}
330
47
100
AcDbScale
 70
     0
300
1'-0" = 1'-0"
140
12.0
141
12.0
290
     0
  0
TABLESTYLE
  5
6A
102
{ACAD_REACTORS
330
69
102
}
102
{ACAD_XDICTIONARY
360
2CD
102
}
330
69
100
AcDbTableStyle
  3
Standard
 70
     0
 71
     0
 40
0.06
 41
0.06
280
     0
281
     0
  7
Standard
140
4.5
170
     2
 62
     0
 63
   257
283
     0
274
    -2
284
     1
 64
     0
275
    -2
285
     1
 65
     0
276
    -2
286
     1
 66
     0
277
    -2
287
     1
 67
     0
278
    -2
288
     1
 68
     0
279
    -2
289
     1
 69
     0
  7
Standard
140
6.0
170
     5
 62
     0
 63
   257
283
     0
274
    -2
284
     1
 64
     0
275
    -2
285
     1
 65
     0
276
    -2
286
     1
 66
     0
277
    -2
287
     1
 67
     0
278
    -2
288
     1
 68
     0
279
    -2
289
     1
 69
     0
  7
Standard
140
4.5
170
     5
 62
     0
 63
   257
283
     0
274
    -2
284
     1
 64
     0
275
    -2
285
     1
 65
     0
276
    -2
286
     1
 66
     0
277
    -2
287
     1
 67
     0
278
    -2
288
     1
 68
     0
279
    -2
289
     1
 69
     0
  0
VISUALSTYLE
  5
2F
102
{ACAD_REACTORS
330
2A
102
}
102
{ACAD_XDICTIONARY
360
29F
102
}
330
2A
100
AcDbVisualStyle
  2
2dWireframe
 70
     4
 71
     0
 72
     2
 73
     0
 90
        0
 40
0.6
 41
30.0
 62
     5
 63
     7
421
 16777215
 74
     1
 91
        4
 64
     7
 65
   257
 75
     1
175
     1
 42
1.0
 92
        0
 66
   257
 43
1.0
 76
     1
 77
     6
 78
     2
 67
     7
 79
     5
170
     0
171
     0
290
     0
174
     0
 93
        1
 44
0.0
173
     0
291
     0
 45
0.0
1001
ACAD
1000
AcDbSavedByObjectVersion
1070
     0
  0
VISUALSTYLE
  5
32
102
{ACAD_REACTORS
330
2A
102
}
102
{ACAD_XDICTIONARY
360
2A5
102
}
330
2A
100
AcDbVisualStyle
  2
Basic
 70
     7
 71
     1
 72
     0
 73
     1
 90
        0
 40
0.6
 41
30.0
 62
     5
 63
     7
421
 16777215
 74
     0
 91
        4
 64
     7
 65
   257
 75
     1
175
     1
 42
1.0
 92
        8
 66
     7
 43
1.0
 76
     1
 77
     6
 78
     2
 67
     7
 79
     5
170
     0
171
     0
290
     0
174
     0
 93
        1
 44
0.0
173
     0
291
     1
 45
0.0
1001
ACAD
1000
AcDbSavedByObjectVersion
1070
     0
  0
VISUALSTYLE
  5
36
102
{ACAD_REACTORS
330
2A
102
}
102
{ACAD_XDICTIONARY
360
2AD
102
}
330
2A
100
AcDbVisualStyle
  2
Brighten
 70
    12
 71
     2
 72
     2
 73
     0
 90
        0
 40
0.6
 41
30.0
 62
     5
 63
     7
421
 16777215
 74
     1
 91
        4
 64
     7
 65
   257
 75
     1
175
     1
 42
1.0
 92
        8
 66
     7
 43
1.0
 76
     1
 77
     6
 78
     2
 67
     7
 79
     5
170
     0
171
     0
290
     0
174
     0
 93
        1
 44
50.0
173
     0
291
     1
 45
0.0
1001
ACAD
1000
AcDbSavedByObjectVersion
1070
     0
  0
VISUALSTYLE
  5
3A
102
{ACAD_REACTORS
330
2A
102
}
102
{ACAD_XDICTIONARY
360
2B5
102
}
330
2A
100
AcDbVisualStyle
  2
ColorChange
 70
    16
 71
     2
 72
     2
 73
     3
 90
        0
 40
0.6
 41
30.0
 62
     5
 63
     8
421
  8421504
 74
     1
 91
        4
 64
     7
 65
   257
 75
     1
175
     1
 42
1.0
 92
        8
 66
     8
424
  8421504
 43
1.0
 76
     1
 77
     6
 78
     2
 67
     7
 79
     5
170
     0
171
     0
290
     0
174
     0
 93
        1
 44
0.0
173
     0
291
     1
 45
0.0
1001
ACAD
1000
AcDbSavedByObjectVersion
1070
     0
  0
VISUALSTYLE
  5
34
102
{ACAD_REACTORS
330
2A
102
}
102
{ACAD_XDICTIONARY
360
2A9
102
}
330
2A
100
AcDbVisualStyle
  2
Conceptual
 70
     9
 71
     3
 72
     2
 73
     0
 90
        0
 40
0.6
 41
30.0
 62
     5
 63
     7
421
 16777215
 74
     2
 91
        2
 64
     7
 65
   257
 75
     1
175
     1
 42
179.0
 92
        8
 66
     7
 43
1.0
 76
     1
 77
     6
 78
     2
 67
     7
 79
     3
170
     0
171
     0
290
     0
174
     0
 93
        1
 44
0.0
173
     0
291
     0
 45
0.0
1001
ACAD
1000
AcDbSavedByObjectVersion
1070
     0
  0
VISUALSTYLE
  5
35
102
{ACAD_REACTORS
330
2A
102
}
102
{ACAD_XDICTIONARY
360
2AB
102
}
330
2A
100
AcDbVisualStyle
  2
Dim
 70
    11
 71
     2
 72
     2
 73
     0
 90
        0
 40
0.6
 41
30.0
 62
     5
 63
     7
421
 16777215
 74
     1
 91
        4
 64
     7
 65
   257
 75
     1
175
     1
 42
1.0
 92
        8
 66
     7
 43
1.0
 76
     1
 77
     6
 78
     2
 67
     7
 79
     5
170
     0
171
     0
290
     0
174
     0
 93
        1
 44
-50.0
173
     0
291
     1
 45
0.0
1001
ACAD
1000
AcDbSavedByObjectVersion
1070
     0
  0
VISUALSTYLE
  5
3D
102
{ACAD_REACTORS
330
2A
102
}
102
{ACAD_XDICTIONARY
360
2BB
102
}
330
2A
100
AcDbVisualStyle
  2
EdgeColorOff
 70
    22
 71
     2
 72
     2
 73
     0
 90
        0
 40
0.6
 41
30.0
 62
     5
 63
     7
421
 16777215
 74
     1
 91
        4
 64
     7
 65
   257
 75
     1
175
     1
 42
1.0
 92
        8
 66
     7
 43
1.0
 76
     1
 77
     6
 78
     2
 67
     7
 79
     5
170
     0
171
     0
290
     0
174
     0
 93
        1
 44
0.0
173
     0
291
     1
 45
0.0
1001
ACAD
1000
AcDbSavedByObjectVersion
1070
     0
  0
VISUALSTYLE
  5
39
102
{ACAD_REACTORS
330
2A
102
}
102
{ACAD_XDICTIONARY
360
2B3
102
}
330
2A
100
AcDbVisualStyle
  2
Facepattern
 70
    15
 71
     2
 72
     2
 73
     0
 90
        0
 40
0.6
 41
30.0
 62
     5
 63
     7
421
 16777215
 74
     1
 91
        4
 64
     7
 65
   257
 75
     1
175
     1
 42
1.0
 92
        8
 66
     7
 43
1.0
 76
     1
 77
     6
 78
     2
 67
     7
 79
     5
170
     0
171
     0
290
     0
174
     0
 93
        1
 44
0.0
173
     0
291
     1
 45
0.0
1001
ACAD
1000
AcDbSavedByObjectVersion
1070
     0
  0
VISUALSTYLE
  5
2B
102
{ACAD_REACTORS
330
2A
102
}
102
{ACAD_XDICTIONARY
360
297
102
}
330
2A
100
AcDbVisualStyle
  2
Flat
 70
     0
 71
     2
 72
     1
 73
     1
 90
        2
 40
0.6
 41
30.0
 62
     5
 63
     7
421
 16777215
 74
     0
 91
        0
 64
     7
 65
   257
 75
     1
175
     1
 42
1.0
 92
        8
 66
     7
 43
1.0
 76
     1
 77
     6
 78
     2
 67
     7
 79
     5
170
     0
171
     0
290
     0
174
     0
 93
       13
 44
0.0
173
     0
291
     1
 45
0.0
1001
ACAD
1000
AcDbSavedByObjectVersion
1070
     0
  0
VISUALSTYLE
  5
2C
102
{ACAD_REACTORS
330
2A
102
}
102
{ACAD_XDICTIONARY
360
299
102
}
330
2A
100
AcDbVisualStyle
  2
FlatWithEdges
 70
     1
 71
     2
 72
     1
 73
     1
 90
        2
 40
0.6
 41
30.0
 62
     5
 63
     7
421
 16777215
 74
     1
 91
        0
 64
     7
 65
   257
 75
     1
175
     1
 42
1.0
 92
        0
 66
   257
 43
1.0
 76
     1
 77
     6
 78
     2
 67
     7
 79
     5
170
     0
171
     0
290
     0
174
     0
 93
       13
 44
0.0
173
     0
291
     1
 45
0.0
1001
ACAD
1000
AcDbSavedByObjectVersion
1070
     0
  0
VISUALSTYLE
  5
2D
102
{ACAD_REACTORS
330
2A
102
}
102
{ACAD_XDICTIONARY
360
29B
102
}
330
2A
100
AcDbVisualStyle
  2
Gouraud
 70
     2
 71
     2
 72
     2
 73
     1
 90
        2
 40
0.6
 41
30.0
 62
     5
 63
     7
421
 16777215
 74
     0
 91
        0
 64
     7
 65
   257
 75
     1
175
     1
 42
1.0
 92
        0
 66
     7
 43
1.0
 76
     1
 77
     6
 78
     2
 67
     7
 79
     5
170
     0
171
     0
290
     0
174
     0
 93
       13
 44
0.0
173
     0
291
     1
 45
0.0
1001
ACAD
1000
AcDbSavedByObjectVersion
1070
     0
  0
VISUALSTYLE
  5
2E
102
{ACAD_REACTORS
330
2A
102
}
102
{ACAD_XDICTIONARY
360
29D
102
}
330
2A
100
AcDbVisualStyle
  2
GouraudWithEdges
 70
     3
 71
     2
 72
     2
 73
     1
 90
        2
 40
0.6
 41
30.0
 62
     5
 63
     7
421
 16777215
 74
     1
 91
        0
 64
     7
 65
   257
 75
     1
175
     1
 42
1.0
 92
        0
 66
   257
 43
1.0
 76
     1
 77
     6
 78
     2
 67
     7
 79
     5
170
     0
171
     0
290
     0
174
     0
 93
       13
 44
0.0
173
     0
291
     1
 45
0.0
1001
ACAD
1000
AcDbSavedByObjectVersion
1070
     0
  0
VISUALSTYLE
  5
31
102
{ACAD_REACTORS
330
2A
102
}
102
{ACAD_XDICTIONARY
360
2A3
102
}
330
2A
100
AcDbVisualStyle
  2
Hidden
 70
     6
 71
     1
 72
     2
 73
     2
 90
        0
 40
0.6
 41
30.0
 62
     5
 63
     7
421
 16777215
 74
     2
 91
        2
 64
     7
 65
   257
 75
     2
175
     1
 42
40.0
 92
        0
 66
   257
 43
1.0
 76
     1
 77
     6
 78
     2
 67
     7
 79
     3
170
     0
171
     0
290
     0
174
     0
 93
        1
 44
0.0
173
     0
291
     0
 45
0.0
1001
ACAD
1000
AcDbSavedByObjectVersion
1070
     0
  0
VISUALSTYLE
  5
3B
102
{ACAD_REACTORS
330
2A
102
}
102
{ACAD_XDICTIONARY
360
2B7
102
}
330
2A
100
AcDbVisualStyle
  2
JitterOff
 70
    20
 71
     2
 72
     2
 73
     0
 90
        0
 40
0.6
 41
30.0
 62
     5
 63
     7
421
 16777215
 74
     1
 91
        4
 64
     7
 65
   257
 75
     1
175
     1
 42
1.0
 92
       10
 66
     7
 43
1.0
 76
     1
 77
     6
 78
     2
 67
     7
 79
     5
170
     0
171
     0
290
     0
174
     0
 93
        1
 44
0.0
173
     0
291
     1
 45
0.0
1001
ACAD
1000
AcDbSavedByObjectVersion
1070
     0
  0
VISUALSTYLE
  5
38
102
{ACAD_REACTORS
330
2A
102
}
102
{ACAD_XDICTIONARY
360
2B1
102
}
330
2A
100
AcDbVisualStyle
  2
Linepattern
 70
    14
 71
     2
 72
     2
 73
     0
 90
        0
 40
0.6
 41
30.0
 62
     5
 63
     7
421
 16777215
 74
     1
 91
        4
 64
     7
 65
   257
 75
     7
175
     7
 42
1.0
 92
        8
 66
     7
 43
1.0
 76
     1
 77
     6
 78
     2
 67
     7
 79
     5
170
     0
171
     0
290
     0
174
     0
 93
        1
 44
0.0
173
     0
291
     1
 45
0.0
1001
ACAD
1000
AcDbSavedByObjectVersion
1070
     0
  0
VISUALSTYLE
  5
3C
102
{ACAD_REACTORS
330
2A
102
}
102
{ACAD_XDICTIONARY
360
2B9
102
}
330
2A
100
AcDbVisualStyle
  2
OverhangOff
 70
    21
 71
     2
 72
     2
 73
     0
 90
        0
 40
0.6
 41
30.0
 62
     5
 63
     7
421
 16777215
 74
     1
 91
        4
 64
     7
 65
   257
 75
     1
175
     1
 42
1.0
 92
        9
 66
     7
 43
1.0
 76
     1
 77
     6
 78
     2
 67
     7
 79
     5
170
     0
171
     0
290
     0
174
     0
 93
        1
 44
0.0
173
     0
291
     1
 45
0.0
1001
ACAD
1000
AcDbSavedByObjectVersion
1070
     0
  0
VISUALSTYLE
  5
33
102
{ACAD_REACTORS
330
2A
102
}
102
{ACAD_XDICTIONARY
360
2A7
102
}
330
2A
100
AcDbVisualStyle
  2
Realistic
 70
     8
 71
     2
 72
     3
 73
     0
 90
        2
 40
0.6
 41
30.0
 62
     5
 63
     7
421
 16777215
 74
     0
 91
        0
 64
     7
 65
   257
 75
     1
175
     1
 42
1.0
 92
        8
 66
   257
 43
1.0
 76
     1
 77
     6
 78
     2
 67
     7
 79
     3
170
     0
171
     0
290
     0
174
     0
 93
       13
 44
0.0
173
     0
291
     0
 45
0.0
1001
ACAD
1000
AcDbSavedByObjectVersion
1070
     0
  0
VISUALSTYLE
  5
42
102
{ACAD_REACTORS
330
2A
102
}
102
{ACAD_XDICTIONARY
360
2C5
102
}
330
2A
100
AcDbVisualStyle
  2
Shaded
 70
    27
 71
     2
 72
     2
 73
     1
 90
        2
 40
0.6
 41
30.0
 62
     5
 63
     7
421
 16777215
 74
     0
 91
        4
 64
     7
 65
   257
 75
     1
175
     1
 42
1.0
 92
        8
 66
   257
 43
1.0
 76
     1
 77
     6
 78
     2
 67
     8
425
  7895160
 79
     3
170
     0
171
     0
290
     0
174
     0
 93
        5
 44
0.0
173
     0
291
     0
 45
0.0
1001
ACAD
1000
AcDbSavedByObjectVersion
1070
     0
  0
VISUALSTYLE
  5
41
102
{ACAD_REACTORS
330
2A
102
}
102
{ACAD_XDICTIONARY
360
2C3
102
}
330
2A
100
AcDbVisualStyle
  2
Shaded with edges
 70
    26
 71
     2
 72
     2
 73
     1
 90
        2
 40
0.6
 41
30.0
 62
     5
 63
     7
421
 16777215
 74
     1
 91
       10
 64
     7
 65
   257
 75
     2
175
     1
 42
1.0
 92
        8
 66
   257
 43
1.0
 76
     1
 77
     6
 78
     2
 67
     7
 79
     3
170
     0
171
     0
290
     0
174
     0
 93
        5
 44
0.0
173
     0
291
     0
 45
0.0
1001
ACAD
1000
AcDbSavedByObjectVersion
1070
     0
  0
VISUALSTYLE
  5
3E
102
{ACAD_REACTORS
330
2A
102
}
102
{ACAD_XDICTIONARY
360
2BD
102
}
330
2A
100
AcDbVisualStyle
  2
Shades of Gray
 70
    23
 71
     2
 72
     2
 73
     3
 90
        0
 40
0.6
 41
30.0
 62
     5
 63
     7
421
 16777215
 74
     2
 91
        2
 64
     7
 65
     7
 75
     1
175
     1
 42
40.0
 92
        8
 66
     7
 43
1.0
 76
     1
 77
     6
 78
     2
 67
     7
 79
     3
170
     0
171
     0
290
     0
174
     0
 93
        1
 44
0.0
173
     0
291
     0
 45
0.0
1001
ACAD
1000
AcDbSavedByObjectVersion
1070
     0
  0
VISUALSTYLE
  5
3F
102
{ACAD_REACTORS
330
2A
102
}
102
{ACAD_XDICTIONARY
360
2BF
102
}
330
2A
100
AcDbVisualStyle
  2
Sketchy
 70
    24
 71
     1
 72
     2
 73
     2
 90
        0
 40
0.6
 41
30.0
 62
     5
 63
     7
421
 16777215
 74
     2
 91
        2
 64
     7
 65
     7
 75
     1
175
     1
 42
40.0
 92
       11
 66
     7
 43
1.0
 76
     1
 77
     6
 78
     2
 67
     7
 79
     6
170
     0
171
     0
290
     0
174
     0
 93
        1
 44
0.0
173
     0
291
     0
 45
0.0
1001
ACAD
1000
AcDbSavedByObjectVersion
1070
     0
  0
VISUALSTYLE
  5
37
102
{ACAD_REACTORS
330
2A
102
}
102
{ACAD_XDICTIONARY
360
2AF
102
}
330
2A
100
AcDbVisualStyle
  2
Thicken
 70
    13
 71
     2
 72
     2
 73
     0
 90
        0
 40
0.6
 41
30.0
 62
     5
 63
     7
421
 16777215
 74
     1
 91
        4
 64
     7
 65
   257
 75
     1
175
     1
 42
1.0
 92
       12
 66
     7
 43
1.0
 76
     1
 77
     6
 78
     2
 67
     7
 79
     5
170
     0
171
     0
290
     0
174
     0
 93
        1
 44
0.0
173
     0
291
     1
 45
0.0
1001
ACAD
1000
AcDbSavedByObjectVersion
1070
     0
  0
VISUALSTYLE
  5
30
102
{ACAD_REACTORS
330
2A
102
}
102
{ACAD_XDICTIONARY
360
2A1
102
}
330
2A
100
AcDbVisualStyle
  2
Wireframe
 70
     5
 71
     0
 72
     2
 73
     0
 90
        0
 40
0.6
 41
30.0
 62
     5
 63
     7
421
 16777215
 74
     1
 91
        4
 64
     7
 65
   257
 75
     1
175
     1
 42
1.0
 92
        0
 66
   257
 43
1.0
 76
     1
 77
     6
 78
     2
 67
     7
 79
     3
170
     0
171
     0
290
     0
174
     0
 93
        1
 44
0.0
173
     0
291
     0
 45
0.0
1001
ACAD
1000
AcDbSavedByObjectVersion
1070
     0
  0
VISUALSTYLE
  5
40
102
{ACAD_REACTORS
330
2A
102
}
102
{ACAD_XDICTIONARY
360
2C1
102
}
330
2A
100
AcDbVisualStyle
  2
X-Ray
 70
    25
 71
     2
 72
     2
 73
     1
 90
        1
 40
0.5
 41
30.0
 62
     5
 63
     7
421
 16777215
 74
     1
 91
        0
 64
     7
 65
   257
 75
     1
175
     1
 42
1.0
 92
        8
 66
     7
 43
1.0
 76
     1
 77
     6
 78
     2
 67
     7
 79
     3
170
     0
171
     0
290
     0
174
     0
 93
       13
 44
0.0
173
     0
291
     0
 45
0.0
1001
ACAD
1000
AcDbSavedByObjectVersion
1070
     0
  0
DICTIONARYVAR
  5
294
102
{ACAD_REACTORS
330
293
102
}
330
293
100
DictionaryVariables
280
     0
  1
1:1
  0
DICTIONARYVAR
  5
2D8
102
{ACAD_REACTORS
330
293
102
}
330
293
100
DictionaryVariables
280
     0
  1
3.500000
  0
DICTIONARYVAR
  5
2D9
102
{ACAD_REACTORS
330
293
102
}
330
293
100
DictionaryVariables
280
     0
  1
acadiso.lin
  0
DICTIONARYVAR
  5
2D5
102
{ACAD_REACTORS
330
293
102
}
330
293
100
DictionaryVariables
280
     0
  1
Standard
  0
DICTIONARYVAR
  5
2D4
102
{ACAD_REACTORS
330
293
102
}
330
293
100
DictionaryVariables
280
     0
  1
Standard
  0
DICTIONARYVAR
  5
295
102
{ACAD_REACTORS
330
293
102
}
330
293
100
DictionaryVariables
280
     0
  1
1
  0
DICTIONARYVAR
  5
296
102
{ACAD_REACTORS
330
293
102
}
330
293
100
DictionaryVariables
280
     0
  1
2
  0
DICTIONARY
  5
2C9
330
45
100
AcDbDictionary
280
     1
281
     1
  3
ACAD_XREC_ROUNDTRIP
360
2CA
  0
DICTIONARY
  5
2C7
330
44
100
AcDbDictionary
280
     1
281
     1
  3
ACAD_XREC_ROUNDTRIP
360
2C8
  0
DICTIONARY
  5
2CB
330
46
100
AcDbDictionary
280
     1
281
     1
  3
ACAD_XREC_ROUNDTRIP
360
2CC
  0
DICTIONARY
  5
2D1
330
6C
100
AcDbDictionary
280
     1
281
     1
  3
ACAD_XREC_ROUNDTRIP
360
2D2
  0
DICTIONARY
  5
2CD
330
6A
100
AcDbDictionary
280
     1
281
     1
  3
ACAD_ROUNDTRIP_2008_TABLESTYLE_CELLSTYLEMAP
360
2CF
  3
ACAD_XREC_ROUNDTRIP
360
2CE
  0
DICTIONARY
  5
29F
330
2F
100
AcDbDictionary
280
     1
281
     1
  3
ACAD_XREC_ROUNDTRIP
360
2A0
  0
DICTIONARY
  5
2A5
330
32
100
AcDbDictionary
280
     1
281
     1
  3
ACAD_XREC_ROUNDTRIP
360
2A6
  0
DICTIONARY
  5
2AD
330
36
100
AcDbDictionary
280
     1
281
     1
  3
ACAD_XREC_ROUNDTRIP
360
2AE
  0
DICTIONARY
  5
2B5
330
3A
100
AcDbDictionary
280
     1
281
     1
  3
ACAD_XREC_ROUNDTRIP
360
2B6
  0
DICTIONARY
  5
2A9
330
34
100
AcDbDictionary
280
     1
281
     1
  3
ACAD_XREC_ROUNDTRIP
360
2AA
  0
DICTIONARY
  5
2AB
330
35
100
AcDbDictionary
280
     1
281
     1
  3
ACAD_XREC_ROUNDTRIP
360
2AC
  0
DICTIONARY
  5
2BB
330
3D
100
AcDbDictionary
280
     1
281
     1
  3
ACAD_XREC_ROUNDTRIP
360
2BC
  0
DICTIONARY
  5
2B3
330
39
100
AcDbDictionary
280
     1
281
     1
  3
ACAD_XREC_ROUNDTRIP
360
2B4
  0
DICTIONARY
  5
297
330
2B
100
AcDbDictionary
280
     1
281
     1
  3
ACAD_XREC_ROUNDTRIP
360
298
  0
DICTIONARY
  5
299
330
2C
100
AcDbDictionary
280
     1
281
     1
  3
ACAD_XREC_ROUNDTRIP
360
29A
  0
DICTIONARY
  5
29B
330
2D
100
AcDbDictionary
280
     1
281
     1
  3
ACAD_XREC_ROUNDTRIP
360
29C
  0
DICTIONARY
  5
29D
330
2E
100
AcDbDictionary
280
     1
281
     1
  3
ACAD_XREC_ROUNDTRIP
360
29E
  0
DICTIONARY
  5
2A3
330
31
100
AcDbDictionary
280
     1
281
     1
  3
ACAD_XREC_ROUNDTRIP
360
2A4
  0
DICTIONARY
  5
2B7
330
3B
100
AcDbDictionary
280
     1
281
     1
  3
ACAD_XREC_ROUNDTRIP
360
2B8
  0
DICTIONARY
  5
2B1
330
38
100
AcDbDictionary
280
     1
281
     1
  3
ACAD_XREC_ROUNDTRIP
360
2B2
  0
DICTIONARY
  5
2B9
330
3C
100
AcDbDictionary
280
     1
281
     1
  3
ACAD_XREC_ROUNDTRIP
360
2BA
  0
DICTIONARY
  5
2A7
330
33
100
AcDbDictionary
280
     1
281
     1
  3
ACAD_XREC_ROUNDTRIP
360
2A8
  0
DICTIONARY
  5
2C5
330
42
100
AcDbDictionary
280
     1
281
     1
  3
ACAD_XREC_ROUNDTRIP
360
2C6
  0
DICTIONARY
  5
2C3
330
41
100
AcDbDictionary
280
     1
281
     1
  3
ACAD_XREC_ROUNDTRIP
360
2C4
  0
DICTIONARY
  5
2BD
330
3E
100
AcDbDictionary
280
     1
281
     1
  3
ACAD_XREC_ROUNDTRIP
360
2BE
  0
DICTIONARY
  5
2BF
330
3F
100
AcDbDictionary
280
     1
281
     1
  3
ACAD_XREC_ROUNDTRIP
360
2C0
  0
DICTIONARY
  5
2AF
330
37
100
AcDbDictionary
280
     1
281
     1
  3
ACAD_XREC_ROUNDTRIP
360
2B0
  0
DICTIONARY
  5
2A1
330
30
100
AcDbDictionary
280
     1
281
     1
  3
ACAD_XREC_ROUNDTRIP
360
2A2
  0
DICTIONARY
  5
2C1
330
40
100
AcDbDictionary
280
     1
281
     1
  3
ACAD_XREC_ROUNDTRIP
360
2C2
  0
XRECORD
  5
2CA
102
{ACAD_REACTORS
330
2C9
102
}
330
2C9
100
AcDbXrecord
280
     1
102
MATERIAL
148
0.0
149
0.0
149
0.0
 93
        0
 94
      127
282
     0
 72
     1
 77
     1
171
     1
175
     1
179
     1
273
     0
  0
XRECORD
  5
2C8
102
{ACAD_REACTORS
330
2C7
102
}
330
2C7
100
AcDbXrecord
280
     1
102
MATERIAL
148
0.0
149
0.0
149
0.0
 93
        0
 94
      127
282
     0
 72
     1
 77
     1
171
     1
175
     1
179
     1
273
     0
  0
XRECORD
  5
2CC
102
{ACAD_REACTORS
330
2CB
102
}
330
2CB
100
AcDbXrecord
280
     1
102
MATERIAL
148
0.0
149
0.0
149
0.0
 93
        0
 94
      127
282
     0
 72
     1
 77
     1
171
     1
175
     1
179
     1
273
     0
  0
XRECORD
  5
2D2
102
{ACAD_REACTORS
330
2D1
102
}
330
2D1
100
AcDbXrecord
280
     1
102
ACAD_ROUNDTRIP_2010_MLEADER_STYLE
  0
CELLSTYLEMAP
  5
2CF
102
{ACAD_REACTORS
330
2CD
102
}
330
2CD
100
AcDbCellStyleMap
 90
        3
300
CELLSTYLE
  1
TABLEFORMAT_BEGIN
 90
        5
170
     1
 91
        0
 92
    32768
 62
   257
 93
        1
300
CONTENTFORMAT
  1
CONTENTFORMAT_BEGIN
 90
        0
 91
        0
 92
        4
 93
        0
300

 40
0.0
140
1.0
 94
        5
 62
     0
340
11
144
6.0
309
CONTENTFORMAT_END
171
     1
301
MARGIN
  1
CELLMARGIN_BEGIN
 40
1.5
 40
1.5
 40
1.5
 40
1.5
 40
1.5
 40
1.5
309
CELLMARGIN_END
 94
        6
 95
        1
302
GRIDFORMAT
  1
GRIDFORMAT_BEGIN
 90
        0
 91
        1
 62
     0
 92
       -2
340
14
 93
        0
 40
0.045
309
GRIDFORMAT_END
 95
        2
302
GRIDFORMAT
  1
GRIDFORMAT_BEGIN
 90
        0
 91
        1
 62
     0
 92
       -2
340
14
 93
        0
 40
0.045
309
GRIDFORMAT_END
 95
        4
302
GRIDFORMAT
  1
GRIDFORMAT_BEGIN
 90
        0
 91
        1
 62
     0
 92
       -2
340
14
 93
        0
 40
0.045
309
GRIDFORMAT_END
 95
        8
302
GRIDFORMAT
  1
GRIDFORMAT_BEGIN
 90
        0
 91
        1
 62
     0
 92
       -2
340
14
 93
        0
 40
0.045
309
GRIDFORMAT_END
 95
       16
302
GRIDFORMAT
  1
GRIDFORMAT_BEGIN
 90
        0
 91
        1
 62
     0
 92
       -2
340
14
 93
        0
 40
0.045
309
GRIDFORMAT_END
 95
       32
302
GRIDFORMAT
  1
GRIDFORMAT_BEGIN
 90
        0
 91
        1
 62
     0
 92
       -2
340
14
 93
        0
 40
0.045
309
GRIDFORMAT_END
309
TABLEFORMAT_END
  1
CELLSTYLE_BEGIN
 90
        1
 91
        1
300
_TITLE
309
CELLSTYLE_END
300
CELLSTYLE
  1
TABLEFORMAT_BEGIN
 90
        5
170
     1
 91
        0
 92
        0
 62
   257
 93
        1
300
CONTENTFORMAT
  1
CONTENTFORMAT_BEGIN
 90
        0
 91
        0
 92
        4
 93
        0
300

 40
0.0
140
1.0
 94
        5
 62
     0
340
11
144
4.5
309
CONTENTFORMAT_END
171
     1
301
MARGIN
  1
CELLMARGIN_BEGIN
 40
1.5
 40
1.5
 40
1.5
 40
1.5
 40
1.5
 40
1.5
309
CELLMARGIN_END
 94
        6
 95
        1
302
GRIDFORMAT
  1
GRIDFORMAT_BEGIN
 90
        0
 91
        1
 62
     0
 92
       -2
340
14
 93
        0
 40
0.045
309
GRIDFORMAT_END
 95
        2
302
GRIDFORMAT
  1
GRIDFORMAT_BEGIN
 90
        0
 91
        1
 62
     0
 92
       -2
340
14
 93
        0
 40
0.045
309
GRIDFORMAT_END
 95
        4
302
GRIDFORMAT
  1
GRIDFORMAT_BEGIN
 90
        0
 91
        1
 62
     0
 92
       -2
340
14
 93
        0
 40
0.045
309
GRIDFORMAT_END
 95
        8
302
GRIDFORMAT
  1
GRIDFORMAT_BEGIN
 90
        0
 91
        1
 62
     0
 92
       -2
340
14
 93
        0
 40
0.045
309
GRIDFORMAT_END
 95
       16
302
GRIDFORMAT
  1
GRIDFORMAT_BEGIN
 90
        0
 91
        1
 62
     0
 92
       -2
340
14
 93
        0
 40
0.045
309
GRIDFORMAT_END
 95
       32
302
GRIDFORMAT
  1
GRIDFORMAT_BEGIN
 90
        0
 91
        1
 62
     0
 92
       -2
340
14
 93
        0
 40
0.045
309
GRIDFORMAT_END
309
TABLEFORMAT_END
  1
CELLSTYLE_BEGIN
 90
        2
 91
        1
300
_HEADER
309
CELLSTYLE_END
300
CELLSTYLE
  1
TABLEFORMAT_BEGIN
 90
        5
170
     1
 91
        0
 92
        0
 62
   257
 93
        1
300
CONTENTFORMAT
  1
CONTENTFORMAT_BEGIN
 90
        0
 91
        0
 92
        4
 93
        0
300

 40
0.0
140
1.0
 94
        2
 62
     0
340
11
144
4.5
309
CONTENTFORMAT_END
171
     1
301
MARGIN
  1
CELLMARGIN_BEGIN
 40
1.5
 40
1.5
 40
1.5
 40
1.5
 40
1.5
 40
1.5
309
CELLMARGIN_END
 94
        6
 95
        1
302
GRIDFORMAT
  1
GRIDFORMAT_BEGIN
 90
        0
 91
        1
 62
     0
 92
       -2
340
14
 93
        0
 40
0.045
309
GRIDFORMAT_END
 95
        2
302
GRIDFORMAT
  1
GRIDFORMAT_BEGIN
 90
        0
 91
        1
 62
     0
 92
       -2
340
14
 93
        0
 40
0.045
309
GRIDFORMAT_END
 95
        4
302
GRIDFORMAT
  1
GRIDFORMAT_BEGIN
 90
        0
 91
        1
 62
     0
 92
       -2
340
14
 93
        0
 40
0.045
309
GRIDFORMAT_END
 95
        8
302
GRIDFORMAT
  1
GRIDFORMAT_BEGIN
 90
        0
 91
        1
 62
     0
 92
       -2
340
14
 93
        0
 40
0.045
309
GRIDFORMAT_END
 95
       16
302
GRIDFORMAT
  1
GRIDFORMAT_BEGIN
 90
        0
 91
        1
 62
     0
 92
       -2
340
14
 93
        0
 40
0.045
309
GRIDFORMAT_END
 95
       32
302
GRIDFORMAT
  1
GRIDFORMAT_BEGIN
 90
        0
 91
        1
 62
     0
 92
       -2
340
14
 93
        0
 40
0.045
309
GRIDFORMAT_END
309
TABLEFORMAT_END
  1
CELLSTYLE_BEGIN
 90
        3
 91
        2
300
_DATA
309
CELLSTYLE_END
  0
XRECORD
  5
2CE
102
{ACAD_REACTORS
330
2CD
102
}
330
2CD
100
AcDbXrecord
280
     1
102
ACAD_ROUNDTRIP_PRE2007_TABLESTYLE
 90
        4
 91
        0
  1

 92
        4
 93
        0
  2

 94
        4
 95
        0
  3

  0
XRECORD
  5
2A0
102
{ACAD_REACTORS
330
29F
102
}
330
29F
100
AcDbXrecord
280
     1
102
RTVSPropertyOp0
 70
     1
102
RTVSPropertyOp1
 70
     1
102
RTVSPropertyOp2
 70
     1
102
RTVSPropertyOp3
 70
     1
102
RTVSPropertyOp4
 70
     1
102
RTVSPropertyOp5
 70
     1
102
RTVSPropertyOp6
 70
     1
102
RTVSPropertyOp7
 70
     1
102
RTVSPropertyOp8
 70
     1
102
RTVSPropertyOp9
 70
     1
102
RTVSPropertyOp10
 70
     1
102
RTVSPropertyOp11
 70
     1
102
RTVSPropertyOp12
 70
     1
102
RTVSPropertyOp13
 70
     1
102
RTVSPropertyOp14
 70
     1
102
RTVSPropertyOp15
 70
     1
102
RTVSPropertyOp16
 70
     1
102
RTVSPropertyOp17
 70
     1
102
RTVSPropertyOp18
 70
     1
102
RTVSPropertyOp19
 70
     1
102
RTVSPropertyOp20
 70
     1
102
RTVSPropertyOp21
 70
     1
102
RTVSPropertyOp22
 70
     1
102
RTVSPropertyOp23
 70
     1
102
RTVSPropertyOp24
 70
     1
102
RTVSPropertyOp25
 70
     1
102
RTVSPropertyOp26
 70
     1
102
RTVSPropertyOp27
 70
     1
102
RTVSPropertyOp28
 70
     1
102
RTVSPropertyOp29
 70
     1
102
RTVSPropertyOp30
 70
     1
102
RTVSPropertyOp31
 70
     1
102
RTVSPropertyOp32
 70
     1
102
RTVSPropertyOp33
 70
     1
102
RTVSPropertyOp34
 70
     1
102
RTVSPropertyOp35
 70
     1
102
RTVSPropertyOp36
 70
     1
102
RTVSPropertyOp37
 70
     1
102
RTVSPropertyOp38
 70
     1
102
RTVSPropertyOp39
 70
     1
102
RTVSPropertyOp40
 70
     1
102
RTVSPropertyOp41
 70
     1
102
RTVSPropertyOp42
 70
     1
102
RTVSPropertyOp43
 70
     1
102
RTVSPropertyOp44
 70
     1
102
RTVSPropertyOp45
 70
     1
102
RTVSPropertyOp46
 70
     1
102
RTVSPropertyOp47
 70
     1
102
RTVSPropertyOp48
 70
     1
102
RTVSPropertyOp49
 70
     1
102
RTVSPropertyOp50
 70
     1
102
RTVSPropertyOp51
 70
     0
102
RTVSPropertyOp52
 70
     0
102
RTVSPropertyOp53
 70
     1
102
RTVSPropertyOp54
 70
     1
102
RTVSPropertyOp55
 70
     1
102
RTVSPropertyOp56
 70
     1
102
RTVSPropertyOp57
 70
     1
102
RTVSPost2010Prop28
280
     1
102
RTVSPost2010PropOp28
 70
     1
102
RTVSPost2010Prop29
280
     1
102
RTVSPost2010PropOp29
 70
     1
102
RTVSPost2010Prop30
280
     0
102
RTVSPost2010PropOp30
 70
     1
102
RTVSPost2010Prop31
280
     0
102
RTVSPost2010PropOp31
 70
     1
102
RTVSPost2010Prop32
280
     0
102
RTVSPost2010PropOp32
 70
     1
102
RTVSPost2010Prop33
280
     0
102
RTVSPost2010PropOp33
 70
     1
102
RTVSPost2010Prop34
280
     0
102
RTVSPost2010PropOp34
 70
     1
102
RTVSPost2010Prop35
280
     0
102
RTVSPost2010PropOp35
 70
     1
102
RTVSPost2010Prop36
280
     0
102
RTVSPost2010PropOp36
 70
     1
102
RTVSPost2010Prop37
 90
       50
102
RTVSPost2010PropOp37
 70
     1
102
RTVSPost2010Prop38
140
0.0
102
RTVSPost2010PropOp38
 70
     1
102
RTVSPost2010Prop39
140
1.0
102
RTVSPost2010PropOp39
 70
     1
102
RTVSPost2010Prop40
 90
        0
102
RTVSPost2010PropOp40
 70
     1
102
RTVSPost2010Prop41ColorIndex
 90
       18
102
RTVSPost2010Prop41ColorRGB
 90
        0
102
RTVSPost2010PropOp41
 70
     1
102
RTVSPost2010Prop42
 90
       50
102
RTVSPost2010PropOp42
 70
     1
102
RTVSPost2010Prop43
 90
        3
102
RTVSPost2010PropOp43
 70
     1
102
RTVSPost2010Prop44ColorIndex
 90
        5
102
RTVSPost2010Prop44ColorRGB
 90
      255
102
RTVSPost2010PropOp44
 70
     1
102
RTVSPost2010Prop45
280
     0
102
RTVSPost2010PropOp45
 70
     1
102
RTVSPost2010Prop46
 90
       50
102
RTVSPost2010PropOp46
 70
     1
102
RTVSPost2010Prop47
 90
       50
102
RTVSPost2010PropOp47
 70
     1
102
RTVSPost2010Prop48
 90
       50
102
RTVSPost2010PropOp48
 70
     1
102
RTVSPost2010Prop49
280
     0
102
RTVSPost2010PropOp49
 70
     1
102
RTVSPost2010Prop50
 90
       50
102
RTVSPost2010PropOp50
 70
     1
102
RTVSPost2010Prop51ColorIndex
 90
      256
102
RTVSPost2010Prop51ColorRGB
 90
-16777216
102
RTVSPost2010PropOp51
 70
     0
102
RTVSPost2010Prop52
140
1.0
102
RTVSPost2010PropOp52
 70
     0
102
RTVSPost2010Prop53
 90
        2
102
RTVSPost2010PropOp53
 70
     1
102
RTVSPost2010Prop54
  1
strokes_ogs.tif
102
RTVSPost2010PropOp54
 70
     1
102
RTVSPost2010Prop55
280
     0
102
RTVSPost2010PropOp55
 70
     1
102
RTVSPost2010Prop56
140
1.0
102
RTVSPost2010PropOp56
 70
     1
102
RTVSPost2010Prop57
140
1.0
102
RTVSPost2010PropOp57
 70
     1
  0
XRECORD
  5
2A6
102
{ACAD_REACTORS
330
2A5
102
}
330
2A5
100
AcDbXrecord
280
     1
102
RTVSPropertyOp0
 70
     1
102
RTVSPropertyOp1
 70
     1
102
RTVSPropertyOp2
 70
     1
102
RTVSPropertyOp3
 70
     1
102
RTVSPropertyOp4
 70
     1
102
RTVSPropertyOp5
 70
     1
102
RTVSPropertyOp6
 70
     1
102
RTVSPropertyOp7
 70
     1
102
RTVSPropertyOp8
 70
     1
102
RTVSPropertyOp9
 70
     1
102
RTVSPropertyOp10
 70
     1
102
RTVSPropertyOp11
 70
     1
102
RTVSPropertyOp12
 70
     1
102
RTVSPropertyOp13
 70
     1
102
RTVSPropertyOp14
 70
     1
102
RTVSPropertyOp15
 70
     1
102
RTVSPropertyOp16
 70
     1
102
RTVSPropertyOp17
 70
     1
102
RTVSPropertyOp18
 70
     1
102
RTVSPropertyOp19
 70
     1
102
RTVSPropertyOp20
 70
     1
102
RTVSPropertyOp21
 70
     1
102
RTVSPropertyOp22
 70
     1
102
RTVSPropertyOp23
 70
     1
102
RTVSPropertyOp24
 70
     1
102
RTVSPropertyOp25
 70
     1
102
RTVSPropertyOp26
 70
     1
102
RTVSPropertyOp27
 70
     1
102
RTVSPropertyOp28
 70
     1
102
RTVSPropertyOp29
 70
     1
102
RTVSPropertyOp30
 70
     1
102
RTVSPropertyOp31
 70
     1
102
RTVSPropertyOp32
 70
     1
102
RTVSPropertyOp33
 70
     1
102
RTVSPropertyOp34
 70
     1
102
RTVSPropertyOp35
 70
     1
102
RTVSPropertyOp36
 70
     1
102
RTVSPropertyOp37
 70
     1
102
RTVSPropertyOp38
 70
     1
102
RTVSPropertyOp39
 70
     1
102
RTVSPropertyOp40
 70
     1
102
RTVSPropertyOp41
 70
     1
102
RTVSPropertyOp42
 70
     1
102
RTVSPropertyOp43
 70
     1
102
RTVSPropertyOp44
 70
     1
102
RTVSPropertyOp45
 70
     1
102
RTVSPropertyOp46
 70
     1
102
RTVSPropertyOp47
 70
     1
102
RTVSPropertyOp48
 70
     1
102
RTVSPropertyOp49
 70
     1
102
RTVSPropertyOp50
 70
     1
102
RTVSPropertyOp51
 70
     0
102
RTVSPropertyOp52
 70
     0
102
RTVSPropertyOp53
 70
     1
102
RTVSPropertyOp54
 70
     1
102
RTVSPropertyOp55
 70
     1
102
RTVSPropertyOp56
 70
     1
102
RTVSPropertyOp57
 70
     1
102
RTVSPost2010Prop28
280
     0
102
RTVSPost2010PropOp28
 70
     1
102
RTVSPost2010Prop29
280
     1
102
RTVSPost2010PropOp29
 70
     1
102
RTVSPost2010Prop30
280
     1
102
RTVSPost2010PropOp30
 70
     1
102
RTVSPost2010Prop31
280
     0
102
RTVSPost2010PropOp31
 70
     1
102
RTVSPost2010Prop32
280
     0
102
RTVSPost2010PropOp32
 70
     1
102
RTVSPost2010Prop33
280
     0
102
RTVSPost2010PropOp33
 70
     1
102
RTVSPost2010Prop34
280
     0
102
RTVSPost2010PropOp34
 70
     1
102
RTVSPost2010Prop35
280
     0
102
RTVSPost2010PropOp35
 70
     1
102
RTVSPost2010Prop36
280
     0
102
RTVSPost2010PropOp36
 70
     1
102
RTVSPost2010Prop37
 90
       50
102
RTVSPost2010PropOp37
 70
     1
102
RTVSPost2010Prop38
140
0.0
102
RTVSPost2010PropOp38
 70
     1
102
RTVSPost2010Prop39
140
1.0
102
RTVSPost2010PropOp39
 70
     1
102
RTVSPost2010Prop40
 90
        0
102
RTVSPost2010PropOp40
 70
     1
102
RTVSPost2010Prop41ColorIndex
 90
       18
102
RTVSPost2010Prop41ColorRGB
 90
        0
102
RTVSPost2010PropOp41
 70
     1
102
RTVSPost2010Prop42
 90
       50
102
RTVSPost2010PropOp42
 70
     1
102
RTVSPost2010Prop43
 90
        3
102
RTVSPost2010PropOp43
 70
     1
102
RTVSPost2010Prop44ColorIndex
 90
        5
102
RTVSPost2010Prop44ColorRGB
 90
      255
102
RTVSPost2010PropOp44
 70
     1
102
RTVSPost2010Prop45
280
     0
102
RTVSPost2010PropOp45
 70
     1
102
RTVSPost2010Prop46
 90
       50
102
RTVSPost2010PropOp46
 70
     1
102
RTVSPost2010Prop47
 90
       50
102
RTVSPost2010PropOp47
 70
     1
102
RTVSPost2010Prop48
 90
       50
102
RTVSPost2010PropOp48
 70
     1
102
RTVSPost2010Prop49
280
     0
102
RTVSPost2010PropOp49
 70
     1
102
RTVSPost2010Prop50
 90
       50
102
RTVSPost2010PropOp50
 70
     1
102
RTVSPost2010Prop51ColorIndex
 90
      256
102
RTVSPost2010Prop51ColorRGB
 90
-16777216
102
RTVSPost2010PropOp51
 70
     0
102
RTVSPost2010Prop52
140
1.0
102
RTVSPost2010PropOp52
 70
     0
102
RTVSPost2010Prop53
 90
        2
102
RTVSPost2010PropOp53
 70
     1
102
RTVSPost2010Prop54
  1
strokes_ogs.tif
102
RTVSPost2010PropOp54
 70
     1
102
RTVSPost2010Prop55
280
     0
102
RTVSPost2010PropOp55
 70
     1
102
RTVSPost2010Prop56
140
1.0
102
RTVSPost2010PropOp56
 70
     1
102
RTVSPost2010Prop57
140
1.0
102
RTVSPost2010PropOp57
 70
     1
  0
XRECORD
  5
2AE
102
{ACAD_REACTORS
330
2AD
102
}
330
2AD
100
AcDbXrecord
280
     1
102
RTVSPropertyOp0
 70
     1
102
RTVSPropertyOp1
 70
     1
102
RTVSPropertyOp2
 70
     1
102
RTVSPropertyOp3
 70
     1
102
RTVSPropertyOp4
 70
     1
102
RTVSPropertyOp5
 70
     1
102
RTVSPropertyOp6
 70
     1
102
RTVSPropertyOp7
 70
     1
102
RTVSPropertyOp8
 70
     1
102
RTVSPropertyOp9
 70
     1
102
RTVSPropertyOp10
 70
     1
102
RTVSPropertyOp11
 70
     1
102
RTVSPropertyOp12
 70
     1
102
RTVSPropertyOp13
 70
     1
102
RTVSPropertyOp14
 70
     1
102
RTVSPropertyOp15
 70
     1
102
RTVSPropertyOp16
 70
     1
102
RTVSPropertyOp17
 70
     1
102
RTVSPropertyOp18
 70
     1
102
RTVSPropertyOp19
 70
     1
102
RTVSPropertyOp20
 70
     1
102
RTVSPropertyOp21
 70
     1
102
RTVSPropertyOp22
 70
     1
102
RTVSPropertyOp23
 70
     1
102
RTVSPropertyOp24
 70
     1
102
RTVSPropertyOp25
 70
     1
102
RTVSPropertyOp26
 70
     1
102
RTVSPropertyOp27
 70
     1
102
RTVSPropertyOp28
 70
     1
102
RTVSPropertyOp29
 70
     1
102
RTVSPropertyOp30
 70
     1
102
RTVSPropertyOp31
 70
     1
102
RTVSPropertyOp32
 70
     1
102
RTVSPropertyOp33
 70
     1
102
RTVSPropertyOp34
 70
     1
102
RTVSPropertyOp35
 70
     1
102
RTVSPropertyOp36
 70
     1
102
RTVSPropertyOp37
 70
     1
102
RTVSPropertyOp38
 70
     1
102
RTVSPropertyOp39
 70
     1
102
RTVSPropertyOp40
 70
     1
102
RTVSPropertyOp41
 70
     1
102
RTVSPropertyOp42
 70
     1
102
RTVSPropertyOp43
 70
     1
102
RTVSPropertyOp44
 70
     1
102
RTVSPropertyOp45
 70
     1
102
RTVSPropertyOp46
 70
     1
102
RTVSPropertyOp47
 70
     1
102
RTVSPropertyOp48
 70
     1
102
RTVSPropertyOp49
 70
     1
102
RTVSPropertyOp50
 70
     1
102
RTVSPropertyOp51
 70
     0
102
RTVSPropertyOp52
 70
     0
102
RTVSPropertyOp53
 70
     1
102
RTVSPropertyOp54
 70
     1
102
RTVSPropertyOp55
 70
     1
102
RTVSPropertyOp56
 70
     1
102
RTVSPropertyOp57
 70
     1
102
RTVSPost2010Prop28
280
     0
102
RTVSPost2010PropOp28
 70
     1
102
RTVSPost2010Prop29
280
     1
102
RTVSPost2010PropOp29
 70
     1
102
RTVSPost2010Prop30
280
     1
102
RTVSPost2010PropOp30
 70
     1
102
RTVSPost2010Prop31
280
     0
102
RTVSPost2010PropOp31
 70
     1
102
RTVSPost2010Prop32
280
     0
102
RTVSPost2010PropOp32
 70
     1
102
RTVSPost2010Prop33
280
     0
102
RTVSPost2010PropOp33
 70
     1
102
RTVSPost2010Prop34
280
     0
102
RTVSPost2010PropOp34
 70
     1
102
RTVSPost2010Prop35
280
     0
102
RTVSPost2010PropOp35
 70
     1
102
RTVSPost2010Prop36
280
     0
102
RTVSPost2010PropOp36
 70
     1
102
RTVSPost2010Prop37
 90
       50
102
RTVSPost2010PropOp37
 70
     1
102
RTVSPost2010Prop38
140
0.0
102
RTVSPost2010PropOp38
 70
     1
102
RTVSPost2010Prop39
140
1.0
102
RTVSPost2010PropOp39
 70
     1
102
RTVSPost2010Prop40
 90
        0
102
RTVSPost2010PropOp40
 70
     1
102
RTVSPost2010Prop41ColorIndex
 90
       18
102
RTVSPost2010Prop41ColorRGB
 90
        0
102
RTVSPost2010PropOp41
 70
     1
102
RTVSPost2010Prop42
 90
       50
102
RTVSPost2010PropOp42
 70
     1
102
RTVSPost2010Prop43
 90
        3
102
RTVSPost2010PropOp43
 70
     1
102
RTVSPost2010Prop44ColorIndex
 90
        5
102
RTVSPost2010Prop44ColorRGB
 90
      255
102
RTVSPost2010PropOp44
 70
     1
102
RTVSPost2010Prop45
280
     0
102
RTVSPost2010PropOp45
 70
     1
102
RTVSPost2010Prop46
 90
       50
102
RTVSPost2010PropOp46
 70
     1
102
RTVSPost2010Prop47
 90
       50
102
RTVSPost2010PropOp47
 70
     1
102
RTVSPost2010Prop48
 90
       50
102
RTVSPost2010PropOp48
 70
     1
102
RTVSPost2010Prop49
280
     0
102
RTVSPost2010PropOp49
 70
     1
102
RTVSPost2010Prop50
 90
       50
102
RTVSPost2010PropOp50
 70
     1
102
RTVSPost2010Prop51ColorIndex
 90
      256
102
RTVSPost2010Prop51ColorRGB
 90
-16777216
102
RTVSPost2010PropOp51
 70
     0
102
RTVSPost2010Prop52
140
1.0
102
RTVSPost2010PropOp52
 70
     0
102
RTVSPost2010Prop53
 90
        2
102
RTVSPost2010PropOp53
 70
     1
102
RTVSPost2010Prop54
  1
strokes_ogs.tif
102
RTVSPost2010PropOp54
 70
     1
102
RTVSPost2010Prop55
280
     0
102
RTVSPost2010PropOp55
 70
     1
102
RTVSPost2010Prop56
140
1.0
102
RTVSPost2010PropOp56
 70
     1
102
RTVSPost2010Prop57
140
1.0
102
RTVSPost2010PropOp57
 70
     1
  0
XRECORD
  5
2B6
102
{ACAD_REACTORS
330
2B5
102
}
330
2B5
100
AcDbXrecord
280
     1
102
RTVSPropertyOp0
 70
     1
102
RTVSPropertyOp1
 70
     1
102
RTVSPropertyOp2
 70
     1
102
RTVSPropertyOp3
 70
     1
102
RTVSPropertyOp4
 70
     1
102
RTVSPropertyOp5
 70
     1
102
RTVSPropertyOp6
 70
     1
102
RTVSPropertyOp7
 70
     1
102
RTVSPropertyOp8
 70
     1
102
RTVSPropertyOp9
 70
     1
102
RTVSPropertyOp10
 70
     1
102
RTVSPropertyOp11
 70
     1
102
RTVSPropertyOp12
 70
     1
102
RTVSPropertyOp13
 70
     1
102
RTVSPropertyOp14
 70
     1
102
RTVSPropertyOp15
 70
     1
102
RTVSPropertyOp16
 70
     1
102
RTVSPropertyOp17
 70
     1
102
RTVSPropertyOp18
 70
     1
102
RTVSPropertyOp19
 70
     1
102
RTVSPropertyOp20
 70
     1
102
RTVSPropertyOp21
 70
     1
102
RTVSPropertyOp22
 70
     1
102
RTVSPropertyOp23
 70
     1
102
RTVSPropertyOp24
 70
     1
102
RTVSPropertyOp25
 70
     1
102
RTVSPropertyOp26
 70
     1
102
RTVSPropertyOp27
 70
     1
102
RTVSPropertyOp28
 70
     1
102
RTVSPropertyOp29
 70
     1
102
RTVSPropertyOp30
 70
     1
102
RTVSPropertyOp31
 70
     1
102
RTVSPropertyOp32
 70
     1
102
RTVSPropertyOp33
 70
     1
102
RTVSPropertyOp34
 70
     1
102
RTVSPropertyOp35
 70
     1
102
RTVSPropertyOp36
 70
     1
102
RTVSPropertyOp37
 70
     1
102
RTVSPropertyOp38
 70
     1
102
RTVSPropertyOp39
 70
     1
102
RTVSPropertyOp40
 70
     1
102
RTVSPropertyOp41
 70
     1
102
RTVSPropertyOp42
 70
     1
102
RTVSPropertyOp43
 70
     1
102
RTVSPropertyOp44
 70
     1
102
RTVSPropertyOp45
 70
     1
102
RTVSPropertyOp46
 70
     1
102
RTVSPropertyOp47
 70
     1
102
RTVSPropertyOp48
 70
     1
102
RTVSPropertyOp49
 70
     1
102
RTVSPropertyOp50
 70
     1
102
RTVSPropertyOp51
 70
     0
102
RTVSPropertyOp52
 70
     0
102
RTVSPropertyOp53
 70
     1
102
RTVSPropertyOp54
 70
     1
102
RTVSPropertyOp55
 70
     1
102
RTVSPropertyOp56
 70
     1
102
RTVSPropertyOp57
 70
     1
102
RTVSPost2010Prop28
280
     0
102
RTVSPost2010PropOp28
 70
     1
102
RTVSPost2010Prop29
280
     1
102
RTVSPost2010PropOp29
 70
     1
102
RTVSPost2010Prop30
280
     1
102
RTVSPost2010PropOp30
 70
     1
102
RTVSPost2010Prop31
280
     0
102
RTVSPost2010PropOp31
 70
     1
102
RTVSPost2010Prop32
280
     0
102
RTVSPost2010PropOp32
 70
     1
102
RTVSPost2010Prop33
280
     0
102
RTVSPost2010PropOp33
 70
     1
102
RTVSPost2010Prop34
280
     0
102
RTVSPost2010PropOp34
 70
     1
102
RTVSPost2010Prop35
280
     0
102
RTVSPost2010PropOp35
 70
     1
102
RTVSPost2010Prop36
280
     0
102
RTVSPost2010PropOp36
 70
     1
102
RTVSPost2010Prop37
 90
       50
102
RTVSPost2010PropOp37
 70
     1
102
RTVSPost2010Prop38
140
0.0
102
RTVSPost2010PropOp38
 70
     1
102
RTVSPost2010Prop39
140
1.0
102
RTVSPost2010PropOp39
 70
     1
102
RTVSPost2010Prop40
 90
        0
102
RTVSPost2010PropOp40
 70
     1
102
RTVSPost2010Prop41ColorIndex
 90
       18
102
RTVSPost2010Prop41ColorRGB
 90
        0
102
RTVSPost2010PropOp41
 70
     1
102
RTVSPost2010Prop42
 90
       50
102
RTVSPost2010PropOp42
 70
     1
102
RTVSPost2010Prop43
 90
        3
102
RTVSPost2010PropOp43
 70
     1
102
RTVSPost2010Prop44ColorIndex
 90
        5
102
RTVSPost2010Prop44ColorRGB
 90
      255
102
RTVSPost2010PropOp44
 70
     1
102
RTVSPost2010Prop45
280
     0
102
RTVSPost2010PropOp45
 70
     1
102
RTVSPost2010Prop46
 90
       50
102
RTVSPost2010PropOp46
 70
     1
102
RTVSPost2010Prop47
 90
       50
102
RTVSPost2010PropOp47
 70
     1
102
RTVSPost2010Prop48
 90
       50
102
RTVSPost2010PropOp48
 70
     1
102
RTVSPost2010Prop49
280
     0
102
RTVSPost2010PropOp49
 70
     1
102
RTVSPost2010Prop50
 90
       50
102
RTVSPost2010PropOp50
 70
     1
102
RTVSPost2010Prop51ColorIndex
 90
      256
102
RTVSPost2010Prop51ColorRGB
 90
-16777216
102
RTVSPost2010PropOp51
 70
     0
102
RTVSPost2010Prop52
140
1.0
102
RTVSPost2010PropOp52
 70
     0
102
RTVSPost2010Prop53
 90
        2
102
RTVSPost2010PropOp53
 70
     1
102
RTVSPost2010Prop54
  1
strokes_ogs.tif
102
RTVSPost2010PropOp54
 70
     1
102
RTVSPost2010Prop55
280
     0
102
RTVSPost2010PropOp55
 70
     1
102
RTVSPost2010Prop56
140
1.0
102
RTVSPost2010PropOp56
 70
     1
102
RTVSPost2010Prop57
140
1.0
102
RTVSPost2010PropOp57
 70
     1
  0
XRECORD
  5
2AA
102
{ACAD_REACTORS
330
2A9
102
}
330
2A9
100
AcDbXrecord
280
     1
102
RTVSPropertyOp0
 70
     1
102
RTVSPropertyOp1
 70
     1
102
RTVSPropertyOp2
 70
     1
102
RTVSPropertyOp3
 70
     1
102
RTVSPropertyOp4
 70
     1
102
RTVSPropertyOp5
 70
     1
102
RTVSPropertyOp6
 70
     1
102
RTVSPropertyOp7
 70
     1
102
RTVSPropertyOp8
 70
     1
102
RTVSPropertyOp9
 70
     1
102
RTVSPropertyOp10
 70
     1
102
RTVSPropertyOp11
 70
     1
102
RTVSPropertyOp12
 70
     1
102
RTVSPropertyOp13
 70
     1
102
RTVSPropertyOp14
 70
     1
102
RTVSPropertyOp15
 70
     1
102
RTVSPropertyOp16
 70
     1
102
RTVSPropertyOp17
 70
     1
102
RTVSPropertyOp18
 70
     1
102
RTVSPropertyOp19
 70
     1
102
RTVSPropertyOp20
 70
     1
102
RTVSPropertyOp21
 70
     1
102
RTVSPropertyOp22
 70
     1
102
RTVSPropertyOp23
 70
     1
102
RTVSPropertyOp24
 70
     1
102
RTVSPropertyOp25
 70
     1
102
RTVSPropertyOp26
 70
     1
102
RTVSPropertyOp27
 70
     1
102
RTVSPropertyOp28
 70
     1
102
RTVSPropertyOp29
 70
     1
102
RTVSPropertyOp30
 70
     1
102
RTVSPropertyOp31
 70
     1
102
RTVSPropertyOp32
 70
     1
102
RTVSPropertyOp33
 70
     1
102
RTVSPropertyOp34
 70
     1
102
RTVSPropertyOp35
 70
     1
102
RTVSPropertyOp36
 70
     1
102
RTVSPropertyOp37
 70
     1
102
RTVSPropertyOp38
 70
     1
102
RTVSPropertyOp39
 70
     1
102
RTVSPropertyOp40
 70
     1
102
RTVSPropertyOp41
 70
     1
102
RTVSPropertyOp42
 70
     1
102
RTVSPropertyOp43
 70
     1
102
RTVSPropertyOp44
 70
     1
102
RTVSPropertyOp45
 70
     1
102
RTVSPropertyOp46
 70
     1
102
RTVSPropertyOp47
 70
     1
102
RTVSPropertyOp48
 70
     1
102
RTVSPropertyOp49
 70
     1
102
RTVSPropertyOp50
 70
     1
102
RTVSPropertyOp51
 70
     0
102
RTVSPropertyOp52
 70
     0
102
RTVSPropertyOp53
 70
     1
102
RTVSPropertyOp54
 70
     1
102
RTVSPropertyOp55
 70
     1
102
RTVSPropertyOp56
 70
     1
102
RTVSPropertyOp57
 70
     1
102
RTVSPost2010Prop28
280
     0
102
RTVSPost2010PropOp28
 70
     1
102
RTVSPost2010Prop29
280
     1
102
RTVSPost2010PropOp29
 70
     1
102
RTVSPost2010Prop30
280
     1
102
RTVSPost2010PropOp30
 70
     1
102
RTVSPost2010Prop31
280
     0
102
RTVSPost2010PropOp31
 70
     1
102
RTVSPost2010Prop32
280
     0
102
RTVSPost2010PropOp32
 70
     1
102
RTVSPost2010Prop33
280
     0
102
RTVSPost2010PropOp33
 70
     1
102
RTVSPost2010Prop34
280
     0
102
RTVSPost2010PropOp34
 70
     1
102
RTVSPost2010Prop35
280
     0
102
RTVSPost2010PropOp35
 70
     1
102
RTVSPost2010Prop36
280
     0
102
RTVSPost2010PropOp36
 70
     1
102
RTVSPost2010Prop37
 90
       50
102
RTVSPost2010PropOp37
 70
     1
102
RTVSPost2010Prop38
140
0.0
102
RTVSPost2010PropOp38
 70
     1
102
RTVSPost2010Prop39
140
1.0
102
RTVSPost2010PropOp39
 70
     1
102
RTVSPost2010Prop40
 90
        0
102
RTVSPost2010PropOp40
 70
     1
102
RTVSPost2010Prop41ColorIndex
 90
       18
102
RTVSPost2010Prop41ColorRGB
 90
        0
102
RTVSPost2010PropOp41
 70
     1
102
RTVSPost2010Prop42
 90
       50
102
RTVSPost2010PropOp42
 70
     1
102
RTVSPost2010Prop43
 90
        3
102
RTVSPost2010PropOp43
 70
     1
102
RTVSPost2010Prop44ColorIndex
 90
        5
102
RTVSPost2010Prop44ColorRGB
 90
      255
102
RTVSPost2010PropOp44
 70
     1
102
RTVSPost2010Prop45
280
     0
102
RTVSPost2010PropOp45
 70
     1
102
RTVSPost2010Prop46
 90
       50
102
RTVSPost2010PropOp46
 70
     1
102
RTVSPost2010Prop47
 90
       50
102
RTVSPost2010PropOp47
 70
     1
102
RTVSPost2010Prop48
 90
       50
102
RTVSPost2010PropOp48
 70
     1
102
RTVSPost2010Prop49
280
     0
102
RTVSPost2010PropOp49
 70
     1
102
RTVSPost2010Prop50
 90
       50
102
RTVSPost2010PropOp50
 70
     1
102
RTVSPost2010Prop51ColorIndex
 90
      256
102
RTVSPost2010Prop51ColorRGB
 90
-16777216
102
RTVSPost2010PropOp51
 70
     0
102
RTVSPost2010Prop52
140
1.0
102
RTVSPost2010PropOp52
 70
     0
102
RTVSPost2010Prop53
 90
        2
102
RTVSPost2010PropOp53
 70
     1
102
RTVSPost2010Prop54
  1
strokes_ogs.tif
102
RTVSPost2010PropOp54
 70
     1
102
RTVSPost2010Prop55
280
     0
102
RTVSPost2010PropOp55
 70
     1
102
RTVSPost2010Prop56
140
1.0
102
RTVSPost2010PropOp56
 70
     1
102
RTVSPost2010Prop57
140
1.0
102
RTVSPost2010PropOp57
 70
     1
  0
XRECORD
  5
2AC
102
{ACAD_REACTORS
330
2AB
102
}
330
2AB
100
AcDbXrecord
280
     1
102
RTVSPropertyOp0
 70
     1
102
RTVSPropertyOp1
 70
     1
102
RTVSPropertyOp2
 70
     1
102
RTVSPropertyOp3
 70
     1
102
RTVSPropertyOp4
 70
     1
102
RTVSPropertyOp5
 70
     1
102
RTVSPropertyOp6
 70
     1
102
RTVSPropertyOp7
 70
     1
102
RTVSPropertyOp8
 70
     1
102
RTVSPropertyOp9
 70
     1
102
RTVSPropertyOp10
 70
     1
102
RTVSPropertyOp11
 70
     1
102
RTVSPropertyOp12
 70
     1
102
RTVSPropertyOp13
 70
     1
102
RTVSPropertyOp14
 70
     1
102
RTVSPropertyOp15
 70
     1
102
RTVSPropertyOp16
 70
     1
102
RTVSPropertyOp17
 70
     1
102
RTVSPropertyOp18
 70
     1
102
RTVSPropertyOp19
 70
     1
102
RTVSPropertyOp20
 70
     1
102
RTVSPropertyOp21
 70
     1
102
RTVSPropertyOp22
 70
     1
102
RTVSPropertyOp23
 70
     1
102
RTVSPropertyOp24
 70
     1
102
RTVSPropertyOp25
 70
     1
102
RTVSPropertyOp26
 70
     1
102
RTVSPropertyOp27
 70
     1
102
RTVSPropertyOp28
 70
     1
102
RTVSPropertyOp29
 70
     1
102
RTVSPropertyOp30
 70
     1
102
RTVSPropertyOp31
 70
     1
102
RTVSPropertyOp32
 70
     1
102
RTVSPropertyOp33
 70
     1
102
RTVSPropertyOp34
 70
     1
102
RTVSPropertyOp35
 70
     1
102
RTVSPropertyOp36
 70
     1
102
RTVSPropertyOp37
 70
     1
102
RTVSPropertyOp38
 70
     1
102
RTVSPropertyOp39
 70
     1
102
RTVSPropertyOp40
 70
     1
102
RTVSPropertyOp41
 70
     1
102
RTVSPropertyOp42
 70
     1
102
RTVSPropertyOp43
 70
     1
102
RTVSPropertyOp44
 70
     1
102
RTVSPropertyOp45
 70
     1
102
RTVSPropertyOp46
 70
     1
102
RTVSPropertyOp47
 70
     1
102
RTVSPropertyOp48
 70
     1
102
RTVSPropertyOp49
 70
     1
102
RTVSPropertyOp50
 70
     1
102
RTVSPropertyOp51
 70
     0
102
RTVSPropertyOp52
 70
     0
102
RTVSPropertyOp53
 70
     1
102
RTVSPropertyOp54
 70
     1
102
RTVSPropertyOp55
 70
     1
102
RTVSPropertyOp56
 70
     1
102
RTVSPropertyOp57
 70
     1
102
RTVSPost2010Prop28
280
     0
102
RTVSPost2010PropOp28
 70
     1
102
RTVSPost2010Prop29
280
     1
102
RTVSPost2010PropOp29
 70
     1
102
RTVSPost2010Prop30
280
     1
102
RTVSPost2010PropOp30
 70
     1
102
RTVSPost2010Prop31
280
     0
102
RTVSPost2010PropOp31
 70
     1
102
RTVSPost2010Prop32
280
     0
102
RTVSPost2010PropOp32
 70
     1
102
RTVSPost2010Prop33
280
     0
102
RTVSPost2010PropOp33
 70
     1
102
RTVSPost2010Prop34
280
     0
102
RTVSPost2010PropOp34
 70
     1
102
RTVSPost2010Prop35
280
     0
102
RTVSPost2010PropOp35
 70
     1
102
RTVSPost2010Prop36
280
     0
102
RTVSPost2010PropOp36
 70
     1
102
RTVSPost2010Prop37
 90
       50
102
RTVSPost2010PropOp37
 70
     1
102
RTVSPost2010Prop38
140
0.0
102
RTVSPost2010PropOp38
 70
     1
102
RTVSPost2010Prop39
140
1.0
102
RTVSPost2010PropOp39
 70
     1
102
RTVSPost2010Prop40
 90
        0
102
RTVSPost2010PropOp40
 70
     1
102
RTVSPost2010Prop41ColorIndex
 90
       18
102
RTVSPost2010Prop41ColorRGB
 90
        0
102
RTVSPost2010PropOp41
 70
     1
102
RTVSPost2010Prop42
 90
       50
102
RTVSPost2010PropOp42
 70
     1
102
RTVSPost2010Prop43
 90
        3
102
RTVSPost2010PropOp43
 70
     1
102
RTVSPost2010Prop44ColorIndex
 90
        5
102
RTVSPost2010Prop44ColorRGB
 90
      255
102
RTVSPost2010PropOp44
 70
     1
102
RTVSPost2010Prop45
280
     0
102
RTVSPost2010PropOp45
 70
     1
102
RTVSPost2010Prop46
 90
       50
102
RTVSPost2010PropOp46
 70
     1
102
RTVSPost2010Prop47
 90
       50
102
RTVSPost2010PropOp47
 70
     1
102
RTVSPost2010Prop48
 90
       50
102
RTVSPost2010PropOp48
 70
     1
102
RTVSPost2010Prop49
280
     0
102
RTVSPost2010PropOp49
 70
     1
102
RTVSPost2010Prop50
 90
       50
102
RTVSPost2010PropOp50
 70
     1
102
RTVSPost2010Prop51ColorIndex
 90
      256
102
RTVSPost2010Prop51ColorRGB
 90
-16777216
102
RTVSPost2010PropOp51
 70
     0
102
RTVSPost2010Prop52
140
1.0
102
RTVSPost2010PropOp52
 70
     0
102
RTVSPost2010Prop53
 90
        2
102
RTVSPost2010PropOp53
 70
     1
102
RTVSPost2010Prop54
  1
strokes_ogs.tif
102
RTVSPost2010PropOp54
 70
     1
102
RTVSPost2010Prop55
280
     0
102
RTVSPost2010PropOp55
 70
     1
102
RTVSPost2010Prop56
140
1.0
102
RTVSPost2010PropOp56
 70
     1
102
RTVSPost2010Prop57
140
1.0
102
RTVSPost2010PropOp57
 70
     1
  0
XRECORD
  5
2BC
102
{ACAD_REACTORS
330
2BB
102
}
330
2BB
100
AcDbXrecord
280
     1
102
RTVSPropertyOp0
 70
     0
102
RTVSPropertyOp1
 70
     0
102
RTVSPropertyOp2
 70
     0
102
RTVSPropertyOp3
 70
     0
102
RTVSPropertyOp4
 70
     0
102
RTVSPropertyOp5
 70
     0
102
RTVSPropertyOp6
 70
     0
102
RTVSPropertyOp7
 70
     0
102
RTVSPropertyOp8
 70
     0
102
RTVSPropertyOp9
 70
     0
102
RTVSPropertyOp10
 70
     0
102
RTVSPropertyOp11
 70
     0
102
RTVSPropertyOp12
 70
     0
102
RTVSPropertyOp13
 70
     0
102
RTVSPropertyOp14
 70
     2
102
RTVSPropertyOp15
 70
     0
102
RTVSPropertyOp16
 70
     0
102
RTVSPropertyOp17
 70
     0
102
RTVSPropertyOp18
 70
     0
102
RTVSPropertyOp19
 70
     0
102
RTVSPropertyOp20
 70
     0
102
RTVSPropertyOp21
 70
     0
102
RTVSPropertyOp22
 70
     0
102
RTVSPropertyOp23
 70
     0
102
RTVSPropertyOp24
 70
     0
102
RTVSPropertyOp25
 70
     0
102
RTVSPropertyOp26
 70
     0
102
RTVSPropertyOp27
 70
     0
102
RTVSPropertyOp28
 70
     0
102
RTVSPropertyOp29
 70
     0
102
RTVSPropertyOp30
 70
     0
102
RTVSPropertyOp31
 70
     0
102
RTVSPropertyOp32
 70
     0
102
RTVSPropertyOp33
 70
     0
102
RTVSPropertyOp34
 70
     0
102
RTVSPropertyOp35
 70
     0
102
RTVSPropertyOp36
 70
     0
102
RTVSPropertyOp37
 70
     0
102
RTVSPropertyOp38
 70
     0
102
RTVSPropertyOp39
 70
     0
102
RTVSPropertyOp40
 70
     0
102
RTVSPropertyOp41
 70
     0
102
RTVSPropertyOp42
 70
     0
102
RTVSPropertyOp43
 70
     0
102
RTVSPropertyOp44
 70
     0
102
RTVSPropertyOp45
 70
     0
102
RTVSPropertyOp46
 70
     0
102
RTVSPropertyOp47
 70
     0
102
RTVSPropertyOp48
 70
     0
102
RTVSPropertyOp49
 70
     0
102
RTVSPropertyOp50
 70
     0
102
RTVSPropertyOp51
 70
     0
102
RTVSPropertyOp52
 70
     0
102
RTVSPropertyOp53
 70
     0
102
RTVSPropertyOp54
 70
     0
102
RTVSPropertyOp55
 70
     0
102
RTVSPropertyOp56
 70
     0
102
RTVSPropertyOp57
 70
     0
102
RTVSPost2010Prop28
280
     0
102
RTVSPost2010PropOp28
 70
     0
102
RTVSPost2010Prop29
280
     1
102
RTVSPost2010PropOp29
 70
     0
102
RTVSPost2010Prop30
280
     1
102
RTVSPost2010PropOp30
 70
     0
102
RTVSPost2010Prop31
280
     0
102
RTVSPost2010PropOp31
 70
     0
102
RTVSPost2010Prop32
280
     0
102
RTVSPost2010PropOp32
 70
     0
102
RTVSPost2010Prop33
280
     0
102
RTVSPost2010PropOp33
 70
     0
102
RTVSPost2010Prop34
280
     0
102
RTVSPost2010PropOp34
 70
     0
102
RTVSPost2010Prop35
280
     0
102
RTVSPost2010PropOp35
 70
     0
102
RTVSPost2010Prop36
280
     0
102
RTVSPost2010PropOp36
 70
     0
102
RTVSPost2010Prop37
 90
       50
102
RTVSPost2010PropOp37
 70
     0
102
RTVSPost2010Prop38
140
0.0
102
RTVSPost2010PropOp38
 70
     0
102
RTVSPost2010Prop39
140
1.0
102
RTVSPost2010PropOp39
 70
     0
102
RTVSPost2010Prop40
 90
        0
102
RTVSPost2010PropOp40
 70
     0
102
RTVSPost2010Prop41ColorIndex
 90
       18
102
RTVSPost2010Prop41ColorRGB
 90
        0
102
RTVSPost2010PropOp41
 70
     0
102
RTVSPost2010Prop42
 90
       50
102
RTVSPost2010PropOp42
 70
     0
102
RTVSPost2010Prop43
 90
        3
102
RTVSPost2010PropOp43
 70
     0
102
RTVSPost2010Prop44ColorIndex
 90
        5
102
RTVSPost2010Prop44ColorRGB
 90
      255
102
RTVSPost2010PropOp44
 70
     0
102
RTVSPost2010Prop45
280
     0
102
RTVSPost2010PropOp45
 70
     0
102
RTVSPost2010Prop46
 90
       50
102
RTVSPost2010PropOp46
 70
     0
102
RTVSPost2010Prop47
 90
       50
102
RTVSPost2010PropOp47
 70
     0
102
RTVSPost2010Prop48
 90
       50
102
RTVSPost2010PropOp48
 70
     0
102
RTVSPost2010Prop49
280
     0
102
RTVSPost2010PropOp49
 70
     0
102
RTVSPost2010Prop50
 90
       50
102
RTVSPost2010PropOp50
 70
     0
102
RTVSPost2010Prop51ColorIndex
 90
      256
102
RTVSPost2010Prop51ColorRGB
 90
-16777216
102
RTVSPost2010PropOp51
 70
     0
102
RTVSPost2010Prop52
140
1.0
102
RTVSPost2010PropOp52
 70
     0
102
RTVSPost2010Prop53
 90
        2
102
RTVSPost2010PropOp53
 70
     0
102
RTVSPost2010Prop54
  1
strokes_ogs.tif
102
RTVSPost2010PropOp54
 70
     0
102
RTVSPost2010Prop55
280
     0
102
RTVSPost2010PropOp55
 70
     0
102
RTVSPost2010Prop56
140
1.0
102
RTVSPost2010PropOp56
 70
     0
102
RTVSPost2010Prop57
140
1.0
102
RTVSPost2010PropOp57
 70
     0
  0
XRECORD
  5
2B4
102
{ACAD_REACTORS
330
2B3
102
}
330
2B3
100
AcDbXrecord
280
     1
102
RTVSPropertyOp0
 70
     1
102
RTVSPropertyOp1
 70
     1
102
RTVSPropertyOp2
 70
     1
102
RTVSPropertyOp3
 70
     1
102
RTVSPropertyOp4
 70
     1
102
RTVSPropertyOp5
 70
     1
102
RTVSPropertyOp6
 70
     1
102
RTVSPropertyOp7
 70
     1
102
RTVSPropertyOp8
 70
     1
102
RTVSPropertyOp9
 70
     1
102
RTVSPropertyOp10
 70
     1
102
RTVSPropertyOp11
 70
     1
102
RTVSPropertyOp12
 70
     1
102
RTVSPropertyOp13
 70
     1
102
RTVSPropertyOp14
 70
     1
102
RTVSPropertyOp15
 70
     1
102
RTVSPropertyOp16
 70
     1
102
RTVSPropertyOp17
 70
     1
102
RTVSPropertyOp18
 70
     1
102
RTVSPropertyOp19
 70
     1
102
RTVSPropertyOp20
 70
     1
102
RTVSPropertyOp21
 70
     1
102
RTVSPropertyOp22
 70
     1
102
RTVSPropertyOp23
 70
     1
102
RTVSPropertyOp24
 70
     1
102
RTVSPropertyOp25
 70
     1
102
RTVSPropertyOp26
 70
     1
102
RTVSPropertyOp27
 70
     1
102
RTVSPropertyOp28
 70
     1
102
RTVSPropertyOp29
 70
     1
102
RTVSPropertyOp30
 70
     1
102
RTVSPropertyOp31
 70
     1
102
RTVSPropertyOp32
 70
     1
102
RTVSPropertyOp33
 70
     1
102
RTVSPropertyOp34
 70
     1
102
RTVSPropertyOp35
 70
     1
102
RTVSPropertyOp36
 70
     1
102
RTVSPropertyOp37
 70
     1
102
RTVSPropertyOp38
 70
     1
102
RTVSPropertyOp39
 70
     1
102
RTVSPropertyOp40
 70
     1
102
RTVSPropertyOp41
 70
     1
102
RTVSPropertyOp42
 70
     1
102
RTVSPropertyOp43
 70
     1
102
RTVSPropertyOp44
 70
     1
102
RTVSPropertyOp45
 70
     1
102
RTVSPropertyOp46
 70
     1
102
RTVSPropertyOp47
 70
     1
102
RTVSPropertyOp48
 70
     1
102
RTVSPropertyOp49
 70
     1
102
RTVSPropertyOp50
 70
     1
102
RTVSPropertyOp51
 70
     0
102
RTVSPropertyOp52
 70
     0
102
RTVSPropertyOp53
 70
     1
102
RTVSPropertyOp54
 70
     1
102
RTVSPropertyOp55
 70
     1
102
RTVSPropertyOp56
 70
     1
102
RTVSPropertyOp57
 70
     1
102
RTVSPost2010Prop28
280
     0
102
RTVSPost2010PropOp28
 70
     1
102
RTVSPost2010Prop29
280
     1
102
RTVSPost2010PropOp29
 70
     1
102
RTVSPost2010Prop30
280
     1
102
RTVSPost2010PropOp30
 70
     1
102
RTVSPost2010Prop31
280
     0
102
RTVSPost2010PropOp31
 70
     1
102
RTVSPost2010Prop32
280
     0
102
RTVSPost2010PropOp32
 70
     1
102
RTVSPost2010Prop33
280
     0
102
RTVSPost2010PropOp33
 70
     1
102
RTVSPost2010Prop34
280
     0
102
RTVSPost2010PropOp34
 70
     1
102
RTVSPost2010Prop35
280
     0
102
RTVSPost2010PropOp35
 70
     1
102
RTVSPost2010Prop36
280
     0
102
RTVSPost2010PropOp36
 70
     1
102
RTVSPost2010Prop37
 90
       50
102
RTVSPost2010PropOp37
 70
     1
102
RTVSPost2010Prop38
140
0.0
102
RTVSPost2010PropOp38
 70
     1
102
RTVSPost2010Prop39
140
1.0
102
RTVSPost2010PropOp39
 70
     1
102
RTVSPost2010Prop40
 90
        0
102
RTVSPost2010PropOp40
 70
     1
102
RTVSPost2010Prop41ColorIndex
 90
       18
102
RTVSPost2010Prop41ColorRGB
 90
        0
102
RTVSPost2010PropOp41
 70
     1
102
RTVSPost2010Prop42
 90
       50
102
RTVSPost2010PropOp42
 70
     1
102
RTVSPost2010Prop43
 90
        3
102
RTVSPost2010PropOp43
 70
     1
102
RTVSPost2010Prop44ColorIndex
 90
        5
102
RTVSPost2010Prop44ColorRGB
 90
      255
102
RTVSPost2010PropOp44
 70
     1
102
RTVSPost2010Prop45
280
     0
102
RTVSPost2010PropOp45
 70
     1
102
RTVSPost2010Prop46
 90
       50
102
RTVSPost2010PropOp46
 70
     1
102
RTVSPost2010Prop47
 90
       50
102
RTVSPost2010PropOp47
 70
     1
102
RTVSPost2010Prop48
 90
       50
102
RTVSPost2010PropOp48
 70
     1
102
RTVSPost2010Prop49
280
     0
102
RTVSPost2010PropOp49
 70
     1
102
RTVSPost2010Prop50
 90
       50
102
RTVSPost2010PropOp50
 70
     1
102
RTVSPost2010Prop51ColorIndex
 90
      256
102
RTVSPost2010Prop51ColorRGB
 90
-16777216
102
RTVSPost2010PropOp51
 70
     0
102
RTVSPost2010Prop52
140
1.0
102
RTVSPost2010PropOp52
 70
     0
102
RTVSPost2010Prop53
 90
        2
102
RTVSPost2010PropOp53
 70
     1
102
RTVSPost2010Prop54
  1
strokes_ogs.tif
102
RTVSPost2010PropOp54
 70
     1
102
RTVSPost2010Prop55
280
     0
102
RTVSPost2010PropOp55
 70
     1
102
RTVSPost2010Prop56
140
1.0
102
RTVSPost2010PropOp56
 70
     1
102
RTVSPost2010Prop57
140
1.0
102
RTVSPost2010PropOp57
 70
     1
  0
XRECORD
  5
298
102
{ACAD_REACTORS
330
297
102
}
330
297
100
AcDbXrecord
280
     1
102
RTVSPropertyOp0
 70
     1
102
RTVSPropertyOp1
 70
     1
102
RTVSPropertyOp2
 70
     1
102
RTVSPropertyOp3
 70
     1
102
RTVSPropertyOp4
 70
     1
102
RTVSPropertyOp5
 70
     1
102
RTVSPropertyOp6
 70
     1
102
RTVSPropertyOp7
 70
     1
102
RTVSPropertyOp8
 70
     1
102
RTVSPropertyOp9
 70
     1
102
RTVSPropertyOp10
 70
     1
102
RTVSPropertyOp11
 70
     1
102
RTVSPropertyOp12
 70
     1
102
RTVSPropertyOp13
 70
     1
102
RTVSPropertyOp14
 70
     1
102
RTVSPropertyOp15
 70
     1
102
RTVSPropertyOp16
 70
     1
102
RTVSPropertyOp17
 70
     1
102
RTVSPropertyOp18
 70
     1
102
RTVSPropertyOp19
 70
     1
102
RTVSPropertyOp20
 70
     1
102
RTVSPropertyOp21
 70
     1
102
RTVSPropertyOp22
 70
     1
102
RTVSPropertyOp23
 70
     1
102
RTVSPropertyOp24
 70
     1
102
RTVSPropertyOp25
 70
     1
102
RTVSPropertyOp26
 70
     1
102
RTVSPropertyOp27
 70
     1
102
RTVSPropertyOp28
 70
     1
102
RTVSPropertyOp29
 70
     1
102
RTVSPropertyOp30
 70
     1
102
RTVSPropertyOp31
 70
     1
102
RTVSPropertyOp32
 70
     1
102
RTVSPropertyOp33
 70
     1
102
RTVSPropertyOp34
 70
     1
102
RTVSPropertyOp35
 70
     1
102
RTVSPropertyOp36
 70
     1
102
RTVSPropertyOp37
 70
     1
102
RTVSPropertyOp38
 70
     1
102
RTVSPropertyOp39
 70
     1
102
RTVSPropertyOp40
 70
     1
102
RTVSPropertyOp41
 70
     1
102
RTVSPropertyOp42
 70
     1
102
RTVSPropertyOp43
 70
     1
102
RTVSPropertyOp44
 70
     1
102
RTVSPropertyOp45
 70
     1
102
RTVSPropertyOp46
 70
     1
102
RTVSPropertyOp47
 70
     1
102
RTVSPropertyOp48
 70
     1
102
RTVSPropertyOp49
 70
     1
102
RTVSPropertyOp50
 70
     1
102
RTVSPropertyOp51
 70
     0
102
RTVSPropertyOp52
 70
     0
102
RTVSPropertyOp53
 70
     1
102
RTVSPropertyOp54
 70
     1
102
RTVSPropertyOp55
 70
     1
102
RTVSPropertyOp56
 70
     1
102
RTVSPropertyOp57
 70
     1
102
RTVSPost2010Prop28
280
     0
102
RTVSPost2010PropOp28
 70
     1
102
RTVSPost2010Prop29
280
     1
102
RTVSPost2010PropOp29
 70
     1
102
RTVSPost2010Prop30
280
     1
102
RTVSPost2010PropOp30
 70
     1
102
RTVSPost2010Prop31
280
     0
102
RTVSPost2010PropOp31
 70
     1
102
RTVSPost2010Prop32
280
     0
102
RTVSPost2010PropOp32
 70
     1
102
RTVSPost2010Prop33
280
     0
102
RTVSPost2010PropOp33
 70
     1
102
RTVSPost2010Prop34
280
     0
102
RTVSPost2010PropOp34
 70
     1
102
RTVSPost2010Prop35
280
     0
102
RTVSPost2010PropOp35
 70
     1
102
RTVSPost2010Prop36
280
     0
102
RTVSPost2010PropOp36
 70
     1
102
RTVSPost2010Prop37
 90
       50
102
RTVSPost2010PropOp37
 70
     1
102
RTVSPost2010Prop38
140
0.0
102
RTVSPost2010PropOp38
 70
     1
102
RTVSPost2010Prop39
140
1.0
102
RTVSPost2010PropOp39
 70
     1
102
RTVSPost2010Prop40
 90
        0
102
RTVSPost2010PropOp40
 70
     1
102
RTVSPost2010Prop41ColorIndex
 90
       18
102
RTVSPost2010Prop41ColorRGB
 90
        0
102
RTVSPost2010PropOp41
 70
     1
102
RTVSPost2010Prop42
 90
       50
102
RTVSPost2010PropOp42
 70
     1
102
RTVSPost2010Prop43
 90
        3
102
RTVSPost2010PropOp43
 70
     1
102
RTVSPost2010Prop44ColorIndex
 90
        5
102
RTVSPost2010Prop44ColorRGB
 90
      255
102
RTVSPost2010PropOp44
 70
     1
102
RTVSPost2010Prop45
280
     0
102
RTVSPost2010PropOp45
 70
     1
102
RTVSPost2010Prop46
 90
       50
102
RTVSPost2010PropOp46
 70
     1
102
RTVSPost2010Prop47
 90
       50
102
RTVSPost2010PropOp47
 70
     1
102
RTVSPost2010Prop48
 90
       50
102
RTVSPost2010PropOp48
 70
     1
102
RTVSPost2010Prop49
280
     0
102
RTVSPost2010PropOp49
 70
     1
102
RTVSPost2010Prop50
 90
       50
102
RTVSPost2010PropOp50
 70
     1
102
RTVSPost2010Prop51ColorIndex
 90
      256
102
RTVSPost2010Prop51ColorRGB
 90
-16777216
102
RTVSPost2010PropOp51
 70
     0
102
RTVSPost2010Prop52
140
1.0
102
RTVSPost2010PropOp52
 70
     0
102
RTVSPost2010Prop53
 90
        2
102
RTVSPost2010PropOp53
 70
     1
102
RTVSPost2010Prop54
  1
strokes_ogs.tif
102
RTVSPost2010PropOp54
 70
     1
102
RTVSPost2010Prop55
280
     0
102
RTVSPost2010PropOp55
 70
     1
102
RTVSPost2010Prop56
140
1.0
102
RTVSPost2010PropOp56
 70
     1
102
RTVSPost2010Prop57
140
1.0
102
RTVSPost2010PropOp57
 70
     1
  0
XRECORD
  5
29A
102
{ACAD_REACTORS
330
299
102
}
330
299
100
AcDbXrecord
280
     1
102
RTVSPropertyOp0
 70
     1
102
RTVSPropertyOp1
 70
     1
102
RTVSPropertyOp2
 70
     1
102
RTVSPropertyOp3
 70
     1
102
RTVSPropertyOp4
 70
     1
102
RTVSPropertyOp5
 70
     1
102
RTVSPropertyOp6
 70
     1
102
RTVSPropertyOp7
 70
     1
102
RTVSPropertyOp8
 70
     1
102
RTVSPropertyOp9
 70
     1
102
RTVSPropertyOp10
 70
     1
102
RTVSPropertyOp11
 70
     1
102
RTVSPropertyOp12
 70
     1
102
RTVSPropertyOp13
 70
     1
102
RTVSPropertyOp14
 70
     1
102
RTVSPropertyOp15
 70
     1
102
RTVSPropertyOp16
 70
     1
102
RTVSPropertyOp17
 70
     1
102
RTVSPropertyOp18
 70
     1
102
RTVSPropertyOp19
 70
     1
102
RTVSPropertyOp20
 70
     1
102
RTVSPropertyOp21
 70
     1
102
RTVSPropertyOp22
 70
     1
102
RTVSPropertyOp23
 70
     1
102
RTVSPropertyOp24
 70
     1
102
RTVSPropertyOp25
 70
     1
102
RTVSPropertyOp26
 70
     1
102
RTVSPropertyOp27
 70
     1
102
RTVSPropertyOp28
 70
     1
102
RTVSPropertyOp29
 70
     1
102
RTVSPropertyOp30
 70
     1
102
RTVSPropertyOp31
 70
     1
102
RTVSPropertyOp32
 70
     1
102
RTVSPropertyOp33
 70
     1
102
RTVSPropertyOp34
 70
     1
102
RTVSPropertyOp35
 70
     1
102
RTVSPropertyOp36
 70
     1
102
RTVSPropertyOp37
 70
     1
102
RTVSPropertyOp38
 70
     1
102
RTVSPropertyOp39
 70
     1
102
RTVSPropertyOp40
 70
     1
102
RTVSPropertyOp41
 70
     1
102
RTVSPropertyOp42
 70
     1
102
RTVSPropertyOp43
 70
     1
102
RTVSPropertyOp44
 70
     1
102
RTVSPropertyOp45
 70
     1
102
RTVSPropertyOp46
 70
     1
102
RTVSPropertyOp47
 70
     1
102
RTVSPropertyOp48
 70
     1
102
RTVSPropertyOp49
 70
     1
102
RTVSPropertyOp50
 70
     1
102
RTVSPropertyOp51
 70
     0
102
RTVSPropertyOp52
 70
     0
102
RTVSPropertyOp53
 70
     1
102
RTVSPropertyOp54
 70
     1
102
RTVSPropertyOp55
 70
     1
102
RTVSPropertyOp56
 70
     1
102
RTVSPropertyOp57
 70
     1
102
RTVSPost2010Prop28
280
     0
102
RTVSPost2010PropOp28
 70
     1
102
RTVSPost2010Prop29
280
     1
102
RTVSPost2010PropOp29
 70
     1
102
RTVSPost2010Prop30
280
     1
102
RTVSPost2010PropOp30
 70
     1
102
RTVSPost2010Prop31
280
     0
102
RTVSPost2010PropOp31
 70
     1
102
RTVSPost2010Prop32
280
     0
102
RTVSPost2010PropOp32
 70
     1
102
RTVSPost2010Prop33
280
     0
102
RTVSPost2010PropOp33
 70
     1
102
RTVSPost2010Prop34
280
     0
102
RTVSPost2010PropOp34
 70
     1
102
RTVSPost2010Prop35
280
     0
102
RTVSPost2010PropOp35
 70
     1
102
RTVSPost2010Prop36
280
     0
102
RTVSPost2010PropOp36
 70
     1
102
RTVSPost2010Prop37
 90
       50
102
RTVSPost2010PropOp37
 70
     1
102
RTVSPost2010Prop38
140
0.0
102
RTVSPost2010PropOp38
 70
     1
102
RTVSPost2010Prop39
140
1.0
102
RTVSPost2010PropOp39
 70
     1
102
RTVSPost2010Prop40
 90
        0
102
RTVSPost2010PropOp40
 70
     1
102
RTVSPost2010Prop41ColorIndex
 90
       18
102
RTVSPost2010Prop41ColorRGB
 90
        0
102
RTVSPost2010PropOp41
 70
     1
102
RTVSPost2010Prop42
 90
       50
102
RTVSPost2010PropOp42
 70
     1
102
RTVSPost2010Prop43
 90
        3
102
RTVSPost2010PropOp43
 70
     1
102
RTVSPost2010Prop44ColorIndex
 90
        5
102
RTVSPost2010Prop44ColorRGB
 90
      255
102
RTVSPost2010PropOp44
 70
     1
102
RTVSPost2010Prop45
280
     0
102
RTVSPost2010PropOp45
 70
     1
102
RTVSPost2010Prop46
 90
       50
102
RTVSPost2010PropOp46
 70
     1
102
RTVSPost2010Prop47
 90
       50
102
RTVSPost2010PropOp47
 70
     1
102
RTVSPost2010Prop48
 90
       50
102
RTVSPost2010PropOp48
 70
     1
102
RTVSPost2010Prop49
280
     0
102
RTVSPost2010PropOp49
 70
     1
102
RTVSPost2010Prop50
 90
       50
102
RTVSPost2010PropOp50
 70
     1
102
RTVSPost2010Prop51ColorIndex
 90
      256
102
RTVSPost2010Prop51ColorRGB
 90
-16777216
102
RTVSPost2010PropOp51
 70
     0
102
RTVSPost2010Prop52
140
1.0
102
RTVSPost2010PropOp52
 70
     0
102
RTVSPost2010Prop53
 90
        2
102
RTVSPost2010PropOp53
 70
     1
102
RTVSPost2010Prop54
  1
strokes_ogs.tif
102
RTVSPost2010PropOp54
 70
     1
102
RTVSPost2010Prop55
280
     0
102
RTVSPost2010PropOp55
 70
     1
102
RTVSPost2010Prop56
140
1.0
102
RTVSPost2010PropOp56
 70
     1
102
RTVSPost2010Prop57
140
1.0
102
RTVSPost2010PropOp57
 70
     1
  0
XRECORD
  5
29C
102
{ACAD_REACTORS
330
29B
102
}
330
29B
100
AcDbXrecord
280
     1
102
RTVSPropertyOp0
 70
     1
102
RTVSPropertyOp1
 70
     1
102
RTVSPropertyOp2
 70
     1
102
RTVSPropertyOp3
 70
     1
102
RTVSPropertyOp4
 70
     1
102
RTVSPropertyOp5
 70
     1
102
RTVSPropertyOp6
 70
     1
102
RTVSPropertyOp7
 70
     1
102
RTVSPropertyOp8
 70
     1
102
RTVSPropertyOp9
 70
     1
102
RTVSPropertyOp10
 70
     1
102
RTVSPropertyOp11
 70
     1
102
RTVSPropertyOp12
 70
     1
102
RTVSPropertyOp13
 70
     1
102
RTVSPropertyOp14
 70
     1
102
RTVSPropertyOp15
 70
     1
102
RTVSPropertyOp16
 70
     1
102
RTVSPropertyOp17
 70
     1
102
RTVSPropertyOp18
 70
     1
102
RTVSPropertyOp19
 70
     1
102
RTVSPropertyOp20
 70
     1
102
RTVSPropertyOp21
 70
     1
102
RTVSPropertyOp22
 70
     1
102
RTVSPropertyOp23
 70
     1
102
RTVSPropertyOp24
 70
     1
102
RTVSPropertyOp25
 70
     1
102
RTVSPropertyOp26
 70
     1
102
RTVSPropertyOp27
 70
     1
102
RTVSPropertyOp28
 70
     1
102
RTVSPropertyOp29
 70
     1
102
RTVSPropertyOp30
 70
     1
102
RTVSPropertyOp31
 70
     1
102
RTVSPropertyOp32
 70
     1
102
RTVSPropertyOp33
 70
     1
102
RTVSPropertyOp34
 70
     1
102
RTVSPropertyOp35
 70
     1
102
RTVSPropertyOp36
 70
     1
102
RTVSPropertyOp37
 70
     1
102
RTVSPropertyOp38
 70
     1
102
RTVSPropertyOp39
 70
     1
102
RTVSPropertyOp40
 70
     1
102
RTVSPropertyOp41
 70
     1
102
RTVSPropertyOp42
 70
     1
102
RTVSPropertyOp43
 70
     1
102
RTVSPropertyOp44
 70
     1
102
RTVSPropertyOp45
 70
     1
102
RTVSPropertyOp46
 70
     1
102
RTVSPropertyOp47
 70
     1
102
RTVSPropertyOp48
 70
     1
102
RTVSPropertyOp49
 70
     1
102
RTVSPropertyOp50
 70
     1
102
RTVSPropertyOp51
 70
     0
102
RTVSPropertyOp52
 70
     0
102
RTVSPropertyOp53
 70
     1
102
RTVSPropertyOp54
 70
     1
102
RTVSPropertyOp55
 70
     1
102
RTVSPropertyOp56
 70
     1
102
RTVSPropertyOp57
 70
     1
102
RTVSPost2010Prop28
280
     0
102
RTVSPost2010PropOp28
 70
     1
102
RTVSPost2010Prop29
280
     1
102
RTVSPost2010PropOp29
 70
     1
102
RTVSPost2010Prop30
280
     1
102
RTVSPost2010PropOp30
 70
     1
102
RTVSPost2010Prop31
280
     0
102
RTVSPost2010PropOp31
 70
     1
102
RTVSPost2010Prop32
280
     0
102
RTVSPost2010PropOp32
 70
     1
102
RTVSPost2010Prop33
280
     0
102
RTVSPost2010PropOp33
 70
     1
102
RTVSPost2010Prop34
280
     0
102
RTVSPost2010PropOp34
 70
     1
102
RTVSPost2010Prop35
280
     0
102
RTVSPost2010PropOp35
 70
     1
102
RTVSPost2010Prop36
280
     0
102
RTVSPost2010PropOp36
 70
     1
102
RTVSPost2010Prop37
 90
       50
102
RTVSPost2010PropOp37
 70
     1
102
RTVSPost2010Prop38
140
0.0
102
RTVSPost2010PropOp38
 70
     1
102
RTVSPost2010Prop39
140
1.0
102
RTVSPost2010PropOp39
 70
     1
102
RTVSPost2010Prop40
 90
        0
102
RTVSPost2010PropOp40
 70
     1
102
RTVSPost2010Prop41ColorIndex
 90
       18
102
RTVSPost2010Prop41ColorRGB
 90
        0
102
RTVSPost2010PropOp41
 70
     1
102
RTVSPost2010Prop42
 90
       50
102
RTVSPost2010PropOp42
 70
     1
102
RTVSPost2010Prop43
 90
        3
102
RTVSPost2010PropOp43
 70
     1
102
RTVSPost2010Prop44ColorIndex
 90
        5
102
RTVSPost2010Prop44ColorRGB
 90
      255
102
RTVSPost2010PropOp44
 70
     1
102
RTVSPost2010Prop45
280
     0
102
RTVSPost2010PropOp45
 70
     1
102
RTVSPost2010Prop46
 90
       50
102
RTVSPost2010PropOp46
 70
     1
102
RTVSPost2010Prop47
 90
       50
102
RTVSPost2010PropOp47
 70
     1
102
RTVSPost2010Prop48
 90
       50
102
RTVSPost2010PropOp48
 70
     1
102
RTVSPost2010Prop49
280
     0
102
RTVSPost2010PropOp49
 70
     1
102
RTVSPost2010Prop50
 90
       50
102
RTVSPost2010PropOp50
 70
     1
102
RTVSPost2010Prop51ColorIndex
 90
      256
102
RTVSPost2010Prop51ColorRGB
 90
-16777216
102
RTVSPost2010PropOp51
 70
     0
102
RTVSPost2010Prop52
140
1.0
102
RTVSPost2010PropOp52
 70
     0
102
RTVSPost2010Prop53
 90
        2
102
RTVSPost2010PropOp53
 70
     1
102
RTVSPost2010Prop54
  1
strokes_ogs.tif
102
RTVSPost2010PropOp54
 70
     1
102
RTVSPost2010Prop55
280
     0
102
RTVSPost2010PropOp55
 70
     1
102
RTVSPost2010Prop56
140
1.0
102
RTVSPost2010PropOp56
 70
     1
102
RTVSPost2010Prop57
140
1.0
102
RTVSPost2010PropOp57
 70
     1
  0
XRECORD
  5
29E
102
{ACAD_REACTORS
330
29D
102
}
330
29D
100
AcDbXrecord
280
     1
102
RTVSPropertyOp0
 70
     1
102
RTVSPropertyOp1
 70
     1
102
RTVSPropertyOp2
 70
     1
102
RTVSPropertyOp3
 70
     1
102
RTVSPropertyOp4
 70
     1
102
RTVSPropertyOp5
 70
     1
102
RTVSPropertyOp6
 70
     1
102
RTVSPropertyOp7
 70
     1
102
RTVSPropertyOp8
 70
     1
102
RTVSPropertyOp9
 70
     1
102
RTVSPropertyOp10
 70
     1
102
RTVSPropertyOp11
 70
     1
102
RTVSPropertyOp12
 70
     1
102
RTVSPropertyOp13
 70
     1
102
RTVSPropertyOp14
 70
     1
102
RTVSPropertyOp15
 70
     1
102
RTVSPropertyOp16
 70
     1
102
RTVSPropertyOp17
 70
     1
102
RTVSPropertyOp18
 70
     1
102
RTVSPropertyOp19
 70
     1
102
RTVSPropertyOp20
 70
     1
102
RTVSPropertyOp21
 70
     1
102
RTVSPropertyOp22
 70
     1
102
RTVSPropertyOp23
 70
     1
102
RTVSPropertyOp24
 70
     1
102
RTVSPropertyOp25
 70
     1
102
RTVSPropertyOp26
 70
     1
102
RTVSPropertyOp27
 70
     1
102
RTVSPropertyOp28
 70
     1
102
RTVSPropertyOp29
 70
     1
102
RTVSPropertyOp30
 70
     1
102
RTVSPropertyOp31
 70
     1
102
RTVSPropertyOp32
 70
     1
102
RTVSPropertyOp33
 70
     1
102
RTVSPropertyOp34
 70
     1
102
RTVSPropertyOp35
 70
     1
102
RTVSPropertyOp36
 70
     1
102
RTVSPropertyOp37
 70
     1
102
RTVSPropertyOp38
 70
     1
102
RTVSPropertyOp39
 70
     1
102
RTVSPropertyOp40
 70
     1
102
RTVSPropertyOp41
 70
     1
102
RTVSPropertyOp42
 70
     1
102
RTVSPropertyOp43
 70
     1
102
RTVSPropertyOp44
 70
     1
102
RTVSPropertyOp45
 70
     1
102
RTVSPropertyOp46
 70
     1
102
RTVSPropertyOp47
 70
     1
102
RTVSPropertyOp48
 70
     1
102
RTVSPropertyOp49
 70
     1
102
RTVSPropertyOp50
 70
     1
102
RTVSPropertyOp51
 70
     0
102
RTVSPropertyOp52
 70
     0
102
RTVSPropertyOp53
 70
     1
102
RTVSPropertyOp54
 70
     1
102
RTVSPropertyOp55
 70
     1
102
RTVSPropertyOp56
 70
     1
102
RTVSPropertyOp57
 70
     1
102
RTVSPost2010Prop28
280
     0
102
RTVSPost2010PropOp28
 70
     1
102
RTVSPost2010Prop29
280
     1
102
RTVSPost2010PropOp29
 70
     1
102
RTVSPost2010Prop30
280
     1
102
RTVSPost2010PropOp30
 70
     1
102
RTVSPost2010Prop31
280
     0
102
RTVSPost2010PropOp31
 70
     1
102
RTVSPost2010Prop32
280
     0
102
RTVSPost2010PropOp32
 70
     1
102
RTVSPost2010Prop33
280
     0
102
RTVSPost2010PropOp33
 70
     1
102
RTVSPost2010Prop34
280
     0
102
RTVSPost2010PropOp34
 70
     1
102
RTVSPost2010Prop35
280
     0
102
RTVSPost2010PropOp35
 70
     1
102
RTVSPost2010Prop36
280
     0
102
RTVSPost2010PropOp36
 70
     1
102
RTVSPost2010Prop37
 90
       50
102
RTVSPost2010PropOp37
 70
     1
102
RTVSPost2010Prop38
140
0.0
102
RTVSPost2010PropOp38
 70
     1
102
RTVSPost2010Prop39
140
1.0
102
RTVSPost2010PropOp39
 70
     1
102
RTVSPost2010Prop40
 90
        0
102
RTVSPost2010PropOp40
 70
     1
102
RTVSPost2010Prop41ColorIndex
 90
       18
102
RTVSPost2010Prop41ColorRGB
 90
        0
102
RTVSPost2010PropOp41
 70
     1
102
RTVSPost2010Prop42
 90
       50
102
RTVSPost2010PropOp42
 70
     1
102
RTVSPost2010Prop43
 90
        3
102
RTVSPost2010PropOp43
 70
     1
102
RTVSPost2010Prop44ColorIndex
 90
        5
102
RTVSPost2010Prop44ColorRGB
 90
      255
102
RTVSPost2010PropOp44
 70
     1
102
RTVSPost2010Prop45
280
     0
102
RTVSPost2010PropOp45
 70
     1
102
RTVSPost2010Prop46
 90
       50
102
RTVSPost2010PropOp46
 70
     1
102
RTVSPost2010Prop47
 90
       50
102
RTVSPost2010PropOp47
 70
     1
102
RTVSPost2010Prop48
 90
       50
102
RTVSPost2010PropOp48
 70
     1
102
RTVSPost2010Prop49
280
     0
102
RTVSPost2010PropOp49
 70
     1
102
RTVSPost2010Prop50
 90
       50
102
RTVSPost2010PropOp50
 70
     1
102
RTVSPost2010Prop51ColorIndex
 90
      256
102
RTVSPost2010Prop51ColorRGB
 90
-16777216
102
RTVSPost2010PropOp51
 70
     0
102
RTVSPost2010Prop52
140
1.0
102
RTVSPost2010PropOp52
 70
     0
102
RTVSPost2010Prop53
 90
        2
102
RTVSPost2010PropOp53
 70
     1
102
RTVSPost2010Prop54
  1
strokes_ogs.tif
102
RTVSPost2010PropOp54
 70
     1
102
RTVSPost2010Prop55
280
     0
102
RTVSPost2010PropOp55
 70
     1
102
RTVSPost2010Prop56
140
1.0
102
RTVSPost2010PropOp56
 70
     1
102
RTVSPost2010Prop57
140
1.0
102
RTVSPost2010PropOp57
 70
     1
  0
XRECORD
  5
2A4
102
{ACAD_REACTORS
330
2A3
102
}
330
2A3
100
AcDbXrecord
280
     1
102
RTVSPropertyOp0
 70
     1
102
RTVSPropertyOp1
 70
     1
102
RTVSPropertyOp2
 70
     1
102
RTVSPropertyOp3
 70
     1
102
RTVSPropertyOp4
 70
     1
102
RTVSPropertyOp5
 70
     1
102
RTVSPropertyOp6
 70
     1
102
RTVSPropertyOp7
 70
     1
102
RTVSPropertyOp8
 70
     1
102
RTVSPropertyOp9
 70
     1
102
RTVSPropertyOp10
 70
     1
102
RTVSPropertyOp11
 70
     1
102
RTVSPropertyOp12
 70
     1
102
RTVSPropertyOp13
 70
     1
102
RTVSPropertyOp14
 70
     1
102
RTVSPropertyOp15
 70
     1
102
RTVSPropertyOp16
 70
     1
102
RTVSPropertyOp17
 70
     1
102
RTVSPropertyOp18
 70
     1
102
RTVSPropertyOp19
 70
     1
102
RTVSPropertyOp20
 70
     1
102
RTVSPropertyOp21
 70
     1
102
RTVSPropertyOp22
 70
     1
102
RTVSPropertyOp23
 70
     1
102
RTVSPropertyOp24
 70
     1
102
RTVSPropertyOp25
 70
     1
102
RTVSPropertyOp26
 70
     1
102
RTVSPropertyOp27
 70
     1
102
RTVSPropertyOp28
 70
     1
102
RTVSPropertyOp29
 70
     1
102
RTVSPropertyOp30
 70
     1
102
RTVSPropertyOp31
 70
     1
102
RTVSPropertyOp32
 70
     1
102
RTVSPropertyOp33
 70
     1
102
RTVSPropertyOp34
 70
     1
102
RTVSPropertyOp35
 70
     1
102
RTVSPropertyOp36
 70
     1
102
RTVSPropertyOp37
 70
     1
102
RTVSPropertyOp38
 70
     1
102
RTVSPropertyOp39
 70
     1
102
RTVSPropertyOp40
 70
     1
102
RTVSPropertyOp41
 70
     1
102
RTVSPropertyOp42
 70
     1
102
RTVSPropertyOp43
 70
     1
102
RTVSPropertyOp44
 70
     1
102
RTVSPropertyOp45
 70
     1
102
RTVSPropertyOp46
 70
     1
102
RTVSPropertyOp47
 70
     1
102
RTVSPropertyOp48
 70
     1
102
RTVSPropertyOp49
 70
     1
102
RTVSPropertyOp50
 70
     1
102
RTVSPropertyOp51
 70
     0
102
RTVSPropertyOp52
 70
     0
102
RTVSPropertyOp53
 70
     1
102
RTVSPropertyOp54
 70
     1
102
RTVSPropertyOp55
 70
     1
102
RTVSPropertyOp56
 70
     1
102
RTVSPropertyOp57
 70
     1
102
RTVSPost2010Prop28
280
     0
102
RTVSPost2010PropOp28
 70
     1
102
RTVSPost2010Prop29
280
     1
102
RTVSPost2010PropOp29
 70
     1
102
RTVSPost2010Prop30
280
     1
102
RTVSPost2010PropOp30
 70
     1
102
RTVSPost2010Prop31
280
     0
102
RTVSPost2010PropOp31
 70
     1
102
RTVSPost2010Prop32
280
     0
102
RTVSPost2010PropOp32
 70
     1
102
RTVSPost2010Prop33
280
     0
102
RTVSPost2010PropOp33
 70
     1
102
RTVSPost2010Prop34
280
     0
102
RTVSPost2010PropOp34
 70
     1
102
RTVSPost2010Prop35
280
     0
102
RTVSPost2010PropOp35
 70
     1
102
RTVSPost2010Prop36
280
     0
102
RTVSPost2010PropOp36
 70
     1
102
RTVSPost2010Prop37
 90
       50
102
RTVSPost2010PropOp37
 70
     1
102
RTVSPost2010Prop38
140
0.0
102
RTVSPost2010PropOp38
 70
     1
102
RTVSPost2010Prop39
140
1.0
102
RTVSPost2010PropOp39
 70
     1
102
RTVSPost2010Prop40
 90
        0
102
RTVSPost2010PropOp40
 70
     1
102
RTVSPost2010Prop41ColorIndex
 90
       18
102
RTVSPost2010Prop41ColorRGB
 90
        0
102
RTVSPost2010PropOp41
 70
     1
102
RTVSPost2010Prop42
 90
       50
102
RTVSPost2010PropOp42
 70
     1
102
RTVSPost2010Prop43
 90
        3
102
RTVSPost2010PropOp43
 70
     1
102
RTVSPost2010Prop44ColorIndex
 90
        5
102
RTVSPost2010Prop44ColorRGB
 90
      255
102
RTVSPost2010PropOp44
 70
     1
102
RTVSPost2010Prop45
280
     0
102
RTVSPost2010PropOp45
 70
     1
102
RTVSPost2010Prop46
 90
       50
102
RTVSPost2010PropOp46
 70
     1
102
RTVSPost2010Prop47
 90
       50
102
RTVSPost2010PropOp47
 70
     1
102
RTVSPost2010Prop48
 90
       50
102
RTVSPost2010PropOp48
 70
     1
102
RTVSPost2010Prop49
280
     0
102
RTVSPost2010PropOp49
 70
     1
102
RTVSPost2010Prop50
 90
       50
102
RTVSPost2010PropOp50
 70
     1
102
RTVSPost2010Prop51ColorIndex
 90
      256
102
RTVSPost2010Prop51ColorRGB
 90
-16777216
102
RTVSPost2010PropOp51
 70
     0
102
RTVSPost2010Prop52
140
1.0
102
RTVSPost2010PropOp52
 70
     0
102
RTVSPost2010Prop53
 90
        2
102
RTVSPost2010PropOp53
 70
     1
102
RTVSPost2010Prop54
  1
strokes_ogs.tif
102
RTVSPost2010PropOp54
 70
     1
102
RTVSPost2010Prop55
280
     0
102
RTVSPost2010PropOp55
 70
     1
102
RTVSPost2010Prop56
140
1.0
102
RTVSPost2010PropOp56
 70
     1
102
RTVSPost2010Prop57
140
1.0
102
RTVSPost2010PropOp57
 70
     1
  0
XRECORD
  5
2B8
102
{ACAD_REACTORS
330
2B7
102
}
330
2B7
100
AcDbXrecord
280
     1
102
RTVSPropertyOp0
 70
     0
102
RTVSPropertyOp1
 70
     0
102
RTVSPropertyOp2
 70
     0
102
RTVSPropertyOp3
 70
     0
102
RTVSPropertyOp4
 70
     0
102
RTVSPropertyOp5
 70
     0
102
RTVSPropertyOp6
 70
     0
102
RTVSPropertyOp7
 70
     0
102
RTVSPropertyOp8
 70
     0
102
RTVSPropertyOp9
 70
     0
102
RTVSPropertyOp10
 70
     0
102
RTVSPropertyOp11
 70
     0
102
RTVSPropertyOp12
 70
     0
102
RTVSPropertyOp13
 70
     0
102
RTVSPropertyOp14
 70
     2
102
RTVSPropertyOp15
 70
     0
102
RTVSPropertyOp16
 70
     0
102
RTVSPropertyOp17
 70
     0
102
RTVSPropertyOp18
 70
     0
102
RTVSPropertyOp19
 70
     0
102
RTVSPropertyOp20
 70
     0
102
RTVSPropertyOp21
 70
     0
102
RTVSPropertyOp22
 70
     0
102
RTVSPropertyOp23
 70
     0
102
RTVSPropertyOp24
 70
     0
102
RTVSPropertyOp25
 70
     0
102
RTVSPropertyOp26
 70
     0
102
RTVSPropertyOp27
 70
     0
102
RTVSPropertyOp28
 70
     0
102
RTVSPropertyOp29
 70
     0
102
RTVSPropertyOp30
 70
     0
102
RTVSPropertyOp31
 70
     0
102
RTVSPropertyOp32
 70
     0
102
RTVSPropertyOp33
 70
     0
102
RTVSPropertyOp34
 70
     0
102
RTVSPropertyOp35
 70
     0
102
RTVSPropertyOp36
 70
     0
102
RTVSPropertyOp37
 70
     0
102
RTVSPropertyOp38
 70
     0
102
RTVSPropertyOp39
 70
     0
102
RTVSPropertyOp40
 70
     0
102
RTVSPropertyOp41
 70
     0
102
RTVSPropertyOp42
 70
     0
102
RTVSPropertyOp43
 70
     0
102
RTVSPropertyOp44
 70
     0
102
RTVSPropertyOp45
 70
     0
102
RTVSPropertyOp46
 70
     0
102
RTVSPropertyOp47
 70
     0
102
RTVSPropertyOp48
 70
     0
102
RTVSPropertyOp49
 70
     0
102
RTVSPropertyOp50
 70
     0
102
RTVSPropertyOp51
 70
     0
102
RTVSPropertyOp52
 70
     0
102
RTVSPropertyOp53
 70
     0
102
RTVSPropertyOp54
 70
     0
102
RTVSPropertyOp55
 70
     0
102
RTVSPropertyOp56
 70
     0
102
RTVSPropertyOp57
 70
     0
102
RTVSPost2010Prop28
280
     0
102
RTVSPost2010PropOp28
 70
     0
102
RTVSPost2010Prop29
280
     1
102
RTVSPost2010PropOp29
 70
     0
102
RTVSPost2010Prop30
280
     1
102
RTVSPost2010PropOp30
 70
     0
102
RTVSPost2010Prop31
280
     0
102
RTVSPost2010PropOp31
 70
     0
102
RTVSPost2010Prop32
280
     0
102
RTVSPost2010PropOp32
 70
     0
102
RTVSPost2010Prop33
280
     0
102
RTVSPost2010PropOp33
 70
     0
102
RTVSPost2010Prop34
280
     0
102
RTVSPost2010PropOp34
 70
     0
102
RTVSPost2010Prop35
280
     0
102
RTVSPost2010PropOp35
 70
     0
102
RTVSPost2010Prop36
280
     0
102
RTVSPost2010PropOp36
 70
     0
102
RTVSPost2010Prop37
 90
       50
102
RTVSPost2010PropOp37
 70
     0
102
RTVSPost2010Prop38
140
0.0
102
RTVSPost2010PropOp38
 70
     0
102
RTVSPost2010Prop39
140
1.0
102
RTVSPost2010PropOp39
 70
     0
102
RTVSPost2010Prop40
 90
        0
102
RTVSPost2010PropOp40
 70
     0
102
RTVSPost2010Prop41ColorIndex
 90
       18
102
RTVSPost2010Prop41ColorRGB
 90
        0
102
RTVSPost2010PropOp41
 70
     0
102
RTVSPost2010Prop42
 90
       50
102
RTVSPost2010PropOp42
 70
     0
102
RTVSPost2010Prop43
 90
        3
102
RTVSPost2010PropOp43
 70
     0
102
RTVSPost2010Prop44ColorIndex
 90
        5
102
RTVSPost2010Prop44ColorRGB
 90
      255
102
RTVSPost2010PropOp44
 70
     0
102
RTVSPost2010Prop45
280
     0
102
RTVSPost2010PropOp45
 70
     0
102
RTVSPost2010Prop46
 90
       50
102
RTVSPost2010PropOp46
 70
     0
102
RTVSPost2010Prop47
 90
       50
102
RTVSPost2010PropOp47
 70
     0
102
RTVSPost2010Prop48
 90
       50
102
RTVSPost2010PropOp48
 70
     0
102
RTVSPost2010Prop49
280
     0
102
RTVSPost2010PropOp49
 70
     0
102
RTVSPost2010Prop50
 90
       50
102
RTVSPost2010PropOp50
 70
     0
102
RTVSPost2010Prop51ColorIndex
 90
      256
102
RTVSPost2010Prop51ColorRGB
 90
-16777216
102
RTVSPost2010PropOp51
 70
     0
102
RTVSPost2010Prop52
140
1.0
102
RTVSPost2010PropOp52
 70
     0
102
RTVSPost2010Prop53
 90
        2
102
RTVSPost2010PropOp53
 70
     0
102
RTVSPost2010Prop54
  1
strokes_ogs.tif
102
RTVSPost2010PropOp54
 70
     0
102
RTVSPost2010Prop55
280
     0
102
RTVSPost2010PropOp55
 70
     0
102
RTVSPost2010Prop56
140
1.0
102
RTVSPost2010PropOp56
 70
     0
102
RTVSPost2010Prop57
140
1.0
102
RTVSPost2010PropOp57
 70
     0
  0
XRECORD
  5
2B2
102
{ACAD_REACTORS
330
2B1
102
}
330
2B1
100
AcDbXrecord
280
     1
102
RTVSPropertyOp0
 70
     1
102
RTVSPropertyOp1
 70
     1
102
RTVSPropertyOp2
 70
     1
102
RTVSPropertyOp3
 70
     1
102
RTVSPropertyOp4
 70
     1
102
RTVSPropertyOp5
 70
     1
102
RTVSPropertyOp6
 70
     1
102
RTVSPropertyOp7
 70
     1
102
RTVSPropertyOp8
 70
     1
102
RTVSPropertyOp9
 70
     1
102
RTVSPropertyOp10
 70
     1
102
RTVSPropertyOp11
 70
     1
102
RTVSPropertyOp12
 70
     1
102
RTVSPropertyOp13
 70
     1
102
RTVSPropertyOp14
 70
     1
102
RTVSPropertyOp15
 70
     1
102
RTVSPropertyOp16
 70
     1
102
RTVSPropertyOp17
 70
     1
102
RTVSPropertyOp18
 70
     1
102
RTVSPropertyOp19
 70
     1
102
RTVSPropertyOp20
 70
     1
102
RTVSPropertyOp21
 70
     1
102
RTVSPropertyOp22
 70
     1
102
RTVSPropertyOp23
 70
     1
102
RTVSPropertyOp24
 70
     1
102
RTVSPropertyOp25
 70
     1
102
RTVSPropertyOp26
 70
     1
102
RTVSPropertyOp27
 70
     1
102
RTVSPropertyOp28
 70
     1
102
RTVSPropertyOp29
 70
     1
102
RTVSPropertyOp30
 70
     1
102
RTVSPropertyOp31
 70
     1
102
RTVSPropertyOp32
 70
     1
102
RTVSPropertyOp33
 70
     1
102
RTVSPropertyOp34
 70
     1
102
RTVSPropertyOp35
 70
     1
102
RTVSPropertyOp36
 70
     1
102
RTVSPropertyOp37
 70
     1
102
RTVSPropertyOp38
 70
     1
102
RTVSPropertyOp39
 70
     1
102
RTVSPropertyOp40
 70
     1
102
RTVSPropertyOp41
 70
     1
102
RTVSPropertyOp42
 70
     1
102
RTVSPropertyOp43
 70
     1
102
RTVSPropertyOp44
 70
     1
102
RTVSPropertyOp45
 70
     1
102
RTVSPropertyOp46
 70
     1
102
RTVSPropertyOp47
 70
     1
102
RTVSPropertyOp48
 70
     1
102
RTVSPropertyOp49
 70
     1
102
RTVSPropertyOp50
 70
     1
102
RTVSPropertyOp51
 70
     0
102
RTVSPropertyOp52
 70
     0
102
RTVSPropertyOp53
 70
     1
102
RTVSPropertyOp54
 70
     1
102
RTVSPropertyOp55
 70
     1
102
RTVSPropertyOp56
 70
     1
102
RTVSPropertyOp57
 70
     1
102
RTVSPost2010Prop28
280
     0
102
RTVSPost2010PropOp28
 70
     1
102
RTVSPost2010Prop29
280
     1
102
RTVSPost2010PropOp29
 70
     1
102
RTVSPost2010Prop30
280
     1
102
RTVSPost2010PropOp30
 70
     1
102
RTVSPost2010Prop31
280
     0
102
RTVSPost2010PropOp31
 70
     1
102
RTVSPost2010Prop32
280
     0
102
RTVSPost2010PropOp32
 70
     1
102
RTVSPost2010Prop33
280
     0
102
RTVSPost2010PropOp33
 70
     1
102
RTVSPost2010Prop34
280
     0
102
RTVSPost2010PropOp34
 70
     1
102
RTVSPost2010Prop35
280
     0
102
RTVSPost2010PropOp35
 70
     1
102
RTVSPost2010Prop36
280
     0
102
RTVSPost2010PropOp36
 70
     1
102
RTVSPost2010Prop37
 90
       50
102
RTVSPost2010PropOp37
 70
     1
102
RTVSPost2010Prop38
140
0.0
102
RTVSPost2010PropOp38
 70
     1
102
RTVSPost2010Prop39
140
1.0
102
RTVSPost2010PropOp39
 70
     1
102
RTVSPost2010Prop40
 90
        0
102
RTVSPost2010PropOp40
 70
     1
102
RTVSPost2010Prop41ColorIndex
 90
       18
102
RTVSPost2010Prop41ColorRGB
 90
        0
102
RTVSPost2010PropOp41
 70
     1
102
RTVSPost2010Prop42
 90
       50
102
RTVSPost2010PropOp42
 70
     1
102
RTVSPost2010Prop43
 90
        3
102
RTVSPost2010PropOp43
 70
     1
102
RTVSPost2010Prop44ColorIndex
 90
        5
102
RTVSPost2010Prop44ColorRGB
 90
      255
102
RTVSPost2010PropOp44
 70
     1
102
RTVSPost2010Prop45
280
     0
102
RTVSPost2010PropOp45
 70
     1
102
RTVSPost2010Prop46
 90
       50
102
RTVSPost2010PropOp46
 70
     1
102
RTVSPost2010Prop47
 90
       50
102
RTVSPost2010PropOp47
 70
     1
102
RTVSPost2010Prop48
 90
       50
102
RTVSPost2010PropOp48
 70
     1
102
RTVSPost2010Prop49
280
     0
102
RTVSPost2010PropOp49
 70
     1
102
RTVSPost2010Prop50
 90
       50
102
RTVSPost2010PropOp50
 70
     1
102
RTVSPost2010Prop51ColorIndex
 90
      256
102
RTVSPost2010Prop51ColorRGB
 90
-16777216
102
RTVSPost2010PropOp51
 70
     0
102
RTVSPost2010Prop52
140
1.0
102
RTVSPost2010PropOp52
 70
     0
102
RTVSPost2010Prop53
 90
        2
102
RTVSPost2010PropOp53
 70
     1
102
RTVSPost2010Prop54
  1
strokes_ogs.tif
102
RTVSPost2010PropOp54
 70
     1
102
RTVSPost2010Prop55
280
     0
102
RTVSPost2010PropOp55
 70
     1
102
RTVSPost2010Prop56
140
1.0
102
RTVSPost2010PropOp56
 70
     1
102
RTVSPost2010Prop57
140
1.0
102
RTVSPost2010PropOp57
 70
     1
  0
XRECORD
  5
2BA
102
{ACAD_REACTORS
330
2B9
102
}
330
2B9
100
AcDbXrecord
280
     1
102
RTVSPropertyOp0
 70
     0
102
RTVSPropertyOp1
 70
     0
102
RTVSPropertyOp2
 70
     0
102
RTVSPropertyOp3
 70
     0
102
RTVSPropertyOp4
 70
     0
102
RTVSPropertyOp5
 70
     0
102
RTVSPropertyOp6
 70
     0
102
RTVSPropertyOp7
 70
     0
102
RTVSPropertyOp8
 70
     0
102
RTVSPropertyOp9
 70
     0
102
RTVSPropertyOp10
 70
     0
102
RTVSPropertyOp11
 70
     0
102
RTVSPropertyOp12
 70
     0
102
RTVSPropertyOp13
 70
     0
102
RTVSPropertyOp14
 70
     2
102
RTVSPropertyOp15
 70
     0
102
RTVSPropertyOp16
 70
     0
102
RTVSPropertyOp17
 70
     0
102
RTVSPropertyOp18
 70
     0
102
RTVSPropertyOp19
 70
     0
102
RTVSPropertyOp20
 70
     0
102
RTVSPropertyOp21
 70
     0
102
RTVSPropertyOp22
 70
     0
102
RTVSPropertyOp23
 70
     0
102
RTVSPropertyOp24
 70
     0
102
RTVSPropertyOp25
 70
     0
102
RTVSPropertyOp26
 70
     0
102
RTVSPropertyOp27
 70
     0
102
RTVSPropertyOp28
 70
     0
102
RTVSPropertyOp29
 70
     0
102
RTVSPropertyOp30
 70
     0
102
RTVSPropertyOp31
 70
     0
102
RTVSPropertyOp32
 70
     0
102
RTVSPropertyOp33
 70
     0
102
RTVSPropertyOp34
 70
     0
102
RTVSPropertyOp35
 70
     0
102
RTVSPropertyOp36
 70
     0
102
RTVSPropertyOp37
 70
     0
102
RTVSPropertyOp38
 70
     0
102
RTVSPropertyOp39
 70
     0
102
RTVSPropertyOp40
 70
     0
102
RTVSPropertyOp41
 70
     0
102
RTVSPropertyOp42
 70
     0
102
RTVSPropertyOp43
 70
     0
102
RTVSPropertyOp44
 70
     0
102
RTVSPropertyOp45
 70
     0
102
RTVSPropertyOp46
 70
     0
102
RTVSPropertyOp47
 70
     0
102
RTVSPropertyOp48
 70
     0
102
RTVSPropertyOp49
 70
     0
102
RTVSPropertyOp50
 70
     0
102
RTVSPropertyOp51
 70
     0
102
RTVSPropertyOp52
 70
     0
102
RTVSPropertyOp53
 70
     0
102
RTVSPropertyOp54
 70
     0
102
RTVSPropertyOp55
 70
     0
102
RTVSPropertyOp56
 70
     0
102
RTVSPropertyOp57
 70
     0
102
RTVSPost2010Prop28
280
     0
102
RTVSPost2010PropOp28
 70
     0
102
RTVSPost2010Prop29
280
     1
102
RTVSPost2010PropOp29
 70
     0
102
RTVSPost2010Prop30
280
     1
102
RTVSPost2010PropOp30
 70
     0
102
RTVSPost2010Prop31
280
     0
102
RTVSPost2010PropOp31
 70
     0
102
RTVSPost2010Prop32
280
     0
102
RTVSPost2010PropOp32
 70
     0
102
RTVSPost2010Prop33
280
     0
102
RTVSPost2010PropOp33
 70
     0
102
RTVSPost2010Prop34
280
     0
102
RTVSPost2010PropOp34
 70
     0
102
RTVSPost2010Prop35
280
     0
102
RTVSPost2010PropOp35
 70
     0
102
RTVSPost2010Prop36
280
     0
102
RTVSPost2010PropOp36
 70
     0
102
RTVSPost2010Prop37
 90
       50
102
RTVSPost2010PropOp37
 70
     0
102
RTVSPost2010Prop38
140
0.0
102
RTVSPost2010PropOp38
 70
     0
102
RTVSPost2010Prop39
140
1.0
102
RTVSPost2010PropOp39
 70
     0
102
RTVSPost2010Prop40
 90
        0
102
RTVSPost2010PropOp40
 70
     0
102
RTVSPost2010Prop41ColorIndex
 90
       18
102
RTVSPost2010Prop41ColorRGB
 90
        0
102
RTVSPost2010PropOp41
 70
     0
102
RTVSPost2010Prop42
 90
       50
102
RTVSPost2010PropOp42
 70
     0
102
RTVSPost2010Prop43
 90
        3
102
RTVSPost2010PropOp43
 70
     0
102
RTVSPost2010Prop44ColorIndex
 90
        5
102
RTVSPost2010Prop44ColorRGB
 90
      255
102
RTVSPost2010PropOp44
 70
     0
102
RTVSPost2010Prop45
280
     0
102
RTVSPost2010PropOp45
 70
     0
102
RTVSPost2010Prop46
 90
       50
102
RTVSPost2010PropOp46
 70
     0
102
RTVSPost2010Prop47
 90
       50
102
RTVSPost2010PropOp47
 70
     0
102
RTVSPost2010Prop48
 90
       50
102
RTVSPost2010PropOp48
 70
     0
102
RTVSPost2010Prop49
280
     0
102
RTVSPost2010PropOp49
 70
     0
102
RTVSPost2010Prop50
 90
       50
102
RTVSPost2010PropOp50
 70
     0
102
RTVSPost2010Prop51ColorIndex
 90
      256
102
RTVSPost2010Prop51ColorRGB
 90
-16777216
102
RTVSPost2010PropOp51
 70
     0
102
RTVSPost2010Prop52
140
1.0
102
RTVSPost2010PropOp52
 70
     0
102
RTVSPost2010Prop53
 90
        2
102
RTVSPost2010PropOp53
 70
     0
102
RTVSPost2010Prop54
  1
strokes_ogs.tif
102
RTVSPost2010PropOp54
 70
     0
102
RTVSPost2010Prop55
280
     0
102
RTVSPost2010PropOp55
 70
     0
102
RTVSPost2010Prop56
140
1.0
102
RTVSPost2010PropOp56
 70
     0
102
RTVSPost2010Prop57
140
1.0
102
RTVSPost2010PropOp57
 70
     0
  0
XRECORD
  5
2A8
102
{ACAD_REACTORS
330
2A7
102
}
330
2A7
100
AcDbXrecord
280
     1
102
RTVSPropertyOp0
 70
     1
102
RTVSPropertyOp1
 70
     1
102
RTVSPropertyOp2
 70
     1
102
RTVSPropertyOp3
 70
     1
102
RTVSPropertyOp4
 70
     1
102
RTVSPropertyOp5
 70
     1
102
RTVSPropertyOp6
 70
     1
102
RTVSPropertyOp7
 70
     1
102
RTVSPropertyOp8
 70
     1
102
RTVSPropertyOp9
 70
     1
102
RTVSPropertyOp10
 70
     1
102
RTVSPropertyOp11
 70
     1
102
RTVSPropertyOp12
 70
     1
102
RTVSPropertyOp13
 70
     1
102
RTVSPropertyOp14
 70
     1
102
RTVSPropertyOp15
 70
     1
102
RTVSPropertyOp16
 70
     1
102
RTVSPropertyOp17
 70
     1
102
RTVSPropertyOp18
 70
     1
102
RTVSPropertyOp19
 70
     1
102
RTVSPropertyOp20
 70
     1
102
RTVSPropertyOp21
 70
     1
102
RTVSPropertyOp22
 70
     1
102
RTVSPropertyOp23
 70
     1
102
RTVSPropertyOp24
 70
     1
102
RTVSPropertyOp25
 70
     1
102
RTVSPropertyOp26
 70
     1
102
RTVSPropertyOp27
 70
     1
102
RTVSPropertyOp28
 70
     1
102
RTVSPropertyOp29
 70
     1
102
RTVSPropertyOp30
 70
     1
102
RTVSPropertyOp31
 70
     1
102
RTVSPropertyOp32
 70
     1
102
RTVSPropertyOp33
 70
     1
102
RTVSPropertyOp34
 70
     1
102
RTVSPropertyOp35
 70
     1
102
RTVSPropertyOp36
 70
     1
102
RTVSPropertyOp37
 70
     1
102
RTVSPropertyOp38
 70
     1
102
RTVSPropertyOp39
 70
     1
102
RTVSPropertyOp40
 70
     1
102
RTVSPropertyOp41
 70
     1
102
RTVSPropertyOp42
 70
     1
102
RTVSPropertyOp43
 70
     1
102
RTVSPropertyOp44
 70
     1
102
RTVSPropertyOp45
 70
     1
102
RTVSPropertyOp46
 70
     1
102
RTVSPropertyOp47
 70
     1
102
RTVSPropertyOp48
 70
     1
102
RTVSPropertyOp49
 70
     1
102
RTVSPropertyOp50
 70
     1
102
RTVSPropertyOp51
 70
     0
102
RTVSPropertyOp52
 70
     0
102
RTVSPropertyOp53
 70
     1
102
RTVSPropertyOp54
 70
     1
102
RTVSPropertyOp55
 70
     1
102
RTVSPropertyOp56
 70
     1
102
RTVSPropertyOp57
 70
     1
102
RTVSPost2010Prop28
280
     0
102
RTVSPost2010PropOp28
 70
     1
102
RTVSPost2010Prop29
280
     1
102
RTVSPost2010PropOp29
 70
     1
102
RTVSPost2010Prop30
280
     1
102
RTVSPost2010PropOp30
 70
     1
102
RTVSPost2010Prop31
280
     0
102
RTVSPost2010PropOp31
 70
     1
102
RTVSPost2010Prop32
280
     0
102
RTVSPost2010PropOp32
 70
     1
102
RTVSPost2010Prop33
280
     0
102
RTVSPost2010PropOp33
 70
     1
102
RTVSPost2010Prop34
280
     0
102
RTVSPost2010PropOp34
 70
     1
102
RTVSPost2010Prop35
280
     0
102
RTVSPost2010PropOp35
 70
     1
102
RTVSPost2010Prop36
280
     0
102
RTVSPost2010PropOp36
 70
     1
102
RTVSPost2010Prop37
 90
       50
102
RTVSPost2010PropOp37
 70
     1
102
RTVSPost2010Prop38
140
0.0
102
RTVSPost2010PropOp38
 70
     1
102
RTVSPost2010Prop39
140
1.0
102
RTVSPost2010PropOp39
 70
     1
102
RTVSPost2010Prop40
 90
        0
102
RTVSPost2010PropOp40
 70
     1
102
RTVSPost2010Prop41ColorIndex
 90
       18
102
RTVSPost2010Prop41ColorRGB
 90
        0
102
RTVSPost2010PropOp41
 70
     1
102
RTVSPost2010Prop42
 90
       50
102
RTVSPost2010PropOp42
 70
     1
102
RTVSPost2010Prop43
 90
        3
102
RTVSPost2010PropOp43
 70
     1
102
RTVSPost2010Prop44ColorIndex
 90
        5
102
RTVSPost2010Prop44ColorRGB
 90
      255
102
RTVSPost2010PropOp44
 70
     1
102
RTVSPost2010Prop45
280
     0
102
RTVSPost2010PropOp45
 70
     1
102
RTVSPost2010Prop46
 90
       50
102
RTVSPost2010PropOp46
 70
     1
102
RTVSPost2010Prop47
 90
       50
102
RTVSPost2010PropOp47
 70
     1
102
RTVSPost2010Prop48
 90
       50
102
RTVSPost2010PropOp48
 70
     1
102
RTVSPost2010Prop49
280
     0
102
RTVSPost2010PropOp49
 70
     1
102
RTVSPost2010Prop50
 90
       50
102
RTVSPost2010PropOp50
 70
     1
102
RTVSPost2010Prop51ColorIndex
 90
      256
102
RTVSPost2010Prop51ColorRGB
 90
-16777216
102
RTVSPost2010PropOp51
 70
     0
102
RTVSPost2010Prop52
140
1.0
102
RTVSPost2010PropOp52
 70
     0
102
RTVSPost2010Prop53
 90
        2
102
RTVSPost2010PropOp53
 70
     1
102
RTVSPost2010Prop54
  1
strokes_ogs.tif
102
RTVSPost2010PropOp54
 70
     1
102
RTVSPost2010Prop55
280
     0
102
RTVSPost2010PropOp55
 70
     1
102
RTVSPost2010Prop56
140
1.0
102
RTVSPost2010PropOp56
 70
     1
102
RTVSPost2010Prop57
140
1.0
102
RTVSPost2010PropOp57
 70
     1
  0
XRECORD
  5
2C6
102
{ACAD_REACTORS
330
2C5
102
}
330
2C5
100
AcDbXrecord
280
     1
102
RTVSPropertyOp0
 70
     1
102
RTVSPropertyOp1
 70
     1
102
RTVSPropertyOp2
 70
     1
102
RTVSPropertyOp3
 70
     1
102
RTVSPropertyOp4
 70
     1
102
RTVSPropertyOp5
 70
     1
102
RTVSPropertyOp6
 70
     1
102
RTVSPropertyOp7
 70
     1
102
RTVSPropertyOp8
 70
     1
102
RTVSPropertyOp9
 70
     1
102
RTVSPropertyOp10
 70
     1
102
RTVSPropertyOp11
 70
     1
102
RTVSPropertyOp12
 70
     1
102
RTVSPropertyOp13
 70
     1
102
RTVSPropertyOp14
 70
     1
102
RTVSPropertyOp15
 70
     1
102
RTVSPropertyOp16
 70
     1
102
RTVSPropertyOp17
 70
     1
102
RTVSPropertyOp18
 70
     1
102
RTVSPropertyOp19
 70
     1
102
RTVSPropertyOp20
 70
     1
102
RTVSPropertyOp21
 70
     1
102
RTVSPropertyOp22
 70
     1
102
RTVSPropertyOp23
 70
     1
102
RTVSPropertyOp24
 70
     1
102
RTVSPropertyOp25
 70
     1
102
RTVSPropertyOp26
 70
     1
102
RTVSPropertyOp27
 70
     1
102
RTVSPropertyOp28
 70
     1
102
RTVSPropertyOp29
 70
     1
102
RTVSPropertyOp30
 70
     1
102
RTVSPropertyOp31
 70
     1
102
RTVSPropertyOp32
 70
     1
102
RTVSPropertyOp33
 70
     1
102
RTVSPropertyOp34
 70
     1
102
RTVSPropertyOp35
 70
     1
102
RTVSPropertyOp36
 70
     1
102
RTVSPropertyOp37
 70
     1
102
RTVSPropertyOp38
 70
     1
102
RTVSPropertyOp39
 70
     1
102
RTVSPropertyOp40
 70
     1
102
RTVSPropertyOp41
 70
     1
102
RTVSPropertyOp42
 70
     1
102
RTVSPropertyOp43
 70
     1
102
RTVSPropertyOp44
 70
     1
102
RTVSPropertyOp45
 70
     1
102
RTVSPropertyOp46
 70
     1
102
RTVSPropertyOp47
 70
     1
102
RTVSPropertyOp48
 70
     1
102
RTVSPropertyOp49
 70
     1
102
RTVSPropertyOp50
 70
     1
102
RTVSPropertyOp51
 70
     0
102
RTVSPropertyOp52
 70
     0
102
RTVSPropertyOp53
 70
     1
102
RTVSPropertyOp54
 70
     1
102
RTVSPropertyOp55
 70
     1
102
RTVSPropertyOp56
 70
     1
102
RTVSPropertyOp57
 70
     1
102
RTVSPost2010Prop28
280
     0
102
RTVSPost2010PropOp28
 70
     1
102
RTVSPost2010Prop29
280
     1
102
RTVSPost2010PropOp29
 70
     1
102
RTVSPost2010Prop30
280
     1
102
RTVSPost2010PropOp30
 70
     1
102
RTVSPost2010Prop31
280
     0
102
RTVSPost2010PropOp31
 70
     1
102
RTVSPost2010Prop32
280
     0
102
RTVSPost2010PropOp32
 70
     1
102
RTVSPost2010Prop33
280
     0
102
RTVSPost2010PropOp33
 70
     1
102
RTVSPost2010Prop34
280
     0
102
RTVSPost2010PropOp34
 70
     1
102
RTVSPost2010Prop35
280
     0
102
RTVSPost2010PropOp35
 70
     1
102
RTVSPost2010Prop36
280
     0
102
RTVSPost2010PropOp36
 70
     1
102
RTVSPost2010Prop37
 90
       50
102
RTVSPost2010PropOp37
 70
     1
102
RTVSPost2010Prop38
140
0.0
102
RTVSPost2010PropOp38
 70
     1
102
RTVSPost2010Prop39
140
1.0
102
RTVSPost2010PropOp39
 70
     1
102
RTVSPost2010Prop40
 90
        0
102
RTVSPost2010PropOp40
 70
     1
102
RTVSPost2010Prop41ColorIndex
 90
       18
102
RTVSPost2010Prop41ColorRGB
 90
        0
102
RTVSPost2010PropOp41
 70
     1
102
RTVSPost2010Prop42
 90
       50
102
RTVSPost2010PropOp42
 70
     1
102
RTVSPost2010Prop43
 90
        3
102
RTVSPost2010PropOp43
 70
     1
102
RTVSPost2010Prop44ColorIndex
 90
        5
102
RTVSPost2010Prop44ColorRGB
 90
      255
102
RTVSPost2010PropOp44
 70
     1
102
RTVSPost2010Prop45
280
     0
102
RTVSPost2010PropOp45
 70
     1
102
RTVSPost2010Prop46
 90
       50
102
RTVSPost2010PropOp46
 70
     1
102
RTVSPost2010Prop47
 90
       50
102
RTVSPost2010PropOp47
 70
     1
102
RTVSPost2010Prop48
 90
       50
102
RTVSPost2010PropOp48
 70
     1
102
RTVSPost2010Prop49
280
     0
102
RTVSPost2010PropOp49
 70
     1
102
RTVSPost2010Prop50
 90
       50
102
RTVSPost2010PropOp50
 70
     1
102
RTVSPost2010Prop51ColorIndex
 90
      256
102
RTVSPost2010Prop51ColorRGB
 90
-16777216
102
RTVSPost2010PropOp51
 70
     0
102
RTVSPost2010Prop52
140
1.0
102
RTVSPost2010PropOp52
 70
     0
102
RTVSPost2010Prop53
 90
        2
102
RTVSPost2010PropOp53
 70
     1
102
RTVSPost2010Prop54
  1
strokes_ogs.tif
102
RTVSPost2010PropOp54
 70
     1
102
RTVSPost2010Prop55
280
     0
102
RTVSPost2010PropOp55
 70
     1
102
RTVSPost2010Prop56
140
1.0
102
RTVSPost2010PropOp56
 70
     1
102
RTVSPost2010Prop57
140
1.0
102
RTVSPost2010PropOp57
 70
     1
  0
XRECORD
  5
2C4
102
{ACAD_REACTORS
330
2C3
102
}
330
2C3
100
AcDbXrecord
280
     1
102
RTVSPropertyOp0
 70
     1
102
RTVSPropertyOp1
 70
     1
102
RTVSPropertyOp2
 70
     1
102
RTVSPropertyOp3
 70
     1
102
RTVSPropertyOp4
 70
     1
102
RTVSPropertyOp5
 70
     1
102
RTVSPropertyOp6
 70
     1
102
RTVSPropertyOp7
 70
     1
102
RTVSPropertyOp8
 70
     1
102
RTVSPropertyOp9
 70
     1
102
RTVSPropertyOp10
 70
     1
102
RTVSPropertyOp11
 70
     1
102
RTVSPropertyOp12
 70
     1
102
RTVSPropertyOp13
 70
     1
102
RTVSPropertyOp14
 70
     1
102
RTVSPropertyOp15
 70
     1
102
RTVSPropertyOp16
 70
     1
102
RTVSPropertyOp17
 70
     1
102
RTVSPropertyOp18
 70
     1
102
RTVSPropertyOp19
 70
     1
102
RTVSPropertyOp20
 70
     1
102
RTVSPropertyOp21
 70
     1
102
RTVSPropertyOp22
 70
     1
102
RTVSPropertyOp23
 70
     1
102
RTVSPropertyOp24
 70
     1
102
RTVSPropertyOp25
 70
     1
102
RTVSPropertyOp26
 70
     1
102
RTVSPropertyOp27
 70
     1
102
RTVSPropertyOp28
 70
     1
102
RTVSPropertyOp29
 70
     1
102
RTVSPropertyOp30
 70
     1
102
RTVSPropertyOp31
 70
     1
102
RTVSPropertyOp32
 70
     1
102
RTVSPropertyOp33
 70
     1
102
RTVSPropertyOp34
 70
     1
102
RTVSPropertyOp35
 70
     1
102
RTVSPropertyOp36
 70
     1
102
RTVSPropertyOp37
 70
     1
102
RTVSPropertyOp38
 70
     1
102
RTVSPropertyOp39
 70
     1
102
RTVSPropertyOp40
 70
     1
102
RTVSPropertyOp41
 70
     1
102
RTVSPropertyOp42
 70
     1
102
RTVSPropertyOp43
 70
     1
102
RTVSPropertyOp44
 70
     1
102
RTVSPropertyOp45
 70
     1
102
RTVSPropertyOp46
 70
     1
102
RTVSPropertyOp47
 70
     1
102
RTVSPropertyOp48
 70
     1
102
RTVSPropertyOp49
 70
     1
102
RTVSPropertyOp50
 70
     1
102
RTVSPropertyOp51
 70
     0
102
RTVSPropertyOp52
 70
     0
102
RTVSPropertyOp53
 70
     1
102
RTVSPropertyOp54
 70
     1
102
RTVSPropertyOp55
 70
     1
102
RTVSPropertyOp56
 70
     1
102
RTVSPropertyOp57
 70
     1
102
RTVSPost2010Prop28
280
     0
102
RTVSPost2010PropOp28
 70
     1
102
RTVSPost2010Prop29
280
     1
102
RTVSPost2010PropOp29
 70
     1
102
RTVSPost2010Prop30
280
     1
102
RTVSPost2010PropOp30
 70
     1
102
RTVSPost2010Prop31
280
     0
102
RTVSPost2010PropOp31
 70
     1
102
RTVSPost2010Prop32
280
     0
102
RTVSPost2010PropOp32
 70
     1
102
RTVSPost2010Prop33
280
     0
102
RTVSPost2010PropOp33
 70
     1
102
RTVSPost2010Prop34
280
     0
102
RTVSPost2010PropOp34
 70
     1
102
RTVSPost2010Prop35
280
     0
102
RTVSPost2010PropOp35
 70
     1
102
RTVSPost2010Prop36
280
     0
102
RTVSPost2010PropOp36
 70
     1
102
RTVSPost2010Prop37
 90
       50
102
RTVSPost2010PropOp37
 70
     1
102
RTVSPost2010Prop38
140
0.0
102
RTVSPost2010PropOp38
 70
     1
102
RTVSPost2010Prop39
140
1.0
102
RTVSPost2010PropOp39
 70
     1
102
RTVSPost2010Prop40
 90
        0
102
RTVSPost2010PropOp40
 70
     1
102
RTVSPost2010Prop41ColorIndex
 90
       18
102
RTVSPost2010Prop41ColorRGB
 90
        0
102
RTVSPost2010PropOp41
 70
     1
102
RTVSPost2010Prop42
 90
       50
102
RTVSPost2010PropOp42
 70
     1
102
RTVSPost2010Prop43
 90
        3
102
RTVSPost2010PropOp43
 70
     1
102
RTVSPost2010Prop44ColorIndex
 90
        5
102
RTVSPost2010Prop44ColorRGB
 90
      255
102
RTVSPost2010PropOp44
 70
     1
102
RTVSPost2010Prop45
280
     0
102
RTVSPost2010PropOp45
 70
     1
102
RTVSPost2010Prop46
 90
       50
102
RTVSPost2010PropOp46
 70
     1
102
RTVSPost2010Prop47
 90
       50
102
RTVSPost2010PropOp47
 70
     1
102
RTVSPost2010Prop48
 90
       50
102
RTVSPost2010PropOp48
 70
     1
102
RTVSPost2010Prop49
280
     0
102
RTVSPost2010PropOp49
 70
     1
102
RTVSPost2010Prop50
 90
       50
102
RTVSPost2010PropOp50
 70
     1
102
RTVSPost2010Prop51ColorIndex
 90
      256
102
RTVSPost2010Prop51ColorRGB
 90
-16777216
102
RTVSPost2010PropOp51
 70
     0
102
RTVSPost2010Prop52
140
1.0
102
RTVSPost2010PropOp52
 70
     0
102
RTVSPost2010Prop53
 90
        2
102
RTVSPost2010PropOp53
 70
     1
102
RTVSPost2010Prop54
  1
strokes_ogs.tif
102
RTVSPost2010PropOp54
 70
     1
102
RTVSPost2010Prop55
280
     0
102
RTVSPost2010PropOp55
 70
     1
102
RTVSPost2010Prop56
140
1.0
102
RTVSPost2010PropOp56
 70
     1
102
RTVSPost2010Prop57
140
1.0
102
RTVSPost2010PropOp57
 70
     1
  0
XRECORD
  5
2BE
102
{ACAD_REACTORS
330
2BD
102
}
330
2BD
100
AcDbXrecord
280
     1
102
RTVSPropertyOp0
 70
     1
102
RTVSPropertyOp1
 70
     1
102
RTVSPropertyOp2
 70
     1
102
RTVSPropertyOp3
 70
     1
102
RTVSPropertyOp4
 70
     1
102
RTVSPropertyOp5
 70
     1
102
RTVSPropertyOp6
 70
     1
102
RTVSPropertyOp7
 70
     1
102
RTVSPropertyOp8
 70
     1
102
RTVSPropertyOp9
 70
     1
102
RTVSPropertyOp10
 70
     1
102
RTVSPropertyOp11
 70
     1
102
RTVSPropertyOp12
 70
     1
102
RTVSPropertyOp13
 70
     1
102
RTVSPropertyOp14
 70
     1
102
RTVSPropertyOp15
 70
     1
102
RTVSPropertyOp16
 70
     1
102
RTVSPropertyOp17
 70
     1
102
RTVSPropertyOp18
 70
     1
102
RTVSPropertyOp19
 70
     1
102
RTVSPropertyOp20
 70
     1
102
RTVSPropertyOp21
 70
     1
102
RTVSPropertyOp22
 70
     1
102
RTVSPropertyOp23
 70
     1
102
RTVSPropertyOp24
 70
     1
102
RTVSPropertyOp25
 70
     1
102
RTVSPropertyOp26
 70
     1
102
RTVSPropertyOp27
 70
     1
102
RTVSPropertyOp28
 70
     1
102
RTVSPropertyOp29
 70
     1
102
RTVSPropertyOp30
 70
     1
102
RTVSPropertyOp31
 70
     1
102
RTVSPropertyOp32
 70
     1
102
RTVSPropertyOp33
 70
     1
102
RTVSPropertyOp34
 70
     1
102
RTVSPropertyOp35
 70
     1
102
RTVSPropertyOp36
 70
     1
102
RTVSPropertyOp37
 70
     1
102
RTVSPropertyOp38
 70
     1
102
RTVSPropertyOp39
 70
     1
102
RTVSPropertyOp40
 70
     1
102
RTVSPropertyOp41
 70
     1
102
RTVSPropertyOp42
 70
     1
102
RTVSPropertyOp43
 70
     1
102
RTVSPropertyOp44
 70
     1
102
RTVSPropertyOp45
 70
     1
102
RTVSPropertyOp46
 70
     1
102
RTVSPropertyOp47
 70
     1
102
RTVSPropertyOp48
 70
     1
102
RTVSPropertyOp49
 70
     1
102
RTVSPropertyOp50
 70
     1
102
RTVSPropertyOp51
 70
     0
102
RTVSPropertyOp52
 70
     0
102
RTVSPropertyOp53
 70
     1
102
RTVSPropertyOp54
 70
     1
102
RTVSPropertyOp55
 70
     1
102
RTVSPropertyOp56
 70
     1
102
RTVSPropertyOp57
 70
     1
102
RTVSPost2010Prop28
280
     0
102
RTVSPost2010PropOp28
 70
     1
102
RTVSPost2010Prop29
280
     1
102
RTVSPost2010PropOp29
 70
     1
102
RTVSPost2010Prop30
280
     1
102
RTVSPost2010PropOp30
 70
     1
102
RTVSPost2010Prop31
280
     0
102
RTVSPost2010PropOp31
 70
     1
102
RTVSPost2010Prop32
280
     0
102
RTVSPost2010PropOp32
 70
     1
102
RTVSPost2010Prop33
280
     0
102
RTVSPost2010PropOp33
 70
     1
102
RTVSPost2010Prop34
280
     0
102
RTVSPost2010PropOp34
 70
     1
102
RTVSPost2010Prop35
280
     0
102
RTVSPost2010PropOp35
 70
     1
102
RTVSPost2010Prop36
280
     0
102
RTVSPost2010PropOp36
 70
     1
102
RTVSPost2010Prop37
 90
       50
102
RTVSPost2010PropOp37
 70
     1
102
RTVSPost2010Prop38
140
0.0
102
RTVSPost2010PropOp38
 70
     1
102
RTVSPost2010Prop39
140
1.0
102
RTVSPost2010PropOp39
 70
     1
102
RTVSPost2010Prop40
 90
        0
102
RTVSPost2010PropOp40
 70
     1
102
RTVSPost2010Prop41ColorIndex
 90
       18
102
RTVSPost2010Prop41ColorRGB
 90
        0
102
RTVSPost2010PropOp41
 70
     1
102
RTVSPost2010Prop42
 90
       50
102
RTVSPost2010PropOp42
 70
     1
102
RTVSPost2010Prop43
 90
        3
102
RTVSPost2010PropOp43
 70
     1
102
RTVSPost2010Prop44ColorIndex
 90
        5
102
RTVSPost2010Prop44ColorRGB
 90
      255
102
RTVSPost2010PropOp44
 70
     1
102
RTVSPost2010Prop45
280
     0
102
RTVSPost2010PropOp45
 70
     1
102
RTVSPost2010Prop46
 90
       50
102
RTVSPost2010PropOp46
 70
     1
102
RTVSPost2010Prop47
 90
       50
102
RTVSPost2010PropOp47
 70
     1
102
RTVSPost2010Prop48
 90
       50
102
RTVSPost2010PropOp48
 70
     1
102
RTVSPost2010Prop49
280
     0
102
RTVSPost2010PropOp49
 70
     1
102
RTVSPost2010Prop50
 90
       50
102
RTVSPost2010PropOp50
 70
     1
102
RTVSPost2010Prop51ColorIndex
 90
      256
102
RTVSPost2010Prop51ColorRGB
 90
-16777216
102
RTVSPost2010PropOp51
 70
     0
102
RTVSPost2010Prop52
140
1.0
102
RTVSPost2010PropOp52
 70
     0
102
RTVSPost2010Prop53
 90
        2
102
RTVSPost2010PropOp53
 70
     1
102
RTVSPost2010Prop54
  1
strokes_ogs.tif
102
RTVSPost2010PropOp54
 70
     1
102
RTVSPost2010Prop55
280
     0
102
RTVSPost2010PropOp55
 70
     1
102
RTVSPost2010Prop56
140
1.0
102
RTVSPost2010PropOp56
 70
     1
102
RTVSPost2010Prop57
140
1.0
102
RTVSPost2010PropOp57
 70
     1
  0
XRECORD
  5
2C0
102
{ACAD_REACTORS
330
2BF
102
}
330
2BF
100
AcDbXrecord
280
     1
102
RTVSPropertyOp0
 70
     1
102
RTVSPropertyOp1
 70
     1
102
RTVSPropertyOp2
 70
     1
102
RTVSPropertyOp3
 70
     1
102
RTVSPropertyOp4
 70
     1
102
RTVSPropertyOp5
 70
     1
102
RTVSPropertyOp6
 70
     1
102
RTVSPropertyOp7
 70
     1
102
RTVSPropertyOp8
 70
     1
102
RTVSPropertyOp9
 70
     1
102
RTVSPropertyOp10
 70
     1
102
RTVSPropertyOp11
 70
     1
102
RTVSPropertyOp12
 70
     1
102
RTVSPropertyOp13
 70
     1
102
RTVSPropertyOp14
 70
     1
102
RTVSPropertyOp15
 70
     1
102
RTVSPropertyOp16
 70
     1
102
RTVSPropertyOp17
 70
     1
102
RTVSPropertyOp18
 70
     1
102
RTVSPropertyOp19
 70
     1
102
RTVSPropertyOp20
 70
     1
102
RTVSPropertyOp21
 70
     1
102
RTVSPropertyOp22
 70
     1
102
RTVSPropertyOp23
 70
     1
102
RTVSPropertyOp24
 70
     1
102
RTVSPropertyOp25
 70
     1
102
RTVSPropertyOp26
 70
     1
102
RTVSPropertyOp27
 70
     1
102
RTVSPropertyOp28
 70
     1
102
RTVSPropertyOp29
 70
     1
102
RTVSPropertyOp30
 70
     1
102
RTVSPropertyOp31
 70
     1
102
RTVSPropertyOp32
 70
     1
102
RTVSPropertyOp33
 70
     1
102
RTVSPropertyOp34
 70
     1
102
RTVSPropertyOp35
 70
     1
102
RTVSPropertyOp36
 70
     1
102
RTVSPropertyOp37
 70
     1
102
RTVSPropertyOp38
 70
     1
102
RTVSPropertyOp39
 70
     1
102
RTVSPropertyOp40
 70
     1
102
RTVSPropertyOp41
 70
     1
102
RTVSPropertyOp42
 70
     1
102
RTVSPropertyOp43
 70
     1
102
RTVSPropertyOp44
 70
     1
102
RTVSPropertyOp45
 70
     1
102
RTVSPropertyOp46
 70
     1
102
RTVSPropertyOp47
 70
     1
102
RTVSPropertyOp48
 70
     1
102
RTVSPropertyOp49
 70
     1
102
RTVSPropertyOp50
 70
     1
102
RTVSPropertyOp51
 70
     0
102
RTVSPropertyOp52
 70
     0
102
RTVSPropertyOp53
 70
     1
102
RTVSPropertyOp54
 70
     1
102
RTVSPropertyOp55
 70
     1
102
RTVSPropertyOp56
 70
     1
102
RTVSPropertyOp57
 70
     1
102
RTVSPost2010Prop28
280
     0
102
RTVSPost2010PropOp28
 70
     1
102
RTVSPost2010Prop29
280
     1
102
RTVSPost2010PropOp29
 70
     1
102
RTVSPost2010Prop30
280
     1
102
RTVSPost2010PropOp30
 70
     1
102
RTVSPost2010Prop31
280
     0
102
RTVSPost2010PropOp31
 70
     1
102
RTVSPost2010Prop32
280
     0
102
RTVSPost2010PropOp32
 70
     1
102
RTVSPost2010Prop33
280
     0
102
RTVSPost2010PropOp33
 70
     1
102
RTVSPost2010Prop34
280
     0
102
RTVSPost2010PropOp34
 70
     1
102
RTVSPost2010Prop35
280
     0
102
RTVSPost2010PropOp35
 70
     1
102
RTVSPost2010Prop36
280
     0
102
RTVSPost2010PropOp36
 70
     1
102
RTVSPost2010Prop37
 90
       50
102
RTVSPost2010PropOp37
 70
     1
102
RTVSPost2010Prop38
140
0.0
102
RTVSPost2010PropOp38
 70
     1
102
RTVSPost2010Prop39
140
1.0
102
RTVSPost2010PropOp39
 70
     1
102
RTVSPost2010Prop40
 90
        0
102
RTVSPost2010PropOp40
 70
     1
102
RTVSPost2010Prop41ColorIndex
 90
       18
102
RTVSPost2010Prop41ColorRGB
 90
        0
102
RTVSPost2010PropOp41
 70
     1
102
RTVSPost2010Prop42
 90
       50
102
RTVSPost2010PropOp42
 70
     1
102
RTVSPost2010Prop43
 90
        3
102
RTVSPost2010PropOp43
 70
     1
102
RTVSPost2010Prop44ColorIndex
 90
        5
102
RTVSPost2010Prop44ColorRGB
 90
      255
102
RTVSPost2010PropOp44
 70
     1
102
RTVSPost2010Prop45
280
     0
102
RTVSPost2010PropOp45
 70
     1
102
RTVSPost2010Prop46
 90
       50
102
RTVSPost2010PropOp46
 70
     1
102
RTVSPost2010Prop47
 90
       50
102
RTVSPost2010PropOp47
 70
     1
102
RTVSPost2010Prop48
 90
       50
102
RTVSPost2010PropOp48
 70
     1
102
RTVSPost2010Prop49
280
     0
102
RTVSPost2010PropOp49
 70
     1
102
RTVSPost2010Prop50
 90
       50
102
RTVSPost2010PropOp50
 70
     1
102
RTVSPost2010Prop51ColorIndex
 90
      256
102
RTVSPost2010Prop51ColorRGB
 90
-16777216
102
RTVSPost2010PropOp51
 70
     0
102
RTVSPost2010Prop52
140
1.0
102
RTVSPost2010PropOp52
 70
     0
102
RTVSPost2010Prop53
 90
        2
102
RTVSPost2010PropOp53
 70
     1
102
RTVSPost2010Prop54
  1
strokes_ogs.tif
102
RTVSPost2010PropOp54
 70
     1
102
RTVSPost2010Prop55
280
     0
102
RTVSPost2010PropOp55
 70
     1
102
RTVSPost2010Prop56
140
1.0
102
RTVSPost2010PropOp56
 70
     1
102
RTVSPost2010Prop57
140
1.0
102
RTVSPost2010PropOp57
 70
     1
  0
XRECORD
  5
2B0
102
{ACAD_REACTORS
330
2AF
102
}
330
2AF
100
AcDbXrecord
280
     1
102
RTVSPropertyOp0
 70
     1
102
RTVSPropertyOp1
 70
     1
102
RTVSPropertyOp2
 70
     1
102
RTVSPropertyOp3
 70
     1
102
RTVSPropertyOp4
 70
     1
102
RTVSPropertyOp5
 70
     1
102
RTVSPropertyOp6
 70
     1
102
RTVSPropertyOp7
 70
     1
102
RTVSPropertyOp8
 70
     1
102
RTVSPropertyOp9
 70
     1
102
RTVSPropertyOp10
 70
     1
102
RTVSPropertyOp11
 70
     1
102
RTVSPropertyOp12
 70
     1
102
RTVSPropertyOp13
 70
     1
102
RTVSPropertyOp14
 70
     1
102
RTVSPropertyOp15
 70
     1
102
RTVSPropertyOp16
 70
     1
102
RTVSPropertyOp17
 70
     1
102
RTVSPropertyOp18
 70
     1
102
RTVSPropertyOp19
 70
     1
102
RTVSPropertyOp20
 70
     1
102
RTVSPropertyOp21
 70
     1
102
RTVSPropertyOp22
 70
     1
102
RTVSPropertyOp23
 70
     1
102
RTVSPropertyOp24
 70
     1
102
RTVSPropertyOp25
 70
     1
102
RTVSPropertyOp26
 70
     1
102
RTVSPropertyOp27
 70
     1
102
RTVSPropertyOp28
 70
     1
102
RTVSPropertyOp29
 70
     1
102
RTVSPropertyOp30
 70
     1
102
RTVSPropertyOp31
 70
     1
102
RTVSPropertyOp32
 70
     1
102
RTVSPropertyOp33
 70
     1
102
RTVSPropertyOp34
 70
     1
102
RTVSPropertyOp35
 70
     1
102
RTVSPropertyOp36
 70
     1
102
RTVSPropertyOp37
 70
     1
102
RTVSPropertyOp38
 70
     1
102
RTVSPropertyOp39
 70
     1
102
RTVSPropertyOp40
 70
     1
102
RTVSPropertyOp41
 70
     1
102
RTVSPropertyOp42
 70
     1
102
RTVSPropertyOp43
 70
     1
102
RTVSPropertyOp44
 70
     1
102
RTVSPropertyOp45
 70
     1
102
RTVSPropertyOp46
 70
     1
102
RTVSPropertyOp47
 70
     1
102
RTVSPropertyOp48
 70
     1
102
RTVSPropertyOp49
 70
     1
102
RTVSPropertyOp50
 70
     1
102
RTVSPropertyOp51
 70
     0
102
RTVSPropertyOp52
 70
     0
102
RTVSPropertyOp53
 70
     1
102
RTVSPropertyOp54
 70
     1
102
RTVSPropertyOp55
 70
     1
102
RTVSPropertyOp56
 70
     1
102
RTVSPropertyOp57
 70
     1
102
RTVSPost2010Prop28
280
     0
102
RTVSPost2010PropOp28
 70
     1
102
RTVSPost2010Prop29
280
     1
102
RTVSPost2010PropOp29
 70
     1
102
RTVSPost2010Prop30
280
     1
102
RTVSPost2010PropOp30
 70
     1
102
RTVSPost2010Prop31
280
     0
102
RTVSPost2010PropOp31
 70
     1
102
RTVSPost2010Prop32
280
     0
102
RTVSPost2010PropOp32
 70
     1
102
RTVSPost2010Prop33
280
     0
102
RTVSPost2010PropOp33
 70
     1
102
RTVSPost2010Prop34
280
     0
102
RTVSPost2010PropOp34
 70
     1
102
RTVSPost2010Prop35
280
     0
102
RTVSPost2010PropOp35
 70
     1
102
RTVSPost2010Prop36
280
     0
102
RTVSPost2010PropOp36
 70
     1
102
RTVSPost2010Prop37
 90
       50
102
RTVSPost2010PropOp37
 70
     1
102
RTVSPost2010Prop38
140
0.0
102
RTVSPost2010PropOp38
 70
     1
102
RTVSPost2010Prop39
140
1.0
102
RTVSPost2010PropOp39
 70
     1
102
RTVSPost2010Prop40
 90
        0
102
RTVSPost2010PropOp40
 70
     1
102
RTVSPost2010Prop41ColorIndex
 90
       18
102
RTVSPost2010Prop41ColorRGB
 90
        0
102
RTVSPost2010PropOp41
 70
     1
102
RTVSPost2010Prop42
 90
       50
102
RTVSPost2010PropOp42
 70
     1
102
RTVSPost2010Prop43
 90
        3
102
RTVSPost2010PropOp43
 70
     1
102
RTVSPost2010Prop44ColorIndex
 90
        5
102
RTVSPost2010Prop44ColorRGB
 90
      255
102
RTVSPost2010PropOp44
 70
     1
102
RTVSPost2010Prop45
280
     0
102
RTVSPost2010PropOp45
 70
     1
102
RTVSPost2010Prop46
 90
       50
102
RTVSPost2010PropOp46
 70
     1
102
RTVSPost2010Prop47
 90
       50
102
RTVSPost2010PropOp47
 70
     1
102
RTVSPost2010Prop48
 90
       50
102
RTVSPost2010PropOp48
 70
     1
102
RTVSPost2010Prop49
280
     0
102
RTVSPost2010PropOp49
 70
     1
102
RTVSPost2010Prop50
 90
       50
102
RTVSPost2010PropOp50
 70
     1
102
RTVSPost2010Prop51ColorIndex
 90
      256
102
RTVSPost2010Prop51ColorRGB
 90
-16777216
102
RTVSPost2010PropOp51
 70
     0
102
RTVSPost2010Prop52
140
1.0
102
RTVSPost2010PropOp52
 70
     0
102
RTVSPost2010Prop53
 90
        2
102
RTVSPost2010PropOp53
 70
     1
102
RTVSPost2010Prop54
  1
strokes_ogs.tif
102
RTVSPost2010PropOp54
 70
     1
102
RTVSPost2010Prop55
280
     0
102
RTVSPost2010PropOp55
 70
     1
102
RTVSPost2010Prop56
140
1.0
102
RTVSPost2010PropOp56
 70
     1
102
RTVSPost2010Prop57
140
1.0
102
RTVSPost2010PropOp57
 70
     1
  0
XRECORD
  5
2A2
102
{ACAD_REACTORS
330
2A1
102
}
330
2A1
100
AcDbXrecord
280
     1
102
RTVSPropertyOp0
 70
     1
102
RTVSPropertyOp1
 70
     1
102
RTVSPropertyOp2
 70
     1
102
RTVSPropertyOp3
 70
     1
102
RTVSPropertyOp4
 70
     1
102
RTVSPropertyOp5
 70
     1
102
RTVSPropertyOp6
 70
     1
102
RTVSPropertyOp7
 70
     1
102
RTVSPropertyOp8
 70
     1
102
RTVSPropertyOp9
 70
     1
102
RTVSPropertyOp10
 70
     1
102
RTVSPropertyOp11
 70
     1
102
RTVSPropertyOp12
 70
     1
102
RTVSPropertyOp13
 70
     1
102
RTVSPropertyOp14
 70
     1
102
RTVSPropertyOp15
 70
     1
102
RTVSPropertyOp16
 70
     1
102
RTVSPropertyOp17
 70
     1
102
RTVSPropertyOp18
 70
     1
102
RTVSPropertyOp19
 70
     1
102
RTVSPropertyOp20
 70
     1
102
RTVSPropertyOp21
 70
     1
102
RTVSPropertyOp22
 70
     1
102
RTVSPropertyOp23
 70
     1
102
RTVSPropertyOp24
 70
     1
102
RTVSPropertyOp25
 70
     1
102
RTVSPropertyOp26
 70
     1
102
RTVSPropertyOp27
 70
     1
102
RTVSPropertyOp28
 70
     1
102
RTVSPropertyOp29
 70
     1
102
RTVSPropertyOp30
 70
     1
102
RTVSPropertyOp31
 70
     1
102
RTVSPropertyOp32
 70
     1
102
RTVSPropertyOp33
 70
     1
102
RTVSPropertyOp34
 70
     1
102
RTVSPropertyOp35
 70
     1
102
RTVSPropertyOp36
 70
     1
102
RTVSPropertyOp37
 70
     1
102
RTVSPropertyOp38
 70
     1
102
RTVSPropertyOp39
 70
     1
102
RTVSPropertyOp40
 70
     1
102
RTVSPropertyOp41
 70
     1
102
RTVSPropertyOp42
 70
     1
102
RTVSPropertyOp43
 70
     1
102
RTVSPropertyOp44
 70
     1
102
RTVSPropertyOp45
 70
     1
102
RTVSPropertyOp46
 70
     1
102
RTVSPropertyOp47
 70
     1
102
RTVSPropertyOp48
 70
     1
102
RTVSPropertyOp49
 70
     1
102
RTVSPropertyOp50
 70
     1
102
RTVSPropertyOp51
 70
     0
102
RTVSPropertyOp52
 70
     0
102
RTVSPropertyOp53
 70
     1
102
RTVSPropertyOp54
 70
     1
102
RTVSPropertyOp55
 70
     1
102
RTVSPropertyOp56
 70
     1
102
RTVSPropertyOp57
 70
     1
102
RTVSPost2010Prop28
280
     0
102
RTVSPost2010PropOp28
 70
     1
102
RTVSPost2010Prop29
280
     1
102
RTVSPost2010PropOp29
 70
     1
102
RTVSPost2010Prop30
280
     1
102
RTVSPost2010PropOp30
 70
     1
102
RTVSPost2010Prop31
280
     0
102
RTVSPost2010PropOp31
 70
     1
102
RTVSPost2010Prop32
280
     0
102
RTVSPost2010PropOp32
 70
     1
102
RTVSPost2010Prop33
280
     0
102
RTVSPost2010PropOp33
 70
     1
102
RTVSPost2010Prop34
280
     0
102
RTVSPost2010PropOp34
 70
     1
102
RTVSPost2010Prop35
280
     0
102
RTVSPost2010PropOp35
 70
     1
102
RTVSPost2010Prop36
280
     0
102
RTVSPost2010PropOp36
 70
     1
102
RTVSPost2010Prop37
 90
       50
102
RTVSPost2010PropOp37
 70
     1
102
RTVSPost2010Prop38
140
0.0
102
RTVSPost2010PropOp38
 70
     1
102
RTVSPost2010Prop39
140
1.0
102
RTVSPost2010PropOp39
 70
     1
102
RTVSPost2010Prop40
 90
        0
102
RTVSPost2010PropOp40
 70
     1
102
RTVSPost2010Prop41ColorIndex
 90
       18
102
RTVSPost2010Prop41ColorRGB
 90
        0
102
RTVSPost2010PropOp41
 70
     1
102
RTVSPost2010Prop42
 90
       50
102
RTVSPost2010PropOp42
 70
     1
102
RTVSPost2010Prop43
 90
        3
102
RTVSPost2010PropOp43
 70
     1
102
RTVSPost2010Prop44ColorIndex
 90
        5
102
RTVSPost2010Prop44ColorRGB
 90
      255
102
RTVSPost2010PropOp44
 70
     1
102
RTVSPost2010Prop45
280
     0
102
RTVSPost2010PropOp45
 70
     1
102
RTVSPost2010Prop46
 90
       50
102
RTVSPost2010PropOp46
 70
     1
102
RTVSPost2010Prop47
 90
       50
102
RTVSPost2010PropOp47
 70
     1
102
RTVSPost2010Prop48
 90
       50
102
RTVSPost2010PropOp48
 70
     1
102
RTVSPost2010Prop49
280
     0
102
RTVSPost2010PropOp49
 70
     1
102
RTVSPost2010Prop50
 90
       50
102
RTVSPost2010PropOp50
 70
     1
102
RTVSPost2010Prop51ColorIndex
 90
      256
102
RTVSPost2010Prop51ColorRGB
 90
-16777216
102
RTVSPost2010PropOp51
 70
     0
102
RTVSPost2010Prop52
140
1.0
102
RTVSPost2010PropOp52
 70
     0
102
RTVSPost2010Prop53
 90
        2
102
RTVSPost2010PropOp53
 70
     1
102
RTVSPost2010Prop54
  1
strokes_ogs.tif
102
RTVSPost2010PropOp54
 70
     1
102
RTVSPost2010Prop55
280
     0
102
RTVSPost2010PropOp55
 70
     1
102
RTVSPost2010Prop56
140
1.0
102
RTVSPost2010PropOp56
 70
     1
102
RTVSPost2010Prop57
140
1.0
102
RTVSPost2010PropOp57
 70
     1
  0
XRECORD
  5
2C2
102
{ACAD_REACTORS
330
2C1
102
}
330
2C1
100
AcDbXrecord
280
     1
102
RTVSPropertyOp0
 70
     1
102
RTVSPropertyOp1
 70
     1
102
RTVSPropertyOp2
 70
     1
102
RTVSPropertyOp3
 70
     1
102
RTVSPropertyOp4
 70
     1
102
RTVSPropertyOp5
 70
     1
102
RTVSPropertyOp6
 70
     1
102
RTVSPropertyOp7
 70
     1
102
RTVSPropertyOp8
 70
     1
102
RTVSPropertyOp9
 70
     1
102
RTVSPropertyOp10
 70
     1
102
RTVSPropertyOp11
 70
     1
102
RTVSPropertyOp12
 70
     1
102
RTVSPropertyOp13
 70
     1
102
RTVSPropertyOp14
 70
     1
102
RTVSPropertyOp15
 70
     1
102
RTVSPropertyOp16
 70
     1
102
RTVSPropertyOp17
 70
     1
102
RTVSPropertyOp18
 70
     1
102
RTVSPropertyOp19
 70
     1
102
RTVSPropertyOp20
 70
     1
102
RTVSPropertyOp21
 70
     1
102
RTVSPropertyOp22
 70
     1
102
RTVSPropertyOp23
 70
     1
102
RTVSPropertyOp24
 70
     1
102
RTVSPropertyOp25
 70
     1
102
RTVSPropertyOp26
 70
     1
102
RTVSPropertyOp27
 70
     1
102
RTVSPropertyOp28
 70
     1
102
RTVSPropertyOp29
 70
     1
102
RTVSPropertyOp30
 70
     1
102
RTVSPropertyOp31
 70
     1
102
RTVSPropertyOp32
 70
     1
102
RTVSPropertyOp33
 70
     1
102
RTVSPropertyOp34
 70
     1
102
RTVSPropertyOp35
 70
     1
102
RTVSPropertyOp36
 70
     1
102
RTVSPropertyOp37
 70
     1
102
RTVSPropertyOp38
 70
     1
102
RTVSPropertyOp39
 70
     1
102
RTVSPropertyOp40
 70
     1
102
RTVSPropertyOp41
 70
     1
102
RTVSPropertyOp42
 70
     1
102
RTVSPropertyOp43
 70
     1
102
RTVSPropertyOp44
 70
     1
102
RTVSPropertyOp45
 70
     1
102
RTVSPropertyOp46
 70
     1
102
RTVSPropertyOp47
 70
     1
102
RTVSPropertyOp48
 70
     1
102
RTVSPropertyOp49
 70
     1
102
RTVSPropertyOp50
 70
     1
102
RTVSPropertyOp51
 70
     0
102
RTVSPropertyOp52
 70
     0
102
RTVSPropertyOp53
 70
     1
102
RTVSPropertyOp54
 70
     1
102
RTVSPropertyOp55
 70
     1
102
RTVSPropertyOp56
 70
     1
102
RTVSPropertyOp57
 70
     1
102
RTVSPost2010Prop28
280
     0
102
RTVSPost2010PropOp28
 70
     1
102
RTVSPost2010Prop29
280
     1
102
RTVSPost2010PropOp29
 70
     1
102
RTVSPost2010Prop30
280
     1
102
RTVSPost2010PropOp30
 70
     1
102
RTVSPost2010Prop31
280
     0
102
RTVSPost2010PropOp31
 70
     1
102
RTVSPost2010Prop32
280
     0
102
RTVSPost2010PropOp32
 70
     1
102
RTVSPost2010Prop33
280
     0
102
RTVSPost2010PropOp33
 70
     1
102
RTVSPost2010Prop34
280
     0
102
RTVSPost2010PropOp34
 70
     1
102
RTVSPost2010Prop35
280
     0
102
RTVSPost2010PropOp35
 70
     1
102
RTVSPost2010Prop36
280
     0
102
RTVSPost2010PropOp36
 70
     1
102
RTVSPost2010Prop37
 90
       50
102
RTVSPost2010PropOp37
 70
     1
102
RTVSPost2010Prop38
140
0.0
102
RTVSPost2010PropOp38
 70
     1
102
RTVSPost2010Prop39
140
1.0
102
RTVSPost2010PropOp39
 70
     1
102
RTVSPost2010Prop40
 90
        0
102
RTVSPost2010PropOp40
 70
     1
102
RTVSPost2010Prop41ColorIndex
 90
       18
102
RTVSPost2010Prop41ColorRGB
 90
        0
102
RTVSPost2010PropOp41
 70
     1
102
RTVSPost2010Prop42
 90
       50
102
RTVSPost2010PropOp42
 70
     1
102
RTVSPost2010Prop43
 90
        3
102
RTVSPost2010PropOp43
 70
     1
102
RTVSPost2010Prop44ColorIndex
 90
        5
102
RTVSPost2010Prop44ColorRGB
 90
      255
102
RTVSPost2010PropOp44
 70
     1
102
RTVSPost2010Prop45
280
     0
102
RTVSPost2010PropOp45
 70
     1
102
RTVSPost2010Prop46
 90
       50
102
RTVSPost2010PropOp46
 70
     1
102
RTVSPost2010Prop47
 90
       50
102
RTVSPost2010PropOp47
 70
     1
102
RTVSPost2010Prop48
 90
       50
102
RTVSPost2010PropOp48
 70
     1
102
RTVSPost2010Prop49
280
     0
102
RTVSPost2010PropOp49
 70
     1
102
RTVSPost2010Prop50
 90
       50
102
RTVSPost2010PropOp50
 70
     1
102
RTVSPost2010Prop51ColorIndex
 90
      256
102
RTVSPost2010Prop51ColorRGB
 90
-16777216
102
RTVSPost2010PropOp51
 70
     0
102
RTVSPost2010Prop52
140
1.0
102
RTVSPost2010PropOp52
 70
     0
102
RTVSPost2010Prop53
 90
        2
102
RTVSPost2010PropOp53
 70
     1
102
RTVSPost2010Prop54
  1
strokes_ogs.tif
102
RTVSPost2010PropOp54
 70
     1
102
RTVSPost2010Prop55
280
     0
102
RTVSPost2010PropOp55
 70
     1
102
RTVSPost2010Prop56
140
1.0
102
RTVSPost2010PropOp56
 70
     1
102
RTVSPost2010Prop57
140
1.0
102
RTVSPost2010PropOp57
 70
     1
  0
ENDSEC
  0
EOF
