  0
SECTION
  2
HEADER
  9
$ACADVER
  1
AC1018
  9
$ACADMAINTVER
 70
     0
  9
$DWGCODEPAGE
  3
ANSI_932
  9
$INSBASE
 10
0.0
 20
0.0
 30
0.0
  9
$EXTMIN
 10
-2100.0
 20
-1485.0
 30
0.0
  9
$EXTMAX
 10
2100.0
 20
1485.0
 30
0.0
  9
$LIMMIN
 10
-2100.0
 20
-1485.0
  9
$LIMMAX
 10
2100.0
 20
1485.0
  9
$ORTHOMODE
 70
     0
  9
$REGENMODE
 70
     1
  9
$FILLMODE
 70
     1
  9
$QTEXTMODE
 70
     0
  9
$MIRRTEXT
 70
     1
  9
$LTSCALE
 40
10.0
  9
$ATTMODE
 70
     1
  9
$TEXTSIZE
 40
2.5
  9
$TRACEWID
 40
1.0
  9
$TEXTSTYLE
  7
Standard
  9
$CLAYER
  8
0
  9
$CELTYPE
  6
ByLayer
  9
$CECOLOR
 62
   256
  9
$CELTSCALE
 40
1.0
  9
$DISPSILH
 70
     0
  9
$DIMSCALE
 40
1.0
  9
$DIMASZ
 40
2.5
  9
$DIMEXO
 40
0.625
  9
$DIMDLI
 40
3.75
  9
$DIMRND
 40
0.0
  9
$DIMDLE
 40
0.0
  9
$DIMEXE
 40
1.25
  9
$DIMTP
 40
0.0
  9
$DIMTM
 40
0.0
  9
$DIMTXT
 40
2.5
  9
$DIMCEN
 40
2.5
  9
$DIMTSZ
 40
0.0
  9
$DIMTOL
 70
     0
  9
$DIMLIM
 70
     0
  9
$DIMTIH
 70
     0
  9
$DIMTOH
 70
     0
  9
$DIMSE1
 70
     0
  9
$DIMSE2
 70
     0
  9
$DIMTAD
 70
     1
  9
$DIMZIN
 70
     8
  9
$DIMBLK
  1

  9
$DIMASO
 70
     1
  9
$DIMSHO
 70
     1
  9
$DIMPOST
  1

  9
$DIMAPOST
  1

  9
$DIMALT
 70
     0
  9
$DIMALTD
 70
     3
  9
$DIMALTF
 40
0.03937007874016
  9
$DIMLFAC
 40
1.0
  9
$DIMTOFL
 70
     1
  9
$DIMTVP
 40
0.0
  9
$DIMTIX
 70
     0
  9
$DIMSOXD
 70
     0
  9
$DIMSAH
 70
     0
  9
$DIMBLK1
  1

  9
$DIMBLK2
  1

  9
$DIMSTYLE
  2
ISO-25
  9
$DIMCLRD
 70
     0
  9
$DIMCLRE
 70
     0
  9
$DIMCLRT
 70
     0
  9
$DIMTFAC
 40
1.0
  9
$DIMGAP
 40
0.625
  9
$DIMJUST
 70
     0
  9
$DIMSD1
 70
     0
  9
$DIMSD2
 70
     0
  9
$DIMTOLJ
 70
     0
  9
$DIMTZIN
 70
     8
  9
$DIMALTZ
 70
     0
  9
$DIMALTTZ
 70
     0
  9
$DIMUPT
 70
     0
  9
$DIMDEC
 70
     2
  9
$DIMTDEC
 70
     2
  9
$DIMALTU
 70
     2
  9
$DIMALTTD
 70
     3
  9
$DIMTXSTY
  7
Standard
  9
$DIMAUNIT
 70
     0
  9
$DIMADEC
 70
     0
  9
$DIMALTRND
 40
0.0
  9
$DIMAZIN
 70
     0
  9
$DIMDSEP
 70
    44
  9
$DIMATFIT
 70
     3
  9
$DIMFRAC
 70
     0
  9
$DIMLDRBLK
  1

  9
$DIMLUNIT
 70
     2
  9
$DIMLWD
 70
    -2
  9
$DIMLWE
 70
    -2
  9
$DIMTMOVE
 70
     0
  9
$LUNITS
 70
     2
  9
$LUPREC
 70
     4
  9
$SKETCHINC
 40
1.0
  9
$FILLETRAD
 40
10.0
  9
$AUNITS
 70
     0
  9
$AUPREC
 70
     0
  9
$MENU
  1
.
  9
$ELEVATION
 40
0.0
  9
$PELEVATION
 40
0.0
  9
$THICKNESS
 40
0.0
  9
$LIMCHECK
 70
     0
  9
$CHAMFERA
 40
0.0
  9
$CHAMFERB
 40
0.0
  9
$CHAMFERC
 40
0.0
  9
$CHAMFERD
 40
0.0
  9
$SKPOLY
 70
     0
  9
$TDCREATE
 40
2459010.447192106
  9
$TDUCREATE
 40
2459010.072192106
  9
$TDUPDATE
 40
2459010.447192187
  9
$TDUUPDATE
 40
2459010.072192187
  9
$TDINDWG
 40
0.0000000116
  9
$TDUSRTIMER
 40
0.0000000116
  9
$USRTIMER
 70
     1
  9
$ANGBASE
 50
0.0
  9
$ANGDIR
 70
     0
  9
$PDMODE
 70
     0
  9
$PDSIZE
 40
0.0
  9
$PLINEWID
 40
0.0
  9
$SPLFRAME
 70
     0
  9
$SPLINETYPE
 70
     6
  9
$SPLINESEGS
 70
     8
  9
$HANDSEED
  5
2BF
  9
$SURFTAB1
 70
     6
  9
$SURFTAB2
 70
     6
  9
$SURFTYPE
 70
     6
  9
$SURFU
 70
     6
  9
$SURFV
 70
     6
  9
$UCSBASE
  2

  9
$UCSNAME
  2

  9
$UCSORG
 10
0.0
 20
0.0
 30
0.0
  9
$UCSXDIR
 10
1.0
 20
0.0
 30
0.0
  9
$UCSYDIR
 10
0.0
 20
1.0
 30
0.0
  9
$UCSORTHOREF
  2

  9
$UCSORTHOVIEW
 70
     0
  9
$UCSORGTOP
 10
0.0
 20
0.0
 30
0.0
  9
$UCSORGBOTTOM
 10
0.0
 20
0.0
 30
0.0
  9
$UCSORGLEFT
 10
0.0
 20
0.0
 30
0.0
  9
$UCSORGRIGHT
 10
0.0
 20
0.0
 30
0.0
  9
$UCSORGFRONT
 10
0.0
 20
0.0
 30
0.0
  9
$UCSORGBACK
 10
0.0
 20
0.0
 30
0.0
  9
$PUCSBASE
  2

  9
$PUCSNAME
  2

  9
$PUCSORG
 10
0.0
 20
0.0
 30
0.0
  9
$PUCSXDIR
 10
1.0
 20
0.0
 30
0.0
  9
$PUCSYDIR
 10
0.0
 20
1.0
 30
0.0
  9
$PUCSORTHOREF
  2

  9
$PUCSORTHOVIEW
 70
     0
  9
$PUCSORGTOP
 10
0.0
 20
0.0
 30
0.0
  9
$PUCSORGBOTTOM
 10
0.0
 20
0.0
 30
0.0
  9
$PUCSORGLEFT
 10
0.0
 20
0.0
 30
0.0
  9
$PUCSORGRIGHT
 10
0.0
 20
0.0
 30
0.0
  9
$PUCSORGFRONT
 10
0.0
 20
0.0
 30
0.0
  9
$PUCSORGBACK
 10
0.0
 20
0.0
 30
0.0
  9
$USERI1
 70
     0
  9
$USERI2
 70
     0
  9
$USERI3
 70
     0
  9
$USERI4
 70
     0
  9
$USERI5
 70
     0
  9
$USERR1
 40
0.0
  9
$USERR2
 40
0.0
  9
$USERR3
 40
0.0
  9
$USERR4
 40
0.0
  9
$USERR5
 40
0.0
  9
$WORLDVIEW
 70
     1
  9
$SHADEDGE
 70
     3
  9
$SHADEDIF
 70
    70
  9
$TILEMODE
 70
     1
  9
$MAXACTVP
 70
    64
  9
$PINSBASE
 10
0.0
 20
0.0
 30
0.0
  9
$PLIMCHECK
 70
     0
  9
$PEXTMIN
 10
1.000000000000000E+20
 20
1.000000000000000E+20
 30
1.000000000000000E+20
  9
$PEXTMAX
 10
-1.000000000000000E+20
 20
-1.000000000000000E+20
 30
-1.000000000000000E+20
  9
$PLIMMIN
 10
0.0
 20
0.0
  9
$PLIMMAX
 10
420.0
 20
297.0
  9
$UNITMODE
 70
     0
  9
$VISRETAIN
 70
     1
  9
$PLINEGEN
 70
     0
  9
$PSLTSCALE
 70
     1
  9
$TREEDEPTH
 70
  3020
  9
$CMLSTYLE
  2
Standard
  9
$CMLJUST
 70
     0
  9
$CMLSCALE
 40
20.0
  9
$PROXYGRAPHICS
 70
     1
  9
$MEASUREMENT
 70
     1
  9
$CELWEIGHT
370
    -1
  9
$ENDCAPS
280
     0
  9
$JOINSTYLE
280
     0
  9
$LWDISPLAY
290
     0
  9
$INSUNITS
 70
     4
  9
$HYPERLINKBASE
  1

  9
$STYLESHEET
  1

  9
$XEDIT
290
     1
  9
$CEPSNTYPE
380
     0
  9
$PSTYLEMODE
290
     1
  9
$FINGERPRINTGUID
  2
{2E8BD413-F431-4738-98CF-97D0CAE9A5E7}
  9
$VERSIONGUID
  2
{FAEB1C32-E019-11D5-929B-00C0DF256EC4}
  9
$EXTNAMES
290
     1
  9
$PSVPSCALE
 40
0.0
  9
$OLESTARTUP
290
     0
  9
$SORTENTS
280
   127
  9
$INDEXCTL
280
     0
  9
$HIDETEXT
280
     1
  9
$XCLIPFRAME
290
     0
  9
$HALOGAP
280
     0
  9
$OBSCOLOR
 70
   257
  9
$OBSLTYPE
280
     0
  9
$INTERSECTIONDISPLAY
280
     0
  9
$INTERSECTIONCOLOR
 70
   257
  9
$DIMASSOC
280
     2
  9
$PROJECTNAME
  1

  0
ENDSEC
  0
SECTION
  2
CLASSES
  0
CLASS
  1
ACDBDICTIONARYWDFLT
  2
AcDbDictionaryWithDefault
  3
ObjectDBX Classes
 90
        0
 91
        4
280
     0
281
     0
  0
CLASS
  1
VISUALSTYLE
  2
AcDbVisualStyle
  3
ObjectDBX Classes
 90
     4095
 91
        4
280
     0
281
     0
  0
CLASS
  1
MATERIAL
  2
AcDbMaterial
  3
ObjectDBX Classes
 90
     1153
 91
        4
280
     0
281
     0
  0
CLASS
  1
SCALE
  2
AcDbScale
  3
ObjectDBX Classes
 90
     1153
 91
        4
280
     0
281
     0
  0
CLASS
  1
TABLESTYLE
  2
AcDbTableStyle
  3
ObjectDBX Classes
 90
     4095
 91
        4
280
     0
281
     0
  0
CLASS
  1
MLEADERSTYLE
  2
AcDbMLeaderStyle
  3
ACDB_MLEADERSTYLE_CLASS
 90
     4095
 91
        4
280
     0
281
     0
  0
CLASS
  1
SUN
  2
AcDbSun
  3
SCENEOE
 90
     1153
 91
        4
280
     0
281
     0
  0
CLASS
  1
DICTIONARYVAR
  2
AcDbDictionaryVar
  3
ObjectDBX Classes
 90
        0
 91
        4
280
     0
281
     0
  0
CLASS
  1
CELLSTYLEMAP
  2
AcDbCellStyleMap
  3
ObjectDBX Classes
 90
     1152
 91
        4
280
     0
281
     0
  0
ENDSEC
  0
SECTION
  2
TABLES
  0
TABLE
  2
VPORT
  5
8
102
{ACAD_XDICTIONARY
360
276
102
}
330
0
100
AcDbSymbolTable
 70
     1
  0
VPORT
  5
29
330
8
100
AcDbSymbolTableRecord
100
AcDbViewportTableRecord
  2
*Active
 70
     0
 10
0.0
 20
0.0
 11
1.0
 21
1.0
 12
0.0
 22
0.0
 13
0.0
 23
0.0
 14
10.0
 24
10.0
 15
10.0
 25
10.0
 16
0.0
 26
0.0
 36
1.0
 17
0.0
 27
0.0
 37
0.0
 40
3267.0
 41
1.414141414141414
 42
50.0
 43
0.0
 44
0.0
 50
0.0
 51
0.0
 71
     0
 72
 10000
 73
     1
 74
     3
 75
     0
 76
     0
 77
     0
 78
     0
281
     0
 65
     1
110
0.0
120
0.0
130
0.0
111
1.0
121
0.0
131
0.0
112
0.0
122
1.0
132
0.0
 79
     0
146
0.0
  0
ENDTAB
  0
TABLE
  2
LTYPE
  5
5
330
0
100
AcDbSymbolTable
 70
     4
  0
LTYPE
  5
14
330
5
100
AcDbSymbolTableRecord
100
AcDbLinetypeTableRecord
  2
ByBlock
 70
     0
  3

 72
    65
 73
     0
 40
0.0
  0
LTYPE
  5
15
330
5
100
AcDbSymbolTableRecord
100
AcDbLinetypeTableRecord
  2
ByLayer
 70
     0
  3

 72
    65
 73
     0
 40
0.0
  0
LTYPE
  5
16
330
5
100
AcDbSymbolTableRecord
100
AcDbLinetypeTableRecord
  2
Continuous
 70
     0
  3
Solid line
 72
    65
 73
     0
 40
0.0
  0
LTYPE
  5
6F
330
5
100
AcDbSymbolTableRecord
100
AcDbLinetypeTableRecord
  2
JWW_CENTER2
 70
     0
  3
-------------  --  -------------
 72
    65
 73
     4
 40
13.54666666666667
 49
11.00666666666667
 74
     0
 49
-0.8466666666666667
 74
     0
 49
0.8466666666666667
 74
     0
 49
-0.8466666666666667
 74
     0
  0
LTYPE
  5
70
330
5
100
AcDbSymbolTableRecord
100
AcDbLinetypeTableRecord
  2
JWW_DASHED2
 70
     0
  3
--    ----    ----    ----    --
 72
    65
 73
     2
 40
3.386666666666667
 49
1.693333333333333
 74
     0
 49
-1.693333333333333
 74
     0
  0
LTYPE
  5
71
330
5
100
AcDbSymbolTableRecord
100
AcDbLinetypeTableRecord
  2
JWW_PHANTOM1
 70
     0
  3
----  -  -  --------  -  -  ----
 72
    65
 73
     6
 40
6.773333333333333
 49
3.386666666666667
 74
     0
 49
-0.8466666666666667
 74
     0
 49
0.4233333333333333
 74
     0
 49
-0.8466666666666667
 74
     0
 49
0.4233333333333333
 74
     0
 49
-0.8466666666666667
 74
     0
  0
ENDTAB
  0
TABLE
  2
LAYER
  5
2
330
0
100
AcDbSymbolTable
 70
    21
  0
LAYER
  5
10
330
2
100
AcDbSymbolTableRecord
100
AcDbLayerTableRecord
  2
0
 70
     0
 62
     7
  6
Continuous
370
    -3
390
F
  0
LAYER
  5
72
330
2
100
AcDbSymbolTableRecord
100
AcDbLayerTableRecord
  2
C-0
 70
     0
 62
     7
  6
Continuous
370
    -3
390
F
  0
LAYER
  5
73
330
2
100
AcDbSymbolTableRecord
100
AcDbLayerTableRecord
  2
C-2
 70
     0
 62
     7
  6
Continuous
370
    -3
390
F
  0
LAYER
  5
74
330
2
100
AcDbSymbolTableRecord
100
AcDbLayerTableRecord
  2
C-6
 70
     0
 62
     7
  6
Continuous
370
    -3
390
F
  0
LAYER
  5
75
330
2
100
AcDbSymbolTableRecord
100
AcDbLayerTableRecord
  2
C-4
 70
     0
 62
     7
  6
Continuous
370
    -3
390
F
  0
LAYER
  5
76
330
2
100
AcDbSymbolTableRecord
100
AcDbLayerTableRecord
  2
C-5
 70
     0
 62
     7
  6
Continuous
370
    -3
390
F
  0
LAYER
  5
77
330
2
100
AcDbSymbolTableRecord
100
AcDbLayerTableRecord
  2
C-E
 70
     0
 62
     7
  6
Continuous
370
    -3
390
F
  0
LAYER
  5
78
330
2
100
AcDbSymbolTableRecord
100
AcDbLayerTableRecord
  2
C-1
 70
     0
 62
     7
  6
Continuous
370
    -3
390
F
  0
LAYER
  5
79
330
2
100
AcDbSymbolTableRecord
100
AcDbLayerTableRecord
  2
C-3
 70
     0
 62
     7
  6
Continuous
370
    -3
390
F
  0
LAYER
  5
7A
330
2
100
AcDbSymbolTableRecord
100
AcDbLayerTableRecord
  2
C-B
 70
     0
 62
     7
  6
Continuous
370
    -3
390
F
  0
LAYER
  5
7B
330
2
100
AcDbSymbolTableRecord
100
AcDbLayerTableRecord
  2
C-9
 70
     0
 62
     7
  6
Continuous
370
    -3
390
F
  0
LAYER
  5
7C
330
2
100
AcDbSymbolTableRecord
100
AcDbLayerTableRecord
  2
D-0
 70
     0
 62
     7
  6
Continuous
370
    -3
390
F
  0
LAYER
  5
7D
330
2
100
AcDbSymbolTableRecord
100
AcDbLayerTableRecord
  2
D-5
 70
     0
 62
     7
  6
Continuous
370
    -3
390
F
  0
LAYER
  5
7E
330
2
100
AcDbSymbolTableRecord
100
AcDbLayerTableRecord
  2
D-1
 70
     0
 62
     7
  6
Continuous
370
    -3
390
F
  0
LAYER
  5
7F
330
2
100
AcDbSymbolTableRecord
100
AcDbLayerTableRecord
  2
D-E
 70
     0
 62
     7
  6
Continuous
370
    -3
390
F
  0
LAYER
  5
80
330
2
100
AcDbSymbolTableRecord
100
AcDbLayerTableRecord
  2
D-6
 70
     0
 62
     7
  6
Continuous
370
    -3
390
F
  0
LAYER
  5
81
330
2
100
AcDbSymbolTableRecord
100
AcDbLayerTableRecord
  2
D-B
 70
     0
 62
     7
  6
Continuous
370
    -3
390
F
  0
LAYER
  5
82
330
2
100
AcDbSymbolTableRecord
100
AcDbLayerTableRecord
  2
D-9
 70
     0
 62
     7
  6
Continuous
370
    -3
390
F
  0
LAYER
  5
83
330
2
100
AcDbSymbolTableRecord
100
AcDbLayerTableRecord
  2
D-4
 70
     0
 62
     7
  6
Continuous
370
    -3
390
F
  0
LAYER
  5
84
330
2
100
AcDbSymbolTableRecord
100
AcDbLayerTableRecord
  2
F-5ﾚｲﾔ
 70
     0
 62
     7
  6
Continuous
370
    -3
390
F
  0
LAYER
  5
85
330
2
100
AcDbSymbolTableRecord
100
AcDbLayerTableRecord
  2
F-Fﾚｲﾔ
 70
     0
 62
     7
  6
Continuous
370
    -3
390
F
  0
ENDTAB
  0
TABLE
  2
STYLE
  5
3
330
0
100
AcDbSymbolTable
 70
     2
  0
STYLE
  5
11
330
3
100
AcDbSymbolTableRecord
100
AcDbTextStyleTableRecord
  2
Standard
 70
     0
 40
0.0
 41
1.0
 50
0.0
 71
     0
 42
2.5
  3
txt
  4

  0
STYLE
  5
6E
330
3
100
AcDbSymbolTableRecord
100
AcDbTextStyleTableRecord
  2
ＭＳ ゴシック
 70
     0
 40
1.0
 41
1.0
 50
0.0
 71
     0
 42
2.5
  3

  4

1001
ACAD
1000
MS Gothic
1071
    32817
  0
ENDTAB
  0
TABLE
  2
VIEW
  5
6
330
0
100
AcDbSymbolTable
 70
     0
  0
ENDTAB
  0
TABLE
  2
UCS
  5
7
330
0
100
AcDbSymbolTable
 70
     0
  0
ENDTAB
  0
TABLE
  2
APPID
  5
9
330
0
100
AcDbSymbolTable
 70
     2
  0
APPID
  5
12
330
9
100
AcDbSymbolTableRecord
100
AcDbRegAppTableRecord
  2
ACAD
 70
     0
  0
APPID
  5
2B5
330
9
100
AcDbSymbolTableRecord
100
AcDbRegAppTableRecord
  2
ACAD_MLEADERVER
 70
     0
  0
ENDTAB
  0
TABLE
  2
DIMSTYLE
  5
A
330
0
100
AcDbSymbolTable
 70
     1
100
AcDbDimStyleTable
  0
DIMSTYLE
105
27
330
A
100
AcDbSymbolTableRecord
100
AcDbDimStyleTableRecord
  2
ISO-25
 70
     0
 41
2.5
 42
0.625
 43
3.75
 44
1.25
 73
     0
 74
     0
 77
     1
 78
     8
140
2.5
141
2.5
143
0.03937007874016
147
0.625
171
     3
172
     1
178
     0
271
     2
272
     2
274
     3
278
    44
283
     0
284
     8
340
11
  0
ENDTAB
  0
TABLE
  2
BLOCK_RECORD
  5
1
330
0
100
AcDbSymbolTable
 70
     1
  0
BLOCK_RECORD
  5
1F
330
1
100
AcDbSymbolTableRecord
100
AcDbBlockTableRecord
  2
*Model_Space
340
22
  0
BLOCK_RECORD
  5
1B
330
1
100
AcDbSymbolTableRecord
100
AcDbBlockTableRecord
  2
*Paper_Space
340
1E
  0
BLOCK_RECORD
  5
23
330
1
100
AcDbSymbolTableRecord
100
AcDbBlockTableRecord
  2
*Paper_Space0
340
26
  0
ENDTAB
  0
ENDSEC
  0
SECTION
  2
BLOCKS
  0
BLOCK
  5
20
330
1F
100
AcDbEntity
  8
0
100
AcDbBlockBegin
  2
*Model_Space
 70
     0
 10
0.0
 20
0.0
 30
0.0
  3
*Model_Space
  1

  0
ENDBLK
  5
21
330
1F
100
AcDbEntity
  8
0
100
AcDbBlockEnd
  0
BLOCK
  5
1C
330
1B
100
AcDbEntity
 67
     1
  8
0
100
AcDbBlockBegin
  2
*Paper_Space
 70
     0
 10
0.0
 20
0.0
 30
0.0
  3
*Paper_Space
  1

  0
ENDBLK
  5
1D
330
1B
100
AcDbEntity
 67
     1
  8
0
100
AcDbBlockEnd
  0
BLOCK
  5
24
330
23
100
AcDbEntity
  8
0
100
AcDbBlockBegin
  2
*Paper_Space0
 70
     0
 10
0.0
 20
0.0
 30
0.0
  3
*Paper_Space0
  1

  0
ENDBLK
  5
25
330
23
100
AcDbEntity
  8
0
100
AcDbBlockEnd
  0
ENDSEC
  0
SECTION
  2
ENTITIES
  0
ARC
  5
86
330
1F
100
AcDbEntity
  8
C-0
  6
JWW_CENTER2
 62
     7
370
     9
100
AcDbCircle
 10
-1081.131096001721
 20
318.2222052216238
 30
0.0
 40
174.999995876003
100
AcDbArc
 50
89.999755859375
 51
180.0
  0
LINE
  5
87
330
1F
100
AcDbEntity
  8
C-0
  6
JWW_CENTER2
 62
     7
370
     9
100
AcDbLine
 10
-936.381026718571
 20
493.2209020385582
 30
0.0
 11
-1081.130353682254
 21
493.2220897497066
 31
0.0
  0
LINE
  5
88
330
1F
100
AcDbEntity
  8
C-0
  6
JWW_CENTER2
 62
     7
370
     9
100
AcDbLine
 10
-1256.131017645778
 20
318.2222052216238
 30
0.0
 11
-1256.131017645778
 21
-418.430247401898
 31
0.0
  0
LINE
  5
89
330
1F
100
AcDbEntity
  8
C-0
  6
JWW_CENTER2
 62
     7
370
     9
100
AcDbLine
 10
-936.381026718571
 20
143.4709977152895
 30
0.0
 11
-1261.310922892822
 21
143.4736700653741
 31
0.0
  0
LINE
  5
8A
330
1F
100
AcDbEntity
  8
C-2
  6
Continuous
 62
     3
370
     9
100
AcDbLine
 10
-936.381026718571
 20
462.9707898658384
 30
0.0
 11
-1081.130502146147
 21
462.9719775769874
 31
0.0
  0
LINE
  5
8B
330
1F
100
AcDbEntity
  8
C-2
  6
Continuous
 62
     3
370
     9
100
AcDbLine
 10
-936.381026718571
 20
523.4710142112781
 30
0.0
 11
-1081.130279450307
 21
523.4722019224264
 31
0.0
  0
LINE
  5
8C
330
1F
100
AcDbEntity
  8
C-2
  6
Continuous
 62
     3
370
     9
100
AcDbLine
 10
-1286.381018470577
 20
318.2220567577306
 30
0.0
 11
-1286.381018470577
 21
-126.5269237902004
 31
0.0
  0
LINE
  5
8D
330
1F
100
AcDbEntity
  8
C-2
  6
Continuous
 62
     3
370
     9
100
AcDbLine
 10
-936.381026718571
 20
160.4710043136848
 30
0.0
 11
-1225.881016820978
 21
160.4733797359819
 31
0.0
  0
LINE
  5
8E
330
1F
100
AcDbEntity
  8
C-2
  6
Continuous
 62
     3
370
     9
100
AcDbLine
 10
-936.381026718571
 20
126.471065348841
 30
0.0
 11
-1225.881016820978
 21
126.4733665391915
 31
0.0
  0
LINE
  5
8F
330
1F
100
AcDbEntity
  8
C-2
  6
Continuous
 62
     3
370
     9
100
AcDbLine
 10
-1225.881016820978
 20
318.2217598299431
 30
0.0
 11
-1225.881016820978
 21
160.4733797359819
 31
0.0
  0
LINE
  5
90
330
1F
100
AcDbEntity
  8
C-2
  6
Continuous
 62
     3
370
     9
100
AcDbLine
 10
-1225.881016820978
 20
126.4733665391915
 30
0.0
 11
-1225.881016820978
 21
-126.5269237902004
 31
0.0
  0
ARC
  5
91
330
1F
100
AcDbEntity
  8
C-2
  6
Continuous
 62
     3
370
     9
100
AcDbCircle
 10
-1081.131096001721
 20
318.2220567577306
 30
0.0
 40
205.2499967008024
100
AcDbArc
 50
89.99977111816406
 51
180.0
  0
ARC
  5
92
330
1F
100
AcDbEntity
  8
C-2
  6
Continuous
 62
     3
370
     9
100
AcDbCircle
 10
-1081.131021769775
 20
318.2217598299431
 30
0.0
 40
144.7500043301969
100
AcDbArc
 50
89.9998016357422
 51
180.0
  0
ARC
  5
93
330
1F
100
AcDbEntity
  8
C-2
  6
Continuous
 62
     3
370
     9
100
AcDbCircle
 10
-1225.881016820978
 20
143.4733731375869
 30
0.0
 40
17.00000659839527
100
AcDbArc
 50
90.0
 51
270.0
  0
ARC
  5
94
330
1F
100
AcDbEntity
  8
C-0
  6
JWW_CENTER2
 62
     7
370
     9
100
AcDbCircle
 10
-791.6309574354207
 20
318.2222052216238
 30
0.0
 40
174.999995876003
100
AcDbArc
 50
0.0000000000000127
 51
90.000244140625
  0
LINE
  5
95
330
1F
100
AcDbEntity
  8
C-0
  6
JWW_CENTER2
 62
     7
370
     9
100
AcDbLine
 10
-936.381026718571
 20
493.2209020385582
 30
0.0
 11
-791.6316997548884
 21
493.2220897497066
 31
0.0
  0
LINE
  5
96
330
1F
100
AcDbEntity
  8
C-0
  6
JWW_CENTER2
 62
     7
370
     9
100
AcDbLine
 10
-616.6310357913644
 20
318.2222052216238
 30
0.0
 11
-616.6310357913644
 21
-418.430247401898
 31
0.0
  0
LINE
  5
97
330
1F
100
AcDbEntity
  8
C-0
  6
JWW_CENTER2
 62
     7
370
     9
100
AcDbLine
 10
-936.381026718571
 20
143.4709977152895
 30
0.0
 11
-611.4511305443204
 21
143.4736700653741
 31
0.0
  0
LINE
  5
98
330
1F
100
AcDbEntity
  8
C-2
  6
Continuous
 62
     3
370
     9
100
AcDbLine
 10
-936.381026718571
 20
462.9707898658384
 30
0.0
 11
-791.6315512909949
 21
462.9719775769874
 31
0.0
  0
LINE
  5
99
330
1F
100
AcDbEntity
  8
C-2
  6
Continuous
 62
     3
370
     9
100
AcDbLine
 10
-936.381026718571
 20
523.4710142112781
 30
0.0
 11
-791.6317739868352
 21
523.4722019224264
 31
0.0
  0
LINE
  5
9A
330
1F
100
AcDbEntity
  8
C-2
  6
Continuous
 62
     3
370
     9
100
AcDbLine
 10
-586.381034966565
 20
318.2220567577306
 30
0.0
 11
-586.381034966565
 21
-126.5269237902004
 31
0.0
  0
LINE
  5
9B
330
1F
100
AcDbEntity
  8
C-2
  6
Continuous
 62
     3
370
     9
100
AcDbLine
 10
-936.381026718571
 20
160.4710043136848
 30
0.0
 11
-646.8810366161637
 21
160.4733797359819
 31
0.0
  0
LINE
  5
9C
330
1F
100
AcDbEntity
  8
C-2
  6
Continuous
 62
     3
370
     9
100
AcDbLine
 10
-936.381026718571
 20
126.471065348841
 30
0.0
 11
-646.8810366161637
 21
126.4733665391915
 31
0.0
  0
LINE
  5
9D
330
1F
100
AcDbEntity
  8
C-2
  6
Continuous
 62
     3
370
     9
100
AcDbLine
 10
-646.8810366161637
 20
318.2217598299431
 30
0.0
 11
-646.8810366161637
 21
160.4733797359819
 31
0.0
  0
LINE
  5
9E
330
1F
100
AcDbEntity
  8
C-2
  6
Continuous
 62
     3
370
     9
100
AcDbLine
 10
-646.8810366161637
 20
126.4733665391915
 30
0.0
 11
-646.8810366161637
 21
-126.5269237902004
 31
0.0
  0
ARC
  5
9F
330
1F
100
AcDbEntity
  8
C-2
  6
Continuous
 62
     3
370
     9
100
AcDbCircle
 10
-791.6309574354207
 20
318.2220567577306
 30
0.0
 40
205.2499967008024
100
AcDbArc
 50
0.0
 51
90.00022888183592
  0
ARC
  5
A0
330
1F
100
AcDbEntity
  8
C-2
  6
Continuous
 62
     3
370
     9
100
AcDbCircle
 10
-791.6310316673673
 20
318.2217598299431
 30
0.0
 40
144.7500043301969
100
AcDbArc
 50
0.0
 51
90.0001983642578
  0
ARC
  5
A1
330
1F
100
AcDbEntity
  8
C-2
  6
Continuous
 62
     3
370
     9
100
AcDbCircle
 10
-646.8810366161637
 20
143.4733731375869
 30
0.0
 40
17.00000659839527
100
AcDbArc
 50
270.0
 51
90.0
  0
LINE
  5
A2
330
1F
100
AcDbEntity
  8
C-6
  6
Continuous
 62
     6
370
     5
100
AcDbLine
 10
-586.381034966565
 20
-126.5270152043469
 30
0.0
 11
-309.9666162150676
 21
-126.5258155945407
 31
0.0
  0
LINE
  5
A3
330
1F
100
AcDbEntity
  8
C-4
  6
Continuous
 62
     7
370
     9
100
AcDbLine
 10
-1406.131017645778
 20
-603.0183277712018
 30
0.0
 11
-1106.131017645778
 21
-603.0183277712018
 31
0.0
  0
LINE
  5
A4
330
1F
100
AcDbEntity
  8
C-4
  6
Continuous
 62
     7
370
     9
100
AcDbLine
 10
-1406.131017645778
 20
-603.0183277712018
 30
0.0
 11
-1381.344896111432
 21
-599.7551729657005
 31
0.0
  0
LINE
  5
A5
330
1F
100
AcDbEntity
  8
C-4
  6
Continuous
 62
     7
370
     9
100
AcDbLine
 10
-1406.131017645778
 20
-603.0183277712018
 30
0.0
 11
-1381.344896111432
 21
-606.2814825767032
 31
0.0
  0
LINE
  5
A6
330
1F
100
AcDbEntity
  8
C-4
  6
Continuous
 62
     7
370
     9
100
AcDbLine
 10
-1106.131017645778
 20
-603.0183277712018
 30
0.0
 11
-1130.917139180122
 21
-599.7551729657005
 31
0.0
  0
LINE
  5
A7
330
1F
100
AcDbEntity
  8
C-4
  6
Continuous
 62
     7
370
     9
100
AcDbLine
 10
-1106.131017645778
 20
-603.0183277712018
 30
0.0
 11
-1130.917139180122
 21
-606.2814825767032
 31
0.0
  0
LINE
  5
A8
330
1F
100
AcDbEntity
  8
C-4
  6
Continuous
 62
     7
370
     9
100
AcDbLine
 10
-1406.131017645778
 20
-606.0183277712019
 30
0.0
 11
-1406.131017645778
 21
-498.0271114320658
 31
0.0
  0
LINE
  5
A9
330
1F
100
AcDbEntity
  8
C-4
  6
Continuous
 62
     7
370
     9
100
AcDbLine
 10
-1106.131017645778
 20
-606.0183277712019
 30
0.0
 11
-1106.131017645778
 21
-498.0271114320658
 31
0.0
  0
TEXT
  5
AA
330
1F
100
AcDbEntity
  8
C-4
  6
Continuous
 62
     2
370
   211
100
AcDbText
 10
-1311.131017645778
 20
-591.3783277712022
 30
0.0
 40
30.48
  1
□300
 41
1.1
  7
ＭＳ ゴシック
100
AcDbText
  0
LINE
  5
AB
330
1F
100
AcDbEntity
  8
C-4
  6
Continuous
 62
     7
370
     9
100
AcDbLine
 10
-1456.131017645778
 20
-707.1318227200493
 30
0.0
 11
-1056.131017645778
 21
-707.1318227200493
 31
0.0
  0
LINE
  5
AC
330
1F
100
AcDbEntity
  8
C-4
  6
Continuous
 62
     7
370
     9
100
AcDbLine
 10
-1456.131017645778
 20
-707.1318227200493
 30
0.0
 11
-1431.344896111432
 21
-703.8686679145479
 31
0.0
  0
LINE
  5
AD
330
1F
100
AcDbEntity
  8
C-4
  6
Continuous
 62
     7
370
     9
100
AcDbLine
 10
-1456.131017645778
 20
-707.1318227200493
 30
0.0
 11
-1431.344896111432
 21
-710.3949775255506
 31
0.0
  0
LINE
  5
AE
330
1F
100
AcDbEntity
  8
C-4
  6
Continuous
 62
     7
370
     9
100
AcDbLine
 10
-1056.131017645778
 20
-707.1318227200493
 30
0.0
 11
-1080.917139180122
 21
-703.8686679145479
 31
0.0
  0
LINE
  5
AF
330
1F
100
AcDbEntity
  8
C-4
  6
Continuous
 62
     7
370
     9
100
AcDbLine
 10
-1056.131017645778
 20
-707.1318227200493
 30
0.0
 11
-1080.917139180122
 21
-710.3949775255506
 31
0.0
  0
LINE
  5
B0
330
1F
100
AcDbEntity
  8
C-4
  6
Continuous
 62
     7
370
     9
100
AcDbLine
 10
-1456.131017645778
 20
-710.1318227200494
 30
0.0
 11
-1456.131017645778
 21
-498.0271114320658
 31
0.0
  0
LINE
  5
B1
330
1F
100
AcDbEntity
  8
C-4
  6
Continuous
 62
     7
370
     9
100
AcDbLine
 10
-1056.131017645778
 20
-710.1318227200494
 30
0.0
 11
-1056.131017645778
 21
-498.0271114320658
 31
0.0
  0
TEXT
  5
B2
330
1F
100
AcDbEntity
  8
C-4
  6
Continuous
 62
     2
370
   211
100
AcDbText
 10
-1311.131017645778
 20
-695.4918227200491
 30
0.0
 40
30.48
  1
□400
 41
1.1
  7
ＭＳ ゴシック
100
AcDbText
  0
LINE
  5
B3
330
1F
100
AcDbEntity
  8
C-4
  6
Continuous
 62
     7
370
     9
100
AcDbLine
 10
-1183.45264840817
 20
420.6075424155386
 30
0.0
 11
-1163.61881490089
 21
405.3885066903205
 31
0.0
  0
LINE
  5
B4
330
1F
100
AcDbEntity
  8
C-4
  6
Continuous
 62
     7
370
     9
100
AcDbLine
 10
-1183.45264840817
 20
420.6075424155386
 30
0.0
 11
-1168.233612682953
 21
400.7737089082576
 31
0.0
  0
TEXT
  5
B5
330
1F
100
AcDbEntity
  8
C-4
  6
Continuous
 62
     2
370
     9
100
AcDbText
 10
-1195.422841330458
 20
214.4694253951868
 30
0.0
 40
30.47999999999935
  1
φ60.5
 41
1.10416666666669
  7
ＭＳ ゴシック
100
AcDbText
  0
LINE
  5
B6
330
1F
100
AcDbEntity
  8
C-4
  6
Continuous
 62
     7
370
     9
100
AcDbLine
 10
-1225.881200919905
 20
205.8293412656462
 30
0.0
 11
-1225.881200919905
 21
204.029340275888
 31
0.0
  0
LINE
  5
B7
330
1F
100
AcDbEntity
  8
C-4
  6
Continuous
 62
     7
370
     9
100
AcDbLine
 10
-1286.381227313486
 20
205.8293412656462
 30
0.0
 11
-1286.381227313486
 21
204.029340275888
 31
0.0
  0
LINE
  5
B8
330
1F
100
AcDbEntity
  8
C-4
  6
Continuous
 62
     7
370
     9
100
AcDbLine
 10
-1048.778374827211
 20
205.8293412656462
 30
0.0
 11
-1316.843543878098
 21
205.8293412656462
 31
0.0
  0
LINE
  5
B9
330
1F
100
AcDbEntity
  8
C-4
  6
Continuous
 62
     7
370
     9
100
AcDbLine
 10
-1225.881200919905
 20
205.8293412656462
 30
0.0
 11
-1201.095079385559
 21
209.0924960711482
 31
0.0
  0
LINE
  5
BA
330
1F
100
AcDbEntity
  8
C-4
  6
Continuous
 62
     7
370
     9
100
AcDbLine
 10
-1225.881200919905
 20
205.8293412656462
 30
0.0
 11
-1201.095079385559
 21
202.5661864601454
 31
0.0
  0
LINE
  5
BB
330
1F
100
AcDbEntity
  8
C-4
  6
Continuous
 62
     7
370
     9
100
AcDbLine
 10
-1286.381227313486
 20
205.8293412656462
 30
0.0
 11
-1311.167348847833
 21
202.5661864601454
 31
0.0
  0
LINE
  5
BC
330
1F
100
AcDbEntity
  8
C-4
  6
Continuous
 62
     7
370
     9
100
AcDbLine
 10
-1286.381227313486
 20
205.8293412656462
 30
0.0
 11
-1311.167348847833
 21
209.0924960711482
 31
0.0
  0
TEXT
  5
BD
330
1F
100
AcDbEntity
  8
C-4
  6
Continuous
 62
     2
370
   211
100
AcDbText
 10
-1119.077157699727
 20
366.2335308363479
 30
0.0
 40
30.4800000000007
  1
R175
 50
314.9999999999947
 41
1.093749999999919
  7
ＭＳ ゴシック
100
AcDbText
  0
LINE
  5
BE
330
1F
100
AcDbEntity
  8
C-4
  6
Continuous
 62
     7
370
     9
100
AcDbLine
 10
-1058.388882920621
 20
295.4582822852
 30
0.0
 11
-1183.45264840817
 21
420.6075424155384
 31
0.0
  0
LINE
  5
BF
330
1F
100
AcDbEntity
  8
C-4
  6
Continuous
 62
     7
370
     9
100
AcDbLine
 10
-1286.381092702524
 20
639.7254941220693
 30
0.0
 11
-586.381034966565
 21
639.7254941220693
 31
0.0
  0
LINE
  5
C0
330
1F
100
AcDbEntity
  8
C-4
  6
Continuous
 62
     7
370
     9
100
AcDbLine
 10
-1286.381092702524
 20
639.7254941220693
 30
0.0
 11
-1261.594971168178
 21
642.9886489275707
 31
0.0
  0
LINE
  5
C1
330
1F
100
AcDbEntity
  8
C-4
  6
Continuous
 62
     7
370
     9
100
AcDbLine
 10
-1286.381092702524
 20
639.7254941220693
 30
0.0
 11
-1261.594971168178
 21
636.462339316568
 31
0.0
  0
LINE
  5
C2
330
1F
100
AcDbEntity
  8
C-4
  6
Continuous
 62
     7
370
     9
100
AcDbLine
 10
-586.381034966565
 20
639.7254941220693
 30
0.0
 11
-611.1671565009102
 21
642.9886489275707
 31
0.0
  0
LINE
  5
C3
330
1F
100
AcDbEntity
  8
C-4
  6
Continuous
 62
     7
370
     9
100
AcDbLine
 10
-586.381034966565
 20
639.7254941220693
 30
0.0
 11
-611.1671565009102
 21
636.462339316568
 31
0.0
  0
TEXT
  5
C4
330
1F
100
AcDbEntity
  8
C-4
  6
Continuous
 62
     2
370
   211
100
AcDbText
 10
-968.8810638345443
 20
650.3654941220693
 30
0.0
 40
30.48
  1
700
 41
1.083333333333333
  7
ＭＳ ゴシック
100
AcDbText
  0
LINE
  5
C5
330
1F
100
AcDbEntity
  8
C-4
  6
Continuous
 62
     7
370
     9
100
AcDbLine
 10
-1286.381092702524
 20
642.7254941220692
 30
0.0
 11
-1286.381092702524
 21
408.1403877390903
 31
0.0
  0
LINE
  5
C6
330
1F
100
AcDbEntity
  8
C-4
  6
Continuous
 62
     7
370
     9
100
AcDbLine
 10
-586.381034966565
 20
642.7254941220692
 30
0.0
 11
-586.381034966565
 21
408.1403877390903
 31
0.0
  0
LINE
  5
C7
330
1F
100
AcDbEntity
  8
C-4
  6
Continuous
 62
     7
370
     9
100
AcDbLine
 10
-456.8265768859288
 20
143.4736700653741
 30
0.0
 11
-456.8265768859288
 21
523.4720534568953
 31
0.0
  0
LINE
  5
C8
330
1F
100
AcDbEntity
  8
C-4
  6
Continuous
 62
     7
370
     9
100
AcDbLine
 10
-456.8265768859288
 20
143.4736700653741
 30
0.0
 11
-460.0897316914301
 21
168.2597915997194
 31
0.0
  0
LINE
  5
C9
330
1F
100
AcDbEntity
  8
C-4
  6
Continuous
 62
     7
370
     9
100
AcDbLine
 10
-456.8265768859288
 20
143.4736700653741
 30
0.0
 11
-453.5634220804275
 21
168.2597915997194
 31
0.0
  0
LINE
  5
CA
330
1F
100
AcDbEntity
  8
C-4
  6
Continuous
 62
     7
370
     9
100
AcDbLine
 10
-456.8265768859288
 20
523.4720534568953
 30
0.0
 11
-460.0897316914301
 21
498.68593192255
 31
0.0
  0
LINE
  5
CB
330
1F
100
AcDbEntity
  8
C-4
  6
Continuous
 62
     7
370
     9
100
AcDbLine
 10
-456.8265768859288
 20
523.4720534568953
 30
0.0
 11
-453.5634220804275
 21
498.68593192255
 31
0.0
  0
TEXT
  5
CC
330
1F
100
AcDbEntity
  8
C-4
  6
Continuous
 62
     2
370
   211
100
AcDbText
 10
-467.4665768859288
 20
300.9728617611347
 30
0.0
 40
30.48
  1
380
 50
90.0
 41
1.083333333333333
  7
ＭＳ ゴシック
100
AcDbText
  0
LINE
  5
CD
330
1F
100
AcDbEntity
  8
C-4
  6
Continuous
 62
     7
370
     9
100
AcDbLine
 10
-453.8265768859287
 20
523.4720534568953
 30
0.0
 11
-702.5712577369926
 21
523.4720534568953
 31
0.0
  0
LINE
  5
CE
330
1F
100
AcDbEntity
  8
C-4
  6
Continuous
 62
     7
370
     9
100
AcDbLine
 10
-453.8265768859287
 20
143.4736700653741
 30
0.0
 11
-575.0180662476307
 21
143.4736700653741
 31
0.0
  0
LINE
  5
CF
330
1F
100
AcDbEntity
  8
C-5
  6
Continuous
 62
     7
370
     9
100
AcDbLine
 10
-791.632047713275
 20
523.4722019207892
 30
0.0
 11
-776.4132818982544
 21
543.306242534531
 31
0.0
  0
LINE
  5
D0
330
1F
100
AcDbEntity
  8
C-5
  6
Continuous
 62
     7
370
     9
100
AcDbLine
 10
-791.632047713275
 20
523.4722019207892
 30
0.0
 11
-782.0652762204738
 21
546.5693204251505
 31
0.0
  0
LINE
  5
D1
330
1F
100
AcDbEntity
  8
C-5
  6
Continuous
 62
     7
370
     9
100
AcDbLine
 10
-791.632047713275
 20
523.4722019207892
 30
0.0
 11
-646.1919548805331
 21
775.3897492391401
 31
0.0
  0
TEXT
  5
D2
330
1F
100
AcDbEntity
  8
C-5
  6
Continuous
 62
     7
370
     9
100
AcDbText
 10
-637.8203322314696
 20
795.0245507203409
 30
0.0
 40
22.86
  1
本体：φ60.5×2.8
 41
1.156862745098039
  7
ＭＳ ゴシック
100
AcDbText
  0
LINE
  5
D3
330
1F
100
AcDbEntity
  8
C-5
  6
Continuous
 62
     7
370
     9
100
AcDbLine
 10
-646.1919548805331
 20
775.3897492391401
 30
0.0
 11
-119.9598165427373
 21
775.3983850206048
 31
0.0
  0
TEXT
  5
D4
330
1F
100
AcDbEntity
  8
C-5
  6
Continuous
 62
     7
370
     9
100
AcDbText
 10
-637.8203322314696
 20
735.281230443917
 30
0.0
 40
22.86
  1
STK　溶融亜鉛めっき＋焼付塗装
 41
1.155172413793103
  7
ＭＳ ゴシック
100
AcDbText
  0
LINE
  5
D5
330
1F
100
AcDbEntity
  8
C-E
  6
Continuous
 62
     6
370
     5
100
AcDbLine
 10
-1406.131772142173
 20
-378.028771508389
 30
0.0
 11
-1406.131772142173
 21
-126.5287715083886
 31
0.0
  0
LINE
  5
D6
330
1F
100
AcDbEntity
  8
C-E
  6
Continuous
 62
     6
370
     5
100
AcDbLine
 10
-1106.131772142172
 20
-378.028771508389
 30
0.0
 11
-1106.131772142172
 21
-126.5287715083886
 31
0.0
  0
LINE
  5
D7
330
1F
100
AcDbEntity
  8
C-E
  6
Continuous
 62
     6
370
     5
100
AcDbLine
 10
-1056.131772142172
 20
-478.028771508389
 30
0.0
 11
-1056.131772142172
 21
-378.028771508389
 31
0.0
  0
LINE
  5
D8
330
1F
100
AcDbEntity
  8
C-E
  6
Continuous
 62
     6
370
     5
100
AcDbLine
 10
-1456.131772142173
 20
-378.028771508389
 30
0.0
 11
-1056.131772142172
 21
-378.028771508389
 31
0.0
  0
LINE
  5
D9
330
1F
100
AcDbEntity
  8
C-E
  6
Continuous
 62
     6
370
     5
100
AcDbLine
 10
-1456.131772142173
 20
-478.028771508389
 30
0.0
 11
-1456.131772142173
 21
-378.028771508389
 31
0.0
  0
LINE
  5
DA
330
1F
100
AcDbEntity
  8
C-E
  6
Continuous
 62
     6
370
     5
100
AcDbLine
 10
-1456.131772142173
 20
-478.028771508389
 30
0.0
 11
-1056.131772142172
 21
-478.028771508389
 31
0.0
  0
LINE
  5
DB
330
1F
100
AcDbEntity
  8
C-E
  6
Continuous
 62
     6
370
     5
100
AcDbLine
 10
-1256.131772142173
 20
-378.028771508389
 30
0.0
 11
-1282.926691385285
 21
-478.028771508389
 31
0.0
  0
LINE
  5
DC
330
1F
100
AcDbEntity
  8
C-E
  6
Continuous
 62
     6
370
     5
100
AcDbLine
 10
-1269.877322571745
 20
-478.028771508389
 30
0.0
 11
-1276.402006978515
 21
-453.678317798971
 31
0.0
  0
LINE
  5
DD
330
1F
100
AcDbEntity
  8
C-E
  6
Continuous
 62
     6
370
     5
100
AcDbLine
 10
-1269.181140955713
 20
-378.028771508389
 30
0.0
 11
-1262.656456548943
 21
-402.3792252178069
 31
0.0
  0
LINE
  5
DE
330
1F
100
AcDbEntity
  8
C-E
  6
Continuous
 62
     6
370
     5
100
AcDbLine
 10
-1306.131772142173
 20
-378.028771508389
 30
0.0
 11
-1332.926691385285
 21
-478.028771508389
 31
0.0
  0
LINE
  5
DF
330
1F
100
AcDbEntity
  8
C-E
  6
Continuous
 62
     6
370
     5
100
AcDbLine
 10
-1319.877322571745
 20
-478.028771508389
 30
0.0
 11
-1326.402006978515
 21
-453.678317798971
 31
0.0
  0
LINE
  5
E0
330
1F
100
AcDbEntity
  8
C-E
  6
Continuous
 62
     6
370
     5
100
AcDbLine
 10
-1319.181140955713
 20
-378.028771508389
 30
0.0
 11
-1312.656456548943
 21
-402.3792252178069
 31
0.0
  0
LINE
  5
E1
330
1F
100
AcDbEntity
  8
C-E
  6
Continuous
 62
     6
370
     5
100
AcDbLine
 10
-1356.131772142173
 20
-378.028771508389
 30
0.0
 11
-1382.926691385285
 21
-478.028771508389
 31
0.0
  0
LINE
  5
E2
330
1F
100
AcDbEntity
  8
C-E
  6
Continuous
 62
     6
370
     5
100
AcDbLine
 10
-1369.877322571745
 20
-478.028771508389
 30
0.0
 11
-1376.402006978515
 21
-453.678317798971
 31
0.0
  0
LINE
  5
E3
330
1F
100
AcDbEntity
  8
C-E
  6
Continuous
 62
     6
370
     5
100
AcDbLine
 10
-1369.181140955713
 20
-378.028771508389
 30
0.0
 11
-1362.656456548943
 21
-402.3792252178069
 31
0.0
  0
LINE
  5
E4
330
1F
100
AcDbEntity
  8
C-E
  6
Continuous
 62
     6
370
     5
100
AcDbLine
 10
-1406.131772142173
 20
-378.028771508389
 30
0.0
 11
-1432.926691385285
 21
-478.028771508389
 31
0.0
  0
LINE
  5
E5
330
1F
100
AcDbEntity
  8
C-E
  6
Continuous
 62
     6
370
     5
100
AcDbLine
 10
-1419.877322571745
 20
-478.028771508389
 30
0.0
 11
-1426.402006978515
 21
-453.678317798971
 31
0.0
  0
LINE
  5
E6
330
1F
100
AcDbEntity
  8
C-E
  6
Continuous
 62
     6
370
     5
100
AcDbLine
 10
-1419.181140955713
 20
-378.028771508389
 30
0.0
 11
-1412.656456548943
 21
-402.3792252178069
 31
0.0
  0
LINE
  5
E7
330
1F
100
AcDbEntity
  8
C-E
  6
Continuous
 62
     6
370
     5
100
AcDbLine
 10
-1206.131772142173
 20
-378.028771508389
 30
0.0
 11
-1232.926691385285
 21
-478.028771508389
 31
0.0
  0
LINE
  5
E8
330
1F
100
AcDbEntity
  8
C-E
  6
Continuous
 62
     6
370
     5
100
AcDbLine
 10
-1219.877322571745
 20
-478.028771508389
 30
0.0
 11
-1226.402006978515
 21
-453.678317798971
 31
0.0
  0
LINE
  5
E9
330
1F
100
AcDbEntity
  8
C-E
  6
Continuous
 62
     6
370
     5
100
AcDbLine
 10
-1219.181140955713
 20
-378.028771508389
 30
0.0
 11
-1212.656456548943
 21
-402.3792252178069
 31
0.0
  0
LINE
  5
EA
330
1F
100
AcDbEntity
  8
C-E
  6
Continuous
 62
     6
370
     5
100
AcDbLine
 10
-1156.131772142172
 20
-378.028771508389
 30
0.0
 11
-1182.926691385285
 21
-478.028771508389
 31
0.0
  0
LINE
  5
EB
330
1F
100
AcDbEntity
  8
C-E
  6
Continuous
 62
     6
370
     5
100
AcDbLine
 10
-1169.877322571745
 20
-478.028771508389
 30
0.0
 11
-1176.402006978515
 21
-453.678317798971
 31
0.0
  0
LINE
  5
EC
330
1F
100
AcDbEntity
  8
C-E
  6
Continuous
 62
     6
370
     5
100
AcDbLine
 10
-1169.181140955713
 20
-378.028771508389
 30
0.0
 11
-1162.656456548943
 21
-402.3792252178069
 31
0.0
  0
LINE
  5
ED
330
1F
100
AcDbEntity
  8
C-E
  6
Continuous
 62
     6
370
     5
100
AcDbLine
 10
-1106.131772142172
 20
-378.028771508389
 30
0.0
 11
-1132.926691385285
 21
-478.028771508389
 31
0.0
  0
LINE
  5
EE
330
1F
100
AcDbEntity
  8
C-E
  6
Continuous
 62
     6
370
     5
100
AcDbLine
 10
-1119.877322571745
 20
-478.028771508389
 30
0.0
 11
-1126.402006978515
 21
-453.678317798971
 31
0.0
  0
LINE
  5
EF
330
1F
100
AcDbEntity
  8
C-E
  6
Continuous
 62
     6
370
     5
100
AcDbLine
 10
-1119.181140955713
 20
-378.028771508389
 30
0.0
 11
-1112.656456548943
 21
-402.3792252178069
 31
0.0
  0
LINE
  5
F0
330
1F
100
AcDbEntity
  8
C-E
  6
Continuous
 62
     6
370
     5
100
AcDbLine
 10
-1056.131772142172
 20
-378.028771508389
 30
0.0
 11
-1082.926691385285
 21
-478.028771508389
 31
0.0
  0
LINE
  5
F1
330
1F
100
AcDbEntity
  8
C-E
  6
Continuous
 62
     6
370
     5
100
AcDbLine
 10
-1069.877322571745
 20
-478.028771508389
 30
0.0
 11
-1076.402006978515
 21
-453.678317798971
 31
0.0
  0
LINE
  5
F2
330
1F
100
AcDbEntity
  8
C-E
  6
Continuous
 62
     6
370
     5
100
AcDbLine
 10
-1069.181140955713
 20
-378.028771508389
 30
0.0
 11
-1062.656456548943
 21
-402.3792252178069
 31
0.0
  0
LINE
  5
F3
330
1F
100
AcDbEntity
  8
C-1
  6
Continuous
 62
     7
370
     9
100
AcDbLine
 10
-1296.13180513415
 20
-376.5288036755661
 30
0.0
 11
-1296.13180513415
 21
-378.028771508389
 31
0.0
  0
LINE
  5
F4
330
1F
100
AcDbEntity
  8
C-1
  6
Continuous
 62
     7
370
     9
100
AcDbLine
 10
-1268.631838126126
 20
-376.5288036755661
 30
0.0
 11
-1268.631838126126
 21
-378.028771508389
 31
0.0
  0
LINE
  5
F5
330
1F
100
AcDbEntity
  8
C-1
  6
Continuous
 62
     7
370
     9
100
AcDbLine
 10
-1243.631706158221
 20
-376.5288036755661
 30
0.0
 11
-1243.631706158221
 21
-378.028771508389
 31
0.0
  0
LINE
  5
F6
330
1F
100
AcDbEntity
  8
C-1
  6
Continuous
 62
     7
370
     9
100
AcDbLine
 10
-1216.131739150197
 20
-376.5288036755661
 30
0.0
 11
-1216.131739150197
 21
-378.028771508389
 31
0.0
  0
LINE
  5
F7
330
1F
100
AcDbEntity
  8
C-E
  6
Continuous
 62
     6
370
     5
100
AcDbLine
 10
-1106.131772142172
 20
-175.6013710417094
 30
0.0
 11
-1222.131758945382
 21
-291.6013578449193
 31
0.0
  0
LINE
  5
F8
330
1F
100
AcDbEntity
  8
C-E
  6
Continuous
 62
     6
370
     5
100
AcDbLine
 10
-1106.131772142172
 20
-189.7435066654404
 30
0.0
 11
-1222.131758945382
 21
-305.7434934686498
 31
0.0
  0
LINE
  5
F9
330
1F
100
AcDbEntity
  8
C-E
  6
Continuous
 62
     6
370
     5
100
AcDbLine
 10
-1106.131772142172
 20
-203.8856422891715
 30
0.0
 11
-1222.131758945382
 21
-319.8856290923815
 31
0.0
  0
LINE
  5
FA
330
1F
100
AcDbEntity
  8
C-E
  6
Continuous
 62
     6
370
     5
100
AcDbLine
 10
-1290.131785338963
 20
-189.0044939035718
 30
0.0
 11
-1406.131772142173
 21
-305.0044807067812
 31
0.0
  0
LINE
  5
FB
330
1F
100
AcDbEntity
  8
C-E
  6
Continuous
 62
     6
370
     5
100
AcDbLine
 10
-1290.131785338963
 20
-174.8623582798408
 30
0.0
 11
-1406.131772142173
 21
-290.8623450830502
 31
0.0
  0
LINE
  5
FC
330
1F
100
AcDbEntity
  8
C-E
  6
Continuous
 62
     6
370
     5
100
AcDbLine
 10
-1290.131785338963
 20
-160.7202226561097
 30
0.0
 11
-1406.131772142173
 21
-276.7202094593191
 31
0.0
  0
LINE
  5
FD
330
1F
100
AcDbEntity
  8
C-3
  6
JWW_DASHED2
 62
     3
370
     9
100
AcDbLine
 10
-1286.381884314892
 20
-126.5287830555806
 30
0.0
 11
-1286.381884314892
 21
-376.5288036755661
 31
0.0
  0
LINE
  5
FE
330
1F
100
AcDbEntity
  8
C-0
  6
Continuous
 62
     4
370
     9
100
AcDbLine
 10
-1290.131785338963
 20
-128.028788004377
 30
0.0
 11
-1290.131785338963
 21
-376.5288036755661
 31
0.0
  0
LINE
  5
FF
330
1F
100
AcDbEntity
  8
C-0
  6
JWW_DASHED2
 62
     4
370
     9
100
AcDbLine
 10
-1223.631838124555
 20
-128.028788004377
 30
0.0
 11
-1223.631838124555
 21
-376.5288036755661
 31
0.0
  0
LINE
  5
100
330
1F
100
AcDbEntity
  8
C-3
  6
JWW_DASHED2
 62
     3
370
     9
100
AcDbLine
 10
-1225.881659969453
 20
-126.5287830555806
 30
0.0
 11
-1225.881659969453
 21
-376.5288036755661
 31
0.0
  0
LINE
  5
101
330
1F
100
AcDbEntity
  8
C-1
  6
Continuous
 62
     7
370
     9
100
AcDbLine
 10
-1216.131739150197
 20
-376.5288036755661
 30
0.0
 11
-1296.13180513415
 21
-376.5288036755661
 31
0.0
  0
LINE
  5
102
330
1F
100
AcDbEntity
  8
C-0
  6
Continuous
 62
     4
370
     9
100
AcDbLine
 10
-1222.131758945382
 20
-128.028788004377
 30
0.0
 11
-1222.131758945382
 21
-376.5288036755661
 31
0.0
  0
LINE
  5
103
330
1F
100
AcDbEntity
  8
C-0
  6
JWW_DASHED2
 62
     4
370
     9
100
AcDbLine
 10
-1288.631706159792
 20
-128.028788004377
 30
0.0
 11
-1288.631706159792
 21
-376.5288036755661
 31
0.0
  0
LINE
  5
104
330
1F
100
AcDbEntity
  8
C-0
  6
Continuous
 62
     4
370
     9
100
AcDbLine
 10
-1218.631722654208
 20
-128.028788004377
 30
0.0
 11
-1222.131758945382
 21
-128.028788004377
 31
0.0
  0
LINE
  5
105
330
1F
100
AcDbEntity
  8
C-0
  6
Continuous
 62
     4
370
     9
100
AcDbLine
 10
-1293.631821630137
 20
-128.028788004377
 30
0.0
 11
-1290.131785338963
 21
-128.028788004377
 31
0.0
  0
ARC
  5
106
330
1F
100
AcDbEntity
  8
C-0
  6
JWW_DASHED2
 62
     4
370
     9
100
AcDbCircle
 10
-1290.131785340534
 20
-128.028788004377
 30
0.0
 40
1.499999874346965
100
AcDbArc
 50
0.0000000000000127
 51
90.00000000000001
  0
LINE
  5
107
330
1F
100
AcDbEntity
  8
C-0
  6
Continuous
 62
     4
370
     9
100
AcDbLine
 10
-1293.631821630137
 20
-126.5287830555806
 30
0.0
 11
-1293.631821630137
 21
-128.028788004377
 31
0.0
  0
LINE
  5
108
330
1F
100
AcDbEntity
  8
C-0
  6
Continuous
 62
     4
370
     9
100
AcDbLine
 10
-1293.631673166244
 20
-126.5287830555806
 30
0.0
 11
-1293.631673166244
 21
-128.028788004377
 31
0.0
  0
ARC
  5
109
330
1F
100
AcDbEntity
  8
C-0
  6
JWW_DASHED2
 62
     4
370
     9
100
AcDbCircle
 10
-1222.131758943811
 20
-128.028788004377
 30
0.0
 40
1.499999874346965
100
AcDbArc
 50
90.0
 51
180.0
  0
LINE
  5
10A
330
1F
100
AcDbEntity
  8
C-0
  6
Continuous
 62
     4
370
     9
100
AcDbLine
 10
-1218.631722654208
 20
-126.5287830555806
 30
0.0
 11
-1218.631722654208
 21
-128.028788004377
 31
0.0
  0
LINE
  5
10B
330
1F
100
AcDbEntity
  8
C-0
  6
Continuous
 62
     4
370
     9
100
AcDbLine
 10
-1293.631821630137
 20
-126.5287830555806
 30
0.0
 11
-1218.631722654208
 21
-126.5287830555806
 31
0.0
  0
LINE
  5
10C
330
1F
100
AcDbEntity
  8
C-E
  6
Continuous
 62
     6
370
     5
100
AcDbLine
 10
-1490.349114497304
 20
-126.5287715083886
 30
0.0
 11
-1293.631821630137
 21
-126.5287715083886
 31
0.0
  0
LINE
  5
10D
330
1F
100
AcDbEntity
  8
C-E
  6
Continuous
 62
     6
370
     5
100
AcDbLine
 10
-766.6310357913642
 20
-378.0269579500819
 30
0.0
 11
-766.6310357913642
 21
-126.5269579500816
 31
0.0
  0
LINE
  5
10E
330
1F
100
AcDbEntity
  8
C-E
  6
Continuous
 62
     6
370
     5
100
AcDbLine
 10
-466.6310357913639
 20
-378.0269579500819
 30
0.0
 11
-466.6310357913639
 21
-126.5269579500816
 31
0.0
  0
LINE
  5
10F
330
1F
100
AcDbEntity
  8
C-E
  6
Continuous
 62
     6
370
     5
100
AcDbLine
 10
-416.6310357913639
 20
-478.0269579500819
 30
0.0
 11
-416.6310357913639
 21
-378.0269579500819
 31
0.0
  0
LINE
  5
110
330
1F
100
AcDbEntity
  8
C-E
  6
Continuous
 62
     6
370
     5
100
AcDbLine
 10
-816.6310357913642
 20
-378.0269579500819
 30
0.0
 11
-416.6310357913639
 21
-378.0269579500819
 31
0.0
  0
LINE
  5
111
330
1F
100
AcDbEntity
  8
C-E
  6
Continuous
 62
     6
370
     5
100
AcDbLine
 10
-816.6310357913642
 20
-478.0269579500819
 30
0.0
 11
-816.6310357913642
 21
-378.0269579500819
 31
0.0
  0
LINE
  5
112
330
1F
100
AcDbEntity
  8
C-E
  6
Continuous
 62
     6
370
     5
100
AcDbLine
 10
-816.6310357913642
 20
-478.0269579500819
 30
0.0
 11
-416.6310357913639
 21
-478.0269579500819
 31
0.0
  0
LINE
  5
113
330
1F
100
AcDbEntity
  8
C-E
  6
Continuous
 62
     6
370
     5
100
AcDbLine
 10
-616.6310357913642
 20
-378.0269579500819
 30
0.0
 11
-643.4259550344768
 21
-478.0269579500819
 31
0.0
  0
LINE
  5
114
330
1F
100
AcDbEntity
  8
C-E
  6
Continuous
 62
     6
370
     5
100
AcDbLine
 10
-630.3765862209366
 20
-478.0269579500819
 30
0.0
 11
-636.9012706277067
 21
-453.676504240664
 31
0.0
  0
LINE
  5
115
330
1F
100
AcDbEntity
  8
C-E
  6
Continuous
 62
     6
370
     5
100
AcDbLine
 10
-629.6804046049044
 20
-378.0269579500819
 30
0.0
 11
-623.1557201981343
 21
-402.3774116594998
 31
0.0
  0
LINE
  5
116
330
1F
100
AcDbEntity
  8
C-E
  6
Continuous
 62
     6
370
     5
100
AcDbLine
 10
-666.6310357913642
 20
-378.0269579500819
 30
0.0
 11
-693.4259550344768
 21
-478.0269579500819
 31
0.0
  0
LINE
  5
117
330
1F
100
AcDbEntity
  8
C-E
  6
Continuous
 62
     6
370
     5
100
AcDbLine
 10
-680.3765862209366
 20
-478.0269579500819
 30
0.0
 11
-686.9012706277067
 21
-453.676504240664
 31
0.0
  0
LINE
  5
118
330
1F
100
AcDbEntity
  8
C-E
  6
Continuous
 62
     6
370
     5
100
AcDbLine
 10
-679.6804046049044
 20
-378.0269579500819
 30
0.0
 11
-673.1557201981343
 21
-402.3774116594998
 31
0.0
  0
LINE
  5
119
330
1F
100
AcDbEntity
  8
C-E
  6
Continuous
 62
     6
370
     5
100
AcDbLine
 10
-716.6310357913642
 20
-378.0269579500819
 30
0.0
 11
-743.4259550344768
 21
-478.0269579500819
 31
0.0
  0
LINE
  5
11A
330
1F
100
AcDbEntity
  8
C-E
  6
Continuous
 62
     6
370
     5
100
AcDbLine
 10
-730.3765862209366
 20
-478.0269579500819
 30
0.0
 11
-736.9012706277067
 21
-453.676504240664
 31
0.0
  0
LINE
  5
11B
330
1F
100
AcDbEntity
  8
C-E
  6
Continuous
 62
     6
370
     5
100
AcDbLine
 10
-729.6804046049044
 20
-378.0269579500819
 30
0.0
 11
-723.1557201981343
 21
-402.3774116594998
 31
0.0
  0
LINE
  5
11C
330
1F
100
AcDbEntity
  8
C-E
  6
Continuous
 62
     6
370
     5
100
AcDbLine
 10
-766.6310357913642
 20
-378.0269579500819
 30
0.0
 11
-793.4259550344768
 21
-478.0269579500819
 31
0.0
  0
LINE
  5
11D
330
1F
100
AcDbEntity
  8
C-E
  6
Continuous
 62
     6
370
     5
100
AcDbLine
 10
-780.3765862209366
 20
-478.0269579500819
 30
0.0
 11
-786.9012706277067
 21
-453.676504240664
 31
0.0
  0
LINE
  5
11E
330
1F
100
AcDbEntity
  8
C-E
  6
Continuous
 62
     6
370
     5
100
AcDbLine
 10
-779.6804046049044
 20
-378.0269579500819
 30
0.0
 11
-773.1557201981343
 21
-402.3774116594998
 31
0.0
  0
LINE
  5
11F
330
1F
100
AcDbEntity
  8
C-E
  6
Continuous
 62
     6
370
     5
100
AcDbLine
 10
-566.6310357913642
 20
-378.0269579500819
 30
0.0
 11
-593.4259550344768
 21
-478.0269579500819
 31
0.0
  0
LINE
  5
120
330
1F
100
AcDbEntity
  8
C-E
  6
Continuous
 62
     6
370
     5
100
AcDbLine
 10
-580.3765862209366
 20
-478.0269579500819
 30
0.0
 11
-586.9012706277067
 21
-453.676504240664
 31
0.0
  0
LINE
  5
121
330
1F
100
AcDbEntity
  8
C-E
  6
Continuous
 62
     6
370
     5
100
AcDbLine
 10
-579.6804046049044
 20
-378.0269579500819
 30
0.0
 11
-573.1557201981343
 21
-402.3774116594998
 31
0.0
  0
LINE
  5
122
330
1F
100
AcDbEntity
  8
C-E
  6
Continuous
 62
     6
370
     5
100
AcDbLine
 10
-516.631035791364
 20
-378.0269579500819
 30
0.0
 11
-543.4259550344766
 21
-478.0269579500819
 31
0.0
  0
LINE
  5
123
330
1F
100
AcDbEntity
  8
C-E
  6
Continuous
 62
     6
370
     5
100
AcDbLine
 10
-530.3765862209364
 20
-478.0269579500819
 30
0.0
 11
-536.9012706277065
 21
-453.676504240664
 31
0.0
  0
LINE
  5
124
330
1F
100
AcDbEntity
  8
C-E
  6
Continuous
 62
     6
370
     5
100
AcDbLine
 10
-529.6804046049042
 20
-378.0269579500819
 30
0.0
 11
-523.1557201981341
 21
-402.3774116594998
 31
0.0
  0
LINE
  5
125
330
1F
100
AcDbEntity
  8
C-E
  6
Continuous
 62
     6
370
     5
100
AcDbLine
 10
-466.6310357913639
 20
-378.0269579500819
 30
0.0
 11
-493.4259550344765
 21
-478.0269579500819
 31
0.0
  0
LINE
  5
126
330
1F
100
AcDbEntity
  8
C-E
  6
Continuous
 62
     6
370
     5
100
AcDbLine
 10
-480.3765862209363
 20
-478.0269579500819
 30
0.0
 11
-486.9012706277064
 21
-453.676504240664
 31
0.0
  0
LINE
  5
127
330
1F
100
AcDbEntity
  8
C-E
  6
Continuous
 62
     6
370
     5
100
AcDbLine
 10
-479.6804046049041
 20
-378.0269579500819
 30
0.0
 11
-473.155720198134
 21
-402.3774116594998
 31
0.0
  0
LINE
  5
128
330
1F
100
AcDbEntity
  8
C-E
  6
Continuous
 62
     6
370
     5
100
AcDbLine
 10
-416.6310357913639
 20
-378.0269579500819
 30
0.0
 11
-443.4259550344765
 21
-478.0269579500819
 31
0.0
  0
LINE
  5
129
330
1F
100
AcDbEntity
  8
C-E
  6
Continuous
 62
     6
370
     5
100
AcDbLine
 10
-430.3765862209363
 20
-478.0269579500819
 30
0.0
 11
-436.9012706277064
 21
-453.676504240664
 31
0.0
  0
LINE
  5
12A
330
1F
100
AcDbEntity
  8
C-E
  6
Continuous
 62
     6
370
     5
100
AcDbLine
 10
-429.6804046049041
 20
-378.0269579500819
 30
0.0
 11
-423.155720198134
 21
-402.3774116594998
 31
0.0
  0
LINE
  5
12B
330
1F
100
AcDbEntity
  8
C-1
  6
Continuous
 62
     7
370
     9
100
AcDbLine
 10
-656.6310687833413
 20
-376.526990117259
 30
0.0
 11
-656.6310687833413
 21
-378.0269579500819
 31
0.0
  0
LINE
  5
12C
330
1F
100
AcDbEntity
  8
C-1
  6
Continuous
 62
     7
370
     9
100
AcDbLine
 10
-629.1311017753173
 20
-376.526990117259
 30
0.0
 11
-629.1311017753173
 21
-378.0269579500819
 31
0.0
  0
LINE
  5
12D
330
1F
100
AcDbEntity
  8
C-1
  6
Continuous
 62
     7
370
     9
100
AcDbLine
 10
-604.1309698074122
 20
-376.526990117259
 30
0.0
 11
-604.1309698074122
 21
-378.0269579500819
 31
0.0
  0
LINE
  5
12E
330
1F
100
AcDbEntity
  8
C-1
  6
Continuous
 62
     7
370
     9
100
AcDbLine
 10
-576.6310027993882
 20
-376.526990117259
 30
0.0
 11
-576.6310027993882
 21
-378.0269579500819
 31
0.0
  0
LINE
  5
12F
330
1F
100
AcDbEntity
  8
C-E
  6
Continuous
 62
     6
370
     5
100
AcDbLine
 10
-466.6310357913639
 20
-175.5995574834023
 30
0.0
 11
-582.6310225945736
 21
-291.5995442866123
 31
0.0
  0
LINE
  5
130
330
1F
100
AcDbEntity
  8
C-E
  6
Continuous
 62
     6
370
     5
100
AcDbLine
 10
-466.6310357913639
 20
-189.7416931071334
 30
0.0
 11
-582.6310225945736
 21
-305.7416799103428
 31
0.0
  0
LINE
  5
131
330
1F
100
AcDbEntity
  8
C-E
  6
Continuous
 62
     6
370
     5
100
AcDbLine
 10
-466.6310357913639
 20
-203.8838287308645
 30
0.0
 11
-582.6310225945736
 21
-319.8838155340744
 31
0.0
  0
LINE
  5
132
330
1F
100
AcDbEntity
  8
C-E
  6
Continuous
 62
     6
370
     5
100
AcDbLine
 10
-650.6310489881548
 20
-189.0026803452648
 30
0.0
 11
-766.6310357913642
 21
-305.0026671484742
 31
0.0
  0
LINE
  5
133
330
1F
100
AcDbEntity
  8
C-E
  6
Continuous
 62
     6
370
     5
100
AcDbLine
 10
-650.6310489881548
 20
-174.8605447215337
 30
0.0
 11
-766.6310357913642
 21
-290.8605315247431
 31
0.0
  0
LINE
  5
134
330
1F
100
AcDbEntity
  8
C-E
  6
Continuous
 62
     6
370
     5
100
AcDbLine
 10
-650.6310489881548
 20
-160.7184090978027
 30
0.0
 11
-766.6310357913642
 21
-276.7183959010121
 31
0.0
  0
LINE
  5
135
330
1F
100
AcDbEntity
  8
C-3
  6
JWW_DASHED2
 62
     3
370
     9
100
AcDbLine
 10
-646.881147964084
 20
-126.5269694972736
 30
0.0
 11
-646.881147964084
 21
-376.526990117259
 31
0.0
  0
LINE
  5
136
330
1F
100
AcDbEntity
  8
C-0
  6
Continuous
 62
     4
370
     9
100
AcDbLine
 10
-650.6310489881548
 20
-128.0269744460699
 30
0.0
 11
-650.6310489881548
 21
-376.526990117259
 31
0.0
  0
LINE
  5
137
330
1F
100
AcDbEntity
  8
C-0
  6
JWW_DASHED2
 62
     4
370
     9
100
AcDbLine
 10
-584.1311017737462
 20
-128.0269744460699
 30
0.0
 11
-584.1311017737462
 21
-376.526990117259
 31
0.0
  0
LINE
  5
138
330
1F
100
AcDbEntity
  8
C-3
  6
JWW_DASHED2
 62
     3
370
     9
100
AcDbLine
 10
-586.3809236186444
 20
-126.5269694972736
 30
0.0
 11
-586.3809236186444
 21
-376.526990117259
 31
0.0
  0
LINE
  5
139
330
1F
100
AcDbEntity
  8
C-1
  6
Continuous
 62
     7
370
     9
100
AcDbLine
 10
-576.6310027993882
 20
-376.526990117259
 30
0.0
 11
-656.6310687833413
 21
-376.526990117259
 31
0.0
  0
LINE
  5
13A
330
1F
100
AcDbEntity
  8
C-0
  6
Continuous
 62
     4
370
     9
100
AcDbLine
 10
-582.6310225945736
 20
-128.0269744460699
 30
0.0
 11
-582.6310225945736
 21
-376.526990117259
 31
0.0
  0
LINE
  5
13B
330
1F
100
AcDbEntity
  8
C-0
  6
JWW_DASHED2
 62
     4
370
     9
100
AcDbLine
 10
-649.1309698089833
 20
-128.0269744460699
 30
0.0
 11
-649.1309698089833
 21
-376.526990117259
 31
0.0
  0
LINE
  5
13C
330
1F
100
AcDbEntity
  8
C-0
  6
Continuous
 62
     4
370
     9
100
AcDbLine
 10
-579.1309863033996
 20
-128.0269744460699
 30
0.0
 11
-582.6310225945736
 21
-128.0269744460699
 31
0.0
  0
LINE
  5
13D
330
1F
100
AcDbEntity
  8
C-0
  6
Continuous
 62
     4
370
     9
100
AcDbLine
 10
-654.1310852793288
 20
-128.0269744460699
 30
0.0
 11
-650.6310489881548
 21
-128.0269744460699
 31
0.0
  0
ARC
  5
13E
330
1F
100
AcDbEntity
  8
C-0
  6
JWW_DASHED2
 62
     4
370
     9
100
AcDbCircle
 10
-650.631048989726
 20
-128.0269744460699
 30
0.0
 40
1.499999874346965
100
AcDbArc
 50
0.0000000000000127
 51
90.00000000000001
  0
LINE
  5
13F
330
1F
100
AcDbEntity
  8
C-0
  6
Continuous
 62
     4
370
     9
100
AcDbLine
 10
-654.1310852793288
 20
-126.5269694972736
 30
0.0
 11
-654.1310852793288
 21
-128.0269744460699
 31
0.0
  0
LINE
  5
140
330
1F
100
AcDbEntity
  8
C-0
  6
Continuous
 62
     4
370
     9
100
AcDbLine
 10
-654.130936815435
 20
-126.5269694972736
 30
0.0
 11
-654.130936815435
 21
-128.0269744460699
 31
0.0
  0
ARC
  5
141
330
1F
100
AcDbEntity
  8
C-0
  6
JWW_DASHED2
 62
     4
370
     9
100
AcDbCircle
 10
-582.6310225930024
 20
-128.0269744460699
 30
0.0
 40
1.499999874346965
100
AcDbArc
 50
90.0
 51
180.0
  0
LINE
  5
142
330
1F
100
AcDbEntity
  8
C-0
  6
Continuous
 62
     4
370
     9
100
AcDbLine
 10
-579.1309863033996
 20
-126.5269694972736
 30
0.0
 11
-579.1309863033996
 21
-128.0269744460699
 31
0.0
  0
LINE
  5
143
330
1F
100
AcDbEntity
  8
C-E
  6
Continuous
 62
     6
370
     5
100
AcDbLine
 10
-579.1309863033996
 20
-126.5269579500816
 30
0.0
 11
-383.2313568698984
 21
-126.5269579500816
 31
0.0
  0
LINE
  5
144
330
1F
100
AcDbEntity
  8
C-0
  6
Continuous
 62
     4
370
     9
100
AcDbLine
 10
-654.1310852793288
 20
-126.5269694972736
 30
0.0
 11
-579.1309863033996
 21
-126.5269694972736
 31
0.0
  0
LINE
  5
145
330
1F
100
AcDbEntity
  8
C-4
  6
Continuous
 62
     7
370
     9
100
AcDbLine
 10
-1572.359210297695
 20
523.4720534568953
 30
0.0
 11
-1572.359210297695
 21
-126.5261077880859
 31
0.0
  0
LINE
  5
146
330
1F
100
AcDbEntity
  8
C-4
  6
Continuous
 62
     7
370
     9
100
AcDbLine
 10
-1572.359210297695
 20
523.4720534568953
 30
0.0
 11
-1569.096055492193
 21
498.68593192255
 31
0.0
  0
LINE
  5
147
330
1F
100
AcDbEntity
  8
C-4
  6
Continuous
 62
     7
370
     9
100
AcDbLine
 10
-1572.359210297695
 20
523.4720534568953
 30
0.0
 11
-1575.622365103196
 21
498.68593192255
 31
0.0
  0
LINE
  5
148
330
1F
100
AcDbEntity
  8
C-4
  6
Continuous
 62
     7
370
     9
100
AcDbLine
 10
-1572.359210297695
 20
-126.5261077880859
 30
0.0
 11
-1569.096055492193
 21
-101.7399862537407
 31
0.0
  0
LINE
  5
149
330
1F
100
AcDbEntity
  8
C-4
  6
Continuous
 62
     7
370
     9
100
AcDbLine
 10
-1572.359210297695
 20
-126.5261077880859
 30
0.0
 11
-1575.622365103196
 21
-101.7399862537407
 31
0.0
  0
TEXT
  5
14A
330
1F
100
AcDbEntity
  8
C-4
  6
Continuous
 62
     2
370
   211
100
AcDbText
 10
-1582.999210297695
 20
165.9729728344047
 30
0.0
 40
30.48
  1
650
 50
90.0
 41
1.083333333333333
  7
ＭＳ ゴシック
100
AcDbText
  0
LINE
  5
14B
330
1F
100
AcDbEntity
  8
C-4
  6
Continuous
 62
     7
370
     9
100
AcDbLine
 10
-1572.359210297695
 20
-126.5261077880859
 30
0.0
 11
-1572.359210297695
 21
-378.028771508389
 31
0.0
  0
LINE
  5
14C
330
1F
100
AcDbEntity
  8
C-4
  6
Continuous
 62
     7
370
     9
100
AcDbLine
 10
-1572.359210297695
 20
-126.5261077880859
 30
0.0
 11
-1569.096055492193
 21
-151.3122293224312
 31
0.0
  0
LINE
  5
14D
330
1F
100
AcDbEntity
  8
C-4
  6
Continuous
 62
     7
370
     9
100
AcDbLine
 10
-1572.359210297695
 20
-126.5261077880859
 30
0.0
 11
-1575.622365103196
 21
-151.3122293224312
 31
0.0
  0
LINE
  5
14E
330
1F
100
AcDbEntity
  8
C-4
  6
Continuous
 62
     7
370
     9
100
AcDbLine
 10
-1572.359210297695
 20
-376.527111432066
 30
0.0
 11
-1569.096055492193
 21
-351.7409898977207
 31
0.0
  0
LINE
  5
14F
330
1F
100
AcDbEntity
  8
C-4
  6
Continuous
 62
     7
370
     9
100
AcDbLine
 10
-1572.359210297695
 20
-376.527111432066
 30
0.0
 11
-1575.622365103196
 21
-351.7409898977207
 31
0.0
  0
TEXT
  5
150
330
1F
100
AcDbEntity
  8
C-4
  6
Continuous
 62
     2
370
   211
100
AcDbText
 10
-1582.999210297695
 20
-284.026609610076
 30
0.0
 40
30.48
  1
250
 50
90.0
 41
1.083333333333333
  7
ＭＳ ゴシック
100
AcDbText
  0
LINE
  5
151
330
1F
100
AcDbEntity
  8
C-4
  6
Continuous
 62
     7
370
     9
100
AcDbLine
 10
-1572.359210297695
 20
-376.527099609375
 30
0.0
 11
-1575.622365103196
 21
-351.7409780750297
 31
0.0
  0
LINE
  5
152
330
1F
100
AcDbEntity
  8
C-4
  6
Continuous
 62
     7
370
     9
100
AcDbLine
 10
-1572.359210297695
 20
-376.527099609375
 30
0.0
 11
-1569.096055492193
 21
-351.7409780750297
 31
0.0
  0
LINE
  5
153
330
1F
100
AcDbEntity
  8
C-4
  6
Continuous
 62
     7
370
     9
100
AcDbLine
 10
-1572.359210297695
 20
-378.028771508389
 30
0.0
 11
-1575.622365103196
 21
-402.8148930427342
 31
0.0
  0
LINE
  5
154
330
1F
100
AcDbEntity
  8
C-4
  6
Continuous
 62
     7
370
     9
100
AcDbLine
 10
-1572.359210297695
 20
-378.028771508389
 30
0.0
 11
-1569.096055492193
 21
-402.8148930427342
 31
0.0
  0
LINE
  5
155
330
1F
100
AcDbEntity
  8
C-4
  6
Continuous
 62
     7
370
     9
100
AcDbLine
 10
-1575.359210297695
 20
-378.028771508389
 30
0.0
 11
-1476.131772142173
 21
-378.028771508389
 31
0.0
  0
TEXT
  5
156
330
1F
100
AcDbEntity
  8
C-4
  6
Continuous
 62
     2
370
   211
100
AcDbText
 10
-1582.999210297695
 20
-448.445205104633
 30
0.0
 40
30.48
  1
1.5
 50
90.0
 41
1.083333333333333
  7
ＭＳ ゴシック
100
AcDbText
  0
LINE
  5
157
330
1F
100
AcDbEntity
  8
C-4
  6
Continuous
 62
     7
370
     9
100
AcDbLine
 10
-1572.359210297695
 20
-378.028771508389
 30
0.0
 11
-1572.359210297695
 21
-452.9759379651532
 31
0.0
  0
LINE
  5
158
330
1F
100
AcDbEntity
  8
C-4
  6
Continuous
 62
     7
370
     9
100
AcDbLine
 10
-1696.001840935837
 20
523.4720534568953
 30
0.0
 11
-1696.001840935837
 21
-376.527111432066
 31
0.0
  0
LINE
  5
159
330
1F
100
AcDbEntity
  8
C-4
  6
Continuous
 62
     7
370
     9
100
AcDbLine
 10
-1696.001840935837
 20
523.4720534568953
 30
0.0
 11
-1692.738686130336
 21
498.68593192255
 31
0.0
  0
LINE
  5
15A
330
1F
100
AcDbEntity
  8
C-4
  6
Continuous
 62
     7
370
     9
100
AcDbLine
 10
-1696.001840935837
 20
523.4720534568953
 30
0.0
 11
-1699.264995741338
 21
498.68593192255
 31
0.0
  0
LINE
  5
15B
330
1F
100
AcDbEntity
  8
C-4
  6
Continuous
 62
     7
370
     9
100
AcDbLine
 10
-1696.001840935837
 20
-376.527111432066
 30
0.0
 11
-1692.738686130336
 21
-351.7409898977207
 31
0.0
  0
LINE
  5
15C
330
1F
100
AcDbEntity
  8
C-4
  6
Continuous
 62
     7
370
     9
100
AcDbLine
 10
-1696.001840935837
 20
-376.527111432066
 30
0.0
 11
-1699.264995741338
 21
-351.7409898977207
 31
0.0
  0
LINE
  5
15D
330
1F
100
AcDbEntity
  8
C-4
  6
Continuous
 62
     7
370
     9
100
AcDbLine
 10
-1699.001840935837
 20
-376.527111432066
 30
0.0
 11
-1476.131017645778
 21
-376.527111432066
 31
0.0
  0
TEXT
  5
15E
330
1F
100
AcDbEntity
  8
C-4
  6
Continuous
 62
     2
370
   211
100
AcDbText
 10
-1706.641840935837
 20
40.97247101241464
 30
0.0
 40
30.48
  1
900
 50
90.0
 41
1.083333333333333
  7
ＭＳ ゴシック
100
AcDbText
  0
LINE
  5
15F
330
1F
100
AcDbEntity
  8
C-4
  6
Continuous
 62
     7
370
     9
100
AcDbLine
 10
-1699.001840935837
 20
523.4720534568953
 30
0.0
 11
-1159.430448044322
 21
523.4720534568953
 31
0.0
  0
LINE
  5
160
330
1F
100
AcDbEntity
  8
C-4
  6
Continuous
 62
     7
370
     9
100
AcDbLine
 10
-943.7336842924044
 20
-478.028771508389
 30
0.0
 11
-943.7336842924044
 21
-378.028771508389
 31
0.0
  0
LINE
  5
161
330
1F
100
AcDbEntity
  8
C-4
  6
Continuous
 62
     7
370
     9
100
AcDbLine
 10
-943.7336842924044
 20
-478.028771508389
 30
0.0
 11
-946.9968390979058
 21
-453.2426499740437
 31
0.0
  0
LINE
  5
162
330
1F
100
AcDbEntity
  8
C-4
  6
Continuous
 62
     7
370
     9
100
AcDbLine
 10
-943.7336842924044
 20
-478.028771508389
 30
0.0
 11
-940.470529486903
 21
-453.2426499740437
 31
0.0
  0
LINE
  5
163
330
1F
100
AcDbEntity
  8
C-4
  6
Continuous
 62
     7
370
     9
100
AcDbLine
 10
-943.7336842924044
 20
-378.028771508389
 30
0.0
 11
-946.9968390979058
 21
-402.8148930427342
 31
0.0
  0
LINE
  5
164
330
1F
100
AcDbEntity
  8
C-4
  6
Continuous
 62
     7
370
     9
100
AcDbLine
 10
-943.7336842924044
 20
-378.028771508389
 30
0.0
 11
-940.470529486903
 21
-402.8148930427342
 31
0.0
  0
LINE
  5
165
330
1F
100
AcDbEntity
  8
C-4
  6
Continuous
 62
     7
370
     9
100
AcDbLine
 10
-940.7336842924044
 20
-478.028771508389
 30
0.0
 11
-1036.131772142172
 21
-478.028771508389
 31
0.0
  0
LINE
  5
166
330
1F
100
AcDbEntity
  8
C-4
  6
Continuous
 62
     7
370
     9
100
AcDbLine
 10
-940.7336842924044
 20
-378.028771508389
 30
0.0
 11
-1036.131772142172
 21
-378.028771508389
 31
0.0
  0
TEXT
  5
167
330
1F
100
AcDbEntity
  8
C-4
  6
Continuous
 62
     2
370
   211
100
AcDbText
 10
-954.3736842924044
 20
-460.528771508389
 30
0.0
 40
30.48
  1
100
 50
90.0
 41
1.083333333333333
  7
ＭＳ ゴシック
100
AcDbText
  0
LINE
  5
168
330
1F
100
AcDbEntity
  8
C-4
  6
Continuous
 62
     7
370
     9
100
AcDbLine
 10
-943.7336842924044
 20
-378.028771508389
 30
0.0
 11
-943.7336842924044
 21
-126.5290597887241
 31
0.0
  0
LINE
  5
169
330
1F
100
AcDbEntity
  8
C-4
  6
Continuous
 62
     7
370
     9
100
AcDbLine
 10
-943.7336842924044
 20
-378.028771508389
 30
0.0
 11
-946.9968390979058
 21
-353.2426499740437
 31
0.0
  0
LINE
  5
16A
330
1F
100
AcDbEntity
  8
C-4
  6
Continuous
 62
     7
370
     9
100
AcDbLine
 10
-943.7336842924044
 20
-378.028771508389
 30
0.0
 11
-940.470529486903
 21
-353.2426499740437
 31
0.0
  0
LINE
  5
16B
330
1F
100
AcDbEntity
  8
C-4
  6
Continuous
 62
     7
370
     9
100
AcDbLine
 10
-943.7336842924044
 20
-126.5290597887241
 30
0.0
 11
-946.9968390979058
 21
-151.3151813230694
 31
0.0
  0
LINE
  5
16C
330
1F
100
AcDbEntity
  8
C-4
  6
Continuous
 62
     7
370
     9
100
AcDbLine
 10
-943.7336842924044
 20
-126.5290597887241
 30
0.0
 11
-940.470529486903
 21
-151.3151813230694
 31
0.0
  0
TEXT
  5
16D
330
1F
100
AcDbEntity
  8
C-4
  6
Continuous
 62
     2
370
   211
100
AcDbText
 10
-954.3736842924044
 20
-307.2789156485566
 30
0.0
 40
30.48
  1
251.5
 50
90.0
 41
1.1
  7
ＭＳ ゴシック
100
AcDbText
  0
TEXT
  5
16E
330
1F
100
AcDbEntity
  8
C-5
  6
Continuous
 62
     7
370
     9
100
AcDbText
 10
-369.9548960607066
 20
-572.367077209866
 30
0.0
 40
22.86000000000032
  1
脱着用埋設管
 41
1.138888888888898
  7
ＭＳ ゴシック
100
AcDbText
  0
TEXT
  5
16F
330
1F
100
AcDbEntity
  8
C-5
  6
Continuous
 62
     7
370
     9
100
AcDbText
 10
-369.9548960607032
 20
-676.702491736724
 30
0.0
 40
22.86000000000006
  1
埋設管本体：SUS
 41
1.155555555555553
  7
ＭＳ ゴシック
100
AcDbText
  0
LINE
  5
170
330
1F
100
AcDbEntity
  8
C-5
  6
Continuous
 62
     7
370
     9
100
AcDbLine
 10
-582.6310225945749
 20
-223.6704620640546
 30
0.0
 11
-373.5194628609383
 21
-588.4584445120583
 31
0.0
  0
LINE
  5
171
330
1F
100
AcDbEntity
  8
C-5
  6
Continuous
 62
     7
370
     9
100
AcDbLine
 10
-582.6310225945749
 20
-223.6704620640546
 30
0.0
 11
-567.4119783249876
 21
-243.5042890150072
 31
0.0
  0
LINE
  5
172
330
1F
100
AcDbEntity
  8
C-5
  6
Continuous
 62
     7
370
     9
100
AcDbLine
 10
-582.6310225945749
 20
-223.6704620640546
 30
0.0
 11
-573.0639268353184
 21
-246.7674462553555
 31
0.0
  0
LINE
  5
173
330
1F
100
AcDbEntity
  8
C-4
  6
Continuous
 62
     7
370
     9
100
AcDbLine
 10
-934.7887040874066
 20
160.4717764897885
 30
0.0
 11
-931.7887436777785
 21
160.4717764897885
 31
0.0
  0
LINE
  5
174
330
1F
100
AcDbEntity
  8
C-4
  6
Continuous
 62
     7
370
     9
100
AcDbLine
 10
-934.7887040874066
 20
126.4718127809624
 30
0.0
 11
-931.7887436777785
 21
126.4718127809624
 31
0.0
  0
LINE
  5
175
330
1F
100
AcDbEntity
  8
C-4
  6
Continuous
 62
     7
370
     9
100
AcDbLine
 10
-934.7887040874066
 20
160.4717764897885
 30
0.0
 11
-938.7043155606962
 21
190.2151566497332
 31
0.0
  0
LINE
  5
176
330
1F
100
AcDbEntity
  8
C-4
  6
Continuous
 62
     7
370
     9
100
AcDbLine
 10
-934.7887040874066
 20
160.4717764897885
 30
0.0
 11
-930.873092614117
 21
190.2151566497332
 31
0.0
  0
LINE
  5
177
330
1F
100
AcDbEntity
  8
C-4
  6
Continuous
 62
     7
370
     9
100
AcDbLine
 10
-934.7887040874066
 20
126.4718127809624
 30
0.0
 11
-938.7043155606962
 21
96.72843262101765
 31
0.0
  0
LINE
  5
178
330
1F
100
AcDbEntity
  8
C-4
  6
Continuous
 62
     7
370
     9
100
AcDbLine
 10
-934.7887040874066
 20
126.4718127809624
 30
0.0
 11
-930.873092614117
 21
96.72843262101765
 31
0.0
  0
LINE
  5
179
330
1F
100
AcDbEntity
  8
C-4
  6
Continuous
 62
     7
370
     9
100
AcDbLine
 10
-934.7887040874066
 20
293.0537450550332
 30
0.0
 11
-934.7887040874066
 21
78.4237005818494
 31
0.0
  0
TEXT
  5
17A
330
1F
100
AcDbEntity
  8
C-4
  6
Continuous
 62
     2
370
     9
100
AcDbText
 10
-945.4287205833953
 20
191.2617239995541
 30
0.0
 40
30.48000000000043
  1
φ34
 50
90.0
 41
1.093749999999984
  7
ＭＳ ゴシック
100
AcDbText
  0
LINE
  5
17B
330
1F
100
AcDbEntity
  8
C-6
  6
Continuous
 62
     6
370
     5
100
AcDbLine
 10
-1293.63182162439
 20
-126.5268687092818
 30
0.0
 11
-1627.374367725505
 21
-126.525860667128
 31
0.0
  0
LINE
  5
17C
330
1F
100
AcDbEntity
  8
C-E
  6
Continuous
 62
     6
370
     5
100
AcDbLine
 10
-1193.381078680934
 20
-126.5287715083886
 30
0.0
 11
-1022.732093220707
 21
-126.5287715083886
 31
0.0
  0
LINE
  5
17D
330
1F
100
AcDbEntity
  8
C-6
  6
Continuous
 62
     6
370
     5
100
AcDbLine
 10
-1193.381073830623
 20
-126.5304793206787
 30
0.0
 11
-679.3810861041278
 21
-126.5273767854914
 31
0.0
  0
LINE
  5
17E
330
1F
100
AcDbEntity
  8
C-E
  6
Continuous
 62
     6
370
     5
100
AcDbLine
 10
-850.8483781464952
 20
-126.5269579500816
 30
0.0
 11
-679.3810861041277
 21
-126.5269579500816
 31
0.0
  0
LINE
  5
17F
330
1F
100
AcDbEntity
  8
C-E
  6
Continuous
 62
     6
370
     5
100
AcDbLine
 10
158.828027894197
 20
-378.025815594541
 30
0.0
 11
158.828027894197
 21
-126.5258155945406
 31
0.0
  0
LINE
  5
180
330
1F
100
AcDbEntity
  8
C-E
  6
Continuous
 62
     6
370
     5
100
AcDbLine
 10
458.8280278941972
 20
-378.025815594541
 30
0.0
 11
458.8280278941972
 21
-126.5258155945406
 31
0.0
  0
LINE
  5
181
330
1F
100
AcDbEntity
  8
C-E
  6
Continuous
 62
     6
370
     5
100
AcDbLine
 10
508.8280278941972
 20
-478.025815594541
 30
0.0
 11
508.8280278941972
 21
-378.025815594541
 31
0.0
  0
LINE
  5
182
330
1F
100
AcDbEntity
  8
C-E
  6
Continuous
 62
     6
370
     5
100
AcDbLine
 10
108.828027894197
 20
-378.025815594541
 30
0.0
 11
508.8280278941972
 21
-378.025815594541
 31
0.0
  0
LINE
  5
183
330
1F
100
AcDbEntity
  8
C-E
  6
Continuous
 62
     6
370
     5
100
AcDbLine
 10
108.828027894197
 20
-478.025815594541
 30
0.0
 11
108.828027894197
 21
-378.025815594541
 31
0.0
  0
LINE
  5
184
330
1F
100
AcDbEntity
  8
C-E
  6
Continuous
 62
     6
370
     5
100
AcDbLine
 10
108.828027894197
 20
-478.025815594541
 30
0.0
 11
508.8280278941972
 21
-478.025815594541
 31
0.0
  0
LINE
  5
185
330
1F
100
AcDbEntity
  8
C-E
  6
Continuous
 62
     6
370
     5
100
AcDbLine
 10
308.828027894197
 20
-378.025815594541
 30
0.0
 11
282.0331086510843
 21
-478.025815594541
 31
0.0
  0
LINE
  5
186
330
1F
100
AcDbEntity
  8
C-E
  6
Continuous
 62
     6
370
     5
100
AcDbLine
 10
295.0824774646246
 20
-478.025815594541
 30
0.0
 11
288.5577930578544
 21
-453.675361885123
 31
0.0
  0
LINE
  5
187
330
1F
100
AcDbEntity
  8
C-E
  6
Continuous
 62
     6
370
     5
100
AcDbLine
 10
295.7786590806567
 20
-378.025815594541
 30
0.0
 11
302.3033434874268
 21
-402.3762693039589
 31
0.0
  0
LINE
  5
188
330
1F
100
AcDbEntity
  8
C-E
  6
Continuous
 62
     6
370
     5
100
AcDbLine
 10
258.828027894197
 20
-378.025815594541
 30
0.0
 11
232.0331086510843
 21
-478.025815594541
 31
0.0
  0
LINE
  5
189
330
1F
100
AcDbEntity
  8
C-E
  6
Continuous
 62
     6
370
     5
100
AcDbLine
 10
245.0824774646246
 20
-478.025815594541
 30
0.0
 11
238.5577930578544
 21
-453.675361885123
 31
0.0
  0
LINE
  5
18A
330
1F
100
AcDbEntity
  8
C-E
  6
Continuous
 62
     6
370
     5
100
AcDbLine
 10
245.7786590806567
 20
-378.025815594541
 30
0.0
 11
252.3033434874268
 21
-402.3762693039589
 31
0.0
  0
LINE
  5
18B
330
1F
100
AcDbEntity
  8
C-E
  6
Continuous
 62
     6
370
     5
100
AcDbLine
 10
208.828027894197
 20
-378.025815594541
 30
0.0
 11
182.0331086510843
 21
-478.025815594541
 31
0.0
  0
LINE
  5
18C
330
1F
100
AcDbEntity
  8
C-E
  6
Continuous
 62
     6
370
     5
100
AcDbLine
 10
195.0824774646246
 20
-478.025815594541
 30
0.0
 11
188.5577930578544
 21
-453.675361885123
 31
0.0
  0
LINE
  5
18D
330
1F
100
AcDbEntity
  8
C-E
  6
Continuous
 62
     6
370
     5
100
AcDbLine
 10
195.7786590806567
 20
-378.025815594541
 30
0.0
 11
202.3033434874268
 21
-402.3762693039589
 31
0.0
  0
LINE
  5
18E
330
1F
100
AcDbEntity
  8
C-E
  6
Continuous
 62
     6
370
     5
100
AcDbLine
 10
158.828027894197
 20
-378.025815594541
 30
0.0
 11
132.0331086510843
 21
-478.025815594541
 31
0.0
  0
LINE
  5
18F
330
1F
100
AcDbEntity
  8
C-E
  6
Continuous
 62
     6
370
     5
100
AcDbLine
 10
145.0824774646246
 20
-478.025815594541
 30
0.0
 11
138.5577930578544
 21
-453.675361885123
 31
0.0
  0
LINE
  5
190
330
1F
100
AcDbEntity
  8
C-E
  6
Continuous
 62
     6
370
     5
100
AcDbLine
 10
145.7786590806567
 20
-378.025815594541
 30
0.0
 11
152.3033434874268
 21
-402.3762693039589
 31
0.0
  0
LINE
  5
191
330
1F
100
AcDbEntity
  8
C-E
  6
Continuous
 62
     6
370
     5
100
AcDbLine
 10
358.828027894197
 20
-378.025815594541
 30
0.0
 11
332.0331086510844
 21
-478.025815594541
 31
0.0
  0
LINE
  5
192
330
1F
100
AcDbEntity
  8
C-E
  6
Continuous
 62
     6
370
     5
100
AcDbLine
 10
345.0824774646246
 20
-478.025815594541
 30
0.0
 11
338.5577930578545
 21
-453.675361885123
 31
0.0
  0
LINE
  5
193
330
1F
100
AcDbEntity
  8
C-E
  6
Continuous
 62
     6
370
     5
100
AcDbLine
 10
345.7786590806568
 20
-378.025815594541
 30
0.0
 11
352.3033434874269
 21
-402.3762693039589
 31
0.0
  0
LINE
  5
194
330
1F
100
AcDbEntity
  8
C-E
  6
Continuous
 62
     6
370
     5
100
AcDbLine
 10
408.8280278941972
 20
-378.025815594541
 30
0.0
 11
382.0331086510846
 21
-478.025815594541
 31
0.0
  0
LINE
  5
195
330
1F
100
AcDbEntity
  8
C-E
  6
Continuous
 62
     6
370
     5
100
AcDbLine
 10
395.0824774646248
 20
-478.025815594541
 30
0.0
 11
388.5577930578547
 21
-453.675361885123
 31
0.0
  0
LINE
  5
196
330
1F
100
AcDbEntity
  8
C-E
  6
Continuous
 62
     6
370
     5
100
AcDbLine
 10
395.778659080657
 20
-378.025815594541
 30
0.0
 11
402.3033434874271
 21
-402.3762693039589
 31
0.0
  0
LINE
  5
197
330
1F
100
AcDbEntity
  8
C-E
  6
Continuous
 62
     6
370
     5
100
AcDbLine
 10
458.8280278941972
 20
-378.025815594541
 30
0.0
 11
432.0331086510846
 21
-478.025815594541
 31
0.0
  0
LINE
  5
198
330
1F
100
AcDbEntity
  8
C-E
  6
Continuous
 62
     6
370
     5
100
AcDbLine
 10
445.0824774646248
 20
-478.025815594541
 30
0.0
 11
438.5577930578547
 21
-453.675361885123
 31
0.0
  0
LINE
  5
199
330
1F
100
AcDbEntity
  8
C-E
  6
Continuous
 62
     6
370
     5
100
AcDbLine
 10
445.778659080657
 20
-378.025815594541
 30
0.0
 11
452.3033434874271
 21
-402.3762693039589
 31
0.0
  0
LINE
  5
19A
330
1F
100
AcDbEntity
  8
C-E
  6
Continuous
 62
     6
370
     5
100
AcDbLine
 10
508.8280278941972
 20
-378.025815594541
 30
0.0
 11
482.0331086510846
 21
-478.025815594541
 31
0.0
  0
LINE
  5
19B
330
1F
100
AcDbEntity
  8
C-E
  6
Continuous
 62
     6
370
     5
100
AcDbLine
 10
495.0824774646248
 20
-478.025815594541
 30
0.0
 11
488.5577930578547
 21
-453.675361885123
 31
0.0
  0
LINE
  5
19C
330
1F
100
AcDbEntity
  8
C-E
  6
Continuous
 62
     6
370
     5
100
AcDbLine
 10
495.778659080657
 20
-378.025815594541
 30
0.0
 11
502.3033434874271
 21
-402.3762693039589
 31
0.0
  0
LINE
  5
19D
330
1F
100
AcDbEntity
  8
C-1
  6
Continuous
 62
     7
370
     9
100
AcDbLine
 10
268.8279949022198
 20
-376.5258477617181
 30
0.0
 11
268.8279949022198
 21
-378.025815594541
 31
0.0
  0
LINE
  5
19E
330
1F
100
AcDbEntity
  8
C-1
  6
Continuous
 62
     7
370
     9
100
AcDbLine
 10
296.3279619102438
 20
-376.5258477617181
 30
0.0
 11
296.3279619102438
 21
-378.025815594541
 31
0.0
  0
LINE
  5
19F
330
1F
100
AcDbEntity
  8
C-1
  6
Continuous
 62
     7
370
     9
100
AcDbLine
 10
321.328093878149
 20
-376.5258477617181
 30
0.0
 11
321.328093878149
 21
-378.025815594541
 31
0.0
  0
LINE
  5
1A0
330
1F
100
AcDbEntity
  8
C-1
  6
Continuous
 62
     7
370
     9
100
AcDbLine
 10
348.828060886173
 20
-376.5258477617181
 30
0.0
 11
348.828060886173
 21
-378.025815594541
 31
0.0
  0
LINE
  5
1A1
330
1F
100
AcDbEntity
  8
C-E
  6
Continuous
 62
     6
370
     5
100
AcDbLine
 10
458.8280278941972
 20
-175.5984151278614
 30
0.0
 11
342.8280410909877
 21
-291.5984019310713
 31
0.0
  0
LINE
  5
1A2
330
1F
100
AcDbEntity
  8
C-E
  6
Continuous
 62
     6
370
     5
100
AcDbLine
 10
458.8280278941972
 20
-189.7405507515924
 30
0.0
 11
342.8280410909877
 21
-305.7405375548018
 31
0.0
  0
LINE
  5
1A3
330
1F
100
AcDbEntity
  8
C-E
  6
Continuous
 62
     6
370
     5
100
AcDbLine
 10
458.8280278941972
 20
-203.8826863753235
 30
0.0
 11
342.8280410909877
 21
-319.8826731785334
 31
0.0
  0
LINE
  5
1A4
330
1F
100
AcDbEntity
  8
C-E
  6
Continuous
 62
     6
370
     5
100
AcDbLine
 10
274.8280146974063
 20
-189.0015379897238
 30
0.0
 11
158.828027894197
 21
-305.0015247929332
 31
0.0
  0
LINE
  5
1A5
330
1F
100
AcDbEntity
  8
C-E
  6
Continuous
 62
     6
370
     5
100
AcDbLine
 10
274.8280146974063
 20
-174.8594023659928
 30
0.0
 11
158.828027894197
 21
-290.8593891692021
 31
0.0
  0
LINE
  5
1A6
330
1F
100
AcDbEntity
  8
C-E
  6
Continuous
 62
     6
370
     5
100
AcDbLine
 10
274.8280146974063
 20
-160.7172667422617
 30
0.0
 11
158.828027894197
 21
-276.7172535454711
 31
0.0
  0
LINE
  5
1A7
330
1F
100
AcDbEntity
  8
C-3
  6
JWW_DASHED2
 62
     3
370
     9
100
AcDbLine
 10
278.5779157214772
 20
-126.5258271417326
 30
0.0
 11
278.5779157214772
 21
-376.5258477617181
 31
0.0
  0
LINE
  5
1A8
330
1F
100
AcDbEntity
  8
C-0
  6
Continuous
 62
     4
370
     9
100
AcDbLine
 10
274.8280146974063
 20
-128.025832090529
 30
0.0
 11
274.8280146974063
 21
-376.5258477617181
 31
0.0
  0
LINE
  5
1A9
330
1F
100
AcDbEntity
  8
C-0
  6
JWW_DASHED2
 62
     4
370
     9
100
AcDbLine
 10
341.327961911815
 20
-128.025832090529
 30
0.0
 11
341.327961911815
 21
-376.5258477617181
 31
0.0
  0
LINE
  5
1AA
330
1F
100
AcDbEntity
  8
C-3
  6
JWW_DASHED2
 62
     3
370
     9
100
AcDbLine
 10
339.0781400669168
 20
-126.5258271417326
 30
0.0
 11
339.0781400669168
 21
-376.5258477617181
 31
0.0
  0
LINE
  5
1AB
330
1F
100
AcDbEntity
  8
C-1
  6
Continuous
 62
     7
370
     9
100
AcDbLine
 10
348.828060886173
 20
-376.5258477617181
 30
0.0
 11
268.8279949022198
 21
-376.5258477617181
 31
0.0
  0
LINE
  5
1AC
330
1F
100
AcDbEntity
  8
C-0
  6
Continuous
 62
     4
370
     9
100
AcDbLine
 10
342.8280410909877
 20
-128.025832090529
 30
0.0
 11
342.8280410909877
 21
-376.5258477617181
 31
0.0
  0
LINE
  5
1AD
330
1F
100
AcDbEntity
  8
C-0
  6
JWW_DASHED2
 62
     4
370
     9
100
AcDbLine
 10
276.3280938765778
 20
-128.025832090529
 30
0.0
 11
276.3280938765778
 21
-376.5258477617181
 31
0.0
  0
LINE
  5
1AE
330
1F
100
AcDbEntity
  8
C-0
  6
Continuous
 62
     4
370
     9
100
AcDbLine
 10
346.3280773821616
 20
-128.025832090529
 30
0.0
 11
342.8280410909877
 21
-128.025832090529
 31
0.0
  0
LINE
  5
1AF
330
1F
100
AcDbEntity
  8
C-0
  6
Continuous
 62
     4
370
     9
100
AcDbLine
 10
271.3279784062324
 20
-128.025832090529
 30
0.0
 11
274.8280146974063
 21
-128.025832090529
 31
0.0
  0
ARC
  5
1B0
330
1F
100
AcDbEntity
  8
C-0
  6
JWW_DASHED2
 62
     4
370
     9
100
AcDbCircle
 10
274.8280146958352
 20
-128.025832090529
 30
0.0
 40
1.499999874346965
100
AcDbArc
 50
0.0000000000000127
 51
90.00000000000001
  0
LINE
  5
1B1
330
1F
100
AcDbEntity
  8
C-0
  6
Continuous
 62
     4
370
     9
100
AcDbLine
 10
271.3279784062324
 20
-126.5258271417326
 30
0.0
 11
271.3279784062324
 21
-128.025832090529
 31
0.0
  0
LINE
  5
1B2
330
1F
100
AcDbEntity
  8
C-0
  6
Continuous
 62
     4
370
     9
100
AcDbLine
 10
271.3281268701261
 20
-126.5258271417326
 30
0.0
 11
271.3281268701261
 21
-128.025832090529
 31
0.0
  0
ARC
  5
1B3
330
1F
100
AcDbEntity
  8
C-0
  6
JWW_DASHED2
 62
     4
370
     9
100
AcDbCircle
 10
342.8280410925588
 20
-128.025832090529
 30
0.0
 40
1.499999874346965
100
AcDbArc
 50
90.0
 51
180.0
  0
LINE
  5
1B4
330
1F
100
AcDbEntity
  8
C-0
  6
Continuous
 62
     4
370
     9
100
AcDbLine
 10
346.3280773821616
 20
-126.5258271417326
 30
0.0
 11
346.3280773821616
 21
-128.025832090529
 31
0.0
  0
LINE
  5
1B5
330
1F
100
AcDbEntity
  8
C-E
  6
Continuous
 62
     6
370
     5
100
AcDbLine
 10
346.3280773821616
 20
-126.5258155945406
 30
0.0
 11
542.2277068156627
 21
-126.5258155945406
 31
0.0
  0
LINE
  5
1B6
330
1F
100
AcDbEntity
  8
C-0
  6
Continuous
 62
     4
370
     9
100
AcDbLine
 10
271.3279784062324
 20
-126.5258271417326
 30
0.0
 11
346.3280773821616
 21
-126.5258271417326
 31
0.0
  0
LINE
  5
1B7
330
1F
100
AcDbEntity
  8
C-E
  6
Continuous
 62
     6
370
     5
100
AcDbLine
 10
74.61068553906597
 20
-126.5258155945406
 30
0.0
 11
271.3279784062324
 21
-126.5258155945406
 31
0.0
  0
LINE
  5
1B8
330
1F
100
AcDbEntity
  8
C-1
  6
Continuous
 62
     3
370
     9
100
AcDbLine
 10
278.5780146974063
 20
-21.54757514024766
 30
0.0
 11
278.5780146974063
 21
-126.5258271417326
 31
0.0
  0
LINE
  5
1B9
330
1F
100
AcDbEntity
  8
C-1
  6
Continuous
 62
     3
370
     9
100
AcDbLine
 10
339.0780410909877
 20
-37.04339667757154
 30
0.0
 11
339.0780410909877
 21
-126.5258271417326
 31
0.0
  0
LINE
  5
1BA
330
1F
100
AcDbEntity
  8
C-2
  6
Continuous
 62
     3
370
     9
100
AcDbLine
 10
278.5777672575834
 20
493.2118822545593
 30
0.0
 11
278.5777672575834
 21
-55.9128669399081
 31
0.0
  0
LINE
  5
1BB
330
1F
100
AcDbEntity
  8
C-2
  6
Continuous
 62
     3
370
     9
100
AcDbLine
 10
339.0777936511647
 20
493.2118822545593
 30
0.0
 11
339.0777936511647
 21
-55.84622905738911
 31
0.0
  0
LINE
  5
1BC
330
1F
100
AcDbEntity
  8
C-0
  6
JWW_CENTER2
 62
     7
370
     9
100
AcDbLine
 10
256.9391547681407
 20
493.2116348147363
 30
0.0
 11
363.966280771097
 21
493.2121296943822
 31
0.0
  0
LINE
  5
1BD
330
1F
100
AcDbEntity
  8
C-0
  6
JWW_CENTER2
 62
     7
370
     9
100
AcDbLine
 10
270.0425022972847
 20
143.4618789553619
 30
0.0
 11
347.1668317759263
 21
143.4618789553619
 31
0.0
  0
ARC
  5
1BE
330
1F
100
AcDbEntity
  8
C-2
  6
Continuous
 62
     3
370
     9
100
AcDbCircle
 10
308.827780454374
 20
493.2118822545593
 30
0.0
 40
30.24996486870018
100
AcDbArc
 50
0.0
 51
180.0
  0
ARC
  5
1BF
330
1F
100
AcDbEntity
  8
C-2
  6
JWW_DASHED2
 62
     3
370
     9
100
AcDbCircle
 10
308.827780454374
 20
493.2118822545593
 30
0.0
 40
30.24996486870018
100
AcDbArc
 50
180.0004730224609
 51
0.0004730224609375
  0
CIRCLE
  5
1C0
330
1F
100
AcDbEntity
  8
C-2
  6
JWW_DASHED2
 62
     3
370
     9
100
AcDbCircle
 10
308.828027894197
 20
143.4618789553619
 30
0.0
 40
16.99999925252554
  0
LINE
  5
1C1
330
1F
100
AcDbEntity
  8
C-0
  6
JWW_CENTER2
 62
     7
370
     9
100
AcDbLine
 10
308.828027894197
 20
549.729364702828
 30
0.0
 11
308.828027894197
 21
-417.5418785929929
 31
0.0
  0
TEXT
  5
1C2
330
1F
100
AcDbEntity
  8
C-5
  6
Continuous
 62
     7
370
     9
100
AcDbText
 10
-547.4156521808167
 20
23.24963417696298
 30
0.0
 40
22.86
  1
横柵：φ34.0×2.3
 41
1.156862745098039
  7
ＭＳ ゴシック
100
AcDbText
  0
TEXT
  5
1C3
330
1F
100
AcDbEntity
  8
C-5
  6
Continuous
 62
     7
370
     9
100
AcDbText
 10
-547.4156521808164
 20
-36.4936860994615
 30
0.0
 40
22.86
  1
STK　溶融亜鉛めっき＋焼付塗装
 41
1.155172413793103
  7
ＭＳ ゴシック
100
AcDbText
  0
LINE
  5
1C4
330
1F
100
AcDbEntity
  8
C-5
  6
Continuous
 62
     7
370
     9
100
AcDbLine
 10
-765.9995713890526
 20
126.4720583641525
 30
0.0
 11
-756.4324855799264
 21
103.3750700513707
 31
0.0
  0
LINE
  5
1C5
330
1F
100
AcDbEntity
  8
C-5
  6
Continuous
 62
     7
370
     9
100
AcDbLine
 10
-765.9995713890526
 20
126.4720583641525
 30
0.0
 11
-750.780535663835
 21
106.6382248568721
 31
0.0
  0
LINE
  5
1C6
330
1F
100
AcDbEntity
  8
C-5
  6
Continuous
 62
     7
370
     9
100
AcDbLine
 10
-695.932335873884
 20
5.872522242907263
 30
0.0
 11
-38.5539500531565
 21
5.872522242907263
 31
0.0
  0
LINE
  5
1C7
330
1F
100
AcDbEntity
  8
C-5
  6
Continuous
 62
     7
370
     9
100
AcDbLine
 10
-765.9995713890527
 20
126.4720583641527
 30
0.0
 11
-695.932335873884
 21
5.872522242907263
 31
0.0
  0
ARC
  5
1C8
330
1F
100
AcDbEntity
  8
C-0
  6
Continuous
 62
     4
370
     9
100
AcDbCircle
 10
-1205.554956633217
 20
-117.7135821238414
 30
0.0
 40
0.2
100
AcDbArc
 50
186.0
 51
297.2060231130038
  0
LINE
  5
1C9
330
1F
100
AcDbEntity
  8
C-1
  6
Continuous
 62
     3
370
     9
100
AcDbLine
 10
-1194.881758945381
 20
-124.2287830555807
 30
0.0
 11
-1225.881758945382
 21
-124.2287830555807
 31
0.0
  0
LINE
  5
1CA
330
1F
100
AcDbEntity
  8
C-1
  6
Continuous
 62
     4
370
     9
100
AcDbLine
 10
-1201.402042743319
 20
-111.3054116984807
 30
0.0
 11
-1203.314845216749
 21
-116.2832500135693
 31
0.0
  0
ARC
  5
1CB
330
1F
100
AcDbEntity
  8
C-0
  6
Continuous
 62
     4
370
     9
100
AcDbCircle
 10
-1213.808031408946
 20
-50.67094751980449
 30
0.0
 40
1.0
100
AcDbArc
 50
283.1250163489018
 51
5.999999999999996
  0
ARC
  5
1CC
330
1F
100
AcDbEntity
  8
C-0
  6
Continuous
 62
     4
370
     9
100
AcDbCircle
 10
-1213.479575184863
 20
-42.3158730627722
 30
0.0
 40
0.2
100
AcDbArc
 50
74.79397688699622
 51
186.0
  0
LINE
  5
1CD
330
1F
100
AcDbEntity
  8
C-0
  6
Continuous
 62
     4
370
     9
100
AcDbLine
 10
-1213.42711706031
 20
-42.12287527737487
 30
0.0
 11
-1211.041255262865
 21
-42.77136891205942
 31
0.0
  0
LINE
  5
1CE
330
1F
100
AcDbEntity
  8
C-0
  6
Continuous
 62
     4
370
     9
100
AcDbLine
 10
-1213.580954868024
 20
-51.64482443428767
 30
0.0
 11
-1220.572880344553
 21
-53.27511490322365
 31
0.0
  0
LINE
  5
1CF
330
1F
100
AcDbEntity
  8
C-6
  6
Continuous
 62
     2
370
     9
100
AcDbLine
 10
-1218.1264694976
 20
-107.1648304530925
 30
0.0
 11
-1218.586392443197
 21
-102.7889559278208
 31
0.0
  0
LINE
  5
1D0
330
1F
100
AcDbEntity
  8
C-6
  6
Continuous
 62
     2
370
     9
100
AcDbLine
 10
-1217.247217157126
 20
-107.8768349595572
 30
0.0
 11
-1218.1264694976
 21
-107.1648304530925
 31
0.0
  0
LINE
  5
1D1
330
1F
100
AcDbEntity
  8
C-6
  6
Continuous
 62
     2
370
     9
100
AcDbLine
 10
-1217.874387936732
 20
-101.9097035873472
 30
0.0
 11
-1218.586392443197
 21
-102.7889559278208
 31
0.0
  0
LINE
  5
1D2
330
1F
100
AcDbEntity
  8
C-B
  6
Continuous
 62
     2
370
     9
100
AcDbLine
 10
-1216.64036596832
 20
-109.8240343671773
 30
0.0
 11
-1216.131301225314
 21
-110.524701950215
 31
0.0
  0
LINE
  5
1D3
330
1F
100
AcDbEntity
  8
C-B
  6
Continuous
 62
     2
370
     9
100
AcDbLine
 10
-1217.685643423597
 20
-99.8788837018941
 30
0.0
 11
-1217.333379948498
 21
-99.08768687517977
 31
0.0
  0
LINE
  5
1D4
330
1F
100
AcDbEntity
  8
C-0
  6
Continuous
 62
     4
370
     9
100
AcDbLine
 10
-1220.572880344552
 20
-53.27511490322365
 30
0.0
 11
-1215.780851879997
 21
-98.86822019001045
 31
0.0
  0
LINE
  5
1D5
330
1F
100
AcDbEntity
  8
C-0
  6
Continuous
 62
     4
370
     9
100
AcDbLine
 10
-1215.780851879997
 20
-98.86822019001045
 30
0.0
 11
-1215.775000266813
 21
-98.92389457048296
 31
0.0
  0
LINE
  5
1D6
330
1F
100
AcDbEntity
  8
C-B
  6
Continuous
 62
     2
370
     9
100
AcDbLine
 10
-1216.131301225314
 20
-110.524701950215
 30
0.0
 11
-1214.572921543629
 21
-110.3609096455176
 31
0.0
  0
LINE
  5
1D7
330
1F
100
AcDbEntity
  8
C-B
  6
Continuous
 62
     2
370
     9
100
AcDbLine
 10
-1217.333379948498
 20
-99.08768687517977
 30
0.0
 11
-1215.775000266813
 21
-98.92389457048296
 31
0.0
  0
ARC
  5
1D8
330
1F
100
AcDbEntity
  8
C-0
  6
Continuous
 62
     4
370
     9
100
AcDbCircle
 10
-1207.278576707436
 20
-112.7945592373078
 30
0.0
 40
1.0
100
AcDbArc
 50
6.000000000000009
 51
88.87498365109819
  0
LINE
  5
1D9
330
1F
100
AcDbEntity
  8
C-0
  6
Continuous
 62
     4
370
     9
100
AcDbLine
 10
-1207.258942729688
 20
-111.7947520024285
 30
0.0
 11
-1214.437034306985
 21
-111.6537903396363
 31
0.0
  0
LINE
  5
1DA
330
1F
100
AcDbEntity
  8
C-1
  6
Continuous
 62
     4
370
     9
100
AcDbLine
 10
-1215.775000266813
 20
-98.92389457048296
 30
0.0
 11
-1214.437034306985
 21
-111.6537903396363
 31
0.0
  0
LINE
  5
1DB
330
1F
100
AcDbEntity
  8
C-B
  6
Continuous
 62
     2
370
     9
100
AcDbLine
 10
-1217.685643423597
 20
-99.8788837018941
 30
0.0
 11
-1216.64036596832
 21
-109.8240343671773
 31
0.0
  0
LINE
  5
1DC
330
1F
100
AcDbEntity
  8
C-6
  6
Continuous
 62
     2
370
     9
100
AcDbLine
 10
-1217.247217157126
 20
-107.8768349595572
 30
0.0
 11
-1216.849419306155
 21
-107.8350247206407
 31
0.0
  0
LINE
  5
1DD
330
1F
100
AcDbEntity
  8
C-6
  6
Continuous
 62
     2
370
     9
100
AcDbLine
 10
-1218.126468351209
 20
-107.1648413602668
 30
0.0
 11
-1216.933042076769
 21
-107.0394072043462
 31
0.0
  0
LINE
  5
1DE
330
1F
100
AcDbEntity
  8
C-6
  6
Continuous
 62
     2
370
     9
100
AcDbLine
 10
-1218.586393589588
 20
-102.7889450206459
 30
0.0
 11
-1217.392967315148
 21
-102.6635108647253
 31
0.0
  0
LINE
  5
1DF
330
1F
100
AcDbEntity
  8
C-6
  6
Continuous
 62
     2
370
     9
100
AcDbLine
 10
-1217.874387936732
 20
-101.9097035873472
 30
0.0
 11
-1217.476590085762
 21
-101.8678933484307
 31
0.0
  0
LINE
  5
1E0
330
1F
100
AcDbEntity
  8
C-9
  6
Continuous
 62
     7
370
     9
100
AcDbLine
 10
-1205.071283077596
 20
-124.2287830555807
 30
0.0
 11
-1205.75386101229
 21
-117.7344878164951
 31
0.0
  0
LINE
  5
1E1
330
1F
100
AcDbEntity
  8
C-9
  6
Continuous
 62
     7
370
     9
100
AcDbLine
 10
-1201.853656582992
 20
-124.2287830555807
 30
0.0
 11
-1202.823232281528
 21
-115.0038864937483
 31
0.0
  0
LINE
  5
1E2
330
1F
100
AcDbEntity
  8
C-6
  6
Continuous
 62
     2
370
     9
100
AcDbLine
 10
-1200.244843335689
 20
-124.2287830555807
 30
0.0
 11
-1201.559952692008
 21
-111.7163533423985
 31
0.0
  0
LINE
  5
1E3
330
1F
100
AcDbEntity
  8
C-1
  6
Continuous
 62
     4
370
     9
100
AcDbLine
 10
-1203.314845216749
 20
-116.2832500135693
 30
0.0
 11
-1205.463518348659
 21
-117.8914557872019
 31
0.0
  0
LINE
  5
1E4
330
1F
100
AcDbEntity
  8
C-0
  6
Continuous
 62
     4
370
     9
100
AcDbLine
 10
-1205.75386101229
 20
-117.7344878164951
 30
0.0
 11
-1213.678479563937
 21
-42.33677875542526
 31
0.0
  0
LINE
  5
1E5
330
1F
100
AcDbEntity
  8
C-0
  6
Continuous
 62
     4
370
     9
100
AcDbLine
 10
-1211.041255262865
 20
-42.77136891205942
 30
0.0
 11
-1206.429903939502
 21
-49.11834950247453
 31
0.0
  0
LINE
  5
1E6
330
1F
100
AcDbEntity
  8
C-0
  6
Continuous
 62
     4
370
     9
100
AcDbLine
 10
-1200.217718128144
 20
-108.2233493690944
 30
0.0
 11
-1201.402042743319
 21
-111.3054116984807
 31
0.0
  0
LINE
  5
1E7
330
1F
100
AcDbEntity
  8
C-0
  6
Continuous
 62
     4
370
     9
100
AcDbLine
 10
-1200.217718128144
 20
-108.2233493690944
 30
0.0
 11
-1206.429903939502
 21
-49.11834950247453
 31
0.0
  0
CIRCLE
  5
1E8
330
1F
100
AcDbEntity
  8
C-E
  6
Continuous
 62
     4
370
     9
100
AcDbCircle
 10
-1209.781758945381
 20
-132.028783055581
 30
0.0
 40
2.5
  0
LINE
  5
1E9
330
1F
100
AcDbEntity
  8
C-1
  6
Continuous
 62
     3
370
     9
100
AcDbLine
 10
-1194.881758945381
 20
-144.7287830555808
 30
0.0
 11
-1222.131758945382
 21
-144.7287830555808
 31
0.0
  0
ELLIPSE
  5
1EA
330
1F
100
AcDbEntity
  8
C-1
  6
Continuous
 62
     3
370
     9
100
AcDbEllipse
 10
-1194.881758945381
 20
-143.2287830555811
 30
0.0
 11
-1.060660171779821
 21
-1.060660171779822
 31
0.0
210
0.0
220
0.0
230
1.0
 40
0.9999999999999999
 41
0.7853981633974483
 42
2.356194490192345
  0
LINE
  5
1EB
330
1F
100
AcDbEntity
  8
C-1
  6
Continuous
 62
     3
370
     9
100
AcDbLine
 10
-1193.381758945382
 20
-143.2287830555811
 30
0.0
 11
-1193.381758945382
 21
-125.7287830555811
 31
0.0
  0
ELLIPSE
  5
1EC
330
1F
100
AcDbEntity
  8
C-1
  6
Continuous
 62
     3
370
     9
100
AcDbEllipse
 10
-1194.881758945381
 20
-125.7287830555811
 30
0.0
 11
-1.060660171779821
 21
-1.060660171779822
 31
0.0
210
0.0
220
0.0
230
1.0
 40
0.9999999999999999
 41
2.356194490192345
 42
3.926990816987241
  0
ARC
  5
1ED
330
1F
100
AcDbEntity
  8
C-0
  6
Continuous
 62
     4
370
     9
100
AcDbCircle
 10
-667.2078513003203
 20
-117.7117685655344
 30
0.0
 40
0.2
100
AcDbArc
 50
242.7939768869962
 51
354.0
  0
LINE
  5
1EE
330
1F
100
AcDbEntity
  8
C-1
  6
Continuous
 62
     3
370
     9
100
AcDbLine
 10
-677.8810489881562
 20
-124.2269694972737
 30
0.0
 11
-646.8810489881548
 21
-124.2269694972737
 31
0.0
  0
LINE
  5
1EF
330
1F
100
AcDbEntity
  8
C-1
  6
Continuous
 62
     4
370
     9
100
AcDbLine
 10
-671.360765190218
 20
-111.3035981401737
 30
0.0
 11
-669.447962716788
 21
-116.2814364552622
 31
0.0
  0
ARC
  5
1F0
330
1F
100
AcDbEntity
  8
C-0
  6
Continuous
 62
     4
370
     9
100
AcDbCircle
 10
-658.9547765245914
 20
-50.66913396149744
 30
0.0
 40
0.9999999999999999
100
AcDbArc
 50
174.0
 51
256.8749836510982
  0
ARC
  5
1F1
330
1F
100
AcDbEntity
  8
C-0
  6
Continuous
 62
     4
370
     9
100
AcDbCircle
 10
-659.2832327486735
 20
-42.31405950446515
 30
0.0
 40
0.2
100
AcDbArc
 50
354.0
 51
105.2060231130038
  0
LINE
  5
1F2
330
1F
100
AcDbEntity
  8
C-0
  6
Continuous
 62
     4
370
     9
100
AcDbLine
 10
-659.1818530655132
 20
-51.64301087598062
 30
0.0
 11
-652.1899275889837
 21
-53.2733013449166
 31
0.0
  0
LINE
  5
1F3
330
1F
100
AcDbEntity
  8
C-6
  6
Continuous
 62
     2
370
     9
100
AcDbLine
 10
-654.636338435937
 20
-107.1630168947854
 30
0.0
 11
-654.1764154903399
 21
-102.7871423695137
 31
0.0
  0
LINE
  5
1F4
330
1F
100
AcDbEntity
  8
C-6
  6
Continuous
 62
     2
370
     9
100
AcDbLine
 10
-655.5155907764106
 20
-107.8750214012501
 30
0.0
 11
-654.636338435937
 21
-107.1630168947854
 31
0.0
  0
LINE
  5
1F5
330
1F
100
AcDbEntity
  8
C-6
  6
Continuous
 62
     2
370
     9
100
AcDbLine
 10
-654.8884199968052
 20
-101.9078900290401
 30
0.0
 11
-654.1764154903399
 21
-102.7871423695137
 31
0.0
  0
LINE
  5
1F6
330
1F
100
AcDbEntity
  8
C-B
  6
Continuous
 62
     2
370
     9
100
AcDbLine
 10
-656.1224419652171
 20
-109.8222208088703
 30
0.0
 11
-656.6315067082223
 21
-110.5228883919079
 31
0.0
  0
LINE
  5
1F7
330
1F
100
AcDbEntity
  8
C-B
  6
Continuous
 62
     2
370
     9
100
AcDbLine
 10
-655.0771645099394
 20
-99.87707014358705
 30
0.0
 11
-655.4294279850387
 21
-99.08587331687272
 31
0.0
  0
LINE
  5
1F8
330
1F
100
AcDbEntity
  8
C-0
  6
Continuous
 62
     4
370
     9
100
AcDbLine
 10
-652.1899275889848
 20
-53.2733013449166
 30
0.0
 11
-656.9819560535393
 21
-98.8664066317034
 31
0.0
  0
LINE
  5
1F9
330
1F
100
AcDbEntity
  8
C-0
  6
Continuous
 62
     4
370
     9
100
AcDbLine
 10
-656.9819560535393
 20
-98.8664066317034
 30
0.0
 11
-656.9878076667237
 21
-98.92208101217591
 31
0.0
  0
LINE
  5
1FA
330
1F
100
AcDbEntity
  8
C-B
  6
Continuous
 62
     2
370
     9
100
AcDbLine
 10
-656.6315067082223
 20
-110.5228883919079
 30
0.0
 11
-658.1898863899073
 21
-110.3590960872106
 31
0.0
  0
LINE
  5
1FB
330
1F
100
AcDbEntity
  8
C-B
  6
Continuous
 62
     2
370
     9
100
AcDbLine
 10
-655.4294279850387
 20
-99.08587331687272
 30
0.0
 11
-656.9878076667237
 21
-98.92208101217591
 31
0.0
  0
ARC
  5
1FC
330
1F
100
AcDbEntity
  8
C-0
  6
Continuous
 62
     4
370
     9
100
AcDbCircle
 10
-665.4842312261007
 20
-112.7927456790007
 30
0.0
 40
1.0
100
AcDbArc
 50
91.12501634890181
 51
174.0
  0
LINE
  5
1FD
330
1F
100
AcDbEntity
  8
C-0
  6
Continuous
 62
     4
370
     9
100
AcDbLine
 10
-665.503865203849
 20
-111.7929384441214
 30
0.0
 11
-658.3257736265523
 21
-111.6519767813293
 31
0.0
  0
LINE
  5
1FE
330
1F
100
AcDbEntity
  8
C-1
  6
Continuous
 62
     4
370
     9
100
AcDbLine
 10
-656.9878076667237
 20
-98.92208101217591
 30
0.0
 11
-658.3257736265523
 21
-111.6519767813293
 31
0.0
  0
LINE
  5
1FF
330
1F
100
AcDbEntity
  8
C-B
  6
Continuous
 62
     2
370
     9
100
AcDbLine
 10
-655.0771645099394
 20
-99.87707014358705
 30
0.0
 11
-656.1224419652171
 21
-109.8222208088703
 31
0.0
  0
LINE
  5
200
330
1F
100
AcDbEntity
  8
C-6
  6
Continuous
 62
     2
370
     9
100
AcDbLine
 10
-655.5155907764106
 20
-107.8750214012501
 30
0.0
 11
-655.9133886273821
 21
-107.8332111623337
 31
0.0
  0
LINE
  5
201
330
1F
100
AcDbEntity
  8
C-6
  6
Continuous
 62
     2
370
     9
100
AcDbLine
 10
-654.6363395823278
 20
-107.1630278019597
 30
0.0
 11
-655.8297658567676
 21
-107.0375936460391
 31
0.0
  0
LINE
  5
202
330
1F
100
AcDbEntity
  8
C-6
  6
Continuous
 62
     2
370
     9
100
AcDbLine
 10
-654.1764143439491
 20
-102.7871314623388
 30
0.0
 11
-655.3698406183889
 21
-102.6616973064182
 31
0.0
  0
LINE
  5
203
330
1F
100
AcDbEntity
  8
C-6
  6
Continuous
 62
     2
370
     9
100
AcDbLine
 10
-654.8884199968052
 20
-101.9078900290401
 30
0.0
 11
-655.2862178477756
 21
-101.8660797901236
 31
0.0
  0
LINE
  5
204
330
1F
100
AcDbEntity
  8
C-9
  6
Continuous
 62
     7
370
     9
100
AcDbLine
 10
-667.6915248559408
 20
-124.2269694972737
 30
0.0
 11
-667.0089469212473
 21
-117.732674258188
 31
0.0
  0
LINE
  5
205
330
1F
100
AcDbEntity
  8
C-9
  6
Continuous
 62
     7
370
     9
100
AcDbLine
 10
-670.909151350545
 20
-124.2269694972737
 30
0.0
 11
-669.9395756520084
 21
-115.0020729354412
 31
0.0
  0
LINE
  5
206
330
1F
100
AcDbEntity
  8
C-6
  6
Continuous
 62
     2
370
     9
100
AcDbLine
 10
-672.5179645978483
 20
-124.2269694972737
 30
0.0
 11
-671.202855241529
 21
-111.7145397840915
 31
0.0
  0
LINE
  5
207
330
1F
100
AcDbEntity
  8
C-1
  6
Continuous
 62
     4
370
     9
100
AcDbLine
 10
-669.447962716788
 20
-116.2814364552622
 30
0.0
 11
-667.2992895848779
 21
-117.8896422288949
 31
0.0
  0
LINE
  5
208
330
1F
100
AcDbEntity
  8
C-0
  6
Continuous
 62
     4
370
     9
100
AcDbLine
 10
-661.7215526706718
 20
-42.76955535375237
 30
0.0
 11
-666.3329039940345
 21
-49.11653594416748
 31
0.0
  0
LINE
  5
209
330
1F
100
AcDbEntity
  8
C-0
  6
Continuous
 62
     4
370
     9
100
AcDbLine
 10
-672.545089805393
 20
-108.2215358107874
 30
0.0
 11
-671.360765190218
 21
-111.3035981401737
 31
0.0
  0
LINE
  5
20A
330
1F
100
AcDbEntity
  8
C-0
  6
Continuous
 62
     4
370
     9
100
AcDbLine
 10
-672.545089805393
 20
-108.2215358107874
 30
0.0
 11
-666.3329039940345
 21
-49.11653594416748
 31
0.0
  0
LINE
  5
20B
330
1F
100
AcDbEntity
  8
C-0
  6
Continuous
 62
     4
370
     9
100
AcDbLine
 10
-667.0089469212473
 20
-117.732674258188
 30
0.0
 11
-659.0537929326615
 21
-42.04443992132497
 31
0.0
  0
LINE
  5
20C
330
1F
100
AcDbEntity
  8
C-0
  6
Continuous
 62
     4
370
     9
100
AcDbLine
 10
-659.0537929326615
 20
-42.04443992132497
 30
0.0
 11
-661.7215526706718
 21
-42.76955535375237
 31
0.0
  0
ARC
  5
20D
330
1F
100
AcDbEntity
  8
C-1
  6
Continuous
 62
     3
370
     9
100
AcDbCircle
 10
-677.8810489881562
 20
-125.726969497274
 30
0.0
 40
1.5
100
AcDbArc
 50
90.0
 51
180.0
  0
LINE
  5
20E
330
1F
100
AcDbEntity
  8
C-1
  6
Continuous
 62
     3
370
     9
100
AcDbLine
 10
-679.3810489881548
 20
-143.226969497274
 30
0.0
 11
-679.3810489881548
 21
-125.726969497274
 31
0.0
  0
LINE
  5
20F
330
1F
100
AcDbEntity
  8
C-1
  6
Continuous
 62
     3
370
     9
100
AcDbLine
 10
-677.8810489881562
 20
-144.7269694972738
 30
0.0
 11
-650.6310489881548
 21
-144.7269694972738
 31
0.0
  0
CIRCLE
  5
210
330
1F
100
AcDbEntity
  8
C-E
  6
Continuous
 62
     4
370
     9
100
AcDbCircle
 10
-662.9810489881561
 20
-132.026969497274
 30
0.0
 40
2.5
  0
ARC
  5
211
330
1F
100
AcDbEntity
  8
C-1
  6
Continuous
 62
     3
370
     9
100
AcDbCircle
 10
-677.8810489881562
 20
-143.226969497274
 30
0.0
 40
1.5
100
AcDbArc
 50
180.0
 51
270.0
  0
ELLIPSE
  5
212
330
1F
100
AcDbEntity
  8
C-0
  6
Continuous
 62
     4
370
     9
100
AcDbEllipse
 10
308.8850239584388
 20
-81.54773128236002
 30
0.0
 11
-3.345514096583813
 21
31.83044040163793
 31
0.0
210
0.0
220
0.0
230
1.0
 40
0.9945
 41
1.154744950481671
 42
1.776258424061158
  0
ELLIPSE
  5
213
330
1F
100
AcDbEntity
  8
C-0
  6
Continuous
 62
     4
370
     9
100
AcDbEllipse
 10
308.8850239584388
 20
-81.54773128236002
 30
0.0
 11
-3.345514096583813
 21
31.83044040163793
 31
0.0
210
0.0
220
0.0
230
1.0
 40
0.9945
 41
4.284832074319628
 42
4.929356607402788
  0
ELLIPSE
  5
214
330
1F
100
AcDbEntity
  8
C-0
  6
Continuous
 62
     4
370
     9
100
AcDbEllipse
 10
308.8850239584388
 20
-81.54773128236002
 30
0.0
 11
-4.160232838052567
 21
39.58197143565728
 31
0.0
210
0.0
220
0.0
230
1.0
 40
0.9944999999999998
 41
0.7667625057856567
 42
2.16425058662961
  0
ELLIPSE
  5
215
330
1F
100
AcDbEntity
  8
C-0
  6
Continuous
 62
     4
370
     9
100
AcDbEllipse
 10
308.8850239584388
 20
-81.54773128236002
 30
0.0
 11
-4.055704374784915
 21
38.58744954028901
 31
0.0
210
0.0
220
0.0
230
1.0
 40
0.9945
 41
0.7980163469981315
 42
2.132987027544697
  0
ELLIPSE
  5
216
330
1F
100
AcDbEntity
  8
C-0
  6
Continuous
 62
     4
370
     9
100
AcDbEllipse
 10
308.8850239584388
 20
-81.54773128236002
 30
0.0
 11
-4.160232838052567
 21
39.58197143565728
 31
0.0
210
0.0
220
0.0
230
1.0
 40
0.9944999999999998
 41
3.903880426896705
 42
5.31030825482571
  0
ELLIPSE
  5
217
330
1F
100
AcDbEntity
  8
C-0
  6
Continuous
 62
     4
370
     9
100
AcDbEllipse
 10
308.8850239584388
 20
-81.54773128236002
 30
0.0
 11
-4.055704374784915
 21
38.58744954028901
 31
0.0
210
0.0
220
0.0
230
1.0
 40
0.9945
 41
3.934851212666703
 42
5.279337469055713
  0
LINE
  5
218
330
1F
100
AcDbEntity
  8
D-0
  6
JWW_CENTER2
 62
     7
370
     9
100
AcDbLine
 10
1263.91643023567
 20
265.7908930679912
 30
0.0
 11
1263.91643023567
 21
-341.9005962937121
 31
0.0
  0
TEXT
  5
219
330
1F
100
AcDbEntity
  8
D-5
  6
Continuous
 62
     7
370
     9
100
AcDbText
 10
999.193206673516
 20
184.9191271851975
 30
0.0
 40
22.86
  1
蓋
  7
ＭＳ ゴシック
100
AcDbText
  0
ARC
  5
21A
330
1F
100
AcDbEntity
  8
D-0
  6
Continuous
 62
     4
370
     9
100
AcDbCircle
 10
1095.327045205817
 20
-97.14179049408926
 30
0.0
 40
0.6666666666666667
100
AcDbArc
 50
242.7939768869962
 51
354.0
  0
LINE
  5
21B
330
1F
100
AcDbEntity
  8
D-0
  6
Continuous
 62
     4
370
     9
100
AcDbLine
 10
1138.916265275789
 20
-126.5257935998869
 30
0.0
 11
1138.916265275789
 21
-131.5258100958749
 31
0.0
  0
LINE
  5
21C
330
1F
100
AcDbEntity
  8
D-0
  6
Continuous
 62
     4
370
     9
100
AcDbLine
 10
1388.916100315907
 20
-126.5257935998869
 30
0.0
 11
1388.916100315907
 21
-131.5258100958749
 31
0.0
  0
LINE
  5
21D
330
1F
100
AcDbEntity
  8
D-0
  6
Continuous
 62
     4
370
     9
100
AcDbLine
 10
1377.249807558304
 20
-131.5258100958749
 30
0.0
 11
1388.916595195551
 21
-131.5258100958749
 31
0.0
  0
LINE
  5
21E
330
1F
100
AcDbEntity
  8
D-0
  6
Continuous
 62
     4
370
     9
100
AcDbLine
 10
1388.916595195551
 20
-126.5257935998869
 30
0.0
 11
1388.916595195551
 21
-131.5258100958749
 31
0.0
  0
LINE
  5
21F
330
1F
100
AcDbEntity
  8
D-0
  6
Continuous
 62
     4
370
     9
100
AcDbLine
 10
1138.916265275789
 20
-131.5258100958749
 30
0.0
 11
1150.583052913036
 21
-131.5258100958749
 31
0.0
  0
LINE
  5
220
330
1F
100
AcDbEntity
  8
D-1
  6
Continuous
 62
     3
370
     9
100
AcDbLine
 10
1059.749719579702
 20
-118.8591269332204
 30
0.0
 11
1163.083052913034
 21
-118.8591269332204
 31
0.0
  0
ARC
  5
221
330
1F
100
AcDbEntity
  8
D-1
  6
Continuous
 62
     3
370
     9
100
AcDbCircle
 10
1059.749719579702
 20
-123.8591269332204
 30
0.0
 40
4.999999999999999
100
AcDbArc
 50
90.0
 51
180.0
  0
LINE
  5
222
330
1F
100
AcDbEntity
  8
D-1
  6
Continuous
 62
     3
370
     9
100
AcDbLine
 10
1054.749719579702
 20
-182.1924602665536
 30
0.0
 11
1054.749719579702
 21
-123.8591269332204
 31
0.0
  0
LINE
  5
223
330
1F
100
AcDbEntity
  8
D-1
  6
Continuous
 62
     3
370
     9
100
AcDbLine
 10
1059.749719579702
 20
-187.1924602665536
 30
0.0
 11
1150.583052913036
 21
-187.1924602665536
 31
0.0
  0
ARC
  5
224
330
1F
100
AcDbEntity
  8
D-1
  6
Continuous
 62
     3
370
     9
100
AcDbCircle
 10
1059.749719579702
 20
-182.1924602665536
 30
0.0
 40
4.999999999999999
100
AcDbArc
 50
180.0
 51
270.0
  0
LINE
  5
225
330
1F
100
AcDbEntity
  8
D-1
  6
Continuous
 62
     4
370
     9
100
AcDbLine
 10
1081.483998906157
 20
-75.78122240955224
 30
0.0
 11
1087.860007150928
 21
-92.37401679318225
 31
0.0
  0
CIRCLE
  5
226
330
1F
100
AcDbEntity
  8
D-E
  6
Continuous
 62
     4
370
     9
100
AcDbCircle
 10
1109.416386246368
 20
-144.8591269332201
 30
0.0
 40
8.333333333333332
  0
ARC
  5
227
330
1F
100
AcDbEntity
  8
D-0
  6
Continuous
 62
     4
370
     9
100
AcDbCircle
 10
1122.83729445825
 20
126.3336581860318
 30
0.0
 40
3.333333333333333
100
AcDbArc
 50
174.0
 51
256.8749836510982
  0
ARC
  5
228
330
1F
100
AcDbEntity
  8
D-0
  6
Continuous
 62
     4
370
     9
100
AcDbCircle
 10
1121.742440377976
 20
154.1839063761427
 30
0.0
 40
0.6666666666666666
100
AcDbArc
 50
354.0
 51
105.2060231130038
  0
LINE
  5
229
330
1F
100
AcDbEntity
  8
D-0
  6
Continuous
 62
     4
370
     9
100
AcDbLine
 10
1121.567579962796
 20
154.8272323274671
 30
0.0
 11
1113.614707304646
 21
152.665586878519
 31
0.0
  0
LINE
  5
22A
330
1F
100
AcDbEntity
  8
D-0
  6
Continuous
 62
     4
370
     9
100
AcDbLine
 10
1122.080372655174
 20
123.0874018044227
 30
0.0
 11
1145.386790910271
 21
117.6531002413032
 31
0.0
  0
LINE
  5
22B
330
1F
100
AcDbEntity
  8
D-6
  6
Continuous
 62
     2
370
     9
100
AcDbLine
 10
1137.232088087096
 20
-61.97928492492508
 30
0.0
 11
1138.76516457242
 21
-47.39303650735394
 31
0.0
  0
LINE
  5
22C
330
1F
100
AcDbEntity
  8
D-6
  6
Continuous
 62
     2
370
     9
100
AcDbLine
 10
1134.301246952183
 20
-64.35263327980749
 30
0.0
 11
1137.232088087096
 21
-61.97928492492508
 31
0.0
  0
LINE
  5
22D
330
1F
100
AcDbEntity
  8
D-6
  6
Continuous
 62
     2
370
     9
100
AcDbLine
 10
1136.391816217536
 20
-44.4621953724419
 30
0.0
 11
1138.76516457242
 21
-47.39303650735394
 31
0.0
  0
LINE
  5
22E
330
1F
100
AcDbEntity
  8
D-B
  6
Continuous
 62
     2
370
     9
100
AcDbLine
 10
1132.278409656163
 20
-70.84329797187536
 30
0.0
 11
1130.581527179481
 21
-73.17885658200055
 31
0.0
  0
LINE
  5
22F
330
1F
100
AcDbEntity
  8
D-B
  6
Continuous
 62
     2
370
     9
100
AcDbLine
 10
1135.762667840419
 20
-37.69279575426367
 30
0.0
 11
1134.58845625676
 21
-35.05547299855039
 31
0.0
  0
LINE
  5
230
330
1F
100
AcDbEntity
  8
D-0
  6
Continuous
 62
     4
370
     9
100
AcDbLine
 10
1145.386790910271
 20
117.6531002413032
 30
0.0
 11
1129.413362695087
 21
-34.32391738131912
 31
0.0
  0
LINE
  5
231
330
1F
100
AcDbEntity
  8
D-0
  6
Continuous
 62
     4
370
     9
100
AcDbLine
 10
1129.413362695087
 20
-34.32391738131912
 30
0.0
 11
1129.393857317809
 21
-34.50949864956044
 31
0.0
  0
LINE
  5
232
330
1F
100
AcDbEntity
  8
D-B
  6
Continuous
 62
     2
370
     9
100
AcDbLine
 10
1130.581527179481
 20
-73.17885658200055
 30
0.0
 11
1125.38692824053
 21
-72.63288223301004
 31
0.0
  0
LINE
  5
233
330
1F
100
AcDbEntity
  8
D-B
  6
Continuous
 62
     2
370
     9
100
AcDbLine
 10
1134.58845625676
 20
-35.05547299855039
 30
0.0
 11
1129.393857317809
 21
-34.50949864956044
 31
0.0
  0
ARC
  5
234
330
1F
100
AcDbEntity
  8
D-0
  6
Continuous
 62
     4
370
     9
100
AcDbCircle
 10
1101.072445453216
 20
-80.7450475389777
 30
0.0
 40
3.333333333333333
100
AcDbArc
 50
91.12501634890181
 51
174.0
  0
LINE
  5
235
330
1F
100
AcDbEntity
  8
D-0
  6
Continuous
 62
     4
370
     9
100
AcDbLine
 10
1101.006998860723
 20
-77.41235675604514
 30
0.0
 11
1124.933970785047
 21
-76.94248454673811
 31
0.0
  0
LINE
  5
236
330
1F
100
AcDbEntity
  8
D-1
  6
Continuous
 62
     4
370
     9
100
AcDbLine
 10
1129.393857317809
 20
-34.50949864956044
 30
0.0
 11
1124.933970785047
 21
-76.94248454673811
 31
0.0
  0
LINE
  5
237
330
1F
100
AcDbEntity
  8
D-B
  6
Continuous
 62
     2
370
     9
100
AcDbLine
 10
1135.762667840419
 20
-37.69279575426367
 30
0.0
 11
1132.278409656163
 21
-70.84329797187536
 31
0.0
  0
LINE
  5
238
330
1F
100
AcDbEntity
  8
D-6
  6
Continuous
 62
     2
370
     9
100
AcDbLine
 10
1134.301246952183
 20
-64.35263327980749
 30
0.0
 11
1132.975254115614
 21
-64.2132658167526
 31
0.0
  0
LINE
  5
239
330
1F
100
AcDbEntity
  8
D-6
  6
Continuous
 62
     2
370
     9
100
AcDbLine
 10
1137.232084265795
 20
-61.97932128217417
 30
0.0
 11
1133.253996684329
 21
-61.56120742910446
 31
0.0
  0
LINE
  5
23A
330
1F
100
AcDbEntity
  8
D-6
  6
Continuous
 62
     2
370
     9
100
AcDbLine
 10
1138.765168393721
 20
-47.39300015010429
 30
0.0
 11
1134.787080812255
 21
-46.97488629703457
 31
0.0
  0
LINE
  5
23B
330
1F
100
AcDbEntity
  8
D-6
  6
Continuous
 62
     2
370
     9
100
AcDbLine
 10
1136.391816217536
 20
-44.4621953724419
 30
0.0
 11
1135.065823380968
 21
-44.32282790938643
 31
0.0
  0
LINE
  5
23C
330
1F
100
AcDbEntity
  8
D-9
  6
Continuous
 62
     7
370
     9
100
AcDbLine
 10
1093.714800020417
 20
-118.8591269332204
 30
0.0
 11
1095.99005980273
 21
-97.21147613626783
 31
0.0
  0
LINE
  5
23D
330
1F
100
AcDbEntity
  8
D-9
  6
Continuous
 62
     7
370
     9
100
AcDbLine
 10
1082.989378371739
 20
-118.8591269332204
 30
0.0
 11
1086.22129736686
 21
-88.10947172711167
 31
0.0
  0
LINE
  5
23E
330
1F
100
AcDbEntity
  8
D-6
  6
Continuous
 62
     2
370
     9
100
AcDbLine
 10
1077.626667547391
 20
-118.8591269332204
 30
0.0
 11
1082.01036540179
 21
-77.15102788927936
 31
0.0
  0
LINE
  5
23F
330
1F
100
AcDbEntity
  8
D-1
  6
Continuous
 62
     4
370
     9
100
AcDbLine
 10
1087.860007150928
 20
-92.37401679318225
 30
0.0
 11
1095.02225092396
 21
-97.73470270529003
 31
0.0
  0
LINE
  5
240
330
1F
100
AcDbEntity
  8
D-0
  6
Continuous
 62
     4
370
     9
100
AcDbLine
 10
1095.99005980273
 20
-97.21147613626783
 30
0.0
 11
1122.405454974888
 21
154.1142207339647
 31
0.0
  0
LINE
  5
241
330
1F
100
AcDbEntity
  8
D-0
  6
Continuous
 62
     4
370
     9
100
AcDbLine
 10
1150.583052913036
 20
-131.5258100958749
 30
0.0
 11
1150.583052913036
 21
-276.7605883040437
 31
0.0
  0
LINE
  5
242
330
1F
100
AcDbEntity
  8
D-0
  6
Continuous
 62
     4
370
     9
100
AcDbLine
 10
1377.249807558306
 20
-131.5258100958749
 30
0.0
 11
1377.249807558306
 21
-276.7605883040437
 31
0.0
  0
LINE
  5
243
330
1F
100
AcDbEntity
  8
D-1
  6
Continuous
 62
     3
370
     9
100
AcDbLine
 10
1163.083052913034
 20
-126.5257935998869
 30
0.0
 11
1163.083052913034
 21
201.0634994509689
 31
0.0
  0
LINE
  5
244
330
1F
100
AcDbEntity
  8
D-1
  6
Continuous
 62
     3
370
     9
100
AcDbLine
 10
1364.749807558306
 20
-126.5257935998869
 30
0.0
 11
1364.749807558306
 21
201.0634994509689
 31
0.0
  0
ARC
  5
245
330
1F
100
AcDbEntity
  8
D-0
  6
Continuous
 62
     4
370
     9
100
AcDbCircle
 10
1207.249741574352
 20
-219.6176777455963
 30
0.0
 40
80.47624389178071
100
AcDbArc
 50
225.2397455553737
 51
314.7602544446263
  0
ARC
  5
246
330
1F
100
AcDbEntity
  8
D-0
  6
Continuous
 62
     4
370
     9
100
AcDbCircle
 10
1320.583118896986
 20
-219.6176777455963
 30
0.0
 40
80.47624389178071
100
AcDbArc
 50
225.2397455553737
 51
314.7602544446263
  0
ARC
  5
247
330
1F
100
AcDbEntity
  8
D-0
  6
Continuous
 62
     4
370
     9
100
AcDbCircle
 10
1207.249741574352
 20
-333.9034988624911
 30
0.0
 40
80.47624389178071
100
AcDbArc
 50
45.23974555537367
 51
134.7602544446263
  0
ARC
  5
248
330
1F
100
AcDbEntity
  8
D-1
  6
Continuous
 62
     3
370
     9
100
AcDbCircle
 10
1314.333118896988
 20
158.2621126410879
 30
0.0
 40
66.13472014321468
100
AcDbArc
 50
40.32968394453118
 51
139.6703160554688
  0
ARC
  5
249
330
1F
100
AcDbEntity
  8
D-1
  6
Continuous
 62
     3
370
     9
100
AcDbCircle
 10
1213.499741574352
 20
158.2621126410879
 30
0.0
 40
66.13472014321468
100
AcDbArc
 50
40.32968394453118
 51
139.6703160554688
  0
ARC
  5
24A
330
1F
100
AcDbEntity
  8
D-1
  6
Continuous
 62
     3
370
     9
100
AcDbCircle
 10
1314.333118896988
 20
243.8648862608511
 30
0.0
 40
66.13472014321468
100
AcDbArc
 50
220.3296839445312
 51
319.6703160554688
  0
LINE
  5
24B
330
1F
100
AcDbEntity
  8
D-6
  6
Continuous
 62
     6
370
     5
100
AcDbLine
 10
1054.749719579702
 20
-126.5258155945406
 30
0.0
 11
877.3253776722947
 21
-126.5258155945406
 31
0.0
  0
LINE
  5
24C
330
1F
100
AcDbEntity
  8
D-0
  6
Continuous
 62
     4
370
     9
100
AcDbLine
 10
1113.614707304646
 20
152.665586878519
 30
0.0
 11
1098.243536226774
 21
131.508984910468
 31
0.0
  0
LINE
  5
24D
330
1F
100
AcDbEntity
  8
D-0
  6
Continuous
 62
     4
370
     9
100
AcDbLine
 10
1077.536250188911
 20
-65.50768131159884
 30
0.0
 11
1081.483998906157
 21
-75.78122240955224
 31
0.0
  0
LINE
  5
24E
330
1F
100
AcDbEntity
  8
D-0
  6
Continuous
 62
     4
370
     9
100
AcDbLine
 10
1077.536250188911
 20
-65.50768131159884
 30
0.0
 11
1098.243536226774
 21
131.508984910468
 31
0.0
  0
LINE
  5
24F
330
1F
100
AcDbEntity
  8
D-5
  6
Continuous
 62
     7
370
     9
100
AcDbLine
 10
1057.995518124411
 20
174.0224605185313
 30
0.0
 11
999.193206673516
 21
174.0224605185313
 31
0.0
  0
LINE
  5
250
330
1F
100
AcDbEntity
  8
D-5
  6
Continuous
 62
     7
370
     9
100
AcDbLine
 10
1095.825157884748
 20
108.4996024216008
 30
0.0
 11
1057.995518124411
 21
174.0224605185313
 31
0.0
  0
LINE
  5
251
330
1F
100
AcDbEntity
  8
D-5
  6
Continuous
 62
     7
370
     9
100
AcDbLine
 10
1095.825157884748
 20
108.4996024216008
 30
0.0
 11
1086.258072075619
 21
131.5965907343826
 31
0.0
  0
LINE
  5
252
330
1F
100
AcDbEntity
  8
D-5
  6
Continuous
 62
     7
370
     9
100
AcDbLine
 10
1095.825157884748
 20
108.4996024216008
 30
0.0
 11
1080.606122159529
 21
128.3334359288818
 31
0.0
  0
TEXT
  5
253
330
1F
100
AcDbEntity
  8
D-4
  6
Continuous
 62
     2
370
   211
100
AcDbText
 10
1490.485980005964
 20
-197.1627225552243
 30
0.0
 40
30.47999999999989
  1
6.5
 50
90.0
 41
1.083333333333337
  7
ＭＳ ゴシック
100
AcDbText
  0
LWPOLYLINE
  5
254
330
1F
100
AcDbEntity
  8
D-4
  6
Continuous
 62
     7
370
     9
100
AcDbPolyline
 90
        4
 70
     1
 43
2.0
 10
1503.040477252105
 20
-106.5258155945315
 42
0.4142135623731
 10
1502.040477252105
 20
-105.5258155945315
 42
0.4142135623731
 10
1501.040477252105
 20
-106.5258155945315
 42
0.4142135623731
 10
1502.040477252105
 20
-107.5258155945315
 42
0.4142135623731
  0
LWPOLYLINE
  5
255
330
1F
100
AcDbEntity
  8
D-4
  6
Continuous
 62
     7
370
     9
100
AcDbPolyline
 90
        4
 70
     1
 43
2.0
 10
1503.040477252105
 20
-126.5258155945401
 42
0.4142135623731
 10
1502.040477252105
 20
-125.5258155945401
 42
0.4142135623731
 10
1501.040477252105
 20
-126.5258155945401
 42
0.4142135623731
 10
1502.040477252105
 20
-127.5258155945401
 42
0.4142135623731
  0
LINE
  5
256
330
1F
100
AcDbEntity
  8
D-4
  6
Continuous
 62
     7
370
     9
100
AcDbLine
 10
1505.040477252106
 20
-106.5258155945315
 30
0.0
 11
1405.989395159584
 21
-106.5258155945315
 31
0.0
  0
LINE
  5
257
330
1F
100
AcDbEntity
  8
D-4
  6
Continuous
 62
     7
370
     9
100
AcDbLine
 10
1505.040477252106
 20
-126.5258155945401
 30
0.0
 11
1428.109654026404
 21
-126.5258155945401
 31
0.0
  0
LINE
  5
258
330
1F
100
AcDbEntity
  8
D-4
  6
Continuous
 62
     7
370
     9
100
AcDbLine
 10
1502.040477252105
 20
-106.5258155945315
 30
0.0
 11
1502.040477252105
 21
-201.7584672360755
 31
0.0
  0
LINE
  5
259
330
1F
100
AcDbEntity
  8
D-6
  6
Continuous
 62
     6
370
     5
100
AcDbLine
 10
1388.16511090096
 20
-126.5257935998869
 30
0.0
 11
1663.934490644261
 21
-126.5257935998869
 31
0.0
  0
ARC
  5
25A
330
1F
100
AcDbEntity
  8
D-0
  6
Continuous
 62
     4
370
     9
100
AcDbCircle
 10
1137.564103362
 20
-125.8591489278734
 30
0.0
 40
0.6666666666666667
100
AcDbArc
 50
158.7939768869962
 51
270.0
  0
LINE
  5
25B
330
1F
100
AcDbEntity
  8
D-0
  6
JWW_PHANTOM1
 62
     4
370
     9
100
AcDbLine
 10
1157.360663662931
 20
-109.8591489278641
 30
0.0
 11
1141.525240686674
 21
-117.9346480305742
 31
0.0
  0
LINE
  5
25C
330
1F
100
AcDbEntity
  8
D-0
  6
JWW_PHANTOM1
 62
     4
370
     9
100
AcDbLine
 10
1141.525240686674
 20
-117.9346480305742
 30
0.0
 11
1136.942579508034
 21
-125.6180005432725
 31
0.0
  0
LINE
  5
25D
330
1F
100
AcDbEntity
  8
D-0
  6
JWW_PHANTOM1
 62
     4
370
     9
100
AcDbLine
 10
1137.564103362
 20
-126.5258155945401
 30
0.0
 11
1390.274172432089
 21
-126.5258155945401
 31
0.0
  0
ARC
  5
25E
330
1F
100
AcDbEntity
  8
D-0
  6
JWW_PHANTOM1
 62
     4
370
     9
100
AcDbCircle
 10
1390.274172432089
 20
-125.8591489278734
 30
0.0
 40
0.6666666666666667
100
AcDbArc
 50
270.0
 51
21.20602311300377
  0
LINE
  5
25F
330
1F
100
AcDbEntity
  8
D-0
  6
JWW_PHANTOM1
 62
     4
370
     9
100
AcDbLine
 10
1390.895696286054
 20
-125.6180005432719
 30
0.0
 11
1387.914590999532
 21
-117.9346480305736
 31
0.0
  0
LINE
  5
260
330
1F
100
AcDbEntity
  8
D-0
  6
JWW_PHANTOM1
 62
     4
370
     9
100
AcDbLine
 10
1387.914590999532
 20
-117.9346480305736
 30
0.0
 11
1368.153913565269
 21
-106.5258155945315
 31
0.0
  0
LINE
  5
261
330
1F
100
AcDbEntity
  8
D-0
  6
JWW_PHANTOM1
 62
     4
370
     9
100
AcDbLine
 10
1163.897069968329
 20
-106.5258155945315
 30
0.0
 11
1157.360663662931
 21
-109.8591489278641
 31
0.0
  0
LINE
  5
262
330
1F
100
AcDbEntity
  8
D-0
  6
JWW_PHANTOM1
 62
     4
370
     9
100
AcDbLine
 10
1163.897069968329
 20
-106.5258155945315
 30
0.0
 11
1368.153913565269
 21
-106.5258155945315
 31
0.0
  0
ARC
  5
263
330
1F
100
AcDbEntity
  8
D-0
  6
JWW_PHANTOM1
 62
     4
370
     9
100
AcDbCircle
 10
1108.926539832831
 20
-126.5258155949635
 30
0.0
 40
281.3530479220074
100
AcDbArc
 50
0.0000044791591712
 51
87.2397372696237
  0
LINE
  5
264
330
1F
100
AcDbEntity
  8
D-0
  6
Continuous
 62
     4
370
     9
100
AcDbLine
 10
1138.916265275789
 20
-126.5258155945401
 30
0.0
 11
1388.16511090096
 21
-126.5258155945401
 31
0.0
  0
LINE
  5
265
330
1F
100
AcDbEntity
  8
D-6
  6
JWW_PHANTOM1
 62
     2
370
     9
100
AcDbLine
 10
1075.218943166201
 20
-110.5258155945307
 30
0.0
 11
1156.053382401851
 21
-110.5258155945307
 31
0.0
  0
LINE
  5
266
330
1F
100
AcDbEntity
  8
D-6
  6
JWW_PHANTOM1
 62
     2
370
     9
100
AcDbLine
 10
1075.218943166201
 20
-110.5258155945307
 30
0.0
 11
1075.218943166201
 21
-118.8591269332204
 31
0.0
  0
LINE
  5
267
330
1F
100
AcDbEntity
  8
D-9
  6
JWW_PHANTOM1
 62
     7
370
     9
100
AcDbLine
 10
1075.218943166201
 20
-115.8591489278729
 30
0.0
 11
1145.595132313196
 21
-115.8591489278729
 31
0.0
  0
TEXT
  5
268
330
1F
100
AcDbEntity
  8
C-5
  6
Continuous
 62
     7
370
     9
100
AcDbText
 10
-369.9548960607035
 20
-634.1543112524188
 30
0.0
 40
22.85999999999978
  1
蓋：FCD500　溶融亜鉛めっき
 41
1.153846153846165
  7
ＭＳ ゴシック
100
AcDbText
  0
LINE
  5
269
330
1F
100
AcDbEntity
  8
C-5
  6
Continuous
 62
     7
370
     9
100
AcDbLine
 10
81.65879215485602
 20
-588.4584445120583
 30
0.0
 11
-373.5194628609383
 21
-588.4584445120583
 31
0.0
  0
TEXT
  5
26A
330
1F
100
AcDbEntity
  8
C-5
  6
Continuous
 62
     2
370
     9
100
AcDbText
 10
-438.7782017252822
 20
-115.6612680172943
 30
0.0
 40
30.47999999999989
  1
▽G.L.
 41
1.104166666666671
  7
ＭＳ ゴシック
100
AcDbText
  0
TEXT
  5
26B
330
1F
100
AcDbEntity
  8
C-5
  6
Continuous
 62
     2
370
     9
100
AcDbText
 10
416.2313918073843
 20
-115.6612680172949
 30
0.0
 40
30.47999999999989
  1
▽G.L.
 41
1.104166666666671
  7
ＭＳ ゴシック
100
AcDbText
  0
TEXT
  5
26C
330
1F
100
AcDbEntity
  8
D-4
  6
Continuous
 62
     2
370
     9
100
AcDbText
 10
1535.784334408064
 20
-114.5490934543701
 30
0.0
 40
30.48000000000005
  1
▽G.L.
 41
1.104166666666665
  7
ＭＳ ゴシック
100
AcDbText
  0
TEXT
  5
26D
330
1F
100
AcDbEntity
  8
D-5
  6
Continuous
 62
     2
370
     9
100
AcDbText
 10
951.4164302356698
 20
-457.4215693627783
 30
0.0
 40
30.48
  1
埋設管蓋部詳細図　Ｓ＝１：３
 41
1.116071428571428
  7
ＭＳ ゴシック
100
AcDbText
  0
LINE
  5
26E
330
1F
100
AcDbEntity
  8
D-5
  6
Continuous
 62
     7
370
     9
100
AcDbLine
 10
933.4164302356698
 20
-408.0615693627783
 30
0.0
 11
1594.41643023567
 21
-408.0615693627783
 31
0.0
  0
LINE
  5
26F
330
1F
100
AcDbEntity
  8
D-5
  6
Continuous
 62
     7
370
     9
100
AcDbLine
 10
933.4164302356698
 20
-478.0615693627783
 30
0.0
 11
1594.41643023567
 21
-478.0615693627783
 31
0.0
  0
LINE
  5
270
330
1F
100
AcDbEntity
  8
D-5
  6
Continuous
 62
     7
370
     9
100
AcDbLine
 10
933.4164302356698
 20
-408.0615693627783
 30
0.0
 11
933.4164302356698
 21
-478.0615693627783
 31
0.0
  0
LINE
  5
271
330
1F
100
AcDbEntity
  8
D-5
  6
Continuous
 62
     7
370
     9
100
AcDbLine
 10
1594.41643023567
 20
-408.0615693627783
 30
0.0
 11
1594.41643023567
 21
-478.0615693627783
 31
0.0
  0
TEXT
  5
272
330
1F
100
AcDbEntity
  8
F-5ﾚｲﾔ
  6
Continuous
 62
     2
370
     9
100
AcDbText
 10
1192.638704563885
 20
-1052.200916680239
 30
0.0
 40
30.48
  1
本体色は、黄または白です。
 41
1.115384615384615
  7
ＭＳ ゴシック
100
AcDbText
  0
TEXT
  5
273
330
1F
100
AcDbEntity
  8
F-5ﾚｲﾔ
  6
Continuous
 62
     2
370
     9
100
AcDbText
 10
1192.638704563885
 20
-1111.671894792166
 30
0.0
 40
30.48
  1
ご注文の際にご指示ください。
 41
1.116071428571428
  7
ＭＳ ゴシック
100
AcDbText
  0
TEXT
  5
274
330
1F
100
AcDbEntity
  8
F-5ﾚｲﾔ
  6
Continuous
 62
     2
370
     0
100
AcDbText
 10
1364.844234791176
 20
-993.3742512140831
 30
0.0
 40
30.48000000000003
  1
支柱質量：9.5kg／本
 41
1.111842105263157
  7
ＭＳ ゴシック
100
AcDbText
  0
TEXT
  5
275
330
1F
100
AcDbEntity
  8
F-Fﾚｲﾔ
  6
Continuous
 62
     2
370
     9
100
AcDbText
 10
-922.5004123997043
 20
-1361.311405662464
 30
0.0
 40
26.67000000000001
  1
車止め　スチール製　アーチ型横バー付　脱着式　鋳鉄製蓋　ＹＢＷ６Ｌ７－ＨＤ
 41
0.9999999999999998
  7
ＭＳ ゴシック
100
AcDbText
  0
ENDSEC
  0
SECTION
  2
OBJECTS
  0
DICTIONARY
  5
C
330
0
100
AcDbDictionary
281
     1
  3
ACAD_DETAILVIEWSTYLE
350
2BB
  3
ACAD_GROUP
350
D
  3
ACAD_LAYOUT
350
1A
  3
ACAD_MATERIAL
350
43
  3
ACAD_MLEADERSTYLE
350
6B
  3
ACAD_MLINESTYLE
350
17
  3
ACAD_PLOTSETTINGS
350
19
  3
ACAD_PLOTSTYLENAME
350
E
  3
ACAD_SCALELIST
350
47
  3
ACAD_SECTIONVIEWSTYLE
350
2BC
  3
ACAD_TABLESTYLE
350
69
  3
ACAD_VISUALSTYLE
350
2A
  3
ACDB_RECOMPOSE_DATA
350
2B8
  3
AcDbVariableDictionary
350
278
  0
DICTIONARY
  5
276
330
8
100
AcDbDictionary
280
     1
281
     1
  3
ACAD_XREC_ROUNDTRIP
360
277
  0
DICTIONARY
  5
2BB
102
{ACAD_REACTORS
330
C
102
}
330
C
100
AcDbDictionary
281
     1
  0
DICTIONARY
  5
D
102
{ACAD_REACTORS
330
C
102
}
330
C
100
AcDbDictionary
281
     1
  0
DICTIONARY
  5
1A
102
{ACAD_REACTORS
330
C
102
}
330
C
100
AcDbDictionary
281
     1
  3
Layout1
350
1E
  3
Layout2
350
26
  3
Model
350
22
  0
DICTIONARY
  5
43
102
{ACAD_REACTORS
330
C
102
}
330
C
100
AcDbDictionary
281
     1
  3
ByBlock
350
45
  3
ByLayer
350
44
  3
Global
350
46
  0
DICTIONARY
  5
6B
102
{ACAD_REACTORS
330
C
102
}
330
C
100
AcDbDictionary
281
     1
  3
Standard
350
6C
  0
DICTIONARY
  5
17
102
{ACAD_REACTORS
330
C
102
}
330
C
100
AcDbDictionary
281
     1
  3
Standard
350
18
  0
DICTIONARY
  5
19
102
{ACAD_REACTORS
330
C
102
}
330
C
100
AcDbDictionary
281
     1
  0
ACDBDICTIONARYWDFLT
  5
E
102
{ACAD_REACTORS
330
C
102
}
330
C
100
AcDbDictionary
281
     1
  3
Normal
350
F
100
AcDbDictionaryWithDefault
340
F
  0
DICTIONARY
  5
47
102
{ACAD_REACTORS
330
C
102
}
330
C
100
AcDbDictionary
281
     1
  3
A0
350
48
  3
A1
350
49
  3
A2
350
4A
  3
A3
350
4B
  3
A4
350
4C
  3
A5
350
4D
  3
A6
350
4E
  3
A7
350
4F
  3
A8
350
50
  3
A9
350
51
  3
B0
350
52
  3
B1
350
53
  3
B2
350
54
  3
B3
350
55
  3
B4
350
56
  3
B5
350
57
  3
B6
350
58
  3
B7
350
59
  3
B8
350
5A
  3
B9
350
5B
  3
C0
350
5C
  3
C1
350
5D
  3
C2
350
5E
  3
C3
350
5F
  3
C4
350
60
  3
C5
350
61
  3
C6
350
62
  3
C7
350
63
  3
C8
350
64
  3
C9
350
65
  3
D0
350
66
  3
D1
350
67
  3
D2
350
68
  0
DICTIONARY
  5
2BC
102
{ACAD_REACTORS
330
C
102
}
330
C
100
AcDbDictionary
281
     1
  0
DICTIONARY
  5
69
102
{ACAD_REACTORS
330
C
102
}
330
C
100
AcDbDictionary
281
     1
  3
Standard
350
6A
  0
DICTIONARY
  5
2A
102
{ACAD_REACTORS
330
C
102
}
330
C
100
AcDbDictionary
281
     1
  3
2dWireframe
350
2F
  3
Basic
350
32
  3
Brighten
350
36
  3
ColorChange
350
3A
  3
Conceptual
350
34
  3
Dim
350
35
  3
EdgeColorOff
350
3D
  3
Facepattern
350
39
  3
Flat
350
2B
  3
FlatWithEdges
350
2C
  3
Gouraud
350
2D
  3
GouraudWithEdges
350
2E
  3
Hidden
350
31
  3
JitterOff
350
3B
  3
Linepattern
350
38
  3
OverhangOff
350
3C
  3
Realistic
350
33
  3
Shaded
350
42
  3
Shaded with edges
350
41
  3
Shades of Gray
350
3E
  3
Sketchy
350
3F
  3
Thicken
350
37
  3
Wireframe
350
30
  3
X-Ray
350
40
  0
XRECORD
  5
2B8
102
{ACAD_REACTORS
330
C
102
}
330
C
100
AcDbXrecord
280
     1
 90
        1
330
6A
  0
DICTIONARY
  5
278
102
{ACAD_REACTORS
330
C
102
}
330
C
100
AcDbDictionary
281
     1
  3
CANNOSCALE
350
279
  3
CENTEREXE
350
2BD
  3
CENTERLTYPEFILE
350
2BE
  3
CMLEADERSTYLE
350
2BA
  3
CTABLESTYLE
350
2B9
  3
MSLTSCALE
350
27A
  3
XCLIPFRAME
350
27B
  0
XRECORD
  5
277
102
{ACAD_REACTORS
330
276
102
}
330
276
100
AcDbXrecord
280
     1
102
VTR_0.000_0.000_1.000_1.000_VISUALSTYLE
340
2F
102
VTR_0.000_0.000_1.000_1.000_GRIDDISPLAY
 70
     3
102
VTR_0.000_0.000_1.000_1.000_GRIDMAJOR
 70
     5
102
VTR_0.000_0.000_1.000_1.000_DEFAULTLIGHTING
280
     1
102
VTR_0.000_0.000_1.000_1.000_DEFAULTLIGHTINGTYPE
 70
     1
102
VTR_0.000_0.000_1.000_1.000_BRIGHTNESS
141
0.0
102
VTR_0.000_0.000_1.000_1.000_CONTRAST
142
0.0
  0
LAYOUT
  5
1E
102
{ACAD_REACTORS
330
1A
102
}
330
1A
100
AcDbPlotSettings
  1

  2
none_device
  4

  6

 40
0.0
 41
0.0
 42
0.0
 43
0.0
 44
0.0
 45
0.0
 46
0.0
 47
0.0
 48
0.0
 49
0.0
140
0.0
141
0.0
142
1.0
143
1.0
 70
   688
 72
     1
 73
     0
 74
     5
  7

 75
    16
 76
     0
 77
     5
 78
   300
147
1.0
148
0.0
149
0.0
100
AcDbLayout
  1
Layout1
 70
     1
 71
     1
 10
0.0
 20
0.0
 11
420.0
 21
297.0
 12
0.0
 22
0.0
 32
0.0
 14
1.000000000000000E+20
 24
1.000000000000000E+20
 34
1.000000000000000E+20
 15
-1.000000000000000E+20
 25
-1.000000000000000E+20
 35
-1.000000000000000E+20
146
0.0
 13
0.0
 23
0.0
 33
0.0
 16
1.0
 26
0.0
 36
0.0
 17
0.0
 27
1.0
 37
0.0
 76
     0
330
1B
  0
LAYOUT
  5
26
102
{ACAD_REACTORS
330
1A
102
}
330
1A
100
AcDbPlotSettings
  1

  2
none_device
  4

  6

 40
0.0
 41
0.0
 42
0.0
 43
0.0
 44
0.0
 45
0.0
 46
0.0
 47
0.0
 48
0.0
 49
0.0
140
0.0
141
0.0
142
1.0
143
1.0
 70
   688
 72
     1
 73
     0
 74
     5
  7

 75
    16
 76
     0
 77
     5
 78
   300
147
1.0
148
0.0
149
0.0
100
AcDbLayout
  1
Layout2
 70
     1
 71
     2
 10
0.0
 20
0.0
 11
0.0
 21
0.0
 12
0.0
 22
0.0
 32
0.0
 14
0.0
 24
0.0
 34
0.0
 15
0.0
 25
0.0
 35
0.0
146
0.0
 13
0.0
 23
0.0
 33
0.0
 16
1.0
 26
0.0
 36
0.0
 17
0.0
 27
1.0
 37
0.0
 76
     0
330
23
  0
LAYOUT
  5
22
102
{ACAD_REACTORS
330
1A
102
}
330
1A
100
AcDbPlotSettings
  1

  2
none_device
  4
Letter_(8.50_x_11.00_Inches)
  6

 40
6.35
 41
6.35
 42
6.35000508
 43
6.35000508
 44
215.9
 45
279.4
 46
0.0
 47
0.0
 48
0.0
 49
0.0
140
0.0
141
0.0
142
1.0
143
1.0
 70
  1712
 72
     1
 73
     0
 74
     0
  7

 75
     0
 76
     0
 77
     5
 78
   300
147
1.0
148
0.0
149
0.0
100
AcDbLayout
  1
Model
 70
     1
 71
     0
 10
-2100.0
 20
-1485.0
 11
2100.0
 21
1485.0
 12
0.0
 22
0.0
 32
0.0
 14
-2100.0
 24
-1485.0
 34
0.0
 15
2100.0
 25
1485.0
 35
0.0
146
0.0
 13
0.0
 23
0.0
 33
0.0
 16
1.0
 26
0.0
 36
0.0
 17
0.0
 27
1.0
 37
0.0
 76
     0
330
1F
331
29
  0
MATERIAL
  5
45
102
{ACAD_REACTORS
330
43
102
}
102
{ACAD_XDICTIONARY
360
2AE
102
}
330
43
100
AcDbMaterial
  1
ByBlock
  0
MATERIAL
  5
44
102
{ACAD_REACTORS
330
43
102
}
102
{ACAD_XDICTIONARY
360
2AC
102
}
330
43
100
AcDbMaterial
  1
ByLayer
  0
MATERIAL
  5
46
102
{ACAD_REACTORS
330
43
102
}
102
{ACAD_XDICTIONARY
360
2B0
102
}
330
43
100
AcDbMaterial
  1
Global
  0
MLEADERSTYLE
  5
6C
102
{ACAD_REACTORS
330
6B
102
}
102
{ACAD_XDICTIONARY
360
2B6
102
}
330
6B
100
AcDbMLeaderStyle
170
     2
171
     1
172
     0
 90
        2
 40
0.0
 41
0.0
173
     1
 91
-1056964608
340
14
 92
       -2
290
     1
 42
2.0
291
     1
 43
8.0
  3
Standard
341
0
 44
4.0
300

342
11
174
     1
178
     6
175
     1
176
     0
 93
-1056964608
 45
4.0
292
     0
297
     0
 46
4.0
343
0
 94
-1056964608
 47
1.0
 49
1.0
140
1.0
293
     1
141
0.0
294
     1
177
     0
142
1.0
295
     0
296
     0
143
3.75
1001
ACAD_MLEADERVER
1070
     2
  0
MLINESTYLE
  5
18
102
{ACAD_REACTORS
330
17
102
}
330
17
100
AcDbMlineStyle
  2
Standard
 70
     0
  3

 62
   256
 51
90.0
 52
90.0
 71
     2
 49
0.5
 62
   256
  6
BYLAYER
 49
-0.5
 62
   256
  6
BYLAYER
  0
ACDBPLACEHOLDER
  5
F
102
{ACAD_REACTORS
330
E
102
}
330
E
  0
SCALE
  5
48
102
{ACAD_REACTORS
330
47
102
}
330
47
100
AcDbScale
 70
     0
300
1:1
140
1.0
141
1.0
290
     1
  0
SCALE
  5
49
102
{ACAD_REACTORS
330
47
102
}
330
47
100
AcDbScale
 70
     0
300
1:2
140
1.0
141
2.0
290
     0
  0
SCALE
  5
4A
102
{ACAD_REACTORS
330
47
102
}
330
47
100
AcDbScale
 70
     0
300
1:4
140
1.0
141
4.0
290
     0
  0
SCALE
  5
4B
102
{ACAD_REACTORS
330
47
102
}
330
47
100
AcDbScale
 70
     0
300
1:5
140
1.0
141
5.0
290
     0
  0
SCALE
  5
4C
102
{ACAD_REACTORS
330
47
102
}
330
47
100
AcDbScale
 70
     0
300
1:8
140
1.0
141
8.0
290
     0
  0
SCALE
  5
4D
102
{ACAD_REACTORS
330
47
102
}
330
47
100
AcDbScale
 70
     0
300
1:10
140
1.0
141
10.0
290
     0
  0
SCALE
  5
4E
102
{ACAD_REACTORS
330
47
102
}
330
47
100
AcDbScale
 70
     0
300
1:16
140
1.0
141
16.0
290
     0
  0
SCALE
  5
4F
102
{ACAD_REACTORS
330
47
102
}
330
47
100
AcDbScale
 70
     0
300
1:20
140
1.0
141
20.0
290
     0
  0
SCALE
  5
50
102
{ACAD_REACTORS
330
47
102
}
330
47
100
AcDbScale
 70
     0
300
1:30
140
1.0
141
30.0
290
     0
  0
SCALE
  5
51
102
{ACAD_REACTORS
330
47
102
}
330
47
100
AcDbScale
 70
     0
300
1:40
140
1.0
141
40.0
290
     0
  0
SCALE
  5
52
102
{ACAD_REACTORS
330
47
102
}
330
47
100
AcDbScale
 70
     0
300
1:50
140
1.0
141
50.0
290
     0
  0
SCALE
  5
53
102
{ACAD_REACTORS
330
47
102
}
330
47
100
AcDbScale
 70
     0
300
1:100
140
1.0
141
100.0
290
     0
  0
SCALE
  5
54
102
{ACAD_REACTORS
330
47
102
}
330
47
100
AcDbScale
 70
     0
300
2:1
140
2.0
141
1.0
290
     0
  0
SCALE
  5
55
102
{ACAD_REACTORS
330
47
102
}
330
47
100
AcDbScale
 70
     0
300
4:1
140
4.0
141
1.0
290
     0
  0
SCALE
  5
56
102
{ACAD_REACTORS
330
47
102
}
330
47
100
AcDbScale
 70
     0
300
8:1
140
8.0
141
1.0
290
     0
  0
SCALE
  5
57
102
{ACAD_REACTORS
330
47
102
}
330
47
100
AcDbScale
 70
     0
300
10:1
140
10.0
141
1.0
290
     0
  0
SCALE
  5
58
102
{ACAD_REACTORS
330
47
102
}
330
47
100
AcDbScale
 70
     0
300
100:1
140
100.0
141
1.0
290
     0
  0
SCALE
  5
59
102
{ACAD_REACTORS
330
47
102
}
330
47
100
AcDbScale
 70
     0
300
1/128" = 1'-0"
140
0.0078125
141
12.0
290
     0
  0
SCALE
  5
5A
102
{ACAD_REACTORS
330
47
102
}
330
47
100
AcDbScale
 70
     0
300
1/64" = 1'-0"
140
0.015625
141
12.0
290
     0
  0
SCALE
  5
5B
102
{ACAD_REACTORS
330
47
102
}
330
47
100
AcDbScale
 70
     0
300
1/32" = 1'-0"
140
0.03125
141
12.0
290
     0
  0
SCALE
  5
5C
102
{ACAD_REACTORS
330
47
102
}
330
47
100
AcDbScale
 70
     0
300
1/16" = 1'-0"
140
0.0625
141
12.0
290
     0
  0
SCALE
  5
5D
102
{ACAD_REACTORS
330
47
102
}
330
47
100
AcDbScale
 70
     0
300
3/32" = 1'-0"
140
0.09375
141
12.0
290
     0
  0
SCALE
  5
5E
102
{ACAD_REACTORS
330
47
102
}
330
47
100
AcDbScale
 70
     0
300
1/8" = 1'-0"
140
0.125
141
12.0
290
     0
  0
SCALE
  5
5F
102
{ACAD_REACTORS
330
47
102
}
330
47
100
AcDbScale
 70
     0
300
3/16" = 1'-0"
140
0.1875
141
12.0
290
     0
  0
SCALE
  5
60
102
{ACAD_REACTORS
330
47
102
}
330
47
100
AcDbScale
 70
     0
300
1/4" = 1'-0"
140
0.25
141
12.0
290
     0
  0
SCALE
  5
61
102
{ACAD_REACTORS
330
47
102
}
330
47
100
AcDbScale
 70
     0
300
3/8" = 1'-0"
140
0.375
141
12.0
290
     0
  0
SCALE
  5
62
102
{ACAD_REACTORS
330
47
102
}
330
47
100
AcDbScale
 70
     0
300
1/2" = 1'-0"
140
0.5
141
12.0
290
     0
  0
SCALE
  5
63
102
{ACAD_REACTORS
330
47
102
}
330
47
100
AcDbScale
 70
     0
300
3/4" = 1'-0"
140
0.75
141
12.0
290
     0
  0
SCALE
  5
64
102
{ACAD_REACTORS
330
47
102
}
330
47
100
AcDbScale
 70
     0
300
1" = 1'-0"
140
1.0
141
12.0
290
     0
  0
SCALE
  5
65
102
{ACAD_REACTORS
330
47
102
}
330
47
100
AcDbScale
 70
     0
300
1-1/2" = 1'-0"
140
1.5
141
12.0
290
     0
  0
SCALE
  5
66
102
{ACAD_REACTORS
330
47
102
}
330
47
100
AcDbScale
 70
     0
300
3" = 1'-0"
140
3.0
141
12.0
290
     0
  0
SCALE
  5
67
102
{ACAD_REACTORS
330
47
102
}
330
47
100
AcDbScale
 70
     0
300
6" = 1'-0"
140
6.0
141
12.0
290
     0
  0
SCALE
  5
68
102
{ACAD_REACTORS
330
47
102
}
330
47
100
AcDbScale
 70
     0
300
1'-0" = 1'-0"
140
12.0
141
12.0
290
     0
  0
TABLESTYLE
  5
6A
102
{ACAD_REACTORS
330
69
102
}
102
{ACAD_XDICTIONARY
360
2B2
102
}
330
69
100
AcDbTableStyle
  3
Standard
 70
     0
 71
     0
 40
0.06
 41
0.06
280
     0
281
     0
  7
Standard
140
4.5
170
     2
 62
     0
 63
   257
283
     0
274
    -2
284
     1
 64
     0
275
    -2
285
     1
 65
     0
276
    -2
286
     1
 66
     0
277
    -2
287
     1
 67
     0
278
    -2
288
     1
 68
     0
279
    -2
289
     1
 69
     0
  7
Standard
140
6.0
170
     5
 62
     0
 63
   257
283
     0
274
    -2
284
     1
 64
     0
275
    -2
285
     1
 65
     0
276
    -2
286
     1
 66
     0
277
    -2
287
     1
 67
     0
278
    -2
288
     1
 68
     0
279
    -2
289
     1
 69
     0
  7
Standard
140
4.5
170
     5
 62
     0
 63
   257
283
     0
274
    -2
284
     1
 64
     0
275
    -2
285
     1
 65
     0
276
    -2
286
     1
 66
     0
277
    -2
287
     1
 67
     0
278
    -2
288
     1
 68
     0
279
    -2
289
     1
 69
     0
  0
VISUALSTYLE
  5
2F
102
{ACAD_REACTORS
330
2A
102
}
102
{ACAD_XDICTIONARY
360
284
102
}
330
2A
100
AcDbVisualStyle
  2
2dWireframe
 70
     4
 71
     0
 72
     2
 73
     0
 90
        0
 40
0.6
 41
30.0
 62
     5
 63
     7
421
 16777215
 74
     1
 91
        4
 64
     7
 65
   257
 75
     1
175
     1
 42
1.0
 92
        0
 66
   257
 43
1.0
 76
     1
 77
     6
 78
     2
 67
     7
 79
     5
170
     0
171
     0
290
     0
174
     0
 93
        1
 44
0.0
173
     0
291
     0
 45
0.0
1001
ACAD
1000
AcDbSavedByObjectVersion
1070
     0
  0
VISUALSTYLE
  5
32
102
{ACAD_REACTORS
330
2A
102
}
102
{ACAD_XDICTIONARY
360
28A
102
}
330
2A
100
AcDbVisualStyle
  2
Basic
 70
     7
 71
     1
 72
     0
 73
     1
 90
        0
 40
0.6
 41
30.0
 62
     5
 63
     7
421
 16777215
 74
     0
 91
        4
 64
     7
 65
   257
 75
     1
175
     1
 42
1.0
 92
        8
 66
     7
 43
1.0
 76
     1
 77
     6
 78
     2
 67
     7
 79
     5
170
     0
171
     0
290
     0
174
     0
 93
        1
 44
0.0
173
     0
291
     1
 45
0.0
1001
ACAD
1000
AcDbSavedByObjectVersion
1070
     0
  0
VISUALSTYLE
  5
36
102
{ACAD_REACTORS
330
2A
102
}
102
{ACAD_XDICTIONARY
360
292
102
}
330
2A
100
AcDbVisualStyle
  2
Brighten
 70
    12
 71
     2
 72
     2
 73
     0
 90
        0
 40
0.6
 41
30.0
 62
     5
 63
     7
421
 16777215
 74
     1
 91
        4
 64
     7
 65
   257
 75
     1
175
     1
 42
1.0
 92
        8
 66
     7
 43
1.0
 76
     1
 77
     6
 78
     2
 67
     7
 79
     5
170
     0
171
     0
290
     0
174
     0
 93
        1
 44
50.0
173
     0
291
     1
 45
0.0
1001
ACAD
1000
AcDbSavedByObjectVersion
1070
     0
  0
VISUALSTYLE
  5
3A
102
{ACAD_REACTORS
330
2A
102
}
102
{ACAD_XDICTIONARY
360
29A
102
}
330
2A
100
AcDbVisualStyle
  2
ColorChange
 70
    16
 71
     2
 72
     2
 73
     3
 90
        0
 40
0.6
 41
30.0
 62
     5
 63
     8
421
  8421504
 74
     1
 91
        4
 64
     7
 65
   257
 75
     1
175
     1
 42
1.0
 92
        8
 66
     8
424
  8421504
 43
1.0
 76
     1
 77
     6
 78
     2
 67
     7
 79
     5
170
     0
171
     0
290
     0
174
     0
 93
        1
 44
0.0
173
     0
291
     1
 45
0.0
1001
ACAD
1000
AcDbSavedByObjectVersion
1070
     0
  0
VISUALSTYLE
  5
34
102
{ACAD_REACTORS
330
2A
102
}
102
{ACAD_XDICTIONARY
360
28E
102
}
330
2A
100
AcDbVisualStyle
  2
Conceptual
 70
     9
 71
     3
 72
     2
 73
     0
 90
        0
 40
0.6
 41
30.0
 62
     5
 63
     7
421
 16777215
 74
     2
 91
        2
 64
     7
 65
   257
 75
     1
175
     1
 42
179.0
 92
        8
 66
     7
 43
1.0
 76
     1
 77
     6
 78
     2
 67
     7
 79
     3
170
     0
171
     0
290
     0
174
     0
 93
        1
 44
0.0
173
     0
291
     0
 45
0.0
1001
ACAD
1000
AcDbSavedByObjectVersion
1070
     0
  0
VISUALSTYLE
  5
35
102
{ACAD_REACTORS
330
2A
102
}
102
{ACAD_XDICTIONARY
360
290
102
}
330
2A
100
AcDbVisualStyle
  2
Dim
 70
    11
 71
     2
 72
     2
 73
     0
 90
        0
 40
0.6
 41
30.0
 62
     5
 63
     7
421
 16777215
 74
     1
 91
        4
 64
     7
 65
   257
 75
     1
175
     1
 42
1.0
 92
        8
 66
     7
 43
1.0
 76
     1
 77
     6
 78
     2
 67
     7
 79
     5
170
     0
171
     0
290
     0
174
     0
 93
        1
 44
-50.0
173
     0
291
     1
 45
0.0
1001
ACAD
1000
AcDbSavedByObjectVersion
1070
     0
  0
VISUALSTYLE
  5
3D
102
{ACAD_REACTORS
330
2A
102
}
102
{ACAD_XDICTIONARY
360
2A0
102
}
330
2A
100
AcDbVisualStyle
  2
EdgeColorOff
 70
    22
 71
     2
 72
     2
 73
     0
 90
        0
 40
0.6
 41
30.0
 62
     5
 63
     7
421
 16777215
 74
     1
 91
        4
 64
     7
 65
   257
 75
     1
175
     1
 42
1.0
 92
        8
 66
     7
 43
1.0
 76
     1
 77
     6
 78
     2
 67
     7
 79
     5
170
     0
171
     0
290
     0
174
     0
 93
        1
 44
0.0
173
     0
291
     1
 45
0.0
1001
ACAD
1000
AcDbSavedByObjectVersion
1070
     0
  0
VISUALSTYLE
  5
39
102
{ACAD_REACTORS
330
2A
102
}
102
{ACAD_XDICTIONARY
360
298
102
}
330
2A
100
AcDbVisualStyle
  2
Facepattern
 70
    15
 71
     2
 72
     2
 73
     0
 90
        0
 40
0.6
 41
30.0
 62
     5
 63
     7
421
 16777215
 74
     1
 91
        4
 64
     7
 65
   257
 75
     1
175
     1
 42
1.0
 92
        8
 66
     7
 43
1.0
 76
     1
 77
     6
 78
     2
 67
     7
 79
     5
170
     0
171
     0
290
     0
174
     0
 93
        1
 44
0.0
173
     0
291
     1
 45
0.0
1001
ACAD
1000
AcDbSavedByObjectVersion
1070
     0
  0
VISUALSTYLE
  5
2B
102
{ACAD_REACTORS
330
2A
102
}
102
{ACAD_XDICTIONARY
360
27C
102
}
330
2A
100
AcDbVisualStyle
  2
Flat
 70
     0
 71
     2
 72
     1
 73
     1
 90
        2
 40
0.6
 41
30.0
 62
     5
 63
     7
421
 16777215
 74
     0
 91
        0
 64
     7
 65
   257
 75
     1
175
     1
 42
1.0
 92
        8
 66
     7
 43
1.0
 76
     1
 77
     6
 78
     2
 67
     7
 79
     5
170
     0
171
     0
290
     0
174
     0
 93
       13
 44
0.0
173
     0
291
     1
 45
0.0
1001
ACAD
1000
AcDbSavedByObjectVersion
1070
     0
  0
VISUALSTYLE
  5
2C
102
{ACAD_REACTORS
330
2A
102
}
102
{ACAD_XDICTIONARY
360
27E
102
}
330
2A
100
AcDbVisualStyle
  2
FlatWithEdges
 70
     1
 71
     2
 72
     1
 73
     1
 90
        2
 40
0.6
 41
30.0
 62
     5
 63
     7
421
 16777215
 74
     1
 91
        0
 64
     7
 65
   257
 75
     1
175
     1
 42
1.0
 92
        0
 66
   257
 43
1.0
 76
     1
 77
     6
 78
     2
 67
     7
 79
     5
170
     0
171
     0
290
     0
174
     0
 93
       13
 44
0.0
173
     0
291
     1
 45
0.0
1001
ACAD
1000
AcDbSavedByObjectVersion
1070
     0
  0
VISUALSTYLE
  5
2D
102
{ACAD_REACTORS
330
2A
102
}
102
{ACAD_XDICTIONARY
360
280
102
}
330
2A
100
AcDbVisualStyle
  2
Gouraud
 70
     2
 71
     2
 72
     2
 73
     1
 90
        2
 40
0.6
 41
30.0
 62
     5
 63
     7
421
 16777215
 74
     0
 91
        0
 64
     7
 65
   257
 75
     1
175
     1
 42
1.0
 92
        0
 66
     7
 43
1.0
 76
     1
 77
     6
 78
     2
 67
     7
 79
     5
170
     0
171
     0
290
     0
174
     0
 93
       13
 44
0.0
173
     0
291
     1
 45
0.0
1001
ACAD
1000
AcDbSavedByObjectVersion
1070
     0
  0
VISUALSTYLE
  5
2E
102
{ACAD_REACTORS
330
2A
102
}
102
{ACAD_XDICTIONARY
360
282
102
}
330
2A
100
AcDbVisualStyle
  2
GouraudWithEdges
 70
     3
 71
     2
 72
     2
 73
     1
 90
        2
 40
0.6
 41
30.0
 62
     5
 63
     7
421
 16777215
 74
     1
 91
        0
 64
     7
 65
   257
 75
     1
175
     1
 42
1.0
 92
        0
 66
   257
 43
1.0
 76
     1
 77
     6
 78
     2
 67
     7
 79
     5
170
     0
171
     0
290
     0
174
     0
 93
       13
 44
0.0
173
     0
291
     1
 45
0.0
1001
ACAD
1000
AcDbSavedByObjectVersion
1070
     0
  0
VISUALSTYLE
  5
31
102
{ACAD_REACTORS
330
2A
102
}
102
{ACAD_XDICTIONARY
360
288
102
}
330
2A
100
AcDbVisualStyle
  2
Hidden
 70
     6
 71
     1
 72
     2
 73
     2
 90
        0
 40
0.6
 41
30.0
 62
     5
 63
     7
421
 16777215
 74
     2
 91
        2
 64
     7
 65
   257
 75
     2
175
     1
 42
40.0
 92
        0
 66
   257
 43
1.0
 76
     1
 77
     6
 78
     2
 67
     7
 79
     3
170
     0
171
     0
290
     0
174
     0
 93
        1
 44
0.0
173
     0
291
     0
 45
0.0
1001
ACAD
1000
AcDbSavedByObjectVersion
1070
     0
  0
VISUALSTYLE
  5
3B
102
{ACAD_REACTORS
330
2A
102
}
102
{ACAD_XDICTIONARY
360
29C
102
}
330
2A
100
AcDbVisualStyle
  2
JitterOff
 70
    20
 71
     2
 72
     2
 73
     0
 90
        0
 40
0.6
 41
30.0
 62
     5
 63
     7
421
 16777215
 74
     1
 91
        4
 64
     7
 65
   257
 75
     1
175
     1
 42
1.0
 92
       10
 66
     7
 43
1.0
 76
     1
 77
     6
 78
     2
 67
     7
 79
     5
170
     0
171
     0
290
     0
174
     0
 93
        1
 44
0.0
173
     0
291
     1
 45
0.0
1001
ACAD
1000
AcDbSavedByObjectVersion
1070
     0
  0
VISUALSTYLE
  5
38
102
{ACAD_REACTORS
330
2A
102
}
102
{ACAD_XDICTIONARY
360
296
102
}
330
2A
100
AcDbVisualStyle
  2
Linepattern
 70
    14
 71
     2
 72
     2
 73
     0
 90
        0
 40
0.6
 41
30.0
 62
     5
 63
     7
421
 16777215
 74
     1
 91
        4
 64
     7
 65
   257
 75
     7
175
     7
 42
1.0
 92
        8
 66
     7
 43
1.0
 76
     1
 77
     6
 78
     2
 67
     7
 79
     5
170
     0
171
     0
290
     0
174
     0
 93
        1
 44
0.0
173
     0
291
     1
 45
0.0
1001
ACAD
1000
AcDbSavedByObjectVersion
1070
     0
  0
VISUALSTYLE
  5
3C
102
{ACAD_REACTORS
330
2A
102
}
102
{ACAD_XDICTIONARY
360
29E
102
}
330
2A
100
AcDbVisualStyle
  2
OverhangOff
 70
    21
 71
     2
 72
     2
 73
     0
 90
        0
 40
0.6
 41
30.0
 62
     5
 63
     7
421
 16777215
 74
     1
 91
        4
 64
     7
 65
   257
 75
     1
175
     1
 42
1.0
 92
        9
 66
     7
 43
1.0
 76
     1
 77
     6
 78
     2
 67
     7
 79
     5
170
     0
171
     0
290
     0
174
     0
 93
        1
 44
0.0
173
     0
291
     1
 45
0.0
1001
ACAD
1000
AcDbSavedByObjectVersion
1070
     0
  0
VISUALSTYLE
  5
33
102
{ACAD_REACTORS
330
2A
102
}
102
{ACAD_XDICTIONARY
360
28C
102
}
330
2A
100
AcDbVisualStyle
  2
Realistic
 70
     8
 71
     2
 72
     3
 73
     0
 90
        2
 40
0.6
 41
30.0
 62
     5
 63
     7
421
 16777215
 74
     0
 91
        0
 64
     7
 65
   257
 75
     1
175
     1
 42
1.0
 92
        8
 66
   257
 43
1.0
 76
     1
 77
     6
 78
     2
 67
     7
 79
     3
170
     0
171
     0
290
     0
174
     0
 93
       13
 44
0.0
173
     0
291
     0
 45
0.0
1001
ACAD
1000
AcDbSavedByObjectVersion
1070
     0
  0
VISUALSTYLE
  5
42
102
{ACAD_REACTORS
330
2A
102
}
102
{ACAD_XDICTIONARY
360
2AA
102
}
330
2A
100
AcDbVisualStyle
  2
Shaded
 70
    27
 71
     2
 72
     2
 73
     1
 90
        2
 40
0.6
 41
30.0
 62
     5
 63
     7
421
 16777215
 74
     0
 91
        4
 64
     7
 65
   257
 75
     1
175
     1
 42
1.0
 92
        8
 66
   257
 43
1.0
 76
     1
 77
     6
 78
     2
 67
     8
425
  7895160
 79
     3
170
     0
171
     0
290
     0
174
     0
 93
        5
 44
0.0
173
     0
291
     0
 45
0.0
1001
ACAD
1000
AcDbSavedByObjectVersion
1070
     0
  0
VISUALSTYLE
  5
41
102
{ACAD_REACTORS
330
2A
102
}
102
{ACAD_XDICTIONARY
360
2A8
102
}
330
2A
100
AcDbVisualStyle
  2
Shaded with edges
 70
    26
 71
     2
 72
     2
 73
     1
 90
        2
 40
0.6
 41
30.0
 62
     5
 63
     7
421
 16777215
 74
     1
 91
       10
 64
     7
 65
   257
 75
     2
175
     1
 42
1.0
 92
        8
 66
   257
 43
1.0
 76
     1
 77
     6
 78
     2
 67
     7
 79
     3
170
     0
171
     0
290
     0
174
     0
 93
        5
 44
0.0
173
     0
291
     0
 45
0.0
1001
ACAD
1000
AcDbSavedByObjectVersion
1070
     0
  0
VISUALSTYLE
  5
3E
102
{ACAD_REACTORS
330
2A
102
}
102
{ACAD_XDICTIONARY
360
2A2
102
}
330
2A
100
AcDbVisualStyle
  2
Shades of Gray
 70
    23
 71
     2
 72
     2
 73
     3
 90
        0
 40
0.6
 41
30.0
 62
     5
 63
     7
421
 16777215
 74
     2
 91
        2
 64
     7
 65
     7
 75
     1
175
     1
 42
40.0
 92
        8
 66
     7
 43
1.0
 76
     1
 77
     6
 78
     2
 67
     7
 79
     3
170
     0
171
     0
290
     0
174
     0
 93
        1
 44
0.0
173
     0
291
     0
 45
0.0
1001
ACAD
1000
AcDbSavedByObjectVersion
1070
     0
  0
VISUALSTYLE
  5
3F
102
{ACAD_REACTORS
330
2A
102
}
102
{ACAD_XDICTIONARY
360
2A4
102
}
330
2A
100
AcDbVisualStyle
  2
Sketchy
 70
    24
 71
     1
 72
     2
 73
     2
 90
        0
 40
0.6
 41
30.0
 62
     5
 63
     7
421
 16777215
 74
     2
 91
        2
 64
     7
 65
     7
 75
     1
175
     1
 42
40.0
 92
       11
 66
     7
 43
1.0
 76
     1
 77
     6
 78
     2
 67
     7
 79
     6
170
     0
171
     0
290
     0
174
     0
 93
        1
 44
0.0
173
     0
291
     0
 45
0.0
1001
ACAD
1000
AcDbSavedByObjectVersion
1070
     0
  0
VISUALSTYLE
  5
37
102
{ACAD_REACTORS
330
2A
102
}
102
{ACAD_XDICTIONARY
360
294
102
}
330
2A
100
AcDbVisualStyle
  2
Thicken
 70
    13
 71
     2
 72
     2
 73
     0
 90
        0
 40
0.6
 41
30.0
 62
     5
 63
     7
421
 16777215
 74
     1
 91
        4
 64
     7
 65
   257
 75
     1
175
     1
 42
1.0
 92
       12
 66
     7
 43
1.0
 76
     1
 77
     6
 78
     2
 67
     7
 79
     5
170
     0
171
     0
290
     0
174
     0
 93
        1
 44
0.0
173
     0
291
     1
 45
0.0
1001
ACAD
1000
AcDbSavedByObjectVersion
1070
     0
  0
VISUALSTYLE
  5
30
102
{ACAD_REACTORS
330
2A
102
}
102
{ACAD_XDICTIONARY
360
286
102
}
330
2A
100
AcDbVisualStyle
  2
Wireframe
 70
     5
 71
     0
 72
     2
 73
     0
 90
        0
 40
0.6
 41
30.0
 62
     5
 63
     7
421
 16777215
 74
     1
 91
        4
 64
     7
 65
   257
 75
     1
175
     1
 42
1.0
 92
        0
 66
   257
 43
1.0
 76
     1
 77
     6
 78
     2
 67
     7
 79
     3
170
     0
171
     0
290
     0
174
     0
 93
        1
 44
0.0
173
     0
291
     0
 45
0.0
1001
ACAD
1000
AcDbSavedByObjectVersion
1070
     0
  0
VISUALSTYLE
  5
40
102
{ACAD_REACTORS
330
2A
102
}
102
{ACAD_XDICTIONARY
360
2A6
102
}
330
2A
100
AcDbVisualStyle
  2
X-Ray
 70
    25
 71
     2
 72
     2
 73
     1
 90
        1
 40
0.5
 41
30.0
 62
     5
 63
     7
421
 16777215
 74
     1
 91
        0
 64
     7
 65
   257
 75
     1
175
     1
 42
1.0
 92
        8
 66
     7
 43
1.0
 76
     1
 77
     6
 78
     2
 67
     7
 79
     3
170
     0
171
     0
290
     0
174
     0
 93
       13
 44
0.0
173
     0
291
     0
 45
0.0
1001
ACAD
1000
AcDbSavedByObjectVersion
1070
     0
  0
DICTIONARYVAR
  5
279
102
{ACAD_REACTORS
330
278
102
}
330
278
100
DictionaryVariables
280
     0
  1
1:1
  0
DICTIONARYVAR
  5
2BD
102
{ACAD_REACTORS
330
278
102
}
330
278
100
DictionaryVariables
280
     0
  1
3.500000
  0
DICTIONARYVAR
  5
2BE
102
{ACAD_REACTORS
330
278
102
}
330
278
100
DictionaryVariables
280
     0
  1
acadiso.lin
  0
DICTIONARYVAR
  5
2BA
102
{ACAD_REACTORS
330
278
102
}
330
278
100
DictionaryVariables
280
     0
  1
Standard
  0
DICTIONARYVAR
  5
2B9
102
{ACAD_REACTORS
330
278
102
}
330
278
100
DictionaryVariables
280
     0
  1
Standard
  0
DICTIONARYVAR
  5
27A
102
{ACAD_REACTORS
330
278
102
}
330
278
100
DictionaryVariables
280
     0
  1
1
  0
DICTIONARYVAR
  5
27B
102
{ACAD_REACTORS
330
278
102
}
330
278
100
DictionaryVariables
280
     0
  1
2
  0
DICTIONARY
  5
2AE
330
45
100
AcDbDictionary
280
     1
281
     1
  3
ACAD_XREC_ROUNDTRIP
360
2AF
  0
DICTIONARY
  5
2AC
330
44
100
AcDbDictionary
280
     1
281
     1
  3
ACAD_XREC_ROUNDTRIP
360
2AD
  0
DICTIONARY
  5
2B0
330
46
100
AcDbDictionary
280
     1
281
     1
  3
ACAD_XREC_ROUNDTRIP
360
2B1
  0
DICTIONARY
  5
2B6
330
6C
100
AcDbDictionary
280
     1
281
     1
  3
ACAD_XREC_ROUNDTRIP
360
2B7
  0
DICTIONARY
  5
2B2
330
6A
100
AcDbDictionary
280
     1
281
     1
  3
ACAD_ROUNDTRIP_2008_TABLESTYLE_CELLSTYLEMAP
360
2B4
  3
ACAD_XREC_ROUNDTRIP
360
2B3
  0
DICTIONARY
  5
284
330
2F
100
AcDbDictionary
280
     1
281
     1
  3
ACAD_XREC_ROUNDTRIP
360
285
  0
DICTIONARY
  5
28A
330
32
100
AcDbDictionary
280
     1
281
     1
  3
ACAD_XREC_ROUNDTRIP
360
28B
  0
DICTIONARY
  5
292
330
36
100
AcDbDictionary
280
     1
281
     1
  3
ACAD_XREC_ROUNDTRIP
360
293
  0
DICTIONARY
  5
29A
330
3A
100
AcDbDictionary
280
     1
281
     1
  3
ACAD_XREC_ROUNDTRIP
360
29B
  0
DICTIONARY
  5
28E
330
34
100
AcDbDictionary
280
     1
281
     1
  3
ACAD_XREC_ROUNDTRIP
360
28F
  0
DICTIONARY
  5
290
330
35
100
AcDbDictionary
280
     1
281
     1
  3
ACAD_XREC_ROUNDTRIP
360
291
  0
DICTIONARY
  5
2A0
330
3D
100
AcDbDictionary
280
     1
281
     1
  3
ACAD_XREC_ROUNDTRIP
360
2A1
  0
DICTIONARY
  5
298
330
39
100
AcDbDictionary
280
     1
281
     1
  3
ACAD_XREC_ROUNDTRIP
360
299
  0
DICTIONARY
  5
27C
330
2B
100
AcDbDictionary
280
     1
281
     1
  3
ACAD_XREC_ROUNDTRIP
360
27D
  0
DICTIONARY
  5
27E
330
2C
100
AcDbDictionary
280
     1
281
     1
  3
ACAD_XREC_ROUNDTRIP
360
27F
  0
DICTIONARY
  5
280
330
2D
100
AcDbDictionary
280
     1
281
     1
  3
ACAD_XREC_ROUNDTRIP
360
281
  0
DICTIONARY
  5
282
330
2E
100
AcDbDictionary
280
     1
281
     1
  3
ACAD_XREC_ROUNDTRIP
360
283
  0
DICTIONARY
  5
288
330
31
100
AcDbDictionary
280
     1
281
     1
  3
ACAD_XREC_ROUNDTRIP
360
289
  0
DICTIONARY
  5
29C
330
3B
100
AcDbDictionary
280
     1
281
     1
  3
ACAD_XREC_ROUNDTRIP
360
29D
  0
DICTIONARY
  5
296
330
38
100
AcDbDictionary
280
     1
281
     1
  3
ACAD_XREC_ROUNDTRIP
360
297
  0
DICTIONARY
  5
29E
330
3C
100
AcDbDictionary
280
     1
281
     1
  3
ACAD_XREC_ROUNDTRIP
360
29F
  0
DICTIONARY
  5
28C
330
33
100
AcDbDictionary
280
     1
281
     1
  3
ACAD_XREC_ROUNDTRIP
360
28D
  0
DICTIONARY
  5
2AA
330
42
100
AcDbDictionary
280
     1
281
     1
  3
ACAD_XREC_ROUNDTRIP
360
2AB
  0
DICTIONARY
  5
2A8
330
41
100
AcDbDictionary
280
     1
281
     1
  3
ACAD_XREC_ROUNDTRIP
360
2A9
  0
DICTIONARY
  5
2A2
330
3E
100
AcDbDictionary
280
     1
281
     1
  3
ACAD_XREC_ROUNDTRIP
360
2A3
  0
DICTIONARY
  5
2A4
330
3F
100
AcDbDictionary
280
     1
281
     1
  3
ACAD_XREC_ROUNDTRIP
360
2A5
  0
DICTIONARY
  5
294
330
37
100
AcDbDictionary
280
     1
281
     1
  3
ACAD_XREC_ROUNDTRIP
360
295
  0
DICTIONARY
  5
286
330
30
100
AcDbDictionary
280
     1
281
     1
  3
ACAD_XREC_ROUNDTRIP
360
287
  0
DICTIONARY
  5
2A6
330
40
100
AcDbDictionary
280
     1
281
     1
  3
ACAD_XREC_ROUNDTRIP
360
2A7
  0
XRECORD
  5
2AF
102
{ACAD_REACTORS
330
2AE
102
}
330
2AE
100
AcDbXrecord
280
     1
102
MATERIAL
148
0.0
149
0.0
149
0.0
 93
        0
 94
      127
282
     0
 72
     1
 77
     1
171
     1
175
     1
179
     1
273
     0
  0
XRECORD
  5
2AD
102
{ACAD_REACTORS
330
2AC
102
}
330
2AC
100
AcDbXrecord
280
     1
102
MATERIAL
148
0.0
149
0.0
149
0.0
 93
        0
 94
      127
282
     0
 72
     1
 77
     1
171
     1
175
     1
179
     1
273
     0
  0
XRECORD
  5
2B1
102
{ACAD_REACTORS
330
2B0
102
}
330
2B0
100
AcDbXrecord
280
     1
102
MATERIAL
148
0.0
149
0.0
149
0.0
 93
        0
 94
      127
282
     0
 72
     1
 77
     1
171
     1
175
     1
179
     1
273
     0
  0
XRECORD
  5
2B7
102
{ACAD_REACTORS
330
2B6
102
}
330
2B6
100
AcDbXrecord
280
     1
102
ACAD_ROUNDTRIP_2010_MLEADER_STYLE
  0
CELLSTYLEMAP
  5
2B4
102
{ACAD_REACTORS
330
2B2
102
}
330
2B2
100
AcDbCellStyleMap
 90
        3
300
CELLSTYLE
  1
TABLEFORMAT_BEGIN
 90
        5
170
     1
 91
        0
 92
    32768
 62
   257
 93
        1
300
CONTENTFORMAT
  1
CONTENTFORMAT_BEGIN
 90
        0
 91
        0
 92
        4
 93
        0
300

 40
0.0
140
1.0
 94
        5
 62
     0
340
11
144
6.0
309
CONTENTFORMAT_END
171
     1
301
MARGIN
  1
CELLMARGIN_BEGIN
 40
1.5
 40
1.5
 40
1.5
 40
1.5
 40
1.5
 40
1.5
309
CELLMARGIN_END
 94
        6
 95
        1
302
GRIDFORMAT
  1
GRIDFORMAT_BEGIN
 90
        0
 91
        1
 62
     0
 92
       -2
340
14
 93
        0
 40
0.045
309
GRIDFORMAT_END
 95
        2
302
GRIDFORMAT
  1
GRIDFORMAT_BEGIN
 90
        0
 91
        1
 62
     0
 92
       -2
340
14
 93
        0
 40
0.045
309
GRIDFORMAT_END
 95
        4
302
GRIDFORMAT
  1
GRIDFORMAT_BEGIN
 90
        0
 91
        1
 62
     0
 92
       -2
340
14
 93
        0
 40
0.045
309
GRIDFORMAT_END
 95
        8
302
GRIDFORMAT
  1
GRIDFORMAT_BEGIN
 90
        0
 91
        1
 62
     0
 92
       -2
340
14
 93
        0
 40
0.045
309
GRIDFORMAT_END
 95
       16
302
GRIDFORMAT
  1
GRIDFORMAT_BEGIN
 90
        0
 91
        1
 62
     0
 92
       -2
340
14
 93
        0
 40
0.045
309
GRIDFORMAT_END
 95
       32
302
GRIDFORMAT
  1
GRIDFORMAT_BEGIN
 90
        0
 91
        1
 62
     0
 92
       -2
340
14
 93
        0
 40
0.045
309
GRIDFORMAT_END
309
TABLEFORMAT_END
  1
CELLSTYLE_BEGIN
 90
        1
 91
        1
300
_TITLE
309
CELLSTYLE_END
300
CELLSTYLE
  1
TABLEFORMAT_BEGIN
 90
        5
170
     1
 91
        0
 92
        0
 62
   257
 93
        1
300
CONTENTFORMAT
  1
CONTENTFORMAT_BEGIN
 90
        0
 91
        0
 92
        4
 93
        0
300

 40
0.0
140
1.0
 94
        5
 62
     0
340
11
144
4.5
309
CONTENTFORMAT_END
171
     1
301
MARGIN
  1
CELLMARGIN_BEGIN
 40
1.5
 40
1.5
 40
1.5
 40
1.5
 40
1.5
 40
1.5
309
CELLMARGIN_END
 94
        6
 95
        1
302
GRIDFORMAT
  1
GRIDFORMAT_BEGIN
 90
        0
 91
        1
 62
     0
 92
       -2
340
14
 93
        0
 40
0.045
309
GRIDFORMAT_END
 95
        2
302
GRIDFORMAT
  1
GRIDFORMAT_BEGIN
 90
        0
 91
        1
 62
     0
 92
       -2
340
14
 93
        0
 40
0.045
309
GRIDFORMAT_END
 95
        4
302
GRIDFORMAT
  1
GRIDFORMAT_BEGIN
 90
        0
 91
        1
 62
     0
 92
       -2
340
14
 93
        0
 40
0.045
309
GRIDFORMAT_END
 95
        8
302
GRIDFORMAT
  1
GRIDFORMAT_BEGIN
 90
        0
 91
        1
 62
     0
 92
       -2
340
14
 93
        0
 40
0.045
309
GRIDFORMAT_END
 95
       16
302
GRIDFORMAT
  1
GRIDFORMAT_BEGIN
 90
        0
 91
        1
 62
     0
 92
       -2
340
14
 93
        0
 40
0.045
309
GRIDFORMAT_END
 95
       32
302
GRIDFORMAT
  1
GRIDFORMAT_BEGIN
 90
        0
 91
        1
 62
     0
 92
       -2
340
14
 93
        0
 40
0.045
309
GRIDFORMAT_END
309
TABLEFORMAT_END
  1
CELLSTYLE_BEGIN
 90
        2
 91
        1
300
_HEADER
309
CELLSTYLE_END
300
CELLSTYLE
  1
TABLEFORMAT_BEGIN
 90
        5
170
     1
 91
        0
 92
        0
 62
   257
 93
        1
300
CONTENTFORMAT
  1
CONTENTFORMAT_BEGIN
 90
        0
 91
        0
 92
        4
 93
        0
300

 40
0.0
140
1.0
 94
        2
 62
     0
340
11
144
4.5
309
CONTENTFORMAT_END
171
     1
301
MARGIN
  1
CELLMARGIN_BEGIN
 40
1.5
 40
1.5
 40
1.5
 40
1.5
 40
1.5
 40
1.5
309
CELLMARGIN_END
 94
        6
 95
        1
302
GRIDFORMAT
  1
GRIDFORMAT_BEGIN
 90
        0
 91
        1
 62
     0
 92
       -2
340
14
 93
        0
 40
0.045
309
GRIDFORMAT_END
 95
        2
302
GRIDFORMAT
  1
GRIDFORMAT_BEGIN
 90
        0
 91
        1
 62
     0
 92
       -2
340
14
 93
        0
 40
0.045
309
GRIDFORMAT_END
 95
        4
302
GRIDFORMAT
  1
GRIDFORMAT_BEGIN
 90
        0
 91
        1
 62
     0
 92
       -2
340
14
 93
        0
 40
0.045
309
GRIDFORMAT_END
 95
        8
302
GRIDFORMAT
  1
GRIDFORMAT_BEGIN
 90
        0
 91
        1
 62
     0
 92
       -2
340
14
 93
        0
 40
0.045
309
GRIDFORMAT_END
 95
       16
302
GRIDFORMAT
  1
GRIDFORMAT_BEGIN
 90
        0
 91
        1
 62
     0
 92
       -2
340
14
 93
        0
 40
0.045
309
GRIDFORMAT_END
 95
       32
302
GRIDFORMAT
  1
GRIDFORMAT_BEGIN
 90
        0
 91
        1
 62
     0
 92
       -2
340
14
 93
        0
 40
0.045
309
GRIDFORMAT_END
309
TABLEFORMAT_END
  1
CELLSTYLE_BEGIN
 90
        3
 91
        2
300
_DATA
309
CELLSTYLE_END
  0
XRECORD
  5
2B3
102
{ACAD_REACTORS
330
2B2
102
}
330
2B2
100
AcDbXrecord
280
     1
102
ACAD_ROUNDTRIP_PRE2007_TABLESTYLE
 90
        4
 91
        0
  1

 92
        4
 93
        0
  2

 94
        4
 95
        0
  3

  0
XRECORD
  5
285
102
{ACAD_REACTORS
330
284
102
}
330
284
100
AcDbXrecord
280
     1
102
RTVSPropertyOp0
 70
     1
102
RTVSPropertyOp1
 70
     1
102
RTVSPropertyOp2
 70
     1
102
RTVSPropertyOp3
 70
     1
102
RTVSPropertyOp4
 70
     1
102
RTVSPropertyOp5
 70
     1
102
RTVSPropertyOp6
 70
     1
102
RTVSPropertyOp7
 70
     1
102
RTVSPropertyOp8
 70
     1
102
RTVSPropertyOp9
 70
     1
102
RTVSPropertyOp10
 70
     1
102
RTVSPropertyOp11
 70
     1
102
RTVSPropertyOp12
 70
     1
102
RTVSPropertyOp13
 70
     1
102
RTVSPropertyOp14
 70
     1
102
RTVSPropertyOp15
 70
     1
102
RTVSPropertyOp16
 70
     1
102
RTVSPropertyOp17
 70
     1
102
RTVSPropertyOp18
 70
     1
102
RTVSPropertyOp19
 70
     1
102
RTVSPropertyOp20
 70
     1
102
RTVSPropertyOp21
 70
     1
102
RTVSPropertyOp22
 70
     1
102
RTVSPropertyOp23
 70
     1
102
RTVSPropertyOp24
 70
     1
102
RTVSPropertyOp25
 70
     1
102
RTVSPropertyOp26
 70
     1
102
RTVSPropertyOp27
 70
     1
102
RTVSPropertyOp28
 70
     1
102
RTVSPropertyOp29
 70
     1
102
RTVSPropertyOp30
 70
     1
102
RTVSPropertyOp31
 70
     1
102
RTVSPropertyOp32
 70
     1
102
RTVSPropertyOp33
 70
     1
102
RTVSPropertyOp34
 70
     1
102
RTVSPropertyOp35
 70
     1
102
RTVSPropertyOp36
 70
     1
102
RTVSPropertyOp37
 70
     1
102
RTVSPropertyOp38
 70
     1
102
RTVSPropertyOp39
 70
     1
102
RTVSPropertyOp40
 70
     1
102
RTVSPropertyOp41
 70
     1
102
RTVSPropertyOp42
 70
     1
102
RTVSPropertyOp43
 70
     1
102
RTVSPropertyOp44
 70
     1
102
RTVSPropertyOp45
 70
     1
102
RTVSPropertyOp46
 70
     1
102
RTVSPropertyOp47
 70
     1
102
RTVSPropertyOp48
 70
     1
102
RTVSPropertyOp49
 70
     1
102
RTVSPropertyOp50
 70
     1
102
RTVSPropertyOp51
 70
     0
102
RTVSPropertyOp52
 70
     0
102
RTVSPropertyOp53
 70
     1
102
RTVSPropertyOp54
 70
     1
102
RTVSPropertyOp55
 70
     1
102
RTVSPropertyOp56
 70
     1
102
RTVSPropertyOp57
 70
     1
102
RTVSPost2010Prop28
280
     1
102
RTVSPost2010PropOp28
 70
     1
102
RTVSPost2010Prop29
280
     1
102
RTVSPost2010PropOp29
 70
     1
102
RTVSPost2010Prop30
280
     0
102
RTVSPost2010PropOp30
 70
     1
102
RTVSPost2010Prop31
280
     0
102
RTVSPost2010PropOp31
 70
     1
102
RTVSPost2010Prop32
280
     0
102
RTVSPost2010PropOp32
 70
     1
102
RTVSPost2010Prop33
280
     0
102
RTVSPost2010PropOp33
 70
     1
102
RTVSPost2010Prop34
280
     0
102
RTVSPost2010PropOp34
 70
     1
102
RTVSPost2010Prop35
280
     0
102
RTVSPost2010PropOp35
 70
     1
102
RTVSPost2010Prop36
280
     0
102
RTVSPost2010PropOp36
 70
     1
102
RTVSPost2010Prop37
 90
       50
102
RTVSPost2010PropOp37
 70
     1
102
RTVSPost2010Prop38
140
0.0
102
RTVSPost2010PropOp38
 70
     1
102
RTVSPost2010Prop39
140
1.0
102
RTVSPost2010PropOp39
 70
     1
102
RTVSPost2010Prop40
 90
        0
102
RTVSPost2010PropOp40
 70
     1
102
RTVSPost2010Prop41ColorIndex
 90
       18
102
RTVSPost2010Prop41ColorRGB
 90
        0
102
RTVSPost2010PropOp41
 70
     1
102
RTVSPost2010Prop42
 90
       50
102
RTVSPost2010PropOp42
 70
     1
102
RTVSPost2010Prop43
 90
        3
102
RTVSPost2010PropOp43
 70
     1
102
RTVSPost2010Prop44ColorIndex
 90
        5
102
RTVSPost2010Prop44ColorRGB
 90
      255
102
RTVSPost2010PropOp44
 70
     1
102
RTVSPost2010Prop45
280
     0
102
RTVSPost2010PropOp45
 70
     1
102
RTVSPost2010Prop46
 90
       50
102
RTVSPost2010PropOp46
 70
     1
102
RTVSPost2010Prop47
 90
       50
102
RTVSPost2010PropOp47
 70
     1
102
RTVSPost2010Prop48
 90
       50
102
RTVSPost2010PropOp48
 70
     1
102
RTVSPost2010Prop49
280
     0
102
RTVSPost2010PropOp49
 70
     1
102
RTVSPost2010Prop50
 90
       50
102
RTVSPost2010PropOp50
 70
     1
102
RTVSPost2010Prop51ColorIndex
 90
      256
102
RTVSPost2010Prop51ColorRGB
 90
-16777216
102
RTVSPost2010PropOp51
 70
     0
102
RTVSPost2010Prop52
140
1.0
102
RTVSPost2010PropOp52
 70
     0
102
RTVSPost2010Prop53
 90
        2
102
RTVSPost2010PropOp53
 70
     1
102
RTVSPost2010Prop54
  1
strokes_ogs.tif
102
RTVSPost2010PropOp54
 70
     1
102
RTVSPost2010Prop55
280
     0
102
RTVSPost2010PropOp55
 70
     1
102
RTVSPost2010Prop56
140
1.0
102
RTVSPost2010PropOp56
 70
     1
102
RTVSPost2010Prop57
140
1.0
102
RTVSPost2010PropOp57
 70
     1
  0
XRECORD
  5
28B
102
{ACAD_REACTORS
330
28A
102
}
330
28A
100
AcDbXrecord
280
     1
102
RTVSPropertyOp0
 70
     1
102
RTVSPropertyOp1
 70
     1
102
RTVSPropertyOp2
 70
     1
102
RTVSPropertyOp3
 70
     1
102
RTVSPropertyOp4
 70
     1
102
RTVSPropertyOp5
 70
     1
102
RTVSPropertyOp6
 70
     1
102
RTVSPropertyOp7
 70
     1
102
RTVSPropertyOp8
 70
     1
102
RTVSPropertyOp9
 70
     1
102
RTVSPropertyOp10
 70
     1
102
RTVSPropertyOp11
 70
     1
102
RTVSPropertyOp12
 70
     1
102
RTVSPropertyOp13
 70
     1
102
RTVSPropertyOp14
 70
     1
102
RTVSPropertyOp15
 70
     1
102
RTVSPropertyOp16
 70
     1
102
RTVSPropertyOp17
 70
     1
102
RTVSPropertyOp18
 70
     1
102
RTVSPropertyOp19
 70
     1
102
RTVSPropertyOp20
 70
     1
102
RTVSPropertyOp21
 70
     1
102
RTVSPropertyOp22
 70
     1
102
RTVSPropertyOp23
 70
     1
102
RTVSPropertyOp24
 70
     1
102
RTVSPropertyOp25
 70
     1
102
RTVSPropertyOp26
 70
     1
102
RTVSPropertyOp27
 70
     1
102
RTVSPropertyOp28
 70
     1
102
RTVSPropertyOp29
 70
     1
102
RTVSPropertyOp30
 70
     1
102
RTVSPropertyOp31
 70
     1
102
RTVSPropertyOp32
 70
     1
102
RTVSPropertyOp33
 70
     1
102
RTVSPropertyOp34
 70
     1
102
RTVSPropertyOp35
 70
     1
102
RTVSPropertyOp36
 70
     1
102
RTVSPropertyOp37
 70
     1
102
RTVSPropertyOp38
 70
     1
102
RTVSPropertyOp39
 70
     1
102
RTVSPropertyOp40
 70
     1
102
RTVSPropertyOp41
 70
     1
102
RTVSPropertyOp42
 70
     1
102
RTVSPropertyOp43
 70
     1
102
RTVSPropertyOp44
 70
     1
102
RTVSPropertyOp45
 70
     1
102
RTVSPropertyOp46
 70
     1
102
RTVSPropertyOp47
 70
     1
102
RTVSPropertyOp48
 70
     1
102
RTVSPropertyOp49
 70
     1
102
RTVSPropertyOp50
 70
     1
102
RTVSPropertyOp51
 70
     0
102
RTVSPropertyOp52
 70
     0
102
RTVSPropertyOp53
 70
     1
102
RTVSPropertyOp54
 70
     1
102
RTVSPropertyOp55
 70
     1
102
RTVSPropertyOp56
 70
     1
102
RTVSPropertyOp57
 70
     1
102
RTVSPost2010Prop28
280
     0
102
RTVSPost2010PropOp28
 70
     1
102
RTVSPost2010Prop29
280
     1
102
RTVSPost2010PropOp29
 70
     1
102
RTVSPost2010Prop30
280
     1
102
RTVSPost2010PropOp30
 70
     1
102
RTVSPost2010Prop31
280
     0
102
RTVSPost2010PropOp31
 70
     1
102
RTVSPost2010Prop32
280
     0
102
RTVSPost2010PropOp32
 70
     1
102
RTVSPost2010Prop33
280
     0
102
RTVSPost2010PropOp33
 70
     1
102
RTVSPost2010Prop34
280
     0
102
RTVSPost2010PropOp34
 70
     1
102
RTVSPost2010Prop35
280
     0
102
RTVSPost2010PropOp35
 70
     1
102
RTVSPost2010Prop36
280
     0
102
RTVSPost2010PropOp36
 70
     1
102
RTVSPost2010Prop37
 90
       50
102
RTVSPost2010PropOp37
 70
     1
102
RTVSPost2010Prop38
140
0.0
102
RTVSPost2010PropOp38
 70
     1
102
RTVSPost2010Prop39
140
1.0
102
RTVSPost2010PropOp39
 70
     1
102
RTVSPost2010Prop40
 90
        0
102
RTVSPost2010PropOp40
 70
     1
102
RTVSPost2010Prop41ColorIndex
 90
       18
102
RTVSPost2010Prop41ColorRGB
 90
        0
102
RTVSPost2010PropOp41
 70
     1
102
RTVSPost2010Prop42
 90
       50
102
RTVSPost2010PropOp42
 70
     1
102
RTVSPost2010Prop43
 90
        3
102
RTVSPost2010PropOp43
 70
     1
102
RTVSPost2010Prop44ColorIndex
 90
        5
102
RTVSPost2010Prop44ColorRGB
 90
      255
102
RTVSPost2010PropOp44
 70
     1
102
RTVSPost2010Prop45
280
     0
102
RTVSPost2010PropOp45
 70
     1
102
RTVSPost2010Prop46
 90
       50
102
RTVSPost2010PropOp46
 70
     1
102
RTVSPost2010Prop47
 90
       50
102
RTVSPost2010PropOp47
 70
     1
102
RTVSPost2010Prop48
 90
       50
102
RTVSPost2010PropOp48
 70
     1
102
RTVSPost2010Prop49
280
     0
102
RTVSPost2010PropOp49
 70
     1
102
RTVSPost2010Prop50
 90
       50
102
RTVSPost2010PropOp50
 70
     1
102
RTVSPost2010Prop51ColorIndex
 90
      256
102
RTVSPost2010Prop51ColorRGB
 90
-16777216
102
RTVSPost2010PropOp51
 70
     0
102
RTVSPost2010Prop52
140
1.0
102
RTVSPost2010PropOp52
 70
     0
102
RTVSPost2010Prop53
 90
        2
102
RTVSPost2010PropOp53
 70
     1
102
RTVSPost2010Prop54
  1
strokes_ogs.tif
102
RTVSPost2010PropOp54
 70
     1
102
RTVSPost2010Prop55
280
     0
102
RTVSPost2010PropOp55
 70
     1
102
RTVSPost2010Prop56
140
1.0
102
RTVSPost2010PropOp56
 70
     1
102
RTVSPost2010Prop57
140
1.0
102
RTVSPost2010PropOp57
 70
     1
  0
XRECORD
  5
293
102
{ACAD_REACTORS
330
292
102
}
330
292
100
AcDbXrecord
280
     1
102
RTVSPropertyOp0
 70
     1
102
RTVSPropertyOp1
 70
     1
102
RTVSPropertyOp2
 70
     1
102
RTVSPropertyOp3
 70
     1
102
RTVSPropertyOp4
 70
     1
102
RTVSPropertyOp5
 70
     1
102
RTVSPropertyOp6
 70
     1
102
RTVSPropertyOp7
 70
     1
102
RTVSPropertyOp8
 70
     1
102
RTVSPropertyOp9
 70
     1
102
RTVSPropertyOp10
 70
     1
102
RTVSPropertyOp11
 70
     1
102
RTVSPropertyOp12
 70
     1
102
RTVSPropertyOp13
 70
     1
102
RTVSPropertyOp14
 70
     1
102
RTVSPropertyOp15
 70
     1
102
RTVSPropertyOp16
 70
     1
102
RTVSPropertyOp17
 70
     1
102
RTVSPropertyOp18
 70
     1
102
RTVSPropertyOp19
 70
     1
102
RTVSPropertyOp20
 70
     1
102
RTVSPropertyOp21
 70
     1
102
RTVSPropertyOp22
 70
     1
102
RTVSPropertyOp23
 70
     1
102
RTVSPropertyOp24
 70
     1
102
RTVSPropertyOp25
 70
     1
102
RTVSPropertyOp26
 70
     1
102
RTVSPropertyOp27
 70
     1
102
RTVSPropertyOp28
 70
     1
102
RTVSPropertyOp29
 70
     1
102
RTVSPropertyOp30
 70
     1
102
RTVSPropertyOp31
 70
     1
102
RTVSPropertyOp32
 70
     1
102
RTVSPropertyOp33
 70
     1
102
RTVSPropertyOp34
 70
     1
102
RTVSPropertyOp35
 70
     1
102
RTVSPropertyOp36
 70
     1
102
RTVSPropertyOp37
 70
     1
102
RTVSPropertyOp38
 70
     1
102
RTVSPropertyOp39
 70
     1
102
RTVSPropertyOp40
 70
     1
102
RTVSPropertyOp41
 70
     1
102
RTVSPropertyOp42
 70
     1
102
RTVSPropertyOp43
 70
     1
102
RTVSPropertyOp44
 70
     1
102
RTVSPropertyOp45
 70
     1
102
RTVSPropertyOp46
 70
     1
102
RTVSPropertyOp47
 70
     1
102
RTVSPropertyOp48
 70
     1
102
RTVSPropertyOp49
 70
     1
102
RTVSPropertyOp50
 70
     1
102
RTVSPropertyOp51
 70
     0
102
RTVSPropertyOp52
 70
     0
102
RTVSPropertyOp53
 70
     1
102
RTVSPropertyOp54
 70
     1
102
RTVSPropertyOp55
 70
     1
102
RTVSPropertyOp56
 70
     1
102
RTVSPropertyOp57
 70
     1
102
RTVSPost2010Prop28
280
     0
102
RTVSPost2010PropOp28
 70
     1
102
RTVSPost2010Prop29
280
     1
102
RTVSPost2010PropOp29
 70
     1
102
RTVSPost2010Prop30
280
     1
102
RTVSPost2010PropOp30
 70
     1
102
RTVSPost2010Prop31
280
     0
102
RTVSPost2010PropOp31
 70
     1
102
RTVSPost2010Prop32
280
     0
102
RTVSPost2010PropOp32
 70
     1
102
RTVSPost2010Prop33
280
     0
102
RTVSPost2010PropOp33
 70
     1
102
RTVSPost2010Prop34
280
     0
102
RTVSPost2010PropOp34
 70
     1
102
RTVSPost2010Prop35
280
     0
102
RTVSPost2010PropOp35
 70
     1
102
RTVSPost2010Prop36
280
     0
102
RTVSPost2010PropOp36
 70
     1
102
RTVSPost2010Prop37
 90
       50
102
RTVSPost2010PropOp37
 70
     1
102
RTVSPost2010Prop38
140
0.0
102
RTVSPost2010PropOp38
 70
     1
102
RTVSPost2010Prop39
140
1.0
102
RTVSPost2010PropOp39
 70
     1
102
RTVSPost2010Prop40
 90
        0
102
RTVSPost2010PropOp40
 70
     1
102
RTVSPost2010Prop41ColorIndex
 90
       18
102
RTVSPost2010Prop41ColorRGB
 90
        0
102
RTVSPost2010PropOp41
 70
     1
102
RTVSPost2010Prop42
 90
       50
102
RTVSPost2010PropOp42
 70
     1
102
RTVSPost2010Prop43
 90
        3
102
RTVSPost2010PropOp43
 70
     1
102
RTVSPost2010Prop44ColorIndex
 90
        5
102
RTVSPost2010Prop44ColorRGB
 90
      255
102
RTVSPost2010PropOp44
 70
     1
102
RTVSPost2010Prop45
280
     0
102
RTVSPost2010PropOp45
 70
     1
102
RTVSPost2010Prop46
 90
       50
102
RTVSPost2010PropOp46
 70
     1
102
RTVSPost2010Prop47
 90
       50
102
RTVSPost2010PropOp47
 70
     1
102
RTVSPost2010Prop48
 90
       50
102
RTVSPost2010PropOp48
 70
     1
102
RTVSPost2010Prop49
280
     0
102
RTVSPost2010PropOp49
 70
     1
102
RTVSPost2010Prop50
 90
       50
102
RTVSPost2010PropOp50
 70
     1
102
RTVSPost2010Prop51ColorIndex
 90
      256
102
RTVSPost2010Prop51ColorRGB
 90
-16777216
102
RTVSPost2010PropOp51
 70
     0
102
RTVSPost2010Prop52
140
1.0
102
RTVSPost2010PropOp52
 70
     0
102
RTVSPost2010Prop53
 90
        2
102
RTVSPost2010PropOp53
 70
     1
102
RTVSPost2010Prop54
  1
strokes_ogs.tif
102
RTVSPost2010PropOp54
 70
     1
102
RTVSPost2010Prop55
280
     0
102
RTVSPost2010PropOp55
 70
     1
102
RTVSPost2010Prop56
140
1.0
102
RTVSPost2010PropOp56
 70
     1
102
RTVSPost2010Prop57
140
1.0
102
RTVSPost2010PropOp57
 70
     1
  0
XRECORD
  5
29B
102
{ACAD_REACTORS
330
29A
102
}
330
29A
100
AcDbXrecord
280
     1
102
RTVSPropertyOp0
 70
     1
102
RTVSPropertyOp1
 70
     1
102
RTVSPropertyOp2
 70
     1
102
RTVSPropertyOp3
 70
     1
102
RTVSPropertyOp4
 70
     1
102
RTVSPropertyOp5
 70
     1
102
RTVSPropertyOp6
 70
     1
102
RTVSPropertyOp7
 70
     1
102
RTVSPropertyOp8
 70
     1
102
RTVSPropertyOp9
 70
     1
102
RTVSPropertyOp10
 70
     1
102
RTVSPropertyOp11
 70
     1
102
RTVSPropertyOp12
 70
     1
102
RTVSPropertyOp13
 70
     1
102
RTVSPropertyOp14
 70
     1
102
RTVSPropertyOp15
 70
     1
102
RTVSPropertyOp16
 70
     1
102
RTVSPropertyOp17
 70
     1
102
RTVSPropertyOp18
 70
     1
102
RTVSPropertyOp19
 70
     1
102
RTVSPropertyOp20
 70
     1
102
RTVSPropertyOp21
 70
     1
102
RTVSPropertyOp22
 70
     1
102
RTVSPropertyOp23
 70
     1
102
RTVSPropertyOp24
 70
     1
102
RTVSPropertyOp25
 70
     1
102
RTVSPropertyOp26
 70
     1
102
RTVSPropertyOp27
 70
     1
102
RTVSPropertyOp28
 70
     1
102
RTVSPropertyOp29
 70
     1
102
RTVSPropertyOp30
 70
     1
102
RTVSPropertyOp31
 70
     1
102
RTVSPropertyOp32
 70
     1
102
RTVSPropertyOp33
 70
     1
102
RTVSPropertyOp34
 70
     1
102
RTVSPropertyOp35
 70
     1
102
RTVSPropertyOp36
 70
     1
102
RTVSPropertyOp37
 70
     1
102
RTVSPropertyOp38
 70
     1
102
RTVSPropertyOp39
 70
     1
102
RTVSPropertyOp40
 70
     1
102
RTVSPropertyOp41
 70
     1
102
RTVSPropertyOp42
 70
     1
102
RTVSPropertyOp43
 70
     1
102
RTVSPropertyOp44
 70
     1
102
RTVSPropertyOp45
 70
     1
102
RTVSPropertyOp46
 70
     1
102
RTVSPropertyOp47
 70
     1
102
RTVSPropertyOp48
 70
     1
102
RTVSPropertyOp49
 70
     1
102
RTVSPropertyOp50
 70
     1
102
RTVSPropertyOp51
 70
     0
102
RTVSPropertyOp52
 70
     0
102
RTVSPropertyOp53
 70
     1
102
RTVSPropertyOp54
 70
     1
102
RTVSPropertyOp55
 70
     1
102
RTVSPropertyOp56
 70
     1
102
RTVSPropertyOp57
 70
     1
102
RTVSPost2010Prop28
280
     0
102
RTVSPost2010PropOp28
 70
     1
102
RTVSPost2010Prop29
280
     1
102
RTVSPost2010PropOp29
 70
     1
102
RTVSPost2010Prop30
280
     1
102
RTVSPost2010PropOp30
 70
     1
102
RTVSPost2010Prop31
280
     0
102
RTVSPost2010PropOp31
 70
     1
102
RTVSPost2010Prop32
280
     0
102
RTVSPost2010PropOp32
 70
     1
102
RTVSPost2010Prop33
280
     0
102
RTVSPost2010PropOp33
 70
     1
102
RTVSPost2010Prop34
280
     0
102
RTVSPost2010PropOp34
 70
     1
102
RTVSPost2010Prop35
280
     0
102
RTVSPost2010PropOp35
 70
     1
102
RTVSPost2010Prop36
280
     0
102
RTVSPost2010PropOp36
 70
     1
102
RTVSPost2010Prop37
 90
       50
102
RTVSPost2010PropOp37
 70
     1
102
RTVSPost2010Prop38
140
0.0
102
RTVSPost2010PropOp38
 70
     1
102
RTVSPost2010Prop39
140
1.0
102
RTVSPost2010PropOp39
 70
     1
102
RTVSPost2010Prop40
 90
        0
102
RTVSPost2010PropOp40
 70
     1
102
RTVSPost2010Prop41ColorIndex
 90
       18
102
RTVSPost2010Prop41ColorRGB
 90
        0
102
RTVSPost2010PropOp41
 70
     1
102
RTVSPost2010Prop42
 90
       50
102
RTVSPost2010PropOp42
 70
     1
102
RTVSPost2010Prop43
 90
        3
102
RTVSPost2010PropOp43
 70
     1
102
RTVSPost2010Prop44ColorIndex
 90
        5
102
RTVSPost2010Prop44ColorRGB
 90
      255
102
RTVSPost2010PropOp44
 70
     1
102
RTVSPost2010Prop45
280
     0
102
RTVSPost2010PropOp45
 70
     1
102
RTVSPost2010Prop46
 90
       50
102
RTVSPost2010PropOp46
 70
     1
102
RTVSPost2010Prop47
 90
       50
102
RTVSPost2010PropOp47
 70
     1
102
RTVSPost2010Prop48
 90
       50
102
RTVSPost2010PropOp48
 70
     1
102
RTVSPost2010Prop49
280
     0
102
RTVSPost2010PropOp49
 70
     1
102
RTVSPost2010Prop50
 90
       50
102
RTVSPost2010PropOp50
 70
     1
102
RTVSPost2010Prop51ColorIndex
 90
      256
102
RTVSPost2010Prop51ColorRGB
 90
-16777216
102
RTVSPost2010PropOp51
 70
     0
102
RTVSPost2010Prop52
140
1.0
102
RTVSPost2010PropOp52
 70
     0
102
RTVSPost2010Prop53
 90
        2
102
RTVSPost2010PropOp53
 70
     1
102
RTVSPost2010Prop54
  1
strokes_ogs.tif
102
RTVSPost2010PropOp54
 70
     1
102
RTVSPost2010Prop55
280
     0
102
RTVSPost2010PropOp55
 70
     1
102
RTVSPost2010Prop56
140
1.0
102
RTVSPost2010PropOp56
 70
     1
102
RTVSPost2010Prop57
140
1.0
102
RTVSPost2010PropOp57
 70
     1
  0
XRECORD
  5
28F
102
{ACAD_REACTORS
330
28E
102
}
330
28E
100
AcDbXrecord
280
     1
102
RTVSPropertyOp0
 70
     1
102
RTVSPropertyOp1
 70
     1
102
RTVSPropertyOp2
 70
     1
102
RTVSPropertyOp3
 70
     1
102
RTVSPropertyOp4
 70
     1
102
RTVSPropertyOp5
 70
     1
102
RTVSPropertyOp6
 70
     1
102
RTVSPropertyOp7
 70
     1
102
RTVSPropertyOp8
 70
     1
102
RTVSPropertyOp9
 70
     1
102
RTVSPropertyOp10
 70
     1
102
RTVSPropertyOp11
 70
     1
102
RTVSPropertyOp12
 70
     1
102
RTVSPropertyOp13
 70
     1
102
RTVSPropertyOp14
 70
     1
102
RTVSPropertyOp15
 70
     1
102
RTVSPropertyOp16
 70
     1
102
RTVSPropertyOp17
 70
     1
102
RTVSPropertyOp18
 70
     1
102
RTVSPropertyOp19
 70
     1
102
RTVSPropertyOp20
 70
     1
102
RTVSPropertyOp21
 70
     1
102
RTVSPropertyOp22
 70
     1
102
RTVSPropertyOp23
 70
     1
102
RTVSPropertyOp24
 70
     1
102
RTVSPropertyOp25
 70
     1
102
RTVSPropertyOp26
 70
     1
102
RTVSPropertyOp27
 70
     1
102
RTVSPropertyOp28
 70
     1
102
RTVSPropertyOp29
 70
     1
102
RTVSPropertyOp30
 70
     1
102
RTVSPropertyOp31
 70
     1
102
RTVSPropertyOp32
 70
     1
102
RTVSPropertyOp33
 70
     1
102
RTVSPropertyOp34
 70
     1
102
RTVSPropertyOp35
 70
     1
102
RTVSPropertyOp36
 70
     1
102
RTVSPropertyOp37
 70
     1
102
RTVSPropertyOp38
 70
     1
102
RTVSPropertyOp39
 70
     1
102
RTVSPropertyOp40
 70
     1
102
RTVSPropertyOp41
 70
     1
102
RTVSPropertyOp42
 70
     1
102
RTVSPropertyOp43
 70
     1
102
RTVSPropertyOp44
 70
     1
102
RTVSPropertyOp45
 70
     1
102
RTVSPropertyOp46
 70
     1
102
RTVSPropertyOp47
 70
     1
102
RTVSPropertyOp48
 70
     1
102
RTVSPropertyOp49
 70
     1
102
RTVSPropertyOp50
 70
     1
102
RTVSPropertyOp51
 70
     0
102
RTVSPropertyOp52
 70
     0
102
RTVSPropertyOp53
 70
     1
102
RTVSPropertyOp54
 70
     1
102
RTVSPropertyOp55
 70
     1
102
RTVSPropertyOp56
 70
     1
102
RTVSPropertyOp57
 70
     1
102
RTVSPost2010Prop28
280
     0
102
RTVSPost2010PropOp28
 70
     1
102
RTVSPost2010Prop29
280
     1
102
RTVSPost2010PropOp29
 70
     1
102
RTVSPost2010Prop30
280
     1
102
RTVSPost2010PropOp30
 70
     1
102
RTVSPost2010Prop31
280
     0
102
RTVSPost2010PropOp31
 70
     1
102
RTVSPost2010Prop32
280
     0
102
RTVSPost2010PropOp32
 70
     1
102
RTVSPost2010Prop33
280
     0
102
RTVSPost2010PropOp33
 70
     1
102
RTVSPost2010Prop34
280
     0
102
RTVSPost2010PropOp34
 70
     1
102
RTVSPost2010Prop35
280
     0
102
RTVSPost2010PropOp35
 70
     1
102
RTVSPost2010Prop36
280
     0
102
RTVSPost2010PropOp36
 70
     1
102
RTVSPost2010Prop37
 90
       50
102
RTVSPost2010PropOp37
 70
     1
102
RTVSPost2010Prop38
140
0.0
102
RTVSPost2010PropOp38
 70
     1
102
RTVSPost2010Prop39
140
1.0
102
RTVSPost2010PropOp39
 70
     1
102
RTVSPost2010Prop40
 90
        0
102
RTVSPost2010PropOp40
 70
     1
102
RTVSPost2010Prop41ColorIndex
 90
       18
102
RTVSPost2010Prop41ColorRGB
 90
        0
102
RTVSPost2010PropOp41
 70
     1
102
RTVSPost2010Prop42
 90
       50
102
RTVSPost2010PropOp42
 70
     1
102
RTVSPost2010Prop43
 90
        3
102
RTVSPost2010PropOp43
 70
     1
102
RTVSPost2010Prop44ColorIndex
 90
        5
102
RTVSPost2010Prop44ColorRGB
 90
      255
102
RTVSPost2010PropOp44
 70
     1
102
RTVSPost2010Prop45
280
     0
102
RTVSPost2010PropOp45
 70
     1
102
RTVSPost2010Prop46
 90
       50
102
RTVSPost2010PropOp46
 70
     1
102
RTVSPost2010Prop47
 90
       50
102
RTVSPost2010PropOp47
 70
     1
102
RTVSPost2010Prop48
 90
       50
102
RTVSPost2010PropOp48
 70
     1
102
RTVSPost2010Prop49
280
     0
102
RTVSPost2010PropOp49
 70
     1
102
RTVSPost2010Prop50
 90
       50
102
RTVSPost2010PropOp50
 70
     1
102
RTVSPost2010Prop51ColorIndex
 90
      256
102
RTVSPost2010Prop51ColorRGB
 90
-16777216
102
RTVSPost2010PropOp51
 70
     0
102
RTVSPost2010Prop52
140
1.0
102
RTVSPost2010PropOp52
 70
     0
102
RTVSPost2010Prop53
 90
        2
102
RTVSPost2010PropOp53
 70
     1
102
RTVSPost2010Prop54
  1
strokes_ogs.tif
102
RTVSPost2010PropOp54
 70
     1
102
RTVSPost2010Prop55
280
     0
102
RTVSPost2010PropOp55
 70
     1
102
RTVSPost2010Prop56
140
1.0
102
RTVSPost2010PropOp56
 70
     1
102
RTVSPost2010Prop57
140
1.0
102
RTVSPost2010PropOp57
 70
     1
  0
XRECORD
  5
291
102
{ACAD_REACTORS
330
290
102
}
330
290
100
AcDbXrecord
280
     1
102
RTVSPropertyOp0
 70
     1
102
RTVSPropertyOp1
 70
     1
102
RTVSPropertyOp2
 70
     1
102
RTVSPropertyOp3
 70
     1
102
RTVSPropertyOp4
 70
     1
102
RTVSPropertyOp5
 70
     1
102
RTVSPropertyOp6
 70
     1
102
RTVSPropertyOp7
 70
     1
102
RTVSPropertyOp8
 70
     1
102
RTVSPropertyOp9
 70
     1
102
RTVSPropertyOp10
 70
     1
102
RTVSPropertyOp11
 70
     1
102
RTVSPropertyOp12
 70
     1
102
RTVSPropertyOp13
 70
     1
102
RTVSPropertyOp14
 70
     1
102
RTVSPropertyOp15
 70
     1
102
RTVSPropertyOp16
 70
     1
102
RTVSPropertyOp17
 70
     1
102
RTVSPropertyOp18
 70
     1
102
RTVSPropertyOp19
 70
     1
102
RTVSPropertyOp20
 70
     1
102
RTVSPropertyOp21
 70
     1
102
RTVSPropertyOp22
 70
     1
102
RTVSPropertyOp23
 70
     1
102
RTVSPropertyOp24
 70
     1
102
RTVSPropertyOp25
 70
     1
102
RTVSPropertyOp26
 70
     1
102
RTVSPropertyOp27
 70
     1
102
RTVSPropertyOp28
 70
     1
102
RTVSPropertyOp29
 70
     1
102
RTVSPropertyOp30
 70
     1
102
RTVSPropertyOp31
 70
     1
102
RTVSPropertyOp32
 70
     1
102
RTVSPropertyOp33
 70
     1
102
RTVSPropertyOp34
 70
     1
102
RTVSPropertyOp35
 70
     1
102
RTVSPropertyOp36
 70
     1
102
RTVSPropertyOp37
 70
     1
102
RTVSPropertyOp38
 70
     1
102
RTVSPropertyOp39
 70
     1
102
RTVSPropertyOp40
 70
     1
102
RTVSPropertyOp41
 70
     1
102
RTVSPropertyOp42
 70
     1
102
RTVSPropertyOp43
 70
     1
102
RTVSPropertyOp44
 70
     1
102
RTVSPropertyOp45
 70
     1
102
RTVSPropertyOp46
 70
     1
102
RTVSPropertyOp47
 70
     1
102
RTVSPropertyOp48
 70
     1
102
RTVSPropertyOp49
 70
     1
102
RTVSPropertyOp50
 70
     1
102
RTVSPropertyOp51
 70
     0
102
RTVSPropertyOp52
 70
     0
102
RTVSPropertyOp53
 70
     1
102
RTVSPropertyOp54
 70
     1
102
RTVSPropertyOp55
 70
     1
102
RTVSPropertyOp56
 70
     1
102
RTVSPropertyOp57
 70
     1
102
RTVSPost2010Prop28
280
     0
102
RTVSPost2010PropOp28
 70
     1
102
RTVSPost2010Prop29
280
     1
102
RTVSPost2010PropOp29
 70
     1
102
RTVSPost2010Prop30
280
     1
102
RTVSPost2010PropOp30
 70
     1
102
RTVSPost2010Prop31
280
     0
102
RTVSPost2010PropOp31
 70
     1
102
RTVSPost2010Prop32
280
     0
102
RTVSPost2010PropOp32
 70
     1
102
RTVSPost2010Prop33
280
     0
102
RTVSPost2010PropOp33
 70
     1
102
RTVSPost2010Prop34
280
     0
102
RTVSPost2010PropOp34
 70
     1
102
RTVSPost2010Prop35
280
     0
102
RTVSPost2010PropOp35
 70
     1
102
RTVSPost2010Prop36
280
     0
102
RTVSPost2010PropOp36
 70
     1
102
RTVSPost2010Prop37
 90
       50
102
RTVSPost2010PropOp37
 70
     1
102
RTVSPost2010Prop38
140
0.0
102
RTVSPost2010PropOp38
 70
     1
102
RTVSPost2010Prop39
140
1.0
102
RTVSPost2010PropOp39
 70
     1
102
RTVSPost2010Prop40
 90
        0
102
RTVSPost2010PropOp40
 70
     1
102
RTVSPost2010Prop41ColorIndex
 90
       18
102
RTVSPost2010Prop41ColorRGB
 90
        0
102
RTVSPost2010PropOp41
 70
     1
102
RTVSPost2010Prop42
 90
       50
102
RTVSPost2010PropOp42
 70
     1
102
RTVSPost2010Prop43
 90
        3
102
RTVSPost2010PropOp43
 70
     1
102
RTVSPost2010Prop44ColorIndex
 90
        5
102
RTVSPost2010Prop44ColorRGB
 90
      255
102
RTVSPost2010PropOp44
 70
     1
102
RTVSPost2010Prop45
280
     0
102
RTVSPost2010PropOp45
 70
     1
102
RTVSPost2010Prop46
 90
       50
102
RTVSPost2010PropOp46
 70
     1
102
RTVSPost2010Prop47
 90
       50
102
RTVSPost2010PropOp47
 70
     1
102
RTVSPost2010Prop48
 90
       50
102
RTVSPost2010PropOp48
 70
     1
102
RTVSPost2010Prop49
280
     0
102
RTVSPost2010PropOp49
 70
     1
102
RTVSPost2010Prop50
 90
       50
102
RTVSPost2010PropOp50
 70
     1
102
RTVSPost2010Prop51ColorIndex
 90
      256
102
RTVSPost2010Prop51ColorRGB
 90
-16777216
102
RTVSPost2010PropOp51
 70
     0
102
RTVSPost2010Prop52
140
1.0
102
RTVSPost2010PropOp52
 70
     0
102
RTVSPost2010Prop53
 90
        2
102
RTVSPost2010PropOp53
 70
     1
102
RTVSPost2010Prop54
  1
strokes_ogs.tif
102
RTVSPost2010PropOp54
 70
     1
102
RTVSPost2010Prop55
280
     0
102
RTVSPost2010PropOp55
 70
     1
102
RTVSPost2010Prop56
140
1.0
102
RTVSPost2010PropOp56
 70
     1
102
RTVSPost2010Prop57
140
1.0
102
RTVSPost2010PropOp57
 70
     1
  0
XRECORD
  5
2A1
102
{ACAD_REACTORS
330
2A0
102
}
330
2A0
100
AcDbXrecord
280
     1
102
RTVSPropertyOp0
 70
     0
102
RTVSPropertyOp1
 70
     0
102
RTVSPropertyOp2
 70
     0
102
RTVSPropertyOp3
 70
     0
102
RTVSPropertyOp4
 70
     0
102
RTVSPropertyOp5
 70
     0
102
RTVSPropertyOp6
 70
     0
102
RTVSPropertyOp7
 70
     0
102
RTVSPropertyOp8
 70
     0
102
RTVSPropertyOp9
 70
     0
102
RTVSPropertyOp10
 70
     0
102
RTVSPropertyOp11
 70
     0
102
RTVSPropertyOp12
 70
     0
102
RTVSPropertyOp13
 70
     0
102
RTVSPropertyOp14
 70
     2
102
RTVSPropertyOp15
 70
     0
102
RTVSPropertyOp16
 70
     0
102
RTVSPropertyOp17
 70
     0
102
RTVSPropertyOp18
 70
     0
102
RTVSPropertyOp19
 70
     0
102
RTVSPropertyOp20
 70
     0
102
RTVSPropertyOp21
 70
     0
102
RTVSPropertyOp22
 70
     0
102
RTVSPropertyOp23
 70
     0
102
RTVSPropertyOp24
 70
     0
102
RTVSPropertyOp25
 70
     0
102
RTVSPropertyOp26
 70
     0
102
RTVSPropertyOp27
 70
     0
102
RTVSPropertyOp28
 70
     0
102
RTVSPropertyOp29
 70
     0
102
RTVSPropertyOp30
 70
     0
102
RTVSPropertyOp31
 70
     0
102
RTVSPropertyOp32
 70
     0
102
RTVSPropertyOp33
 70
     0
102
RTVSPropertyOp34
 70
     0
102
RTVSPropertyOp35
 70
     0
102
RTVSPropertyOp36
 70
     0
102
RTVSPropertyOp37
 70
     0
102
RTVSPropertyOp38
 70
     0
102
RTVSPropertyOp39
 70
     0
102
RTVSPropertyOp40
 70
     0
102
RTVSPropertyOp41
 70
     0
102
RTVSPropertyOp42
 70
     0
102
RTVSPropertyOp43
 70
     0
102
RTVSPropertyOp44
 70
     0
102
RTVSPropertyOp45
 70
     0
102
RTVSPropertyOp46
 70
     0
102
RTVSPropertyOp47
 70
     0
102
RTVSPropertyOp48
 70
     0
102
RTVSPropertyOp49
 70
     0
102
RTVSPropertyOp50
 70
     0
102
RTVSPropertyOp51
 70
     0
102
RTVSPropertyOp52
 70
     0
102
RTVSPropertyOp53
 70
     0
102
RTVSPropertyOp54
 70
     0
102
RTVSPropertyOp55
 70
     0
102
RTVSPropertyOp56
 70
     0
102
RTVSPropertyOp57
 70
     0
102
RTVSPost2010Prop28
280
     0
102
RTVSPost2010PropOp28
 70
     0
102
RTVSPost2010Prop29
280
     1
102
RTVSPost2010PropOp29
 70
     0
102
RTVSPost2010Prop30
280
     1
102
RTVSPost2010PropOp30
 70
     0
102
RTVSPost2010Prop31
280
     0
102
RTVSPost2010PropOp31
 70
     0
102
RTVSPost2010Prop32
280
     0
102
RTVSPost2010PropOp32
 70
     0
102
RTVSPost2010Prop33
280
     0
102
RTVSPost2010PropOp33
 70
     0
102
RTVSPost2010Prop34
280
     0
102
RTVSPost2010PropOp34
 70
     0
102
RTVSPost2010Prop35
280
     0
102
RTVSPost2010PropOp35
 70
     0
102
RTVSPost2010Prop36
280
     0
102
RTVSPost2010PropOp36
 70
     0
102
RTVSPost2010Prop37
 90
       50
102
RTVSPost2010PropOp37
 70
     0
102
RTVSPost2010Prop38
140
0.0
102
RTVSPost2010PropOp38
 70
     0
102
RTVSPost2010Prop39
140
1.0
102
RTVSPost2010PropOp39
 70
     0
102
RTVSPost2010Prop40
 90
        0
102
RTVSPost2010PropOp40
 70
     0
102
RTVSPost2010Prop41ColorIndex
 90
       18
102
RTVSPost2010Prop41ColorRGB
 90
        0
102
RTVSPost2010PropOp41
 70
     0
102
RTVSPost2010Prop42
 90
       50
102
RTVSPost2010PropOp42
 70
     0
102
RTVSPost2010Prop43
 90
        3
102
RTVSPost2010PropOp43
 70
     0
102
RTVSPost2010Prop44ColorIndex
 90
        5
102
RTVSPost2010Prop44ColorRGB
 90
      255
102
RTVSPost2010PropOp44
 70
     0
102
RTVSPost2010Prop45
280
     0
102
RTVSPost2010PropOp45
 70
     0
102
RTVSPost2010Prop46
 90
       50
102
RTVSPost2010PropOp46
 70
     0
102
RTVSPost2010Prop47
 90
       50
102
RTVSPost2010PropOp47
 70
     0
102
RTVSPost2010Prop48
 90
       50
102
RTVSPost2010PropOp48
 70
     0
102
RTVSPost2010Prop49
280
     0
102
RTVSPost2010PropOp49
 70
     0
102
RTVSPost2010Prop50
 90
       50
102
RTVSPost2010PropOp50
 70
     0
102
RTVSPost2010Prop51ColorIndex
 90
      256
102
RTVSPost2010Prop51ColorRGB
 90
-16777216
102
RTVSPost2010PropOp51
 70
     0
102
RTVSPost2010Prop52
140
1.0
102
RTVSPost2010PropOp52
 70
     0
102
RTVSPost2010Prop53
 90
        2
102
RTVSPost2010PropOp53
 70
     0
102
RTVSPost2010Prop54
  1
strokes_ogs.tif
102
RTVSPost2010PropOp54
 70
     0
102
RTVSPost2010Prop55
280
     0
102
RTVSPost2010PropOp55
 70
     0
102
RTVSPost2010Prop56
140
1.0
102
RTVSPost2010PropOp56
 70
     0
102
RTVSPost2010Prop57
140
1.0
102
RTVSPost2010PropOp57
 70
     0
  0
XRECORD
  5
299
102
{ACAD_REACTORS
330
298
102
}
330
298
100
AcDbXrecord
280
     1
102
RTVSPropertyOp0
 70
     1
102
RTVSPropertyOp1
 70
     1
102
RTVSPropertyOp2
 70
     1
102
RTVSPropertyOp3
 70
     1
102
RTVSPropertyOp4
 70
     1
102
RTVSPropertyOp5
 70
     1
102
RTVSPropertyOp6
 70
     1
102
RTVSPropertyOp7
 70
     1
102
RTVSPropertyOp8
 70
     1
102
RTVSPropertyOp9
 70
     1
102
RTVSPropertyOp10
 70
     1
102
RTVSPropertyOp11
 70
     1
102
RTVSPropertyOp12
 70
     1
102
RTVSPropertyOp13
 70
     1
102
RTVSPropertyOp14
 70
     1
102
RTVSPropertyOp15
 70
     1
102
RTVSPropertyOp16
 70
     1
102
RTVSPropertyOp17
 70
     1
102
RTVSPropertyOp18
 70
     1
102
RTVSPropertyOp19
 70
     1
102
RTVSPropertyOp20
 70
     1
102
RTVSPropertyOp21
 70
     1
102
RTVSPropertyOp22
 70
     1
102
RTVSPropertyOp23
 70
     1
102
RTVSPropertyOp24
 70
     1
102
RTVSPropertyOp25
 70
     1
102
RTVSPropertyOp26
 70
     1
102
RTVSPropertyOp27
 70
     1
102
RTVSPropertyOp28
 70
     1
102
RTVSPropertyOp29
 70
     1
102
RTVSPropertyOp30
 70
     1
102
RTVSPropertyOp31
 70
     1
102
RTVSPropertyOp32
 70
     1
102
RTVSPropertyOp33
 70
     1
102
RTVSPropertyOp34
 70
     1
102
RTVSPropertyOp35
 70
     1
102
RTVSPropertyOp36
 70
     1
102
RTVSPropertyOp37
 70
     1
102
RTVSPropertyOp38
 70
     1
102
RTVSPropertyOp39
 70
     1
102
RTVSPropertyOp40
 70
     1
102
RTVSPropertyOp41
 70
     1
102
RTVSPropertyOp42
 70
     1
102
RTVSPropertyOp43
 70
     1
102
RTVSPropertyOp44
 70
     1
102
RTVSPropertyOp45
 70
     1
102
RTVSPropertyOp46
 70
     1
102
RTVSPropertyOp47
 70
     1
102
RTVSPropertyOp48
 70
     1
102
RTVSPropertyOp49
 70
     1
102
RTVSPropertyOp50
 70
     1
102
RTVSPropertyOp51
 70
     0
102
RTVSPropertyOp52
 70
     0
102
RTVSPropertyOp53
 70
     1
102
RTVSPropertyOp54
 70
     1
102
RTVSPropertyOp55
 70
     1
102
RTVSPropertyOp56
 70
     1
102
RTVSPropertyOp57
 70
     1
102
RTVSPost2010Prop28
280
     0
102
RTVSPost2010PropOp28
 70
     1
102
RTVSPost2010Prop29
280
     1
102
RTVSPost2010PropOp29
 70
     1
102
RTVSPost2010Prop30
280
     1
102
RTVSPost2010PropOp30
 70
     1
102
RTVSPost2010Prop31
280
     0
102
RTVSPost2010PropOp31
 70
     1
102
RTVSPost2010Prop32
280
     0
102
RTVSPost2010PropOp32
 70
     1
102
RTVSPost2010Prop33
280
     0
102
RTVSPost2010PropOp33
 70
     1
102
RTVSPost2010Prop34
280
     0
102
RTVSPost2010PropOp34
 70
     1
102
RTVSPost2010Prop35
280
     0
102
RTVSPost2010PropOp35
 70
     1
102
RTVSPost2010Prop36
280
     0
102
RTVSPost2010PropOp36
 70
     1
102
RTVSPost2010Prop37
 90
       50
102
RTVSPost2010PropOp37
 70
     1
102
RTVSPost2010Prop38
140
0.0
102
RTVSPost2010PropOp38
 70
     1
102
RTVSPost2010Prop39
140
1.0
102
RTVSPost2010PropOp39
 70
     1
102
RTVSPost2010Prop40
 90
        0
102
RTVSPost2010PropOp40
 70
     1
102
RTVSPost2010Prop41ColorIndex
 90
       18
102
RTVSPost2010Prop41ColorRGB
 90
        0
102
RTVSPost2010PropOp41
 70
     1
102
RTVSPost2010Prop42
 90
       50
102
RTVSPost2010PropOp42
 70
     1
102
RTVSPost2010Prop43
 90
        3
102
RTVSPost2010PropOp43
 70
     1
102
RTVSPost2010Prop44ColorIndex
 90
        5
102
RTVSPost2010Prop44ColorRGB
 90
      255
102
RTVSPost2010PropOp44
 70
     1
102
RTVSPost2010Prop45
280
     0
102
RTVSPost2010PropOp45
 70
     1
102
RTVSPost2010Prop46
 90
       50
102
RTVSPost2010PropOp46
 70
     1
102
RTVSPost2010Prop47
 90
       50
102
RTVSPost2010PropOp47
 70
     1
102
RTVSPost2010Prop48
 90
       50
102
RTVSPost2010PropOp48
 70
     1
102
RTVSPost2010Prop49
280
     0
102
RTVSPost2010PropOp49
 70
     1
102
RTVSPost2010Prop50
 90
       50
102
RTVSPost2010PropOp50
 70
     1
102
RTVSPost2010Prop51ColorIndex
 90
      256
102
RTVSPost2010Prop51ColorRGB
 90
-16777216
102
RTVSPost2010PropOp51
 70
     0
102
RTVSPost2010Prop52
140
1.0
102
RTVSPost2010PropOp52
 70
     0
102
RTVSPost2010Prop53
 90
        2
102
RTVSPost2010PropOp53
 70
     1
102
RTVSPost2010Prop54
  1
strokes_ogs.tif
102
RTVSPost2010PropOp54
 70
     1
102
RTVSPost2010Prop55
280
     0
102
RTVSPost2010PropOp55
 70
     1
102
RTVSPost2010Prop56
140
1.0
102
RTVSPost2010PropOp56
 70
     1
102
RTVSPost2010Prop57
140
1.0
102
RTVSPost2010PropOp57
 70
     1
  0
XRECORD
  5
27D
102
{ACAD_REACTORS
330
27C
102
}
330
27C
100
AcDbXrecord
280
     1
102
RTVSPropertyOp0
 70
     1
102
RTVSPropertyOp1
 70
     1
102
RTVSPropertyOp2
 70
     1
102
RTVSPropertyOp3
 70
     1
102
RTVSPropertyOp4
 70
     1
102
RTVSPropertyOp5
 70
     1
102
RTVSPropertyOp6
 70
     1
102
RTVSPropertyOp7
 70
     1
102
RTVSPropertyOp8
 70
     1
102
RTVSPropertyOp9
 70
     1
102
RTVSPropertyOp10
 70
     1
102
RTVSPropertyOp11
 70
     1
102
RTVSPropertyOp12
 70
     1
102
RTVSPropertyOp13
 70
     1
102
RTVSPropertyOp14
 70
     1
102
RTVSPropertyOp15
 70
     1
102
RTVSPropertyOp16
 70
     1
102
RTVSPropertyOp17
 70
     1
102
RTVSPropertyOp18
 70
     1
102
RTVSPropertyOp19
 70
     1
102
RTVSPropertyOp20
 70
     1
102
RTVSPropertyOp21
 70
     1
102
RTVSPropertyOp22
 70
     1
102
RTVSPropertyOp23
 70
     1
102
RTVSPropertyOp24
 70
     1
102
RTVSPropertyOp25
 70
     1
102
RTVSPropertyOp26
 70
     1
102
RTVSPropertyOp27
 70
     1
102
RTVSPropertyOp28
 70
     1
102
RTVSPropertyOp29
 70
     1
102
RTVSPropertyOp30
 70
     1
102
RTVSPropertyOp31
 70
     1
102
RTVSPropertyOp32
 70
     1
102
RTVSPropertyOp33
 70
     1
102
RTVSPropertyOp34
 70
     1
102
RTVSPropertyOp35
 70
     1
102
RTVSPropertyOp36
 70
     1
102
RTVSPropertyOp37
 70
     1
102
RTVSPropertyOp38
 70
     1
102
RTVSPropertyOp39
 70
     1
102
RTVSPropertyOp40
 70
     1
102
RTVSPropertyOp41
 70
     1
102
RTVSPropertyOp42
 70
     1
102
RTVSPropertyOp43
 70
     1
102
RTVSPropertyOp44
 70
     1
102
RTVSPropertyOp45
 70
     1
102
RTVSPropertyOp46
 70
     1
102
RTVSPropertyOp47
 70
     1
102
RTVSPropertyOp48
 70
     1
102
RTVSPropertyOp49
 70
     1
102
RTVSPropertyOp50
 70
     1
102
RTVSPropertyOp51
 70
     0
102
RTVSPropertyOp52
 70
     0
102
RTVSPropertyOp53
 70
     1
102
RTVSPropertyOp54
 70
     1
102
RTVSPropertyOp55
 70
     1
102
RTVSPropertyOp56
 70
     1
102
RTVSPropertyOp57
 70
     1
102
RTVSPost2010Prop28
280
     0
102
RTVSPost2010PropOp28
 70
     1
102
RTVSPost2010Prop29
280
     1
102
RTVSPost2010PropOp29
 70
     1
102
RTVSPost2010Prop30
280
     1
102
RTVSPost2010PropOp30
 70
     1
102
RTVSPost2010Prop31
280
     0
102
RTVSPost2010PropOp31
 70
     1
102
RTVSPost2010Prop32
280
     0
102
RTVSPost2010PropOp32
 70
     1
102
RTVSPost2010Prop33
280
     0
102
RTVSPost2010PropOp33
 70
     1
102
RTVSPost2010Prop34
280
     0
102
RTVSPost2010PropOp34
 70
     1
102
RTVSPost2010Prop35
280
     0
102
RTVSPost2010PropOp35
 70
     1
102
RTVSPost2010Prop36
280
     0
102
RTVSPost2010PropOp36
 70
     1
102
RTVSPost2010Prop37
 90
       50
102
RTVSPost2010PropOp37
 70
     1
102
RTVSPost2010Prop38
140
0.0
102
RTVSPost2010PropOp38
 70
     1
102
RTVSPost2010Prop39
140
1.0
102
RTVSPost2010PropOp39
 70
     1
102
RTVSPost2010Prop40
 90
        0
102
RTVSPost2010PropOp40
 70
     1
102
RTVSPost2010Prop41ColorIndex
 90
       18
102
RTVSPost2010Prop41ColorRGB
 90
        0
102
RTVSPost2010PropOp41
 70
     1
102
RTVSPost2010Prop42
 90
       50
102
RTVSPost2010PropOp42
 70
     1
102
RTVSPost2010Prop43
 90
        3
102
RTVSPost2010PropOp43
 70
     1
102
RTVSPost2010Prop44ColorIndex
 90
        5
102
RTVSPost2010Prop44ColorRGB
 90
      255
102
RTVSPost2010PropOp44
 70
     1
102
RTVSPost2010Prop45
280
     0
102
RTVSPost2010PropOp45
 70
     1
102
RTVSPost2010Prop46
 90
       50
102
RTVSPost2010PropOp46
 70
     1
102
RTVSPost2010Prop47
 90
       50
102
RTVSPost2010PropOp47
 70
     1
102
RTVSPost2010Prop48
 90
       50
102
RTVSPost2010PropOp48
 70
     1
102
RTVSPost2010Prop49
280
     0
102
RTVSPost2010PropOp49
 70
     1
102
RTVSPost2010Prop50
 90
       50
102
RTVSPost2010PropOp50
 70
     1
102
RTVSPost2010Prop51ColorIndex
 90
      256
102
RTVSPost2010Prop51ColorRGB
 90
-16777216
102
RTVSPost2010PropOp51
 70
     0
102
RTVSPost2010Prop52
140
1.0
102
RTVSPost2010PropOp52
 70
     0
102
RTVSPost2010Prop53
 90
        2
102
RTVSPost2010PropOp53
 70
     1
102
RTVSPost2010Prop54
  1
strokes_ogs.tif
102
RTVSPost2010PropOp54
 70
     1
102
RTVSPost2010Prop55
280
     0
102
RTVSPost2010PropOp55
 70
     1
102
RTVSPost2010Prop56
140
1.0
102
RTVSPost2010PropOp56
 70
     1
102
RTVSPost2010Prop57
140
1.0
102
RTVSPost2010PropOp57
 70
     1
  0
XRECORD
  5
27F
102
{ACAD_REACTORS
330
27E
102
}
330
27E
100
AcDbXrecord
280
     1
102
RTVSPropertyOp0
 70
     1
102
RTVSPropertyOp1
 70
     1
102
RTVSPropertyOp2
 70
     1
102
RTVSPropertyOp3
 70
     1
102
RTVSPropertyOp4
 70
     1
102
RTVSPropertyOp5
 70
     1
102
RTVSPropertyOp6
 70
     1
102
RTVSPropertyOp7
 70
     1
102
RTVSPropertyOp8
 70
     1
102
RTVSPropertyOp9
 70
     1
102
RTVSPropertyOp10
 70
     1
102
RTVSPropertyOp11
 70
     1
102
RTVSPropertyOp12
 70
     1
102
RTVSPropertyOp13
 70
     1
102
RTVSPropertyOp14
 70
     1
102
RTVSPropertyOp15
 70
     1
102
RTVSPropertyOp16
 70
     1
102
RTVSPropertyOp17
 70
     1
102
RTVSPropertyOp18
 70
     1
102
RTVSPropertyOp19
 70
     1
102
RTVSPropertyOp20
 70
     1
102
RTVSPropertyOp21
 70
     1
102
RTVSPropertyOp22
 70
     1
102
RTVSPropertyOp23
 70
     1
102
RTVSPropertyOp24
 70
     1
102
RTVSPropertyOp25
 70
     1
102
RTVSPropertyOp26
 70
     1
102
RTVSPropertyOp27
 70
     1
102
RTVSPropertyOp28
 70
     1
102
RTVSPropertyOp29
 70
     1
102
RTVSPropertyOp30
 70
     1
102
RTVSPropertyOp31
 70
     1
102
RTVSPropertyOp32
 70
     1
102
RTVSPropertyOp33
 70
     1
102
RTVSPropertyOp34
 70
     1
102
RTVSPropertyOp35
 70
     1
102
RTVSPropertyOp36
 70
     1
102
RTVSPropertyOp37
 70
     1
102
RTVSPropertyOp38
 70
     1
102
RTVSPropertyOp39
 70
     1
102
RTVSPropertyOp40
 70
     1
102
RTVSPropertyOp41
 70
     1
102
RTVSPropertyOp42
 70
     1
102
RTVSPropertyOp43
 70
     1
102
RTVSPropertyOp44
 70
     1
102
RTVSPropertyOp45
 70
     1
102
RTVSPropertyOp46
 70
     1
102
RTVSPropertyOp47
 70
     1
102
RTVSPropertyOp48
 70
     1
102
RTVSPropertyOp49
 70
     1
102
RTVSPropertyOp50
 70
     1
102
RTVSPropertyOp51
 70
     0
102
RTVSPropertyOp52
 70
     0
102
RTVSPropertyOp53
 70
     1
102
RTVSPropertyOp54
 70
     1
102
RTVSPropertyOp55
 70
     1
102
RTVSPropertyOp56
 70
     1
102
RTVSPropertyOp57
 70
     1
102
RTVSPost2010Prop28
280
     0
102
RTVSPost2010PropOp28
 70
     1
102
RTVSPost2010Prop29
280
     1
102
RTVSPost2010PropOp29
 70
     1
102
RTVSPost2010Prop30
280
     1
102
RTVSPost2010PropOp30
 70
     1
102
RTVSPost2010Prop31
280
     0
102
RTVSPost2010PropOp31
 70
     1
102
RTVSPost2010Prop32
280
     0
102
RTVSPost2010PropOp32
 70
     1
102
RTVSPost2010Prop33
280
     0
102
RTVSPost2010PropOp33
 70
     1
102
RTVSPost2010Prop34
280
     0
102
RTVSPost2010PropOp34
 70
     1
102
RTVSPost2010Prop35
280
     0
102
RTVSPost2010PropOp35
 70
     1
102
RTVSPost2010Prop36
280
     0
102
RTVSPost2010PropOp36
 70
     1
102
RTVSPost2010Prop37
 90
       50
102
RTVSPost2010PropOp37
 70
     1
102
RTVSPost2010Prop38
140
0.0
102
RTVSPost2010PropOp38
 70
     1
102
RTVSPost2010Prop39
140
1.0
102
RTVSPost2010PropOp39
 70
     1
102
RTVSPost2010Prop40
 90
        0
102
RTVSPost2010PropOp40
 70
     1
102
RTVSPost2010Prop41ColorIndex
 90
       18
102
RTVSPost2010Prop41ColorRGB
 90
        0
102
RTVSPost2010PropOp41
 70
     1
102
RTVSPost2010Prop42
 90
       50
102
RTVSPost2010PropOp42
 70
     1
102
RTVSPost2010Prop43
 90
        3
102
RTVSPost2010PropOp43
 70
     1
102
RTVSPost2010Prop44ColorIndex
 90
        5
102
RTVSPost2010Prop44ColorRGB
 90
      255
102
RTVSPost2010PropOp44
 70
     1
102
RTVSPost2010Prop45
280
     0
102
RTVSPost2010PropOp45
 70
     1
102
RTVSPost2010Prop46
 90
       50
102
RTVSPost2010PropOp46
 70
     1
102
RTVSPost2010Prop47
 90
       50
102
RTVSPost2010PropOp47
 70
     1
102
RTVSPost2010Prop48
 90
       50
102
RTVSPost2010PropOp48
 70
     1
102
RTVSPost2010Prop49
280
     0
102
RTVSPost2010PropOp49
 70
     1
102
RTVSPost2010Prop50
 90
       50
102
RTVSPost2010PropOp50
 70
     1
102
RTVSPost2010Prop51ColorIndex
 90
      256
102
RTVSPost2010Prop51ColorRGB
 90
-16777216
102
RTVSPost2010PropOp51
 70
     0
102
RTVSPost2010Prop52
140
1.0
102
RTVSPost2010PropOp52
 70
     0
102
RTVSPost2010Prop53
 90
        2
102
RTVSPost2010PropOp53
 70
     1
102
RTVSPost2010Prop54
  1
strokes_ogs.tif
102
RTVSPost2010PropOp54
 70
     1
102
RTVSPost2010Prop55
280
     0
102
RTVSPost2010PropOp55
 70
     1
102
RTVSPost2010Prop56
140
1.0
102
RTVSPost2010PropOp56
 70
     1
102
RTVSPost2010Prop57
140
1.0
102
RTVSPost2010PropOp57
 70
     1
  0
XRECORD
  5
281
102
{ACAD_REACTORS
330
280
102
}
330
280
100
AcDbXrecord
280
     1
102
RTVSPropertyOp0
 70
     1
102
RTVSPropertyOp1
 70
     1
102
RTVSPropertyOp2
 70
     1
102
RTVSPropertyOp3
 70
     1
102
RTVSPropertyOp4
 70
     1
102
RTVSPropertyOp5
 70
     1
102
RTVSPropertyOp6
 70
     1
102
RTVSPropertyOp7
 70
     1
102
RTVSPropertyOp8
 70
     1
102
RTVSPropertyOp9
 70
     1
102
RTVSPropertyOp10
 70
     1
102
RTVSPropertyOp11
 70
     1
102
RTVSPropertyOp12
 70
     1
102
RTVSPropertyOp13
 70
     1
102
RTVSPropertyOp14
 70
     1
102
RTVSPropertyOp15
 70
     1
102
RTVSPropertyOp16
 70
     1
102
RTVSPropertyOp17
 70
     1
102
RTVSPropertyOp18
 70
     1
102
RTVSPropertyOp19
 70
     1
102
RTVSPropertyOp20
 70
     1
102
RTVSPropertyOp21
 70
     1
102
RTVSPropertyOp22
 70
     1
102
RTVSPropertyOp23
 70
     1
102
RTVSPropertyOp24
 70
     1
102
RTVSPropertyOp25
 70
     1
102
RTVSPropertyOp26
 70
     1
102
RTVSPropertyOp27
 70
     1
102
RTVSPropertyOp28
 70
     1
102
RTVSPropertyOp29
 70
     1
102
RTVSPropertyOp30
 70
     1
102
RTVSPropertyOp31
 70
     1
102
RTVSPropertyOp32
 70
     1
102
RTVSPropertyOp33
 70
     1
102
RTVSPropertyOp34
 70
     1
102
RTVSPropertyOp35
 70
     1
102
RTVSPropertyOp36
 70
     1
102
RTVSPropertyOp37
 70
     1
102
RTVSPropertyOp38
 70
     1
102
RTVSPropertyOp39
 70
     1
102
RTVSPropertyOp40
 70
     1
102
RTVSPropertyOp41
 70
     1
102
RTVSPropertyOp42
 70
     1
102
RTVSPropertyOp43
 70
     1
102
RTVSPropertyOp44
 70
     1
102
RTVSPropertyOp45
 70
     1
102
RTVSPropertyOp46
 70
     1
102
RTVSPropertyOp47
 70
     1
102
RTVSPropertyOp48
 70
     1
102
RTVSPropertyOp49
 70
     1
102
RTVSPropertyOp50
 70
     1
102
RTVSPropertyOp51
 70
     0
102
RTVSPropertyOp52
 70
     0
102
RTVSPropertyOp53
 70
     1
102
RTVSPropertyOp54
 70
     1
102
RTVSPropertyOp55
 70
     1
102
RTVSPropertyOp56
 70
     1
102
RTVSPropertyOp57
 70
     1
102
RTVSPost2010Prop28
280
     0
102
RTVSPost2010PropOp28
 70
     1
102
RTVSPost2010Prop29
280
     1
102
RTVSPost2010PropOp29
 70
     1
102
RTVSPost2010Prop30
280
     1
102
RTVSPost2010PropOp30
 70
     1
102
RTVSPost2010Prop31
280
     0
102
RTVSPost2010PropOp31
 70
     1
102
RTVSPost2010Prop32
280
     0
102
RTVSPost2010PropOp32
 70
     1
102
RTVSPost2010Prop33
280
     0
102
RTVSPost2010PropOp33
 70
     1
102
RTVSPost2010Prop34
280
     0
102
RTVSPost2010PropOp34
 70
     1
102
RTVSPost2010Prop35
280
     0
102
RTVSPost2010PropOp35
 70
     1
102
RTVSPost2010Prop36
280
     0
102
RTVSPost2010PropOp36
 70
     1
102
RTVSPost2010Prop37
 90
       50
102
RTVSPost2010PropOp37
 70
     1
102
RTVSPost2010Prop38
140
0.0
102
RTVSPost2010PropOp38
 70
     1
102
RTVSPost2010Prop39
140
1.0
102
RTVSPost2010PropOp39
 70
     1
102
RTVSPost2010Prop40
 90
        0
102
RTVSPost2010PropOp40
 70
     1
102
RTVSPost2010Prop41ColorIndex
 90
       18
102
RTVSPost2010Prop41ColorRGB
 90
        0
102
RTVSPost2010PropOp41
 70
     1
102
RTVSPost2010Prop42
 90
       50
102
RTVSPost2010PropOp42
 70
     1
102
RTVSPost2010Prop43
 90
        3
102
RTVSPost2010PropOp43
 70
     1
102
RTVSPost2010Prop44ColorIndex
 90
        5
102
RTVSPost2010Prop44ColorRGB
 90
      255
102
RTVSPost2010PropOp44
 70
     1
102
RTVSPost2010Prop45
280
     0
102
RTVSPost2010PropOp45
 70
     1
102
RTVSPost2010Prop46
 90
       50
102
RTVSPost2010PropOp46
 70
     1
102
RTVSPost2010Prop47
 90
       50
102
RTVSPost2010PropOp47
 70
     1
102
RTVSPost2010Prop48
 90
       50
102
RTVSPost2010PropOp48
 70
     1
102
RTVSPost2010Prop49
280
     0
102
RTVSPost2010PropOp49
 70
     1
102
RTVSPost2010Prop50
 90
       50
102
RTVSPost2010PropOp50
 70
     1
102
RTVSPost2010Prop51ColorIndex
 90
      256
102
RTVSPost2010Prop51ColorRGB
 90
-16777216
102
RTVSPost2010PropOp51
 70
     0
102
RTVSPost2010Prop52
140
1.0
102
RTVSPost2010PropOp52
 70
     0
102
RTVSPost2010Prop53
 90
        2
102
RTVSPost2010PropOp53
 70
     1
102
RTVSPost2010Prop54
  1
strokes_ogs.tif
102
RTVSPost2010PropOp54
 70
     1
102
RTVSPost2010Prop55
280
     0
102
RTVSPost2010PropOp55
 70
     1
102
RTVSPost2010Prop56
140
1.0
102
RTVSPost2010PropOp56
 70
     1
102
RTVSPost2010Prop57
140
1.0
102
RTVSPost2010PropOp57
 70
     1
  0
XRECORD
  5
283
102
{ACAD_REACTORS
330
282
102
}
330
282
100
AcDbXrecord
280
     1
102
RTVSPropertyOp0
 70
     1
102
RTVSPropertyOp1
 70
     1
102
RTVSPropertyOp2
 70
     1
102
RTVSPropertyOp3
 70
     1
102
RTVSPropertyOp4
 70
     1
102
RTVSPropertyOp5
 70
     1
102
RTVSPropertyOp6
 70
     1
102
RTVSPropertyOp7
 70
     1
102
RTVSPropertyOp8
 70
     1
102
RTVSPropertyOp9
 70
     1
102
RTVSPropertyOp10
 70
     1
102
RTVSPropertyOp11
 70
     1
102
RTVSPropertyOp12
 70
     1
102
RTVSPropertyOp13
 70
     1
102
RTVSPropertyOp14
 70
     1
102
RTVSPropertyOp15
 70
     1
102
RTVSPropertyOp16
 70
     1
102
RTVSPropertyOp17
 70
     1
102
RTVSPropertyOp18
 70
     1
102
RTVSPropertyOp19
 70
     1
102
RTVSPropertyOp20
 70
     1
102
RTVSPropertyOp21
 70
     1
102
RTVSPropertyOp22
 70
     1
102
RTVSPropertyOp23
 70
     1
102
RTVSPropertyOp24
 70
     1
102
RTVSPropertyOp25
 70
     1
102
RTVSPropertyOp26
 70
     1
102
RTVSPropertyOp27
 70
     1
102
RTVSPropertyOp28
 70
     1
102
RTVSPropertyOp29
 70
     1
102
RTVSPropertyOp30
 70
     1
102
RTVSPropertyOp31
 70
     1
102
RTVSPropertyOp32
 70
     1
102
RTVSPropertyOp33
 70
     1
102
RTVSPropertyOp34
 70
     1
102
RTVSPropertyOp35
 70
     1
102
RTVSPropertyOp36
 70
     1
102
RTVSPropertyOp37
 70
     1
102
RTVSPropertyOp38
 70
     1
102
RTVSPropertyOp39
 70
     1
102
RTVSPropertyOp40
 70
     1
102
RTVSPropertyOp41
 70
     1
102
RTVSPropertyOp42
 70
     1
102
RTVSPropertyOp43
 70
     1
102
RTVSPropertyOp44
 70
     1
102
RTVSPropertyOp45
 70
     1
102
RTVSPropertyOp46
 70
     1
102
RTVSPropertyOp47
 70
     1
102
RTVSPropertyOp48
 70
     1
102
RTVSPropertyOp49
 70
     1
102
RTVSPropertyOp50
 70
     1
102
RTVSPropertyOp51
 70
     0
102
RTVSPropertyOp52
 70
     0
102
RTVSPropertyOp53
 70
     1
102
RTVSPropertyOp54
 70
     1
102
RTVSPropertyOp55
 70
     1
102
RTVSPropertyOp56
 70
     1
102
RTVSPropertyOp57
 70
     1
102
RTVSPost2010Prop28
280
     0
102
RTVSPost2010PropOp28
 70
     1
102
RTVSPost2010Prop29
280
     1
102
RTVSPost2010PropOp29
 70
     1
102
RTVSPost2010Prop30
280
     1
102
RTVSPost2010PropOp30
 70
     1
102
RTVSPost2010Prop31
280
     0
102
RTVSPost2010PropOp31
 70
     1
102
RTVSPost2010Prop32
280
     0
102
RTVSPost2010PropOp32
 70
     1
102
RTVSPost2010Prop33
280
     0
102
RTVSPost2010PropOp33
 70
     1
102
RTVSPost2010Prop34
280
     0
102
RTVSPost2010PropOp34
 70
     1
102
RTVSPost2010Prop35
280
     0
102
RTVSPost2010PropOp35
 70
     1
102
RTVSPost2010Prop36
280
     0
102
RTVSPost2010PropOp36
 70
     1
102
RTVSPost2010Prop37
 90
       50
102
RTVSPost2010PropOp37
 70
     1
102
RTVSPost2010Prop38
140
0.0
102
RTVSPost2010PropOp38
 70
     1
102
RTVSPost2010Prop39
140
1.0
102
RTVSPost2010PropOp39
 70
     1
102
RTVSPost2010Prop40
 90
        0
102
RTVSPost2010PropOp40
 70
     1
102
RTVSPost2010Prop41ColorIndex
 90
       18
102
RTVSPost2010Prop41ColorRGB
 90
        0
102
RTVSPost2010PropOp41
 70
     1
102
RTVSPost2010Prop42
 90
       50
102
RTVSPost2010PropOp42
 70
     1
102
RTVSPost2010Prop43
 90
        3
102
RTVSPost2010PropOp43
 70
     1
102
RTVSPost2010Prop44ColorIndex
 90
        5
102
RTVSPost2010Prop44ColorRGB
 90
      255
102
RTVSPost2010PropOp44
 70
     1
102
RTVSPost2010Prop45
280
     0
102
RTVSPost2010PropOp45
 70
     1
102
RTVSPost2010Prop46
 90
       50
102
RTVSPost2010PropOp46
 70
     1
102
RTVSPost2010Prop47
 90
       50
102
RTVSPost2010PropOp47
 70
     1
102
RTVSPost2010Prop48
 90
       50
102
RTVSPost2010PropOp48
 70
     1
102
RTVSPost2010Prop49
280
     0
102
RTVSPost2010PropOp49
 70
     1
102
RTVSPost2010Prop50
 90
       50
102
RTVSPost2010PropOp50
 70
     1
102
RTVSPost2010Prop51ColorIndex
 90
      256
102
RTVSPost2010Prop51ColorRGB
 90
-16777216
102
RTVSPost2010PropOp51
 70
     0
102
RTVSPost2010Prop52
140
1.0
102
RTVSPost2010PropOp52
 70
     0
102
RTVSPost2010Prop53
 90
        2
102
RTVSPost2010PropOp53
 70
     1
102
RTVSPost2010Prop54
  1
strokes_ogs.tif
102
RTVSPost2010PropOp54
 70
     1
102
RTVSPost2010Prop55
280
     0
102
RTVSPost2010PropOp55
 70
     1
102
RTVSPost2010Prop56
140
1.0
102
RTVSPost2010PropOp56
 70
     1
102
RTVSPost2010Prop57
140
1.0
102
RTVSPost2010PropOp57
 70
     1
  0
XRECORD
  5
289
102
{ACAD_REACTORS
330
288
102
}
330
288
100
AcDbXrecord
280
     1
102
RTVSPropertyOp0
 70
     1
102
RTVSPropertyOp1
 70
     1
102
RTVSPropertyOp2
 70
     1
102
RTVSPropertyOp3
 70
     1
102
RTVSPropertyOp4
 70
     1
102
RTVSPropertyOp5
 70
     1
102
RTVSPropertyOp6
 70
     1
102
RTVSPropertyOp7
 70
     1
102
RTVSPropertyOp8
 70
     1
102
RTVSPropertyOp9
 70
     1
102
RTVSPropertyOp10
 70
     1
102
RTVSPropertyOp11
 70
     1
102
RTVSPropertyOp12
 70
     1
102
RTVSPropertyOp13
 70
     1
102
RTVSPropertyOp14
 70
     1
102
RTVSPropertyOp15
 70
     1
102
RTVSPropertyOp16
 70
     1
102
RTVSPropertyOp17
 70
     1
102
RTVSPropertyOp18
 70
     1
102
RTVSPropertyOp19
 70
     1
102
RTVSPropertyOp20
 70
     1
102
RTVSPropertyOp21
 70
     1
102
RTVSPropertyOp22
 70
     1
102
RTVSPropertyOp23
 70
     1
102
RTVSPropertyOp24
 70
     1
102
RTVSPropertyOp25
 70
     1
102
RTVSPropertyOp26
 70
     1
102
RTVSPropertyOp27
 70
     1
102
RTVSPropertyOp28
 70
     1
102
RTVSPropertyOp29
 70
     1
102
RTVSPropertyOp30
 70
     1
102
RTVSPropertyOp31
 70
     1
102
RTVSPropertyOp32
 70
     1
102
RTVSPropertyOp33
 70
     1
102
RTVSPropertyOp34
 70
     1
102
RTVSPropertyOp35
 70
     1
102
RTVSPropertyOp36
 70
     1
102
RTVSPropertyOp37
 70
     1
102
RTVSPropertyOp38
 70
     1
102
RTVSPropertyOp39
 70
     1
102
RTVSPropertyOp40
 70
     1
102
RTVSPropertyOp41
 70
     1
102
RTVSPropertyOp42
 70
     1
102
RTVSPropertyOp43
 70
     1
102
RTVSPropertyOp44
 70
     1
102
RTVSPropertyOp45
 70
     1
102
RTVSPropertyOp46
 70
     1
102
RTVSPropertyOp47
 70
     1
102
RTVSPropertyOp48
 70
     1
102
RTVSPropertyOp49
 70
     1
102
RTVSPropertyOp50
 70
     1
102
RTVSPropertyOp51
 70
     0
102
RTVSPropertyOp52
 70
     0
102
RTVSPropertyOp53
 70
     1
102
RTVSPropertyOp54
 70
     1
102
RTVSPropertyOp55
 70
     1
102
RTVSPropertyOp56
 70
     1
102
RTVSPropertyOp57
 70
     1
102
RTVSPost2010Prop28
280
     0
102
RTVSPost2010PropOp28
 70
     1
102
RTVSPost2010Prop29
280
     1
102
RTVSPost2010PropOp29
 70
     1
102
RTVSPost2010Prop30
280
     1
102
RTVSPost2010PropOp30
 70
     1
102
RTVSPost2010Prop31
280
     0
102
RTVSPost2010PropOp31
 70
     1
102
RTVSPost2010Prop32
280
     0
102
RTVSPost2010PropOp32
 70
     1
102
RTVSPost2010Prop33
280
     0
102
RTVSPost2010PropOp33
 70
     1
102
RTVSPost2010Prop34
280
     0
102
RTVSPost2010PropOp34
 70
     1
102
RTVSPost2010Prop35
280
     0
102
RTVSPost2010PropOp35
 70
     1
102
RTVSPost2010Prop36
280
     0
102
RTVSPost2010PropOp36
 70
     1
102
RTVSPost2010Prop37
 90
       50
102
RTVSPost2010PropOp37
 70
     1
102
RTVSPost2010Prop38
140
0.0
102
RTVSPost2010PropOp38
 70
     1
102
RTVSPost2010Prop39
140
1.0
102
RTVSPost2010PropOp39
 70
     1
102
RTVSPost2010Prop40
 90
        0
102
RTVSPost2010PropOp40
 70
     1
102
RTVSPost2010Prop41ColorIndex
 90
       18
102
RTVSPost2010Prop41ColorRGB
 90
        0
102
RTVSPost2010PropOp41
 70
     1
102
RTVSPost2010Prop42
 90
       50
102
RTVSPost2010PropOp42
 70
     1
102
RTVSPost2010Prop43
 90
        3
102
RTVSPost2010PropOp43
 70
     1
102
RTVSPost2010Prop44ColorIndex
 90
        5
102
RTVSPost2010Prop44ColorRGB
 90
      255
102
RTVSPost2010PropOp44
 70
     1
102
RTVSPost2010Prop45
280
     0
102
RTVSPost2010PropOp45
 70
     1
102
RTVSPost2010Prop46
 90
       50
102
RTVSPost2010PropOp46
 70
     1
102
RTVSPost2010Prop47
 90
       50
102
RTVSPost2010PropOp47
 70
     1
102
RTVSPost2010Prop48
 90
       50
102
RTVSPost2010PropOp48
 70
     1
102
RTVSPost2010Prop49
280
     0
102
RTVSPost2010PropOp49
 70
     1
102
RTVSPost2010Prop50
 90
       50
102
RTVSPost2010PropOp50
 70
     1
102
RTVSPost2010Prop51ColorIndex
 90
      256
102
RTVSPost2010Prop51ColorRGB
 90
-16777216
102
RTVSPost2010PropOp51
 70
     0
102
RTVSPost2010Prop52
140
1.0
102
RTVSPost2010PropOp52
 70
     0
102
RTVSPost2010Prop53
 90
        2
102
RTVSPost2010PropOp53
 70
     1
102
RTVSPost2010Prop54
  1
strokes_ogs.tif
102
RTVSPost2010PropOp54
 70
     1
102
RTVSPost2010Prop55
280
     0
102
RTVSPost2010PropOp55
 70
     1
102
RTVSPost2010Prop56
140
1.0
102
RTVSPost2010PropOp56
 70
     1
102
RTVSPost2010Prop57
140
1.0
102
RTVSPost2010PropOp57
 70
     1
  0
XRECORD
  5
29D
102
{ACAD_REACTORS
330
29C
102
}
330
29C
100
AcDbXrecord
280
     1
102
RTVSPropertyOp0
 70
     0
102
RTVSPropertyOp1
 70
     0
102
RTVSPropertyOp2
 70
     0
102
RTVSPropertyOp3
 70
     0
102
RTVSPropertyOp4
 70
     0
102
RTVSPropertyOp5
 70
     0
102
RTVSPropertyOp6
 70
     0
102
RTVSPropertyOp7
 70
     0
102
RTVSPropertyOp8
 70
     0
102
RTVSPropertyOp9
 70
     0
102
RTVSPropertyOp10
 70
     0
102
RTVSPropertyOp11
 70
     0
102
RTVSPropertyOp12
 70
     0
102
RTVSPropertyOp13
 70
     0
102
RTVSPropertyOp14
 70
     2
102
RTVSPropertyOp15
 70
     0
102
RTVSPropertyOp16
 70
     0
102
RTVSPropertyOp17
 70
     0
102
RTVSPropertyOp18
 70
     0
102
RTVSPropertyOp19
 70
     0
102
RTVSPropertyOp20
 70
     0
102
RTVSPropertyOp21
 70
     0
102
RTVSPropertyOp22
 70
     0
102
RTVSPropertyOp23
 70
     0
102
RTVSPropertyOp24
 70
     0
102
RTVSPropertyOp25
 70
     0
102
RTVSPropertyOp26
 70
     0
102
RTVSPropertyOp27
 70
     0
102
RTVSPropertyOp28
 70
     0
102
RTVSPropertyOp29
 70
     0
102
RTVSPropertyOp30
 70
     0
102
RTVSPropertyOp31
 70
     0
102
RTVSPropertyOp32
 70
     0
102
RTVSPropertyOp33
 70
     0
102
RTVSPropertyOp34
 70
     0
102
RTVSPropertyOp35
 70
     0
102
RTVSPropertyOp36
 70
     0
102
RTVSPropertyOp37
 70
     0
102
RTVSPropertyOp38
 70
     0
102
RTVSPropertyOp39
 70
     0
102
RTVSPropertyOp40
 70
     0
102
RTVSPropertyOp41
 70
     0
102
RTVSPropertyOp42
 70
     0
102
RTVSPropertyOp43
 70
     0
102
RTVSPropertyOp44
 70
     0
102
RTVSPropertyOp45
 70
     0
102
RTVSPropertyOp46
 70
     0
102
RTVSPropertyOp47
 70
     0
102
RTVSPropertyOp48
 70
     0
102
RTVSPropertyOp49
 70
     0
102
RTVSPropertyOp50
 70
     0
102
RTVSPropertyOp51
 70
     0
102
RTVSPropertyOp52
 70
     0
102
RTVSPropertyOp53
 70
     0
102
RTVSPropertyOp54
 70
     0
102
RTVSPropertyOp55
 70
     0
102
RTVSPropertyOp56
 70
     0
102
RTVSPropertyOp57
 70
     0
102
RTVSPost2010Prop28
280
     0
102
RTVSPost2010PropOp28
 70
     0
102
RTVSPost2010Prop29
280
     1
102
RTVSPost2010PropOp29
 70
     0
102
RTVSPost2010Prop30
280
     1
102
RTVSPost2010PropOp30
 70
     0
102
RTVSPost2010Prop31
280
     0
102
RTVSPost2010PropOp31
 70
     0
102
RTVSPost2010Prop32
280
     0
102
RTVSPost2010PropOp32
 70
     0
102
RTVSPost2010Prop33
280
     0
102
RTVSPost2010PropOp33
 70
     0
102
RTVSPost2010Prop34
280
     0
102
RTVSPost2010PropOp34
 70
     0
102
RTVSPost2010Prop35
280
     0
102
RTVSPost2010PropOp35
 70
     0
102
RTVSPost2010Prop36
280
     0
102
RTVSPost2010PropOp36
 70
     0
102
RTVSPost2010Prop37
 90
       50
102
RTVSPost2010PropOp37
 70
     0
102
RTVSPost2010Prop38
140
0.0
102
RTVSPost2010PropOp38
 70
     0
102
RTVSPost2010Prop39
140
1.0
102
RTVSPost2010PropOp39
 70
     0
102
RTVSPost2010Prop40
 90
        0
102
RTVSPost2010PropOp40
 70
     0
102
RTVSPost2010Prop41ColorIndex
 90
       18
102
RTVSPost2010Prop41ColorRGB
 90
        0
102
RTVSPost2010PropOp41
 70
     0
102
RTVSPost2010Prop42
 90
       50
102
RTVSPost2010PropOp42
 70
     0
102
RTVSPost2010Prop43
 90
        3
102
RTVSPost2010PropOp43
 70
     0
102
RTVSPost2010Prop44ColorIndex
 90
        5
102
RTVSPost2010Prop44ColorRGB
 90
      255
102
RTVSPost2010PropOp44
 70
     0
102
RTVSPost2010Prop45
280
     0
102
RTVSPost2010PropOp45
 70
     0
102
RTVSPost2010Prop46
 90
       50
102
RTVSPost2010PropOp46
 70
     0
102
RTVSPost2010Prop47
 90
       50
102
RTVSPost2010PropOp47
 70
     0
102
RTVSPost2010Prop48
 90
       50
102
RTVSPost2010PropOp48
 70
     0
102
RTVSPost2010Prop49
280
     0
102
RTVSPost2010PropOp49
 70
     0
102
RTVSPost2010Prop50
 90
       50
102
RTVSPost2010PropOp50
 70
     0
102
RTVSPost2010Prop51ColorIndex
 90
      256
102
RTVSPost2010Prop51ColorRGB
 90
-16777216
102
RTVSPost2010PropOp51
 70
     0
102
RTVSPost2010Prop52
140
1.0
102
RTVSPost2010PropOp52
 70
     0
102
RTVSPost2010Prop53
 90
        2
102
RTVSPost2010PropOp53
 70
     0
102
RTVSPost2010Prop54
  1
strokes_ogs.tif
102
RTVSPost2010PropOp54
 70
     0
102
RTVSPost2010Prop55
280
     0
102
RTVSPost2010PropOp55
 70
     0
102
RTVSPost2010Prop56
140
1.0
102
RTVSPost2010PropOp56
 70
     0
102
RTVSPost2010Prop57
140
1.0
102
RTVSPost2010PropOp57
 70
     0
  0
XRECORD
  5
297
102
{ACAD_REACTORS
330
296
102
}
330
296
100
AcDbXrecord
280
     1
102
RTVSPropertyOp0
 70
     1
102
RTVSPropertyOp1
 70
     1
102
RTVSPropertyOp2
 70
     1
102
RTVSPropertyOp3
 70
     1
102
RTVSPropertyOp4
 70
     1
102
RTVSPropertyOp5
 70
     1
102
RTVSPropertyOp6
 70
     1
102
RTVSPropertyOp7
 70
     1
102
RTVSPropertyOp8
 70
     1
102
RTVSPropertyOp9
 70
     1
102
RTVSPropertyOp10
 70
     1
102
RTVSPropertyOp11
 70
     1
102
RTVSPropertyOp12
 70
     1
102
RTVSPropertyOp13
 70
     1
102
RTVSPropertyOp14
 70
     1
102
RTVSPropertyOp15
 70
     1
102
RTVSPropertyOp16
 70
     1
102
RTVSPropertyOp17
 70
     1
102
RTVSPropertyOp18
 70
     1
102
RTVSPropertyOp19
 70
     1
102
RTVSPropertyOp20
 70
     1
102
RTVSPropertyOp21
 70
     1
102
RTVSPropertyOp22
 70
     1
102
RTVSPropertyOp23
 70
     1
102
RTVSPropertyOp24
 70
     1
102
RTVSPropertyOp25
 70
     1
102
RTVSPropertyOp26
 70
     1
102
RTVSPropertyOp27
 70
     1
102
RTVSPropertyOp28
 70
     1
102
RTVSPropertyOp29
 70
     1
102
RTVSPropertyOp30
 70
     1
102
RTVSPropertyOp31
 70
     1
102
RTVSPropertyOp32
 70
     1
102
RTVSPropertyOp33
 70
     1
102
RTVSPropertyOp34
 70
     1
102
RTVSPropertyOp35
 70
     1
102
RTVSPropertyOp36
 70
     1
102
RTVSPropertyOp37
 70
     1
102
RTVSPropertyOp38
 70
     1
102
RTVSPropertyOp39
 70
     1
102
RTVSPropertyOp40
 70
     1
102
RTVSPropertyOp41
 70
     1
102
RTVSPropertyOp42
 70
     1
102
RTVSPropertyOp43
 70
     1
102
RTVSPropertyOp44
 70
     1
102
RTVSPropertyOp45
 70
     1
102
RTVSPropertyOp46
 70
     1
102
RTVSPropertyOp47
 70
     1
102
RTVSPropertyOp48
 70
     1
102
RTVSPropertyOp49
 70
     1
102
RTVSPropertyOp50
 70
     1
102
RTVSPropertyOp51
 70
     0
102
RTVSPropertyOp52
 70
     0
102
RTVSPropertyOp53
 70
     1
102
RTVSPropertyOp54
 70
     1
102
RTVSPropertyOp55
 70
     1
102
RTVSPropertyOp56
 70
     1
102
RTVSPropertyOp57
 70
     1
102
RTVSPost2010Prop28
280
     0
102
RTVSPost2010PropOp28
 70
     1
102
RTVSPost2010Prop29
280
     1
102
RTVSPost2010PropOp29
 70
     1
102
RTVSPost2010Prop30
280
     1
102
RTVSPost2010PropOp30
 70
     1
102
RTVSPost2010Prop31
280
     0
102
RTVSPost2010PropOp31
 70
     1
102
RTVSPost2010Prop32
280
     0
102
RTVSPost2010PropOp32
 70
     1
102
RTVSPost2010Prop33
280
     0
102
RTVSPost2010PropOp33
 70
     1
102
RTVSPost2010Prop34
280
     0
102
RTVSPost2010PropOp34
 70
     1
102
RTVSPost2010Prop35
280
     0
102
RTVSPost2010PropOp35
 70
     1
102
RTVSPost2010Prop36
280
     0
102
RTVSPost2010PropOp36
 70
     1
102
RTVSPost2010Prop37
 90
       50
102
RTVSPost2010PropOp37
 70
     1
102
RTVSPost2010Prop38
140
0.0
102
RTVSPost2010PropOp38
 70
     1
102
RTVSPost2010Prop39
140
1.0
102
RTVSPost2010PropOp39
 70
     1
102
RTVSPost2010Prop40
 90
        0
102
RTVSPost2010PropOp40
 70
     1
102
RTVSPost2010Prop41ColorIndex
 90
       18
102
RTVSPost2010Prop41ColorRGB
 90
        0
102
RTVSPost2010PropOp41
 70
     1
102
RTVSPost2010Prop42
 90
       50
102
RTVSPost2010PropOp42
 70
     1
102
RTVSPost2010Prop43
 90
        3
102
RTVSPost2010PropOp43
 70
     1
102
RTVSPost2010Prop44ColorIndex
 90
        5
102
RTVSPost2010Prop44ColorRGB
 90
      255
102
RTVSPost2010PropOp44
 70
     1
102
RTVSPost2010Prop45
280
     0
102
RTVSPost2010PropOp45
 70
     1
102
RTVSPost2010Prop46
 90
       50
102
RTVSPost2010PropOp46
 70
     1
102
RTVSPost2010Prop47
 90
       50
102
RTVSPost2010PropOp47
 70
     1
102
RTVSPost2010Prop48
 90
       50
102
RTVSPost2010PropOp48
 70
     1
102
RTVSPost2010Prop49
280
     0
102
RTVSPost2010PropOp49
 70
     1
102
RTVSPost2010Prop50
 90
       50
102
RTVSPost2010PropOp50
 70
     1
102
RTVSPost2010Prop51ColorIndex
 90
      256
102
RTVSPost2010Prop51ColorRGB
 90
-16777216
102
RTVSPost2010PropOp51
 70
     0
102
RTVSPost2010Prop52
140
1.0
102
RTVSPost2010PropOp52
 70
     0
102
RTVSPost2010Prop53
 90
        2
102
RTVSPost2010PropOp53
 70
     1
102
RTVSPost2010Prop54
  1
strokes_ogs.tif
102
RTVSPost2010PropOp54
 70
     1
102
RTVSPost2010Prop55
280
     0
102
RTVSPost2010PropOp55
 70
     1
102
RTVSPost2010Prop56
140
1.0
102
RTVSPost2010PropOp56
 70
     1
102
RTVSPost2010Prop57
140
1.0
102
RTVSPost2010PropOp57
 70
     1
  0
XRECORD
  5
29F
102
{ACAD_REACTORS
330
29E
102
}
330
29E
100
AcDbXrecord
280
     1
102
RTVSPropertyOp0
 70
     0
102
RTVSPropertyOp1
 70
     0
102
RTVSPropertyOp2
 70
     0
102
RTVSPropertyOp3
 70
     0
102
RTVSPropertyOp4
 70
     0
102
RTVSPropertyOp5
 70
     0
102
RTVSPropertyOp6
 70
     0
102
RTVSPropertyOp7
 70
     0
102
RTVSPropertyOp8
 70
     0
102
RTVSPropertyOp9
 70
     0
102
RTVSPropertyOp10
 70
     0
102
RTVSPropertyOp11
 70
     0
102
RTVSPropertyOp12
 70
     0
102
RTVSPropertyOp13
 70
     0
102
RTVSPropertyOp14
 70
     2
102
RTVSPropertyOp15
 70
     0
102
RTVSPropertyOp16
 70
     0
102
RTVSPropertyOp17
 70
     0
102
RTVSPropertyOp18
 70
     0
102
RTVSPropertyOp19
 70
     0
102
RTVSPropertyOp20
 70
     0
102
RTVSPropertyOp21
 70
     0
102
RTVSPropertyOp22
 70
     0
102
RTVSPropertyOp23
 70
     0
102
RTVSPropertyOp24
 70
     0
102
RTVSPropertyOp25
 70
     0
102
RTVSPropertyOp26
 70
     0
102
RTVSPropertyOp27
 70
     0
102
RTVSPropertyOp28
 70
     0
102
RTVSPropertyOp29
 70
     0
102
RTVSPropertyOp30
 70
     0
102
RTVSPropertyOp31
 70
     0
102
RTVSPropertyOp32
 70
     0
102
RTVSPropertyOp33
 70
     0
102
RTVSPropertyOp34
 70
     0
102
RTVSPropertyOp35
 70
     0
102
RTVSPropertyOp36
 70
     0
102
RTVSPropertyOp37
 70
     0
102
RTVSPropertyOp38
 70
     0
102
RTVSPropertyOp39
 70
     0
102
RTVSPropertyOp40
 70
     0
102
RTVSPropertyOp41
 70
     0
102
RTVSPropertyOp42
 70
     0
102
RTVSPropertyOp43
 70
     0
102
RTVSPropertyOp44
 70
     0
102
RTVSPropertyOp45
 70
     0
102
RTVSPropertyOp46
 70
     0
102
RTVSPropertyOp47
 70
     0
102
RTVSPropertyOp48
 70
     0
102
RTVSPropertyOp49
 70
     0
102
RTVSPropertyOp50
 70
     0
102
RTVSPropertyOp51
 70
     0
102
RTVSPropertyOp52
 70
     0
102
RTVSPropertyOp53
 70
     0
102
RTVSPropertyOp54
 70
     0
102
RTVSPropertyOp55
 70
     0
102
RTVSPropertyOp56
 70
     0
102
RTVSPropertyOp57
 70
     0
102
RTVSPost2010Prop28
280
     0
102
RTVSPost2010PropOp28
 70
     0
102
RTVSPost2010Prop29
280
     1
102
RTVSPost2010PropOp29
 70
     0
102
RTVSPost2010Prop30
280
     1
102
RTVSPost2010PropOp30
 70
     0
102
RTVSPost2010Prop31
280
     0
102
RTVSPost2010PropOp31
 70
     0
102
RTVSPost2010Prop32
280
     0
102
RTVSPost2010PropOp32
 70
     0
102
RTVSPost2010Prop33
280
     0
102
RTVSPost2010PropOp33
 70
     0
102
RTVSPost2010Prop34
280
     0
102
RTVSPost2010PropOp34
 70
     0
102
RTVSPost2010Prop35
280
     0
102
RTVSPost2010PropOp35
 70
     0
102
RTVSPost2010Prop36
280
     0
102
RTVSPost2010PropOp36
 70
     0
102
RTVSPost2010Prop37
 90
       50
102
RTVSPost2010PropOp37
 70
     0
102
RTVSPost2010Prop38
140
0.0
102
RTVSPost2010PropOp38
 70
     0
102
RTVSPost2010Prop39
140
1.0
102
RTVSPost2010PropOp39
 70
     0
102
RTVSPost2010Prop40
 90
        0
102
RTVSPost2010PropOp40
 70
     0
102
RTVSPost2010Prop41ColorIndex
 90
       18
102
RTVSPost2010Prop41ColorRGB
 90
        0
102
RTVSPost2010PropOp41
 70
     0
102
RTVSPost2010Prop42
 90
       50
102
RTVSPost2010PropOp42
 70
     0
102
RTVSPost2010Prop43
 90
        3
102
RTVSPost2010PropOp43
 70
     0
102
RTVSPost2010Prop44ColorIndex
 90
        5
102
RTVSPost2010Prop44ColorRGB
 90
      255
102
RTVSPost2010PropOp44
 70
     0
102
RTVSPost2010Prop45
280
     0
102
RTVSPost2010PropOp45
 70
     0
102
RTVSPost2010Prop46
 90
       50
102
RTVSPost2010PropOp46
 70
     0
102
RTVSPost2010Prop47
 90
       50
102
RTVSPost2010PropOp47
 70
     0
102
RTVSPost2010Prop48
 90
       50
102
RTVSPost2010PropOp48
 70
     0
102
RTVSPost2010Prop49
280
     0
102
RTVSPost2010PropOp49
 70
     0
102
RTVSPost2010Prop50
 90
       50
102
RTVSPost2010PropOp50
 70
     0
102
RTVSPost2010Prop51ColorIndex
 90
      256
102
RTVSPost2010Prop51ColorRGB
 90
-16777216
102
RTVSPost2010PropOp51
 70
     0
102
RTVSPost2010Prop52
140
1.0
102
RTVSPost2010PropOp52
 70
     0
102
RTVSPost2010Prop53
 90
        2
102
RTVSPost2010PropOp53
 70
     0
102
RTVSPost2010Prop54
  1
strokes_ogs.tif
102
RTVSPost2010PropOp54
 70
     0
102
RTVSPost2010Prop55
280
     0
102
RTVSPost2010PropOp55
 70
     0
102
RTVSPost2010Prop56
140
1.0
102
RTVSPost2010PropOp56
 70
     0
102
RTVSPost2010Prop57
140
1.0
102
RTVSPost2010PropOp57
 70
     0
  0
XRECORD
  5
28D
102
{ACAD_REACTORS
330
28C
102
}
330
28C
100
AcDbXrecord
280
     1
102
RTVSPropertyOp0
 70
     1
102
RTVSPropertyOp1
 70
     1
102
RTVSPropertyOp2
 70
     1
102
RTVSPropertyOp3
 70
     1
102
RTVSPropertyOp4
 70
     1
102
RTVSPropertyOp5
 70
     1
102
RTVSPropertyOp6
 70
     1
102
RTVSPropertyOp7
 70
     1
102
RTVSPropertyOp8
 70
     1
102
RTVSPropertyOp9
 70
     1
102
RTVSPropertyOp10
 70
     1
102
RTVSPropertyOp11
 70
     1
102
RTVSPropertyOp12
 70
     1
102
RTVSPropertyOp13
 70
     1
102
RTVSPropertyOp14
 70
     1
102
RTVSPropertyOp15
 70
     1
102
RTVSPropertyOp16
 70
     1
102
RTVSPropertyOp17
 70
     1
102
RTVSPropertyOp18
 70
     1
102
RTVSPropertyOp19
 70
     1
102
RTVSPropertyOp20
 70
     1
102
RTVSPropertyOp21
 70
     1
102
RTVSPropertyOp22
 70
     1
102
RTVSPropertyOp23
 70
     1
102
RTVSPropertyOp24
 70
     1
102
RTVSPropertyOp25
 70
     1
102
RTVSPropertyOp26
 70
     1
102
RTVSPropertyOp27
 70
     1
102
RTVSPropertyOp28
 70
     1
102
RTVSPropertyOp29
 70
     1
102
RTVSPropertyOp30
 70
     1
102
RTVSPropertyOp31
 70
     1
102
RTVSPropertyOp32
 70
     1
102
RTVSPropertyOp33
 70
     1
102
RTVSPropertyOp34
 70
     1
102
RTVSPropertyOp35
 70
     1
102
RTVSPropertyOp36
 70
     1
102
RTVSPropertyOp37
 70
     1
102
RTVSPropertyOp38
 70
     1
102
RTVSPropertyOp39
 70
     1
102
RTVSPropertyOp40
 70
     1
102
RTVSPropertyOp41
 70
     1
102
RTVSPropertyOp42
 70
     1
102
RTVSPropertyOp43
 70
     1
102
RTVSPropertyOp44
 70
     1
102
RTVSPropertyOp45
 70
     1
102
RTVSPropertyOp46
 70
     1
102
RTVSPropertyOp47
 70
     1
102
RTVSPropertyOp48
 70
     1
102
RTVSPropertyOp49
 70
     1
102
RTVSPropertyOp50
 70
     1
102
RTVSPropertyOp51
 70
     0
102
RTVSPropertyOp52
 70
     0
102
RTVSPropertyOp53
 70
     1
102
RTVSPropertyOp54
 70
     1
102
RTVSPropertyOp55
 70
     1
102
RTVSPropertyOp56
 70
     1
102
RTVSPropertyOp57
 70
     1
102
RTVSPost2010Prop28
280
     0
102
RTVSPost2010PropOp28
 70
     1
102
RTVSPost2010Prop29
280
     1
102
RTVSPost2010PropOp29
 70
     1
102
RTVSPost2010Prop30
280
     1
102
RTVSPost2010PropOp30
 70
     1
102
RTVSPost2010Prop31
280
     0
102
RTVSPost2010PropOp31
 70
     1
102
RTVSPost2010Prop32
280
     0
102
RTVSPost2010PropOp32
 70
     1
102
RTVSPost2010Prop33
280
     0
102
RTVSPost2010PropOp33
 70
     1
102
RTVSPost2010Prop34
280
     0
102
RTVSPost2010PropOp34
 70
     1
102
RTVSPost2010Prop35
280
     0
102
RTVSPost2010PropOp35
 70
     1
102
RTVSPost2010Prop36
280
     0
102
RTVSPost2010PropOp36
 70
     1
102
RTVSPost2010Prop37
 90
       50
102
RTVSPost2010PropOp37
 70
     1
102
RTVSPost2010Prop38
140
0.0
102
RTVSPost2010PropOp38
 70
     1
102
RTVSPost2010Prop39
140
1.0
102
RTVSPost2010PropOp39
 70
     1
102
RTVSPost2010Prop40
 90
        0
102
RTVSPost2010PropOp40
 70
     1
102
RTVSPost2010Prop41ColorIndex
 90
       18
102
RTVSPost2010Prop41ColorRGB
 90
        0
102
RTVSPost2010PropOp41
 70
     1
102
RTVSPost2010Prop42
 90
       50
102
RTVSPost2010PropOp42
 70
     1
102
RTVSPost2010Prop43
 90
        3
102
RTVSPost2010PropOp43
 70
     1
102
RTVSPost2010Prop44ColorIndex
 90
        5
102
RTVSPost2010Prop44ColorRGB
 90
      255
102
RTVSPost2010PropOp44
 70
     1
102
RTVSPost2010Prop45
280
     0
102
RTVSPost2010PropOp45
 70
     1
102
RTVSPost2010Prop46
 90
       50
102
RTVSPost2010PropOp46
 70
     1
102
RTVSPost2010Prop47
 90
       50
102
RTVSPost2010PropOp47
 70
     1
102
RTVSPost2010Prop48
 90
       50
102
RTVSPost2010PropOp48
 70
     1
102
RTVSPost2010Prop49
280
     0
102
RTVSPost2010PropOp49
 70
     1
102
RTVSPost2010Prop50
 90
       50
102
RTVSPost2010PropOp50
 70
     1
102
RTVSPost2010Prop51ColorIndex
 90
      256
102
RTVSPost2010Prop51ColorRGB
 90
-16777216
102
RTVSPost2010PropOp51
 70
     0
102
RTVSPost2010Prop52
140
1.0
102
RTVSPost2010PropOp52
 70
     0
102
RTVSPost2010Prop53
 90
        2
102
RTVSPost2010PropOp53
 70
     1
102
RTVSPost2010Prop54
  1
strokes_ogs.tif
102
RTVSPost2010PropOp54
 70
     1
102
RTVSPost2010Prop55
280
     0
102
RTVSPost2010PropOp55
 70
     1
102
RTVSPost2010Prop56
140
1.0
102
RTVSPost2010PropOp56
 70
     1
102
RTVSPost2010Prop57
140
1.0
102
RTVSPost2010PropOp57
 70
     1
  0
XRECORD
  5
2AB
102
{ACAD_REACTORS
330
2AA
102
}
330
2AA
100
AcDbXrecord
280
     1
102
RTVSPropertyOp0
 70
     1
102
RTVSPropertyOp1
 70
     1
102
RTVSPropertyOp2
 70
     1
102
RTVSPropertyOp3
 70
     1
102
RTVSPropertyOp4
 70
     1
102
RTVSPropertyOp5
 70
     1
102
RTVSPropertyOp6
 70
     1
102
RTVSPropertyOp7
 70
     1
102
RTVSPropertyOp8
 70
     1
102
RTVSPropertyOp9
 70
     1
102
RTVSPropertyOp10
 70
     1
102
RTVSPropertyOp11
 70
     1
102
RTVSPropertyOp12
 70
     1
102
RTVSPropertyOp13
 70
     1
102
RTVSPropertyOp14
 70
     1
102
RTVSPropertyOp15
 70
     1
102
RTVSPropertyOp16
 70
     1
102
RTVSPropertyOp17
 70
     1
102
RTVSPropertyOp18
 70
     1
102
RTVSPropertyOp19
 70
     1
102
RTVSPropertyOp20
 70
     1
102
RTVSPropertyOp21
 70
     1
102
RTVSPropertyOp22
 70
     1
102
RTVSPropertyOp23
 70
     1
102
RTVSPropertyOp24
 70
     1
102
RTVSPropertyOp25
 70
     1
102
RTVSPropertyOp26
 70
     1
102
RTVSPropertyOp27
 70
     1
102
RTVSPropertyOp28
 70
     1
102
RTVSPropertyOp29
 70
     1
102
RTVSPropertyOp30
 70
     1
102
RTVSPropertyOp31
 70
     1
102
RTVSPropertyOp32
 70
     1
102
RTVSPropertyOp33
 70
     1
102
RTVSPropertyOp34
 70
     1
102
RTVSPropertyOp35
 70
     1
102
RTVSPropertyOp36
 70
     1
102
RTVSPropertyOp37
 70
     1
102
RTVSPropertyOp38
 70
     1
102
RTVSPropertyOp39
 70
     1
102
RTVSPropertyOp40
 70
     1
102
RTVSPropertyOp41
 70
     1
102
RTVSPropertyOp42
 70
     1
102
RTVSPropertyOp43
 70
     1
102
RTVSPropertyOp44
 70
     1
102
RTVSPropertyOp45
 70
     1
102
RTVSPropertyOp46
 70
     1
102
RTVSPropertyOp47
 70
     1
102
RTVSPropertyOp48
 70
     1
102
RTVSPropertyOp49
 70
     1
102
RTVSPropertyOp50
 70
     1
102
RTVSPropertyOp51
 70
     0
102
RTVSPropertyOp52
 70
     0
102
RTVSPropertyOp53
 70
     1
102
RTVSPropertyOp54
 70
     1
102
RTVSPropertyOp55
 70
     1
102
RTVSPropertyOp56
 70
     1
102
RTVSPropertyOp57
 70
     1
102
RTVSPost2010Prop28
280
     0
102
RTVSPost2010PropOp28
 70
     1
102
RTVSPost2010Prop29
280
     1
102
RTVSPost2010PropOp29
 70
     1
102
RTVSPost2010Prop30
280
     1
102
RTVSPost2010PropOp30
 70
     1
102
RTVSPost2010Prop31
280
     0
102
RTVSPost2010PropOp31
 70
     1
102
RTVSPost2010Prop32
280
     0
102
RTVSPost2010PropOp32
 70
     1
102
RTVSPost2010Prop33
280
     0
102
RTVSPost2010PropOp33
 70
     1
102
RTVSPost2010Prop34
280
     0
102
RTVSPost2010PropOp34
 70
     1
102
RTVSPost2010Prop35
280
     0
102
RTVSPost2010PropOp35
 70
     1
102
RTVSPost2010Prop36
280
     0
102
RTVSPost2010PropOp36
 70
     1
102
RTVSPost2010Prop37
 90
       50
102
RTVSPost2010PropOp37
 70
     1
102
RTVSPost2010Prop38
140
0.0
102
RTVSPost2010PropOp38
 70
     1
102
RTVSPost2010Prop39
140
1.0
102
RTVSPost2010PropOp39
 70
     1
102
RTVSPost2010Prop40
 90
        0
102
RTVSPost2010PropOp40
 70
     1
102
RTVSPost2010Prop41ColorIndex
 90
       18
102
RTVSPost2010Prop41ColorRGB
 90
        0
102
RTVSPost2010PropOp41
 70
     1
102
RTVSPost2010Prop42
 90
       50
102
RTVSPost2010PropOp42
 70
     1
102
RTVSPost2010Prop43
 90
        3
102
RTVSPost2010PropOp43
 70
     1
102
RTVSPost2010Prop44ColorIndex
 90
        5
102
RTVSPost2010Prop44ColorRGB
 90
      255
102
RTVSPost2010PropOp44
 70
     1
102
RTVSPost2010Prop45
280
     0
102
RTVSPost2010PropOp45
 70
     1
102
RTVSPost2010Prop46
 90
       50
102
RTVSPost2010PropOp46
 70
     1
102
RTVSPost2010Prop47
 90
       50
102
RTVSPost2010PropOp47
 70
     1
102
RTVSPost2010Prop48
 90
       50
102
RTVSPost2010PropOp48
 70
     1
102
RTVSPost2010Prop49
280
     0
102
RTVSPost2010PropOp49
 70
     1
102
RTVSPost2010Prop50
 90
       50
102
RTVSPost2010PropOp50
 70
     1
102
RTVSPost2010Prop51ColorIndex
 90
      256
102
RTVSPost2010Prop51ColorRGB
 90
-16777216
102
RTVSPost2010PropOp51
 70
     0
102
RTVSPost2010Prop52
140
1.0
102
RTVSPost2010PropOp52
 70
     0
102
RTVSPost2010Prop53
 90
        2
102
RTVSPost2010PropOp53
 70
     1
102
RTVSPost2010Prop54
  1
strokes_ogs.tif
102
RTVSPost2010PropOp54
 70
     1
102
RTVSPost2010Prop55
280
     0
102
RTVSPost2010PropOp55
 70
     1
102
RTVSPost2010Prop56
140
1.0
102
RTVSPost2010PropOp56
 70
     1
102
RTVSPost2010Prop57
140
1.0
102
RTVSPost2010PropOp57
 70
     1
  0
XRECORD
  5
2A9
102
{ACAD_REACTORS
330
2A8
102
}
330
2A8
100
AcDbXrecord
280
     1
102
RTVSPropertyOp0
 70
     1
102
RTVSPropertyOp1
 70
     1
102
RTVSPropertyOp2
 70
     1
102
RTVSPropertyOp3
 70
     1
102
RTVSPropertyOp4
 70
     1
102
RTVSPropertyOp5
 70
     1
102
RTVSPropertyOp6
 70
     1
102
RTVSPropertyOp7
 70
     1
102
RTVSPropertyOp8
 70
     1
102
RTVSPropertyOp9
 70
     1
102
RTVSPropertyOp10
 70
     1
102
RTVSPropertyOp11
 70
     1
102
RTVSPropertyOp12
 70
     1
102
RTVSPropertyOp13
 70
     1
102
RTVSPropertyOp14
 70
     1
102
RTVSPropertyOp15
 70
     1
102
RTVSPropertyOp16
 70
     1
102
RTVSPropertyOp17
 70
     1
102
RTVSPropertyOp18
 70
     1
102
RTVSPropertyOp19
 70
     1
102
RTVSPropertyOp20
 70
     1
102
RTVSPropertyOp21
 70
     1
102
RTVSPropertyOp22
 70
     1
102
RTVSPropertyOp23
 70
     1
102
RTVSPropertyOp24
 70
     1
102
RTVSPropertyOp25
 70
     1
102
RTVSPropertyOp26
 70
     1
102
RTVSPropertyOp27
 70
     1
102
RTVSPropertyOp28
 70
     1
102
RTVSPropertyOp29
 70
     1
102
RTVSPropertyOp30
 70
     1
102
RTVSPropertyOp31
 70
     1
102
RTVSPropertyOp32
 70
     1
102
RTVSPropertyOp33
 70
     1
102
RTVSPropertyOp34
 70
     1
102
RTVSPropertyOp35
 70
     1
102
RTVSPropertyOp36
 70
     1
102
RTVSPropertyOp37
 70
     1
102
RTVSPropertyOp38
 70
     1
102
RTVSPropertyOp39
 70
     1
102
RTVSPropertyOp40
 70
     1
102
RTVSPropertyOp41
 70
     1
102
RTVSPropertyOp42
 70
     1
102
RTVSPropertyOp43
 70
     1
102
RTVSPropertyOp44
 70
     1
102
RTVSPropertyOp45
 70
     1
102
RTVSPropertyOp46
 70
     1
102
RTVSPropertyOp47
 70
     1
102
RTVSPropertyOp48
 70
     1
102
RTVSPropertyOp49
 70
     1
102
RTVSPropertyOp50
 70
     1
102
RTVSPropertyOp51
 70
     0
102
RTVSPropertyOp52
 70
     0
102
RTVSPropertyOp53
 70
     1
102
RTVSPropertyOp54
 70
     1
102
RTVSPropertyOp55
 70
     1
102
RTVSPropertyOp56
 70
     1
102
RTVSPropertyOp57
 70
     1
102
RTVSPost2010Prop28
280
     0
102
RTVSPost2010PropOp28
 70
     1
102
RTVSPost2010Prop29
280
     1
102
RTVSPost2010PropOp29
 70
     1
102
RTVSPost2010Prop30
280
     1
102
RTVSPost2010PropOp30
 70
     1
102
RTVSPost2010Prop31
280
     0
102
RTVSPost2010PropOp31
 70
     1
102
RTVSPost2010Prop32
280
     0
102
RTVSPost2010PropOp32
 70
     1
102
RTVSPost2010Prop33
280
     0
102
RTVSPost2010PropOp33
 70
     1
102
RTVSPost2010Prop34
280
     0
102
RTVSPost2010PropOp34
 70
     1
102
RTVSPost2010Prop35
280
     0
102
RTVSPost2010PropOp35
 70
     1
102
RTVSPost2010Prop36
280
     0
102
RTVSPost2010PropOp36
 70
     1
102
RTVSPost2010Prop37
 90
       50
102
RTVSPost2010PropOp37
 70
     1
102
RTVSPost2010Prop38
140
0.0
102
RTVSPost2010PropOp38
 70
     1
102
RTVSPost2010Prop39
140
1.0
102
RTVSPost2010PropOp39
 70
     1
102
RTVSPost2010Prop40
 90
        0
102
RTVSPost2010PropOp40
 70
     1
102
RTVSPost2010Prop41ColorIndex
 90
       18
102
RTVSPost2010Prop41ColorRGB
 90
        0
102
RTVSPost2010PropOp41
 70
     1
102
RTVSPost2010Prop42
 90
       50
102
RTVSPost2010PropOp42
 70
     1
102
RTVSPost2010Prop43
 90
        3
102
RTVSPost2010PropOp43
 70
     1
102
RTVSPost2010Prop44ColorIndex
 90
        5
102
RTVSPost2010Prop44ColorRGB
 90
      255
102
RTVSPost2010PropOp44
 70
     1
102
RTVSPost2010Prop45
280
     0
102
RTVSPost2010PropOp45
 70
     1
102
RTVSPost2010Prop46
 90
       50
102
RTVSPost2010PropOp46
 70
     1
102
RTVSPost2010Prop47
 90
       50
102
RTVSPost2010PropOp47
 70
     1
102
RTVSPost2010Prop48
 90
       50
102
RTVSPost2010PropOp48
 70
     1
102
RTVSPost2010Prop49
280
     0
102
RTVSPost2010PropOp49
 70
     1
102
RTVSPost2010Prop50
 90
       50
102
RTVSPost2010PropOp50
 70
     1
102
RTVSPost2010Prop51ColorIndex
 90
      256
102
RTVSPost2010Prop51ColorRGB
 90
-16777216
102
RTVSPost2010PropOp51
 70
     0
102
RTVSPost2010Prop52
140
1.0
102
RTVSPost2010PropOp52
 70
     0
102
RTVSPost2010Prop53
 90
        2
102
RTVSPost2010PropOp53
 70
     1
102
RTVSPost2010Prop54
  1
strokes_ogs.tif
102
RTVSPost2010PropOp54
 70
     1
102
RTVSPost2010Prop55
280
     0
102
RTVSPost2010PropOp55
 70
     1
102
RTVSPost2010Prop56
140
1.0
102
RTVSPost2010PropOp56
 70
     1
102
RTVSPost2010Prop57
140
1.0
102
RTVSPost2010PropOp57
 70
     1
  0
XRECORD
  5
2A3
102
{ACAD_REACTORS
330
2A2
102
}
330
2A2
100
AcDbXrecord
280
     1
102
RTVSPropertyOp0
 70
     1
102
RTVSPropertyOp1
 70
     1
102
RTVSPropertyOp2
 70
     1
102
RTVSPropertyOp3
 70
     1
102
RTVSPropertyOp4
 70
     1
102
RTVSPropertyOp5
 70
     1
102
RTVSPropertyOp6
 70
     1
102
RTVSPropertyOp7
 70
     1
102
RTVSPropertyOp8
 70
     1
102
RTVSPropertyOp9
 70
     1
102
RTVSPropertyOp10
 70
     1
102
RTVSPropertyOp11
 70
     1
102
RTVSPropertyOp12
 70
     1
102
RTVSPropertyOp13
 70
     1
102
RTVSPropertyOp14
 70
     1
102
RTVSPropertyOp15
 70
     1
102
RTVSPropertyOp16
 70
     1
102
RTVSPropertyOp17
 70
     1
102
RTVSPropertyOp18
 70
     1
102
RTVSPropertyOp19
 70
     1
102
RTVSPropertyOp20
 70
     1
102
RTVSPropertyOp21
 70
     1
102
RTVSPropertyOp22
 70
     1
102
RTVSPropertyOp23
 70
     1
102
RTVSPropertyOp24
 70
     1
102
RTVSPropertyOp25
 70
     1
102
RTVSPropertyOp26
 70
     1
102
RTVSPropertyOp27
 70
     1
102
RTVSPropertyOp28
 70
     1
102
RTVSPropertyOp29
 70
     1
102
RTVSPropertyOp30
 70
     1
102
RTVSPropertyOp31
 70
     1
102
RTVSPropertyOp32
 70
     1
102
RTVSPropertyOp33
 70
     1
102
RTVSPropertyOp34
 70
     1
102
RTVSPropertyOp35
 70
     1
102
RTVSPropertyOp36
 70
     1
102
RTVSPropertyOp37
 70
     1
102
RTVSPropertyOp38
 70
     1
102
RTVSPropertyOp39
 70
     1
102
RTVSPropertyOp40
 70
     1
102
RTVSPropertyOp41
 70
     1
102
RTVSPropertyOp42
 70
     1
102
RTVSPropertyOp43
 70
     1
102
RTVSPropertyOp44
 70
     1
102
RTVSPropertyOp45
 70
     1
102
RTVSPropertyOp46
 70
     1
102
RTVSPropertyOp47
 70
     1
102
RTVSPropertyOp48
 70
     1
102
RTVSPropertyOp49
 70
     1
102
RTVSPropertyOp50
 70
     1
102
RTVSPropertyOp51
 70
     0
102
RTVSPropertyOp52
 70
     0
102
RTVSPropertyOp53
 70
     1
102
RTVSPropertyOp54
 70
     1
102
RTVSPropertyOp55
 70
     1
102
RTVSPropertyOp56
 70
     1
102
RTVSPropertyOp57
 70
     1
102
RTVSPost2010Prop28
280
     0
102
RTVSPost2010PropOp28
 70
     1
102
RTVSPost2010Prop29
280
     1
102
RTVSPost2010PropOp29
 70
     1
102
RTVSPost2010Prop30
280
     1
102
RTVSPost2010PropOp30
 70
     1
102
RTVSPost2010Prop31
280
     0
102
RTVSPost2010PropOp31
 70
     1
102
RTVSPost2010Prop32
280
     0
102
RTVSPost2010PropOp32
 70
     1
102
RTVSPost2010Prop33
280
     0
102
RTVSPost2010PropOp33
 70
     1
102
RTVSPost2010Prop34
280
     0
102
RTVSPost2010PropOp34
 70
     1
102
RTVSPost2010Prop35
280
     0
102
RTVSPost2010PropOp35
 70
     1
102
RTVSPost2010Prop36
280
     0
102
RTVSPost2010PropOp36
 70
     1
102
RTVSPost2010Prop37
 90
       50
102
RTVSPost2010PropOp37
 70
     1
102
RTVSPost2010Prop38
140
0.0
102
RTVSPost2010PropOp38
 70
     1
102
RTVSPost2010Prop39
140
1.0
102
RTVSPost2010PropOp39
 70
     1
102
RTVSPost2010Prop40
 90
        0
102
RTVSPost2010PropOp40
 70
     1
102
RTVSPost2010Prop41ColorIndex
 90
       18
102
RTVSPost2010Prop41ColorRGB
 90
        0
102
RTVSPost2010PropOp41
 70
     1
102
RTVSPost2010Prop42
 90
       50
102
RTVSPost2010PropOp42
 70
     1
102
RTVSPost2010Prop43
 90
        3
102
RTVSPost2010PropOp43
 70
     1
102
RTVSPost2010Prop44ColorIndex
 90
        5
102
RTVSPost2010Prop44ColorRGB
 90
      255
102
RTVSPost2010PropOp44
 70
     1
102
RTVSPost2010Prop45
280
     0
102
RTVSPost2010PropOp45
 70
     1
102
RTVSPost2010Prop46
 90
       50
102
RTVSPost2010PropOp46
 70
     1
102
RTVSPost2010Prop47
 90
       50
102
RTVSPost2010PropOp47
 70
     1
102
RTVSPost2010Prop48
 90
       50
102
RTVSPost2010PropOp48
 70
     1
102
RTVSPost2010Prop49
280
     0
102
RTVSPost2010PropOp49
 70
     1
102
RTVSPost2010Prop50
 90
       50
102
RTVSPost2010PropOp50
 70
     1
102
RTVSPost2010Prop51ColorIndex
 90
      256
102
RTVSPost2010Prop51ColorRGB
 90
-16777216
102
RTVSPost2010PropOp51
 70
     0
102
RTVSPost2010Prop52
140
1.0
102
RTVSPost2010PropOp52
 70
     0
102
RTVSPost2010Prop53
 90
        2
102
RTVSPost2010PropOp53
 70
     1
102
RTVSPost2010Prop54
  1
strokes_ogs.tif
102
RTVSPost2010PropOp54
 70
     1
102
RTVSPost2010Prop55
280
     0
102
RTVSPost2010PropOp55
 70
     1
102
RTVSPost2010Prop56
140
1.0
102
RTVSPost2010PropOp56
 70
     1
102
RTVSPost2010Prop57
140
1.0
102
RTVSPost2010PropOp57
 70
     1
  0
XRECORD
  5
2A5
102
{ACAD_REACTORS
330
2A4
102
}
330
2A4
100
AcDbXrecord
280
     1
102
RTVSPropertyOp0
 70
     1
102
RTVSPropertyOp1
 70
     1
102
RTVSPropertyOp2
 70
     1
102
RTVSPropertyOp3
 70
     1
102
RTVSPropertyOp4
 70
     1
102
RTVSPropertyOp5
 70
     1
102
RTVSPropertyOp6
 70
     1
102
RTVSPropertyOp7
 70
     1
102
RTVSPropertyOp8
 70
     1
102
RTVSPropertyOp9
 70
     1
102
RTVSPropertyOp10
 70
     1
102
RTVSPropertyOp11
 70
     1
102
RTVSPropertyOp12
 70
     1
102
RTVSPropertyOp13
 70
     1
102
RTVSPropertyOp14
 70
     1
102
RTVSPropertyOp15
 70
     1
102
RTVSPropertyOp16
 70
     1
102
RTVSPropertyOp17
 70
     1
102
RTVSPropertyOp18
 70
     1
102
RTVSPropertyOp19
 70
     1
102
RTVSPropertyOp20
 70
     1
102
RTVSPropertyOp21
 70
     1
102
RTVSPropertyOp22
 70
     1
102
RTVSPropertyOp23
 70
     1
102
RTVSPropertyOp24
 70
     1
102
RTVSPropertyOp25
 70
     1
102
RTVSPropertyOp26
 70
     1
102
RTVSPropertyOp27
 70
     1
102
RTVSPropertyOp28
 70
     1
102
RTVSPropertyOp29
 70
     1
102
RTVSPropertyOp30
 70
     1
102
RTVSPropertyOp31
 70
     1
102
RTVSPropertyOp32
 70
     1
102
RTVSPropertyOp33
 70
     1
102
RTVSPropertyOp34
 70
     1
102
RTVSPropertyOp35
 70
     1
102
RTVSPropertyOp36
 70
     1
102
RTVSPropertyOp37
 70
     1
102
RTVSPropertyOp38
 70
     1
102
RTVSPropertyOp39
 70
     1
102
RTVSPropertyOp40
 70
     1
102
RTVSPropertyOp41
 70
     1
102
RTVSPropertyOp42
 70
     1
102
RTVSPropertyOp43
 70
     1
102
RTVSPropertyOp44
 70
     1
102
RTVSPropertyOp45
 70
     1
102
RTVSPropertyOp46
 70
     1
102
RTVSPropertyOp47
 70
     1
102
RTVSPropertyOp48
 70
     1
102
RTVSPropertyOp49
 70
     1
102
RTVSPropertyOp50
 70
     1
102
RTVSPropertyOp51
 70
     0
102
RTVSPropertyOp52
 70
     0
102
RTVSPropertyOp53
 70
     1
102
RTVSPropertyOp54
 70
     1
102
RTVSPropertyOp55
 70
     1
102
RTVSPropertyOp56
 70
     1
102
RTVSPropertyOp57
 70
     1
102
RTVSPost2010Prop28
280
     0
102
RTVSPost2010PropOp28
 70
     1
102
RTVSPost2010Prop29
280
     1
102
RTVSPost2010PropOp29
 70
     1
102
RTVSPost2010Prop30
280
     1
102
RTVSPost2010PropOp30
 70
     1
102
RTVSPost2010Prop31
280
     0
102
RTVSPost2010PropOp31
 70
     1
102
RTVSPost2010Prop32
280
     0
102
RTVSPost2010PropOp32
 70
     1
102
RTVSPost2010Prop33
280
     0
102
RTVSPost2010PropOp33
 70
     1
102
RTVSPost2010Prop34
280
     0
102
RTVSPost2010PropOp34
 70
     1
102
RTVSPost2010Prop35
280
     0
102
RTVSPost2010PropOp35
 70
     1
102
RTVSPost2010Prop36
280
     0
102
RTVSPost2010PropOp36
 70
     1
102
RTVSPost2010Prop37
 90
       50
102
RTVSPost2010PropOp37
 70
     1
102
RTVSPost2010Prop38
140
0.0
102
RTVSPost2010PropOp38
 70
     1
102
RTVSPost2010Prop39
140
1.0
102
RTVSPost2010PropOp39
 70
     1
102
RTVSPost2010Prop40
 90
        0
102
RTVSPost2010PropOp40
 70
     1
102
RTVSPost2010Prop41ColorIndex
 90
       18
102
RTVSPost2010Prop41ColorRGB
 90
        0
102
RTVSPost2010PropOp41
 70
     1
102
RTVSPost2010Prop42
 90
       50
102
RTVSPost2010PropOp42
 70
     1
102
RTVSPost2010Prop43
 90
        3
102
RTVSPost2010PropOp43
 70
     1
102
RTVSPost2010Prop44ColorIndex
 90
        5
102
RTVSPost2010Prop44ColorRGB
 90
      255
102
RTVSPost2010PropOp44
 70
     1
102
RTVSPost2010Prop45
280
     0
102
RTVSPost2010PropOp45
 70
     1
102
RTVSPost2010Prop46
 90
       50
102
RTVSPost2010PropOp46
 70
     1
102
RTVSPost2010Prop47
 90
       50
102
RTVSPost2010PropOp47
 70
     1
102
RTVSPost2010Prop48
 90
       50
102
RTVSPost2010PropOp48
 70
     1
102
RTVSPost2010Prop49
280
     0
102
RTVSPost2010PropOp49
 70
     1
102
RTVSPost2010Prop50
 90
       50
102
RTVSPost2010PropOp50
 70
     1
102
RTVSPost2010Prop51ColorIndex
 90
      256
102
RTVSPost2010Prop51ColorRGB
 90
-16777216
102
RTVSPost2010PropOp51
 70
     0
102
RTVSPost2010Prop52
140
1.0
102
RTVSPost2010PropOp52
 70
     0
102
RTVSPost2010Prop53
 90
        2
102
RTVSPost2010PropOp53
 70
     1
102
RTVSPost2010Prop54
  1
strokes_ogs.tif
102
RTVSPost2010PropOp54
 70
     1
102
RTVSPost2010Prop55
280
     0
102
RTVSPost2010PropOp55
 70
     1
102
RTVSPost2010Prop56
140
1.0
102
RTVSPost2010PropOp56
 70
     1
102
RTVSPost2010Prop57
140
1.0
102
RTVSPost2010PropOp57
 70
     1
  0
XRECORD
  5
295
102
{ACAD_REACTORS
330
294
102
}
330
294
100
AcDbXrecord
280
     1
102
RTVSPropertyOp0
 70
     1
102
RTVSPropertyOp1
 70
     1
102
RTVSPropertyOp2
 70
     1
102
RTVSPropertyOp3
 70
     1
102
RTVSPropertyOp4
 70
     1
102
RTVSPropertyOp5
 70
     1
102
RTVSPropertyOp6
 70
     1
102
RTVSPropertyOp7
 70
     1
102
RTVSPropertyOp8
 70
     1
102
RTVSPropertyOp9
 70
     1
102
RTVSPropertyOp10
 70
     1
102
RTVSPropertyOp11
 70
     1
102
RTVSPropertyOp12
 70
     1
102
RTVSPropertyOp13
 70
     1
102
RTVSPropertyOp14
 70
     1
102
RTVSPropertyOp15
 70
     1
102
RTVSPropertyOp16
 70
     1
102
RTVSPropertyOp17
 70
     1
102
RTVSPropertyOp18
 70
     1
102
RTVSPropertyOp19
 70
     1
102
RTVSPropertyOp20
 70
     1
102
RTVSPropertyOp21
 70
     1
102
RTVSPropertyOp22
 70
     1
102
RTVSPropertyOp23
 70
     1
102
RTVSPropertyOp24
 70
     1
102
RTVSPropertyOp25
 70
     1
102
RTVSPropertyOp26
 70
     1
102
RTVSPropertyOp27
 70
     1
102
RTVSPropertyOp28
 70
     1
102
RTVSPropertyOp29
 70
     1
102
RTVSPropertyOp30
 70
     1
102
RTVSPropertyOp31
 70
     1
102
RTVSPropertyOp32
 70
     1
102
RTVSPropertyOp33
 70
     1
102
RTVSPropertyOp34
 70
     1
102
RTVSPropertyOp35
 70
     1
102
RTVSPropertyOp36
 70
     1
102
RTVSPropertyOp37
 70
     1
102
RTVSPropertyOp38
 70
     1
102
RTVSPropertyOp39
 70
     1
102
RTVSPropertyOp40
 70
     1
102
RTVSPropertyOp41
 70
     1
102
RTVSPropertyOp42
 70
     1
102
RTVSPropertyOp43
 70
     1
102
RTVSPropertyOp44
 70
     1
102
RTVSPropertyOp45
 70
     1
102
RTVSPropertyOp46
 70
     1
102
RTVSPropertyOp47
 70
     1
102
RTVSPropertyOp48
 70
     1
102
RTVSPropertyOp49
 70
     1
102
RTVSPropertyOp50
 70
     1
102
RTVSPropertyOp51
 70
     0
102
RTVSPropertyOp52
 70
     0
102
RTVSPropertyOp53
 70
     1
102
RTVSPropertyOp54
 70
     1
102
RTVSPropertyOp55
 70
     1
102
RTVSPropertyOp56
 70
     1
102
RTVSPropertyOp57
 70
     1
102
RTVSPost2010Prop28
280
     0
102
RTVSPost2010PropOp28
 70
     1
102
RTVSPost2010Prop29
280
     1
102
RTVSPost2010PropOp29
 70
     1
102
RTVSPost2010Prop30
280
     1
102
RTVSPost2010PropOp30
 70
     1
102
RTVSPost2010Prop31
280
     0
102
RTVSPost2010PropOp31
 70
     1
102
RTVSPost2010Prop32
280
     0
102
RTVSPost2010PropOp32
 70
     1
102
RTVSPost2010Prop33
280
     0
102
RTVSPost2010PropOp33
 70
     1
102
RTVSPost2010Prop34
280
     0
102
RTVSPost2010PropOp34
 70
     1
102
RTVSPost2010Prop35
280
     0
102
RTVSPost2010PropOp35
 70
     1
102
RTVSPost2010Prop36
280
     0
102
RTVSPost2010PropOp36
 70
     1
102
RTVSPost2010Prop37
 90
       50
102
RTVSPost2010PropOp37
 70
     1
102
RTVSPost2010Prop38
140
0.0
102
RTVSPost2010PropOp38
 70
     1
102
RTVSPost2010Prop39
140
1.0
102
RTVSPost2010PropOp39
 70
     1
102
RTVSPost2010Prop40
 90
        0
102
RTVSPost2010PropOp40
 70
     1
102
RTVSPost2010Prop41ColorIndex
 90
       18
102
RTVSPost2010Prop41ColorRGB
 90
        0
102
RTVSPost2010PropOp41
 70
     1
102
RTVSPost2010Prop42
 90
       50
102
RTVSPost2010PropOp42
 70
     1
102
RTVSPost2010Prop43
 90
        3
102
RTVSPost2010PropOp43
 70
     1
102
RTVSPost2010Prop44ColorIndex
 90
        5
102
RTVSPost2010Prop44ColorRGB
 90
      255
102
RTVSPost2010PropOp44
 70
     1
102
RTVSPost2010Prop45
280
     0
102
RTVSPost2010PropOp45
 70
     1
102
RTVSPost2010Prop46
 90
       50
102
RTVSPost2010PropOp46
 70
     1
102
RTVSPost2010Prop47
 90
       50
102
RTVSPost2010PropOp47
 70
     1
102
RTVSPost2010Prop48
 90
       50
102
RTVSPost2010PropOp48
 70
     1
102
RTVSPost2010Prop49
280
     0
102
RTVSPost2010PropOp49
 70
     1
102
RTVSPost2010Prop50
 90
       50
102
RTVSPost2010PropOp50
 70
     1
102
RTVSPost2010Prop51ColorIndex
 90
      256
102
RTVSPost2010Prop51ColorRGB
 90
-16777216
102
RTVSPost2010PropOp51
 70
     0
102
RTVSPost2010Prop52
140
1.0
102
RTVSPost2010PropOp52
 70
     0
102
RTVSPost2010Prop53
 90
        2
102
RTVSPost2010PropOp53
 70
     1
102
RTVSPost2010Prop54
  1
strokes_ogs.tif
102
RTVSPost2010PropOp54
 70
     1
102
RTVSPost2010Prop55
280
     0
102
RTVSPost2010PropOp55
 70
     1
102
RTVSPost2010Prop56
140
1.0
102
RTVSPost2010PropOp56
 70
     1
102
RTVSPost2010Prop57
140
1.0
102
RTVSPost2010PropOp57
 70
     1
  0
XRECORD
  5
287
102
{ACAD_REACTORS
330
286
102
}
330
286
100
AcDbXrecord
280
     1
102
RTVSPropertyOp0
 70
     1
102
RTVSPropertyOp1
 70
     1
102
RTVSPropertyOp2
 70
     1
102
RTVSPropertyOp3
 70
     1
102
RTVSPropertyOp4
 70
     1
102
RTVSPropertyOp5
 70
     1
102
RTVSPropertyOp6
 70
     1
102
RTVSPropertyOp7
 70
     1
102
RTVSPropertyOp8
 70
     1
102
RTVSPropertyOp9
 70
     1
102
RTVSPropertyOp10
 70
     1
102
RTVSPropertyOp11
 70
     1
102
RTVSPropertyOp12
 70
     1
102
RTVSPropertyOp13
 70
     1
102
RTVSPropertyOp14
 70
     1
102
RTVSPropertyOp15
 70
     1
102
RTVSPropertyOp16
 70
     1
102
RTVSPropertyOp17
 70
     1
102
RTVSPropertyOp18
 70
     1
102
RTVSPropertyOp19
 70
     1
102
RTVSPropertyOp20
 70
     1
102
RTVSPropertyOp21
 70
     1
102
RTVSPropertyOp22
 70
     1
102
RTVSPropertyOp23
 70
     1
102
RTVSPropertyOp24
 70
     1
102
RTVSPropertyOp25
 70
     1
102
RTVSPropertyOp26
 70
     1
102
RTVSPropertyOp27
 70
     1
102
RTVSPropertyOp28
 70
     1
102
RTVSPropertyOp29
 70
     1
102
RTVSPropertyOp30
 70
     1
102
RTVSPropertyOp31
 70
     1
102
RTVSPropertyOp32
 70
     1
102
RTVSPropertyOp33
 70
     1
102
RTVSPropertyOp34
 70
     1
102
RTVSPropertyOp35
 70
     1
102
RTVSPropertyOp36
 70
     1
102
RTVSPropertyOp37
 70
     1
102
RTVSPropertyOp38
 70
     1
102
RTVSPropertyOp39
 70
     1
102
RTVSPropertyOp40
 70
     1
102
RTVSPropertyOp41
 70
     1
102
RTVSPropertyOp42
 70
     1
102
RTVSPropertyOp43
 70
     1
102
RTVSPropertyOp44
 70
     1
102
RTVSPropertyOp45
 70
     1
102
RTVSPropertyOp46
 70
     1
102
RTVSPropertyOp47
 70
     1
102
RTVSPropertyOp48
 70
     1
102
RTVSPropertyOp49
 70
     1
102
RTVSPropertyOp50
 70
     1
102
RTVSPropertyOp51
 70
     0
102
RTVSPropertyOp52
 70
     0
102
RTVSPropertyOp53
 70
     1
102
RTVSPropertyOp54
 70
     1
102
RTVSPropertyOp55
 70
     1
102
RTVSPropertyOp56
 70
     1
102
RTVSPropertyOp57
 70
     1
102
RTVSPost2010Prop28
280
     0
102
RTVSPost2010PropOp28
 70
     1
102
RTVSPost2010Prop29
280
     1
102
RTVSPost2010PropOp29
 70
     1
102
RTVSPost2010Prop30
280
     1
102
RTVSPost2010PropOp30
 70
     1
102
RTVSPost2010Prop31
280
     0
102
RTVSPost2010PropOp31
 70
     1
102
RTVSPost2010Prop32
280
     0
102
RTVSPost2010PropOp32
 70
     1
102
RTVSPost2010Prop33
280
     0
102
RTVSPost2010PropOp33
 70
     1
102
RTVSPost2010Prop34
280
     0
102
RTVSPost2010PropOp34
 70
     1
102
RTVSPost2010Prop35
280
     0
102
RTVSPost2010PropOp35
 70
     1
102
RTVSPost2010Prop36
280
     0
102
RTVSPost2010PropOp36
 70
     1
102
RTVSPost2010Prop37
 90
       50
102
RTVSPost2010PropOp37
 70
     1
102
RTVSPost2010Prop38
140
0.0
102
RTVSPost2010PropOp38
 70
     1
102
RTVSPost2010Prop39
140
1.0
102
RTVSPost2010PropOp39
 70
     1
102
RTVSPost2010Prop40
 90
        0
102
RTVSPost2010PropOp40
 70
     1
102
RTVSPost2010Prop41ColorIndex
 90
       18
102
RTVSPost2010Prop41ColorRGB
 90
        0
102
RTVSPost2010PropOp41
 70
     1
102
RTVSPost2010Prop42
 90
       50
102
RTVSPost2010PropOp42
 70
     1
102
RTVSPost2010Prop43
 90
        3
102
RTVSPost2010PropOp43
 70
     1
102
RTVSPost2010Prop44ColorIndex
 90
        5
102
RTVSPost2010Prop44ColorRGB
 90
      255
102
RTVSPost2010PropOp44
 70
     1
102
RTVSPost2010Prop45
280
     0
102
RTVSPost2010PropOp45
 70
     1
102
RTVSPost2010Prop46
 90
       50
102
RTVSPost2010PropOp46
 70
     1
102
RTVSPost2010Prop47
 90
       50
102
RTVSPost2010PropOp47
 70
     1
102
RTVSPost2010Prop48
 90
       50
102
RTVSPost2010PropOp48
 70
     1
102
RTVSPost2010Prop49
280
     0
102
RTVSPost2010PropOp49
 70
     1
102
RTVSPost2010Prop50
 90
       50
102
RTVSPost2010PropOp50
 70
     1
102
RTVSPost2010Prop51ColorIndex
 90
      256
102
RTVSPost2010Prop51ColorRGB
 90
-16777216
102
RTVSPost2010PropOp51
 70
     0
102
RTVSPost2010Prop52
140
1.0
102
RTVSPost2010PropOp52
 70
     0
102
RTVSPost2010Prop53
 90
        2
102
RTVSPost2010PropOp53
 70
     1
102
RTVSPost2010Prop54
  1
strokes_ogs.tif
102
RTVSPost2010PropOp54
 70
     1
102
RTVSPost2010Prop55
280
     0
102
RTVSPost2010PropOp55
 70
     1
102
RTVSPost2010Prop56
140
1.0
102
RTVSPost2010PropOp56
 70
     1
102
RTVSPost2010Prop57
140
1.0
102
RTVSPost2010PropOp57
 70
     1
  0
XRECORD
  5
2A7
102
{ACAD_REACTORS
330
2A6
102
}
330
2A6
100
AcDbXrecord
280
     1
102
RTVSPropertyOp0
 70
     1
102
RTVSPropertyOp1
 70
     1
102
RTVSPropertyOp2
 70
     1
102
RTVSPropertyOp3
 70
     1
102
RTVSPropertyOp4
 70
     1
102
RTVSPropertyOp5
 70
     1
102
RTVSPropertyOp6
 70
     1
102
RTVSPropertyOp7
 70
     1
102
RTVSPropertyOp8
 70
     1
102
RTVSPropertyOp9
 70
     1
102
RTVSPropertyOp10
 70
     1
102
RTVSPropertyOp11
 70
     1
102
RTVSPropertyOp12
 70
     1
102
RTVSPropertyOp13
 70
     1
102
RTVSPropertyOp14
 70
     1
102
RTVSPropertyOp15
 70
     1
102
RTVSPropertyOp16
 70
     1
102
RTVSPropertyOp17
 70
     1
102
RTVSPropertyOp18
 70
     1
102
RTVSPropertyOp19
 70
     1
102
RTVSPropertyOp20
 70
     1
102
RTVSPropertyOp21
 70
     1
102
RTVSPropertyOp22
 70
     1
102
RTVSPropertyOp23
 70
     1
102
RTVSPropertyOp24
 70
     1
102
RTVSPropertyOp25
 70
     1
102
RTVSPropertyOp26
 70
     1
102
RTVSPropertyOp27
 70
     1
102
RTVSPropertyOp28
 70
     1
102
RTVSPropertyOp29
 70
     1
102
RTVSPropertyOp30
 70
     1
102
RTVSPropertyOp31
 70
     1
102
RTVSPropertyOp32
 70
     1
102
RTVSPropertyOp33
 70
     1
102
RTVSPropertyOp34
 70
     1
102
RTVSPropertyOp35
 70
     1
102
RTVSPropertyOp36
 70
     1
102
RTVSPropertyOp37
 70
     1
102
RTVSPropertyOp38
 70
     1
102
RTVSPropertyOp39
 70
     1
102
RTVSPropertyOp40
 70
     1
102
RTVSPropertyOp41
 70
     1
102
RTVSPropertyOp42
 70
     1
102
RTVSPropertyOp43
 70
     1
102
RTVSPropertyOp44
 70
     1
102
RTVSPropertyOp45
 70
     1
102
RTVSPropertyOp46
 70
     1
102
RTVSPropertyOp47
 70
     1
102
RTVSPropertyOp48
 70
     1
102
RTVSPropertyOp49
 70
     1
102
RTVSPropertyOp50
 70
     1
102
RTVSPropertyOp51
 70
     0
102
RTVSPropertyOp52
 70
     0
102
RTVSPropertyOp53
 70
     1
102
RTVSPropertyOp54
 70
     1
102
RTVSPropertyOp55
 70
     1
102
RTVSPropertyOp56
 70
     1
102
RTVSPropertyOp57
 70
     1
102
RTVSPost2010Prop28
280
     0
102
RTVSPost2010PropOp28
 70
     1
102
RTVSPost2010Prop29
280
     1
102
RTVSPost2010PropOp29
 70
     1
102
RTVSPost2010Prop30
280
     1
102
RTVSPost2010PropOp30
 70
     1
102
RTVSPost2010Prop31
280
     0
102
RTVSPost2010PropOp31
 70
     1
102
RTVSPost2010Prop32
280
     0
102
RTVSPost2010PropOp32
 70
     1
102
RTVSPost2010Prop33
280
     0
102
RTVSPost2010PropOp33
 70
     1
102
RTVSPost2010Prop34
280
     0
102
RTVSPost2010PropOp34
 70
     1
102
RTVSPost2010Prop35
280
     0
102
RTVSPost2010PropOp35
 70
     1
102
RTVSPost2010Prop36
280
     0
102
RTVSPost2010PropOp36
 70
     1
102
RTVSPost2010Prop37
 90
       50
102
RTVSPost2010PropOp37
 70
     1
102
RTVSPost2010Prop38
140
0.0
102
RTVSPost2010PropOp38
 70
     1
102
RTVSPost2010Prop39
140
1.0
102
RTVSPost2010PropOp39
 70
     1
102
RTVSPost2010Prop40
 90
        0
102
RTVSPost2010PropOp40
 70
     1
102
RTVSPost2010Prop41ColorIndex
 90
       18
102
RTVSPost2010Prop41ColorRGB
 90
        0
102
RTVSPost2010PropOp41
 70
     1
102
RTVSPost2010Prop42
 90
       50
102
RTVSPost2010PropOp42
 70
     1
102
RTVSPost2010Prop43
 90
        3
102
RTVSPost2010PropOp43
 70
     1
102
RTVSPost2010Prop44ColorIndex
 90
        5
102
RTVSPost2010Prop44ColorRGB
 90
      255
102
RTVSPost2010PropOp44
 70
     1
102
RTVSPost2010Prop45
280
     0
102
RTVSPost2010PropOp45
 70
     1
102
RTVSPost2010Prop46
 90
       50
102
RTVSPost2010PropOp46
 70
     1
102
RTVSPost2010Prop47
 90
       50
102
RTVSPost2010PropOp47
 70
     1
102
RTVSPost2010Prop48
 90
       50
102
RTVSPost2010PropOp48
 70
     1
102
RTVSPost2010Prop49
280
     0
102
RTVSPost2010PropOp49
 70
     1
102
RTVSPost2010Prop50
 90
       50
102
RTVSPost2010PropOp50
 70
     1
102
RTVSPost2010Prop51ColorIndex
 90
      256
102
RTVSPost2010Prop51ColorRGB
 90
-16777216
102
RTVSPost2010PropOp51
 70
     0
102
RTVSPost2010Prop52
140
1.0
102
RTVSPost2010PropOp52
 70
     0
102
RTVSPost2010Prop53
 90
        2
102
RTVSPost2010PropOp53
 70
     1
102
RTVSPost2010Prop54
  1
strokes_ogs.tif
102
RTVSPost2010PropOp54
 70
     1
102
RTVSPost2010Prop55
280
     0
102
RTVSPost2010PropOp55
 70
     1
102
RTVSPost2010Prop56
140
1.0
102
RTVSPost2010PropOp56
 70
     1
102
RTVSPost2010Prop57
140
1.0
102
RTVSPost2010PropOp57
 70
     1
  0
ENDSEC
  0
EOF
