  0
SECTION
  2
HEADER
  9
$ACADVER
  1
AC1018
  9
$ACADMAINTVER
 70
     0
  9
$DWGCODEPAGE
  3
ANSI_932
  9
$INSBASE
 10
0.0
 20
0.0
 30
0.0
  9
$EXTMIN
 10
-10500.0
 20
-7425.0
 30
0.0
  9
$EXTMAX
 10
10500.0
 20
7425.0
 30
0.0
  9
$LIMMIN
 10
-10500.0
 20
-7425.0
  9
$LIMMAX
 10
10500.0
 20
7425.0
  9
$ORTHOMODE
 70
     0
  9
$REGENMODE
 70
     1
  9
$FILLMODE
 70
     1
  9
$QTEXTMODE
 70
     0
  9
$MIRRTEXT
 70
     1
  9
$LTSCALE
 40
50.0
  9
$ATTMODE
 70
     1
  9
$TEXTSIZE
 40
2.5
  9
$TRACEWID
 40
1.0
  9
$TEXTSTYLE
  7
Standard
  9
$CLAYER
  8
0
  9
$CELTYPE
  6
ByLayer
  9
$CECOLOR
 62
   256
  9
$CELTSCALE
 40
1.0
  9
$DISPSILH
 70
     0
  9
$DIMSCALE
 40
1.0
  9
$DIMASZ
 40
2.5
  9
$DIMEXO
 40
0.625
  9
$DIMDLI
 40
3.75
  9
$DIMRND
 40
0.0
  9
$DIMDLE
 40
0.0
  9
$DIMEXE
 40
1.25
  9
$DIMTP
 40
0.0
  9
$DIMTM
 40
0.0
  9
$DIMTXT
 40
2.5
  9
$DIMCEN
 40
2.5
  9
$DIMTSZ
 40
0.0
  9
$DIMTOL
 70
     0
  9
$DIMLIM
 70
     0
  9
$DIMTIH
 70
     0
  9
$DIMTOH
 70
     0
  9
$DIMSE1
 70
     0
  9
$DIMSE2
 70
     0
  9
$DIMTAD
 70
     1
  9
$DIMZIN
 70
     8
  9
$DIMBLK
  1

  9
$DIMASO
 70
     1
  9
$DIMSHO
 70
     1
  9
$DIMPOST
  1

  9
$DIMAPOST
  1

  9
$DIMALT
 70
     0
  9
$DIMALTD
 70
     3
  9
$DIMALTF
 40
0.03937007874016
  9
$DIMLFAC
 40
1.0
  9
$DIMTOFL
 70
     1
  9
$DIMTVP
 40
0.0
  9
$DIMTIX
 70
     0
  9
$DIMSOXD
 70
     0
  9
$DIMSAH
 70
     0
  9
$DIMBLK1
  1

  9
$DIMBLK2
  1

  9
$DIMSTYLE
  2
ISO-25
  9
$DIMCLRD
 70
     0
  9
$DIMCLRE
 70
     0
  9
$DIMCLRT
 70
     0
  9
$DIMTFAC
 40
1.0
  9
$DIMGAP
 40
0.625
  9
$DIMJUST
 70
     0
  9
$DIMSD1
 70
     0
  9
$DIMSD2
 70
     0
  9
$DIMTOLJ
 70
     0
  9
$DIMTZIN
 70
     8
  9
$DIMALTZ
 70
     0
  9
$DIMALTTZ
 70
     0
  9
$DIMUPT
 70
     0
  9
$DIMDEC
 70
     2
  9
$DIMTDEC
 70
     2
  9
$DIMALTU
 70
     2
  9
$DIMALTTD
 70
     3
  9
$DIMTXSTY
  7
Standard
  9
$DIMAUNIT
 70
     0
  9
$DIMADEC
 70
     0
  9
$DIMALTRND
 40
0.0
  9
$DIMAZIN
 70
     0
  9
$DIMDSEP
 70
    44
  9
$DIMATFIT
 70
     3
  9
$DIMFRAC
 70
     0
  9
$DIMLDRBLK
  1

  9
$DIMLUNIT
 70
     2
  9
$DIMLWD
 70
    -2
  9
$DIMLWE
 70
    -2
  9
$DIMTMOVE
 70
     0
  9
$LUNITS
 70
     2
  9
$LUPREC
 70
     4
  9
$SKETCHINC
 40
1.0
  9
$FILLETRAD
 40
10.0
  9
$AUNITS
 70
     0
  9
$AUPREC
 70
     0
  9
$MENU
  1
.
  9
$ELEVATION
 40
0.0
  9
$PELEVATION
 40
0.0
  9
$THICKNESS
 40
0.0
  9
$LIMCHECK
 70
     0
  9
$CHAMFERA
 40
0.0
  9
$CHAMFERB
 40
0.0
  9
$CHAMFERC
 40
0.0
  9
$CHAMFERD
 40
0.0
  9
$SKPOLY
 70
     0
  9
$TDCREATE
 40
2459010.436674792
  9
$TDUCREATE
 40
2459010.061674792
  9
$TDUPDATE
 40
2459010.436674907
  9
$TDUUPDATE
 40
2459010.061674907
  9
$TDINDWG
 40
0.0000000116
  9
$TDUSRTIMER
 40
0.0000000116
  9
$USRTIMER
 70
     1
  9
$ANGBASE
 50
0.0
  9
$ANGDIR
 70
     0
  9
$PDMODE
 70
     0
  9
$PDSIZE
 40
0.0
  9
$PLINEWID
 40
0.0
  9
$SPLFRAME
 70
     0
  9
$SPLINETYPE
 70
     6
  9
$SPLINESEGS
 70
     8
  9
$HANDSEED
  5
2AB
  9
$SURFTAB1
 70
     6
  9
$SURFTAB2
 70
     6
  9
$SURFTYPE
 70
     6
  9
$SURFU
 70
     6
  9
$SURFV
 70
     6
  9
$UCSBASE
  2

  9
$UCSNAME
  2

  9
$UCSORG
 10
0.0
 20
0.0
 30
0.0
  9
$UCSXDIR
 10
1.0
 20
0.0
 30
0.0
  9
$UCSYDIR
 10
0.0
 20
1.0
 30
0.0
  9
$UCSORTHOREF
  2

  9
$UCSORTHOVIEW
 70
     0
  9
$UCSORGTOP
 10
0.0
 20
0.0
 30
0.0
  9
$UCSORGBOTTOM
 10
0.0
 20
0.0
 30
0.0
  9
$UCSORGLEFT
 10
0.0
 20
0.0
 30
0.0
  9
$UCSORGRIGHT
 10
0.0
 20
0.0
 30
0.0
  9
$UCSORGFRONT
 10
0.0
 20
0.0
 30
0.0
  9
$UCSORGBACK
 10
0.0
 20
0.0
 30
0.0
  9
$PUCSBASE
  2

  9
$PUCSNAME
  2

  9
$PUCSORG
 10
0.0
 20
0.0
 30
0.0
  9
$PUCSXDIR
 10
1.0
 20
0.0
 30
0.0
  9
$PUCSYDIR
 10
0.0
 20
1.0
 30
0.0
  9
$PUCSORTHOREF
  2

  9
$PUCSORTHOVIEW
 70
     0
  9
$PUCSORGTOP
 10
0.0
 20
0.0
 30
0.0
  9
$PUCSORGBOTTOM
 10
0.0
 20
0.0
 30
0.0
  9
$PUCSORGLEFT
 10
0.0
 20
0.0
 30
0.0
  9
$PUCSORGRIGHT
 10
0.0
 20
0.0
 30
0.0
  9
$PUCSORGFRONT
 10
0.0
 20
0.0
 30
0.0
  9
$PUCSORGBACK
 10
0.0
 20
0.0
 30
0.0
  9
$USERI1
 70
     0
  9
$USERI2
 70
     0
  9
$USERI3
 70
     0
  9
$USERI4
 70
     0
  9
$USERI5
 70
     0
  9
$USERR1
 40
0.0
  9
$USERR2
 40
0.0
  9
$USERR3
 40
0.0
  9
$USERR4
 40
0.0
  9
$USERR5
 40
0.0
  9
$WORLDVIEW
 70
     1
  9
$SHADEDGE
 70
     3
  9
$SHADEDIF
 70
    70
  9
$TILEMODE
 70
     1
  9
$MAXACTVP
 70
    64
  9
$PINSBASE
 10
0.0
 20
0.0
 30
0.0
  9
$PLIMCHECK
 70
     0
  9
$PEXTMIN
 10
1.000000000000000E+20
 20
1.000000000000000E+20
 30
1.000000000000000E+20
  9
$PEXTMAX
 10
-1.000000000000000E+20
 20
-1.000000000000000E+20
 30
-1.000000000000000E+20
  9
$PLIMMIN
 10
0.0
 20
0.0
  9
$PLIMMAX
 10
420.0
 20
297.0
  9
$UNITMODE
 70
     0
  9
$VISRETAIN
 70
     1
  9
$PLINEGEN
 70
     0
  9
$PSLTSCALE
 70
     1
  9
$TREEDEPTH
 70
  3020
  9
$CMLSTYLE
  2
Standard
  9
$CMLJUST
 70
     0
  9
$CMLSCALE
 40
20.0
  9
$PROXYGRAPHICS
 70
     1
  9
$MEASUREMENT
 70
     1
  9
$CELWEIGHT
370
    -1
  9
$ENDCAPS
280
     0
  9
$JOINSTYLE
280
     0
  9
$LWDISPLAY
290
     0
  9
$INSUNITS
 70
     4
  9
$HYPERLINKBASE
  1

  9
$STYLESHEET
  1

  9
$XEDIT
290
     1
  9
$CEPSNTYPE
380
     0
  9
$PSTYLEMODE
290
     1
  9
$FINGERPRINTGUID
  2
{16490B65-FB08-4D6D-A62A-EF68B73B818A}
  9
$VERSIONGUID
  2
{FAEB1C32-E019-11D5-929B-00C0DF256EC4}
  9
$EXTNAMES
290
     1
  9
$PSVPSCALE
 40
0.0
  9
$OLESTARTUP
290
     0
  9
$SORTENTS
280
   127
  9
$INDEXCTL
280
     0
  9
$HIDETEXT
280
     1
  9
$XCLIPFRAME
290
     0
  9
$HALOGAP
280
     0
  9
$OBSCOLOR
 70
   257
  9
$OBSLTYPE
280
     0
  9
$INTERSECTIONDISPLAY
280
     0
  9
$INTERSECTIONCOLOR
 70
   257
  9
$DIMASSOC
280
     2
  9
$PROJECTNAME
  1

  0
ENDSEC
  0
SECTION
  2
CLASSES
  0
CLASS
  1
ACDBDICTIONARYWDFLT
  2
AcDbDictionaryWithDefault
  3
ObjectDBX Classes
 90
        0
 91
        4
280
     0
281
     0
  0
CLASS
  1
VISUALSTYLE
  2
AcDbVisualStyle
  3
ObjectDBX Classes
 90
     4095
 91
        4
280
     0
281
     0
  0
CLASS
  1
MATERIAL
  2
AcDbMaterial
  3
ObjectDBX Classes
 90
     1153
 91
        4
280
     0
281
     0
  0
CLASS
  1
SCALE
  2
AcDbScale
  3
ObjectDBX Classes
 90
     1153
 91
        4
280
     0
281
     0
  0
CLASS
  1
TABLESTYLE
  2
AcDbTableStyle
  3
ObjectDBX Classes
 90
     4095
 91
        4
280
     0
281
     0
  0
CLASS
  1
MLEADERSTYLE
  2
AcDbMLeaderStyle
  3
ACDB_MLEADERSTYLE_CLASS
 90
     4095
 91
        4
280
     0
281
     0
  0
CLASS
  1
SUN
  2
AcDbSun
  3
SCENEOE
 90
     1153
 91
        4
280
     0
281
     0
  0
CLASS
  1
DICTIONARYVAR
  2
AcDbDictionaryVar
  3
ObjectDBX Classes
 90
        0
 91
        4
280
     0
281
     0
  0
CLASS
  1
CELLSTYLEMAP
  2
AcDbCellStyleMap
  3
ObjectDBX Classes
 90
     1152
 91
        4
280
     0
281
     0
  0
ENDSEC
  0
SECTION
  2
TABLES
  0
TABLE
  2
VPORT
  5
8
102
{ACAD_XDICTIONARY
360
262
102
}
330
0
100
AcDbSymbolTable
 70
     1
  0
VPORT
  5
29
330
8
100
AcDbSymbolTableRecord
100
AcDbViewportTableRecord
  2
*Active
 70
     0
 10
0.0
 20
0.0
 11
1.0
 21
1.0
 12
0.0
 22
0.0
 13
0.0
 23
0.0
 14
10.0
 24
10.0
 15
10.0
 25
10.0
 16
0.0
 26
0.0
 36
1.0
 17
0.0
 27
0.0
 37
0.0
 40
16335.0
 41
1.414141414141414
 42
50.0
 43
0.0
 44
0.0
 50
0.0
 51
0.0
 71
     0
 72
 10000
 73
     1
 74
     3
 75
     0
 76
     0
 77
     0
 78
     0
281
     0
 65
     1
110
0.0
120
0.0
130
0.0
111
1.0
121
0.0
131
0.0
112
0.0
122
1.0
132
0.0
 79
     0
146
0.0
  0
ENDTAB
  0
TABLE
  2
LTYPE
  5
5
330
0
100
AcDbSymbolTable
 70
     6
  0
LTYPE
  5
14
330
5
100
AcDbSymbolTableRecord
100
AcDbLinetypeTableRecord
  2
ByBlock
 70
     0
  3

 72
    65
 73
     0
 40
0.0
  0
LTYPE
  5
15
330
5
100
AcDbSymbolTableRecord
100
AcDbLinetypeTableRecord
  2
ByLayer
 70
     0
  3

 72
    65
 73
     0
 40
0.0
  0
LTYPE
  5
16
330
5
100
AcDbSymbolTableRecord
100
AcDbLinetypeTableRecord
  2
Continuous
 70
     0
  3
Solid line
 72
    65
 73
     0
 40
0.0
  0
LTYPE
  5
6F
330
5
100
AcDbSymbolTableRecord
100
AcDbLinetypeTableRecord
  2
JWW_CENTER2
 70
     0
  3
-------------  --  -------------
 72
    65
 73
     4
 40
13.54666666666667
 49
11.00666666666667
 74
     0
 49
-0.8466666666666667
 74
     0
 49
0.8466666666666667
 74
     0
 49
-0.8466666666666667
 74
     0
  0
LTYPE
  5
70
330
5
100
AcDbSymbolTableRecord
100
AcDbLinetypeTableRecord
  2
JWW_DASHED1
 70
     0
  3
-  --  --  --  --  --  --  --  -
 72
    65
 73
     2
 40
1.693333333333333
 49
0.8466666666666667
 74
     0
 49
-0.8466666666666667
 74
     0
  0
LTYPE
  5
71
330
5
100
AcDbSymbolTableRecord
100
AcDbLinetypeTableRecord
  2
JWW_DASHED2
 70
     0
  3
--    ----    ----    ----    --
 72
    65
 73
     2
 40
3.386666666666667
 49
1.693333333333333
 74
     0
 49
-1.693333333333333
 74
     0
  0
LTYPE
  5
72
330
5
100
AcDbSymbolTableRecord
100
AcDbLinetypeTableRecord
  2
JWW_PHANTOM1
 70
     0
  3
----  -  -  --------  -  -  ----
 72
    65
 73
     6
 40
6.773333333333333
 49
3.386666666666667
 74
     0
 49
-0.8466666666666667
 74
     0
 49
0.4233333333333333
 74
     0
 49
-0.8466666666666667
 74
     0
 49
0.4233333333333333
 74
     0
 49
-0.8466666666666667
 74
     0
  0
LTYPE
  5
73
330
5
100
AcDbSymbolTableRecord
100
AcDbLinetypeTableRecord
  2
JWW_CENTER1
 70
     0
  3
-----  --  ----------  --  -----
 72
    65
 73
     4
 40
6.773333333333333
 49
4.233333333333333
 74
     0
 49
-0.8466666666666667
 74
     0
 49
0.8466666666666667
 74
     0
 49
-0.8466666666666667
 74
     0
  0
ENDTAB
  0
TABLE
  2
LAYER
  5
2
330
0
100
AcDbSymbolTable
 70
    20
  0
LAYER
  5
10
330
2
100
AcDbSymbolTableRecord
100
AcDbLayerTableRecord
  2
0
 70
     0
 62
     7
  6
Continuous
370
    -3
390
F
  0
LAYER
  5
74
330
2
100
AcDbSymbolTableRecord
100
AcDbLayerTableRecord
  2
B-1_躯体
 70
     0
 62
     7
  6
Continuous
370
    -3
390
F
  0
LAYER
  5
75
330
2
100
AcDbSymbolTableRecord
100
AcDbLayerTableRecord
  2
C-2_仕上
 70
     0
 62
     7
  6
Continuous
370
    -3
390
F
  0
LAYER
  5
76
330
2
100
AcDbSymbolTableRecord
100
AcDbLayerTableRecord
  2
C-4_文字
 70
     0
 62
     7
  6
Continuous
370
    -3
390
F
  0
LAYER
  5
77
330
2
100
AcDbSymbolTableRecord
100
AcDbLayerTableRecord
  2
C-0_通り芯
 70
     0
 62
     7
  6
Continuous
370
    -3
390
F
  0
LAYER
  5
78
330
2
100
AcDbSymbolTableRecord
100
AcDbLayerTableRecord
  2
C-5_建具
 70
     0
 62
     7
  6
Continuous
370
    -3
390
F
  0
LAYER
  5
79
330
2
100
AcDbSymbolTableRecord
100
AcDbLayerTableRecord
  2
C-1_躯体
 70
     0
 62
     7
  6
Continuous
370
    -3
390
F
  0
LAYER
  5
7A
330
2
100
AcDbSymbolTableRecord
100
AcDbLayerTableRecord
  2
C-6_間仕切
 70
     0
 62
     7
  6
Continuous
370
    -3
390
F
  0
LAYER
  5
7B
330
2
100
AcDbSymbolTableRecord
100
AcDbLayerTableRecord
  2
C-E_見え係り
 70
     0
 62
     7
  6
Continuous
370
    -3
390
F
  0
LAYER
  5
7C
330
2
100
AcDbSymbolTableRecord
100
AcDbLayerTableRecord
  2
B-0_通り芯
 70
     0
 62
     7
  6
Continuous
370
    -3
390
F
  0
LAYER
  5
7D
330
2
100
AcDbSymbolTableRecord
100
AcDbLayerTableRecord
  2
B-6_間仕切
 70
     0
 62
     7
  6
Continuous
370
    -3
390
F
  0
LAYER
  5
7E
330
2
100
AcDbSymbolTableRecord
100
AcDbLayerTableRecord
  2
B-2_仕上
 70
     0
 62
     7
  6
Continuous
370
    -3
390
F
  0
LAYER
  5
7F
330
2
100
AcDbSymbolTableRecord
100
AcDbLayerTableRecord
  2
B-4_文字
 70
     0
 62
     7
  6
Continuous
370
    -3
390
F
  0
LAYER
  5
80
330
2
100
AcDbSymbolTableRecord
100
AcDbLayerTableRecord
  2
B-E_見え係り
 70
     0
 62
     7
  6
Continuous
370
    -3
390
F
  0
LAYER
  5
81
330
2
100
AcDbSymbolTableRecord
100
AcDbLayerTableRecord
  2
B-5_建具
 70
     0
 62
     7
  6
Continuous
370
    -3
390
F
  0
LAYER
  5
82
330
2
100
AcDbSymbolTableRecord
100
AcDbLayerTableRecord
  2
C-3_寸法
 70
     0
 62
     7
  6
Continuous
370
    -3
390
F
  0
LAYER
  5
83
330
2
100
AcDbSymbolTableRecord
100
AcDbLayerTableRecord
  2
B-A_インテリア
 70
     0
 62
     7
  6
Continuous
370
    -3
390
F
  0
LAYER
  5
84
330
2
100
AcDbSymbolTableRecord
100
AcDbLayerTableRecord
  2
C-A_インテリア
 70
     0
 62
     7
  6
Continuous
370
    -3
390
F
  0
LAYER
  5
85
330
2
100
AcDbSymbolTableRecord
100
AcDbLayerTableRecord
  2
F-5ﾚｲﾔ
 70
     0
 62
     7
  6
Continuous
370
    -3
390
F
  0
LAYER
  5
86
330
2
100
AcDbSymbolTableRecord
100
AcDbLayerTableRecord
  2
F-Fﾚｲﾔ
 70
     0
 62
     7
  6
Continuous
370
    -3
390
F
  0
ENDTAB
  0
TABLE
  2
STYLE
  5
3
330
0
100
AcDbSymbolTable
 70
     2
  0
STYLE
  5
11
330
3
100
AcDbSymbolTableRecord
100
AcDbTextStyleTableRecord
  2
Standard
 70
     0
 40
0.0
 41
1.0
 50
0.0
 71
     0
 42
2.5
  3
txt
  4

  0
STYLE
  5
6E
330
3
100
AcDbSymbolTableRecord
100
AcDbTextStyleTableRecord
  2
ＭＳ ゴシック
 70
     0
 40
1.0
 41
1.0
 50
0.0
 71
     0
 42
2.5
  3

  4

1001
ACAD
1000
MS Gothic
1071
    32817
  0
ENDTAB
  0
TABLE
  2
VIEW
  5
6
330
0
100
AcDbSymbolTable
 70
     0
  0
ENDTAB
  0
TABLE
  2
UCS
  5
7
330
0
100
AcDbSymbolTable
 70
     0
  0
ENDTAB
  0
TABLE
  2
APPID
  5
9
330
0
100
AcDbSymbolTable
 70
     2
  0
APPID
  5
12
330
9
100
AcDbSymbolTableRecord
100
AcDbRegAppTableRecord
  2
ACAD
 70
     0
  0
APPID
  5
2A1
330
9
100
AcDbSymbolTableRecord
100
AcDbRegAppTableRecord
  2
ACAD_MLEADERVER
 70
     0
  0
ENDTAB
  0
TABLE
  2
DIMSTYLE
  5
A
330
0
100
AcDbSymbolTable
 70
     1
100
AcDbDimStyleTable
  0
DIMSTYLE
105
27
330
A
100
AcDbSymbolTableRecord
100
AcDbDimStyleTableRecord
  2
ISO-25
 70
     0
 41
2.5
 42
0.625
 43
3.75
 44
1.25
 73
     0
 74
     0
 77
     1
 78
     8
140
2.5
141
2.5
143
0.03937007874016
147
0.625
171
     3
172
     1
178
     0
271
     2
272
     2
274
     3
278
    44
283
     0
284
     8
340
11
  0
ENDTAB
  0
TABLE
  2
BLOCK_RECORD
  5
1
330
0
100
AcDbSymbolTable
 70
     1
  0
BLOCK_RECORD
  5
1F
330
1
100
AcDbSymbolTableRecord
100
AcDbBlockTableRecord
  2
*Model_Space
340
22
  0
BLOCK_RECORD
  5
1B
330
1
100
AcDbSymbolTableRecord
100
AcDbBlockTableRecord
  2
*Paper_Space
340
1E
  0
BLOCK_RECORD
  5
23
330
1
100
AcDbSymbolTableRecord
100
AcDbBlockTableRecord
  2
*Paper_Space0
340
26
  0
ENDTAB
  0
ENDSEC
  0
SECTION
  2
BLOCKS
  0
BLOCK
  5
20
330
1F
100
AcDbEntity
  8
0
100
AcDbBlockBegin
  2
*Model_Space
 70
     0
 10
0.0
 20
0.0
 30
0.0
  3
*Model_Space
  1

  0
ENDBLK
  5
21
330
1F
100
AcDbEntity
  8
0
100
AcDbBlockEnd
  0
BLOCK
  5
1C
330
1B
100
AcDbEntity
 67
     1
  8
0
100
AcDbBlockBegin
  2
*Paper_Space
 70
     0
 10
0.0
 20
0.0
 30
0.0
  3
*Paper_Space
  1

  0
ENDBLK
  5
1D
330
1B
100
AcDbEntity
 67
     1
  8
0
100
AcDbBlockEnd
  0
BLOCK
  5
24
330
23
100
AcDbEntity
  8
0
100
AcDbBlockBegin
  2
*Paper_Space0
 70
     0
 10
0.0
 20
0.0
 30
0.0
  3
*Paper_Space0
  1

  0
ENDBLK
  5
25
330
23
100
AcDbEntity
  8
0
100
AcDbBlockEnd
  0
ENDSEC
  0
SECTION
  2
ENTITIES
  0
LINE
  5
87
330
1F
100
AcDbEntity
  8
B-1_躯体
  6
Continuous
 62
     3
370
     9
100
AcDbLine
 10
5116.231782127417
 20
-1398.90142386866
 30
0.0
 11
5632.898448794105
 21
-1398.90142386866
 31
0.0
  0
LINE
  5
88
330
1F
100
AcDbEntity
  8
C-2_仕上
  6
Continuous
 62
     3
370
     9
100
AcDbLine
 10
-6784.765142847002
 20
455.9841654134658
 30
0.0
 11
-6784.765142847002
 21
-1437.265634985076
 31
0.0
  0
LINE
  5
89
330
1F
100
AcDbEntity
  8
C-2_仕上
  6
Continuous
 62
     3
370
     9
100
AcDbLine
 10
-7166.265386987627
 20
1371.984861544168
 30
0.0
 11
-7166.265386987627
 21
-1437.265634985076
 31
0.0
  0
LINE
  5
8A
330
1F
100
AcDbEntity
  8
C-4_文字
  6
Continuous
 62
     7
370
     9
100
AcDbLine
 10
-6784.765142847002
 20
968.6014145223155
 30
0.0
 11
-6660.834535175274
 21
984.9171885498222
 31
0.0
  0
ARC
  5
8B
330
1F
100
AcDbEntity
  8
C-0_通り芯
  6
JWW_CENTER2
 62
     7
370
     9
100
AcDbCircle
 10
-5975.515182437372
 20
1371.984861544168
 30
0.0
 40
999.9999896900075
100
AcDbArc
 50
90.0
 51
180.0
  0
ARC
  5
8C
330
1F
100
AcDbEntity
  8
C-2_仕上
  6
Continuous
 62
     3
370
     9
100
AcDbCircle
 10
-5975.515182437372
 20
1371.984861544168
 30
0.0
 40
809.2499604096284
100
AcDbArc
 50
90.0
 51
180.0
  0
ARC
  5
8D
330
1F
100
AcDbEntity
  8
C-2_仕上
  6
Continuous
 62
     3
370
     9
100
AcDbCircle
 10
-5975.515182437372
 20
1371.984861544168
 30
0.0
 40
1190.750018970386
100
AcDbArc
 50
90.0
 51
180.0
  0
ARC
  5
8E
330
1F
100
AcDbEntity
  8
C-2_仕上
  6
Continuous
 62
     3
370
     9
100
AcDbCircle
 10
-6784.765142847002
 20
562.7341588150714
 30
0.0
 40
106.7499934016047
100
AcDbArc
 50
90.0
 51
270.0
  0
LINE
  5
8F
330
1F
100
AcDbEntity
  8
C-2_仕上
  6
Continuous
 62
     3
370
     9
100
AcDbLine
 10
-6784.765142847002
 20
1371.984861544168
 30
0.0
 11
-6784.765142847002
 21
669.4841522166755
 31
0.0
  0
ARC
  5
90
330
1F
100
AcDbEntity
  8
C-0_通り芯
  6
JWW_CENTER2
 62
     7
370
     9
100
AcDbCircle
 10
-3357.015179138175
 20
1371.984861544168
 30
0.0
 40
999.9999896900075
100
AcDbArc
 50
0.0
 51
90.0
  0
ARC
  5
91
330
1F
100
AcDbEntity
  8
C-2_仕上
  6
Continuous
 62
     3
370
     9
100
AcDbCircle
 10
-3357.015179138175
 20
1371.984861544168
 30
0.0
 40
809.2499604096284
100
AcDbArc
 50
0.0
 51
90.0
  0
ARC
  5
92
330
1F
100
AcDbEntity
  8
C-2_仕上
  6
Continuous
 62
     3
370
     9
100
AcDbCircle
 10
-3357.015179138175
 20
1371.984861544168
 30
0.0
 40
1190.750018970386
100
AcDbArc
 50
0.0
 51
90.0
  0
ARC
  5
93
330
1F
100
AcDbEntity
  8
C-2_仕上
  6
Continuous
 62
     3
370
     9
100
AcDbCircle
 10
-2547.765218728547
 20
562.7341588150714
 30
0.0
 40
106.7499934016047
100
AcDbArc
 50
270.0
 51
90.0
  0
LINE
  5
94
330
1F
100
AcDbEntity
  8
C-2_仕上
  6
Continuous
 62
     3
370
     9
100
AcDbLine
 10
-2166.264974587922
 20
1371.984861544168
 30
0.0
 11
-2166.264974587922
 21
-1437.265634985076
 31
0.0
  0
LINE
  5
95
330
1F
100
AcDbEntity
  8
C-2_仕上
  6
Continuous
 62
     3
370
     9
100
AcDbLine
 10
-2547.765218728547
 20
455.9841654134658
 30
0.0
 11
-2547.765218728547
 21
-1437.265634985076
 31
0.0
  0
LINE
  5
96
330
1F
100
AcDbEntity
  8
C-2_仕上
  6
Continuous
 62
     3
370
     9
100
AcDbLine
 10
-2547.765218728547
 20
1371.984861544168
 30
0.0
 11
-2547.765218728547
 21
669.4841522166755
 31
0.0
  0
LINE
  5
97
330
1F
100
AcDbEntity
  8
C-4_文字
  6
Continuous
 62
     7
370
     9
100
AcDbLine
 10
-7166.265201407759
 20
3208.097587991706
 30
0.0
 11
-2166.265160167788
 21
3208.097587991706
 31
0.0
  0
LINE
  5
98
330
1F
100
AcDbEntity
  8
C-4_文字
  6
Continuous
 62
     7
370
     9
100
AcDbLine
 10
-7166.265201407759
 20
3208.097587991706
 30
0.0
 11
-7042.334593736033
 21
3224.413362019213
 31
0.0
  0
LINE
  5
99
330
1F
100
AcDbEntity
  8
C-4_文字
  6
Continuous
 62
     7
370
     9
100
AcDbLine
 10
-7166.265201407759
 20
3208.097587991706
 30
0.0
 11
-7042.334593736033
 21
3191.7818139642
 31
0.0
  0
LINE
  5
9A
330
1F
100
AcDbEntity
  8
C-4_文字
  6
Continuous
 62
     7
370
     9
100
AcDbLine
 10
-2166.265160167788
 20
3208.097587991706
 30
0.0
 11
-2290.195767839514
 21
3224.413362019213
 31
0.0
  0
LINE
  5
9B
330
1F
100
AcDbEntity
  8
C-4_文字
  6
Continuous
 62
     7
370
     9
100
AcDbLine
 10
-2166.265160167788
 20
3208.097587991706
 30
0.0
 11
-2290.195767839514
 21
3191.7818139642
 31
0.0
  0
TEXT
  5
9C
330
1F
100
AcDbEntity
  8
C-4_文字
  6
Continuous
 62
     2
370
   211
100
AcDbText
 10
-4885.015180787773
 20
3261.297587991706
 30
0.0
 40
152.4
  1
1000
 41
1.09375
  7
ＭＳ ゴシック
100
AcDbText
  0
LINE
  5
9D
330
1F
100
AcDbEntity
  8
C-4_文字
  6
Continuous
 62
     7
370
     9
100
AcDbLine
 10
-7166.265201407759
 20
3223.097587991707
 30
0.0
 11
-7166.265201407759
 21
1753.05294513456
 31
0.0
  0
LINE
  5
9E
330
1F
100
AcDbEntity
  8
C-4_文字
  6
Continuous
 62
     7
370
     9
100
AcDbLine
 10
-2166.265160167788
 20
3223.097587991707
 30
0.0
 11
-2166.265160167788
 21
1753.05294513456
 31
0.0
  0
LINE
  5
9F
330
1F
100
AcDbEntity
  8
C-4_文字
  6
Continuous
 62
     7
370
     9
100
AcDbLine
 10
-1324.979430322769
 20
562.7341588150714
 30
0.0
 11
-1324.979430322769
 21
2562.734323774953
 31
0.0
  0
LINE
  5
A0
330
1F
100
AcDbEntity
  8
C-4_文字
  6
Continuous
 62
     7
370
     9
100
AcDbLine
 10
-1324.979430322769
 20
562.7341588150714
 30
0.0
 11
-1341.295204350276
 21
686.6647664867983
 31
0.0
  0
LINE
  5
A1
330
1F
100
AcDbEntity
  8
C-4_文字
  6
Continuous
 62
     7
370
     9
100
AcDbLine
 10
-1324.979430322769
 20
562.7341588150714
 30
0.0
 11
-1308.663656295263
 21
686.6647664867983
 31
0.0
  0
LINE
  5
A2
330
1F
100
AcDbEntity
  8
C-4_文字
  6
Continuous
 62
     7
370
     9
100
AcDbLine
 10
-1324.979430322769
 20
2562.734323774953
 30
0.0
 11
-1341.295204350275
 21
2438.803716103226
 31
0.0
  0
LINE
  5
A3
330
1F
100
AcDbEntity
  8
C-4_文字
  6
Continuous
 62
     7
370
     9
100
AcDbLine
 10
-1324.979430322769
 20
2562.734323774953
 30
0.0
 11
-1308.663656295263
 21
2438.803716103226
 31
0.0
  0
TEXT
  5
A4
330
1F
100
AcDbEntity
  8
C-4_文字
  6
Continuous
 62
     2
370
   211
100
AcDbText
 10
-1378.179430322769
 20
1400.234241295013
 30
0.0
 40
152.4
  1
400
 50
90.0
 41
1.083333333333333
  7
ＭＳ ゴシック
100
AcDbText
  0
LINE
  5
A5
330
1F
100
AcDbEntity
  8
C-4_文字
  6
Continuous
 62
     7
370
     9
100
AcDbLine
 10
-1309.979430322769
 20
562.7341588150714
 30
0.0
 11
-2052.326369098279
 21
562.7341588150714
 31
0.0
  0
LINE
  5
A6
330
1F
100
AcDbEntity
  8
C-4_文字
  6
Continuous
 62
     7
370
     9
100
AcDbLine
 10
-1309.979430322769
 20
2562.734323774953
 30
0.0
 11
-3025.489634404402
 21
2562.734323774953
 31
0.0
  0
LINE
  5
A7
330
1F
100
AcDbEntity
  8
C-4_文字
  6
Continuous
 62
     7
370
     9
100
AcDbLine
 10
-6784.765142847002
 20
968.6014145223155
 30
0.0
 11
-7166.265386987627
 21
968.6014145223155
 31
0.0
  0
LINE
  5
A8
330
1F
100
AcDbEntity
  8
C-4_文字
  6
Continuous
 62
     7
370
     9
100
AcDbLine
 10
-6784.765142847002
 20
968.6014145223155
 30
0.0
 11
-6660.834535175274
 21
952.2856404948086
 31
0.0
  0
LINE
  5
A9
330
1F
100
AcDbEntity
  8
C-4_文字
  6
Continuous
 62
     7
370
     9
100
AcDbLine
 10
-7166.265386987627
 20
968.6014145223155
 30
0.0
 11
-7290.195994659353
 21
984.9171885498222
 31
0.0
  0
LINE
  5
AA
330
1F
100
AcDbEntity
  8
C-4_文字
  6
Continuous
 62
     7
370
     9
100
AcDbLine
 10
-7166.265386987627
 20
968.6014145223155
 30
0.0
 11
-7290.195994659353
 21
952.2856404948086
 31
0.0
  0
LINE
  5
AB
330
1F
100
AcDbEntity
  8
C-4_文字
  6
Continuous
 62
     7
370
     9
100
AcDbLine
 10
-7166.265386987627
 20
968.6014145223155
 30
0.0
 11
-7334.727162749073
 21
968.6014145223155
 31
0.0
  0
TEXT
  5
AC
330
1F
100
AcDbEntity
  8
C-4_文字
  6
Continuous
 62
     2
370
   211
100
AcDbText
 10
-6594.589218682563
 20
1019.078908853382
 30
0.0
 40
152.4
  1
φ76.3
 41
1.104166666666668
  7
ＭＳ ゴシック
100
AcDbText
  0
LINE
  5
AD
330
1F
100
AcDbEntity
  8
C-4_文字
  6
Continuous
 62
     7
370
     9
100
AcDbLine
 10
-6784.765142847002
 20
968.6014145223155
 30
0.0
 11
-5888.358115130031
 21
968.6014145223155
 31
0.0
  0
LINE
  5
AE
330
1F
100
AcDbEntity
  8
C-4_文字
  6
Continuous
 62
     7
370
     9
100
AcDbLine
 10
-6039.998316674065
 20
1435.761266542215
 30
0.0
 11
-6682.773793633021
 21
2078.939765530001
 31
0.0
  0
LINE
  5
AF
330
1F
100
AcDbEntity
  8
C-5_建具
  6
Continuous
 62
     7
370
     9
100
AcDbLine
 10
-6682.773793633021
 20
2078.939765530001
 30
0.0
 11
-6583.628479434519
 21
2002.813510712886
 31
0.0
  0
LINE
  5
B0
330
1F
100
AcDbEntity
  8
C-5_建具
  6
Continuous
 62
     7
370
     9
100
AcDbLine
 10
-6682.773793633021
 20
2078.939765530001
 30
0.0
 11
-6606.709698672141
 21
1979.74675439624
 31
0.0
  0
TEXT
  5
B1
330
1F
100
AcDbEntity
  8
C-4_文字
  6
Continuous
 62
     2
370
   211
100
AcDbText
 10
-6324.131158109635
 20
1794.886149089873
 30
0.0
 40
152.4000000000035
  1
R200
 50
315.0
 41
1.093749999999944
  7
ＭＳ ゴシック
100
AcDbText
  0
LINE
  5
B2
330
1F
100
AcDbEntity
  8
C-4_文字
  6
Continuous
 62
     7
370
     9
100
AcDbLine
 10
-4525.304650370838
 20
1467.356771179752
 30
0.0
 11
-4525.304650370838
 21
226.3036187185932
 31
0.0
  0
TEXT
  5
B3
330
1F
100
AcDbEntity
  8
C-4_文字
  6
Continuous
 62
     2
370
     9
100
AcDbText
 10
-4578.504732850782
 20
790.4937358071165
 30
0.0
 40
152.4000000000022
  1
φ42.7
 50
90.0
 41
1.104166666666651
  7
ＭＳ ゴシック
100
AcDbText
  0
LINE
  5
B4
330
1F
100
AcDbEntity
  8
C-4_文字
  6
Continuous
 62
     7
370
     9
100
AcDbLine
 10
-4525.304650370838
 20
669.4841522166755
 30
0.0
 11
-4510.304848322697
 21
669.4841522166755
 31
0.0
  0
LINE
  5
B5
330
1F
100
AcDbEntity
  8
C-4_文字
  6
Continuous
 62
     7
370
     9
100
AcDbLine
 10
-4525.304650370838
 20
669.4841522166755
 30
0.0
 11
-4544.882707737286
 21
818.2010530163993
 31
0.0
  0
LINE
  5
B6
330
1F
100
AcDbEntity
  8
C-4_文字
  6
Continuous
 62
     7
370
     9
100
AcDbLine
 10
-4525.304650370838
 20
669.4841522166755
 30
0.0
 11
-4505.72659300439
 21
818.2010530163993
 31
0.0
  0
LINE
  5
B7
330
1F
100
AcDbEntity
  8
C-4_文字
  6
Continuous
 62
     7
370
     9
100
AcDbLine
 10
-4525.304650370838
 20
455.9841654134658
 30
0.0
 11
-4510.304848322697
 21
455.9841654134658
 31
0.0
  0
LINE
  5
B8
330
1F
100
AcDbEntity
  8
C-4_文字
  6
Continuous
 62
     7
370
     9
100
AcDbLine
 10
-4525.304650370838
 20
455.9841654134658
 30
0.0
 11
-4544.882707737286
 21
307.267264613742
 31
0.0
  0
LINE
  5
B9
330
1F
100
AcDbEntity
  8
C-4_文字
  6
Continuous
 62
     7
370
     9
100
AcDbLine
 10
-4525.304650370838
 20
455.9841654134658
 30
0.0
 11
-4505.72659300439
 21
307.267264613742
 31
0.0
  0
LINE
  5
BA
330
1F
100
AcDbEntity
  8
C-5_建具
  6
Continuous
 62
     7
370
     9
100
AcDbLine
 10
-6510.609223294422
 20
455.9771230000308
 30
0.0
 11
-6462.773794248791
 21
340.4921814361217
 31
0.0
  0
LINE
  5
BB
330
1F
100
AcDbEntity
  8
C-5_建具
  6
Continuous
 62
     7
370
     9
100
AcDbLine
 10
-6510.609223294422
 20
455.9771230000308
 30
0.0
 11
-6434.514044668334
 21
356.8079554636284
 31
0.0
  0
LINE
  5
BC
330
1F
100
AcDbEntity
  8
C-5_建具
  6
Continuous
 62
     7
370
     9
100
AcDbLine
 10
-3357.015179138175
 20
2562.734880514555
 30
0.0
 11
-2629.814714974464
 21
3822.32261710631
 31
0.0
  0
LINE
  5
BD
330
1F
100
AcDbEntity
  8
C-5_建具
  6
Continuous
 62
     7
370
     9
100
AcDbLine
 10
-2629.814714974464
 20
3822.32261710631
 30
0.0
 11
1.345976714515729
 21
3822.365796013632
 31
0.0
  0
TEXT
  5
BE
330
1F
100
AcDbEntity
  8
C-5_建具
  6
Continuous
 62
     7
370
     9
100
AcDbText
 10
-2587.956601729146
 20
3621.780023130194
 30
0.0
 40
114.3000000000003
  1
STK　溶融亜鉛めっき＋焼付塗装
 41
1.155172413793102
  7
ＭＳ ゴシック
100
AcDbText
  0
LINE
  5
BF
330
1F
100
AcDbEntity
  8
C-5_建具
  6
Continuous
 62
     7
370
     9
100
AcDbLine
 10
-3357.015179138175
 20
2562.734880514555
 30
0.0
 11
-3280.92135006307
 21
2661.905083583265
 31
0.0
  0
LINE
  5
C0
330
1F
100
AcDbEntity
  8
C-5_建具
  6
Continuous
 62
     7
370
     9
100
AcDbLine
 10
-3357.015179138175
 20
2562.734880514555
 30
0.0
 11
-3309.181321674167
 21
2678.220473036362
 31
0.0
  0
TEXT
  5
C1
330
1F
100
AcDbEntity
  8
C-5_建具
  6
Continuous
 62
     7
370
     9
100
AcDbText
 10
-2587.956601729145
 20
3920.496624512314
 30
0.0
 40
114.2999999999989
  1
本体：φ76.3×2.8
 41
1.15686274509805
  7
ＭＳ ゴシック
100
AcDbText
  0
LINE
  5
C2
330
1F
100
AcDbEntity
  8
C-5_建具
  6
Continuous
 62
     7
370
     9
100
AcDbLine
 10
-6510.609223294422
 20
455.9771230000308
 30
0.0
 11
-6083.150977473406
 21
-279.762852727366
 31
0.0
  0
TEXT
  5
C3
330
1F
100
AcDbEntity
  8
C-5_建具
  6
Continuous
 62
     7
370
     9
100
AcDbText
 10
-6045.374317805343
 20
-491.5938944392098
 30
0.0
 40
114.2999999999996
  1
STK　溶融亜鉛めっき＋焼付塗装
 41
1.155172413793107
  7
ＭＳ ゴシック
100
AcDbText
  0
LINE
  5
C4
330
1F
100
AcDbEntity
  8
C-5_建具
  6
Continuous
 62
     7
370
     9
100
AcDbLine
 10
-3502.97635862167
 20
-279.762852727366
 30
0.0
 11
-6083.150977473406
 21
-279.762852727366
 31
0.0
  0
TEXT
  5
C5
330
1F
100
AcDbEntity
  8
C-5_建具
  6
Continuous
 62
     7
370
     9
100
AcDbText
 10
-6045.374317805345
 20
-192.8772930570875
 30
0.0
 40
114.2999999999996
  1
横柵：φ42.7×2.3
 41
1.156862745098043
  7
ＭＳ ゴシック
100
AcDbText
  0
LINE
  5
C6
330
1F
100
AcDbEntity
  8
C-0_通り芯
  6
JWW_CENTER2
 62
     7
370
     9
100
AcDbLine
 10
-3357.015179138175
 20
2371.984944024109
 30
0.0
 11
-5975.515182437372
 21
2371.984944024109
 31
0.0
  0
LINE
  5
C7
330
1F
100
AcDbEntity
  8
C-2_仕上
  6
Continuous
 62
     3
370
     9
100
AcDbLine
 10
-5975.515182437372
 20
2562.734323774953
 30
0.0
 11
-3357.015179138175
 21
2562.734323774953
 31
0.0
  0
LINE
  5
C8
330
1F
100
AcDbEntity
  8
C-2_仕上
  6
Continuous
 62
     3
370
     9
100
AcDbLine
 10
-5975.515182437372
 20
2181.234079634328
 30
0.0
 11
-3357.015179138175
 21
2181.234079634328
 31
0.0
  0
LINE
  5
C9
330
1F
100
AcDbEntity
  8
C-0_通り芯
  6
JWW_CENTER2
 62
     7
370
     9
100
AcDbLine
 10
-7025.512893619015
 20
562.7341588150714
 30
0.0
 11
-2307.017467956534
 21
562.7341588150714
 31
0.0
  0
LINE
  5
CA
330
1F
100
AcDbEntity
  8
C-2_仕上
  6
Continuous
 62
     3
370
     9
100
AcDbLine
 10
-6784.765142847002
 20
669.4841522166755
 30
0.0
 11
-2547.765218728547
 21
669.4841522166755
 31
0.0
  0
LINE
  5
CB
330
1F
100
AcDbEntity
  8
C-2_仕上
  6
Continuous
 62
     3
370
     9
100
AcDbLine
 10
-6784.765142847002
 20
455.9841654134658
 30
0.0
 11
-2547.765218728547
 21
455.9841654134658
 31
0.0
  0
LINE
  5
CC
330
1F
100
AcDbEntity
  8
C-1_躯体
  6
Continuous
 62
     3
370
     9
100
AcDbLine
 10
-6629.762236404403
 20
-1425.756313914193
 30
0.0
 11
-6784.76223640441
 21
-1425.756313914193
 31
0.0
  0
LINE
  5
CD
330
1F
100
AcDbEntity
  8
C-1_躯体
  6
Continuous
 62
     3
370
     9
100
AcDbLine
 10
-6622.26223640441
 20
-1520.756313914195
 30
0.0
 11
-6622.26223640441
 21
-1433.256313914195
 31
0.0
  0
ELLIPSE
  5
CE
330
1F
100
AcDbEntity
  8
C-1_躯体
  6
Continuous
 62
     3
370
     9
100
AcDbEllipse
 10
-6629.762236404403
 20
-1433.256313914195
 30
0.0
 11
-5.303300858899107
 21
-5.303300858899108
 31
0.0
210
0.0
220
0.0
230
1.0
 40
0.9999999999999999
 41
2.356194490192345
 42
3.926990816987241
  0
ELLIPSE
  5
CF
330
1F
100
AcDbEntity
  8
C-1_躯体
  6
Continuous
 62
     3
370
     9
100
AcDbEllipse
 10
-6629.762236404403
 20
-1520.756313914195
 30
0.0
 11
-5.303300858899107
 21
-5.303300858899108
 31
0.0
210
0.0
220
0.0
230
1.0
 40
0.9999999999999999
 41
0.7853981633974483
 42
2.356194490192345
  0
CIRCLE
  5
D0
330
1F
100
AcDbEntity
  8
C-0_通り芯
  6
Continuous
 62
     4
370
     9
100
AcDbCircle
 10
-6690.515264917313
 20
-1465.756198442276
 30
0.0
 40
13.5
  0
LINE
  5
D1
330
1F
100
AcDbEntity
  8
C-0_通り芯
  6
Continuous
 62
     4
370
     9
100
AcDbLine
 10
-6746.412921731846
 20
-953.790818653769
 30
0.0
 11
-6663.192670953999
 21
-1425.756313914193
 31
0.0
  0
LINE
  5
D2
330
1F
100
AcDbEntity
  8
C-0_通り芯
  6
Continuous
 62
     4
370
     9
100
AcDbLine
 10
-6735.087632572206
 20
-951.7938646105991
 30
0.0
 11
-6651.515264917313
 21
-1425.756313914193
 31
0.0
  0
LINE
  5
D3
330
1F
100
AcDbEntity
  8
C-0_通り芯
  6
Continuous
 62
     4
370
     9
100
AcDbLine
 10
-6746.412921731846
 20
-953.790818653769
 30
0.0
 11
-6744.448712438641
 21
-953.4444755596187
 31
0.0
  0
LINE
  5
D4
330
1F
100
AcDbEntity
  8
C-0_通り芯
  6
Continuous
 62
     4
370
     9
100
AcDbLine
 10
-6744.448712438641
 20
-953.4444755596187
 30
0.0
 11
-6735.087632572206
 21
-951.7938646105991
 31
0.0
  0
LINE
  5
D5
330
1F
100
AcDbEntity
  8
C-1_躯体
  6
Continuous
 62
     7
370
     9
100
AcDbLine
 10
-6725.515264917314
 20
-2687.265713341023
 30
0.0
 11
-7225.515264917314
 21
-2687.265713341023
 31
0.0
  0
LINE
  5
D6
330
1F
100
AcDbEntity
  8
C-4_文字
  6
Continuous
 62
     7
370
     9
100
AcDbLine
 10
-5269.863080667335
 20
-1437.265569001127
 30
0.0
 11
-5286.178854694843
 21
-1561.196176672853
 31
0.0
  0
LINE
  5
D7
330
1F
100
AcDbEntity
  8
C-4_文字
  6
Continuous
 62
     7
370
     9
100
AcDbLine
 10
-5269.863080667335
 20
-1437.265569001127
 30
0.0
 11
-5253.547306639829
 21
-1561.196176672853
 31
0.0
  0
LINE
  5
D8
330
1F
100
AcDbEntity
  8
C-1_躯体
  6
Continuous
 62
     7
370
     9
100
AcDbLine
 10
-2107.015096658234
 20
-2687.265713341023
 30
0.0
 11
-2607.015096658234
 21
-2687.265713341023
 31
0.0
  0
LINE
  5
D9
330
1F
100
AcDbEntity
  8
C-1_躯体
  6
Continuous
 62
     3
370
     9
100
AcDbLine
 10
-2702.768125171145
 20
-1425.756313914193
 30
0.0
 11
-2547.768125171138
 21
-1425.756313914193
 31
0.0
  0
LINE
  5
DA
330
1F
100
AcDbEntity
  8
C-1_躯体
  6
Continuous
 62
     3
370
     9
100
AcDbLine
 10
-2710.268125171138
 20
-1520.756313914195
 30
0.0
 11
-2710.268125171138
 21
-1433.256313914195
 31
0.0
  0
ARC
  5
DB
330
1F
100
AcDbEntity
  8
C-1_躯体
  6
Continuous
 62
     3
370
     9
100
AcDbCircle
 10
-2702.768125171145
 20
-1433.256313914195
 30
0.0
 40
7.5
100
AcDbArc
 50
90.0
 51
180.0
  0
ARC
  5
DC
330
1F
100
AcDbEntity
  8
C-1_躯体
  6
Continuous
 62
     3
370
     9
100
AcDbCircle
 10
-2702.768125171145
 20
-1520.756313914195
 30
0.0
 40
7.5
100
AcDbArc
 50
180.0
 51
270.0
  0
CIRCLE
  5
DD
330
1F
100
AcDbEntity
  8
C-0_通り芯
  6
Continuous
 62
     4
370
     9
100
AcDbCircle
 10
-2642.015096658234
 20
-1465.756198442276
 30
0.0
 40
13.5
  0
LINE
  5
DE
330
1F
100
AcDbEntity
  8
C-0_通り芯
  6
Continuous
 62
     4
370
     9
100
AcDbLine
 10
-2586.117439843702
 20
-953.7908186537688
 30
0.0
 11
-2669.337690621548
 21
-1425.756313914193
 31
0.0
  0
LINE
  5
DF
330
1F
100
AcDbEntity
  8
C-0_通り芯
  6
Continuous
 62
     4
370
     9
100
AcDbLine
 10
-2597.442729003343
 20
-951.7938646105989
 30
0.0
 11
-2681.015096658234
 21
-1425.756313914193
 31
0.0
  0
LINE
  5
E0
330
1F
100
AcDbEntity
  8
C-0_通り芯
  6
Continuous
 62
     4
370
     9
100
AcDbLine
 10
-2586.117439843702
 20
-953.7908186537688
 30
0.0
 11
-2588.081649136906
 21
-953.4444755596186
 31
0.0
  0
LINE
  5
E1
330
1F
100
AcDbEntity
  8
C-0_通り芯
  6
Continuous
 62
     4
370
     9
100
AcDbLine
 10
-2588.081649136906
 20
-953.4444755596186
 30
0.0
 11
-2597.442729003343
 21
-951.7938646105989
 31
0.0
  0
LINE
  5
E2
330
1F
100
AcDbEntity
  8
C-6_間仕切
  6
Continuous
 62
     7
370
     9
100
AcDbLine
 10
-2641.523361075284
 20
-1153.26412010325
 30
0.0
 11
-2641.523361075284
 21
-1063.264194335198
 31
0.0
  0
LINE
  5
E3
330
1F
100
AcDbEntity
  8
C-6_間仕切
  6
Continuous
 62
     7
370
     9
100
AcDbLine
 10
-2633.848717934613
 20
-1158.264012879328
 30
0.0
 11
-2636.523097139474
 21
-1158.264012879328
 31
0.0
  0
LINE
  5
E4
330
1F
100
AcDbEntity
  8
C-6_間仕切
  6
Continuous
 62
     7
370
     9
100
AcDbLine
 10
-2636.523097139474
 20
-1058.263930399385
 30
0.0
 11
-2616.216274239711
 21
-1058.263930399385
 31
0.0
  0
ARC
  5
E5
330
1F
100
AcDbEntity
  8
C-6_間仕切
  6
Continuous
 62
     7
370
     9
100
AcDbCircle
 10
-2636.523097139474
 20
-1153.26412010325
 30
0.0
 40
5.000000064437454
100
AcDbArc
 50
180.0
 51
270.0
  0
ARC
  5
E6
330
1F
100
AcDbEntity
  8
C-6_間仕切
  6
Continuous
 62
     7
370
     9
100
AcDbCircle
 10
-2636.523097139474
 20
-1063.264194335198
 30
0.0
 40
5.000000064437454
100
AcDbArc
 50
90.0
 51
180.0
  0
LINE
  5
E7
330
1F
100
AcDbEntity
  8
C-6_間仕切
  6
JWW_DASHED1
 62
     7
370
     9
100
AcDbLine
 10
-2166.264974587922
 20
-1078.264243823161
 30
0.0
 11
-2547.765218728547
 21
-1078.264243823161
 31
0.0
  0
LINE
  5
E8
330
1F
100
AcDbEntity
  8
C-6_間仕切
  6
JWW_DASHED1
 62
     7
370
     9
100
AcDbLine
 10
-2166.264974587922
 20
-1138.264070615286
 30
0.0
 11
-2547.765218728547
 21
-1138.264070615286
 31
0.0
  0
LINE
  5
E9
330
1F
100
AcDbEntity
  8
C-6_間仕切
  6
Continuous
 62
     7
370
     9
100
AcDbLine
 10
-2547.765218728547
 20
-1078.264243823161
 30
0.0
 11
-2572.525531666261
 21
-1078.264243823161
 31
0.0
  0
LINE
  5
EA
330
1F
100
AcDbEntity
  8
C-6_間仕切
  6
Continuous
 62
     7
370
     9
100
AcDbLine
 10
-2547.765218728547
 20
-1138.264070615286
 30
0.0
 11
-2583.105119967548
 21
-1138.264070615286
 31
0.0
  0
LINE
  5
EB
330
1F
100
AcDbEntity
  8
C-E_見え係り
  6
Continuous
 62
     6
370
     5
100
AcDbLine
 10
-6622.26223640441
 20
-1437.265552505136
 30
0.0
 11
-2710.268125171138
 21
-1437.265552505136
 31
0.0
  0
LINE
  5
EC
330
1F
100
AcDbEntity
  8
C-0_通り芯
  6
JWW_CENTER2
 62
     7
370
     9
100
AcDbLine
 10
2084.911480684516
 20
2371.98420170464
 30
0.0
 11
1447.32363954748
 21
2371.98420170464
 31
0.0
  0
LINE
  5
ED
330
1F
100
AcDbEntity
  8
C-0_通り芯
  6
JWW_CENTER2
 62
     7
370
     9
100
AcDbLine
 10
1497.69075776433
 20
562.7341588150714
 30
0.0
 11
2018.152463977379
 21
562.7341588150714
 31
0.0
  0
LINE
  5
EE
330
1F
100
AcDbEntity
  8
C-2_仕上
  6
Continuous
 62
     3
370
     9
100
AcDbLine
 10
1938.955884585487
 20
2371.98420170464
 30
0.0
 11
1938.955884585487
 21
-1437.265634985076
 31
0.0
  0
LINE
  5
EF
330
1F
100
AcDbEntity
  8
C-2_仕上
  6
Continuous
 62
     3
370
     9
100
AcDbLine
 10
1557.455640444861
 20
2371.98420170464
 30
0.0
 11
1557.455640444861
 21
-1437.265634985076
 31
0.0
  0
ARC
  5
F0
330
1F
100
AcDbEntity
  8
C-2_仕上
  6
Continuous
 62
     3
370
     9
100
AcDbCircle
 10
1748.205020195707
 20
2371.98420170464
 30
0.0
 40
190.7500060828957
100
AcDbArc
 50
0.0
 51
180.0
  0
CIRCLE
  5
F1
330
1F
100
AcDbEntity
  8
C-2_仕上
  6
JWW_DASHED2
 62
     3
370
     9
100
AcDbCircle
 10
1748.205020195707
 20
562.7341588150714
 30
0.0
 40
106.7500050003464
  0
ARC
  5
F2
330
1F
100
AcDbEntity
  8
C-2_仕上
  6
JWW_DASHED2
 62
     3
370
     9
100
AcDbCircle
 10
1748.205020195707
 20
2371.98420170464
 30
0.0
 40
190.7500060828955
100
AcDbArc
 50
180.1468276291587
 51
0.0
  0
LINE
  5
F3
330
1F
100
AcDbEntity
  8
C-1_躯体
  6
Continuous
 62
     7
370
     9
100
AcDbLine
 10
1998.205762515173
 20
-2687.265713341023
 30
0.0
 11
1498.205762515173
 21
-2687.265713341023
 31
0.0
  0
LINE
  5
F4
330
1F
100
AcDbEntity
  8
C-0_通り芯
  6
Continuous
 62
     3
370
     9
100
AcDbLine
 10
1557.455640444862
 20
-1308.265700131465
 30
0.0
 11
1557.455640444862
 21
-1437.256327110984
 31
0.0
  0
LINE
  5
F5
330
1F
100
AcDbEntity
  8
C-0_通り芯
  6
Continuous
 62
     3
370
     9
100
AcDbLine
 10
1938.955884585487
 20
-1308.263473173061
 30
0.0
 11
1938.955884585487
 21
-1437.256327110984
 31
0.0
  0
ARC
  5
F6
330
1F
100
AcDbEntity
  8
C-5_建具
  6
Continuous
 62
     7
370
     9
100
AcDbCircle
 10
1748.205020195707
 20
-1108.264157219224
 30
0.0
 40
30.00009897592906
100
AcDbArc
 50
349.8367004394531
 51
190.1632995605469
  0
LINE
  5
F7
330
1F
100
AcDbEntity
  8
C-5_建具
  6
Continuous
 62
     7
370
     9
100
AcDbLine
 10
1735.705102675647
 20
-1132.112840344489
 30
0.0
 11
1735.705102675647
 21
-1084.415474093958
 31
0.0
  0
ARC
  5
F8
330
1F
100
AcDbEntity
  8
C-5_建具
  6
Continuous
 62
     7
370
     9
100
AcDbCircle
 10
1748.205020195707
 20
-1108.264157219224
 30
0.0
 40
30.00009897592906
100
AcDbArc
 50
234.7026977539062
 51
305.2973022460938
  0
ARC
  5
F9
330
1F
100
AcDbEntity
  8
C-5_建具
  6
Continuous
 62
     7
370
     9
100
AcDbCircle
 10
1740.70536661146
 20
-1132.112840344489
 30
0.0
 40
5.000000064437454
100
AcDbArc
 50
180.0
 51
252.5401763916015
  0
ARC
  5
FA
330
1F
100
AcDbEntity
  8
C-5_建具
  6
Continuous
 62
     7
370
     9
100
AcDbCircle
 10
1755.704673779957
 20
-1132.112840344489
 30
0.0
 40
5.000000064437454
100
AcDbArc
 50
287.4598236083985
 51
0.0000000000000127
  0
LINE
  5
FB
330
1F
100
AcDbEntity
  8
C-5_建具
  6
Continuous
 62
     7
370
     9
100
AcDbLine
 10
1760.704937715764
 20
-1132.112840344489
 30
0.0
 11
1760.704937715764
 21
-1084.415474093958
 31
0.0
  0
ARC
  5
FC
330
1F
100
AcDbEntity
  8
C-5_建具
  6
Continuous
 62
     7
370
     9
100
AcDbCircle
 10
1755.704673779957
 20
-1084.415474093958
 30
0.0
 40
5.000000064437454
100
AcDbArc
 50
0.0
 51
72.54017639160156
  0
ARC
  5
FD
330
1F
100
AcDbEntity
  8
C-5_建具
  6
Continuous
 62
     7
370
     9
100
AcDbCircle
 10
1740.70536661146
 20
-1084.415474093958
 30
0.0
 40
5.000000064437454
100
AcDbArc
 50
107.4598236083985
 51
180.0
  0
ARC
  5
FE
330
1F
100
AcDbEntity
  8
C-6_間仕切
  6
Continuous
 62
     2
370
     9
100
AcDbCircle
 10
1748.205020195707
 20
-1150.763988135343
 30
0.0
 40
47.50028333148441
100
AcDbArc
 50
105.2573547363281
 51
180.0
  0
ARC
  5
FF
330
1F
100
AcDbEntity
  8
C-6_間仕切
  6
Continuous
 62
     2
370
     9
100
AcDbCircle
 10
1748.205020195707
 20
-1150.763988135343
 30
0.0
 40
25.00057735958615
100
AcDbArc
 50
119.9991455078125
 51
180.0
  0
LINE
  5
100
330
1F
100
AcDbEntity
  8
C-6_間仕切
  6
Continuous
 62
     2
370
     9
100
AcDbLine
 10
1723.204442836121
 20
-1150.763988135343
 30
0.0
 11
1723.204442836121
 21
-1203.264532502953
 31
0.0
  0
LINE
  5
101
330
1F
100
AcDbEntity
  8
C-6_間仕切
  6
Continuous
 62
     2
370
     9
100
AcDbLine
 10
1700.704739763908
 20
-1150.763988135343
 30
0.0
 11
1700.704739763908
 21
-1203.264532502953
 31
0.0
  0
ARC
  5
102
330
1F
100
AcDbEntity
  8
C-6_間仕切
  6
Continuous
 62
     2
370
     9
100
AcDbCircle
 10
1748.205020195707
 20
-1150.763988135343
 30
0.0
 40
25.00057735958615
100
AcDbArc
 50
0.0
 51
60.00085449218751
  0
LINE
  5
103
330
1F
100
AcDbEntity
  8
C-6_間仕切
  6
Continuous
 62
     2
370
     9
100
AcDbLine
 10
1773.205597555293
 20
-1150.763988135343
 30
0.0
 11
1773.205597555293
 21
-1203.264532502953
 31
0.0
  0
ARC
  5
104
330
1F
100
AcDbEntity
  8
C-6_間仕切
  6
Continuous
 62
     2
370
     9
100
AcDbCircle
 10
1748.205020195707
 20
-1150.763988135343
 30
0.0
 40
47.50028333148441
100
AcDbArc
 50
0.0
 51
74.74270629882814
  0
LINE
  5
105
330
1F
100
AcDbEntity
  8
C-6_間仕切
  6
Continuous
 62
     2
370
     9
100
AcDbLine
 10
1808.205218147567
 20
-1203.264532502953
 30
0.0
 11
1808.205218147567
 21
-1320.764054119296
 31
0.0
  0
LINE
  5
106
330
1F
100
AcDbEntity
  8
C-6_間仕切
  6
Continuous
 62
     2
370
     9
100
AcDbLine
 10
1795.705300627507
 20
-1150.763988135343
 30
0.0
 11
1795.705300627507
 21
-1203.264532502953
 31
0.0
  0
LINE
  5
107
330
1F
100
AcDbEntity
  8
C-6_間仕切
  6
Continuous
 62
     2
370
     9
100
AcDbLine
 10
1688.204822243848
 20
-1203.264532502953
 30
0.0
 11
1808.205218147567
 21
-1203.264532502953
 31
0.0
  0
LINE
  5
108
330
1F
100
AcDbEntity
  8
C-6_間仕切
  6
Continuous
 62
     2
370
     9
100
AcDbLine
 10
1688.204822243848
 20
-1203.264532502953
 30
0.0
 11
1688.204822243848
 21
-1320.764054119296
 31
0.0
  0
LINE
  5
109
330
1F
100
AcDbEntity
  8
C-6_間仕切
  6
Continuous
 62
     2
370
     9
100
AcDbLine
 10
1688.204822243848
 20
-1320.764054119296
 30
0.0
 11
1808.205218147567
 21
-1320.764054119296
 31
0.0
  0
ARC
  5
10A
330
1F
100
AcDbEntity
  8
C-0_通り芯
  6
Continuous
 62
     4
370
     9
100
AcDbCircle
 10
1748.205762515176
 20
-1104.061886711411
 30
0.0
 40
34.99962059227197
100
AcDbArc
 50
359.9993896484376
 51
180.0006103515626
  0
LINE
  5
10B
330
1F
100
AcDbEntity
  8
C-0_通り芯
  6
Continuous
 62
     4
370
     9
100
AcDbLine
 10
1783.205383107447
 20
-1104.062257871145
 30
0.0
 11
1783.205383107447
 21
-1113.624074937234
 31
0.0
  0
ARC
  5
10C
330
1F
100
AcDbEntity
  8
C-0_通り芯
  6
Continuous
 62
     4
370
     9
100
AcDbCircle
 10
1748.205762515176
 20
-1113.624446096968
 30
0.0
 40
34.99962059227197
100
AcDbArc
 50
229.5813903808594
 51
310.4159698486328
  0
ARC
  5
10D
330
1F
100
AcDbEntity
  8
C-0_通り芯
  6
Continuous
 62
     4
370
     9
100
AcDbCircle
 10
1748.205762515176
 20
-1113.624446096968
 30
0.0
 40
34.99962059227197
100
AcDbArc
 50
352.3052215576173
 51
0.0006103515625301
  0
LINE
  5
10E
330
1F
100
AcDbEntity
  8
C-0_通り芯
  6
Continuous
 62
     4
370
     9
100
AcDbLine
 10
1713.206141922903
 20
-1104.062257871145
 30
0.0
 11
1713.206141922903
 21
-1113.624074937234
 31
0.0
  0
ARC
  5
10F
330
1F
100
AcDbEntity
  8
C-0_通り芯
  6
Continuous
 62
     4
370
     9
100
AcDbCircle
 10
1748.205762515176
 20
-1113.624446096968
 30
0.0
 40
34.99962059227197
100
AcDbArc
 50
179.9993896484375
 51
187.6925048828125
  0
ARC
  5
110
330
1F
100
AcDbEntity
  8
C-0_通り芯
  6
Continuous
 62
     4
370
     9
100
AcDbCircle
 10
1748.205020195707
 20
-1180.296601846577
 30
0.0
 40
192.999046127791
100
AcDbArc
 50
351.2461673585899
 51
8.753832641410087
  0
ARC
  5
111
330
1F
100
AcDbEntity
  8
C-0_通り芯
  6
Continuous
 62
     4
370
     9
100
AcDbCircle
 10
1748.205020195707
 20
-1180.296601846577
 30
0.0
 40
230.0000000000001
100
AcDbArc
 50
326.0321875406026
 51
33.96781245939765
  0
ARC
  5
112
330
1F
100
AcDbEntity
  8
C-0_通り芯
  6
Continuous
 62
     4
370
     9
100
AcDbCircle
 10
1748.205020195707
 20
-1180.296601846577
 30
0.0
 40
230.0000000000001
100
AcDbArc
 50
146.0315256104004
 51
213.856694908632
  0
ARC
  5
113
330
1F
100
AcDbEntity
  8
C-0_通り芯
  6
Continuous
 62
     4
370
     9
100
AcDbCircle
 10
1748.205020195707
 20
-1180.296601846577
 30
0.0
 40
192.999046127791
100
AcDbArc
 50
171.2432717999485
 51
188.7567282000515
  0
LINE
  5
114
330
1F
100
AcDbEntity
  8
B-1_躯体
  6
Continuous
 62
     3
370
     9
100
AcDbLine
 10
5091.23178212744
 20
-1715.568090535332
 30
0.0
 11
5091.23178212744
 21
-1423.901423868665
 31
0.0
  0
ARC
  5
115
330
1F
100
AcDbEntity
  8
B-1_躯体
  6
Continuous
 62
     3
370
     9
100
AcDbCircle
 10
5116.231782127417
 20
-1423.901423868665
 30
0.0
 40
25.0
100
AcDbArc
 50
90.0
 51
180.0
  0
ARC
  5
116
330
1F
100
AcDbEntity
  8
B-1_躯体
  6
Continuous
 62
     3
370
     9
100
AcDbCircle
 10
5116.231782127417
 20
-1715.568090535332
 30
0.0
 40
25.0
100
AcDbArc
 50
180.0
 51
270.0
  0
CIRCLE
  5
117
330
1F
100
AcDbEntity
  8
B-0_通り芯
  6
Continuous
 62
     4
370
     9
100
AcDbCircle
 10
5318.741877170444
 20
-1532.234372295604
 30
0.0
 40
45.0
  0
LINE
  5
118
330
1F
100
AcDbEntity
  8
B-0_通り芯
  6
Continuous
 62
     4
370
     9
100
AcDbLine
 10
5505.067399885558
 20
174.316893666086
 30
0.0
 11
5227.666563959408
 21
-1398.90142386866
 31
0.0
  0
LINE
  5
119
330
1F
100
AcDbEntity
  8
B-0_通り芯
  6
Continuous
 62
     4
370
     9
100
AcDbLine
 10
5467.31643602009
 20
180.9734071433201
 30
0.0
 11
5188.741877170449
 21
-1398.90142386866
 31
0.0
  0
LINE
  5
11A
330
1F
100
AcDbEntity
  8
B-0_通り芯
  6
Continuous
 62
     4
370
     9
100
AcDbLine
 10
5505.067399885558
 20
174.316893666086
 30
0.0
 11
5498.520035574882
 21
175.4713706465887
 31
0.0
  0
LINE
  5
11B
330
1F
100
AcDbEntity
  8
B-0_通り芯
  6
Continuous
 62
     4
370
     9
100
AcDbLine
 10
5498.520035574882
 20
175.4713706465887
 30
0.0
 11
5467.31643602009
 21
180.9734071433201
 31
0.0
  0
LINE
  5
11C
330
1F
100
AcDbEntity
  8
B-6_間仕切
  6
Continuous
 62
     7
370
     9
100
AcDbLine
 10
5320.380995780286
 20
-490.5941111655158
 30
0.0
 11
5320.380995780286
 21
-190.5943586053425
 31
0.0
  0
LINE
  5
11D
330
1F
100
AcDbEntity
  8
B-6_間仕切
  6
Continuous
 62
     7
370
     9
100
AcDbLine
 10
5345.963139582525
 20
-507.2604204191099
 30
0.0
 11
5337.048542232984
 21
-507.2604204191099
 31
0.0
  0
LINE
  5
11E
330
1F
100
AcDbEntity
  8
B-6_間仕切
  6
Continuous
 62
     7
370
     9
100
AcDbLine
 10
5337.048542232984
 20
-173.9268121526337
 30
0.0
 11
5404.737951898864
 21
-173.9268121526337
 31
0.0
  0
ARC
  5
11F
330
1F
100
AcDbEntity
  8
B-6_間仕切
  6
Continuous
 62
     7
370
     9
100
AcDbCircle
 10
5337.048542232984
 20
-490.5941111655158
 30
0.0
 40
16.66666688145818
100
AcDbArc
 50
180.0
 51
270.0
  0
ARC
  5
120
330
1F
100
AcDbEntity
  8
B-6_間仕切
  6
Continuous
 62
     7
370
     9
100
AcDbCircle
 10
5337.048542232984
 20
-190.5943586053425
 30
0.0
 40
16.66666688145818
100
AcDbArc
 50
90.0
 51
180.0
  0
LINE
  5
121
330
1F
100
AcDbEntity
  8
B-6_間仕切
  6
JWW_DASHED1
 62
     7
370
     9
100
AcDbLine
 10
6904.575617404827
 20
-240.5945235652208
 30
0.0
 11
5632.908136936077
 21
-240.5945235652208
 31
0.0
  0
LINE
  5
122
330
1F
100
AcDbEntity
  8
B-6_間仕切
  6
JWW_DASHED1
 62
     7
370
     9
100
AcDbLine
 10
6904.575617404827
 20
-440.5939462056376
 30
0.0
 11
5632.908136936077
 21
-440.5939462056376
 31
0.0
  0
LINE
  5
123
330
1F
100
AcDbEntity
  8
B-6_間仕切
  6
Continuous
 62
     7
370
     9
100
AcDbLine
 10
5632.908136936077
 20
-240.5945235652208
 30
0.0
 11
5550.373760477027
 21
-240.5945235652208
 31
0.0
  0
LINE
  5
124
330
1F
100
AcDbEntity
  8
B-6_間仕切
  6
Continuous
 62
     7
370
     9
100
AcDbLine
 10
5632.908136936077
 20
-440.5939462056376
 30
0.0
 11
5515.108466139407
 21
-440.5939462056376
 31
0.0
  0
LINE
  5
125
330
1F
100
AcDbEntity
  8
B-2_仕上
  6
Continuous
 62
     3
370
     9
100
AcDbLine
 10
5632.908136936077
 20
479.3279351492138
 30
0.0
 11
5632.908136936077
 21
-1437.265827438269
 31
0.0
  0
LINE
  5
126
330
1F
100
AcDbEntity
  8
B-2_仕上
  6
Continuous
 62
     3
370
     9
100
AcDbLine
 10
6904.575617404827
 20
479.3279351492138
 30
0.0
 11
6904.575617404827
 21
-1437.265827438269
 31
0.0
  0
LINE
  5
127
330
1F
100
AcDbEntity
  8
B-0_通り芯
  6
JWW_CENTER2
 62
     7
370
     9
100
AcDbLine
 10
6268.741877170452
 20
769.8882551880788
 30
0.0
 11
6268.741877170452
 21
-2406.710655295746
 31
0.0
  0
ARC
  5
128
330
1F
100
AcDbEntity
  8
B-2_仕上
  6
Continuous
 62
     3
370
     9
100
AcDbCircle
 10
5950.825007053265
 20
104.4992557463814
 30
0.0
 40
491.4953460695024
100
AcDbArc
 50
49.69652964871275
 51
130.3034703512872
  0
ARC
  5
129
330
1F
100
AcDbEntity
  8
B-2_仕上
  6
Continuous
 62
     3
370
     9
100
AcDbCircle
 10
6586.65874728764
 20
104.4992557463814
 30
0.0
 40
491.4953460695024
100
AcDbArc
 50
49.69652964871275
 51
130.3034703512872
  0
ARC
  5
12A
330
1F
100
AcDbEntity
  8
B-2_仕上
  6
Continuous
 62
     3
370
     9
100
AcDbCircle
 10
6586.65874728764
 20
854.1566145520461
 30
0.0
 40
491.4953460695024
100
AcDbArc
 50
229.6965296487128
 51
310.3034703512872
  0
LINE
  5
12B
330
1F
100
AcDbEntity
  8
B-4_文字
  6
Continuous
 62
     7
370
     9
100
AcDbLine
 10
7440.12023972289
 20
-1437.267530282411
 30
0.0
 11
7125.408016196306
 21
-1437.267530282411
 31
0.0
  0
LWPOLYLINE
  5
12C
330
1F
100
AcDbEntity
  8
B-4_文字
  6
Continuous
 62
     7
370
     9
100
AcDbPolyline
 90
        4
 70
     1
 43
10.0
 10
7430.120239722892
 20
-1398.931783891108
 42
0.4142135623731
 10
7425.120239722893
 20
-1393.931783891108
 42
0.4142135623731
 10
7420.120239722893
 20
-1398.931783891108
 42
0.4142135623731
 10
7425.120239722893
 20
-1403.931783891108
 42
0.4142135623731
  0
LWPOLYLINE
  5
12D
330
1F
100
AcDbEntity
  8
B-4_文字
  6
Continuous
 62
     7
370
     9
100
AcDbPolyline
 90
        4
 70
     1
 43
10.0
 10
7430.120239722892
 20
-1437.267530282411
 42
0.4142135623731
 10
7425.120239722893
 20
-1432.267530282411
 42
0.4142135623731
 10
7420.120239722893
 20
-1437.267530282411
 42
0.4142135623731
 10
7425.120239722893
 20
-1442.267530282411
 42
0.4142135623731
  0
LINE
  5
12E
330
1F
100
AcDbEntity
  8
B-4_文字
  6
Continuous
 62
     7
370
     9
100
AcDbLine
 10
7440.12023972289
 20
-1398.931783891108
 30
0.0
 11
7125.408148942322
 21
-1398.931783891108
 31
0.0
  0
LINE
  5
12F
330
1F
100
AcDbEntity
  8
B-4_文字
  6
Continuous
 62
     7
370
     9
100
AcDbLine
 10
7425.120239722893
 20
-1398.931783891108
 30
0.0
 11
7425.120239722893
 21
-1787.901983130398
 31
0.0
  0
LINE
  5
130
330
1F
100
AcDbEntity
  8
B-E_見え係り
  6
Continuous
 62
     6
370
     5
100
AcDbLine
 10
4020.733364252871
 20
-1437.265552505136
 30
0.0
 11
5091.23178212744
 21
-1437.265552505136
 31
0.0
  0
LINE
  5
131
330
1F
100
AcDbEntity
  8
B-0_通り芯
  6
Continuous
 62
     4
370
     9
100
AcDbLine
 10
5366.878937480295
 20
-1158.461605637631
 30
0.0
 11
5261.388925858503
 21
-1207.652405915733
 31
0.0
  0
ARC
  5
132
330
1F
100
AcDbEntity
  8
B-0_通り芯
  6
Continuous
 62
     4
370
     9
100
AcDbCircle
 10
5345.74802439326
 20
-1113.146216285798
 30
0.0
 40
50.0
100
AcDbArc
 50
295.0000000000003
 51
350.0000000000001
  0
LINE
  5
133
330
1F
100
AcDbEntity
  8
B-0_通り芯
  6
Continuous
 62
     4
370
     9
100
AcDbLine
 10
5564.789275749516
 20
-36.05630229700895
 30
0.0
 11
5482.485334823321
 21
46.24763862919004
 31
0.0
  0
LINE
  5
134
330
1F
100
AcDbEntity
  8
B-0_通り芯
  6
Continuous
 62
     4
370
     9
100
AcDbLine
 10
5578.674324340797
 20
-80.094050239682
 30
0.0
 11
5394.98841204387
 21
-1121.828625169145
 31
0.0
  0
ARC
  5
135
330
1F
100
AcDbEntity
  8
B-0_通り芯
  6
Continuous
 62
     4
370
     9
100
AcDbCircle
 10
5529.433936690188
 20
-71.41164135633552
 30
0.0
 40
50.0
100
AcDbArc
 50
350.0000000000001
 51
44.9999999999987
  0
LINE
  5
136
330
1F
100
AcDbEntity
  8
C-0_通り芯
  6
Continuous
 62
     4
370
     9
100
AcDbLine
 10
-2568.200877084515
 20
-1016.902777442698
 30
0.0
 11
-2592.892059362373
 21
-992.2115951648383
 31
0.0
  0
ARC
  5
137
330
1F
100
AcDbEntity
  8
C-0_通り芯
  6
Continuous
 62
     4
370
     9
100
AcDbCircle
 10
-2578.807478802313
 20
-1027.509379160496
 30
0.0
 40
15.0
100
AcDbArc
 50
349.9999999999999
 51
44.99999999999916
  0
LINE
  5
138
330
1F
100
AcDbEntity
  8
C-0_通り芯
  6
Continuous
 62
     4
370
     9
100
AcDbLine
 10
-2627.573978565281
 20
-1353.624368444885
 30
0.0
 11
-2659.220982051818
 21
-1368.381608528315
 31
0.0
  0
LINE
  5
139
330
1F
100
AcDbEntity
  8
C-0_通り芯
  6
Continuous
 62
     4
370
     9
100
AcDbLine
 10
-2619.141136196208
 20
-1342.634474304339
 30
0.0
 11
-2564.03536250713
 21
-1030.1141018255
 31
0.0
  0
ARC
  5
13A
330
1F
100
AcDbEntity
  8
C-0_通り芯
  6
Continuous
 62
     4
370
     9
100
AcDbCircle
 10
-2633.913252491392
 20
-1340.029751639335
 30
0.0
 40
15.0
100
AcDbArc
 50
295.0000000000005
 51
350.0000000000001
  0
LINE
  5
13B
330
1F
100
AcDbEntity
  8
C-0_通り芯
  6
Continuous
 62
     4
370
     9
100
AcDbLine
 10
-6764.329484491033
 20
-1016.902777442698
 30
0.0
 11
-6739.638302213174
 21
-992.2115951648385
 31
0.0
  0
ARC
  5
13C
330
1F
100
AcDbEntity
  8
C-0_通り芯
  6
Continuous
 62
     4
370
     9
100
AcDbCircle
 10
-6753.722882773235
 20
-1027.509379160496
 30
0.0
 40
15.0
100
AcDbArc
 50
135.0000000000009
 51
190.0
  0
LINE
  5
13D
330
1F
100
AcDbEntity
  8
C-0_通り芯
  6
Continuous
 62
     4
370
     9
100
AcDbLine
 10
-6713.389225379339
 20
-1342.634474304339
 30
0.0
 11
-6768.494999068417
 21
-1030.1141018255
 31
0.0
  0
LINE
  5
13E
330
1F
100
AcDbEntity
  8
C-0_通り芯
  6
Continuous
 62
     4
370
     9
100
AcDbLine
 10
-6704.956383010267
 20
-1353.624368444885
 30
0.0
 11
-6673.309379523729
 21
-1368.381608528315
 31
0.0
  0
ARC
  5
13F
330
1F
100
AcDbEntity
  8
C-0_通り芯
  6
Continuous
 62
     4
370
     9
100
AcDbCircle
 10
-6698.617109084155
 20
-1340.029751639335
 30
0.0
 40
15.0
100
AcDbArc
 50
190.0
 51
244.9999999999996
  0
LINE
  5
140
330
1F
100
AcDbEntity
  8
B-0_通り芯
  6
JWW_PHANTOM1
 62
     4
370
     9
100
AcDbLine
 10
7023.699888368273
 20
-1437.265744958336
 30
0.0
 11
5835.171346935826
 21
-1437.265744958336
 31
0.0
  0
ARC
  5
141
330
1F
100
AcDbEntity
  8
B-0_通り芯
  6
JWW_PHANTOM1
 62
     4
370
     9
100
AcDbCircle
 10
5318.741877170444
 20
-1532.234372295604
 30
0.0
 40
1717.142711226134
100
AcDbArc
 50
4.466134823018955
 51
83.76898529360136
  0
LINE
  5
142
330
1F
100
AcDbEntity
  8
B-0_通り芯
  6
JWW_PHANTOM1
 62
     4
370
     9
100
AcDbLine
 10
7028.039224065916
 20
-1398.520735092794
 30
0.0
 11
7028.0390913199
 21
-1436.856481484097
 31
0.0
  0
TEXT
  5
143
330
1F
100
AcDbEntity
  8
B-4_文字
  6
Continuous
 62
     2
370
   211
100
AcDbText
 10
7366.920239722897
 20
-1779.810966581935
 30
0.0
 40
152.4
  1
2.3
 50
90.0
 41
1.083333333333333
  7
ＭＳ ゴシック
100
AcDbText
  0
LINE
  5
144
330
1F
100
AcDbEntity
  8
B-0_通り芯
  6
JWW_PHANTOM1
 62
     4
370
     9
100
AcDbLine
 10
5423.792144461385
 20
-1398.521094262259
 30
0.0
 11
7028.039224065916
 21
-1398.520735092794
 31
0.0
  0
LINE
  5
145
330
1F
100
AcDbEntity
  8
B-5_建具
  6
Continuous
 62
     7
370
     9
100
AcDbLine
 10
5242.618638148723
 20
306.9800148523709
 30
0.0
 11
4948.607080894248
 21
306.9800148523709
 31
0.0
  0
TEXT
  5
146
330
1F
100
AcDbEntity
  8
B-5_建具
  6
Continuous
 62
     7
370
     9
100
AcDbText
 10
4948.607080894248
 20
361.4633481857037
 30
0.0
 40
114.3
  1
蓋
 41
0.9999999999999998
  7
ＭＳ ゴシック
100
AcDbText
  0
LINE
  5
147
330
1F
100
AcDbEntity
  8
B-5_建具
  6
Continuous
 62
     7
370
     9
100
AcDbLine
 10
5242.618638148723
 20
306.9800148523709
 30
0.0
 11
5431.766836950407
 21
-20.63427563228002
 31
0.0
  0
LINE
  5
148
330
1F
100
AcDbEntity
  8
B-5_建具
  6
Continuous
 62
     7
370
     9
100
AcDbLine
 10
5383.93140790477
 20
94.85066593163197
 30
0.0
 11
5431.766836950407
 21
-20.63427563228002
 31
0.0
  0
LINE
  5
149
330
1F
100
AcDbEntity
  8
B-5_建具
  6
Continuous
 62
     7
370
     9
100
AcDbLine
 10
5355.67165832432
 20
78.53489190412517
 30
0.0
 11
5431.766836950407
 21
-20.63427563228002
 31
0.0
  0
LINE
  5
14A
330
1F
100
AcDbEntity
  8
C-0_通り芯
  6
JWW_CENTER2
 62
     7
370
     9
100
AcDbLine
 10
-6975.515264917314
 20
1371.984861544168
 30
0.0
 11
-6975.515264917314
 21
-2890.442189896925
 31
0.0
  0
LINE
  5
14B
330
1F
100
AcDbEntity
  8
C-0_通り芯
  6
JWW_CENTER2
 62
     7
370
     9
100
AcDbLine
 10
-2357.015096658234
 20
1371.984861544168
 30
0.0
 11
-2357.015096658234
 21
-2890.442189896925
 31
0.0
  0
LINE
  5
14C
330
1F
100
AcDbEntity
  8
C-4_文字
  6
Continuous
 62
     7
370
     9
100
AcDbLine
 10
-7725.511492435339
 20
-3820.713350315189
 30
0.0
 11
-6225.511492435339
 21
-3820.713350315189
 31
0.0
  0
LINE
  5
14D
330
1F
100
AcDbEntity
  8
C-4_文字
  6
Continuous
 62
     7
370
     9
100
AcDbLine
 10
-7725.511492435339
 20
-3820.713350315189
 30
0.0
 11
-7601.580884763614
 21
-3804.397576287683
 31
0.0
  0
LINE
  5
14E
330
1F
100
AcDbEntity
  8
C-4_文字
  6
Continuous
 62
     7
370
     9
100
AcDbLine
 10
-7725.511492435339
 20
-3820.713350315189
 30
0.0
 11
-7601.580884763614
 21
-3837.029124342696
 31
0.0
  0
LINE
  5
14F
330
1F
100
AcDbEntity
  8
C-4_文字
  6
Continuous
 62
     7
370
     9
100
AcDbLine
 10
-6225.511492435339
 20
-3820.713350315189
 30
0.0
 11
-6349.442100107063
 21
-3804.397576287683
 31
0.0
  0
LINE
  5
150
330
1F
100
AcDbEntity
  8
C-4_文字
  6
Continuous
 62
     7
370
     9
100
AcDbLine
 10
-6225.511492435339
 20
-3820.713350315189
 30
0.0
 11
-6349.442100107063
 21
-3837.029124342696
 31
0.0
  0
LINE
  5
151
330
1F
100
AcDbEntity
  8
C-4_文字
  6
Continuous
 62
     7
370
     9
100
AcDbLine
 10
-7725.511492435339
 20
-3835.71335031519
 30
0.0
 11
-7725.511492435339
 21
-3295.757268619509
 31
0.0
  0
LINE
  5
152
330
1F
100
AcDbEntity
  8
C-4_文字
  6
Continuous
 62
     7
370
     9
100
AcDbLine
 10
-6225.511492435339
 20
-3835.71335031519
 30
0.0
 11
-6225.511492435339
 21
-3295.757268619509
 31
0.0
  0
TEXT
  5
153
330
1F
100
AcDbEntity
  8
C-4_文字
  6
Continuous
 62
     2
370
   211
100
AcDbText
 10
-7250.511492435339
 20
-3762.513350315191
 30
0.0
 40
152.4000000000001
  1
□300
 41
1.099999999999999
  7
ＭＳ ゴシック
100
AcDbText
  0
LINE
  5
154
330
1F
100
AcDbEntity
  8
C-4_文字
  6
Continuous
 62
     7
370
     9
100
AcDbLine
 10
-7975.511492435339
 20
-4341.280825059427
 30
0.0
 11
-5975.511492435339
 21
-4341.280825059427
 31
0.0
  0
LINE
  5
155
330
1F
100
AcDbEntity
  8
C-4_文字
  6
Continuous
 62
     7
370
     9
100
AcDbLine
 10
-7975.511492435339
 20
-4341.280825059427
 30
0.0
 11
-7851.580884763614
 21
-4324.96505103192
 31
0.0
  0
LINE
  5
156
330
1F
100
AcDbEntity
  8
C-4_文字
  6
Continuous
 62
     7
370
     9
100
AcDbLine
 10
-7975.511492435339
 20
-4341.280825059427
 30
0.0
 11
-7851.580884763614
 21
-4357.596599086934
 31
0.0
  0
LINE
  5
157
330
1F
100
AcDbEntity
  8
C-4_文字
  6
Continuous
 62
     7
370
     9
100
AcDbLine
 10
-5975.511492435339
 20
-4341.280825059427
 30
0.0
 11
-6099.442100107063
 21
-4324.96505103192
 31
0.0
  0
LINE
  5
158
330
1F
100
AcDbEntity
  8
C-4_文字
  6
Continuous
 62
     7
370
     9
100
AcDbLine
 10
-5975.511492435339
 20
-4341.280825059427
 30
0.0
 11
-6099.442100107063
 21
-4357.596599086934
 31
0.0
  0
LINE
  5
159
330
1F
100
AcDbEntity
  8
C-4_文字
  6
Continuous
 62
     7
370
     9
100
AcDbLine
 10
-7975.511492435339
 20
-4356.280825059427
 30
0.0
 11
-7975.511492435339
 21
-3295.757268619509
 31
0.0
  0
LINE
  5
15A
330
1F
100
AcDbEntity
  8
C-4_文字
  6
Continuous
 62
     7
370
     9
100
AcDbLine
 10
-5975.511492435339
 20
-4356.280825059427
 30
0.0
 11
-5975.511492435339
 21
-3295.757268619509
 31
0.0
  0
TEXT
  5
15B
330
1F
100
AcDbEntity
  8
C-4_文字
  6
Continuous
 62
     2
370
   211
100
AcDbText
 10
-7250.511492435339
 20
-4283.080825059425
 30
0.0
 40
152.3999999999995
  1
□400
 41
1.100000000000004
  7
ＭＳ ゴシック
100
AcDbText
  0
LINE
  5
15C
330
1F
100
AcDbEntity
  8
C-E_見え係り
  6
Continuous
 62
     6
370
     5
100
AcDbLine
 10
-6225.515264917311
 20
-2703.265569001127
 30
0.0
 11
-6225.515264917311
 21
-1437.265552505136
 31
0.0
  0
LINE
  5
15D
330
1F
100
AcDbEntity
  8
C-E_見え係り
  6
Continuous
 62
     6
370
     5
100
AcDbLine
 10
-5975.515264917311
 20
-3203.265569001127
 30
0.0
 11
-5975.515264917311
 21
-2703.265569001127
 31
0.0
  0
LINE
  5
15E
330
1F
100
AcDbEntity
  8
C-E_見え係り
  6
Continuous
 62
     6
370
     5
100
AcDbLine
 10
-7975.515264917314
 20
-2703.265569001127
 30
0.0
 11
-5975.515264917311
 21
-2703.265569001127
 31
0.0
  0
LINE
  5
15F
330
1F
100
AcDbEntity
  8
C-E_見え係り
  6
Continuous
 62
     6
370
     5
100
AcDbLine
 10
-7975.515264917314
 20
-3203.265569001127
 30
0.0
 11
-5975.515264917311
 21
-3203.265569001127
 31
0.0
  0
LINE
  5
160
330
1F
100
AcDbEntity
  8
C-E_見え係り
  6
Continuous
 62
     6
370
     5
100
AcDbLine
 10
-6475.515264917311
 20
-2703.265569001127
 30
0.0
 11
-6609.489861132877
 21
-3203.265569001127
 31
0.0
  0
LINE
  5
161
330
1F
100
AcDbEntity
  8
C-E_見え係り
  6
Continuous
 62
     6
370
     5
100
AcDbLine
 10
-6544.243017065176
 20
-3203.265569001127
 30
0.0
 11
-6576.866439099027
 21
-3081.513300454037
 31
0.0
  0
LINE
  5
162
330
1F
100
AcDbEntity
  8
C-E_見え係り
  6
Continuous
 62
     6
370
     5
100
AcDbLine
 10
-6540.762108985013
 20
-2703.265569001127
 30
0.0
 11
-6508.138686951162
 21
-2825.017837548216
 31
0.0
  0
LINE
  5
163
330
1F
100
AcDbEntity
  8
C-E_見え係り
  6
Continuous
 62
     6
370
     5
100
AcDbLine
 10
-6225.515264917311
 20
-2703.265569001127
 30
0.0
 11
-6359.489861132874
 21
-3203.265569001127
 31
0.0
  0
LINE
  5
164
330
1F
100
AcDbEntity
  8
C-E_見え係り
  6
Continuous
 62
     6
370
     5
100
AcDbLine
 10
-6294.243017065172
 20
-3203.265569001127
 30
0.0
 11
-6326.866439099023
 21
-3081.513300454037
 31
0.0
  0
LINE
  5
165
330
1F
100
AcDbEntity
  8
C-E_見え係り
  6
Continuous
 62
     6
370
     5
100
AcDbLine
 10
-6290.762108985012
 20
-2703.265569001127
 30
0.0
 11
-6258.138686951161
 21
-2825.017837548216
 31
0.0
  0
LINE
  5
166
330
1F
100
AcDbEntity
  8
C-E_見え係り
  6
Continuous
 62
     6
370
     5
100
AcDbLine
 10
-5975.515264917311
 20
-2703.265569001127
 30
0.0
 11
-6109.489861132874
 21
-3203.265569001127
 31
0.0
  0
LINE
  5
167
330
1F
100
AcDbEntity
  8
C-E_見え係り
  6
Continuous
 62
     6
370
     5
100
AcDbLine
 10
-6044.243017065172
 20
-3203.265569001127
 30
0.0
 11
-6076.866439099023
 21
-3081.513300454037
 31
0.0
  0
LINE
  5
168
330
1F
100
AcDbEntity
  8
C-E_見え係り
  6
Continuous
 62
     6
370
     5
100
AcDbLine
 10
-6040.762108985012
 20
-2703.265569001127
 30
0.0
 11
-6008.138686951161
 21
-2825.017837548216
 31
0.0
  0
LINE
  5
169
330
1F
100
AcDbEntity
  8
C-E_見え係り
  6
Continuous
 62
     6
370
     5
100
AcDbLine
 10
-7725.515264917314
 20
-2703.265569001127
 30
0.0
 11
-7725.515264917314
 21
-1437.265552505136
 31
0.0
  0
LINE
  5
16A
330
1F
100
AcDbEntity
  8
C-E_見え係り
  6
Continuous
 62
     6
370
     5
100
AcDbLine
 10
-7975.515264917314
 20
-3203.265569001127
 30
0.0
 11
-7975.515264917314
 21
-2703.265569001127
 31
0.0
  0
LINE
  5
16B
330
1F
100
AcDbEntity
  8
C-E_見え係り
  6
Continuous
 62
     6
370
     5
100
AcDbLine
 10
-6975.515264917314
 20
-2703.265569001127
 30
0.0
 11
-7109.489861132877
 21
-3203.265569001127
 31
0.0
  0
LINE
  5
16C
330
1F
100
AcDbEntity
  8
C-E_見え係り
  6
Continuous
 62
     6
370
     5
100
AcDbLine
 10
-7044.243017065176
 20
-3203.265569001127
 30
0.0
 11
-7076.866439099027
 21
-3081.513300454037
 31
0.0
  0
LINE
  5
16D
330
1F
100
AcDbEntity
  8
C-E_見え係り
  6
Continuous
 62
     6
370
     5
100
AcDbLine
 10
-7040.762108985015
 20
-2703.265569001127
 30
0.0
 11
-7008.138686951164
 21
-2825.017837548216
 31
0.0
  0
LINE
  5
16E
330
1F
100
AcDbEntity
  8
C-E_見え係り
  6
Continuous
 62
     6
370
     5
100
AcDbLine
 10
-7225.515264917314
 20
-2703.265569001127
 30
0.0
 11
-7359.489861132877
 21
-3203.265569001127
 31
0.0
  0
LINE
  5
16F
330
1F
100
AcDbEntity
  8
C-E_見え係り
  6
Continuous
 62
     6
370
     5
100
AcDbLine
 10
-7294.243017065176
 20
-3203.265569001127
 30
0.0
 11
-7326.866439099027
 21
-3081.513300454037
 31
0.0
  0
LINE
  5
170
330
1F
100
AcDbEntity
  8
C-E_見え係り
  6
Continuous
 62
     6
370
     5
100
AcDbLine
 10
-7290.762108985015
 20
-2703.265569001127
 30
0.0
 11
-7258.138686951164
 21
-2825.017837548216
 31
0.0
  0
LINE
  5
171
330
1F
100
AcDbEntity
  8
C-E_見え係り
  6
Continuous
 62
     6
370
     5
100
AcDbLine
 10
-7475.515264917314
 20
-2703.265569001127
 30
0.0
 11
-7609.489861132877
 21
-3203.265569001127
 31
0.0
  0
LINE
  5
172
330
1F
100
AcDbEntity
  8
C-E_見え係り
  6
Continuous
 62
     6
370
     5
100
AcDbLine
 10
-7544.243017065176
 20
-3203.265569001127
 30
0.0
 11
-7576.866439099027
 21
-3081.513300454037
 31
0.0
  0
LINE
  5
173
330
1F
100
AcDbEntity
  8
C-E_見え係り
  6
Continuous
 62
     6
370
     5
100
AcDbLine
 10
-7540.762108985015
 20
-2703.265569001127
 30
0.0
 11
-7508.138686951164
 21
-2825.017837548216
 31
0.0
  0
LINE
  5
174
330
1F
100
AcDbEntity
  8
C-E_見え係り
  6
Continuous
 62
     6
370
     5
100
AcDbLine
 10
-7725.515264917314
 20
-2703.265569001127
 30
0.0
 11
-7859.489861132877
 21
-3203.265569001127
 31
0.0
  0
LINE
  5
175
330
1F
100
AcDbEntity
  8
C-E_見え係り
  6
Continuous
 62
     6
370
     5
100
AcDbLine
 10
-7794.243017065176
 20
-3203.265569001127
 30
0.0
 11
-7826.866439099027
 21
-3081.513300454037
 31
0.0
  0
LINE
  5
176
330
1F
100
AcDbEntity
  8
C-E_見え係り
  6
Continuous
 62
     6
370
     5
100
AcDbLine
 10
-7790.762108985015
 20
-2703.265569001127
 30
0.0
 11
-7758.138686951164
 21
-2825.017837548216
 31
0.0
  0
LINE
  5
177
330
1F
100
AcDbEntity
  8
C-E_見え係り
  6
Continuous
 62
     6
370
     5
100
AcDbLine
 10
-6725.515264917314
 20
-2703.265569001127
 30
0.0
 11
-6859.489861132877
 21
-3203.265569001127
 31
0.0
  0
LINE
  5
178
330
1F
100
AcDbEntity
  8
C-E_見え係り
  6
Continuous
 62
     6
370
     5
100
AcDbLine
 10
-6794.243017065176
 20
-3203.265569001127
 30
0.0
 11
-6826.866439099027
 21
-3081.513300454037
 31
0.0
  0
LINE
  5
179
330
1F
100
AcDbEntity
  8
C-E_見え係り
  6
Continuous
 62
     6
370
     5
100
AcDbLine
 10
-6790.762108985015
 20
-2703.265569001127
 30
0.0
 11
-6758.138686951164
 21
-2825.017837548216
 31
0.0
  0
LINE
  5
17A
330
1F
100
AcDbEntity
  8
C-1_躯体
  6
Continuous
 62
     7
370
     9
100
AcDbLine
 10
-6725.515264917314
 20
-2687.265713341023
 30
0.0
 11
-6725.515264917314
 21
-2703.265569001127
 31
0.0
  0
LINE
  5
17B
330
1F
100
AcDbEntity
  8
C-1_躯体
  6
Continuous
 62
     7
370
     9
100
AcDbLine
 10
-6913.015264917314
 20
-2687.265713341023
 30
0.0
 11
-6913.015264917314
 21
-2703.265569001127
 31
0.0
  0
LINE
  5
17C
330
1F
100
AcDbEntity
  8
C-1_躯体
  6
Continuous
 62
     7
370
     9
100
AcDbLine
 10
-7225.515264917314
 20
-2687.265713341023
 30
0.0
 11
-7225.515264917314
 21
-2703.265569001127
 31
0.0
  0
LINE
  5
17D
330
1F
100
AcDbEntity
  8
C-1_躯体
  6
Continuous
 62
     7
370
     9
100
AcDbLine
 10
-7038.015264917314
 20
-2687.265713341023
 30
0.0
 11
-7038.015264917314
 21
-2703.265569001127
 31
0.0
  0
LINE
  5
17E
330
1F
100
AcDbEntity
  8
C-4_文字
  6
Continuous
 62
     7
370
     9
100
AcDbLine
 10
-5269.863080667335
 20
-3203.265569001127
 30
0.0
 11
-5269.863080667335
 21
-2703.265569001127
 31
0.0
  0
LINE
  5
17F
330
1F
100
AcDbEntity
  8
C-4_文字
  6
Continuous
 62
     7
370
     9
100
AcDbLine
 10
-5269.863080667335
 20
-3203.265569001127
 30
0.0
 11
-5286.178854694843
 21
-3079.3349613294
 31
0.0
  0
LINE
  5
180
330
1F
100
AcDbEntity
  8
C-4_文字
  6
Continuous
 62
     7
370
     9
100
AcDbLine
 10
-5269.863080667335
 20
-3203.265569001127
 30
0.0
 11
-5253.547306639829
 21
-3079.3349613294
 31
0.0
  0
LINE
  5
181
330
1F
100
AcDbEntity
  8
C-4_文字
  6
Continuous
 62
     7
370
     9
100
AcDbLine
 10
-5269.863080667335
 20
-2703.265569001127
 30
0.0
 11
-5286.178854694843
 21
-2827.196176672853
 31
0.0
  0
LINE
  5
182
330
1F
100
AcDbEntity
  8
C-4_文字
  6
Continuous
 62
     7
370
     9
100
AcDbLine
 10
-5269.863080667335
 20
-2703.265569001127
 30
0.0
 11
-5253.547306639829
 21
-2827.196176672853
 31
0.0
  0
LINE
  5
183
330
1F
100
AcDbEntity
  8
C-4_文字
  6
Continuous
 62
     7
370
     9
100
AcDbLine
 10
-5254.863080667335
 20
-3203.265569001127
 30
0.0
 11
-5875.515264917311
 21
-3203.265569001127
 31
0.0
  0
LINE
  5
184
330
1F
100
AcDbEntity
  8
C-4_文字
  6
Continuous
 62
     7
370
     9
100
AcDbLine
 10
-5254.863080667335
 20
-2703.265569001127
 30
0.0
 11
-5875.515264917311
 21
-2703.265569001127
 31
0.0
  0
TEXT
  5
185
330
1F
100
AcDbEntity
  8
C-4_文字
  6
Continuous
 62
     2
370
   211
100
AcDbText
 10
-5323.063080667335
 20
-3115.765569001127
 30
0.0
 40
152.4
  1
100
 50
90.0
 41
1.083333333333333
  7
ＭＳ ゴシック
100
AcDbText
  0
LINE
  5
186
330
1F
100
AcDbEntity
  8
C-E_見え係り
  6
Continuous
 62
     6
370
     5
100
AcDbLine
 10
-1607.015096658231
 20
-2703.265569001127
 30
0.0
 11
-1607.015096658231
 21
-1437.265552505136
 31
0.0
  0
LINE
  5
187
330
1F
100
AcDbEntity
  8
C-E_見え係り
  6
Continuous
 62
     6
370
     5
100
AcDbLine
 10
-1357.015096658231
 20
-3203.265569001127
 30
0.0
 11
-1357.015096658231
 21
-2703.265569001127
 31
0.0
  0
LINE
  5
188
330
1F
100
AcDbEntity
  8
C-E_見え係り
  6
Continuous
 62
     6
370
     5
100
AcDbLine
 10
-3357.015096658234
 20
-2703.265569001127
 30
0.0
 11
-1357.015096658231
 21
-2703.265569001127
 31
0.0
  0
LINE
  5
189
330
1F
100
AcDbEntity
  8
C-E_見え係り
  6
Continuous
 62
     6
370
     5
100
AcDbLine
 10
-3357.015096658234
 20
-3203.265569001127
 30
0.0
 11
-1357.015096658231
 21
-3203.265569001127
 31
0.0
  0
LINE
  5
18A
330
1F
100
AcDbEntity
  8
C-E_見え係り
  6
Continuous
 62
     6
370
     5
100
AcDbLine
 10
-1857.015096658231
 20
-2703.265569001127
 30
0.0
 11
-1990.989692873797
 21
-3203.265569001127
 31
0.0
  0
LINE
  5
18B
330
1F
100
AcDbEntity
  8
C-E_見え係り
  6
Continuous
 62
     6
370
     5
100
AcDbLine
 10
-1925.742848806096
 20
-3203.265569001127
 30
0.0
 11
-1958.366270839947
 21
-3081.513300454037
 31
0.0
  0
LINE
  5
18C
330
1F
100
AcDbEntity
  8
C-E_見え係り
  6
Continuous
 62
     6
370
     5
100
AcDbLine
 10
-1922.261940725932
 20
-2703.265569001127
 30
0.0
 11
-1889.638518692082
 21
-2825.017837548216
 31
0.0
  0
LINE
  5
18D
330
1F
100
AcDbEntity
  8
C-E_見え係り
  6
Continuous
 62
     6
370
     5
100
AcDbLine
 10
-1607.015096658231
 20
-2703.265569001127
 30
0.0
 11
-1740.989692873794
 21
-3203.265569001127
 31
0.0
  0
LINE
  5
18E
330
1F
100
AcDbEntity
  8
C-E_見え係り
  6
Continuous
 62
     6
370
     5
100
AcDbLine
 10
-1675.742848806093
 20
-3203.265569001127
 30
0.0
 11
-1708.366270839944
 21
-3081.513300454037
 31
0.0
  0
LINE
  5
18F
330
1F
100
AcDbEntity
  8
C-E_見え係り
  6
Continuous
 62
     6
370
     5
100
AcDbLine
 10
-1672.261940725932
 20
-2703.265569001127
 30
0.0
 11
-1639.638518692082
 21
-2825.017837548216
 31
0.0
  0
LINE
  5
190
330
1F
100
AcDbEntity
  8
C-E_見え係り
  6
Continuous
 62
     6
370
     5
100
AcDbLine
 10
-1357.015096658231
 20
-2703.265569001127
 30
0.0
 11
-1490.989692873794
 21
-3203.265569001127
 31
0.0
  0
LINE
  5
191
330
1F
100
AcDbEntity
  8
C-E_見え係り
  6
Continuous
 62
     6
370
     5
100
AcDbLine
 10
-1425.742848806093
 20
-3203.265569001127
 30
0.0
 11
-1458.366270839944
 21
-3081.513300454037
 31
0.0
  0
LINE
  5
192
330
1F
100
AcDbEntity
  8
C-E_見え係り
  6
Continuous
 62
     6
370
     5
100
AcDbLine
 10
-1422.261940725932
 20
-2703.265569001127
 30
0.0
 11
-1389.638518692082
 21
-2825.017837548216
 31
0.0
  0
LINE
  5
193
330
1F
100
AcDbEntity
  8
C-E_見え係り
  6
Continuous
 62
     6
370
     5
100
AcDbLine
 10
-3107.015096658234
 20
-2703.265569001127
 30
0.0
 11
-3107.015096658234
 21
-1437.265552505136
 31
0.0
  0
LINE
  5
194
330
1F
100
AcDbEntity
  8
C-E_見え係り
  6
Continuous
 62
     6
370
     5
100
AcDbLine
 10
-3357.015096658234
 20
-3203.265569001127
 30
0.0
 11
-3357.015096658234
 21
-2703.265569001127
 31
0.0
  0
LINE
  5
195
330
1F
100
AcDbEntity
  8
C-E_見え係り
  6
Continuous
 62
     6
370
     5
100
AcDbLine
 10
-2357.015096658234
 20
-2703.265569001127
 30
0.0
 11
-2490.989692873797
 21
-3203.265569001127
 31
0.0
  0
LINE
  5
196
330
1F
100
AcDbEntity
  8
C-E_見え係り
  6
Continuous
 62
     6
370
     5
100
AcDbLine
 10
-2425.742848806096
 20
-3203.265569001127
 30
0.0
 11
-2458.366270839947
 21
-3081.513300454037
 31
0.0
  0
LINE
  5
197
330
1F
100
AcDbEntity
  8
C-E_見え係り
  6
Continuous
 62
     6
370
     5
100
AcDbLine
 10
-2422.261940725935
 20
-2703.265569001127
 30
0.0
 11
-2389.638518692085
 21
-2825.017837548216
 31
0.0
  0
LINE
  5
198
330
1F
100
AcDbEntity
  8
C-E_見え係り
  6
Continuous
 62
     6
370
     5
100
AcDbLine
 10
-2607.015096658234
 20
-2703.265569001127
 30
0.0
 11
-2740.989692873797
 21
-3203.265569001127
 31
0.0
  0
LINE
  5
199
330
1F
100
AcDbEntity
  8
C-E_見え係り
  6
Continuous
 62
     6
370
     5
100
AcDbLine
 10
-2675.742848806096
 20
-3203.265569001127
 30
0.0
 11
-2708.366270839947
 21
-3081.513300454037
 31
0.0
  0
LINE
  5
19A
330
1F
100
AcDbEntity
  8
C-E_見え係り
  6
Continuous
 62
     6
370
     5
100
AcDbLine
 10
-2672.261940725935
 20
-2703.265569001127
 30
0.0
 11
-2639.638518692085
 21
-2825.017837548216
 31
0.0
  0
LINE
  5
19B
330
1F
100
AcDbEntity
  8
C-E_見え係り
  6
Continuous
 62
     6
370
     5
100
AcDbLine
 10
-2857.015096658234
 20
-2703.265569001127
 30
0.0
 11
-2990.989692873797
 21
-3203.265569001127
 31
0.0
  0
LINE
  5
19C
330
1F
100
AcDbEntity
  8
C-E_見え係り
  6
Continuous
 62
     6
370
     5
100
AcDbLine
 10
-2925.742848806096
 20
-3203.265569001127
 30
0.0
 11
-2958.366270839947
 21
-3081.513300454037
 31
0.0
  0
LINE
  5
19D
330
1F
100
AcDbEntity
  8
C-E_見え係り
  6
Continuous
 62
     6
370
     5
100
AcDbLine
 10
-2922.261940725935
 20
-2703.265569001127
 30
0.0
 11
-2889.638518692085
 21
-2825.017837548216
 31
0.0
  0
LINE
  5
19E
330
1F
100
AcDbEntity
  8
C-E_見え係り
  6
Continuous
 62
     6
370
     5
100
AcDbLine
 10
-3107.015096658234
 20
-2703.265569001127
 30
0.0
 11
-3240.989692873797
 21
-3203.265569001127
 31
0.0
  0
LINE
  5
19F
330
1F
100
AcDbEntity
  8
C-E_見え係り
  6
Continuous
 62
     6
370
     5
100
AcDbLine
 10
-3175.742848806096
 20
-3203.265569001127
 30
0.0
 11
-3208.366270839947
 21
-3081.513300454037
 31
0.0
  0
LINE
  5
1A0
330
1F
100
AcDbEntity
  8
C-E_見え係り
  6
Continuous
 62
     6
370
     5
100
AcDbLine
 10
-3172.261940725935
 20
-2703.265569001127
 30
0.0
 11
-3139.638518692085
 21
-2825.017837548216
 31
0.0
  0
LINE
  5
1A1
330
1F
100
AcDbEntity
  8
C-E_見え係り
  6
Continuous
 62
     6
370
     5
100
AcDbLine
 10
-2107.015096658234
 20
-2703.265569001127
 30
0.0
 11
-2240.989692873797
 21
-3203.265569001127
 31
0.0
  0
LINE
  5
1A2
330
1F
100
AcDbEntity
  8
C-E_見え係り
  6
Continuous
 62
     6
370
     5
100
AcDbLine
 10
-2175.742848806096
 20
-3203.265569001127
 30
0.0
 11
-2208.366270839947
 21
-3081.513300454037
 31
0.0
  0
LINE
  5
1A3
330
1F
100
AcDbEntity
  8
C-E_見え係り
  6
Continuous
 62
     6
370
     5
100
AcDbLine
 10
-2172.261940725935
 20
-2703.265569001127
 30
0.0
 11
-2139.638518692085
 21
-2825.017837548216
 31
0.0
  0
LINE
  5
1A4
330
1F
100
AcDbEntity
  8
C-1_躯体
  6
Continuous
 62
     7
370
     9
100
AcDbLine
 10
-2107.015096658234
 20
-2687.265713341023
 30
0.0
 11
-2107.015096658234
 21
-2703.265569001127
 31
0.0
  0
LINE
  5
1A5
330
1F
100
AcDbEntity
  8
C-1_躯体
  6
Continuous
 62
     7
370
     9
100
AcDbLine
 10
-2294.515096658234
 20
-2687.265713341023
 30
0.0
 11
-2294.515096658234
 21
-2703.265569001127
 31
0.0
  0
LINE
  5
1A6
330
1F
100
AcDbEntity
  8
C-1_躯体
  6
Continuous
 62
     7
370
     9
100
AcDbLine
 10
-2607.015096658234
 20
-2687.265713341023
 30
0.0
 11
-2607.015096658234
 21
-2703.265569001127
 31
0.0
  0
LINE
  5
1A7
330
1F
100
AcDbEntity
  8
C-1_躯体
  6
Continuous
 62
     7
370
     9
100
AcDbLine
 10
-2419.515096658234
 20
-2687.265713341023
 30
0.0
 11
-2419.515096658234
 21
-2703.265569001127
 31
0.0
  0
LINE
  5
1A8
330
1F
100
AcDbEntity
  8
C-E_見え係り
  6
Continuous
 62
     6
370
     5
100
AcDbLine
 10
2498.205762515176
 20
-2703.265569001127
 30
0.0
 11
2498.205762515176
 21
-1437.265552505136
 31
0.0
  0
LINE
  5
1A9
330
1F
100
AcDbEntity
  8
C-E_見え係り
  6
Continuous
 62
     6
370
     5
100
AcDbLine
 10
2748.205762515176
 20
-3203.265569001127
 30
0.0
 11
2748.205762515176
 21
-2703.265569001127
 31
0.0
  0
LINE
  5
1AA
330
1F
100
AcDbEntity
  8
C-E_見え係り
  6
Continuous
 62
     6
370
     5
100
AcDbLine
 10
748.2057625151732
 20
-2703.265569001127
 30
0.0
 11
2748.205762515176
 21
-2703.265569001127
 31
0.0
  0
LINE
  5
1AB
330
1F
100
AcDbEntity
  8
C-E_見え係り
  6
Continuous
 62
     6
370
     5
100
AcDbLine
 10
748.2057625151732
 20
-3203.265569001127
 30
0.0
 11
2748.205762515176
 21
-3203.265569001127
 31
0.0
  0
LINE
  5
1AC
330
1F
100
AcDbEntity
  8
C-E_見え係り
  6
Continuous
 62
     6
370
     5
100
AcDbLine
 10
2248.205762515176
 20
-2703.265569001127
 30
0.0
 11
2114.23116629961
 21
-3203.265569001127
 31
0.0
  0
LINE
  5
1AD
330
1F
100
AcDbEntity
  8
C-E_見え係り
  6
Continuous
 62
     6
370
     5
100
AcDbLine
 10
2179.478010367311
 20
-3203.265569001127
 30
0.0
 11
2146.85458833346
 21
-3081.513300454037
 31
0.0
  0
LINE
  5
1AE
330
1F
100
AcDbEntity
  8
C-E_見え係り
  6
Continuous
 62
     6
370
     5
100
AcDbLine
 10
2182.958918447474
 20
-2703.265569001127
 30
0.0
 11
2215.582340481325
 21
-2825.017837548216
 31
0.0
  0
LINE
  5
1AF
330
1F
100
AcDbEntity
  8
C-E_見え係り
  6
Continuous
 62
     6
370
     5
100
AcDbLine
 10
2498.205762515176
 20
-2703.265569001127
 30
0.0
 11
2364.231166299612
 21
-3203.265569001127
 31
0.0
  0
LINE
  5
1B0
330
1F
100
AcDbEntity
  8
C-E_見え係り
  6
Continuous
 62
     6
370
     5
100
AcDbLine
 10
2429.478010367313
 20
-3203.265569001127
 30
0.0
 11
2396.854588333463
 21
-3081.513300454037
 31
0.0
  0
LINE
  5
1B1
330
1F
100
AcDbEntity
  8
C-E_見え係り
  6
Continuous
 62
     6
370
     5
100
AcDbLine
 10
2432.958918447474
 20
-2703.265569001127
 30
0.0
 11
2465.582340481325
 21
-2825.017837548216
 31
0.0
  0
LINE
  5
1B2
330
1F
100
AcDbEntity
  8
C-E_見え係り
  6
Continuous
 62
     6
370
     5
100
AcDbLine
 10
2748.205762515176
 20
-2703.265569001127
 30
0.0
 11
2614.231166299612
 21
-3203.265569001127
 31
0.0
  0
LINE
  5
1B3
330
1F
100
AcDbEntity
  8
C-E_見え係り
  6
Continuous
 62
     6
370
     5
100
AcDbLine
 10
2679.478010367313
 20
-3203.265569001127
 30
0.0
 11
2646.854588333463
 21
-3081.513300454037
 31
0.0
  0
LINE
  5
1B4
330
1F
100
AcDbEntity
  8
C-E_見え係り
  6
Continuous
 62
     6
370
     5
100
AcDbLine
 10
2682.958918447474
 20
-2703.265569001127
 30
0.0
 11
2715.582340481325
 21
-2825.017837548216
 31
0.0
  0
LINE
  5
1B5
330
1F
100
AcDbEntity
  8
C-E_見え係り
  6
Continuous
 62
     6
370
     5
100
AcDbLine
 10
998.2057625151732
 20
-2703.265569001127
 30
0.0
 11
998.2057625151732
 21
-1437.265552505136
 31
0.0
  0
LINE
  5
1B6
330
1F
100
AcDbEntity
  8
C-E_見え係り
  6
Continuous
 62
     6
370
     5
100
AcDbLine
 10
748.2057625151732
 20
-3203.265569001127
 30
0.0
 11
748.2057625151732
 21
-2703.265569001127
 31
0.0
  0
LINE
  5
1B7
330
1F
100
AcDbEntity
  8
C-E_見え係り
  6
Continuous
 62
     6
370
     5
100
AcDbLine
 10
1748.205762515173
 20
-2703.265569001127
 30
0.0
 11
1614.23116629961
 21
-3203.265569001127
 31
0.0
  0
LINE
  5
1B8
330
1F
100
AcDbEntity
  8
C-E_見え係り
  6
Continuous
 62
     6
370
     5
100
AcDbLine
 10
1679.478010367311
 20
-3203.265569001127
 30
0.0
 11
1646.854588333461
 21
-3081.513300454037
 31
0.0
  0
LINE
  5
1B9
330
1F
100
AcDbEntity
  8
C-E_見え係り
  6
Continuous
 62
     6
370
     5
100
AcDbLine
 10
1682.958918447472
 20
-2703.265569001127
 30
0.0
 11
1715.582340481323
 21
-2825.017837548216
 31
0.0
  0
LINE
  5
1BA
330
1F
100
AcDbEntity
  8
C-E_見え係り
  6
Continuous
 62
     6
370
     5
100
AcDbLine
 10
1498.205762515173
 20
-2703.265569001127
 30
0.0
 11
1364.23116629961
 21
-3203.265569001127
 31
0.0
  0
LINE
  5
1BB
330
1F
100
AcDbEntity
  8
C-E_見え係り
  6
Continuous
 62
     6
370
     5
100
AcDbLine
 10
1429.478010367311
 20
-3203.265569001127
 30
0.0
 11
1396.854588333461
 21
-3081.513300454037
 31
0.0
  0
LINE
  5
1BC
330
1F
100
AcDbEntity
  8
C-E_見え係り
  6
Continuous
 62
     6
370
     5
100
AcDbLine
 10
1432.958918447472
 20
-2703.265569001127
 30
0.0
 11
1465.582340481323
 21
-2825.017837548216
 31
0.0
  0
LINE
  5
1BD
330
1F
100
AcDbEntity
  8
C-E_見え係り
  6
Continuous
 62
     6
370
     5
100
AcDbLine
 10
1248.205762515173
 20
-2703.265569001127
 30
0.0
 11
1114.23116629961
 21
-3203.265569001127
 31
0.0
  0
LINE
  5
1BE
330
1F
100
AcDbEntity
  8
C-E_見え係り
  6
Continuous
 62
     6
370
     5
100
AcDbLine
 10
1179.478010367311
 20
-3203.265569001127
 30
0.0
 11
1146.854588333461
 21
-3081.513300454037
 31
0.0
  0
LINE
  5
1BF
330
1F
100
AcDbEntity
  8
C-E_見え係り
  6
Continuous
 62
     6
370
     5
100
AcDbLine
 10
1182.958918447472
 20
-2703.265569001127
 30
0.0
 11
1215.582340481323
 21
-2825.017837548216
 31
0.0
  0
LINE
  5
1C0
330
1F
100
AcDbEntity
  8
C-E_見え係り
  6
Continuous
 62
     6
370
     5
100
AcDbLine
 10
998.2057625151732
 20
-2703.265569001127
 30
0.0
 11
864.23116629961
 21
-3203.265569001127
 31
0.0
  0
LINE
  5
1C1
330
1F
100
AcDbEntity
  8
C-E_見え係り
  6
Continuous
 62
     6
370
     5
100
AcDbLine
 10
929.4780103673112
 20
-3203.265569001127
 30
0.0
 11
896.8545883334606
 21
-3081.513300454037
 31
0.0
  0
LINE
  5
1C2
330
1F
100
AcDbEntity
  8
C-E_見え係り
  6
Continuous
 62
     6
370
     5
100
AcDbLine
 10
932.958918447472
 20
-2703.265569001127
 30
0.0
 11
965.5823404813226
 21
-2825.017837548216
 31
0.0
  0
LINE
  5
1C3
330
1F
100
AcDbEntity
  8
C-E_見え係り
  6
Continuous
 62
     6
370
     5
100
AcDbLine
 10
1998.205762515173
 20
-2703.265569001127
 30
0.0
 11
1864.23116629961
 21
-3203.265569001127
 31
0.0
  0
LINE
  5
1C4
330
1F
100
AcDbEntity
  8
C-E_見え係り
  6
Continuous
 62
     6
370
     5
100
AcDbLine
 10
1929.478010367311
 20
-3203.265569001127
 30
0.0
 11
1896.854588333461
 21
-3081.513300454037
 31
0.0
  0
LINE
  5
1C5
330
1F
100
AcDbEntity
  8
C-E_見え係り
  6
Continuous
 62
     6
370
     5
100
AcDbLine
 10
1932.958918447472
 20
-2703.265569001127
 30
0.0
 11
1965.582340481323
 21
-2825.017837548216
 31
0.0
  0
LINE
  5
1C6
330
1F
100
AcDbEntity
  8
C-1_躯体
  6
Continuous
 62
     7
370
     9
100
AcDbLine
 10
1998.205762515173
 20
-2687.265713341023
 30
0.0
 11
1998.205762515173
 21
-2703.265569001127
 31
0.0
  0
LINE
  5
1C7
330
1F
100
AcDbEntity
  8
C-1_躯体
  6
Continuous
 62
     7
370
     9
100
AcDbLine
 10
1810.705762515173
 20
-2687.265713341023
 30
0.0
 11
1810.705762515173
 21
-2703.265569001127
 31
0.0
  0
LINE
  5
1C8
330
1F
100
AcDbEntity
  8
C-1_躯体
  6
Continuous
 62
     7
370
     9
100
AcDbLine
 10
1498.205762515173
 20
-2687.265713341023
 30
0.0
 11
1498.205762515173
 21
-2703.265569001127
 31
0.0
  0
LINE
  5
1C9
330
1F
100
AcDbEntity
  8
C-1_躯体
  6
Continuous
 62
     7
370
     9
100
AcDbLine
 10
1685.705762515173
 20
-2687.265713341023
 30
0.0
 11
1685.705762515173
 21
-2703.265569001127
 31
0.0
  0
LINE
  5
1CA
330
1F
100
AcDbEntity
  8
C-0_通り芯
  6
JWW_CENTER2
 62
     7
370
     9
100
AcDbLine
 10
1748.205020195707
 20
2731.369264257428
 30
0.0
 11
1748.205020195707
 21
-2890.442189896925
 31
0.0
  0
LINE
  5
1CB
330
1F
100
AcDbEntity
  8
C-4_文字
  6
Continuous
 62
     7
370
     9
100
AcDbLine
 10
-5269.863080667335
 20
-2703.265569001127
 30
0.0
 11
-5269.863080667335
 21
-1437.265569001127
 31
0.0
  0
TEXT
  5
1CC
330
1F
100
AcDbEntity
  8
C-4_文字
  6
Continuous
 62
     2
370
   211
100
AcDbText
 10
-5323.063080667335
 20
-2345.265569001127
 30
0.0
 40
152.4
  1
253.2
 50
90.0
 41
1.1
  7
ＭＳ ゴシック
100
AcDbText
  0
LINE
  5
1CD
330
1F
100
AcDbEntity
  8
C-4_文字
  6
Continuous
 62
     7
370
     9
100
AcDbLine
 10
-5269.863080667335
 20
-2703.265569001127
 30
0.0
 11
-5286.178854694843
 21
-2579.3349613294
 31
0.0
  0
LINE
  5
1CE
330
1F
100
AcDbEntity
  8
C-4_文字
  6
Continuous
 62
     7
370
     9
100
AcDbLine
 10
-5269.863080667335
 20
-2703.265569001127
 30
0.0
 11
-5253.547306639829
 21
-2579.3349613294
 31
0.0
  0
LINE
  5
1CF
330
1F
100
AcDbEntity
  8
B-0_通り芯
  6
Continuous
 62
     4
370
     9
100
AcDbLine
 10
7011.241877170452
 20
-1437.265744958336
 30
0.0
 11
5526.241877170452
 21
-1437.265744958336
 31
0.0
  0
LINE
  5
1D0
330
1F
100
AcDbEntity
  8
B-0_通り芯
  6
Continuous
 62
     4
370
     9
100
AcDbLine
 10
7011.241877170452
 20
-1437.265552505135
 30
0.0
 11
7011.241877170452
 21
-2193.852358701796
 31
0.0
  0
ARC
  5
1D1
330
1F
100
AcDbEntity
  8
B-0_通り芯
  6
Continuous
 62
     4
370
     9
100
AcDbCircle
 10
5897.491877170453
 20
-1663.590571554011
 30
0.0
 40
647.3052799175705
100
AcDbArc
 50
235.0031395815678
 51
304.996860418432
  0
ARC
  5
1D2
330
1F
100
AcDbEntity
  8
B-0_通り芯
  6
Continuous
 62
     4
370
     9
100
AcDbCircle
 10
5897.491877170453
 20
-2724.114145849583
 30
0.0
 40
647.3052799175705
100
AcDbArc
 50
55.00313958156796
 51
124.9968604184322
  0
ARC
  5
1D3
330
1F
100
AcDbEntity
  8
B-0_通り芯
  6
Continuous
 62
     4
370
     9
100
AcDbCircle
 10
6639.991877170453
 20
-1663.590571554011
 30
0.0
 40
647.3052799175705
100
AcDbArc
 50
235.0031395815679
 51
304.9968604184322
  0
LINE
  5
1D4
330
1F
100
AcDbEntity
  8
B-0_通り芯
  6
Continuous
 62
     4
370
     9
100
AcDbLine
 10
5526.241877170452
 20
-2193.852358701797
 30
0.0
 11
5526.241877170452
 21
-1437.265744958336
 31
0.0
  0
LINE
  5
1D5
330
1F
100
AcDbEntity
  8
B-0_通り芯
  6
Continuous
 62
     4
370
     9
100
AcDbLine
 10
5547.191949049259
 20
-1437.265552505136
 30
0.0
 11
6924.860229828036
 21
-1437.265552505136
 31
0.0
  0
LINE
  5
1D6
330
1F
100
AcDbEntity
  8
B-1_躯体
  6
Continuous
 62
     3
370
     9
100
AcDbLine
 10
5116.231782127417
 20
-1740.568090535328
 30
0.0
 11
5526.241877170452
 21
-1740.568090535328
 31
0.0
  0
LINE
  5
1D7
330
1F
100
AcDbEntity
  8
C-0_通り芯
  6
Continuous
 62
     4
370
     9
100
AcDbLine
 10
1970.955020195707
 20
-1437.265610241096
 30
0.0
 11
1525.455020195707
 21
-1437.265610241096
 31
0.0
  0
LINE
  5
1D8
330
1F
100
AcDbEntity
  8
C-0_通り芯
  6
Continuous
 62
     4
370
     9
100
AcDbLine
 10
1970.955020195707
 20
-2687.265713341023
 30
0.0
 11
1970.955020195707
 21
-1437.265610241096
 31
0.0
  0
LINE
  5
1D9
330
1F
100
AcDbEntity
  8
C-0_通り芯
  6
Continuous
 62
     4
370
     9
100
AcDbLine
 10
1525.455020195707
 20
-2687.265713341023
 30
0.0
 11
1525.455020195707
 21
-1437.265610241096
 31
0.0
  0
LINE
  5
1DA
330
1F
100
AcDbEntity
  8
C-3_寸法
  6
JWW_DASHED1
 62
     3
370
     9
100
AcDbLine
 10
1557.455640444862
 20
-1437.265610241096
 30
0.0
 11
1557.455640444862
 21
-2687.265713341023
 31
0.0
  0
LINE
  5
1DB
330
1F
100
AcDbEntity
  8
C-3_寸法
  6
JWW_DASHED1
 62
     3
370
     9
100
AcDbLine
 10
1938.955884585487
 20
-1437.265610241096
 30
0.0
 11
1938.955884585487
 21
-2687.265713341023
 31
0.0
  0
LINE
  5
1DC
330
1F
100
AcDbEntity
  8
C-0_通り芯
  6
JWW_DASHED1
 62
     4
370
     9
100
AcDbLine
 10
1949.955020195707
 20
-1437.265610241096
 30
0.0
 11
1949.955020195707
 21
-2687.265713341023
 31
0.0
  0
LINE
  5
1DD
330
1F
100
AcDbEntity
  8
C-0_通り芯
  6
JWW_DASHED1
 62
     4
370
     9
100
AcDbLine
 10
1546.455020195707
 20
-1437.265610241096
 30
0.0
 11
1546.455020195707
 21
-2687.265713341023
 31
0.0
  0
LINE
  5
1DE
330
1F
100
AcDbEntity
  8
C-0_通り芯
  6
Continuous
 62
     4
370
     9
100
AcDbLine
 10
-2134.265838977701
 20
-1437.265527761156
 30
0.0
 11
-2579.765838977701
 21
-1437.265527761156
 31
0.0
  0
LINE
  5
1DF
330
1F
100
AcDbEntity
  8
C-0_通り芯
  6
Continuous
 62
     4
370
     9
100
AcDbLine
 10
-2134.265838977701
 20
-2687.265630861083
 30
0.0
 11
-2134.265838977701
 21
-1437.265527761156
 31
0.0
  0
LINE
  5
1E0
330
1F
100
AcDbEntity
  8
C-0_通り芯
  6
Continuous
 62
     4
370
     9
100
AcDbLine
 10
-2579.765838977701
 20
-2687.265630861083
 30
0.0
 11
-2579.765838977701
 21
-1437.265527761156
 31
0.0
  0
LINE
  5
1E1
330
1F
100
AcDbEntity
  8
C-3_寸法
  6
JWW_DASHED1
 62
     3
370
     9
100
AcDbLine
 10
-2547.765218728547
 20
-1437.265527761156
 30
0.0
 11
-2547.765218728547
 21
-2687.265630861083
 31
0.0
  0
LINE
  5
1E2
330
1F
100
AcDbEntity
  8
C-3_寸法
  6
JWW_DASHED1
 62
     3
370
     9
100
AcDbLine
 10
-2166.264974587922
 20
-1437.265527761156
 30
0.0
 11
-2166.264974587922
 21
-2687.265630861083
 31
0.0
  0
LINE
  5
1E3
330
1F
100
AcDbEntity
  8
C-0_通り芯
  6
JWW_DASHED1
 62
     4
370
     9
100
AcDbLine
 10
-2155.265838977701
 20
-1437.265527761156
 30
0.0
 11
-2155.265838977701
 21
-2687.265630861083
 31
0.0
  0
LINE
  5
1E4
330
1F
100
AcDbEntity
  8
C-0_通り芯
  6
JWW_DASHED1
 62
     4
370
     9
100
AcDbLine
 10
-2558.765838977701
 20
-1437.265527761156
 30
0.0
 11
-2558.765838977701
 21
-2687.265630861083
 31
0.0
  0
LINE
  5
1E5
330
1F
100
AcDbEntity
  8
C-0_通り芯
  6
Continuous
 62
     4
370
     9
100
AcDbLine
 10
-6752.766007236781
 20
-1437.265610241096
 30
0.0
 11
-7198.266007236781
 21
-1437.265610241096
 31
0.0
  0
LINE
  5
1E6
330
1F
100
AcDbEntity
  8
C-0_通り芯
  6
Continuous
 62
     4
370
     9
100
AcDbLine
 10
-6752.766007236781
 20
-2687.265713341023
 30
0.0
 11
-6752.766007236781
 21
-1437.265610241096
 31
0.0
  0
LINE
  5
1E7
330
1F
100
AcDbEntity
  8
C-0_通り芯
  6
Continuous
 62
     4
370
     9
100
AcDbLine
 10
-7198.266007236781
 20
-2687.265713341023
 30
0.0
 11
-7198.266007236781
 21
-1437.265610241096
 31
0.0
  0
LINE
  5
1E8
330
1F
100
AcDbEntity
  8
C-3_寸法
  6
JWW_DASHED1
 62
     3
370
     9
100
AcDbLine
 10
-7166.265386987627
 20
-1437.265610241096
 30
0.0
 11
-7166.265386987627
 21
-2687.265713341023
 31
0.0
  0
LINE
  5
1E9
330
1F
100
AcDbEntity
  8
C-3_寸法
  6
JWW_DASHED1
 62
     3
370
     9
100
AcDbLine
 10
-6784.765142847002
 20
-1437.265610241096
 30
0.0
 11
-6784.765142847002
 21
-2687.265713341023
 31
0.0
  0
LINE
  5
1EA
330
1F
100
AcDbEntity
  8
C-0_通り芯
  6
JWW_DASHED1
 62
     4
370
     9
100
AcDbLine
 10
-6773.766007236782
 20
-1437.265610241096
 30
0.0
 11
-6773.766007236782
 21
-2687.265713341023
 31
0.0
  0
LINE
  5
1EB
330
1F
100
AcDbEntity
  8
C-0_通り芯
  6
JWW_DASHED1
 62
     4
370
     9
100
AcDbLine
 10
-7177.266007236782
 20
-1437.265610241096
 30
0.0
 11
-7177.266007236782
 21
-2687.265713341023
 31
0.0
  0
LINE
  5
1EC
330
1F
100
AcDbEntity
  8
C-E_見え係り
  6
Continuous
 62
     6
370
     5
100
AcDbLine
 10
-7198.266007236781
 20
-1660.973484579255
 30
0.0
 11
-7725.515264917314
 21
-2188.222742259788
 31
0.0
  0
LINE
  5
1ED
330
1F
100
AcDbEntity
  8
C-E_見え係り
  6
Continuous
 62
     6
370
     5
100
AcDbLine
 10
-7198.266007236781
 20
-1802.394840816565
 30
0.0
 11
-7725.515264917314
 21
-2329.644098497099
 31
0.0
  0
LINE
  5
1EE
330
1F
100
AcDbEntity
  8
C-E_見え係り
  6
Continuous
 62
     6
370
     5
100
AcDbLine
 10
-7198.266007236781
 20
-1731.68416269791
 30
0.0
 11
-7725.515264917314
 21
-2258.933420378443
 31
0.0
  0
LINE
  5
1EF
330
1F
100
AcDbEntity
  8
C-E_見え係り
  6
Continuous
 62
     6
370
     5
100
AcDbLine
 10
-6225.515264917311
 20
-1682.628550171739
 30
0.0
 11
-6752.766007236781
 21
-2209.879292491209
 31
0.0
  0
LINE
  5
1F0
330
1F
100
AcDbEntity
  8
C-E_見え係り
  6
Continuous
 62
     6
370
     5
100
AcDbLine
 10
-6225.515264917311
 20
-1824.04990640905
 30
0.0
 11
-6752.766007236781
 21
-2351.30064872852
 31
0.0
  0
LINE
  5
1F1
330
1F
100
AcDbEntity
  8
C-E_見え係り
  6
Continuous
 62
     6
370
     5
100
AcDbLine
 10
-6225.515264917311
 20
-1753.339228290395
 30
0.0
 11
-6752.766007236781
 21
-2280.589970609862
 31
0.0
  0
LINE
  5
1F2
330
1F
100
AcDbEntity
  8
C-E_見え係り
  6
Continuous
 62
     6
370
     5
100
AcDbLine
 10
-1607.015096658231
 20
-1682.628550171739
 30
0.0
 11
-2134.265838977701
 21
-2209.879292491209
 31
0.0
  0
LINE
  5
1F3
330
1F
100
AcDbEntity
  8
C-E_見え係り
  6
Continuous
 62
     6
370
     5
100
AcDbLine
 10
-1607.015096658231
 20
-1824.04990640905
 30
0.0
 11
-2134.265838977701
 21
-2351.30064872852
 31
0.0
  0
LINE
  5
1F4
330
1F
100
AcDbEntity
  8
C-E_見え係り
  6
Continuous
 62
     6
370
     5
100
AcDbLine
 10
-1607.015096658231
 20
-1753.339228290395
 30
0.0
 11
-2134.265838977701
 21
-2280.589970609862
 31
0.0
  0
LINE
  5
1F5
330
1F
100
AcDbEntity
  8
C-E_見え係り
  6
Continuous
 62
     6
370
     5
100
AcDbLine
 10
-2579.765838977701
 20
-1660.973484579255
 30
0.0
 11
-3107.015096658234
 21
-2188.222742259788
 31
0.0
  0
LINE
  5
1F6
330
1F
100
AcDbEntity
  8
C-E_見え係り
  6
Continuous
 62
     6
370
     5
100
AcDbLine
 10
-2579.765838977701
 20
-1802.394840816565
 30
0.0
 11
-3107.015096658234
 21
-2329.644098497099
 31
0.0
  0
LINE
  5
1F7
330
1F
100
AcDbEntity
  8
C-E_見え係り
  6
Continuous
 62
     6
370
     5
100
AcDbLine
 10
-2579.765838977701
 20
-1731.68416269791
 30
0.0
 11
-3107.015096658234
 21
-2258.933420378443
 31
0.0
  0
LINE
  5
1F8
330
1F
100
AcDbEntity
  8
C-E_見え係り
  6
Continuous
 62
     6
370
     5
100
AcDbLine
 10
2498.205762515176
 20
-1682.628550171739
 30
0.0
 11
1970.955020195707
 21
-2209.879292491208
 31
0.0
  0
LINE
  5
1F9
330
1F
100
AcDbEntity
  8
C-E_見え係り
  6
Continuous
 62
     6
370
     5
100
AcDbLine
 10
2498.205762515176
 20
-1824.04990640905
 30
0.0
 11
1970.955020195707
 21
-2351.300648728519
 31
0.0
  0
LINE
  5
1FA
330
1F
100
AcDbEntity
  8
C-E_見え係り
  6
Continuous
 62
     6
370
     5
100
AcDbLine
 10
2498.205762515176
 20
-1753.339228290395
 30
0.0
 11
1970.955020195707
 21
-2280.589970609861
 31
0.0
  0
LINE
  5
1FB
330
1F
100
AcDbEntity
  8
C-E_見え係り
  6
Continuous
 62
     6
370
     5
100
AcDbLine
 10
1525.455020195707
 20
-1660.973484579254
 30
0.0
 11
998.2057625151732
 21
-2188.222742259788
 31
0.0
  0
LINE
  5
1FC
330
1F
100
AcDbEntity
  8
C-E_見え係り
  6
Continuous
 62
     6
370
     5
100
AcDbLine
 10
1525.455020195707
 20
-1802.394840816565
 30
0.0
 11
998.2057625151732
 21
-2329.644098497099
 31
0.0
  0
LINE
  5
1FD
330
1F
100
AcDbEntity
  8
C-E_見え係り
  6
Continuous
 62
     6
370
     5
100
AcDbLine
 10
1525.455020195707
 20
-1731.684162697909
 30
0.0
 11
998.2057625151732
 21
-2258.933420378443
 31
0.0
  0
TEXT
  5
1FE
330
1F
100
AcDbEntity
  8
C-5_建具
  6
Continuous
 62
     7
370
     9
100
AcDbText
 10
-1151.093425892557
 20
-3588.507738452903
 30
0.0
 40
114.3000000000016
  1
脱着用埋設管
 41
1.138888888888898
  7
ＭＳ ゴシック
100
AcDbText
  0
LINE
  5
1FF
330
1F
100
AcDbEntity
  8
C-5_建具
  6
Continuous
 62
     7
370
     9
100
AcDbLine
 10
1544.770515494138
 20
-3668.964574963864
 30
0.0
 11
-1168.916259893715
 21
-3668.964574963864
 31
0.0
  0
LINE
  5
200
330
1F
100
AcDbEntity
  8
C-5_建具
  6
Continuous
 62
     7
370
     9
100
AcDbLine
 10
-2134.265838977701
 20
-1984.945165613001
 30
0.0
 11
-1168.916259893715
 21
-3668.964574963864
 31
0.0
  0
LINE
  5
201
330
1F
100
AcDbEntity
  8
C-5_建具
  6
Continuous
 62
     7
370
     9
100
AcDbLine
 10
-2134.265838977701
 20
-1984.945165613001
 30
0.0
 11
-2086.430360181418
 21
-2100.430086569506
 31
0.0
  0
LINE
  5
202
330
1F
100
AcDbEntity
  8
C-5_建具
  6
Continuous
 62
     7
370
     9
100
AcDbLine
 10
-2134.265838977701
 20
-1984.945165613001
 30
0.0
 11
-2058.170617629763
 21
-2084.114300367764
 31
0.0
  0
LINE
  5
203
330
1F
100
AcDbEntity
  8
C-1_躯体
  6
Continuous
 62
     3
370
     9
100
AcDbLine
 10
-6629.762236404403
 20
-1528.256313914194
 30
0.0
 11
-6752.766007236781
 21
-1528.256313914194
 31
0.0
  0
LINE
  5
204
330
1F
100
AcDbEntity
  8
C-1_躯体
  6
Continuous
 62
     3
370
     9
100
AcDbLine
 10
-2702.768125171145
 20
-1528.256313914194
 30
0.0
 11
-2579.765838977701
 21
-1528.256313914194
 31
0.0
  0
LINE
  5
205
330
1F
100
AcDbEntity
  8
C-4_文字
  6
Continuous
 62
     7
370
     9
100
AcDbLine
 10
-8219.00614077826
 20
-2687.265552505136
 30
0.0
 11
-8219.00614077826
 21
-1437.265552505136
 31
0.0
  0
LINE
  5
206
330
1F
100
AcDbEntity
  8
C-4_文字
  6
Continuous
 62
     7
370
     9
100
AcDbLine
 10
-8219.00614077826
 20
-2687.265552505136
 30
0.0
 11
-8235.321914805767
 21
-2563.334944833409
 31
0.0
  0
LINE
  5
207
330
1F
100
AcDbEntity
  8
C-4_文字
  6
Continuous
 62
     7
370
     9
100
AcDbLine
 10
-8219.00614077826
 20
-2687.265552505136
 30
0.0
 11
-8202.690366750752
 21
-2563.334944833409
 31
0.0
  0
LINE
  5
208
330
1F
100
AcDbEntity
  8
C-4_文字
  6
Continuous
 62
     7
370
     9
100
AcDbLine
 10
-8219.00614077826
 20
-1437.265552505136
 30
0.0
 11
-8235.321914805767
 21
-1561.196160176863
 31
0.0
  0
LINE
  5
209
330
1F
100
AcDbEntity
  8
C-4_文字
  6
Continuous
 62
     7
370
     9
100
AcDbLine
 10
-8219.00614077826
 20
-1437.265552505136
 30
0.0
 11
-8202.690366750752
 21
-1561.196160176863
 31
0.0
  0
TEXT
  5
20A
330
1F
100
AcDbEntity
  8
C-4_文字
  6
Continuous
 62
     2
370
   211
100
AcDbText
 10
-8272.20614077826
 20
-2224.765552505136
 30
0.0
 40
152.4
  1
250
 50
90.0
 41
1.083333333333333
  7
ＭＳ ゴシック
100
AcDbText
  0
LINE
  5
20B
330
1F
100
AcDbEntity
  8
C-4_文字
  6
Continuous
 62
     7
370
     9
100
AcDbLine
 10
-8219.00614077826
 20
-1437.265552505136
 30
0.0
 11
-8219.00614077826
 21
2562.734323774953
 31
0.0
  0
LINE
  5
20C
330
1F
100
AcDbEntity
  8
C-4_文字
  6
Continuous
 62
     7
370
     9
100
AcDbLine
 10
-8219.00614077826
 20
-1437.265552505136
 30
0.0
 11
-8235.321914805767
 21
-1313.334944833409
 31
0.0
  0
LINE
  5
20D
330
1F
100
AcDbEntity
  8
C-4_文字
  6
Continuous
 62
     7
370
     9
100
AcDbLine
 10
-8219.00614077826
 20
-1437.265552505136
 30
0.0
 11
-8202.690366750752
 21
-1313.334944833409
 31
0.0
  0
LINE
  5
20E
330
1F
100
AcDbEntity
  8
C-4_文字
  6
Continuous
 62
     7
370
     9
100
AcDbLine
 10
-8219.00614077826
 20
2562.734323774953
 30
0.0
 11
-8235.321914805767
 21
2438.803716103226
 31
0.0
  0
LINE
  5
20F
330
1F
100
AcDbEntity
  8
C-4_文字
  6
Continuous
 62
     7
370
     9
100
AcDbLine
 10
-8219.00614077826
 20
2562.734323774953
 30
0.0
 11
-8202.690366750752
 21
2438.803716103226
 31
0.0
  0
TEXT
  5
210
330
1F
100
AcDbEntity
  8
C-4_文字
  6
Continuous
 62
     2
370
   211
100
AcDbText
 10
-8272.20614077826
 20
400.2343856349086
 30
0.0
 40
152.4
  1
800
 50
90.0
 41
1.083333333333333
  7
ＭＳ ゴシック
100
AcDbText
  0
LINE
  5
211
330
1F
100
AcDbEntity
  8
C-4_文字
  6
Continuous
 62
     7
370
     9
100
AcDbLine
 10
-8688.467447697534
 20
-2687.265552505136
 30
0.0
 11
-8688.467447697534
 21
2562.734323774953
 31
0.0
  0
LINE
  5
212
330
1F
100
AcDbEntity
  8
C-4_文字
  6
Continuous
 62
     7
370
     9
100
AcDbLine
 10
-8688.467447697534
 20
-2687.265552505136
 30
0.0
 11
-8704.78322172504
 21
-2563.334944833409
 31
0.0
  0
LINE
  5
213
330
1F
100
AcDbEntity
  8
C-4_文字
  6
Continuous
 62
     7
370
     9
100
AcDbLine
 10
-8688.467447697534
 20
-2687.265552505136
 30
0.0
 11
-8672.151673670027
 21
-2563.334944833409
 31
0.0
  0
LINE
  5
214
330
1F
100
AcDbEntity
  8
C-4_文字
  6
Continuous
 62
     7
370
     9
100
AcDbLine
 10
-8688.467447697534
 20
2562.734323774953
 30
0.0
 11
-8704.78322172504
 21
2438.803716103226
 31
0.0
  0
LINE
  5
215
330
1F
100
AcDbEntity
  8
C-4_文字
  6
Continuous
 62
     7
370
     9
100
AcDbLine
 10
-8688.467447697534
 20
2562.734323774953
 30
0.0
 11
-8672.151673670027
 21
2438.803716103226
 31
0.0
  0
TEXT
  5
216
330
1F
100
AcDbEntity
  8
C-4_文字
  6
Continuous
 62
     2
370
   211
100
AcDbText
 10
-8741.667447697535
 20
-281.0156143650914
 30
0.0
 40
152.4
  1
1050
 50
90.0
 41
1.09375
  7
ＭＳ ゴシック
100
AcDbText
  0
LINE
  5
217
330
1F
100
AcDbEntity
  8
C-4_文字
  6
Continuous
 62
     7
370
     9
100
AcDbLine
 10
-8703.467447697534
 20
2562.734323774953
 30
0.0
 11
-6352.521947329573
 21
2562.734323774953
 31
0.0
  0
LINE
  5
218
330
1F
100
AcDbEntity
  8
C-4_文字
  6
Continuous
 62
     7
370
     9
100
AcDbLine
 10
-8234.00614077826
 20
-2703.265569001127
 30
0.0
 11
-8075.515264917312
 21
-2703.265569001127
 31
0.0
  0
LINE
  5
219
330
1F
100
AcDbEntity
  8
C-4_文字
  6
Continuous
 62
     7
370
     9
100
AcDbLine
 10
-8219.00614077826
 20
-2703.265569001127
 30
0.0
 11
-8235.321914805767
 21
-2827.196176672853
 31
0.0
  0
LINE
  5
21A
330
1F
100
AcDbEntity
  8
C-4_文字
  6
Continuous
 62
     7
370
     9
100
AcDbLine
 10
-8219.00614077826
 20
-2703.265569001127
 30
0.0
 11
-8202.690366750752
 21
-2827.196176672853
 31
0.0
  0
LINE
  5
21B
330
1F
100
AcDbEntity
  8
C-4_文字
  6
Continuous
 62
     7
370
     9
100
AcDbLine
 10
-8219.00614077826
 20
-2703.265569001127
 30
0.0
 11
-8219.00614077826
 21
-3104.407547331341
 31
0.0
  0
LINE
  5
21C
330
1F
100
AcDbEntity
  8
C-4_文字
  6
Continuous
 62
     7
370
     9
100
AcDbLine
 10
-8219.00614077826
 20
-2703.265569001127
 30
0.0
 11
-8219.00614077826
 21
-2687.265569001127
 31
0.0
  0
TEXT
  5
21D
330
1F
100
AcDbEntity
  8
C-4_文字
  6
Continuous
 62
     2
370
   211
100
AcDbText
 10
-8272.20614077826
 20
-3103.279429417508
 30
0.0
 40
152.4
  1
3.2
 50
90.0
 41
1.083333333333333
  7
ＭＳ ゴシック
100
AcDbText
  0
LINE
  5
21E
330
1F
100
AcDbEntity
  8
C-4_文字
  6
Continuous
 62
     7
370
     9
100
AcDbLine
 10
-8703.467447697534
 20
-2687.265552505136
 30
0.0
 11
-7814.214260249625
 21
-2687.265552505136
 31
0.0
  0
LINE
  5
21F
330
1F
100
AcDbEntity
  8
B-E_見え係り
  6
Continuous
 62
     6
370
     5
100
AcDbLine
 10
7011.241877170452
 20
-1437.265552505136
 30
0.0
 11
8509.406833640625
 21
-1437.265552505136
 31
0.0
  0
LINE
  5
220
330
1F
100
AcDbEntity
  8
C-E_見え係り
  6
Continuous
 62
     6
370
     5
100
AcDbLine
 10
307.4556404448622
 20
-1437.265552505136
 30
0.0
 11
1525.455020195707
 21
-1437.265552505136
 31
0.0
  0
LINE
  5
221
330
1F
100
AcDbEntity
  8
C-E_見え係り
  6
Continuous
 62
     6
370
     5
100
AcDbLine
 10
1970.955020195707
 20
-1437.265552505136
 30
0.0
 11
3188.955884585487
 21
-1437.265552505136
 31
0.0
  0
LINE
  5
222
330
1F
100
AcDbEntity
  8
C-E_見え係り
  6
Continuous
 62
     6
370
     5
100
AcDbLine
 10
-2134.265838977701
 20
-1437.265552505136
 30
0.0
 11
-916.2649745879214
 21
-1437.265552505136
 31
0.0
  0
LINE
  5
223
330
1F
100
AcDbEntity
  8
C-E_見え係り
  6
Continuous
 62
     6
370
     5
100
AcDbLine
 10
-7198.266007236781
 20
-1437.265552505136
 30
0.0
 11
-8416.265386987627
 21
-1437.265552505136
 31
0.0
  0
LINE
  5
224
330
1F
100
AcDbEntity
  8
B-A_インテリア
  6
Continuous
 62
     2
370
     9
100
AcDbLine
 10
7341.215978282841
 20
-361.4268121526337
 30
0.0
 11
7341.215978282841
 21
-657.2621524978592
 31
0.0
  0
LINE
  5
225
330
1F
100
AcDbEntity
  8
B-A_インテリア
  6
Continuous
 62
     2
370
     9
100
AcDbLine
 10
7266.214493643901
 20
-361.4268121526337
 30
0.0
 11
7266.214493643901
 21
-657.2621524978592
 31
0.0
  0
LINE
  5
226
330
1F
100
AcDbEntity
  8
B-A_インテリア
  6
Continuous
 62
     2
370
     9
100
AcDbLine
 10
7257.885669214013
 20
-657.2621524978592
 30
0.0
 11
7257.885669214013
 21
-1048.927224552339
 31
0.0
  0
LINE
  5
227
330
1F
100
AcDbEntity
  8
B-A_インテリア
  6
Continuous
 62
     2
370
     9
100
AcDbLine
 10
7220.383689695427
 20
-657.2621524978592
 30
0.0
 11
7387.049256629552
 21
-657.2621524978592
 31
0.0
  0
LINE
  5
228
330
1F
100
AcDbEntity
  8
B-A_インテリア
  6
Continuous
 62
     2
370
     9
100
AcDbLine
 10
7349.549751509196
 20
-657.2621524978592
 30
0.0
 11
7349.549751509196
 21
-1048.927224552339
 31
0.0
  0
LINE
  5
229
330
1F
100
AcDbEntity
  8
B-A_インテリア
  6
Continuous
 62
     2
370
     9
100
AcDbLine
 10
7387.049256629552
 20
-657.2621524978592
 30
0.0
 11
7387.049256629552
 21
-1048.927224552339
 31
0.0
  0
LINE
  5
22A
330
1F
100
AcDbEntity
  8
B-A_インテリア
  6
Continuous
 62
     2
370
     9
100
AcDbLine
 10
7220.383689695427
 20
-657.2621524978592
 30
0.0
 11
7220.383689695427
 21
-1048.927224552339
 31
0.0
  0
LINE
  5
22B
330
1F
100
AcDbEntity
  8
B-A_インテリア
  6
Continuous
 62
     2
370
     9
100
AcDbLine
 10
7220.383689695427
 20
-1048.927224552339
 30
0.0
 11
7387.049256629552
 21
-1048.927224552339
 31
0.0
  0
ARC
  5
22C
330
1F
100
AcDbEntity
  8
B-A_インテリア
  6
Continuous
 62
     2
370
     9
100
AcDbCircle
 10
7303.716473162495
 20
-361.4268121526337
 30
0.0
 40
37.50000531608993
100
AcDbArc
 50
0.0000000000000064
 51
180.0
  0
LINE
  5
22D
330
1F
100
AcDbEntity
  8
B-6_間仕切
  6
JWW_CENTER1
 62
     7
370
     9
100
AcDbLine
 10
7303.716473162495
 20
-265.3236594393789
 30
0.0
 11
7303.716473162495
 21
-416.3621643749778
 31
0.0
  0
LINE
  5
22E
330
1F
100
AcDbEntity
  8
B-6_間仕切
  6
Continuous
 62
     7
370
     9
100
AcDbLine
 10
7437.046947191209
 20
-257.2608328188149
 30
0.0
 11
7437.046947191209
 21
-423.9276369520435
 31
0.0
  0
ARC
  5
22F
330
1F
100
AcDbEntity
  8
B-6_間仕切
  6
Continuous
 62
     7
370
     9
100
AcDbCircle
 10
7420.381875136729
 20
-257.2608328188149
 30
0.0
 40
16.66666688145818
100
AcDbArc
 50
0.0000000000000127
 51
90.00000000000001
  0
ARC
  5
230
330
1F
100
AcDbEntity
  8
B-6_間仕切
  6
Continuous
 62
     7
370
     9
100
AcDbCircle
 10
7420.381875136729
 20
-423.9276369520435
 30
0.0
 40
16.66666688145818
100
AcDbArc
 50
270.0
 51
0.0
  0
ARC
  5
231
330
1F
100
AcDbEntity
  8
B-6_間仕切
  6
Continuous
 62
     7
370
     9
100
AcDbCircle
 10
7303.716473162495
 20
-340.5948534849866
 30
0.0
 40
58.33333408510362
100
AcDbArc
 50
310.0047302246094
 51
229.9922332763672
  0
LINE
  5
232
330
1F
100
AcDbEntity
  8
B-6_間仕切
  6
Continuous
 62
     7
370
     9
100
AcDbLine
 10
7137.048431830141
 20
-240.5945235652208
 30
0.0
 11
7137.048431830141
 21
-440.5939462056376
 31
0.0
  0
LINE
  5
233
330
1F
100
AcDbEntity
  8
B-6_間仕切
  6
Continuous
 62
     7
370
     9
100
AcDbLine
 10
7420.381875136729
 20
-440.5939462056376
 30
0.0
 11
7341.215978282841
 21
-440.5939462056376
 31
0.0
  0
LINE
  5
234
330
1F
100
AcDbEntity
  8
B-0_通り芯
  6
JWW_CENTER2
 62
     7
370
     9
100
AcDbLine
 10
5251.684756116325
 20
-340.5990782916694
 30
0.0
 11
7478.429261422934
 21
-340.5990782916694
 31
0.0
  0
LINE
  5
235
330
1F
100
AcDbEntity
  8
B-6_間仕切
  6
Continuous
 62
     7
370
     9
100
AcDbLine
 10
7420.381875136729
 20
-240.5945235652208
 30
0.0
 11
6904.575617404827
 21
-240.5945235652208
 31
0.0
  0
LINE
  5
236
330
1F
100
AcDbEntity
  8
B-6_間仕切
  6
Continuous
 62
     7
370
     9
100
AcDbLine
 10
7266.214493643901
 20
-440.5939462056376
 30
0.0
 11
6904.575617404827
 21
-440.5939462056376
 31
0.0
  0
TEXT
  5
237
330
1F
100
AcDbEntity
  8
B-5_建具
  6
Continuous
 62
     7
370
     9
100
AcDbText
 10
7755.91999098222
 20
349.5240342604687
 30
0.0
 40
114.3
  1
ロックピン：SCS13A
 50
359.9999735004548
 41
1.157407407407409
  7
ＭＳ ゴシック
100
AcDbText
  0
TEXT
  5
238
330
1F
100
AcDbEntity
  8
B-5_建具
  6
Continuous
 62
     7
370
     9
100
AcDbText
 10
7587.893009506271
 20
-400.4360226788813
 30
0.0
 40
114.3
  1
南京錠：CAC202
 41
1.154761904761904
  7
ＭＳ ゴシック
100
AcDbText
  0
LINE
  5
239
330
1F
100
AcDbEntity
  8
B-5_建具
  6
Continuous
 62
     7
370
     9
100
AcDbLine
 10
7437.048542018192
 20
-257.2608328188074
 30
0.0
 11
7755.919981200253
 21
295.0407009271366
 31
0.0
  0
LINE
  5
23A
330
1F
100
AcDbEntity
  8
B-5_建具
  6
Continuous
 62
     7
370
     9
100
AcDbLine
 10
7755.919981200253
 20
295.0407009271366
 30
0.0
 11
9327.790950559922
 21
295.0407009271366
 31
0.0
  0
LINE
  5
23B
330
1F
100
AcDbEntity
  8
B-5_建具
  6
Continuous
 62
     7
370
     9
100
AcDbLine
 10
7437.048542018192
 20
-257.2608328188074
 30
0.0
 11
7484.883971063829
 21
-141.7758912548955
 31
0.0
  0
LINE
  5
23C
330
1F
100
AcDbEntity
  8
B-5_建具
  6
Continuous
 62
     7
370
     9
100
AcDbLine
 10
7437.048542018192
 20
-257.2608328188074
 30
0.0
 11
7513.14372064428
 21
-158.0916652824023
 31
0.0
  0
LINE
  5
23D
330
1F
100
AcDbEntity
  8
B-5_建具
  6
Continuous
 62
     7
370
     9
100
AcDbLine
 10
7387.047139859197
 20
-789.7054803318816
 30
0.0
 11
7463.142318485285
 21
-690.5363127954793
 31
0.0
  0
LINE
  5
23E
330
1F
100
AcDbEntity
  8
B-5_建具
  6
Continuous
 62
     7
370
     9
100
AcDbLine
 10
7387.047139859197
 20
-789.7054803318816
 30
0.0
 11
7434.882568904834
 21
-674.2205387679725
 31
0.0
  0
LINE
  5
23F
330
1F
100
AcDbEntity
  8
B-5_建具
  6
Continuous
 62
     7
370
     9
100
AcDbLine
 10
7387.047139859197
 20
-789.7054803318816
 30
0.0
 11
7587.893009506271
 21
-442.2482262833348
 31
0.0
  0
LINE
  5
240
330
1F
100
AcDbEntity
  8
B-5_建具
  6
Continuous
 62
     7
370
     9
100
AcDbLine
 10
7587.893009506271
 20
-442.2482262833348
 30
0.0
 11
8805.88402565065
 21
-442.2482262833348
 31
0.0
  0
LINE
  5
241
330
1F
100
AcDbEntity
  8
C-A_インテリア
  6
Continuous
 62
     2
370
     9
100
AcDbLine
 10
-2035.272651747795
 20
-1114.513930399385
 30
0.0
 11
-2035.272651747795
 21
-1203.264532502953
 31
0.0
  0
LINE
  5
242
330
1F
100
AcDbEntity
  8
C-A_インテリア
  6
Continuous
 62
     2
370
     9
100
AcDbLine
 10
-2057.773097139477
 20
-1114.513930399385
 30
0.0
 11
-2057.773097139477
 21
-1203.264532502953
 31
0.0
  0
LINE
  5
243
330
1F
100
AcDbEntity
  8
C-A_インテリア
  6
Continuous
 62
     2
370
     9
100
AcDbLine
 10
-2060.271744468443
 20
-1203.264532502953
 30
0.0
 11
-2060.271744468443
 21
-1320.764054119296
 31
0.0
  0
LINE
  5
244
330
1F
100
AcDbEntity
  8
C-A_インテリア
  6
Continuous
 62
     2
370
     9
100
AcDbLine
 10
-2071.522338324019
 20
-1203.264532502953
 30
0.0
 11
-2021.522668243781
 21
-1203.264532502953
 31
0.0
  0
LINE
  5
245
330
1F
100
AcDbEntity
  8
C-A_インテリア
  6
Continuous
 62
     2
370
     9
100
AcDbLine
 10
-2032.772519779888
 20
-1203.264532502953
 30
0.0
 11
-2032.772519779888
 21
-1320.764054119296
 31
0.0
  0
LINE
  5
246
330
1F
100
AcDbEntity
  8
C-A_インテリア
  6
Continuous
 62
     2
370
     9
100
AcDbLine
 10
-2021.522668243781
 20
-1203.264532502953
 30
0.0
 11
-2021.522668243781
 21
-1320.764054119296
 31
0.0
  0
LINE
  5
247
330
1F
100
AcDbEntity
  8
C-A_インテリア
  6
Continuous
 62
     2
370
     9
100
AcDbLine
 10
-2071.522338324019
 20
-1203.264532502953
 30
0.0
 11
-2071.522338324019
 21
-1320.764054119296
 31
0.0
  0
LINE
  5
248
330
1F
100
AcDbEntity
  8
C-A_インテリア
  6
Continuous
 62
     2
370
     9
100
AcDbLine
 10
-2071.522338324019
 20
-1320.764054119296
 30
0.0
 11
-2021.522668243781
 21
-1320.764054119296
 31
0.0
  0
ARC
  5
249
330
1F
100
AcDbEntity
  8
C-A_インテリア
  6
Continuous
 62
     2
370
     9
100
AcDbCircle
 10
-2046.522503283899
 20
-1114.513930399385
 30
0.0
 40
11.25000159482698
100
AcDbArc
 50
0.0000000000000064
 51
180.0
  0
LINE
  5
24A
330
1F
100
AcDbEntity
  8
C-6_間仕切
  6
JWW_CENTER1
 62
     7
370
     9
100
AcDbLine
 10
-2046.522503283899
 20
-1085.682984585409
 30
0.0
 11
-2046.522503283899
 21
-1130.994536066088
 31
0.0
  0
LINE
  5
24B
330
1F
100
AcDbEntity
  8
C-6_間仕切
  6
Continuous
 62
     7
370
     9
100
AcDbLine
 10
-2006.523361075284
 20
-1083.264136599239
 30
0.0
 11
-2006.523361075284
 21
-1133.264177839208
 31
0.0
  0
ARC
  5
24C
330
1F
100
AcDbEntity
  8
C-6_間仕切
  6
Continuous
 62
     7
370
     9
100
AcDbCircle
 10
-2011.522882691628
 20
-1083.264136599239
 30
0.0
 40
5.000000064437454
100
AcDbArc
 50
0.0000000000000127
 51
90.00000000000001
  0
ARC
  5
24D
330
1F
100
AcDbEntity
  8
C-6_間仕切
  6
Continuous
 62
     7
370
     9
100
AcDbCircle
 10
-2011.522882691628
 20
-1133.264177839208
 30
0.0
 40
5.000000064437454
100
AcDbArc
 50
270.0
 51
0.0
  0
ARC
  5
24E
330
1F
100
AcDbEntity
  8
C-6_間仕切
  6
Continuous
 62
     7
370
     9
100
AcDbCircle
 10
-2046.522503283899
 20
-1108.264342799091
 30
0.0
 40
17.50000022553109
100
AcDbArc
 50
310.0047302246094
 51
229.9922332763672
  0
LINE
  5
24F
330
1F
100
AcDbEntity
  8
C-6_間仕切
  6
Continuous
 62
     7
370
     9
100
AcDbLine
 10
-2096.522915683604
 20
-1078.264243823161
 30
0.0
 11
-2096.522915683604
 21
-1138.264070615286
 31
0.0
  0
LINE
  5
250
330
1F
100
AcDbEntity
  8
C-6_間仕切
  6
Continuous
 62
     7
370
     9
100
AcDbLine
 10
-2011.522882691628
 20
-1138.264070615286
 30
0.0
 11
-2035.272651747795
 21
-1138.264070615286
 31
0.0
  0
LINE
  5
251
330
1F
100
AcDbEntity
  8
C-0_通り芯
  6
JWW_CENTER2
 62
     7
370
     9
100
AcDbLine
 10
-2662.132232974472
 20
-1108.265610241096
 30
0.0
 11
-1994.108666805766
 21
-1108.265610241096
 31
0.0
  0
LINE
  5
252
330
1F
100
AcDbEntity
  8
C-6_間仕切
  6
Continuous
 62
     7
370
     9
100
AcDbLine
 10
-2011.522882691628
 20
-1078.264243823161
 30
0.0
 11
-2166.264974587922
 21
-1078.264243823161
 31
0.0
  0
LINE
  5
253
330
1F
100
AcDbEntity
  8
C-6_間仕切
  6
Continuous
 62
     7
370
     9
100
AcDbLine
 10
-2057.773097139477
 20
-1138.264070615286
 30
0.0
 11
-2166.264974587922
 21
-1138.264070615286
 31
0.0
  0
TEXT
  5
254
330
1F
100
AcDbEntity
  8
F-5ﾚｲﾔ
  6
Continuous
 62
     2
370
     9
100
AcDbText
 10
5963.19352281943
 20
-5261.004583401194
 30
0.0
 40
152.4
  1
本体色は、黄または白です。
 41
1.115384615384615
  7
ＭＳ ゴシック
100
AcDbText
  0
TEXT
  5
255
330
1F
100
AcDbEntity
  8
F-5ﾚｲﾔ
  6
Continuous
 62
     2
370
     9
100
AcDbText
 10
5963.19352281943
 20
-5558.359473960832
 30
0.0
 40
152.4
  1
ご注文の際にご指示ください。
 41
1.116071428571429
  7
ＭＳ ゴシック
100
AcDbText
  0
LINE
  5
256
330
1F
100
AcDbEntity
  8
B-5_建具
  6
Continuous
 62
     7
370
     9
100
AcDbLine
 10
4728.741885818656
 20
-2658.477106170053
 30
0.0
 11
7808.741885818654
 21
-2658.477106170053
 31
0.0
  0
LINE
  5
257
330
1F
100
AcDbEntity
  8
B-5_建具
  6
Continuous
 62
     7
370
     9
100
AcDbLine
 10
4728.741885818656
 20
-3008.477106170053
 30
0.0
 11
7808.741885818654
 21
-3008.477106170053
 31
0.0
  0
LINE
  5
258
330
1F
100
AcDbEntity
  8
B-5_建具
  6
Continuous
 62
     7
370
     9
100
AcDbLine
 10
4728.741885818656
 20
-2658.477106170053
 30
0.0
 11
4728.741885818656
 21
-3008.477106170053
 31
0.0
  0
LINE
  5
259
330
1F
100
AcDbEntity
  8
B-5_建具
  6
Continuous
 62
     7
370
     9
100
AcDbLine
 10
7808.741885818654
 20
-2658.477106170053
 30
0.0
 11
7808.741885818654
 21
-3008.477106170053
 31
0.0
  0
TEXT
  5
25A
330
1F
100
AcDbEntity
  8
B-5_建具
  6
Continuous
 62
     2
370
     9
100
AcDbText
 10
4818.741885818656
 20
-2905.277106170054
 30
0.0
 40
152.4
  1
南京錠部詳細図　Ｓ＝１：３
 41
1.115384615384615
  7
ＭＳ ゴシック
100
AcDbText
  0
TEXT
  5
25B
330
1F
100
AcDbEntity
  8
F-Fﾚｲﾔ
  6
Continuous
 62
     2
370
     9
100
AcDbText
 10
-4600.002061998521
 20
-6849.262361193367
 30
0.0
 40
133.35
  1
車止め　スチール製　アーチ型横バー付　脱着式　スチール製蓋　鍵付　ＹＢＷ７Ｈ１０－ＤＬ
 41
0.8571428571428569
  7
ＭＳ ゴシック
100
AcDbText
  0
TEXT
  5
25C
330
1F
100
AcDbEntity
  8
F-5ﾚｲﾔ
  6
Continuous
 62
     2
370
     0
100
AcDbText
 10
6824.221173955882
 20
-4966.871256070416
 30
0.0
 40
152.4000000000001
  1
支柱質量：18kg／本
 41
1.11111111111111
  7
ＭＳ ゴシック
100
AcDbText
  0
TEXT
  5
25D
330
1F
100
AcDbEntity
  8
C-5_建具
  6
Continuous
 62
     7
370
     9
100
AcDbText
 10
-1151.093425892539
 20
-4046.312950674629
 30
0.0
 40
114.3000000000003
  1
埋設管本体：SGP　溶融亜鉛めっき
 41
1.155913978494619
  7
ＭＳ ゴシック
100
AcDbText
  0
TEXT
  5
25E
330
1F
100
AcDbEntity
  8
C-5_建具
  6
Continuous
 62
     7
370
     9
100
AcDbText
 10
-1151.093425892539
 20
-3853.260528308168
 30
0.0
 40
114.3000000000003
  1
蓋：SPHC　溶融亜鉛めっき
 41
1.152777777777773
  7
ＭＳ ゴシック
100
AcDbText
  0
TEXT
  5
25F
330
1F
100
AcDbEntity
  8
C-5_建具
  6
Continuous
 62
     2
370
     9
100
AcDbText
 10
-1614.041417827914
 20
-1382.942814618904
 30
0.0
 40
152.3999999999995
  1
▽G.L.
 41
1.104166666666671
  7
ＭＳ ゴシック
100
AcDbText
  0
TEXT
  5
260
330
1F
100
AcDbEntity
  8
C-5_建具
  6
Continuous
 62
     2
370
     9
100
AcDbText
 10
2491.179441345495
 20
-1382.942814618904
 30
0.0
 40
152.3999999999995
  1
▽G.L.
 41
1.10416666666667
  7
ＭＳ ゴシック
100
AcDbText
  0
TEXT
  5
261
330
1F
100
AcDbEntity
  8
B-4_文字
  6
Continuous
 62
     2
370
     9
100
AcDbText
 10
7817.627044387898
 20
-1388.405788494671
 30
0.0
 40
152.4000000000003
  1
▽G.L.
 41
1.104166666666665
  7
ＭＳ ゴシック
100
AcDbText
  0
ENDSEC
  0
SECTION
  2
OBJECTS
  0
DICTIONARY
  5
C
330
0
100
AcDbDictionary
281
     1
  3
ACAD_DETAILVIEWSTYLE
350
2A7
  3
ACAD_GROUP
350
D
  3
ACAD_LAYOUT
350
1A
  3
ACAD_MATERIAL
350
43
  3
ACAD_MLEADERSTYLE
350
6B
  3
ACAD_MLINESTYLE
350
17
  3
ACAD_PLOTSETTINGS
350
19
  3
ACAD_PLOTSTYLENAME
350
E
  3
ACAD_SCALELIST
350
47
  3
ACAD_SECTIONVIEWSTYLE
350
2A8
  3
ACAD_TABLESTYLE
350
69
  3
ACAD_VISUALSTYLE
350
2A
  3
ACDB_RECOMPOSE_DATA
350
2A4
  3
AcDbVariableDictionary
350
264
  0
DICTIONARY
  5
262
330
8
100
AcDbDictionary
280
     1
281
     1
  3
ACAD_XREC_ROUNDTRIP
360
263
  0
DICTIONARY
  5
2A7
102
{ACAD_REACTORS
330
C
102
}
330
C
100
AcDbDictionary
281
     1
  0
DICTIONARY
  5
D
102
{ACAD_REACTORS
330
C
102
}
330
C
100
AcDbDictionary
281
     1
  0
DICTIONARY
  5
1A
102
{ACAD_REACTORS
330
C
102
}
330
C
100
AcDbDictionary
281
     1
  3
Layout1
350
1E
  3
Layout2
350
26
  3
Model
350
22
  0
DICTIONARY
  5
43
102
{ACAD_REACTORS
330
C
102
}
330
C
100
AcDbDictionary
281
     1
  3
ByBlock
350
45
  3
ByLayer
350
44
  3
Global
350
46
  0
DICTIONARY
  5
6B
102
{ACAD_REACTORS
330
C
102
}
330
C
100
AcDbDictionary
281
     1
  3
Standard
350
6C
  0
DICTIONARY
  5
17
102
{ACAD_REACTORS
330
C
102
}
330
C
100
AcDbDictionary
281
     1
  3
Standard
350
18
  0
DICTIONARY
  5
19
102
{ACAD_REACTORS
330
C
102
}
330
C
100
AcDbDictionary
281
     1
  0
ACDBDICTIONARYWDFLT
  5
E
102
{ACAD_REACTORS
330
C
102
}
330
C
100
AcDbDictionary
281
     1
  3
Normal
350
F
100
AcDbDictionaryWithDefault
340
F
  0
DICTIONARY
  5
47
102
{ACAD_REACTORS
330
C
102
}
330
C
100
AcDbDictionary
281
     1
  3
A0
350
48
  3
A1
350
49
  3
A2
350
4A
  3
A3
350
4B
  3
A4
350
4C
  3
A5
350
4D
  3
A6
350
4E
  3
A7
350
4F
  3
A8
350
50
  3
A9
350
51
  3
B0
350
52
  3
B1
350
53
  3
B2
350
54
  3
B3
350
55
  3
B4
350
56
  3
B5
350
57
  3
B6
350
58
  3
B7
350
59
  3
B8
350
5A
  3
B9
350
5B
  3
C0
350
5C
  3
C1
350
5D
  3
C2
350
5E
  3
C3
350
5F
  3
C4
350
60
  3
C5
350
61
  3
C6
350
62
  3
C7
350
63
  3
C8
350
64
  3
C9
350
65
  3
D0
350
66
  3
D1
350
67
  3
D2
350
68
  0
DICTIONARY
  5
2A8
102
{ACAD_REACTORS
330
C
102
}
330
C
100
AcDbDictionary
281
     1
  0
DICTIONARY
  5
69
102
{ACAD_REACTORS
330
C
102
}
330
C
100
AcDbDictionary
281
     1
  3
Standard
350
6A
  0
DICTIONARY
  5
2A
102
{ACAD_REACTORS
330
C
102
}
330
C
100
AcDbDictionary
281
     1
  3
2dWireframe
350
2F
  3
Basic
350
32
  3
Brighten
350
36
  3
ColorChange
350
3A
  3
Conceptual
350
34
  3
Dim
350
35
  3
EdgeColorOff
350
3D
  3
Facepattern
350
39
  3
Flat
350
2B
  3
FlatWithEdges
350
2C
  3
Gouraud
350
2D
  3
GouraudWithEdges
350
2E
  3
Hidden
350
31
  3
JitterOff
350
3B
  3
Linepattern
350
38
  3
OverhangOff
350
3C
  3
Realistic
350
33
  3
Shaded
350
42
  3
Shaded with edges
350
41
  3
Shades of Gray
350
3E
  3
Sketchy
350
3F
  3
Thicken
350
37
  3
Wireframe
350
30
  3
X-Ray
350
40
  0
XRECORD
  5
2A4
102
{ACAD_REACTORS
330
C
102
}
330
C
100
AcDbXrecord
280
     1
 90
        1
330
6A
  0
DICTIONARY
  5
264
102
{ACAD_REACTORS
330
C
102
}
330
C
100
AcDbDictionary
281
     1
  3
CANNOSCALE
350
265
  3
CENTEREXE
350
2A9
  3
CENTERLTYPEFILE
350
2AA
  3
CMLEADERSTYLE
350
2A6
  3
CTABLESTYLE
350
2A5
  3
MSLTSCALE
350
266
  3
XCLIPFRAME
350
267
  0
XRECORD
  5
263
102
{ACAD_REACTORS
330
262
102
}
330
262
100
AcDbXrecord
280
     1
102
VTR_0.000_0.000_1.000_1.000_VISUALSTYLE
340
2F
102
VTR_0.000_0.000_1.000_1.000_GRIDDISPLAY
 70
     3
102
VTR_0.000_0.000_1.000_1.000_GRIDMAJOR
 70
     5
102
VTR_0.000_0.000_1.000_1.000_DEFAULTLIGHTING
280
     1
102
VTR_0.000_0.000_1.000_1.000_DEFAULTLIGHTINGTYPE
 70
     1
102
VTR_0.000_0.000_1.000_1.000_BRIGHTNESS
141
0.0
102
VTR_0.000_0.000_1.000_1.000_CONTRAST
142
0.0
  0
LAYOUT
  5
1E
102
{ACAD_REACTORS
330
1A
102
}
330
1A
100
AcDbPlotSettings
  1

  2
none_device
  4

  6

 40
0.0
 41
0.0
 42
0.0
 43
0.0
 44
0.0
 45
0.0
 46
0.0
 47
0.0
 48
0.0
 49
0.0
140
0.0
141
0.0
142
1.0
143
1.0
 70
   688
 72
     1
 73
     0
 74
     5
  7

 75
    16
 76
     0
 77
     5
 78
   300
147
1.0
148
0.0
149
0.0
100
AcDbLayout
  1
Layout1
 70
     1
 71
     1
 10
0.0
 20
0.0
 11
420.0
 21
297.0
 12
0.0
 22
0.0
 32
0.0
 14
1.000000000000000E+20
 24
1.000000000000000E+20
 34
1.000000000000000E+20
 15
-1.000000000000000E+20
 25
-1.000000000000000E+20
 35
-1.000000000000000E+20
146
0.0
 13
0.0
 23
0.0
 33
0.0
 16
1.0
 26
0.0
 36
0.0
 17
0.0
 27
1.0
 37
0.0
 76
     0
330
1B
  0
LAYOUT
  5
26
102
{ACAD_REACTORS
330
1A
102
}
330
1A
100
AcDbPlotSettings
  1

  2
none_device
  4

  6

 40
0.0
 41
0.0
 42
0.0
 43
0.0
 44
0.0
 45
0.0
 46
0.0
 47
0.0
 48
0.0
 49
0.0
140
0.0
141
0.0
142
1.0
143
1.0
 70
   688
 72
     1
 73
     0
 74
     5
  7

 75
    16
 76
     0
 77
     5
 78
   300
147
1.0
148
0.0
149
0.0
100
AcDbLayout
  1
Layout2
 70
     1
 71
     2
 10
0.0
 20
0.0
 11
0.0
 21
0.0
 12
0.0
 22
0.0
 32
0.0
 14
0.0
 24
0.0
 34
0.0
 15
0.0
 25
0.0
 35
0.0
146
0.0
 13
0.0
 23
0.0
 33
0.0
 16
1.0
 26
0.0
 36
0.0
 17
0.0
 27
1.0
 37
0.0
 76
     0
330
23
  0
LAYOUT
  5
22
102
{ACAD_REACTORS
330
1A
102
}
330
1A
100
AcDbPlotSettings
  1

  2
none_device
  4
Letter_(8.50_x_11.00_Inches)
  6

 40
6.35
 41
6.35
 42
6.35000508
 43
6.35000508
 44
215.9
 45
279.4
 46
0.0
 47
0.0
 48
0.0
 49
0.0
140
0.0
141
0.0
142
1.0
143
1.0
 70
  1712
 72
     1
 73
     0
 74
     0
  7

 75
     0
 76
     0
 77
     5
 78
   300
147
1.0
148
0.0
149
0.0
100
AcDbLayout
  1
Model
 70
     1
 71
     0
 10
-10500.0
 20
-7425.0
 11
10500.0
 21
7425.0
 12
0.0
 22
0.0
 32
0.0
 14
-10500.0
 24
-7425.0
 34
0.0
 15
10500.0
 25
7425.0
 35
0.0
146
0.0
 13
0.0
 23
0.0
 33
0.0
 16
1.0
 26
0.0
 36
0.0
 17
0.0
 27
1.0
 37
0.0
 76
     0
330
1F
331
29
  0
MATERIAL
  5
45
102
{ACAD_REACTORS
330
43
102
}
102
{ACAD_XDICTIONARY
360
29A
102
}
330
43
100
AcDbMaterial
  1
ByBlock
  0
MATERIAL
  5
44
102
{ACAD_REACTORS
330
43
102
}
102
{ACAD_XDICTIONARY
360
298
102
}
330
43
100
AcDbMaterial
  1
ByLayer
  0
MATERIAL
  5
46
102
{ACAD_REACTORS
330
43
102
}
102
{ACAD_XDICTIONARY
360
29C
102
}
330
43
100
AcDbMaterial
  1
Global
  0
MLEADERSTYLE
  5
6C
102
{ACAD_REACTORS
330
6B
102
}
102
{ACAD_XDICTIONARY
360
2A2
102
}
330
6B
100
AcDbMLeaderStyle
170
     2
171
     1
172
     0
 90
        2
 40
0.0
 41
0.0
173
     1
 91
-1056964608
340
14
 92
       -2
290
     1
 42
2.0
291
     1
 43
8.0
  3
Standard
341
0
 44
4.0
300

342
11
174
     1
178
     6
175
     1
176
     0
 93
-1056964608
 45
4.0
292
     0
297
     0
 46
4.0
343
0
 94
-1056964608
 47
1.0
 49
1.0
140
1.0
293
     1
141
0.0
294
     1
177
     0
142
1.0
295
     0
296
     0
143
3.75
1001
ACAD_MLEADERVER
1070
     2
  0
MLINESTYLE
  5
18
102
{ACAD_REACTORS
330
17
102
}
330
17
100
AcDbMlineStyle
  2
Standard
 70
     0
  3

 62
   256
 51
90.0
 52
90.0
 71
     2
 49
0.5
 62
   256
  6
BYLAYER
 49
-0.5
 62
   256
  6
BYLAYER
  0
ACDBPLACEHOLDER
  5
F
102
{ACAD_REACTORS
330
E
102
}
330
E
  0
SCALE
  5
48
102
{ACAD_REACTORS
330
47
102
}
330
47
100
AcDbScale
 70
     0
300
1:1
140
1.0
141
1.0
290
     1
  0
SCALE
  5
49
102
{ACAD_REACTORS
330
47
102
}
330
47
100
AcDbScale
 70
     0
300
1:2
140
1.0
141
2.0
290
     0
  0
SCALE
  5
4A
102
{ACAD_REACTORS
330
47
102
}
330
47
100
AcDbScale
 70
     0
300
1:4
140
1.0
141
4.0
290
     0
  0
SCALE
  5
4B
102
{ACAD_REACTORS
330
47
102
}
330
47
100
AcDbScale
 70
     0
300
1:5
140
1.0
141
5.0
290
     0
  0
SCALE
  5
4C
102
{ACAD_REACTORS
330
47
102
}
330
47
100
AcDbScale
 70
     0
300
1:8
140
1.0
141
8.0
290
     0
  0
SCALE
  5
4D
102
{ACAD_REACTORS
330
47
102
}
330
47
100
AcDbScale
 70
     0
300
1:10
140
1.0
141
10.0
290
     0
  0
SCALE
  5
4E
102
{ACAD_REACTORS
330
47
102
}
330
47
100
AcDbScale
 70
     0
300
1:16
140
1.0
141
16.0
290
     0
  0
SCALE
  5
4F
102
{ACAD_REACTORS
330
47
102
}
330
47
100
AcDbScale
 70
     0
300
1:20
140
1.0
141
20.0
290
     0
  0
SCALE
  5
50
102
{ACAD_REACTORS
330
47
102
}
330
47
100
AcDbScale
 70
     0
300
1:30
140
1.0
141
30.0
290
     0
  0
SCALE
  5
51
102
{ACAD_REACTORS
330
47
102
}
330
47
100
AcDbScale
 70
     0
300
1:40
140
1.0
141
40.0
290
     0
  0
SCALE
  5
52
102
{ACAD_REACTORS
330
47
102
}
330
47
100
AcDbScale
 70
     0
300
1:50
140
1.0
141
50.0
290
     0
  0
SCALE
  5
53
102
{ACAD_REACTORS
330
47
102
}
330
47
100
AcDbScale
 70
     0
300
1:100
140
1.0
141
100.0
290
     0
  0
SCALE
  5
54
102
{ACAD_REACTORS
330
47
102
}
330
47
100
AcDbScale
 70
     0
300
2:1
140
2.0
141
1.0
290
     0
  0
SCALE
  5
55
102
{ACAD_REACTORS
330
47
102
}
330
47
100
AcDbScale
 70
     0
300
4:1
140
4.0
141
1.0
290
     0
  0
SCALE
  5
56
102
{ACAD_REACTORS
330
47
102
}
330
47
100
AcDbScale
 70
     0
300
8:1
140
8.0
141
1.0
290
     0
  0
SCALE
  5
57
102
{ACAD_REACTORS
330
47
102
}
330
47
100
AcDbScale
 70
     0
300
10:1
140
10.0
141
1.0
290
     0
  0
SCALE
  5
58
102
{ACAD_REACTORS
330
47
102
}
330
47
100
AcDbScale
 70
     0
300
100:1
140
100.0
141
1.0
290
     0
  0
SCALE
  5
59
102
{ACAD_REACTORS
330
47
102
}
330
47
100
AcDbScale
 70
     0
300
1/128" = 1'-0"
140
0.0078125
141
12.0
290
     0
  0
SCALE
  5
5A
102
{ACAD_REACTORS
330
47
102
}
330
47
100
AcDbScale
 70
     0
300
1/64" = 1'-0"
140
0.015625
141
12.0
290
     0
  0
SCALE
  5
5B
102
{ACAD_REACTORS
330
47
102
}
330
47
100
AcDbScale
 70
     0
300
1/32" = 1'-0"
140
0.03125
141
12.0
290
     0
  0
SCALE
  5
5C
102
{ACAD_REACTORS
330
47
102
}
330
47
100
AcDbScale
 70
     0
300
1/16" = 1'-0"
140
0.0625
141
12.0
290
     0
  0
SCALE
  5
5D
102
{ACAD_REACTORS
330
47
102
}
330
47
100
AcDbScale
 70
     0
300
3/32" = 1'-0"
140
0.09375
141
12.0
290
     0
  0
SCALE
  5
5E
102
{ACAD_REACTORS
330
47
102
}
330
47
100
AcDbScale
 70
     0
300
1/8" = 1'-0"
140
0.125
141
12.0
290
     0
  0
SCALE
  5
5F
102
{ACAD_REACTORS
330
47
102
}
330
47
100
AcDbScale
 70
     0
300
3/16" = 1'-0"
140
0.1875
141
12.0
290
     0
  0
SCALE
  5
60
102
{ACAD_REACTORS
330
47
102
}
330
47
100
AcDbScale
 70
     0
300
1/4" = 1'-0"
140
0.25
141
12.0
290
     0
  0
SCALE
  5
61
102
{ACAD_REACTORS
330
47
102
}
330
47
100
AcDbScale
 70
     0
300
3/8" = 1'-0"
140
0.375
141
12.0
290
     0
  0
SCALE
  5
62
102
{ACAD_REACTORS
330
47
102
}
330
47
100
AcDbScale
 70
     0
300
1/2" = 1'-0"
140
0.5
141
12.0
290
     0
  0
SCALE
  5
63
102
{ACAD_REACTORS
330
47
102
}
330
47
100
AcDbScale
 70
     0
300
3/4" = 1'-0"
140
0.75
141
12.0
290
     0
  0
SCALE
  5
64
102
{ACAD_REACTORS
330
47
102
}
330
47
100
AcDbScale
 70
     0
300
1" = 1'-0"
140
1.0
141
12.0
290
     0
  0
SCALE
  5
65
102
{ACAD_REACTORS
330
47
102
}
330
47
100
AcDbScale
 70
     0
300
1-1/2" = 1'-0"
140
1.5
141
12.0
290
     0
  0
SCALE
  5
66
102
{ACAD_REACTORS
330
47
102
}
330
47
100
AcDbScale
 70
     0
300
3" = 1'-0"
140
3.0
141
12.0
290
     0
  0
SCALE
  5
67
102
{ACAD_REACTORS
330
47
102
}
330
47
100
AcDbScale
 70
     0
300
6" = 1'-0"
140
6.0
141
12.0
290
     0
  0
SCALE
  5
68
102
{ACAD_REACTORS
330
47
102
}
330
47
100
AcDbScale
 70
     0
300
1'-0" = 1'-0"
140
12.0
141
12.0
290
     0
  0
TABLESTYLE
  5
6A
102
{ACAD_REACTORS
330
69
102
}
102
{ACAD_XDICTIONARY
360
29E
102
}
330
69
100
AcDbTableStyle
  3
Standard
 70
     0
 71
     0
 40
0.06
 41
0.06
280
     0
281
     0
  7
Standard
140
4.5
170
     2
 62
     0
 63
   257
283
     0
274
    -2
284
     1
 64
     0
275
    -2
285
     1
 65
     0
276
    -2
286
     1
 66
     0
277
    -2
287
     1
 67
     0
278
    -2
288
     1
 68
     0
279
    -2
289
     1
 69
     0
  7
Standard
140
6.0
170
     5
 62
     0
 63
   257
283
     0
274
    -2
284
     1
 64
     0
275
    -2
285
     1
 65
     0
276
    -2
286
     1
 66
     0
277
    -2
287
     1
 67
     0
278
    -2
288
     1
 68
     0
279
    -2
289
     1
 69
     0
  7
Standard
140
4.5
170
     5
 62
     0
 63
   257
283
     0
274
    -2
284
     1
 64
     0
275
    -2
285
     1
 65
     0
276
    -2
286
     1
 66
     0
277
    -2
287
     1
 67
     0
278
    -2
288
     1
 68
     0
279
    -2
289
     1
 69
     0
  0
VISUALSTYLE
  5
2F
102
{ACAD_REACTORS
330
2A
102
}
102
{ACAD_XDICTIONARY
360
270
102
}
330
2A
100
AcDbVisualStyle
  2
2dWireframe
 70
     4
 71
     0
 72
     2
 73
     0
 90
        0
 40
0.6
 41
30.0
 62
     5
 63
     7
421
 16777215
 74
     1
 91
        4
 64
     7
 65
   257
 75
     1
175
     1
 42
1.0
 92
        0
 66
   257
 43
1.0
 76
     1
 77
     6
 78
     2
 67
     7
 79
     5
170
     0
171
     0
290
     0
174
     0
 93
        1
 44
0.0
173
     0
291
     0
 45
0.0
1001
ACAD
1000
AcDbSavedByObjectVersion
1070
     0
  0
VISUALSTYLE
  5
32
102
{ACAD_REACTORS
330
2A
102
}
102
{ACAD_XDICTIONARY
360
276
102
}
330
2A
100
AcDbVisualStyle
  2
Basic
 70
     7
 71
     1
 72
     0
 73
     1
 90
        0
 40
0.6
 41
30.0
 62
     5
 63
     7
421
 16777215
 74
     0
 91
        4
 64
     7
 65
   257
 75
     1
175
     1
 42
1.0
 92
        8
 66
     7
 43
1.0
 76
     1
 77
     6
 78
     2
 67
     7
 79
     5
170
     0
171
     0
290
     0
174
     0
 93
        1
 44
0.0
173
     0
291
     1
 45
0.0
1001
ACAD
1000
AcDbSavedByObjectVersion
1070
     0
  0
VISUALSTYLE
  5
36
102
{ACAD_REACTORS
330
2A
102
}
102
{ACAD_XDICTIONARY
360
27E
102
}
330
2A
100
AcDbVisualStyle
  2
Brighten
 70
    12
 71
     2
 72
     2
 73
     0
 90
        0
 40
0.6
 41
30.0
 62
     5
 63
     7
421
 16777215
 74
     1
 91
        4
 64
     7
 65
   257
 75
     1
175
     1
 42
1.0
 92
        8
 66
     7
 43
1.0
 76
     1
 77
     6
 78
     2
 67
     7
 79
     5
170
     0
171
     0
290
     0
174
     0
 93
        1
 44
50.0
173
     0
291
     1
 45
0.0
1001
ACAD
1000
AcDbSavedByObjectVersion
1070
     0
  0
VISUALSTYLE
  5
3A
102
{ACAD_REACTORS
330
2A
102
}
102
{ACAD_XDICTIONARY
360
286
102
}
330
2A
100
AcDbVisualStyle
  2
ColorChange
 70
    16
 71
     2
 72
     2
 73
     3
 90
        0
 40
0.6
 41
30.0
 62
     5
 63
     8
421
  8421504
 74
     1
 91
        4
 64
     7
 65
   257
 75
     1
175
     1
 42
1.0
 92
        8
 66
     8
424
  8421504
 43
1.0
 76
     1
 77
     6
 78
     2
 67
     7
 79
     5
170
     0
171
     0
290
     0
174
     0
 93
        1
 44
0.0
173
     0
291
     1
 45
0.0
1001
ACAD
1000
AcDbSavedByObjectVersion
1070
     0
  0
VISUALSTYLE
  5
34
102
{ACAD_REACTORS
330
2A
102
}
102
{ACAD_XDICTIONARY
360
27A
102
}
330
2A
100
AcDbVisualStyle
  2
Conceptual
 70
     9
 71
     3
 72
     2
 73
     0
 90
        0
 40
0.6
 41
30.0
 62
     5
 63
     7
421
 16777215
 74
     2
 91
        2
 64
     7
 65
   257
 75
     1
175
     1
 42
179.0
 92
        8
 66
     7
 43
1.0
 76
     1
 77
     6
 78
     2
 67
     7
 79
     3
170
     0
171
     0
290
     0
174
     0
 93
        1
 44
0.0
173
     0
291
     0
 45
0.0
1001
ACAD
1000
AcDbSavedByObjectVersion
1070
     0
  0
VISUALSTYLE
  5
35
102
{ACAD_REACTORS
330
2A
102
}
102
{ACAD_XDICTIONARY
360
27C
102
}
330
2A
100
AcDbVisualStyle
  2
Dim
 70
    11
 71
     2
 72
     2
 73
     0
 90
        0
 40
0.6
 41
30.0
 62
     5
 63
     7
421
 16777215
 74
     1
 91
        4
 64
     7
 65
   257
 75
     1
175
     1
 42
1.0
 92
        8
 66
     7
 43
1.0
 76
     1
 77
     6
 78
     2
 67
     7
 79
     5
170
     0
171
     0
290
     0
174
     0
 93
        1
 44
-50.0
173
     0
291
     1
 45
0.0
1001
ACAD
1000
AcDbSavedByObjectVersion
1070
     0
  0
VISUALSTYLE
  5
3D
102
{ACAD_REACTORS
330
2A
102
}
102
{ACAD_XDICTIONARY
360
28C
102
}
330
2A
100
AcDbVisualStyle
  2
EdgeColorOff
 70
    22
 71
     2
 72
     2
 73
     0
 90
        0
 40
0.6
 41
30.0
 62
     5
 63
     7
421
 16777215
 74
     1
 91
        4
 64
     7
 65
   257
 75
     1
175
     1
 42
1.0
 92
        8
 66
     7
 43
1.0
 76
     1
 77
     6
 78
     2
 67
     7
 79
     5
170
     0
171
     0
290
     0
174
     0
 93
        1
 44
0.0
173
     0
291
     1
 45
0.0
1001
ACAD
1000
AcDbSavedByObjectVersion
1070
     0
  0
VISUALSTYLE
  5
39
102
{ACAD_REACTORS
330
2A
102
}
102
{ACAD_XDICTIONARY
360
284
102
}
330
2A
100
AcDbVisualStyle
  2
Facepattern
 70
    15
 71
     2
 72
     2
 73
     0
 90
        0
 40
0.6
 41
30.0
 62
     5
 63
     7
421
 16777215
 74
     1
 91
        4
 64
     7
 65
   257
 75
     1
175
     1
 42
1.0
 92
        8
 66
     7
 43
1.0
 76
     1
 77
     6
 78
     2
 67
     7
 79
     5
170
     0
171
     0
290
     0
174
     0
 93
        1
 44
0.0
173
     0
291
     1
 45
0.0
1001
ACAD
1000
AcDbSavedByObjectVersion
1070
     0
  0
VISUALSTYLE
  5
2B
102
{ACAD_REACTORS
330
2A
102
}
102
{ACAD_XDICTIONARY
360
268
102
}
330
2A
100
AcDbVisualStyle
  2
Flat
 70
     0
 71
     2
 72
     1
 73
     1
 90
        2
 40
0.6
 41
30.0
 62
     5
 63
     7
421
 16777215
 74
     0
 91
        0
 64
     7
 65
   257
 75
     1
175
     1
 42
1.0
 92
        8
 66
     7
 43
1.0
 76
     1
 77
     6
 78
     2
 67
     7
 79
     5
170
     0
171
     0
290
     0
174
     0
 93
       13
 44
0.0
173
     0
291
     1
 45
0.0
1001
ACAD
1000
AcDbSavedByObjectVersion
1070
     0
  0
VISUALSTYLE
  5
2C
102
{ACAD_REACTORS
330
2A
102
}
102
{ACAD_XDICTIONARY
360
26A
102
}
330
2A
100
AcDbVisualStyle
  2
FlatWithEdges
 70
     1
 71
     2
 72
     1
 73
     1
 90
        2
 40
0.6
 41
30.0
 62
     5
 63
     7
421
 16777215
 74
     1
 91
        0
 64
     7
 65
   257
 75
     1
175
     1
 42
1.0
 92
        0
 66
   257
 43
1.0
 76
     1
 77
     6
 78
     2
 67
     7
 79
     5
170
     0
171
     0
290
     0
174
     0
 93
       13
 44
0.0
173
     0
291
     1
 45
0.0
1001
ACAD
1000
AcDbSavedByObjectVersion
1070
     0
  0
VISUALSTYLE
  5
2D
102
{ACAD_REACTORS
330
2A
102
}
102
{ACAD_XDICTIONARY
360
26C
102
}
330
2A
100
AcDbVisualStyle
  2
Gouraud
 70
     2
 71
     2
 72
     2
 73
     1
 90
        2
 40
0.6
 41
30.0
 62
     5
 63
     7
421
 16777215
 74
     0
 91
        0
 64
     7
 65
   257
 75
     1
175
     1
 42
1.0
 92
        0
 66
     7
 43
1.0
 76
     1
 77
     6
 78
     2
 67
     7
 79
     5
170
     0
171
     0
290
     0
174
     0
 93
       13
 44
0.0
173
     0
291
     1
 45
0.0
1001
ACAD
1000
AcDbSavedByObjectVersion
1070
     0
  0
VISUALSTYLE
  5
2E
102
{ACAD_REACTORS
330
2A
102
}
102
{ACAD_XDICTIONARY
360
26E
102
}
330
2A
100
AcDbVisualStyle
  2
GouraudWithEdges
 70
     3
 71
     2
 72
     2
 73
     1
 90
        2
 40
0.6
 41
30.0
 62
     5
 63
     7
421
 16777215
 74
     1
 91
        0
 64
     7
 65
   257
 75
     1
175
     1
 42
1.0
 92
        0
 66
   257
 43
1.0
 76
     1
 77
     6
 78
     2
 67
     7
 79
     5
170
     0
171
     0
290
     0
174
     0
 93
       13
 44
0.0
173
     0
291
     1
 45
0.0
1001
ACAD
1000
AcDbSavedByObjectVersion
1070
     0
  0
VISUALSTYLE
  5
31
102
{ACAD_REACTORS
330
2A
102
}
102
{ACAD_XDICTIONARY
360
274
102
}
330
2A
100
AcDbVisualStyle
  2
Hidden
 70
     6
 71
     1
 72
     2
 73
     2
 90
        0
 40
0.6
 41
30.0
 62
     5
 63
     7
421
 16777215
 74
     2
 91
        2
 64
     7
 65
   257
 75
     2
175
     1
 42
40.0
 92
        0
 66
   257
 43
1.0
 76
     1
 77
     6
 78
     2
 67
     7
 79
     3
170
     0
171
     0
290
     0
174
     0
 93
        1
 44
0.0
173
     0
291
     0
 45
0.0
1001
ACAD
1000
AcDbSavedByObjectVersion
1070
     0
  0
VISUALSTYLE
  5
3B
102
{ACAD_REACTORS
330
2A
102
}
102
{ACAD_XDICTIONARY
360
288
102
}
330
2A
100
AcDbVisualStyle
  2
JitterOff
 70
    20
 71
     2
 72
     2
 73
     0
 90
        0
 40
0.6
 41
30.0
 62
     5
 63
     7
421
 16777215
 74
     1
 91
        4
 64
     7
 65
   257
 75
     1
175
     1
 42
1.0
 92
       10
 66
     7
 43
1.0
 76
     1
 77
     6
 78
     2
 67
     7
 79
     5
170
     0
171
     0
290
     0
174
     0
 93
        1
 44
0.0
173
     0
291
     1
 45
0.0
1001
ACAD
1000
AcDbSavedByObjectVersion
1070
     0
  0
VISUALSTYLE
  5
38
102
{ACAD_REACTORS
330
2A
102
}
102
{ACAD_XDICTIONARY
360
282
102
}
330
2A
100
AcDbVisualStyle
  2
Linepattern
 70
    14
 71
     2
 72
     2
 73
     0
 90
        0
 40
0.6
 41
30.0
 62
     5
 63
     7
421
 16777215
 74
     1
 91
        4
 64
     7
 65
   257
 75
     7
175
     7
 42
1.0
 92
        8
 66
     7
 43
1.0
 76
     1
 77
     6
 78
     2
 67
     7
 79
     5
170
     0
171
     0
290
     0
174
     0
 93
        1
 44
0.0
173
     0
291
     1
 45
0.0
1001
ACAD
1000
AcDbSavedByObjectVersion
1070
     0
  0
VISUALSTYLE
  5
3C
102
{ACAD_REACTORS
330
2A
102
}
102
{ACAD_XDICTIONARY
360
28A
102
}
330
2A
100
AcDbVisualStyle
  2
OverhangOff
 70
    21
 71
     2
 72
     2
 73
     0
 90
        0
 40
0.6
 41
30.0
 62
     5
 63
     7
421
 16777215
 74
     1
 91
        4
 64
     7
 65
   257
 75
     1
175
     1
 42
1.0
 92
        9
 66
     7
 43
1.0
 76
     1
 77
     6
 78
     2
 67
     7
 79
     5
170
     0
171
     0
290
     0
174
     0
 93
        1
 44
0.0
173
     0
291
     1
 45
0.0
1001
ACAD
1000
AcDbSavedByObjectVersion
1070
     0
  0
VISUALSTYLE
  5
33
102
{ACAD_REACTORS
330
2A
102
}
102
{ACAD_XDICTIONARY
360
278
102
}
330
2A
100
AcDbVisualStyle
  2
Realistic
 70
     8
 71
     2
 72
     3
 73
     0
 90
        2
 40
0.6
 41
30.0
 62
     5
 63
     7
421
 16777215
 74
     0
 91
        0
 64
     7
 65
   257
 75
     1
175
     1
 42
1.0
 92
        8
 66
   257
 43
1.0
 76
     1
 77
     6
 78
     2
 67
     7
 79
     3
170
     0
171
     0
290
     0
174
     0
 93
       13
 44
0.0
173
     0
291
     0
 45
0.0
1001
ACAD
1000
AcDbSavedByObjectVersion
1070
     0
  0
VISUALSTYLE
  5
42
102
{ACAD_REACTORS
330
2A
102
}
102
{ACAD_XDICTIONARY
360
296
102
}
330
2A
100
AcDbVisualStyle
  2
Shaded
 70
    27
 71
     2
 72
     2
 73
     1
 90
        2
 40
0.6
 41
30.0
 62
     5
 63
     7
421
 16777215
 74
     0
 91
        4
 64
     7
 65
   257
 75
     1
175
     1
 42
1.0
 92
        8
 66
   257
 43
1.0
 76
     1
 77
     6
 78
     2
 67
     8
425
  7895160
 79
     3
170
     0
171
     0
290
     0
174
     0
 93
        5
 44
0.0
173
     0
291
     0
 45
0.0
1001
ACAD
1000
AcDbSavedByObjectVersion
1070
     0
  0
VISUALSTYLE
  5
41
102
{ACAD_REACTORS
330
2A
102
}
102
{ACAD_XDICTIONARY
360
294
102
}
330
2A
100
AcDbVisualStyle
  2
Shaded with edges
 70
    26
 71
     2
 72
     2
 73
     1
 90
        2
 40
0.6
 41
30.0
 62
     5
 63
     7
421
 16777215
 74
     1
 91
       10
 64
     7
 65
   257
 75
     2
175
     1
 42
1.0
 92
        8
 66
   257
 43
1.0
 76
     1
 77
     6
 78
     2
 67
     7
 79
     3
170
     0
171
     0
290
     0
174
     0
 93
        5
 44
0.0
173
     0
291
     0
 45
0.0
1001
ACAD
1000
AcDbSavedByObjectVersion
1070
     0
  0
VISUALSTYLE
  5
3E
102
{ACAD_REACTORS
330
2A
102
}
102
{ACAD_XDICTIONARY
360
28E
102
}
330
2A
100
AcDbVisualStyle
  2
Shades of Gray
 70
    23
 71
     2
 72
     2
 73
     3
 90
        0
 40
0.6
 41
30.0
 62
     5
 63
     7
421
 16777215
 74
     2
 91
        2
 64
     7
 65
     7
 75
     1
175
     1
 42
40.0
 92
        8
 66
     7
 43
1.0
 76
     1
 77
     6
 78
     2
 67
     7
 79
     3
170
     0
171
     0
290
     0
174
     0
 93
        1
 44
0.0
173
     0
291
     0
 45
0.0
1001
ACAD
1000
AcDbSavedByObjectVersion
1070
     0
  0
VISUALSTYLE
  5
3F
102
{ACAD_REACTORS
330
2A
102
}
102
{ACAD_XDICTIONARY
360
290
102
}
330
2A
100
AcDbVisualStyle
  2
Sketchy
 70
    24
 71
     1
 72
     2
 73
     2
 90
        0
 40
0.6
 41
30.0
 62
     5
 63
     7
421
 16777215
 74
     2
 91
        2
 64
     7
 65
     7
 75
     1
175
     1
 42
40.0
 92
       11
 66
     7
 43
1.0
 76
     1
 77
     6
 78
     2
 67
     7
 79
     6
170
     0
171
     0
290
     0
174
     0
 93
        1
 44
0.0
173
     0
291
     0
 45
0.0
1001
ACAD
1000
AcDbSavedByObjectVersion
1070
     0
  0
VISUALSTYLE
  5
37
102
{ACAD_REACTORS
330
2A
102
}
102
{ACAD_XDICTIONARY
360
280
102
}
330
2A
100
AcDbVisualStyle
  2
Thicken
 70
    13
 71
     2
 72
     2
 73
     0
 90
        0
 40
0.6
 41
30.0
 62
     5
 63
     7
421
 16777215
 74
     1
 91
        4
 64
     7
 65
   257
 75
     1
175
     1
 42
1.0
 92
       12
 66
     7
 43
1.0
 76
     1
 77
     6
 78
     2
 67
     7
 79
     5
170
     0
171
     0
290
     0
174
     0
 93
        1
 44
0.0
173
     0
291
     1
 45
0.0
1001
ACAD
1000
AcDbSavedByObjectVersion
1070
     0
  0
VISUALSTYLE
  5
30
102
{ACAD_REACTORS
330
2A
102
}
102
{ACAD_XDICTIONARY
360
272
102
}
330
2A
100
AcDbVisualStyle
  2
Wireframe
 70
     5
 71
     0
 72
     2
 73
     0
 90
        0
 40
0.6
 41
30.0
 62
     5
 63
     7
421
 16777215
 74
     1
 91
        4
 64
     7
 65
   257
 75
     1
175
     1
 42
1.0
 92
        0
 66
   257
 43
1.0
 76
     1
 77
     6
 78
     2
 67
     7
 79
     3
170
     0
171
     0
290
     0
174
     0
 93
        1
 44
0.0
173
     0
291
     0
 45
0.0
1001
ACAD
1000
AcDbSavedByObjectVersion
1070
     0
  0
VISUALSTYLE
  5
40
102
{ACAD_REACTORS
330
2A
102
}
102
{ACAD_XDICTIONARY
360
292
102
}
330
2A
100
AcDbVisualStyle
  2
X-Ray
 70
    25
 71
     2
 72
     2
 73
     1
 90
        1
 40
0.5
 41
30.0
 62
     5
 63
     7
421
 16777215
 74
     1
 91
        0
 64
     7
 65
   257
 75
     1
175
     1
 42
1.0
 92
        8
 66
     7
 43
1.0
 76
     1
 77
     6
 78
     2
 67
     7
 79
     3
170
     0
171
     0
290
     0
174
     0
 93
       13
 44
0.0
173
     0
291
     0
 45
0.0
1001
ACAD
1000
AcDbSavedByObjectVersion
1070
     0
  0
DICTIONARYVAR
  5
265
102
{ACAD_REACTORS
330
264
102
}
330
264
100
DictionaryVariables
280
     0
  1
1:1
  0
DICTIONARYVAR
  5
2A9
102
{ACAD_REACTORS
330
264
102
}
330
264
100
DictionaryVariables
280
     0
  1
3.500000
  0
DICTIONARYVAR
  5
2AA
102
{ACAD_REACTORS
330
264
102
}
330
264
100
DictionaryVariables
280
     0
  1
acadiso.lin
  0
DICTIONARYVAR
  5
2A6
102
{ACAD_REACTORS
330
264
102
}
330
264
100
DictionaryVariables
280
     0
  1
Standard
  0
DICTIONARYVAR
  5
2A5
102
{ACAD_REACTORS
330
264
102
}
330
264
100
DictionaryVariables
280
     0
  1
Standard
  0
DICTIONARYVAR
  5
266
102
{ACAD_REACTORS
330
264
102
}
330
264
100
DictionaryVariables
280
     0
  1
1
  0
DICTIONARYVAR
  5
267
102
{ACAD_REACTORS
330
264
102
}
330
264
100
DictionaryVariables
280
     0
  1
2
  0
DICTIONARY
  5
29A
330
45
100
AcDbDictionary
280
     1
281
     1
  3
ACAD_XREC_ROUNDTRIP
360
29B
  0
DICTIONARY
  5
298
330
44
100
AcDbDictionary
280
     1
281
     1
  3
ACAD_XREC_ROUNDTRIP
360
299
  0
DICTIONARY
  5
29C
330
46
100
AcDbDictionary
280
     1
281
     1
  3
ACAD_XREC_ROUNDTRIP
360
29D
  0
DICTIONARY
  5
2A2
330
6C
100
AcDbDictionary
280
     1
281
     1
  3
ACAD_XREC_ROUNDTRIP
360
2A3
  0
DICTIONARY
  5
29E
330
6A
100
AcDbDictionary
280
     1
281
     1
  3
ACAD_ROUNDTRIP_2008_TABLESTYLE_CELLSTYLEMAP
360
2A0
  3
ACAD_XREC_ROUNDTRIP
360
29F
  0
DICTIONARY
  5
270
330
2F
100
AcDbDictionary
280
     1
281
     1
  3
ACAD_XREC_ROUNDTRIP
360
271
  0
DICTIONARY
  5
276
330
32
100
AcDbDictionary
280
     1
281
     1
  3
ACAD_XREC_ROUNDTRIP
360
277
  0
DICTIONARY
  5
27E
330
36
100
AcDbDictionary
280
     1
281
     1
  3
ACAD_XREC_ROUNDTRIP
360
27F
  0
DICTIONARY
  5
286
330
3A
100
AcDbDictionary
280
     1
281
     1
  3
ACAD_XREC_ROUNDTRIP
360
287
  0
DICTIONARY
  5
27A
330
34
100
AcDbDictionary
280
     1
281
     1
  3
ACAD_XREC_ROUNDTRIP
360
27B
  0
DICTIONARY
  5
27C
330
35
100
AcDbDictionary
280
     1
281
     1
  3
ACAD_XREC_ROUNDTRIP
360
27D
  0
DICTIONARY
  5
28C
330
3D
100
AcDbDictionary
280
     1
281
     1
  3
ACAD_XREC_ROUNDTRIP
360
28D
  0
DICTIONARY
  5
284
330
39
100
AcDbDictionary
280
     1
281
     1
  3
ACAD_XREC_ROUNDTRIP
360
285
  0
DICTIONARY
  5
268
330
2B
100
AcDbDictionary
280
     1
281
     1
  3
ACAD_XREC_ROUNDTRIP
360
269
  0
DICTIONARY
  5
26A
330
2C
100
AcDbDictionary
280
     1
281
     1
  3
ACAD_XREC_ROUNDTRIP
360
26B
  0
DICTIONARY
  5
26C
330
2D
100
AcDbDictionary
280
     1
281
     1
  3
ACAD_XREC_ROUNDTRIP
360
26D
  0
DICTIONARY
  5
26E
330
2E
100
AcDbDictionary
280
     1
281
     1
  3
ACAD_XREC_ROUNDTRIP
360
26F
  0
DICTIONARY
  5
274
330
31
100
AcDbDictionary
280
     1
281
     1
  3
ACAD_XREC_ROUNDTRIP
360
275
  0
DICTIONARY
  5
288
330
3B
100
AcDbDictionary
280
     1
281
     1
  3
ACAD_XREC_ROUNDTRIP
360
289
  0
DICTIONARY
  5
282
330
38
100
AcDbDictionary
280
     1
281
     1
  3
ACAD_XREC_ROUNDTRIP
360
283
  0
DICTIONARY
  5
28A
330
3C
100
AcDbDictionary
280
     1
281
     1
  3
ACAD_XREC_ROUNDTRIP
360
28B
  0
DICTIONARY
  5
278
330
33
100
AcDbDictionary
280
     1
281
     1
  3
ACAD_XREC_ROUNDTRIP
360
279
  0
DICTIONARY
  5
296
330
42
100
AcDbDictionary
280
     1
281
     1
  3
ACAD_XREC_ROUNDTRIP
360
297
  0
DICTIONARY
  5
294
330
41
100
AcDbDictionary
280
     1
281
     1
  3
ACAD_XREC_ROUNDTRIP
360
295
  0
DICTIONARY
  5
28E
330
3E
100
AcDbDictionary
280
     1
281
     1
  3
ACAD_XREC_ROUNDTRIP
360
28F
  0
DICTIONARY
  5
290
330
3F
100
AcDbDictionary
280
     1
281
     1
  3
ACAD_XREC_ROUNDTRIP
360
291
  0
DICTIONARY
  5
280
330
37
100
AcDbDictionary
280
     1
281
     1
  3
ACAD_XREC_ROUNDTRIP
360
281
  0
DICTIONARY
  5
272
330
30
100
AcDbDictionary
280
     1
281
     1
  3
ACAD_XREC_ROUNDTRIP
360
273
  0
DICTIONARY
  5
292
330
40
100
AcDbDictionary
280
     1
281
     1
  3
ACAD_XREC_ROUNDTRIP
360
293
  0
XRECORD
  5
29B
102
{ACAD_REACTORS
330
29A
102
}
330
29A
100
AcDbXrecord
280
     1
102
MATERIAL
148
0.0
149
0.0
149
0.0
 93
        0
 94
      127
282
     0
 72
     1
 77
     1
171
     1
175
     1
179
     1
273
     0
  0
XRECORD
  5
299
102
{ACAD_REACTORS
330
298
102
}
330
298
100
AcDbXrecord
280
     1
102
MATERIAL
148
0.0
149
0.0
149
0.0
 93
        0
 94
      127
282
     0
 72
     1
 77
     1
171
     1
175
     1
179
     1
273
     0
  0
XRECORD
  5
29D
102
{ACAD_REACTORS
330
29C
102
}
330
29C
100
AcDbXrecord
280
     1
102
MATERIAL
148
0.0
149
0.0
149
0.0
 93
        0
 94
      127
282
     0
 72
     1
 77
     1
171
     1
175
     1
179
     1
273
     0
  0
XRECORD
  5
2A3
102
{ACAD_REACTORS
330
2A2
102
}
330
2A2
100
AcDbXrecord
280
     1
102
ACAD_ROUNDTRIP_2010_MLEADER_STYLE
  0
CELLSTYLEMAP
  5
2A0
102
{ACAD_REACTORS
330
29E
102
}
330
29E
100
AcDbCellStyleMap
 90
        3
300
CELLSTYLE
  1
TABLEFORMAT_BEGIN
 90
        5
170
     1
 91
        0
 92
    32768
 62
   257
 93
        1
300
CONTENTFORMAT
  1
CONTENTFORMAT_BEGIN
 90
        0
 91
        0
 92
        4
 93
        0
300

 40
0.0
140
1.0
 94
        5
 62
     0
340
11
144
6.0
309
CONTENTFORMAT_END
171
     1
301
MARGIN
  1
CELLMARGIN_BEGIN
 40
1.5
 40
1.5
 40
1.5
 40
1.5
 40
1.5
 40
1.5
309
CELLMARGIN_END
 94
        6
 95
        1
302
GRIDFORMAT
  1
GRIDFORMAT_BEGIN
 90
        0
 91
        1
 62
     0
 92
       -2
340
14
 93
        0
 40
0.045
309
GRIDFORMAT_END
 95
        2
302
GRIDFORMAT
  1
GRIDFORMAT_BEGIN
 90
        0
 91
        1
 62
     0
 92
       -2
340
14
 93
        0
 40
0.045
309
GRIDFORMAT_END
 95
        4
302
GRIDFORMAT
  1
GRIDFORMAT_BEGIN
 90
        0
 91
        1
 62
     0
 92
       -2
340
14
 93
        0
 40
0.045
309
GRIDFORMAT_END
 95
        8
302
GRIDFORMAT
  1
GRIDFORMAT_BEGIN
 90
        0
 91
        1
 62
     0
 92
       -2
340
14
 93
        0
 40
0.045
309
GRIDFORMAT_END
 95
       16
302
GRIDFORMAT
  1
GRIDFORMAT_BEGIN
 90
        0
 91
        1
 62
     0
 92
       -2
340
14
 93
        0
 40
0.045
309
GRIDFORMAT_END
 95
       32
302
GRIDFORMAT
  1
GRIDFORMAT_BEGIN
 90
        0
 91
        1
 62
     0
 92
       -2
340
14
 93
        0
 40
0.045
309
GRIDFORMAT_END
309
TABLEFORMAT_END
  1
CELLSTYLE_BEGIN
 90
        1
 91
        1
300
_TITLE
309
CELLSTYLE_END
300
CELLSTYLE
  1
TABLEFORMAT_BEGIN
 90
        5
170
     1
 91
        0
 92
        0
 62
   257
 93
        1
300
CONTENTFORMAT
  1
CONTENTFORMAT_BEGIN
 90
        0
 91
        0
 92
        4
 93
        0
300

 40
0.0
140
1.0
 94
        5
 62
     0
340
11
144
4.5
309
CONTENTFORMAT_END
171
     1
301
MARGIN
  1
CELLMARGIN_BEGIN
 40
1.5
 40
1.5
 40
1.5
 40
1.5
 40
1.5
 40
1.5
309
CELLMARGIN_END
 94
        6
 95
        1
302
GRIDFORMAT
  1
GRIDFORMAT_BEGIN
 90
        0
 91
        1
 62
     0
 92
       -2
340
14
 93
        0
 40
0.045
309
GRIDFORMAT_END
 95
        2
302
GRIDFORMAT
  1
GRIDFORMAT_BEGIN
 90
        0
 91
        1
 62
     0
 92
       -2
340
14
 93
        0
 40
0.045
309
GRIDFORMAT_END
 95
        4
302
GRIDFORMAT
  1
GRIDFORMAT_BEGIN
 90
        0
 91
        1
 62
     0
 92
       -2
340
14
 93
        0
 40
0.045
309
GRIDFORMAT_END
 95
        8
302
GRIDFORMAT
  1
GRIDFORMAT_BEGIN
 90
        0
 91
        1
 62
     0
 92
       -2
340
14
 93
        0
 40
0.045
309
GRIDFORMAT_END
 95
       16
302
GRIDFORMAT
  1
GRIDFORMAT_BEGIN
 90
        0
 91
        1
 62
     0
 92
       -2
340
14
 93
        0
 40
0.045
309
GRIDFORMAT_END
 95
       32
302
GRIDFORMAT
  1
GRIDFORMAT_BEGIN
 90
        0
 91
        1
 62
     0
 92
       -2
340
14
 93
        0
 40
0.045
309
GRIDFORMAT_END
309
TABLEFORMAT_END
  1
CELLSTYLE_BEGIN
 90
        2
 91
        1
300
_HEADER
309
CELLSTYLE_END
300
CELLSTYLE
  1
TABLEFORMAT_BEGIN
 90
        5
170
     1
 91
        0
 92
        0
 62
   257
 93
        1
300
CONTENTFORMAT
  1
CONTENTFORMAT_BEGIN
 90
        0
 91
        0
 92
        4
 93
        0
300

 40
0.0
140
1.0
 94
        2
 62
     0
340
11
144
4.5
309
CONTENTFORMAT_END
171
     1
301
MARGIN
  1
CELLMARGIN_BEGIN
 40
1.5
 40
1.5
 40
1.5
 40
1.5
 40
1.5
 40
1.5
309
CELLMARGIN_END
 94
        6
 95
        1
302
GRIDFORMAT
  1
GRIDFORMAT_BEGIN
 90
        0
 91
        1
 62
     0
 92
       -2
340
14
 93
        0
 40
0.045
309
GRIDFORMAT_END
 95
        2
302
GRIDFORMAT
  1
GRIDFORMAT_BEGIN
 90
        0
 91
        1
 62
     0
 92
       -2
340
14
 93
        0
 40
0.045
309
GRIDFORMAT_END
 95
        4
302
GRIDFORMAT
  1
GRIDFORMAT_BEGIN
 90
        0
 91
        1
 62
     0
 92
       -2
340
14
 93
        0
 40
0.045
309
GRIDFORMAT_END
 95
        8
302
GRIDFORMAT
  1
GRIDFORMAT_BEGIN
 90
        0
 91
        1
 62
     0
 92
       -2
340
14
 93
        0
 40
0.045
309
GRIDFORMAT_END
 95
       16
302
GRIDFORMAT
  1
GRIDFORMAT_BEGIN
 90
        0
 91
        1
 62
     0
 92
       -2
340
14
 93
        0
 40
0.045
309
GRIDFORMAT_END
 95
       32
302
GRIDFORMAT
  1
GRIDFORMAT_BEGIN
 90
        0
 91
        1
 62
     0
 92
       -2
340
14
 93
        0
 40
0.045
309
GRIDFORMAT_END
309
TABLEFORMAT_END
  1
CELLSTYLE_BEGIN
 90
        3
 91
        2
300
_DATA
309
CELLSTYLE_END
  0
XRECORD
  5
29F
102
{ACAD_REACTORS
330
29E
102
}
330
29E
100
AcDbXrecord
280
     1
102
ACAD_ROUNDTRIP_PRE2007_TABLESTYLE
 90
        4
 91
        0
  1

 92
        4
 93
        0
  2

 94
        4
 95
        0
  3

  0
XRECORD
  5
271
102
{ACAD_REACTORS
330
270
102
}
330
270
100
AcDbXrecord
280
     1
102
RTVSPropertyOp0
 70
     1
102
RTVSPropertyOp1
 70
     1
102
RTVSPropertyOp2
 70
     1
102
RTVSPropertyOp3
 70
     1
102
RTVSPropertyOp4
 70
     1
102
RTVSPropertyOp5
 70
     1
102
RTVSPropertyOp6
 70
     1
102
RTVSPropertyOp7
 70
     1
102
RTVSPropertyOp8
 70
     1
102
RTVSPropertyOp9
 70
     1
102
RTVSPropertyOp10
 70
     1
102
RTVSPropertyOp11
 70
     1
102
RTVSPropertyOp12
 70
     1
102
RTVSPropertyOp13
 70
     1
102
RTVSPropertyOp14
 70
     1
102
RTVSPropertyOp15
 70
     1
102
RTVSPropertyOp16
 70
     1
102
RTVSPropertyOp17
 70
     1
102
RTVSPropertyOp18
 70
     1
102
RTVSPropertyOp19
 70
     1
102
RTVSPropertyOp20
 70
     1
102
RTVSPropertyOp21
 70
     1
102
RTVSPropertyOp22
 70
     1
102
RTVSPropertyOp23
 70
     1
102
RTVSPropertyOp24
 70
     1
102
RTVSPropertyOp25
 70
     1
102
RTVSPropertyOp26
 70
     1
102
RTVSPropertyOp27
 70
     1
102
RTVSPropertyOp28
 70
     1
102
RTVSPropertyOp29
 70
     1
102
RTVSPropertyOp30
 70
     1
102
RTVSPropertyOp31
 70
     1
102
RTVSPropertyOp32
 70
     1
102
RTVSPropertyOp33
 70
     1
102
RTVSPropertyOp34
 70
     1
102
RTVSPropertyOp35
 70
     1
102
RTVSPropertyOp36
 70
     1
102
RTVSPropertyOp37
 70
     1
102
RTVSPropertyOp38
 70
     1
102
RTVSPropertyOp39
 70
     1
102
RTVSPropertyOp40
 70
     1
102
RTVSPropertyOp41
 70
     1
102
RTVSPropertyOp42
 70
     1
102
RTVSPropertyOp43
 70
     1
102
RTVSPropertyOp44
 70
     1
102
RTVSPropertyOp45
 70
     1
102
RTVSPropertyOp46
 70
     1
102
RTVSPropertyOp47
 70
     1
102
RTVSPropertyOp48
 70
     1
102
RTVSPropertyOp49
 70
     1
102
RTVSPropertyOp50
 70
     1
102
RTVSPropertyOp51
 70
     0
102
RTVSPropertyOp52
 70
     0
102
RTVSPropertyOp53
 70
     1
102
RTVSPropertyOp54
 70
     1
102
RTVSPropertyOp55
 70
     1
102
RTVSPropertyOp56
 70
     1
102
RTVSPropertyOp57
 70
     1
102
RTVSPost2010Prop28
280
     1
102
RTVSPost2010PropOp28
 70
     1
102
RTVSPost2010Prop29
280
     1
102
RTVSPost2010PropOp29
 70
     1
102
RTVSPost2010Prop30
280
     0
102
RTVSPost2010PropOp30
 70
     1
102
RTVSPost2010Prop31
280
     0
102
RTVSPost2010PropOp31
 70
     1
102
RTVSPost2010Prop32
280
     0
102
RTVSPost2010PropOp32
 70
     1
102
RTVSPost2010Prop33
280
     0
102
RTVSPost2010PropOp33
 70
     1
102
RTVSPost2010Prop34
280
     0
102
RTVSPost2010PropOp34
 70
     1
102
RTVSPost2010Prop35
280
     0
102
RTVSPost2010PropOp35
 70
     1
102
RTVSPost2010Prop36
280
     0
102
RTVSPost2010PropOp36
 70
     1
102
RTVSPost2010Prop37
 90
       50
102
RTVSPost2010PropOp37
 70
     1
102
RTVSPost2010Prop38
140
0.0
102
RTVSPost2010PropOp38
 70
     1
102
RTVSPost2010Prop39
140
1.0
102
RTVSPost2010PropOp39
 70
     1
102
RTVSPost2010Prop40
 90
        0
102
RTVSPost2010PropOp40
 70
     1
102
RTVSPost2010Prop41ColorIndex
 90
       18
102
RTVSPost2010Prop41ColorRGB
 90
        0
102
RTVSPost2010PropOp41
 70
     1
102
RTVSPost2010Prop42
 90
       50
102
RTVSPost2010PropOp42
 70
     1
102
RTVSPost2010Prop43
 90
        3
102
RTVSPost2010PropOp43
 70
     1
102
RTVSPost2010Prop44ColorIndex
 90
        5
102
RTVSPost2010Prop44ColorRGB
 90
      255
102
RTVSPost2010PropOp44
 70
     1
102
RTVSPost2010Prop45
280
     0
102
RTVSPost2010PropOp45
 70
     1
102
RTVSPost2010Prop46
 90
       50
102
RTVSPost2010PropOp46
 70
     1
102
RTVSPost2010Prop47
 90
       50
102
RTVSPost2010PropOp47
 70
     1
102
RTVSPost2010Prop48
 90
       50
102
RTVSPost2010PropOp48
 70
     1
102
RTVSPost2010Prop49
280
     0
102
RTVSPost2010PropOp49
 70
     1
102
RTVSPost2010Prop50
 90
       50
102
RTVSPost2010PropOp50
 70
     1
102
RTVSPost2010Prop51ColorIndex
 90
      256
102
RTVSPost2010Prop51ColorRGB
 90
-16777216
102
RTVSPost2010PropOp51
 70
     0
102
RTVSPost2010Prop52
140
1.0
102
RTVSPost2010PropOp52
 70
     0
102
RTVSPost2010Prop53
 90
        2
102
RTVSPost2010PropOp53
 70
     1
102
RTVSPost2010Prop54
  1
strokes_ogs.tif
102
RTVSPost2010PropOp54
 70
     1
102
RTVSPost2010Prop55
280
     0
102
RTVSPost2010PropOp55
 70
     1
102
RTVSPost2010Prop56
140
1.0
102
RTVSPost2010PropOp56
 70
     1
102
RTVSPost2010Prop57
140
1.0
102
RTVSPost2010PropOp57
 70
     1
  0
XRECORD
  5
277
102
{ACAD_REACTORS
330
276
102
}
330
276
100
AcDbXrecord
280
     1
102
RTVSPropertyOp0
 70
     1
102
RTVSPropertyOp1
 70
     1
102
RTVSPropertyOp2
 70
     1
102
RTVSPropertyOp3
 70
     1
102
RTVSPropertyOp4
 70
     1
102
RTVSPropertyOp5
 70
     1
102
RTVSPropertyOp6
 70
     1
102
RTVSPropertyOp7
 70
     1
102
RTVSPropertyOp8
 70
     1
102
RTVSPropertyOp9
 70
     1
102
RTVSPropertyOp10
 70
     1
102
RTVSPropertyOp11
 70
     1
102
RTVSPropertyOp12
 70
     1
102
RTVSPropertyOp13
 70
     1
102
RTVSPropertyOp14
 70
     1
102
RTVSPropertyOp15
 70
     1
102
RTVSPropertyOp16
 70
     1
102
RTVSPropertyOp17
 70
     1
102
RTVSPropertyOp18
 70
     1
102
RTVSPropertyOp19
 70
     1
102
RTVSPropertyOp20
 70
     1
102
RTVSPropertyOp21
 70
     1
102
RTVSPropertyOp22
 70
     1
102
RTVSPropertyOp23
 70
     1
102
RTVSPropertyOp24
 70
     1
102
RTVSPropertyOp25
 70
     1
102
RTVSPropertyOp26
 70
     1
102
RTVSPropertyOp27
 70
     1
102
RTVSPropertyOp28
 70
     1
102
RTVSPropertyOp29
 70
     1
102
RTVSPropertyOp30
 70
     1
102
RTVSPropertyOp31
 70
     1
102
RTVSPropertyOp32
 70
     1
102
RTVSPropertyOp33
 70
     1
102
RTVSPropertyOp34
 70
     1
102
RTVSPropertyOp35
 70
     1
102
RTVSPropertyOp36
 70
     1
102
RTVSPropertyOp37
 70
     1
102
RTVSPropertyOp38
 70
     1
102
RTVSPropertyOp39
 70
     1
102
RTVSPropertyOp40
 70
     1
102
RTVSPropertyOp41
 70
     1
102
RTVSPropertyOp42
 70
     1
102
RTVSPropertyOp43
 70
     1
102
RTVSPropertyOp44
 70
     1
102
RTVSPropertyOp45
 70
     1
102
RTVSPropertyOp46
 70
     1
102
RTVSPropertyOp47
 70
     1
102
RTVSPropertyOp48
 70
     1
102
RTVSPropertyOp49
 70
     1
102
RTVSPropertyOp50
 70
     1
102
RTVSPropertyOp51
 70
     0
102
RTVSPropertyOp52
 70
     0
102
RTVSPropertyOp53
 70
     1
102
RTVSPropertyOp54
 70
     1
102
RTVSPropertyOp55
 70
     1
102
RTVSPropertyOp56
 70
     1
102
RTVSPropertyOp57
 70
     1
102
RTVSPost2010Prop28
280
     0
102
RTVSPost2010PropOp28
 70
     1
102
RTVSPost2010Prop29
280
     1
102
RTVSPost2010PropOp29
 70
     1
102
RTVSPost2010Prop30
280
     1
102
RTVSPost2010PropOp30
 70
     1
102
RTVSPost2010Prop31
280
     0
102
RTVSPost2010PropOp31
 70
     1
102
RTVSPost2010Prop32
280
     0
102
RTVSPost2010PropOp32
 70
     1
102
RTVSPost2010Prop33
280
     0
102
RTVSPost2010PropOp33
 70
     1
102
RTVSPost2010Prop34
280
     0
102
RTVSPost2010PropOp34
 70
     1
102
RTVSPost2010Prop35
280
     0
102
RTVSPost2010PropOp35
 70
     1
102
RTVSPost2010Prop36
280
     0
102
RTVSPost2010PropOp36
 70
     1
102
RTVSPost2010Prop37
 90
       50
102
RTVSPost2010PropOp37
 70
     1
102
RTVSPost2010Prop38
140
0.0
102
RTVSPost2010PropOp38
 70
     1
102
RTVSPost2010Prop39
140
1.0
102
RTVSPost2010PropOp39
 70
     1
102
RTVSPost2010Prop40
 90
        0
102
RTVSPost2010PropOp40
 70
     1
102
RTVSPost2010Prop41ColorIndex
 90
       18
102
RTVSPost2010Prop41ColorRGB
 90
        0
102
RTVSPost2010PropOp41
 70
     1
102
RTVSPost2010Prop42
 90
       50
102
RTVSPost2010PropOp42
 70
     1
102
RTVSPost2010Prop43
 90
        3
102
RTVSPost2010PropOp43
 70
     1
102
RTVSPost2010Prop44ColorIndex
 90
        5
102
RTVSPost2010Prop44ColorRGB
 90
      255
102
RTVSPost2010PropOp44
 70
     1
102
RTVSPost2010Prop45
280
     0
102
RTVSPost2010PropOp45
 70
     1
102
RTVSPost2010Prop46
 90
       50
102
RTVSPost2010PropOp46
 70
     1
102
RTVSPost2010Prop47
 90
       50
102
RTVSPost2010PropOp47
 70
     1
102
RTVSPost2010Prop48
 90
       50
102
RTVSPost2010PropOp48
 70
     1
102
RTVSPost2010Prop49
280
     0
102
RTVSPost2010PropOp49
 70
     1
102
RTVSPost2010Prop50
 90
       50
102
RTVSPost2010PropOp50
 70
     1
102
RTVSPost2010Prop51ColorIndex
 90
      256
102
RTVSPost2010Prop51ColorRGB
 90
-16777216
102
RTVSPost2010PropOp51
 70
     0
102
RTVSPost2010Prop52
140
1.0
102
RTVSPost2010PropOp52
 70
     0
102
RTVSPost2010Prop53
 90
        2
102
RTVSPost2010PropOp53
 70
     1
102
RTVSPost2010Prop54
  1
strokes_ogs.tif
102
RTVSPost2010PropOp54
 70
     1
102
RTVSPost2010Prop55
280
     0
102
RTVSPost2010PropOp55
 70
     1
102
RTVSPost2010Prop56
140
1.0
102
RTVSPost2010PropOp56
 70
     1
102
RTVSPost2010Prop57
140
1.0
102
RTVSPost2010PropOp57
 70
     1
  0
XRECORD
  5
27F
102
{ACAD_REACTORS
330
27E
102
}
330
27E
100
AcDbXrecord
280
     1
102
RTVSPropertyOp0
 70
     1
102
RTVSPropertyOp1
 70
     1
102
RTVSPropertyOp2
 70
     1
102
RTVSPropertyOp3
 70
     1
102
RTVSPropertyOp4
 70
     1
102
RTVSPropertyOp5
 70
     1
102
RTVSPropertyOp6
 70
     1
102
RTVSPropertyOp7
 70
     1
102
RTVSPropertyOp8
 70
     1
102
RTVSPropertyOp9
 70
     1
102
RTVSPropertyOp10
 70
     1
102
RTVSPropertyOp11
 70
     1
102
RTVSPropertyOp12
 70
     1
102
RTVSPropertyOp13
 70
     1
102
RTVSPropertyOp14
 70
     1
102
RTVSPropertyOp15
 70
     1
102
RTVSPropertyOp16
 70
     1
102
RTVSPropertyOp17
 70
     1
102
RTVSPropertyOp18
 70
     1
102
RTVSPropertyOp19
 70
     1
102
RTVSPropertyOp20
 70
     1
102
RTVSPropertyOp21
 70
     1
102
RTVSPropertyOp22
 70
     1
102
RTVSPropertyOp23
 70
     1
102
RTVSPropertyOp24
 70
     1
102
RTVSPropertyOp25
 70
     1
102
RTVSPropertyOp26
 70
     1
102
RTVSPropertyOp27
 70
     1
102
RTVSPropertyOp28
 70
     1
102
RTVSPropertyOp29
 70
     1
102
RTVSPropertyOp30
 70
     1
102
RTVSPropertyOp31
 70
     1
102
RTVSPropertyOp32
 70
     1
102
RTVSPropertyOp33
 70
     1
102
RTVSPropertyOp34
 70
     1
102
RTVSPropertyOp35
 70
     1
102
RTVSPropertyOp36
 70
     1
102
RTVSPropertyOp37
 70
     1
102
RTVSPropertyOp38
 70
     1
102
RTVSPropertyOp39
 70
     1
102
RTVSPropertyOp40
 70
     1
102
RTVSPropertyOp41
 70
     1
102
RTVSPropertyOp42
 70
     1
102
RTVSPropertyOp43
 70
     1
102
RTVSPropertyOp44
 70
     1
102
RTVSPropertyOp45
 70
     1
102
RTVSPropertyOp46
 70
     1
102
RTVSPropertyOp47
 70
     1
102
RTVSPropertyOp48
 70
     1
102
RTVSPropertyOp49
 70
     1
102
RTVSPropertyOp50
 70
     1
102
RTVSPropertyOp51
 70
     0
102
RTVSPropertyOp52
 70
     0
102
RTVSPropertyOp53
 70
     1
102
RTVSPropertyOp54
 70
     1
102
RTVSPropertyOp55
 70
     1
102
RTVSPropertyOp56
 70
     1
102
RTVSPropertyOp57
 70
     1
102
RTVSPost2010Prop28
280
     0
102
RTVSPost2010PropOp28
 70
     1
102
RTVSPost2010Prop29
280
     1
102
RTVSPost2010PropOp29
 70
     1
102
RTVSPost2010Prop30
280
     1
102
RTVSPost2010PropOp30
 70
     1
102
RTVSPost2010Prop31
280
     0
102
RTVSPost2010PropOp31
 70
     1
102
RTVSPost2010Prop32
280
     0
102
RTVSPost2010PropOp32
 70
     1
102
RTVSPost2010Prop33
280
     0
102
RTVSPost2010PropOp33
 70
     1
102
RTVSPost2010Prop34
280
     0
102
RTVSPost2010PropOp34
 70
     1
102
RTVSPost2010Prop35
280
     0
102
RTVSPost2010PropOp35
 70
     1
102
RTVSPost2010Prop36
280
     0
102
RTVSPost2010PropOp36
 70
     1
102
RTVSPost2010Prop37
 90
       50
102
RTVSPost2010PropOp37
 70
     1
102
RTVSPost2010Prop38
140
0.0
102
RTVSPost2010PropOp38
 70
     1
102
RTVSPost2010Prop39
140
1.0
102
RTVSPost2010PropOp39
 70
     1
102
RTVSPost2010Prop40
 90
        0
102
RTVSPost2010PropOp40
 70
     1
102
RTVSPost2010Prop41ColorIndex
 90
       18
102
RTVSPost2010Prop41ColorRGB
 90
        0
102
RTVSPost2010PropOp41
 70
     1
102
RTVSPost2010Prop42
 90
       50
102
RTVSPost2010PropOp42
 70
     1
102
RTVSPost2010Prop43
 90
        3
102
RTVSPost2010PropOp43
 70
     1
102
RTVSPost2010Prop44ColorIndex
 90
        5
102
RTVSPost2010Prop44ColorRGB
 90
      255
102
RTVSPost2010PropOp44
 70
     1
102
RTVSPost2010Prop45
280
     0
102
RTVSPost2010PropOp45
 70
     1
102
RTVSPost2010Prop46
 90
       50
102
RTVSPost2010PropOp46
 70
     1
102
RTVSPost2010Prop47
 90
       50
102
RTVSPost2010PropOp47
 70
     1
102
RTVSPost2010Prop48
 90
       50
102
RTVSPost2010PropOp48
 70
     1
102
RTVSPost2010Prop49
280
     0
102
RTVSPost2010PropOp49
 70
     1
102
RTVSPost2010Prop50
 90
       50
102
RTVSPost2010PropOp50
 70
     1
102
RTVSPost2010Prop51ColorIndex
 90
      256
102
RTVSPost2010Prop51ColorRGB
 90
-16777216
102
RTVSPost2010PropOp51
 70
     0
102
RTVSPost2010Prop52
140
1.0
102
RTVSPost2010PropOp52
 70
     0
102
RTVSPost2010Prop53
 90
        2
102
RTVSPost2010PropOp53
 70
     1
102
RTVSPost2010Prop54
  1
strokes_ogs.tif
102
RTVSPost2010PropOp54
 70
     1
102
RTVSPost2010Prop55
280
     0
102
RTVSPost2010PropOp55
 70
     1
102
RTVSPost2010Prop56
140
1.0
102
RTVSPost2010PropOp56
 70
     1
102
RTVSPost2010Prop57
140
1.0
102
RTVSPost2010PropOp57
 70
     1
  0
XRECORD
  5
287
102
{ACAD_REACTORS
330
286
102
}
330
286
100
AcDbXrecord
280
     1
102
RTVSPropertyOp0
 70
     1
102
RTVSPropertyOp1
 70
     1
102
RTVSPropertyOp2
 70
     1
102
RTVSPropertyOp3
 70
     1
102
RTVSPropertyOp4
 70
     1
102
RTVSPropertyOp5
 70
     1
102
RTVSPropertyOp6
 70
     1
102
RTVSPropertyOp7
 70
     1
102
RTVSPropertyOp8
 70
     1
102
RTVSPropertyOp9
 70
     1
102
RTVSPropertyOp10
 70
     1
102
RTVSPropertyOp11
 70
     1
102
RTVSPropertyOp12
 70
     1
102
RTVSPropertyOp13
 70
     1
102
RTVSPropertyOp14
 70
     1
102
RTVSPropertyOp15
 70
     1
102
RTVSPropertyOp16
 70
     1
102
RTVSPropertyOp17
 70
     1
102
RTVSPropertyOp18
 70
     1
102
RTVSPropertyOp19
 70
     1
102
RTVSPropertyOp20
 70
     1
102
RTVSPropertyOp21
 70
     1
102
RTVSPropertyOp22
 70
     1
102
RTVSPropertyOp23
 70
     1
102
RTVSPropertyOp24
 70
     1
102
RTVSPropertyOp25
 70
     1
102
RTVSPropertyOp26
 70
     1
102
RTVSPropertyOp27
 70
     1
102
RTVSPropertyOp28
 70
     1
102
RTVSPropertyOp29
 70
     1
102
RTVSPropertyOp30
 70
     1
102
RTVSPropertyOp31
 70
     1
102
RTVSPropertyOp32
 70
     1
102
RTVSPropertyOp33
 70
     1
102
RTVSPropertyOp34
 70
     1
102
RTVSPropertyOp35
 70
     1
102
RTVSPropertyOp36
 70
     1
102
RTVSPropertyOp37
 70
     1
102
RTVSPropertyOp38
 70
     1
102
RTVSPropertyOp39
 70
     1
102
RTVSPropertyOp40
 70
     1
102
RTVSPropertyOp41
 70
     1
102
RTVSPropertyOp42
 70
     1
102
RTVSPropertyOp43
 70
     1
102
RTVSPropertyOp44
 70
     1
102
RTVSPropertyOp45
 70
     1
102
RTVSPropertyOp46
 70
     1
102
RTVSPropertyOp47
 70
     1
102
RTVSPropertyOp48
 70
     1
102
RTVSPropertyOp49
 70
     1
102
RTVSPropertyOp50
 70
     1
102
RTVSPropertyOp51
 70
     0
102
RTVSPropertyOp52
 70
     0
102
RTVSPropertyOp53
 70
     1
102
RTVSPropertyOp54
 70
     1
102
RTVSPropertyOp55
 70
     1
102
RTVSPropertyOp56
 70
     1
102
RTVSPropertyOp57
 70
     1
102
RTVSPost2010Prop28
280
     0
102
RTVSPost2010PropOp28
 70
     1
102
RTVSPost2010Prop29
280
     1
102
RTVSPost2010PropOp29
 70
     1
102
RTVSPost2010Prop30
280
     1
102
RTVSPost2010PropOp30
 70
     1
102
RTVSPost2010Prop31
280
     0
102
RTVSPost2010PropOp31
 70
     1
102
RTVSPost2010Prop32
280
     0
102
RTVSPost2010PropOp32
 70
     1
102
RTVSPost2010Prop33
280
     0
102
RTVSPost2010PropOp33
 70
     1
102
RTVSPost2010Prop34
280
     0
102
RTVSPost2010PropOp34
 70
     1
102
RTVSPost2010Prop35
280
     0
102
RTVSPost2010PropOp35
 70
     1
102
RTVSPost2010Prop36
280
     0
102
RTVSPost2010PropOp36
 70
     1
102
RTVSPost2010Prop37
 90
       50
102
RTVSPost2010PropOp37
 70
     1
102
RTVSPost2010Prop38
140
0.0
102
RTVSPost2010PropOp38
 70
     1
102
RTVSPost2010Prop39
140
1.0
102
RTVSPost2010PropOp39
 70
     1
102
RTVSPost2010Prop40
 90
        0
102
RTVSPost2010PropOp40
 70
     1
102
RTVSPost2010Prop41ColorIndex
 90
       18
102
RTVSPost2010Prop41ColorRGB
 90
        0
102
RTVSPost2010PropOp41
 70
     1
102
RTVSPost2010Prop42
 90
       50
102
RTVSPost2010PropOp42
 70
     1
102
RTVSPost2010Prop43
 90
        3
102
RTVSPost2010PropOp43
 70
     1
102
RTVSPost2010Prop44ColorIndex
 90
        5
102
RTVSPost2010Prop44ColorRGB
 90
      255
102
RTVSPost2010PropOp44
 70
     1
102
RTVSPost2010Prop45
280
     0
102
RTVSPost2010PropOp45
 70
     1
102
RTVSPost2010Prop46
 90
       50
102
RTVSPost2010PropOp46
 70
     1
102
RTVSPost2010Prop47
 90
       50
102
RTVSPost2010PropOp47
 70
     1
102
RTVSPost2010Prop48
 90
       50
102
RTVSPost2010PropOp48
 70
     1
102
RTVSPost2010Prop49
280
     0
102
RTVSPost2010PropOp49
 70
     1
102
RTVSPost2010Prop50
 90
       50
102
RTVSPost2010PropOp50
 70
     1
102
RTVSPost2010Prop51ColorIndex
 90
      256
102
RTVSPost2010Prop51ColorRGB
 90
-16777216
102
RTVSPost2010PropOp51
 70
     0
102
RTVSPost2010Prop52
140
1.0
102
RTVSPost2010PropOp52
 70
     0
102
RTVSPost2010Prop53
 90
        2
102
RTVSPost2010PropOp53
 70
     1
102
RTVSPost2010Prop54
  1
strokes_ogs.tif
102
RTVSPost2010PropOp54
 70
     1
102
RTVSPost2010Prop55
280
     0
102
RTVSPost2010PropOp55
 70
     1
102
RTVSPost2010Prop56
140
1.0
102
RTVSPost2010PropOp56
 70
     1
102
RTVSPost2010Prop57
140
1.0
102
RTVSPost2010PropOp57
 70
     1
  0
XRECORD
  5
27B
102
{ACAD_REACTORS
330
27A
102
}
330
27A
100
AcDbXrecord
280
     1
102
RTVSPropertyOp0
 70
     1
102
RTVSPropertyOp1
 70
     1
102
RTVSPropertyOp2
 70
     1
102
RTVSPropertyOp3
 70
     1
102
RTVSPropertyOp4
 70
     1
102
RTVSPropertyOp5
 70
     1
102
RTVSPropertyOp6
 70
     1
102
RTVSPropertyOp7
 70
     1
102
RTVSPropertyOp8
 70
     1
102
RTVSPropertyOp9
 70
     1
102
RTVSPropertyOp10
 70
     1
102
RTVSPropertyOp11
 70
     1
102
RTVSPropertyOp12
 70
     1
102
RTVSPropertyOp13
 70
     1
102
RTVSPropertyOp14
 70
     1
102
RTVSPropertyOp15
 70
     1
102
RTVSPropertyOp16
 70
     1
102
RTVSPropertyOp17
 70
     1
102
RTVSPropertyOp18
 70
     1
102
RTVSPropertyOp19
 70
     1
102
RTVSPropertyOp20
 70
     1
102
RTVSPropertyOp21
 70
     1
102
RTVSPropertyOp22
 70
     1
102
RTVSPropertyOp23
 70
     1
102
RTVSPropertyOp24
 70
     1
102
RTVSPropertyOp25
 70
     1
102
RTVSPropertyOp26
 70
     1
102
RTVSPropertyOp27
 70
     1
102
RTVSPropertyOp28
 70
     1
102
RTVSPropertyOp29
 70
     1
102
RTVSPropertyOp30
 70
     1
102
RTVSPropertyOp31
 70
     1
102
RTVSPropertyOp32
 70
     1
102
RTVSPropertyOp33
 70
     1
102
RTVSPropertyOp34
 70
     1
102
RTVSPropertyOp35
 70
     1
102
RTVSPropertyOp36
 70
     1
102
RTVSPropertyOp37
 70
     1
102
RTVSPropertyOp38
 70
     1
102
RTVSPropertyOp39
 70
     1
102
RTVSPropertyOp40
 70
     1
102
RTVSPropertyOp41
 70
     1
102
RTVSPropertyOp42
 70
     1
102
RTVSPropertyOp43
 70
     1
102
RTVSPropertyOp44
 70
     1
102
RTVSPropertyOp45
 70
     1
102
RTVSPropertyOp46
 70
     1
102
RTVSPropertyOp47
 70
     1
102
RTVSPropertyOp48
 70
     1
102
RTVSPropertyOp49
 70
     1
102
RTVSPropertyOp50
 70
     1
102
RTVSPropertyOp51
 70
     0
102
RTVSPropertyOp52
 70
     0
102
RTVSPropertyOp53
 70
     1
102
RTVSPropertyOp54
 70
     1
102
RTVSPropertyOp55
 70
     1
102
RTVSPropertyOp56
 70
     1
102
RTVSPropertyOp57
 70
     1
102
RTVSPost2010Prop28
280
     0
102
RTVSPost2010PropOp28
 70
     1
102
RTVSPost2010Prop29
280
     1
102
RTVSPost2010PropOp29
 70
     1
102
RTVSPost2010Prop30
280
     1
102
RTVSPost2010PropOp30
 70
     1
102
RTVSPost2010Prop31
280
     0
102
RTVSPost2010PropOp31
 70
     1
102
RTVSPost2010Prop32
280
     0
102
RTVSPost2010PropOp32
 70
     1
102
RTVSPost2010Prop33
280
     0
102
RTVSPost2010PropOp33
 70
     1
102
RTVSPost2010Prop34
280
     0
102
RTVSPost2010PropOp34
 70
     1
102
RTVSPost2010Prop35
280
     0
102
RTVSPost2010PropOp35
 70
     1
102
RTVSPost2010Prop36
280
     0
102
RTVSPost2010PropOp36
 70
     1
102
RTVSPost2010Prop37
 90
       50
102
RTVSPost2010PropOp37
 70
     1
102
RTVSPost2010Prop38
140
0.0
102
RTVSPost2010PropOp38
 70
     1
102
RTVSPost2010Prop39
140
1.0
102
RTVSPost2010PropOp39
 70
     1
102
RTVSPost2010Prop40
 90
        0
102
RTVSPost2010PropOp40
 70
     1
102
RTVSPost2010Prop41ColorIndex
 90
       18
102
RTVSPost2010Prop41ColorRGB
 90
        0
102
RTVSPost2010PropOp41
 70
     1
102
RTVSPost2010Prop42
 90
       50
102
RTVSPost2010PropOp42
 70
     1
102
RTVSPost2010Prop43
 90
        3
102
RTVSPost2010PropOp43
 70
     1
102
RTVSPost2010Prop44ColorIndex
 90
        5
102
RTVSPost2010Prop44ColorRGB
 90
      255
102
RTVSPost2010PropOp44
 70
     1
102
RTVSPost2010Prop45
280
     0
102
RTVSPost2010PropOp45
 70
     1
102
RTVSPost2010Prop46
 90
       50
102
RTVSPost2010PropOp46
 70
     1
102
RTVSPost2010Prop47
 90
       50
102
RTVSPost2010PropOp47
 70
     1
102
RTVSPost2010Prop48
 90
       50
102
RTVSPost2010PropOp48
 70
     1
102
RTVSPost2010Prop49
280
     0
102
RTVSPost2010PropOp49
 70
     1
102
RTVSPost2010Prop50
 90
       50
102
RTVSPost2010PropOp50
 70
     1
102
RTVSPost2010Prop51ColorIndex
 90
      256
102
RTVSPost2010Prop51ColorRGB
 90
-16777216
102
RTVSPost2010PropOp51
 70
     0
102
RTVSPost2010Prop52
140
1.0
102
RTVSPost2010PropOp52
 70
     0
102
RTVSPost2010Prop53
 90
        2
102
RTVSPost2010PropOp53
 70
     1
102
RTVSPost2010Prop54
  1
strokes_ogs.tif
102
RTVSPost2010PropOp54
 70
     1
102
RTVSPost2010Prop55
280
     0
102
RTVSPost2010PropOp55
 70
     1
102
RTVSPost2010Prop56
140
1.0
102
RTVSPost2010PropOp56
 70
     1
102
RTVSPost2010Prop57
140
1.0
102
RTVSPost2010PropOp57
 70
     1
  0
XRECORD
  5
27D
102
{ACAD_REACTORS
330
27C
102
}
330
27C
100
AcDbXrecord
280
     1
102
RTVSPropertyOp0
 70
     1
102
RTVSPropertyOp1
 70
     1
102
RTVSPropertyOp2
 70
     1
102
RTVSPropertyOp3
 70
     1
102
RTVSPropertyOp4
 70
     1
102
RTVSPropertyOp5
 70
     1
102
RTVSPropertyOp6
 70
     1
102
RTVSPropertyOp7
 70
     1
102
RTVSPropertyOp8
 70
     1
102
RTVSPropertyOp9
 70
     1
102
RTVSPropertyOp10
 70
     1
102
RTVSPropertyOp11
 70
     1
102
RTVSPropertyOp12
 70
     1
102
RTVSPropertyOp13
 70
     1
102
RTVSPropertyOp14
 70
     1
102
RTVSPropertyOp15
 70
     1
102
RTVSPropertyOp16
 70
     1
102
RTVSPropertyOp17
 70
     1
102
RTVSPropertyOp18
 70
     1
102
RTVSPropertyOp19
 70
     1
102
RTVSPropertyOp20
 70
     1
102
RTVSPropertyOp21
 70
     1
102
RTVSPropertyOp22
 70
     1
102
RTVSPropertyOp23
 70
     1
102
RTVSPropertyOp24
 70
     1
102
RTVSPropertyOp25
 70
     1
102
RTVSPropertyOp26
 70
     1
102
RTVSPropertyOp27
 70
     1
102
RTVSPropertyOp28
 70
     1
102
RTVSPropertyOp29
 70
     1
102
RTVSPropertyOp30
 70
     1
102
RTVSPropertyOp31
 70
     1
102
RTVSPropertyOp32
 70
     1
102
RTVSPropertyOp33
 70
     1
102
RTVSPropertyOp34
 70
     1
102
RTVSPropertyOp35
 70
     1
102
RTVSPropertyOp36
 70
     1
102
RTVSPropertyOp37
 70
     1
102
RTVSPropertyOp38
 70
     1
102
RTVSPropertyOp39
 70
     1
102
RTVSPropertyOp40
 70
     1
102
RTVSPropertyOp41
 70
     1
102
RTVSPropertyOp42
 70
     1
102
RTVSPropertyOp43
 70
     1
102
RTVSPropertyOp44
 70
     1
102
RTVSPropertyOp45
 70
     1
102
RTVSPropertyOp46
 70
     1
102
RTVSPropertyOp47
 70
     1
102
RTVSPropertyOp48
 70
     1
102
RTVSPropertyOp49
 70
     1
102
RTVSPropertyOp50
 70
     1
102
RTVSPropertyOp51
 70
     0
102
RTVSPropertyOp52
 70
     0
102
RTVSPropertyOp53
 70
     1
102
RTVSPropertyOp54
 70
     1
102
RTVSPropertyOp55
 70
     1
102
RTVSPropertyOp56
 70
     1
102
RTVSPropertyOp57
 70
     1
102
RTVSPost2010Prop28
280
     0
102
RTVSPost2010PropOp28
 70
     1
102
RTVSPost2010Prop29
280
     1
102
RTVSPost2010PropOp29
 70
     1
102
RTVSPost2010Prop30
280
     1
102
RTVSPost2010PropOp30
 70
     1
102
RTVSPost2010Prop31
280
     0
102
RTVSPost2010PropOp31
 70
     1
102
RTVSPost2010Prop32
280
     0
102
RTVSPost2010PropOp32
 70
     1
102
RTVSPost2010Prop33
280
     0
102
RTVSPost2010PropOp33
 70
     1
102
RTVSPost2010Prop34
280
     0
102
RTVSPost2010PropOp34
 70
     1
102
RTVSPost2010Prop35
280
     0
102
RTVSPost2010PropOp35
 70
     1
102
RTVSPost2010Prop36
280
     0
102
RTVSPost2010PropOp36
 70
     1
102
RTVSPost2010Prop37
 90
       50
102
RTVSPost2010PropOp37
 70
     1
102
RTVSPost2010Prop38
140
0.0
102
RTVSPost2010PropOp38
 70
     1
102
RTVSPost2010Prop39
140
1.0
102
RTVSPost2010PropOp39
 70
     1
102
RTVSPost2010Prop40
 90
        0
102
RTVSPost2010PropOp40
 70
     1
102
RTVSPost2010Prop41ColorIndex
 90
       18
102
RTVSPost2010Prop41ColorRGB
 90
        0
102
RTVSPost2010PropOp41
 70
     1
102
RTVSPost2010Prop42
 90
       50
102
RTVSPost2010PropOp42
 70
     1
102
RTVSPost2010Prop43
 90
        3
102
RTVSPost2010PropOp43
 70
     1
102
RTVSPost2010Prop44ColorIndex
 90
        5
102
RTVSPost2010Prop44ColorRGB
 90
      255
102
RTVSPost2010PropOp44
 70
     1
102
RTVSPost2010Prop45
280
     0
102
RTVSPost2010PropOp45
 70
     1
102
RTVSPost2010Prop46
 90
       50
102
RTVSPost2010PropOp46
 70
     1
102
RTVSPost2010Prop47
 90
       50
102
RTVSPost2010PropOp47
 70
     1
102
RTVSPost2010Prop48
 90
       50
102
RTVSPost2010PropOp48
 70
     1
102
RTVSPost2010Prop49
280
     0
102
RTVSPost2010PropOp49
 70
     1
102
RTVSPost2010Prop50
 90
       50
102
RTVSPost2010PropOp50
 70
     1
102
RTVSPost2010Prop51ColorIndex
 90
      256
102
RTVSPost2010Prop51ColorRGB
 90
-16777216
102
RTVSPost2010PropOp51
 70
     0
102
RTVSPost2010Prop52
140
1.0
102
RTVSPost2010PropOp52
 70
     0
102
RTVSPost2010Prop53
 90
        2
102
RTVSPost2010PropOp53
 70
     1
102
RTVSPost2010Prop54
  1
strokes_ogs.tif
102
RTVSPost2010PropOp54
 70
     1
102
RTVSPost2010Prop55
280
     0
102
RTVSPost2010PropOp55
 70
     1
102
RTVSPost2010Prop56
140
1.0
102
RTVSPost2010PropOp56
 70
     1
102
RTVSPost2010Prop57
140
1.0
102
RTVSPost2010PropOp57
 70
     1
  0
XRECORD
  5
28D
102
{ACAD_REACTORS
330
28C
102
}
330
28C
100
AcDbXrecord
280
     1
102
RTVSPropertyOp0
 70
     0
102
RTVSPropertyOp1
 70
     0
102
RTVSPropertyOp2
 70
     0
102
RTVSPropertyOp3
 70
     0
102
RTVSPropertyOp4
 70
     0
102
RTVSPropertyOp5
 70
     0
102
RTVSPropertyOp6
 70
     0
102
RTVSPropertyOp7
 70
     0
102
RTVSPropertyOp8
 70
     0
102
RTVSPropertyOp9
 70
     0
102
RTVSPropertyOp10
 70
     0
102
RTVSPropertyOp11
 70
     0
102
RTVSPropertyOp12
 70
     0
102
RTVSPropertyOp13
 70
     0
102
RTVSPropertyOp14
 70
     2
102
RTVSPropertyOp15
 70
     0
102
RTVSPropertyOp16
 70
     0
102
RTVSPropertyOp17
 70
     0
102
RTVSPropertyOp18
 70
     0
102
RTVSPropertyOp19
 70
     0
102
RTVSPropertyOp20
 70
     0
102
RTVSPropertyOp21
 70
     0
102
RTVSPropertyOp22
 70
     0
102
RTVSPropertyOp23
 70
     0
102
RTVSPropertyOp24
 70
     0
102
RTVSPropertyOp25
 70
     0
102
RTVSPropertyOp26
 70
     0
102
RTVSPropertyOp27
 70
     0
102
RTVSPropertyOp28
 70
     0
102
RTVSPropertyOp29
 70
     0
102
RTVSPropertyOp30
 70
     0
102
RTVSPropertyOp31
 70
     0
102
RTVSPropertyOp32
 70
     0
102
RTVSPropertyOp33
 70
     0
102
RTVSPropertyOp34
 70
     0
102
RTVSPropertyOp35
 70
     0
102
RTVSPropertyOp36
 70
     0
102
RTVSPropertyOp37
 70
     0
102
RTVSPropertyOp38
 70
     0
102
RTVSPropertyOp39
 70
     0
102
RTVSPropertyOp40
 70
     0
102
RTVSPropertyOp41
 70
     0
102
RTVSPropertyOp42
 70
     0
102
RTVSPropertyOp43
 70
     0
102
RTVSPropertyOp44
 70
     0
102
RTVSPropertyOp45
 70
     0
102
RTVSPropertyOp46
 70
     0
102
RTVSPropertyOp47
 70
     0
102
RTVSPropertyOp48
 70
     0
102
RTVSPropertyOp49
 70
     0
102
RTVSPropertyOp50
 70
     0
102
RTVSPropertyOp51
 70
     0
102
RTVSPropertyOp52
 70
     0
102
RTVSPropertyOp53
 70
     0
102
RTVSPropertyOp54
 70
     0
102
RTVSPropertyOp55
 70
     0
102
RTVSPropertyOp56
 70
     0
102
RTVSPropertyOp57
 70
     0
102
RTVSPost2010Prop28
280
     0
102
RTVSPost2010PropOp28
 70
     0
102
RTVSPost2010Prop29
280
     1
102
RTVSPost2010PropOp29
 70
     0
102
RTVSPost2010Prop30
280
     1
102
RTVSPost2010PropOp30
 70
     0
102
RTVSPost2010Prop31
280
     0
102
RTVSPost2010PropOp31
 70
     0
102
RTVSPost2010Prop32
280
     0
102
RTVSPost2010PropOp32
 70
     0
102
RTVSPost2010Prop33
280
     0
102
RTVSPost2010PropOp33
 70
     0
102
RTVSPost2010Prop34
280
     0
102
RTVSPost2010PropOp34
 70
     0
102
RTVSPost2010Prop35
280
     0
102
RTVSPost2010PropOp35
 70
     0
102
RTVSPost2010Prop36
280
     0
102
RTVSPost2010PropOp36
 70
     0
102
RTVSPost2010Prop37
 90
       50
102
RTVSPost2010PropOp37
 70
     0
102
RTVSPost2010Prop38
140
0.0
102
RTVSPost2010PropOp38
 70
     0
102
RTVSPost2010Prop39
140
1.0
102
RTVSPost2010PropOp39
 70
     0
102
RTVSPost2010Prop40
 90
        0
102
RTVSPost2010PropOp40
 70
     0
102
RTVSPost2010Prop41ColorIndex
 90
       18
102
RTVSPost2010Prop41ColorRGB
 90
        0
102
RTVSPost2010PropOp41
 70
     0
102
RTVSPost2010Prop42
 90
       50
102
RTVSPost2010PropOp42
 70
     0
102
RTVSPost2010Prop43
 90
        3
102
RTVSPost2010PropOp43
 70
     0
102
RTVSPost2010Prop44ColorIndex
 90
        5
102
RTVSPost2010Prop44ColorRGB
 90
      255
102
RTVSPost2010PropOp44
 70
     0
102
RTVSPost2010Prop45
280
     0
102
RTVSPost2010PropOp45
 70
     0
102
RTVSPost2010Prop46
 90
       50
102
RTVSPost2010PropOp46
 70
     0
102
RTVSPost2010Prop47
 90
       50
102
RTVSPost2010PropOp47
 70
     0
102
RTVSPost2010Prop48
 90
       50
102
RTVSPost2010PropOp48
 70
     0
102
RTVSPost2010Prop49
280
     0
102
RTVSPost2010PropOp49
 70
     0
102
RTVSPost2010Prop50
 90
       50
102
RTVSPost2010PropOp50
 70
     0
102
RTVSPost2010Prop51ColorIndex
 90
      256
102
RTVSPost2010Prop51ColorRGB
 90
-16777216
102
RTVSPost2010PropOp51
 70
     0
102
RTVSPost2010Prop52
140
1.0
102
RTVSPost2010PropOp52
 70
     0
102
RTVSPost2010Prop53
 90
        2
102
RTVSPost2010PropOp53
 70
     0
102
RTVSPost2010Prop54
  1
strokes_ogs.tif
102
RTVSPost2010PropOp54
 70
     0
102
RTVSPost2010Prop55
280
     0
102
RTVSPost2010PropOp55
 70
     0
102
RTVSPost2010Prop56
140
1.0
102
RTVSPost2010PropOp56
 70
     0
102
RTVSPost2010Prop57
140
1.0
102
RTVSPost2010PropOp57
 70
     0
  0
XRECORD
  5
285
102
{ACAD_REACTORS
330
284
102
}
330
284
100
AcDbXrecord
280
     1
102
RTVSPropertyOp0
 70
     1
102
RTVSPropertyOp1
 70
     1
102
RTVSPropertyOp2
 70
     1
102
RTVSPropertyOp3
 70
     1
102
RTVSPropertyOp4
 70
     1
102
RTVSPropertyOp5
 70
     1
102
RTVSPropertyOp6
 70
     1
102
RTVSPropertyOp7
 70
     1
102
RTVSPropertyOp8
 70
     1
102
RTVSPropertyOp9
 70
     1
102
RTVSPropertyOp10
 70
     1
102
RTVSPropertyOp11
 70
     1
102
RTVSPropertyOp12
 70
     1
102
RTVSPropertyOp13
 70
     1
102
RTVSPropertyOp14
 70
     1
102
RTVSPropertyOp15
 70
     1
102
RTVSPropertyOp16
 70
     1
102
RTVSPropertyOp17
 70
     1
102
RTVSPropertyOp18
 70
     1
102
RTVSPropertyOp19
 70
     1
102
RTVSPropertyOp20
 70
     1
102
RTVSPropertyOp21
 70
     1
102
RTVSPropertyOp22
 70
     1
102
RTVSPropertyOp23
 70
     1
102
RTVSPropertyOp24
 70
     1
102
RTVSPropertyOp25
 70
     1
102
RTVSPropertyOp26
 70
     1
102
RTVSPropertyOp27
 70
     1
102
RTVSPropertyOp28
 70
     1
102
RTVSPropertyOp29
 70
     1
102
RTVSPropertyOp30
 70
     1
102
RTVSPropertyOp31
 70
     1
102
RTVSPropertyOp32
 70
     1
102
RTVSPropertyOp33
 70
     1
102
RTVSPropertyOp34
 70
     1
102
RTVSPropertyOp35
 70
     1
102
RTVSPropertyOp36
 70
     1
102
RTVSPropertyOp37
 70
     1
102
RTVSPropertyOp38
 70
     1
102
RTVSPropertyOp39
 70
     1
102
RTVSPropertyOp40
 70
     1
102
RTVSPropertyOp41
 70
     1
102
RTVSPropertyOp42
 70
     1
102
RTVSPropertyOp43
 70
     1
102
RTVSPropertyOp44
 70
     1
102
RTVSPropertyOp45
 70
     1
102
RTVSPropertyOp46
 70
     1
102
RTVSPropertyOp47
 70
     1
102
RTVSPropertyOp48
 70
     1
102
RTVSPropertyOp49
 70
     1
102
RTVSPropertyOp50
 70
     1
102
RTVSPropertyOp51
 70
     0
102
RTVSPropertyOp52
 70
     0
102
RTVSPropertyOp53
 70
     1
102
RTVSPropertyOp54
 70
     1
102
RTVSPropertyOp55
 70
     1
102
RTVSPropertyOp56
 70
     1
102
RTVSPropertyOp57
 70
     1
102
RTVSPost2010Prop28
280
     0
102
RTVSPost2010PropOp28
 70
     1
102
RTVSPost2010Prop29
280
     1
102
RTVSPost2010PropOp29
 70
     1
102
RTVSPost2010Prop30
280
     1
102
RTVSPost2010PropOp30
 70
     1
102
RTVSPost2010Prop31
280
     0
102
RTVSPost2010PropOp31
 70
     1
102
RTVSPost2010Prop32
280
     0
102
RTVSPost2010PropOp32
 70
     1
102
RTVSPost2010Prop33
280
     0
102
RTVSPost2010PropOp33
 70
     1
102
RTVSPost2010Prop34
280
     0
102
RTVSPost2010PropOp34
 70
     1
102
RTVSPost2010Prop35
280
     0
102
RTVSPost2010PropOp35
 70
     1
102
RTVSPost2010Prop36
280
     0
102
RTVSPost2010PropOp36
 70
     1
102
RTVSPost2010Prop37
 90
       50
102
RTVSPost2010PropOp37
 70
     1
102
RTVSPost2010Prop38
140
0.0
102
RTVSPost2010PropOp38
 70
     1
102
RTVSPost2010Prop39
140
1.0
102
RTVSPost2010PropOp39
 70
     1
102
RTVSPost2010Prop40
 90
        0
102
RTVSPost2010PropOp40
 70
     1
102
RTVSPost2010Prop41ColorIndex
 90
       18
102
RTVSPost2010Prop41ColorRGB
 90
        0
102
RTVSPost2010PropOp41
 70
     1
102
RTVSPost2010Prop42
 90
       50
102
RTVSPost2010PropOp42
 70
     1
102
RTVSPost2010Prop43
 90
        3
102
RTVSPost2010PropOp43
 70
     1
102
RTVSPost2010Prop44ColorIndex
 90
        5
102
RTVSPost2010Prop44ColorRGB
 90
      255
102
RTVSPost2010PropOp44
 70
     1
102
RTVSPost2010Prop45
280
     0
102
RTVSPost2010PropOp45
 70
     1
102
RTVSPost2010Prop46
 90
       50
102
RTVSPost2010PropOp46
 70
     1
102
RTVSPost2010Prop47
 90
       50
102
RTVSPost2010PropOp47
 70
     1
102
RTVSPost2010Prop48
 90
       50
102
RTVSPost2010PropOp48
 70
     1
102
RTVSPost2010Prop49
280
     0
102
RTVSPost2010PropOp49
 70
     1
102
RTVSPost2010Prop50
 90
       50
102
RTVSPost2010PropOp50
 70
     1
102
RTVSPost2010Prop51ColorIndex
 90
      256
102
RTVSPost2010Prop51ColorRGB
 90
-16777216
102
RTVSPost2010PropOp51
 70
     0
102
RTVSPost2010Prop52
140
1.0
102
RTVSPost2010PropOp52
 70
     0
102
RTVSPost2010Prop53
 90
        2
102
RTVSPost2010PropOp53
 70
     1
102
RTVSPost2010Prop54
  1
strokes_ogs.tif
102
RTVSPost2010PropOp54
 70
     1
102
RTVSPost2010Prop55
280
     0
102
RTVSPost2010PropOp55
 70
     1
102
RTVSPost2010Prop56
140
1.0
102
RTVSPost2010PropOp56
 70
     1
102
RTVSPost2010Prop57
140
1.0
102
RTVSPost2010PropOp57
 70
     1
  0
XRECORD
  5
269
102
{ACAD_REACTORS
330
268
102
}
330
268
100
AcDbXrecord
280
     1
102
RTVSPropertyOp0
 70
     1
102
RTVSPropertyOp1
 70
     1
102
RTVSPropertyOp2
 70
     1
102
RTVSPropertyOp3
 70
     1
102
RTVSPropertyOp4
 70
     1
102
RTVSPropertyOp5
 70
     1
102
RTVSPropertyOp6
 70
     1
102
RTVSPropertyOp7
 70
     1
102
RTVSPropertyOp8
 70
     1
102
RTVSPropertyOp9
 70
     1
102
RTVSPropertyOp10
 70
     1
102
RTVSPropertyOp11
 70
     1
102
RTVSPropertyOp12
 70
     1
102
RTVSPropertyOp13
 70
     1
102
RTVSPropertyOp14
 70
     1
102
RTVSPropertyOp15
 70
     1
102
RTVSPropertyOp16
 70
     1
102
RTVSPropertyOp17
 70
     1
102
RTVSPropertyOp18
 70
     1
102
RTVSPropertyOp19
 70
     1
102
RTVSPropertyOp20
 70
     1
102
RTVSPropertyOp21
 70
     1
102
RTVSPropertyOp22
 70
     1
102
RTVSPropertyOp23
 70
     1
102
RTVSPropertyOp24
 70
     1
102
RTVSPropertyOp25
 70
     1
102
RTVSPropertyOp26
 70
     1
102
RTVSPropertyOp27
 70
     1
102
RTVSPropertyOp28
 70
     1
102
RTVSPropertyOp29
 70
     1
102
RTVSPropertyOp30
 70
     1
102
RTVSPropertyOp31
 70
     1
102
RTVSPropertyOp32
 70
     1
102
RTVSPropertyOp33
 70
     1
102
RTVSPropertyOp34
 70
     1
102
RTVSPropertyOp35
 70
     1
102
RTVSPropertyOp36
 70
     1
102
RTVSPropertyOp37
 70
     1
102
RTVSPropertyOp38
 70
     1
102
RTVSPropertyOp39
 70
     1
102
RTVSPropertyOp40
 70
     1
102
RTVSPropertyOp41
 70
     1
102
RTVSPropertyOp42
 70
     1
102
RTVSPropertyOp43
 70
     1
102
RTVSPropertyOp44
 70
     1
102
RTVSPropertyOp45
 70
     1
102
RTVSPropertyOp46
 70
     1
102
RTVSPropertyOp47
 70
     1
102
RTVSPropertyOp48
 70
     1
102
RTVSPropertyOp49
 70
     1
102
RTVSPropertyOp50
 70
     1
102
RTVSPropertyOp51
 70
     0
102
RTVSPropertyOp52
 70
     0
102
RTVSPropertyOp53
 70
     1
102
RTVSPropertyOp54
 70
     1
102
RTVSPropertyOp55
 70
     1
102
RTVSPropertyOp56
 70
     1
102
RTVSPropertyOp57
 70
     1
102
RTVSPost2010Prop28
280
     0
102
RTVSPost2010PropOp28
 70
     1
102
RTVSPost2010Prop29
280
     1
102
RTVSPost2010PropOp29
 70
     1
102
RTVSPost2010Prop30
280
     1
102
RTVSPost2010PropOp30
 70
     1
102
RTVSPost2010Prop31
280
     0
102
RTVSPost2010PropOp31
 70
     1
102
RTVSPost2010Prop32
280
     0
102
RTVSPost2010PropOp32
 70
     1
102
RTVSPost2010Prop33
280
     0
102
RTVSPost2010PropOp33
 70
     1
102
RTVSPost2010Prop34
280
     0
102
RTVSPost2010PropOp34
 70
     1
102
RTVSPost2010Prop35
280
     0
102
RTVSPost2010PropOp35
 70
     1
102
RTVSPost2010Prop36
280
     0
102
RTVSPost2010PropOp36
 70
     1
102
RTVSPost2010Prop37
 90
       50
102
RTVSPost2010PropOp37
 70
     1
102
RTVSPost2010Prop38
140
0.0
102
RTVSPost2010PropOp38
 70
     1
102
RTVSPost2010Prop39
140
1.0
102
RTVSPost2010PropOp39
 70
     1
102
RTVSPost2010Prop40
 90
        0
102
RTVSPost2010PropOp40
 70
     1
102
RTVSPost2010Prop41ColorIndex
 90
       18
102
RTVSPost2010Prop41ColorRGB
 90
        0
102
RTVSPost2010PropOp41
 70
     1
102
RTVSPost2010Prop42
 90
       50
102
RTVSPost2010PropOp42
 70
     1
102
RTVSPost2010Prop43
 90
        3
102
RTVSPost2010PropOp43
 70
     1
102
RTVSPost2010Prop44ColorIndex
 90
        5
102
RTVSPost2010Prop44ColorRGB
 90
      255
102
RTVSPost2010PropOp44
 70
     1
102
RTVSPost2010Prop45
280
     0
102
RTVSPost2010PropOp45
 70
     1
102
RTVSPost2010Prop46
 90
       50
102
RTVSPost2010PropOp46
 70
     1
102
RTVSPost2010Prop47
 90
       50
102
RTVSPost2010PropOp47
 70
     1
102
RTVSPost2010Prop48
 90
       50
102
RTVSPost2010PropOp48
 70
     1
102
RTVSPost2010Prop49
280
     0
102
RTVSPost2010PropOp49
 70
     1
102
RTVSPost2010Prop50
 90
       50
102
RTVSPost2010PropOp50
 70
     1
102
RTVSPost2010Prop51ColorIndex
 90
      256
102
RTVSPost2010Prop51ColorRGB
 90
-16777216
102
RTVSPost2010PropOp51
 70
     0
102
RTVSPost2010Prop52
140
1.0
102
RTVSPost2010PropOp52
 70
     0
102
RTVSPost2010Prop53
 90
        2
102
RTVSPost2010PropOp53
 70
     1
102
RTVSPost2010Prop54
  1
strokes_ogs.tif
102
RTVSPost2010PropOp54
 70
     1
102
RTVSPost2010Prop55
280
     0
102
RTVSPost2010PropOp55
 70
     1
102
RTVSPost2010Prop56
140
1.0
102
RTVSPost2010PropOp56
 70
     1
102
RTVSPost2010Prop57
140
1.0
102
RTVSPost2010PropOp57
 70
     1
  0
XRECORD
  5
26B
102
{ACAD_REACTORS
330
26A
102
}
330
26A
100
AcDbXrecord
280
     1
102
RTVSPropertyOp0
 70
     1
102
RTVSPropertyOp1
 70
     1
102
RTVSPropertyOp2
 70
     1
102
RTVSPropertyOp3
 70
     1
102
RTVSPropertyOp4
 70
     1
102
RTVSPropertyOp5
 70
     1
102
RTVSPropertyOp6
 70
     1
102
RTVSPropertyOp7
 70
     1
102
RTVSPropertyOp8
 70
     1
102
RTVSPropertyOp9
 70
     1
102
RTVSPropertyOp10
 70
     1
102
RTVSPropertyOp11
 70
     1
102
RTVSPropertyOp12
 70
     1
102
RTVSPropertyOp13
 70
     1
102
RTVSPropertyOp14
 70
     1
102
RTVSPropertyOp15
 70
     1
102
RTVSPropertyOp16
 70
     1
102
RTVSPropertyOp17
 70
     1
102
RTVSPropertyOp18
 70
     1
102
RTVSPropertyOp19
 70
     1
102
RTVSPropertyOp20
 70
     1
102
RTVSPropertyOp21
 70
     1
102
RTVSPropertyOp22
 70
     1
102
RTVSPropertyOp23
 70
     1
102
RTVSPropertyOp24
 70
     1
102
RTVSPropertyOp25
 70
     1
102
RTVSPropertyOp26
 70
     1
102
RTVSPropertyOp27
 70
     1
102
RTVSPropertyOp28
 70
     1
102
RTVSPropertyOp29
 70
     1
102
RTVSPropertyOp30
 70
     1
102
RTVSPropertyOp31
 70
     1
102
RTVSPropertyOp32
 70
     1
102
RTVSPropertyOp33
 70
     1
102
RTVSPropertyOp34
 70
     1
102
RTVSPropertyOp35
 70
     1
102
RTVSPropertyOp36
 70
     1
102
RTVSPropertyOp37
 70
     1
102
RTVSPropertyOp38
 70
     1
102
RTVSPropertyOp39
 70
     1
102
RTVSPropertyOp40
 70
     1
102
RTVSPropertyOp41
 70
     1
102
RTVSPropertyOp42
 70
     1
102
RTVSPropertyOp43
 70
     1
102
RTVSPropertyOp44
 70
     1
102
RTVSPropertyOp45
 70
     1
102
RTVSPropertyOp46
 70
     1
102
RTVSPropertyOp47
 70
     1
102
RTVSPropertyOp48
 70
     1
102
RTVSPropertyOp49
 70
     1
102
RTVSPropertyOp50
 70
     1
102
RTVSPropertyOp51
 70
     0
102
RTVSPropertyOp52
 70
     0
102
RTVSPropertyOp53
 70
     1
102
RTVSPropertyOp54
 70
     1
102
RTVSPropertyOp55
 70
     1
102
RTVSPropertyOp56
 70
     1
102
RTVSPropertyOp57
 70
     1
102
RTVSPost2010Prop28
280
     0
102
RTVSPost2010PropOp28
 70
     1
102
RTVSPost2010Prop29
280
     1
102
RTVSPost2010PropOp29
 70
     1
102
RTVSPost2010Prop30
280
     1
102
RTVSPost2010PropOp30
 70
     1
102
RTVSPost2010Prop31
280
     0
102
RTVSPost2010PropOp31
 70
     1
102
RTVSPost2010Prop32
280
     0
102
RTVSPost2010PropOp32
 70
     1
102
RTVSPost2010Prop33
280
     0
102
RTVSPost2010PropOp33
 70
     1
102
RTVSPost2010Prop34
280
     0
102
RTVSPost2010PropOp34
 70
     1
102
RTVSPost2010Prop35
280
     0
102
RTVSPost2010PropOp35
 70
     1
102
RTVSPost2010Prop36
280
     0
102
RTVSPost2010PropOp36
 70
     1
102
RTVSPost2010Prop37
 90
       50
102
RTVSPost2010PropOp37
 70
     1
102
RTVSPost2010Prop38
140
0.0
102
RTVSPost2010PropOp38
 70
     1
102
RTVSPost2010Prop39
140
1.0
102
RTVSPost2010PropOp39
 70
     1
102
RTVSPost2010Prop40
 90
        0
102
RTVSPost2010PropOp40
 70
     1
102
RTVSPost2010Prop41ColorIndex
 90
       18
102
RTVSPost2010Prop41ColorRGB
 90
        0
102
RTVSPost2010PropOp41
 70
     1
102
RTVSPost2010Prop42
 90
       50
102
RTVSPost2010PropOp42
 70
     1
102
RTVSPost2010Prop43
 90
        3
102
RTVSPost2010PropOp43
 70
     1
102
RTVSPost2010Prop44ColorIndex
 90
        5
102
RTVSPost2010Prop44ColorRGB
 90
      255
102
RTVSPost2010PropOp44
 70
     1
102
RTVSPost2010Prop45
280
     0
102
RTVSPost2010PropOp45
 70
     1
102
RTVSPost2010Prop46
 90
       50
102
RTVSPost2010PropOp46
 70
     1
102
RTVSPost2010Prop47
 90
       50
102
RTVSPost2010PropOp47
 70
     1
102
RTVSPost2010Prop48
 90
       50
102
RTVSPost2010PropOp48
 70
     1
102
RTVSPost2010Prop49
280
     0
102
RTVSPost2010PropOp49
 70
     1
102
RTVSPost2010Prop50
 90
       50
102
RTVSPost2010PropOp50
 70
     1
102
RTVSPost2010Prop51ColorIndex
 90
      256
102
RTVSPost2010Prop51ColorRGB
 90
-16777216
102
RTVSPost2010PropOp51
 70
     0
102
RTVSPost2010Prop52
140
1.0
102
RTVSPost2010PropOp52
 70
     0
102
RTVSPost2010Prop53
 90
        2
102
RTVSPost2010PropOp53
 70
     1
102
RTVSPost2010Prop54
  1
strokes_ogs.tif
102
RTVSPost2010PropOp54
 70
     1
102
RTVSPost2010Prop55
280
     0
102
RTVSPost2010PropOp55
 70
     1
102
RTVSPost2010Prop56
140
1.0
102
RTVSPost2010PropOp56
 70
     1
102
RTVSPost2010Prop57
140
1.0
102
RTVSPost2010PropOp57
 70
     1
  0
XRECORD
  5
26D
102
{ACAD_REACTORS
330
26C
102
}
330
26C
100
AcDbXrecord
280
     1
102
RTVSPropertyOp0
 70
     1
102
RTVSPropertyOp1
 70
     1
102
RTVSPropertyOp2
 70
     1
102
RTVSPropertyOp3
 70
     1
102
RTVSPropertyOp4
 70
     1
102
RTVSPropertyOp5
 70
     1
102
RTVSPropertyOp6
 70
     1
102
RTVSPropertyOp7
 70
     1
102
RTVSPropertyOp8
 70
     1
102
RTVSPropertyOp9
 70
     1
102
RTVSPropertyOp10
 70
     1
102
RTVSPropertyOp11
 70
     1
102
RTVSPropertyOp12
 70
     1
102
RTVSPropertyOp13
 70
     1
102
RTVSPropertyOp14
 70
     1
102
RTVSPropertyOp15
 70
     1
102
RTVSPropertyOp16
 70
     1
102
RTVSPropertyOp17
 70
     1
102
RTVSPropertyOp18
 70
     1
102
RTVSPropertyOp19
 70
     1
102
RTVSPropertyOp20
 70
     1
102
RTVSPropertyOp21
 70
     1
102
RTVSPropertyOp22
 70
     1
102
RTVSPropertyOp23
 70
     1
102
RTVSPropertyOp24
 70
     1
102
RTVSPropertyOp25
 70
     1
102
RTVSPropertyOp26
 70
     1
102
RTVSPropertyOp27
 70
     1
102
RTVSPropertyOp28
 70
     1
102
RTVSPropertyOp29
 70
     1
102
RTVSPropertyOp30
 70
     1
102
RTVSPropertyOp31
 70
     1
102
RTVSPropertyOp32
 70
     1
102
RTVSPropertyOp33
 70
     1
102
RTVSPropertyOp34
 70
     1
102
RTVSPropertyOp35
 70
     1
102
RTVSPropertyOp36
 70
     1
102
RTVSPropertyOp37
 70
     1
102
RTVSPropertyOp38
 70
     1
102
RTVSPropertyOp39
 70
     1
102
RTVSPropertyOp40
 70
     1
102
RTVSPropertyOp41
 70
     1
102
RTVSPropertyOp42
 70
     1
102
RTVSPropertyOp43
 70
     1
102
RTVSPropertyOp44
 70
     1
102
RTVSPropertyOp45
 70
     1
102
RTVSPropertyOp46
 70
     1
102
RTVSPropertyOp47
 70
     1
102
RTVSPropertyOp48
 70
     1
102
RTVSPropertyOp49
 70
     1
102
RTVSPropertyOp50
 70
     1
102
RTVSPropertyOp51
 70
     0
102
RTVSPropertyOp52
 70
     0
102
RTVSPropertyOp53
 70
     1
102
RTVSPropertyOp54
 70
     1
102
RTVSPropertyOp55
 70
     1
102
RTVSPropertyOp56
 70
     1
102
RTVSPropertyOp57
 70
     1
102
RTVSPost2010Prop28
280
     0
102
RTVSPost2010PropOp28
 70
     1
102
RTVSPost2010Prop29
280
     1
102
RTVSPost2010PropOp29
 70
     1
102
RTVSPost2010Prop30
280
     1
102
RTVSPost2010PropOp30
 70
     1
102
RTVSPost2010Prop31
280
     0
102
RTVSPost2010PropOp31
 70
     1
102
RTVSPost2010Prop32
280
     0
102
RTVSPost2010PropOp32
 70
     1
102
RTVSPost2010Prop33
280
     0
102
RTVSPost2010PropOp33
 70
     1
102
RTVSPost2010Prop34
280
     0
102
RTVSPost2010PropOp34
 70
     1
102
RTVSPost2010Prop35
280
     0
102
RTVSPost2010PropOp35
 70
     1
102
RTVSPost2010Prop36
280
     0
102
RTVSPost2010PropOp36
 70
     1
102
RTVSPost2010Prop37
 90
       50
102
RTVSPost2010PropOp37
 70
     1
102
RTVSPost2010Prop38
140
0.0
102
RTVSPost2010PropOp38
 70
     1
102
RTVSPost2010Prop39
140
1.0
102
RTVSPost2010PropOp39
 70
     1
102
RTVSPost2010Prop40
 90
        0
102
RTVSPost2010PropOp40
 70
     1
102
RTVSPost2010Prop41ColorIndex
 90
       18
102
RTVSPost2010Prop41ColorRGB
 90
        0
102
RTVSPost2010PropOp41
 70
     1
102
RTVSPost2010Prop42
 90
       50
102
RTVSPost2010PropOp42
 70
     1
102
RTVSPost2010Prop43
 90
        3
102
RTVSPost2010PropOp43
 70
     1
102
RTVSPost2010Prop44ColorIndex
 90
        5
102
RTVSPost2010Prop44ColorRGB
 90
      255
102
RTVSPost2010PropOp44
 70
     1
102
RTVSPost2010Prop45
280
     0
102
RTVSPost2010PropOp45
 70
     1
102
RTVSPost2010Prop46
 90
       50
102
RTVSPost2010PropOp46
 70
     1
102
RTVSPost2010Prop47
 90
       50
102
RTVSPost2010PropOp47
 70
     1
102
RTVSPost2010Prop48
 90
       50
102
RTVSPost2010PropOp48
 70
     1
102
RTVSPost2010Prop49
280
     0
102
RTVSPost2010PropOp49
 70
     1
102
RTVSPost2010Prop50
 90
       50
102
RTVSPost2010PropOp50
 70
     1
102
RTVSPost2010Prop51ColorIndex
 90
      256
102
RTVSPost2010Prop51ColorRGB
 90
-16777216
102
RTVSPost2010PropOp51
 70
     0
102
RTVSPost2010Prop52
140
1.0
102
RTVSPost2010PropOp52
 70
     0
102
RTVSPost2010Prop53
 90
        2
102
RTVSPost2010PropOp53
 70
     1
102
RTVSPost2010Prop54
  1
strokes_ogs.tif
102
RTVSPost2010PropOp54
 70
     1
102
RTVSPost2010Prop55
280
     0
102
RTVSPost2010PropOp55
 70
     1
102
RTVSPost2010Prop56
140
1.0
102
RTVSPost2010PropOp56
 70
     1
102
RTVSPost2010Prop57
140
1.0
102
RTVSPost2010PropOp57
 70
     1
  0
XRECORD
  5
26F
102
{ACAD_REACTORS
330
26E
102
}
330
26E
100
AcDbXrecord
280
     1
102
RTVSPropertyOp0
 70
     1
102
RTVSPropertyOp1
 70
     1
102
RTVSPropertyOp2
 70
     1
102
RTVSPropertyOp3
 70
     1
102
RTVSPropertyOp4
 70
     1
102
RTVSPropertyOp5
 70
     1
102
RTVSPropertyOp6
 70
     1
102
RTVSPropertyOp7
 70
     1
102
RTVSPropertyOp8
 70
     1
102
RTVSPropertyOp9
 70
     1
102
RTVSPropertyOp10
 70
     1
102
RTVSPropertyOp11
 70
     1
102
RTVSPropertyOp12
 70
     1
102
RTVSPropertyOp13
 70
     1
102
RTVSPropertyOp14
 70
     1
102
RTVSPropertyOp15
 70
     1
102
RTVSPropertyOp16
 70
     1
102
RTVSPropertyOp17
 70
     1
102
RTVSPropertyOp18
 70
     1
102
RTVSPropertyOp19
 70
     1
102
RTVSPropertyOp20
 70
     1
102
RTVSPropertyOp21
 70
     1
102
RTVSPropertyOp22
 70
     1
102
RTVSPropertyOp23
 70
     1
102
RTVSPropertyOp24
 70
     1
102
RTVSPropertyOp25
 70
     1
102
RTVSPropertyOp26
 70
     1
102
RTVSPropertyOp27
 70
     1
102
RTVSPropertyOp28
 70
     1
102
RTVSPropertyOp29
 70
     1
102
RTVSPropertyOp30
 70
     1
102
RTVSPropertyOp31
 70
     1
102
RTVSPropertyOp32
 70
     1
102
RTVSPropertyOp33
 70
     1
102
RTVSPropertyOp34
 70
     1
102
RTVSPropertyOp35
 70
     1
102
RTVSPropertyOp36
 70
     1
102
RTVSPropertyOp37
 70
     1
102
RTVSPropertyOp38
 70
     1
102
RTVSPropertyOp39
 70
     1
102
RTVSPropertyOp40
 70
     1
102
RTVSPropertyOp41
 70
     1
102
RTVSPropertyOp42
 70
     1
102
RTVSPropertyOp43
 70
     1
102
RTVSPropertyOp44
 70
     1
102
RTVSPropertyOp45
 70
     1
102
RTVSPropertyOp46
 70
     1
102
RTVSPropertyOp47
 70
     1
102
RTVSPropertyOp48
 70
     1
102
RTVSPropertyOp49
 70
     1
102
RTVSPropertyOp50
 70
     1
102
RTVSPropertyOp51
 70
     0
102
RTVSPropertyOp52
 70
     0
102
RTVSPropertyOp53
 70
     1
102
RTVSPropertyOp54
 70
     1
102
RTVSPropertyOp55
 70
     1
102
RTVSPropertyOp56
 70
     1
102
RTVSPropertyOp57
 70
     1
102
RTVSPost2010Prop28
280
     0
102
RTVSPost2010PropOp28
 70
     1
102
RTVSPost2010Prop29
280
     1
102
RTVSPost2010PropOp29
 70
     1
102
RTVSPost2010Prop30
280
     1
102
RTVSPost2010PropOp30
 70
     1
102
RTVSPost2010Prop31
280
     0
102
RTVSPost2010PropOp31
 70
     1
102
RTVSPost2010Prop32
280
     0
102
RTVSPost2010PropOp32
 70
     1
102
RTVSPost2010Prop33
280
     0
102
RTVSPost2010PropOp33
 70
     1
102
RTVSPost2010Prop34
280
     0
102
RTVSPost2010PropOp34
 70
     1
102
RTVSPost2010Prop35
280
     0
102
RTVSPost2010PropOp35
 70
     1
102
RTVSPost2010Prop36
280
     0
102
RTVSPost2010PropOp36
 70
     1
102
RTVSPost2010Prop37
 90
       50
102
RTVSPost2010PropOp37
 70
     1
102
RTVSPost2010Prop38
140
0.0
102
RTVSPost2010PropOp38
 70
     1
102
RTVSPost2010Prop39
140
1.0
102
RTVSPost2010PropOp39
 70
     1
102
RTVSPost2010Prop40
 90
        0
102
RTVSPost2010PropOp40
 70
     1
102
RTVSPost2010Prop41ColorIndex
 90
       18
102
RTVSPost2010Prop41ColorRGB
 90
        0
102
RTVSPost2010PropOp41
 70
     1
102
RTVSPost2010Prop42
 90
       50
102
RTVSPost2010PropOp42
 70
     1
102
RTVSPost2010Prop43
 90
        3
102
RTVSPost2010PropOp43
 70
     1
102
RTVSPost2010Prop44ColorIndex
 90
        5
102
RTVSPost2010Prop44ColorRGB
 90
      255
102
RTVSPost2010PropOp44
 70
     1
102
RTVSPost2010Prop45
280
     0
102
RTVSPost2010PropOp45
 70
     1
102
RTVSPost2010Prop46
 90
       50
102
RTVSPost2010PropOp46
 70
     1
102
RTVSPost2010Prop47
 90
       50
102
RTVSPost2010PropOp47
 70
     1
102
RTVSPost2010Prop48
 90
       50
102
RTVSPost2010PropOp48
 70
     1
102
RTVSPost2010Prop49
280
     0
102
RTVSPost2010PropOp49
 70
     1
102
RTVSPost2010Prop50
 90
       50
102
RTVSPost2010PropOp50
 70
     1
102
RTVSPost2010Prop51ColorIndex
 90
      256
102
RTVSPost2010Prop51ColorRGB
 90
-16777216
102
RTVSPost2010PropOp51
 70
     0
102
RTVSPost2010Prop52
140
1.0
102
RTVSPost2010PropOp52
 70
     0
102
RTVSPost2010Prop53
 90
        2
102
RTVSPost2010PropOp53
 70
     1
102
RTVSPost2010Prop54
  1
strokes_ogs.tif
102
RTVSPost2010PropOp54
 70
     1
102
RTVSPost2010Prop55
280
     0
102
RTVSPost2010PropOp55
 70
     1
102
RTVSPost2010Prop56
140
1.0
102
RTVSPost2010PropOp56
 70
     1
102
RTVSPost2010Prop57
140
1.0
102
RTVSPost2010PropOp57
 70
     1
  0
XRECORD
  5
275
102
{ACAD_REACTORS
330
274
102
}
330
274
100
AcDbXrecord
280
     1
102
RTVSPropertyOp0
 70
     1
102
RTVSPropertyOp1
 70
     1
102
RTVSPropertyOp2
 70
     1
102
RTVSPropertyOp3
 70
     1
102
RTVSPropertyOp4
 70
     1
102
RTVSPropertyOp5
 70
     1
102
RTVSPropertyOp6
 70
     1
102
RTVSPropertyOp7
 70
     1
102
RTVSPropertyOp8
 70
     1
102
RTVSPropertyOp9
 70
     1
102
RTVSPropertyOp10
 70
     1
102
RTVSPropertyOp11
 70
     1
102
RTVSPropertyOp12
 70
     1
102
RTVSPropertyOp13
 70
     1
102
RTVSPropertyOp14
 70
     1
102
RTVSPropertyOp15
 70
     1
102
RTVSPropertyOp16
 70
     1
102
RTVSPropertyOp17
 70
     1
102
RTVSPropertyOp18
 70
     1
102
RTVSPropertyOp19
 70
     1
102
RTVSPropertyOp20
 70
     1
102
RTVSPropertyOp21
 70
     1
102
RTVSPropertyOp22
 70
     1
102
RTVSPropertyOp23
 70
     1
102
RTVSPropertyOp24
 70
     1
102
RTVSPropertyOp25
 70
     1
102
RTVSPropertyOp26
 70
     1
102
RTVSPropertyOp27
 70
     1
102
RTVSPropertyOp28
 70
     1
102
RTVSPropertyOp29
 70
     1
102
RTVSPropertyOp30
 70
     1
102
RTVSPropertyOp31
 70
     1
102
RTVSPropertyOp32
 70
     1
102
RTVSPropertyOp33
 70
     1
102
RTVSPropertyOp34
 70
     1
102
RTVSPropertyOp35
 70
     1
102
RTVSPropertyOp36
 70
     1
102
RTVSPropertyOp37
 70
     1
102
RTVSPropertyOp38
 70
     1
102
RTVSPropertyOp39
 70
     1
102
RTVSPropertyOp40
 70
     1
102
RTVSPropertyOp41
 70
     1
102
RTVSPropertyOp42
 70
     1
102
RTVSPropertyOp43
 70
     1
102
RTVSPropertyOp44
 70
     1
102
RTVSPropertyOp45
 70
     1
102
RTVSPropertyOp46
 70
     1
102
RTVSPropertyOp47
 70
     1
102
RTVSPropertyOp48
 70
     1
102
RTVSPropertyOp49
 70
     1
102
RTVSPropertyOp50
 70
     1
102
RTVSPropertyOp51
 70
     0
102
RTVSPropertyOp52
 70
     0
102
RTVSPropertyOp53
 70
     1
102
RTVSPropertyOp54
 70
     1
102
RTVSPropertyOp55
 70
     1
102
RTVSPropertyOp56
 70
     1
102
RTVSPropertyOp57
 70
     1
102
RTVSPost2010Prop28
280
     0
102
RTVSPost2010PropOp28
 70
     1
102
RTVSPost2010Prop29
280
     1
102
RTVSPost2010PropOp29
 70
     1
102
RTVSPost2010Prop30
280
     1
102
RTVSPost2010PropOp30
 70
     1
102
RTVSPost2010Prop31
280
     0
102
RTVSPost2010PropOp31
 70
     1
102
RTVSPost2010Prop32
280
     0
102
RTVSPost2010PropOp32
 70
     1
102
RTVSPost2010Prop33
280
     0
102
RTVSPost2010PropOp33
 70
     1
102
RTVSPost2010Prop34
280
     0
102
RTVSPost2010PropOp34
 70
     1
102
RTVSPost2010Prop35
280
     0
102
RTVSPost2010PropOp35
 70
     1
102
RTVSPost2010Prop36
280
     0
102
RTVSPost2010PropOp36
 70
     1
102
RTVSPost2010Prop37
 90
       50
102
RTVSPost2010PropOp37
 70
     1
102
RTVSPost2010Prop38
140
0.0
102
RTVSPost2010PropOp38
 70
     1
102
RTVSPost2010Prop39
140
1.0
102
RTVSPost2010PropOp39
 70
     1
102
RTVSPost2010Prop40
 90
        0
102
RTVSPost2010PropOp40
 70
     1
102
RTVSPost2010Prop41ColorIndex
 90
       18
102
RTVSPost2010Prop41ColorRGB
 90
        0
102
RTVSPost2010PropOp41
 70
     1
102
RTVSPost2010Prop42
 90
       50
102
RTVSPost2010PropOp42
 70
     1
102
RTVSPost2010Prop43
 90
        3
102
RTVSPost2010PropOp43
 70
     1
102
RTVSPost2010Prop44ColorIndex
 90
        5
102
RTVSPost2010Prop44ColorRGB
 90
      255
102
RTVSPost2010PropOp44
 70
     1
102
RTVSPost2010Prop45
280
     0
102
RTVSPost2010PropOp45
 70
     1
102
RTVSPost2010Prop46
 90
       50
102
RTVSPost2010PropOp46
 70
     1
102
RTVSPost2010Prop47
 90
       50
102
RTVSPost2010PropOp47
 70
     1
102
RTVSPost2010Prop48
 90
       50
102
RTVSPost2010PropOp48
 70
     1
102
RTVSPost2010Prop49
280
     0
102
RTVSPost2010PropOp49
 70
     1
102
RTVSPost2010Prop50
 90
       50
102
RTVSPost2010PropOp50
 70
     1
102
RTVSPost2010Prop51ColorIndex
 90
      256
102
RTVSPost2010Prop51ColorRGB
 90
-16777216
102
RTVSPost2010PropOp51
 70
     0
102
RTVSPost2010Prop52
140
1.0
102
RTVSPost2010PropOp52
 70
     0
102
RTVSPost2010Prop53
 90
        2
102
RTVSPost2010PropOp53
 70
     1
102
RTVSPost2010Prop54
  1
strokes_ogs.tif
102
RTVSPost2010PropOp54
 70
     1
102
RTVSPost2010Prop55
280
     0
102
RTVSPost2010PropOp55
 70
     1
102
RTVSPost2010Prop56
140
1.0
102
RTVSPost2010PropOp56
 70
     1
102
RTVSPost2010Prop57
140
1.0
102
RTVSPost2010PropOp57
 70
     1
  0
XRECORD
  5
289
102
{ACAD_REACTORS
330
288
102
}
330
288
100
AcDbXrecord
280
     1
102
RTVSPropertyOp0
 70
     0
102
RTVSPropertyOp1
 70
     0
102
RTVSPropertyOp2
 70
     0
102
RTVSPropertyOp3
 70
     0
102
RTVSPropertyOp4
 70
     0
102
RTVSPropertyOp5
 70
     0
102
RTVSPropertyOp6
 70
     0
102
RTVSPropertyOp7
 70
     0
102
RTVSPropertyOp8
 70
     0
102
RTVSPropertyOp9
 70
     0
102
RTVSPropertyOp10
 70
     0
102
RTVSPropertyOp11
 70
     0
102
RTVSPropertyOp12
 70
     0
102
RTVSPropertyOp13
 70
     0
102
RTVSPropertyOp14
 70
     2
102
RTVSPropertyOp15
 70
     0
102
RTVSPropertyOp16
 70
     0
102
RTVSPropertyOp17
 70
     0
102
RTVSPropertyOp18
 70
     0
102
RTVSPropertyOp19
 70
     0
102
RTVSPropertyOp20
 70
     0
102
RTVSPropertyOp21
 70
     0
102
RTVSPropertyOp22
 70
     0
102
RTVSPropertyOp23
 70
     0
102
RTVSPropertyOp24
 70
     0
102
RTVSPropertyOp25
 70
     0
102
RTVSPropertyOp26
 70
     0
102
RTVSPropertyOp27
 70
     0
102
RTVSPropertyOp28
 70
     0
102
RTVSPropertyOp29
 70
     0
102
RTVSPropertyOp30
 70
     0
102
RTVSPropertyOp31
 70
     0
102
RTVSPropertyOp32
 70
     0
102
RTVSPropertyOp33
 70
     0
102
RTVSPropertyOp34
 70
     0
102
RTVSPropertyOp35
 70
     0
102
RTVSPropertyOp36
 70
     0
102
RTVSPropertyOp37
 70
     0
102
RTVSPropertyOp38
 70
     0
102
RTVSPropertyOp39
 70
     0
102
RTVSPropertyOp40
 70
     0
102
RTVSPropertyOp41
 70
     0
102
RTVSPropertyOp42
 70
     0
102
RTVSPropertyOp43
 70
     0
102
RTVSPropertyOp44
 70
     0
102
RTVSPropertyOp45
 70
     0
102
RTVSPropertyOp46
 70
     0
102
RTVSPropertyOp47
 70
     0
102
RTVSPropertyOp48
 70
     0
102
RTVSPropertyOp49
 70
     0
102
RTVSPropertyOp50
 70
     0
102
RTVSPropertyOp51
 70
     0
102
RTVSPropertyOp52
 70
     0
102
RTVSPropertyOp53
 70
     0
102
RTVSPropertyOp54
 70
     0
102
RTVSPropertyOp55
 70
     0
102
RTVSPropertyOp56
 70
     0
102
RTVSPropertyOp57
 70
     0
102
RTVSPost2010Prop28
280
     0
102
RTVSPost2010PropOp28
 70
     0
102
RTVSPost2010Prop29
280
     1
102
RTVSPost2010PropOp29
 70
     0
102
RTVSPost2010Prop30
280
     1
102
RTVSPost2010PropOp30
 70
     0
102
RTVSPost2010Prop31
280
     0
102
RTVSPost2010PropOp31
 70
     0
102
RTVSPost2010Prop32
280
     0
102
RTVSPost2010PropOp32
 70
     0
102
RTVSPost2010Prop33
280
     0
102
RTVSPost2010PropOp33
 70
     0
102
RTVSPost2010Prop34
280
     0
102
RTVSPost2010PropOp34
 70
     0
102
RTVSPost2010Prop35
280
     0
102
RTVSPost2010PropOp35
 70
     0
102
RTVSPost2010Prop36
280
     0
102
RTVSPost2010PropOp36
 70
     0
102
RTVSPost2010Prop37
 90
       50
102
RTVSPost2010PropOp37
 70
     0
102
RTVSPost2010Prop38
140
0.0
102
RTVSPost2010PropOp38
 70
     0
102
RTVSPost2010Prop39
140
1.0
102
RTVSPost2010PropOp39
 70
     0
102
RTVSPost2010Prop40
 90
        0
102
RTVSPost2010PropOp40
 70
     0
102
RTVSPost2010Prop41ColorIndex
 90
       18
102
RTVSPost2010Prop41ColorRGB
 90
        0
102
RTVSPost2010PropOp41
 70
     0
102
RTVSPost2010Prop42
 90
       50
102
RTVSPost2010PropOp42
 70
     0
102
RTVSPost2010Prop43
 90
        3
102
RTVSPost2010PropOp43
 70
     0
102
RTVSPost2010Prop44ColorIndex
 90
        5
102
RTVSPost2010Prop44ColorRGB
 90
      255
102
RTVSPost2010PropOp44
 70
     0
102
RTVSPost2010Prop45
280
     0
102
RTVSPost2010PropOp45
 70
     0
102
RTVSPost2010Prop46
 90
       50
102
RTVSPost2010PropOp46
 70
     0
102
RTVSPost2010Prop47
 90
       50
102
RTVSPost2010PropOp47
 70
     0
102
RTVSPost2010Prop48
 90
       50
102
RTVSPost2010PropOp48
 70
     0
102
RTVSPost2010Prop49
280
     0
102
RTVSPost2010PropOp49
 70
     0
102
RTVSPost2010Prop50
 90
       50
102
RTVSPost2010PropOp50
 70
     0
102
RTVSPost2010Prop51ColorIndex
 90
      256
102
RTVSPost2010Prop51ColorRGB
 90
-16777216
102
RTVSPost2010PropOp51
 70
     0
102
RTVSPost2010Prop52
140
1.0
102
RTVSPost2010PropOp52
 70
     0
102
RTVSPost2010Prop53
 90
        2
102
RTVSPost2010PropOp53
 70
     0
102
RTVSPost2010Prop54
  1
strokes_ogs.tif
102
RTVSPost2010PropOp54
 70
     0
102
RTVSPost2010Prop55
280
     0
102
RTVSPost2010PropOp55
 70
     0
102
RTVSPost2010Prop56
140
1.0
102
RTVSPost2010PropOp56
 70
     0
102
RTVSPost2010Prop57
140
1.0
102
RTVSPost2010PropOp57
 70
     0
  0
XRECORD
  5
283
102
{ACAD_REACTORS
330
282
102
}
330
282
100
AcDbXrecord
280
     1
102
RTVSPropertyOp0
 70
     1
102
RTVSPropertyOp1
 70
     1
102
RTVSPropertyOp2
 70
     1
102
RTVSPropertyOp3
 70
     1
102
RTVSPropertyOp4
 70
     1
102
RTVSPropertyOp5
 70
     1
102
RTVSPropertyOp6
 70
     1
102
RTVSPropertyOp7
 70
     1
102
RTVSPropertyOp8
 70
     1
102
RTVSPropertyOp9
 70
     1
102
RTVSPropertyOp10
 70
     1
102
RTVSPropertyOp11
 70
     1
102
RTVSPropertyOp12
 70
     1
102
RTVSPropertyOp13
 70
     1
102
RTVSPropertyOp14
 70
     1
102
RTVSPropertyOp15
 70
     1
102
RTVSPropertyOp16
 70
     1
102
RTVSPropertyOp17
 70
     1
102
RTVSPropertyOp18
 70
     1
102
RTVSPropertyOp19
 70
     1
102
RTVSPropertyOp20
 70
     1
102
RTVSPropertyOp21
 70
     1
102
RTVSPropertyOp22
 70
     1
102
RTVSPropertyOp23
 70
     1
102
RTVSPropertyOp24
 70
     1
102
RTVSPropertyOp25
 70
     1
102
RTVSPropertyOp26
 70
     1
102
RTVSPropertyOp27
 70
     1
102
RTVSPropertyOp28
 70
     1
102
RTVSPropertyOp29
 70
     1
102
RTVSPropertyOp30
 70
     1
102
RTVSPropertyOp31
 70
     1
102
RTVSPropertyOp32
 70
     1
102
RTVSPropertyOp33
 70
     1
102
RTVSPropertyOp34
 70
     1
102
RTVSPropertyOp35
 70
     1
102
RTVSPropertyOp36
 70
     1
102
RTVSPropertyOp37
 70
     1
102
RTVSPropertyOp38
 70
     1
102
RTVSPropertyOp39
 70
     1
102
RTVSPropertyOp40
 70
     1
102
RTVSPropertyOp41
 70
     1
102
RTVSPropertyOp42
 70
     1
102
RTVSPropertyOp43
 70
     1
102
RTVSPropertyOp44
 70
     1
102
RTVSPropertyOp45
 70
     1
102
RTVSPropertyOp46
 70
     1
102
RTVSPropertyOp47
 70
     1
102
RTVSPropertyOp48
 70
     1
102
RTVSPropertyOp49
 70
     1
102
RTVSPropertyOp50
 70
     1
102
RTVSPropertyOp51
 70
     0
102
RTVSPropertyOp52
 70
     0
102
RTVSPropertyOp53
 70
     1
102
RTVSPropertyOp54
 70
     1
102
RTVSPropertyOp55
 70
     1
102
RTVSPropertyOp56
 70
     1
102
RTVSPropertyOp57
 70
     1
102
RTVSPost2010Prop28
280
     0
102
RTVSPost2010PropOp28
 70
     1
102
RTVSPost2010Prop29
280
     1
102
RTVSPost2010PropOp29
 70
     1
102
RTVSPost2010Prop30
280
     1
102
RTVSPost2010PropOp30
 70
     1
102
RTVSPost2010Prop31
280
     0
102
RTVSPost2010PropOp31
 70
     1
102
RTVSPost2010Prop32
280
     0
102
RTVSPost2010PropOp32
 70
     1
102
RTVSPost2010Prop33
280
     0
102
RTVSPost2010PropOp33
 70
     1
102
RTVSPost2010Prop34
280
     0
102
RTVSPost2010PropOp34
 70
     1
102
RTVSPost2010Prop35
280
     0
102
RTVSPost2010PropOp35
 70
     1
102
RTVSPost2010Prop36
280
     0
102
RTVSPost2010PropOp36
 70
     1
102
RTVSPost2010Prop37
 90
       50
102
RTVSPost2010PropOp37
 70
     1
102
RTVSPost2010Prop38
140
0.0
102
RTVSPost2010PropOp38
 70
     1
102
RTVSPost2010Prop39
140
1.0
102
RTVSPost2010PropOp39
 70
     1
102
RTVSPost2010Prop40
 90
        0
102
RTVSPost2010PropOp40
 70
     1
102
RTVSPost2010Prop41ColorIndex
 90
       18
102
RTVSPost2010Prop41ColorRGB
 90
        0
102
RTVSPost2010PropOp41
 70
     1
102
RTVSPost2010Prop42
 90
       50
102
RTVSPost2010PropOp42
 70
     1
102
RTVSPost2010Prop43
 90
        3
102
RTVSPost2010PropOp43
 70
     1
102
RTVSPost2010Prop44ColorIndex
 90
        5
102
RTVSPost2010Prop44ColorRGB
 90
      255
102
RTVSPost2010PropOp44
 70
     1
102
RTVSPost2010Prop45
280
     0
102
RTVSPost2010PropOp45
 70
     1
102
RTVSPost2010Prop46
 90
       50
102
RTVSPost2010PropOp46
 70
     1
102
RTVSPost2010Prop47
 90
       50
102
RTVSPost2010PropOp47
 70
     1
102
RTVSPost2010Prop48
 90
       50
102
RTVSPost2010PropOp48
 70
     1
102
RTVSPost2010Prop49
280
     0
102
RTVSPost2010PropOp49
 70
     1
102
RTVSPost2010Prop50
 90
       50
102
RTVSPost2010PropOp50
 70
     1
102
RTVSPost2010Prop51ColorIndex
 90
      256
102
RTVSPost2010Prop51ColorRGB
 90
-16777216
102
RTVSPost2010PropOp51
 70
     0
102
RTVSPost2010Prop52
140
1.0
102
RTVSPost2010PropOp52
 70
     0
102
RTVSPost2010Prop53
 90
        2
102
RTVSPost2010PropOp53
 70
     1
102
RTVSPost2010Prop54
  1
strokes_ogs.tif
102
RTVSPost2010PropOp54
 70
     1
102
RTVSPost2010Prop55
280
     0
102
RTVSPost2010PropOp55
 70
     1
102
RTVSPost2010Prop56
140
1.0
102
RTVSPost2010PropOp56
 70
     1
102
RTVSPost2010Prop57
140
1.0
102
RTVSPost2010PropOp57
 70
     1
  0
XRECORD
  5
28B
102
{ACAD_REACTORS
330
28A
102
}
330
28A
100
AcDbXrecord
280
     1
102
RTVSPropertyOp0
 70
     0
102
RTVSPropertyOp1
 70
     0
102
RTVSPropertyOp2
 70
     0
102
RTVSPropertyOp3
 70
     0
102
RTVSPropertyOp4
 70
     0
102
RTVSPropertyOp5
 70
     0
102
RTVSPropertyOp6
 70
     0
102
RTVSPropertyOp7
 70
     0
102
RTVSPropertyOp8
 70
     0
102
RTVSPropertyOp9
 70
     0
102
RTVSPropertyOp10
 70
     0
102
RTVSPropertyOp11
 70
     0
102
RTVSPropertyOp12
 70
     0
102
RTVSPropertyOp13
 70
     0
102
RTVSPropertyOp14
 70
     2
102
RTVSPropertyOp15
 70
     0
102
RTVSPropertyOp16
 70
     0
102
RTVSPropertyOp17
 70
     0
102
RTVSPropertyOp18
 70
     0
102
RTVSPropertyOp19
 70
     0
102
RTVSPropertyOp20
 70
     0
102
RTVSPropertyOp21
 70
     0
102
RTVSPropertyOp22
 70
     0
102
RTVSPropertyOp23
 70
     0
102
RTVSPropertyOp24
 70
     0
102
RTVSPropertyOp25
 70
     0
102
RTVSPropertyOp26
 70
     0
102
RTVSPropertyOp27
 70
     0
102
RTVSPropertyOp28
 70
     0
102
RTVSPropertyOp29
 70
     0
102
RTVSPropertyOp30
 70
     0
102
RTVSPropertyOp31
 70
     0
102
RTVSPropertyOp32
 70
     0
102
RTVSPropertyOp33
 70
     0
102
RTVSPropertyOp34
 70
     0
102
RTVSPropertyOp35
 70
     0
102
RTVSPropertyOp36
 70
     0
102
RTVSPropertyOp37
 70
     0
102
RTVSPropertyOp38
 70
     0
102
RTVSPropertyOp39
 70
     0
102
RTVSPropertyOp40
 70
     0
102
RTVSPropertyOp41
 70
     0
102
RTVSPropertyOp42
 70
     0
102
RTVSPropertyOp43
 70
     0
102
RTVSPropertyOp44
 70
     0
102
RTVSPropertyOp45
 70
     0
102
RTVSPropertyOp46
 70
     0
102
RTVSPropertyOp47
 70
     0
102
RTVSPropertyOp48
 70
     0
102
RTVSPropertyOp49
 70
     0
102
RTVSPropertyOp50
 70
     0
102
RTVSPropertyOp51
 70
     0
102
RTVSPropertyOp52
 70
     0
102
RTVSPropertyOp53
 70
     0
102
RTVSPropertyOp54
 70
     0
102
RTVSPropertyOp55
 70
     0
102
RTVSPropertyOp56
 70
     0
102
RTVSPropertyOp57
 70
     0
102
RTVSPost2010Prop28
280
     0
102
RTVSPost2010PropOp28
 70
     0
102
RTVSPost2010Prop29
280
     1
102
RTVSPost2010PropOp29
 70
     0
102
RTVSPost2010Prop30
280
     1
102
RTVSPost2010PropOp30
 70
     0
102
RTVSPost2010Prop31
280
     0
102
RTVSPost2010PropOp31
 70
     0
102
RTVSPost2010Prop32
280
     0
102
RTVSPost2010PropOp32
 70
     0
102
RTVSPost2010Prop33
280
     0
102
RTVSPost2010PropOp33
 70
     0
102
RTVSPost2010Prop34
280
     0
102
RTVSPost2010PropOp34
 70
     0
102
RTVSPost2010Prop35
280
     0
102
RTVSPost2010PropOp35
 70
     0
102
RTVSPost2010Prop36
280
     0
102
RTVSPost2010PropOp36
 70
     0
102
RTVSPost2010Prop37
 90
       50
102
RTVSPost2010PropOp37
 70
     0
102
RTVSPost2010Prop38
140
0.0
102
RTVSPost2010PropOp38
 70
     0
102
RTVSPost2010Prop39
140
1.0
102
RTVSPost2010PropOp39
 70
     0
102
RTVSPost2010Prop40
 90
        0
102
RTVSPost2010PropOp40
 70
     0
102
RTVSPost2010Prop41ColorIndex
 90
       18
102
RTVSPost2010Prop41ColorRGB
 90
        0
102
RTVSPost2010PropOp41
 70
     0
102
RTVSPost2010Prop42
 90
       50
102
RTVSPost2010PropOp42
 70
     0
102
RTVSPost2010Prop43
 90
        3
102
RTVSPost2010PropOp43
 70
     0
102
RTVSPost2010Prop44ColorIndex
 90
        5
102
RTVSPost2010Prop44ColorRGB
 90
      255
102
RTVSPost2010PropOp44
 70
     0
102
RTVSPost2010Prop45
280
     0
102
RTVSPost2010PropOp45
 70
     0
102
RTVSPost2010Prop46
 90
       50
102
RTVSPost2010PropOp46
 70
     0
102
RTVSPost2010Prop47
 90
       50
102
RTVSPost2010PropOp47
 70
     0
102
RTVSPost2010Prop48
 90
       50
102
RTVSPost2010PropOp48
 70
     0
102
RTVSPost2010Prop49
280
     0
102
RTVSPost2010PropOp49
 70
     0
102
RTVSPost2010Prop50
 90
       50
102
RTVSPost2010PropOp50
 70
     0
102
RTVSPost2010Prop51ColorIndex
 90
      256
102
RTVSPost2010Prop51ColorRGB
 90
-16777216
102
RTVSPost2010PropOp51
 70
     0
102
RTVSPost2010Prop52
140
1.0
102
RTVSPost2010PropOp52
 70
     0
102
RTVSPost2010Prop53
 90
        2
102
RTVSPost2010PropOp53
 70
     0
102
RTVSPost2010Prop54
  1
strokes_ogs.tif
102
RTVSPost2010PropOp54
 70
     0
102
RTVSPost2010Prop55
280
     0
102
RTVSPost2010PropOp55
 70
     0
102
RTVSPost2010Prop56
140
1.0
102
RTVSPost2010PropOp56
 70
     0
102
RTVSPost2010Prop57
140
1.0
102
RTVSPost2010PropOp57
 70
     0
  0
XRECORD
  5
279
102
{ACAD_REACTORS
330
278
102
}
330
278
100
AcDbXrecord
280
     1
102
RTVSPropertyOp0
 70
     1
102
RTVSPropertyOp1
 70
     1
102
RTVSPropertyOp2
 70
     1
102
RTVSPropertyOp3
 70
     1
102
RTVSPropertyOp4
 70
     1
102
RTVSPropertyOp5
 70
     1
102
RTVSPropertyOp6
 70
     1
102
RTVSPropertyOp7
 70
     1
102
RTVSPropertyOp8
 70
     1
102
RTVSPropertyOp9
 70
     1
102
RTVSPropertyOp10
 70
     1
102
RTVSPropertyOp11
 70
     1
102
RTVSPropertyOp12
 70
     1
102
RTVSPropertyOp13
 70
     1
102
RTVSPropertyOp14
 70
     1
102
RTVSPropertyOp15
 70
     1
102
RTVSPropertyOp16
 70
     1
102
RTVSPropertyOp17
 70
     1
102
RTVSPropertyOp18
 70
     1
102
RTVSPropertyOp19
 70
     1
102
RTVSPropertyOp20
 70
     1
102
RTVSPropertyOp21
 70
     1
102
RTVSPropertyOp22
 70
     1
102
RTVSPropertyOp23
 70
     1
102
RTVSPropertyOp24
 70
     1
102
RTVSPropertyOp25
 70
     1
102
RTVSPropertyOp26
 70
     1
102
RTVSPropertyOp27
 70
     1
102
RTVSPropertyOp28
 70
     1
102
RTVSPropertyOp29
 70
     1
102
RTVSPropertyOp30
 70
     1
102
RTVSPropertyOp31
 70
     1
102
RTVSPropertyOp32
 70
     1
102
RTVSPropertyOp33
 70
     1
102
RTVSPropertyOp34
 70
     1
102
RTVSPropertyOp35
 70
     1
102
RTVSPropertyOp36
 70
     1
102
RTVSPropertyOp37
 70
     1
102
RTVSPropertyOp38
 70
     1
102
RTVSPropertyOp39
 70
     1
102
RTVSPropertyOp40
 70
     1
102
RTVSPropertyOp41
 70
     1
102
RTVSPropertyOp42
 70
     1
102
RTVSPropertyOp43
 70
     1
102
RTVSPropertyOp44
 70
     1
102
RTVSPropertyOp45
 70
     1
102
RTVSPropertyOp46
 70
     1
102
RTVSPropertyOp47
 70
     1
102
RTVSPropertyOp48
 70
     1
102
RTVSPropertyOp49
 70
     1
102
RTVSPropertyOp50
 70
     1
102
RTVSPropertyOp51
 70
     0
102
RTVSPropertyOp52
 70
     0
102
RTVSPropertyOp53
 70
     1
102
RTVSPropertyOp54
 70
     1
102
RTVSPropertyOp55
 70
     1
102
RTVSPropertyOp56
 70
     1
102
RTVSPropertyOp57
 70
     1
102
RTVSPost2010Prop28
280
     0
102
RTVSPost2010PropOp28
 70
     1
102
RTVSPost2010Prop29
280
     1
102
RTVSPost2010PropOp29
 70
     1
102
RTVSPost2010Prop30
280
     1
102
RTVSPost2010PropOp30
 70
     1
102
RTVSPost2010Prop31
280
     0
102
RTVSPost2010PropOp31
 70
     1
102
RTVSPost2010Prop32
280
     0
102
RTVSPost2010PropOp32
 70
     1
102
RTVSPost2010Prop33
280
     0
102
RTVSPost2010PropOp33
 70
     1
102
RTVSPost2010Prop34
280
     0
102
RTVSPost2010PropOp34
 70
     1
102
RTVSPost2010Prop35
280
     0
102
RTVSPost2010PropOp35
 70
     1
102
RTVSPost2010Prop36
280
     0
102
RTVSPost2010PropOp36
 70
     1
102
RTVSPost2010Prop37
 90
       50
102
RTVSPost2010PropOp37
 70
     1
102
RTVSPost2010Prop38
140
0.0
102
RTVSPost2010PropOp38
 70
     1
102
RTVSPost2010Prop39
140
1.0
102
RTVSPost2010PropOp39
 70
     1
102
RTVSPost2010Prop40
 90
        0
102
RTVSPost2010PropOp40
 70
     1
102
RTVSPost2010Prop41ColorIndex
 90
       18
102
RTVSPost2010Prop41ColorRGB
 90
        0
102
RTVSPost2010PropOp41
 70
     1
102
RTVSPost2010Prop42
 90
       50
102
RTVSPost2010PropOp42
 70
     1
102
RTVSPost2010Prop43
 90
        3
102
RTVSPost2010PropOp43
 70
     1
102
RTVSPost2010Prop44ColorIndex
 90
        5
102
RTVSPost2010Prop44ColorRGB
 90
      255
102
RTVSPost2010PropOp44
 70
     1
102
RTVSPost2010Prop45
280
     0
102
RTVSPost2010PropOp45
 70
     1
102
RTVSPost2010Prop46
 90
       50
102
RTVSPost2010PropOp46
 70
     1
102
RTVSPost2010Prop47
 90
       50
102
RTVSPost2010PropOp47
 70
     1
102
RTVSPost2010Prop48
 90
       50
102
RTVSPost2010PropOp48
 70
     1
102
RTVSPost2010Prop49
280
     0
102
RTVSPost2010PropOp49
 70
     1
102
RTVSPost2010Prop50
 90
       50
102
RTVSPost2010PropOp50
 70
     1
102
RTVSPost2010Prop51ColorIndex
 90
      256
102
RTVSPost2010Prop51ColorRGB
 90
-16777216
102
RTVSPost2010PropOp51
 70
     0
102
RTVSPost2010Prop52
140
1.0
102
RTVSPost2010PropOp52
 70
     0
102
RTVSPost2010Prop53
 90
        2
102
RTVSPost2010PropOp53
 70
     1
102
RTVSPost2010Prop54
  1
strokes_ogs.tif
102
RTVSPost2010PropOp54
 70
     1
102
RTVSPost2010Prop55
280
     0
102
RTVSPost2010PropOp55
 70
     1
102
RTVSPost2010Prop56
140
1.0
102
RTVSPost2010PropOp56
 70
     1
102
RTVSPost2010Prop57
140
1.0
102
RTVSPost2010PropOp57
 70
     1
  0
XRECORD
  5
297
102
{ACAD_REACTORS
330
296
102
}
330
296
100
AcDbXrecord
280
     1
102
RTVSPropertyOp0
 70
     1
102
RTVSPropertyOp1
 70
     1
102
RTVSPropertyOp2
 70
     1
102
RTVSPropertyOp3
 70
     1
102
RTVSPropertyOp4
 70
     1
102
RTVSPropertyOp5
 70
     1
102
RTVSPropertyOp6
 70
     1
102
RTVSPropertyOp7
 70
     1
102
RTVSPropertyOp8
 70
     1
102
RTVSPropertyOp9
 70
     1
102
RTVSPropertyOp10
 70
     1
102
RTVSPropertyOp11
 70
     1
102
RTVSPropertyOp12
 70
     1
102
RTVSPropertyOp13
 70
     1
102
RTVSPropertyOp14
 70
     1
102
RTVSPropertyOp15
 70
     1
102
RTVSPropertyOp16
 70
     1
102
RTVSPropertyOp17
 70
     1
102
RTVSPropertyOp18
 70
     1
102
RTVSPropertyOp19
 70
     1
102
RTVSPropertyOp20
 70
     1
102
RTVSPropertyOp21
 70
     1
102
RTVSPropertyOp22
 70
     1
102
RTVSPropertyOp23
 70
     1
102
RTVSPropertyOp24
 70
     1
102
RTVSPropertyOp25
 70
     1
102
RTVSPropertyOp26
 70
     1
102
RTVSPropertyOp27
 70
     1
102
RTVSPropertyOp28
 70
     1
102
RTVSPropertyOp29
 70
     1
102
RTVSPropertyOp30
 70
     1
102
RTVSPropertyOp31
 70
     1
102
RTVSPropertyOp32
 70
     1
102
RTVSPropertyOp33
 70
     1
102
RTVSPropertyOp34
 70
     1
102
RTVSPropertyOp35
 70
     1
102
RTVSPropertyOp36
 70
     1
102
RTVSPropertyOp37
 70
     1
102
RTVSPropertyOp38
 70
     1
102
RTVSPropertyOp39
 70
     1
102
RTVSPropertyOp40
 70
     1
102
RTVSPropertyOp41
 70
     1
102
RTVSPropertyOp42
 70
     1
102
RTVSPropertyOp43
 70
     1
102
RTVSPropertyOp44
 70
     1
102
RTVSPropertyOp45
 70
     1
102
RTVSPropertyOp46
 70
     1
102
RTVSPropertyOp47
 70
     1
102
RTVSPropertyOp48
 70
     1
102
RTVSPropertyOp49
 70
     1
102
RTVSPropertyOp50
 70
     1
102
RTVSPropertyOp51
 70
     0
102
RTVSPropertyOp52
 70
     0
102
RTVSPropertyOp53
 70
     1
102
RTVSPropertyOp54
 70
     1
102
RTVSPropertyOp55
 70
     1
102
RTVSPropertyOp56
 70
     1
102
RTVSPropertyOp57
 70
     1
102
RTVSPost2010Prop28
280
     0
102
RTVSPost2010PropOp28
 70
     1
102
RTVSPost2010Prop29
280
     1
102
RTVSPost2010PropOp29
 70
     1
102
RTVSPost2010Prop30
280
     1
102
RTVSPost2010PropOp30
 70
     1
102
RTVSPost2010Prop31
280
     0
102
RTVSPost2010PropOp31
 70
     1
102
RTVSPost2010Prop32
280
     0
102
RTVSPost2010PropOp32
 70
     1
102
RTVSPost2010Prop33
280
     0
102
RTVSPost2010PropOp33
 70
     1
102
RTVSPost2010Prop34
280
     0
102
RTVSPost2010PropOp34
 70
     1
102
RTVSPost2010Prop35
280
     0
102
RTVSPost2010PropOp35
 70
     1
102
RTVSPost2010Prop36
280
     0
102
RTVSPost2010PropOp36
 70
     1
102
RTVSPost2010Prop37
 90
       50
102
RTVSPost2010PropOp37
 70
     1
102
RTVSPost2010Prop38
140
0.0
102
RTVSPost2010PropOp38
 70
     1
102
RTVSPost2010Prop39
140
1.0
102
RTVSPost2010PropOp39
 70
     1
102
RTVSPost2010Prop40
 90
        0
102
RTVSPost2010PropOp40
 70
     1
102
RTVSPost2010Prop41ColorIndex
 90
       18
102
RTVSPost2010Prop41ColorRGB
 90
        0
102
RTVSPost2010PropOp41
 70
     1
102
RTVSPost2010Prop42
 90
       50
102
RTVSPost2010PropOp42
 70
     1
102
RTVSPost2010Prop43
 90
        3
102
RTVSPost2010PropOp43
 70
     1
102
RTVSPost2010Prop44ColorIndex
 90
        5
102
RTVSPost2010Prop44ColorRGB
 90
      255
102
RTVSPost2010PropOp44
 70
     1
102
RTVSPost2010Prop45
280
     0
102
RTVSPost2010PropOp45
 70
     1
102
RTVSPost2010Prop46
 90
       50
102
RTVSPost2010PropOp46
 70
     1
102
RTVSPost2010Prop47
 90
       50
102
RTVSPost2010PropOp47
 70
     1
102
RTVSPost2010Prop48
 90
       50
102
RTVSPost2010PropOp48
 70
     1
102
RTVSPost2010Prop49
280
     0
102
RTVSPost2010PropOp49
 70
     1
102
RTVSPost2010Prop50
 90
       50
102
RTVSPost2010PropOp50
 70
     1
102
RTVSPost2010Prop51ColorIndex
 90
      256
102
RTVSPost2010Prop51ColorRGB
 90
-16777216
102
RTVSPost2010PropOp51
 70
     0
102
RTVSPost2010Prop52
140
1.0
102
RTVSPost2010PropOp52
 70
     0
102
RTVSPost2010Prop53
 90
        2
102
RTVSPost2010PropOp53
 70
     1
102
RTVSPost2010Prop54
  1
strokes_ogs.tif
102
RTVSPost2010PropOp54
 70
     1
102
RTVSPost2010Prop55
280
     0
102
RTVSPost2010PropOp55
 70
     1
102
RTVSPost2010Prop56
140
1.0
102
RTVSPost2010PropOp56
 70
     1
102
RTVSPost2010Prop57
140
1.0
102
RTVSPost2010PropOp57
 70
     1
  0
XRECORD
  5
295
102
{ACAD_REACTORS
330
294
102
}
330
294
100
AcDbXrecord
280
     1
102
RTVSPropertyOp0
 70
     1
102
RTVSPropertyOp1
 70
     1
102
RTVSPropertyOp2
 70
     1
102
RTVSPropertyOp3
 70
     1
102
RTVSPropertyOp4
 70
     1
102
RTVSPropertyOp5
 70
     1
102
RTVSPropertyOp6
 70
     1
102
RTVSPropertyOp7
 70
     1
102
RTVSPropertyOp8
 70
     1
102
RTVSPropertyOp9
 70
     1
102
RTVSPropertyOp10
 70
     1
102
RTVSPropertyOp11
 70
     1
102
RTVSPropertyOp12
 70
     1
102
RTVSPropertyOp13
 70
     1
102
RTVSPropertyOp14
 70
     1
102
RTVSPropertyOp15
 70
     1
102
RTVSPropertyOp16
 70
     1
102
RTVSPropertyOp17
 70
     1
102
RTVSPropertyOp18
 70
     1
102
RTVSPropertyOp19
 70
     1
102
RTVSPropertyOp20
 70
     1
102
RTVSPropertyOp21
 70
     1
102
RTVSPropertyOp22
 70
     1
102
RTVSPropertyOp23
 70
     1
102
RTVSPropertyOp24
 70
     1
102
RTVSPropertyOp25
 70
     1
102
RTVSPropertyOp26
 70
     1
102
RTVSPropertyOp27
 70
     1
102
RTVSPropertyOp28
 70
     1
102
RTVSPropertyOp29
 70
     1
102
RTVSPropertyOp30
 70
     1
102
RTVSPropertyOp31
 70
     1
102
RTVSPropertyOp32
 70
     1
102
RTVSPropertyOp33
 70
     1
102
RTVSPropertyOp34
 70
     1
102
RTVSPropertyOp35
 70
     1
102
RTVSPropertyOp36
 70
     1
102
RTVSPropertyOp37
 70
     1
102
RTVSPropertyOp38
 70
     1
102
RTVSPropertyOp39
 70
     1
102
RTVSPropertyOp40
 70
     1
102
RTVSPropertyOp41
 70
     1
102
RTVSPropertyOp42
 70
     1
102
RTVSPropertyOp43
 70
     1
102
RTVSPropertyOp44
 70
     1
102
RTVSPropertyOp45
 70
     1
102
RTVSPropertyOp46
 70
     1
102
RTVSPropertyOp47
 70
     1
102
RTVSPropertyOp48
 70
     1
102
RTVSPropertyOp49
 70
     1
102
RTVSPropertyOp50
 70
     1
102
RTVSPropertyOp51
 70
     0
102
RTVSPropertyOp52
 70
     0
102
RTVSPropertyOp53
 70
     1
102
RTVSPropertyOp54
 70
     1
102
RTVSPropertyOp55
 70
     1
102
RTVSPropertyOp56
 70
     1
102
RTVSPropertyOp57
 70
     1
102
RTVSPost2010Prop28
280
     0
102
RTVSPost2010PropOp28
 70
     1
102
RTVSPost2010Prop29
280
     1
102
RTVSPost2010PropOp29
 70
     1
102
RTVSPost2010Prop30
280
     1
102
RTVSPost2010PropOp30
 70
     1
102
RTVSPost2010Prop31
280
     0
102
RTVSPost2010PropOp31
 70
     1
102
RTVSPost2010Prop32
280
     0
102
RTVSPost2010PropOp32
 70
     1
102
RTVSPost2010Prop33
280
     0
102
RTVSPost2010PropOp33
 70
     1
102
RTVSPost2010Prop34
280
     0
102
RTVSPost2010PropOp34
 70
     1
102
RTVSPost2010Prop35
280
     0
102
RTVSPost2010PropOp35
 70
     1
102
RTVSPost2010Prop36
280
     0
102
RTVSPost2010PropOp36
 70
     1
102
RTVSPost2010Prop37
 90
       50
102
RTVSPost2010PropOp37
 70
     1
102
RTVSPost2010Prop38
140
0.0
102
RTVSPost2010PropOp38
 70
     1
102
RTVSPost2010Prop39
140
1.0
102
RTVSPost2010PropOp39
 70
     1
102
RTVSPost2010Prop40
 90
        0
102
RTVSPost2010PropOp40
 70
     1
102
RTVSPost2010Prop41ColorIndex
 90
       18
102
RTVSPost2010Prop41ColorRGB
 90
        0
102
RTVSPost2010PropOp41
 70
     1
102
RTVSPost2010Prop42
 90
       50
102
RTVSPost2010PropOp42
 70
     1
102
RTVSPost2010Prop43
 90
        3
102
RTVSPost2010PropOp43
 70
     1
102
RTVSPost2010Prop44ColorIndex
 90
        5
102
RTVSPost2010Prop44ColorRGB
 90
      255
102
RTVSPost2010PropOp44
 70
     1
102
RTVSPost2010Prop45
280
     0
102
RTVSPost2010PropOp45
 70
     1
102
RTVSPost2010Prop46
 90
       50
102
RTVSPost2010PropOp46
 70
     1
102
RTVSPost2010Prop47
 90
       50
102
RTVSPost2010PropOp47
 70
     1
102
RTVSPost2010Prop48
 90
       50
102
RTVSPost2010PropOp48
 70
     1
102
RTVSPost2010Prop49
280
     0
102
RTVSPost2010PropOp49
 70
     1
102
RTVSPost2010Prop50
 90
       50
102
RTVSPost2010PropOp50
 70
     1
102
RTVSPost2010Prop51ColorIndex
 90
      256
102
RTVSPost2010Prop51ColorRGB
 90
-16777216
102
RTVSPost2010PropOp51
 70
     0
102
RTVSPost2010Prop52
140
1.0
102
RTVSPost2010PropOp52
 70
     0
102
RTVSPost2010Prop53
 90
        2
102
RTVSPost2010PropOp53
 70
     1
102
RTVSPost2010Prop54
  1
strokes_ogs.tif
102
RTVSPost2010PropOp54
 70
     1
102
RTVSPost2010Prop55
280
     0
102
RTVSPost2010PropOp55
 70
     1
102
RTVSPost2010Prop56
140
1.0
102
RTVSPost2010PropOp56
 70
     1
102
RTVSPost2010Prop57
140
1.0
102
RTVSPost2010PropOp57
 70
     1
  0
XRECORD
  5
28F
102
{ACAD_REACTORS
330
28E
102
}
330
28E
100
AcDbXrecord
280
     1
102
RTVSPropertyOp0
 70
     1
102
RTVSPropertyOp1
 70
     1
102
RTVSPropertyOp2
 70
     1
102
RTVSPropertyOp3
 70
     1
102
RTVSPropertyOp4
 70
     1
102
RTVSPropertyOp5
 70
     1
102
RTVSPropertyOp6
 70
     1
102
RTVSPropertyOp7
 70
     1
102
RTVSPropertyOp8
 70
     1
102
RTVSPropertyOp9
 70
     1
102
RTVSPropertyOp10
 70
     1
102
RTVSPropertyOp11
 70
     1
102
RTVSPropertyOp12
 70
     1
102
RTVSPropertyOp13
 70
     1
102
RTVSPropertyOp14
 70
     1
102
RTVSPropertyOp15
 70
     1
102
RTVSPropertyOp16
 70
     1
102
RTVSPropertyOp17
 70
     1
102
RTVSPropertyOp18
 70
     1
102
RTVSPropertyOp19
 70
     1
102
RTVSPropertyOp20
 70
     1
102
RTVSPropertyOp21
 70
     1
102
RTVSPropertyOp22
 70
     1
102
RTVSPropertyOp23
 70
     1
102
RTVSPropertyOp24
 70
     1
102
RTVSPropertyOp25
 70
     1
102
RTVSPropertyOp26
 70
     1
102
RTVSPropertyOp27
 70
     1
102
RTVSPropertyOp28
 70
     1
102
RTVSPropertyOp29
 70
     1
102
RTVSPropertyOp30
 70
     1
102
RTVSPropertyOp31
 70
     1
102
RTVSPropertyOp32
 70
     1
102
RTVSPropertyOp33
 70
     1
102
RTVSPropertyOp34
 70
     1
102
RTVSPropertyOp35
 70
     1
102
RTVSPropertyOp36
 70
     1
102
RTVSPropertyOp37
 70
     1
102
RTVSPropertyOp38
 70
     1
102
RTVSPropertyOp39
 70
     1
102
RTVSPropertyOp40
 70
     1
102
RTVSPropertyOp41
 70
     1
102
RTVSPropertyOp42
 70
     1
102
RTVSPropertyOp43
 70
     1
102
RTVSPropertyOp44
 70
     1
102
RTVSPropertyOp45
 70
     1
102
RTVSPropertyOp46
 70
     1
102
RTVSPropertyOp47
 70
     1
102
RTVSPropertyOp48
 70
     1
102
RTVSPropertyOp49
 70
     1
102
RTVSPropertyOp50
 70
     1
102
RTVSPropertyOp51
 70
     0
102
RTVSPropertyOp52
 70
     0
102
RTVSPropertyOp53
 70
     1
102
RTVSPropertyOp54
 70
     1
102
RTVSPropertyOp55
 70
     1
102
RTVSPropertyOp56
 70
     1
102
RTVSPropertyOp57
 70
     1
102
RTVSPost2010Prop28
280
     0
102
RTVSPost2010PropOp28
 70
     1
102
RTVSPost2010Prop29
280
     1
102
RTVSPost2010PropOp29
 70
     1
102
RTVSPost2010Prop30
280
     1
102
RTVSPost2010PropOp30
 70
     1
102
RTVSPost2010Prop31
280
     0
102
RTVSPost2010PropOp31
 70
     1
102
RTVSPost2010Prop32
280
     0
102
RTVSPost2010PropOp32
 70
     1
102
RTVSPost2010Prop33
280
     0
102
RTVSPost2010PropOp33
 70
     1
102
RTVSPost2010Prop34
280
     0
102
RTVSPost2010PropOp34
 70
     1
102
RTVSPost2010Prop35
280
     0
102
RTVSPost2010PropOp35
 70
     1
102
RTVSPost2010Prop36
280
     0
102
RTVSPost2010PropOp36
 70
     1
102
RTVSPost2010Prop37
 90
       50
102
RTVSPost2010PropOp37
 70
     1
102
RTVSPost2010Prop38
140
0.0
102
RTVSPost2010PropOp38
 70
     1
102
RTVSPost2010Prop39
140
1.0
102
RTVSPost2010PropOp39
 70
     1
102
RTVSPost2010Prop40
 90
        0
102
RTVSPost2010PropOp40
 70
     1
102
RTVSPost2010Prop41ColorIndex
 90
       18
102
RTVSPost2010Prop41ColorRGB
 90
        0
102
RTVSPost2010PropOp41
 70
     1
102
RTVSPost2010Prop42
 90
       50
102
RTVSPost2010PropOp42
 70
     1
102
RTVSPost2010Prop43
 90
        3
102
RTVSPost2010PropOp43
 70
     1
102
RTVSPost2010Prop44ColorIndex
 90
        5
102
RTVSPost2010Prop44ColorRGB
 90
      255
102
RTVSPost2010PropOp44
 70
     1
102
RTVSPost2010Prop45
280
     0
102
RTVSPost2010PropOp45
 70
     1
102
RTVSPost2010Prop46
 90
       50
102
RTVSPost2010PropOp46
 70
     1
102
RTVSPost2010Prop47
 90
       50
102
RTVSPost2010PropOp47
 70
     1
102
RTVSPost2010Prop48
 90
       50
102
RTVSPost2010PropOp48
 70
     1
102
RTVSPost2010Prop49
280
     0
102
RTVSPost2010PropOp49
 70
     1
102
RTVSPost2010Prop50
 90
       50
102
RTVSPost2010PropOp50
 70
     1
102
RTVSPost2010Prop51ColorIndex
 90
      256
102
RTVSPost2010Prop51ColorRGB
 90
-16777216
102
RTVSPost2010PropOp51
 70
     0
102
RTVSPost2010Prop52
140
1.0
102
RTVSPost2010PropOp52
 70
     0
102
RTVSPost2010Prop53
 90
        2
102
RTVSPost2010PropOp53
 70
     1
102
RTVSPost2010Prop54
  1
strokes_ogs.tif
102
RTVSPost2010PropOp54
 70
     1
102
RTVSPost2010Prop55
280
     0
102
RTVSPost2010PropOp55
 70
     1
102
RTVSPost2010Prop56
140
1.0
102
RTVSPost2010PropOp56
 70
     1
102
RTVSPost2010Prop57
140
1.0
102
RTVSPost2010PropOp57
 70
     1
  0
XRECORD
  5
291
102
{ACAD_REACTORS
330
290
102
}
330
290
100
AcDbXrecord
280
     1
102
RTVSPropertyOp0
 70
     1
102
RTVSPropertyOp1
 70
     1
102
RTVSPropertyOp2
 70
     1
102
RTVSPropertyOp3
 70
     1
102
RTVSPropertyOp4
 70
     1
102
RTVSPropertyOp5
 70
     1
102
RTVSPropertyOp6
 70
     1
102
RTVSPropertyOp7
 70
     1
102
RTVSPropertyOp8
 70
     1
102
RTVSPropertyOp9
 70
     1
102
RTVSPropertyOp10
 70
     1
102
RTVSPropertyOp11
 70
     1
102
RTVSPropertyOp12
 70
     1
102
RTVSPropertyOp13
 70
     1
102
RTVSPropertyOp14
 70
     1
102
RTVSPropertyOp15
 70
     1
102
RTVSPropertyOp16
 70
     1
102
RTVSPropertyOp17
 70
     1
102
RTVSPropertyOp18
 70
     1
102
RTVSPropertyOp19
 70
     1
102
RTVSPropertyOp20
 70
     1
102
RTVSPropertyOp21
 70
     1
102
RTVSPropertyOp22
 70
     1
102
RTVSPropertyOp23
 70
     1
102
RTVSPropertyOp24
 70
     1
102
RTVSPropertyOp25
 70
     1
102
RTVSPropertyOp26
 70
     1
102
RTVSPropertyOp27
 70
     1
102
RTVSPropertyOp28
 70
     1
102
RTVSPropertyOp29
 70
     1
102
RTVSPropertyOp30
 70
     1
102
RTVSPropertyOp31
 70
     1
102
RTVSPropertyOp32
 70
     1
102
RTVSPropertyOp33
 70
     1
102
RTVSPropertyOp34
 70
     1
102
RTVSPropertyOp35
 70
     1
102
RTVSPropertyOp36
 70
     1
102
RTVSPropertyOp37
 70
     1
102
RTVSPropertyOp38
 70
     1
102
RTVSPropertyOp39
 70
     1
102
RTVSPropertyOp40
 70
     1
102
RTVSPropertyOp41
 70
     1
102
RTVSPropertyOp42
 70
     1
102
RTVSPropertyOp43
 70
     1
102
RTVSPropertyOp44
 70
     1
102
RTVSPropertyOp45
 70
     1
102
RTVSPropertyOp46
 70
     1
102
RTVSPropertyOp47
 70
     1
102
RTVSPropertyOp48
 70
     1
102
RTVSPropertyOp49
 70
     1
102
RTVSPropertyOp50
 70
     1
102
RTVSPropertyOp51
 70
     0
102
RTVSPropertyOp52
 70
     0
102
RTVSPropertyOp53
 70
     1
102
RTVSPropertyOp54
 70
     1
102
RTVSPropertyOp55
 70
     1
102
RTVSPropertyOp56
 70
     1
102
RTVSPropertyOp57
 70
     1
102
RTVSPost2010Prop28
280
     0
102
RTVSPost2010PropOp28
 70
     1
102
RTVSPost2010Prop29
280
     1
102
RTVSPost2010PropOp29
 70
     1
102
RTVSPost2010Prop30
280
     1
102
RTVSPost2010PropOp30
 70
     1
102
RTVSPost2010Prop31
280
     0
102
RTVSPost2010PropOp31
 70
     1
102
RTVSPost2010Prop32
280
     0
102
RTVSPost2010PropOp32
 70
     1
102
RTVSPost2010Prop33
280
     0
102
RTVSPost2010PropOp33
 70
     1
102
RTVSPost2010Prop34
280
     0
102
RTVSPost2010PropOp34
 70
     1
102
RTVSPost2010Prop35
280
     0
102
RTVSPost2010PropOp35
 70
     1
102
RTVSPost2010Prop36
280
     0
102
RTVSPost2010PropOp36
 70
     1
102
RTVSPost2010Prop37
 90
       50
102
RTVSPost2010PropOp37
 70
     1
102
RTVSPost2010Prop38
140
0.0
102
RTVSPost2010PropOp38
 70
     1
102
RTVSPost2010Prop39
140
1.0
102
RTVSPost2010PropOp39
 70
     1
102
RTVSPost2010Prop40
 90
        0
102
RTVSPost2010PropOp40
 70
     1
102
RTVSPost2010Prop41ColorIndex
 90
       18
102
RTVSPost2010Prop41ColorRGB
 90
        0
102
RTVSPost2010PropOp41
 70
     1
102
RTVSPost2010Prop42
 90
       50
102
RTVSPost2010PropOp42
 70
     1
102
RTVSPost2010Prop43
 90
        3
102
RTVSPost2010PropOp43
 70
     1
102
RTVSPost2010Prop44ColorIndex
 90
        5
102
RTVSPost2010Prop44ColorRGB
 90
      255
102
RTVSPost2010PropOp44
 70
     1
102
RTVSPost2010Prop45
280
     0
102
RTVSPost2010PropOp45
 70
     1
102
RTVSPost2010Prop46
 90
       50
102
RTVSPost2010PropOp46
 70
     1
102
RTVSPost2010Prop47
 90
       50
102
RTVSPost2010PropOp47
 70
     1
102
RTVSPost2010Prop48
 90
       50
102
RTVSPost2010PropOp48
 70
     1
102
RTVSPost2010Prop49
280
     0
102
RTVSPost2010PropOp49
 70
     1
102
RTVSPost2010Prop50
 90
       50
102
RTVSPost2010PropOp50
 70
     1
102
RTVSPost2010Prop51ColorIndex
 90
      256
102
RTVSPost2010Prop51ColorRGB
 90
-16777216
102
RTVSPost2010PropOp51
 70
     0
102
RTVSPost2010Prop52
140
1.0
102
RTVSPost2010PropOp52
 70
     0
102
RTVSPost2010Prop53
 90
        2
102
RTVSPost2010PropOp53
 70
     1
102
RTVSPost2010Prop54
  1
strokes_ogs.tif
102
RTVSPost2010PropOp54
 70
     1
102
RTVSPost2010Prop55
280
     0
102
RTVSPost2010PropOp55
 70
     1
102
RTVSPost2010Prop56
140
1.0
102
RTVSPost2010PropOp56
 70
     1
102
RTVSPost2010Prop57
140
1.0
102
RTVSPost2010PropOp57
 70
     1
  0
XRECORD
  5
281
102
{ACAD_REACTORS
330
280
102
}
330
280
100
AcDbXrecord
280
     1
102
RTVSPropertyOp0
 70
     1
102
RTVSPropertyOp1
 70
     1
102
RTVSPropertyOp2
 70
     1
102
RTVSPropertyOp3
 70
     1
102
RTVSPropertyOp4
 70
     1
102
RTVSPropertyOp5
 70
     1
102
RTVSPropertyOp6
 70
     1
102
RTVSPropertyOp7
 70
     1
102
RTVSPropertyOp8
 70
     1
102
RTVSPropertyOp9
 70
     1
102
RTVSPropertyOp10
 70
     1
102
RTVSPropertyOp11
 70
     1
102
RTVSPropertyOp12
 70
     1
102
RTVSPropertyOp13
 70
     1
102
RTVSPropertyOp14
 70
     1
102
RTVSPropertyOp15
 70
     1
102
RTVSPropertyOp16
 70
     1
102
RTVSPropertyOp17
 70
     1
102
RTVSPropertyOp18
 70
     1
102
RTVSPropertyOp19
 70
     1
102
RTVSPropertyOp20
 70
     1
102
RTVSPropertyOp21
 70
     1
102
RTVSPropertyOp22
 70
     1
102
RTVSPropertyOp23
 70
     1
102
RTVSPropertyOp24
 70
     1
102
RTVSPropertyOp25
 70
     1
102
RTVSPropertyOp26
 70
     1
102
RTVSPropertyOp27
 70
     1
102
RTVSPropertyOp28
 70
     1
102
RTVSPropertyOp29
 70
     1
102
RTVSPropertyOp30
 70
     1
102
RTVSPropertyOp31
 70
     1
102
RTVSPropertyOp32
 70
     1
102
RTVSPropertyOp33
 70
     1
102
RTVSPropertyOp34
 70
     1
102
RTVSPropertyOp35
 70
     1
102
RTVSPropertyOp36
 70
     1
102
RTVSPropertyOp37
 70
     1
102
RTVSPropertyOp38
 70
     1
102
RTVSPropertyOp39
 70
     1
102
RTVSPropertyOp40
 70
     1
102
RTVSPropertyOp41
 70
     1
102
RTVSPropertyOp42
 70
     1
102
RTVSPropertyOp43
 70
     1
102
RTVSPropertyOp44
 70
     1
102
RTVSPropertyOp45
 70
     1
102
RTVSPropertyOp46
 70
     1
102
RTVSPropertyOp47
 70
     1
102
RTVSPropertyOp48
 70
     1
102
RTVSPropertyOp49
 70
     1
102
RTVSPropertyOp50
 70
     1
102
RTVSPropertyOp51
 70
     0
102
RTVSPropertyOp52
 70
     0
102
RTVSPropertyOp53
 70
     1
102
RTVSPropertyOp54
 70
     1
102
RTVSPropertyOp55
 70
     1
102
RTVSPropertyOp56
 70
     1
102
RTVSPropertyOp57
 70
     1
102
RTVSPost2010Prop28
280
     0
102
RTVSPost2010PropOp28
 70
     1
102
RTVSPost2010Prop29
280
     1
102
RTVSPost2010PropOp29
 70
     1
102
RTVSPost2010Prop30
280
     1
102
RTVSPost2010PropOp30
 70
     1
102
RTVSPost2010Prop31
280
     0
102
RTVSPost2010PropOp31
 70
     1
102
RTVSPost2010Prop32
280
     0
102
RTVSPost2010PropOp32
 70
     1
102
RTVSPost2010Prop33
280
     0
102
RTVSPost2010PropOp33
 70
     1
102
RTVSPost2010Prop34
280
     0
102
RTVSPost2010PropOp34
 70
     1
102
RTVSPost2010Prop35
280
     0
102
RTVSPost2010PropOp35
 70
     1
102
RTVSPost2010Prop36
280
     0
102
RTVSPost2010PropOp36
 70
     1
102
RTVSPost2010Prop37
 90
       50
102
RTVSPost2010PropOp37
 70
     1
102
RTVSPost2010Prop38
140
0.0
102
RTVSPost2010PropOp38
 70
     1
102
RTVSPost2010Prop39
140
1.0
102
RTVSPost2010PropOp39
 70
     1
102
RTVSPost2010Prop40
 90
        0
102
RTVSPost2010PropOp40
 70
     1
102
RTVSPost2010Prop41ColorIndex
 90
       18
102
RTVSPost2010Prop41ColorRGB
 90
        0
102
RTVSPost2010PropOp41
 70
     1
102
RTVSPost2010Prop42
 90
       50
102
RTVSPost2010PropOp42
 70
     1
102
RTVSPost2010Prop43
 90
        3
102
RTVSPost2010PropOp43
 70
     1
102
RTVSPost2010Prop44ColorIndex
 90
        5
102
RTVSPost2010Prop44ColorRGB
 90
      255
102
RTVSPost2010PropOp44
 70
     1
102
RTVSPost2010Prop45
280
     0
102
RTVSPost2010PropOp45
 70
     1
102
RTVSPost2010Prop46
 90
       50
102
RTVSPost2010PropOp46
 70
     1
102
RTVSPost2010Prop47
 90
       50
102
RTVSPost2010PropOp47
 70
     1
102
RTVSPost2010Prop48
 90
       50
102
RTVSPost2010PropOp48
 70
     1
102
RTVSPost2010Prop49
280
     0
102
RTVSPost2010PropOp49
 70
     1
102
RTVSPost2010Prop50
 90
       50
102
RTVSPost2010PropOp50
 70
     1
102
RTVSPost2010Prop51ColorIndex
 90
      256
102
RTVSPost2010Prop51ColorRGB
 90
-16777216
102
RTVSPost2010PropOp51
 70
     0
102
RTVSPost2010Prop52
140
1.0
102
RTVSPost2010PropOp52
 70
     0
102
RTVSPost2010Prop53
 90
        2
102
RTVSPost2010PropOp53
 70
     1
102
RTVSPost2010Prop54
  1
strokes_ogs.tif
102
RTVSPost2010PropOp54
 70
     1
102
RTVSPost2010Prop55
280
     0
102
RTVSPost2010PropOp55
 70
     1
102
RTVSPost2010Prop56
140
1.0
102
RTVSPost2010PropOp56
 70
     1
102
RTVSPost2010Prop57
140
1.0
102
RTVSPost2010PropOp57
 70
     1
  0
XRECORD
  5
273
102
{ACAD_REACTORS
330
272
102
}
330
272
100
AcDbXrecord
280
     1
102
RTVSPropertyOp0
 70
     1
102
RTVSPropertyOp1
 70
     1
102
RTVSPropertyOp2
 70
     1
102
RTVSPropertyOp3
 70
     1
102
RTVSPropertyOp4
 70
     1
102
RTVSPropertyOp5
 70
     1
102
RTVSPropertyOp6
 70
     1
102
RTVSPropertyOp7
 70
     1
102
RTVSPropertyOp8
 70
     1
102
RTVSPropertyOp9
 70
     1
102
RTVSPropertyOp10
 70
     1
102
RTVSPropertyOp11
 70
     1
102
RTVSPropertyOp12
 70
     1
102
RTVSPropertyOp13
 70
     1
102
RTVSPropertyOp14
 70
     1
102
RTVSPropertyOp15
 70
     1
102
RTVSPropertyOp16
 70
     1
102
RTVSPropertyOp17
 70
     1
102
RTVSPropertyOp18
 70
     1
102
RTVSPropertyOp19
 70
     1
102
RTVSPropertyOp20
 70
     1
102
RTVSPropertyOp21
 70
     1
102
RTVSPropertyOp22
 70
     1
102
RTVSPropertyOp23
 70
     1
102
RTVSPropertyOp24
 70
     1
102
RTVSPropertyOp25
 70
     1
102
RTVSPropertyOp26
 70
     1
102
RTVSPropertyOp27
 70
     1
102
RTVSPropertyOp28
 70
     1
102
RTVSPropertyOp29
 70
     1
102
RTVSPropertyOp30
 70
     1
102
RTVSPropertyOp31
 70
     1
102
RTVSPropertyOp32
 70
     1
102
RTVSPropertyOp33
 70
     1
102
RTVSPropertyOp34
 70
     1
102
RTVSPropertyOp35
 70
     1
102
RTVSPropertyOp36
 70
     1
102
RTVSPropertyOp37
 70
     1
102
RTVSPropertyOp38
 70
     1
102
RTVSPropertyOp39
 70
     1
102
RTVSPropertyOp40
 70
     1
102
RTVSPropertyOp41
 70
     1
102
RTVSPropertyOp42
 70
     1
102
RTVSPropertyOp43
 70
     1
102
RTVSPropertyOp44
 70
     1
102
RTVSPropertyOp45
 70
     1
102
RTVSPropertyOp46
 70
     1
102
RTVSPropertyOp47
 70
     1
102
RTVSPropertyOp48
 70
     1
102
RTVSPropertyOp49
 70
     1
102
RTVSPropertyOp50
 70
     1
102
RTVSPropertyOp51
 70
     0
102
RTVSPropertyOp52
 70
     0
102
RTVSPropertyOp53
 70
     1
102
RTVSPropertyOp54
 70
     1
102
RTVSPropertyOp55
 70
     1
102
RTVSPropertyOp56
 70
     1
102
RTVSPropertyOp57
 70
     1
102
RTVSPost2010Prop28
280
     0
102
RTVSPost2010PropOp28
 70
     1
102
RTVSPost2010Prop29
280
     1
102
RTVSPost2010PropOp29
 70
     1
102
RTVSPost2010Prop30
280
     1
102
RTVSPost2010PropOp30
 70
     1
102
RTVSPost2010Prop31
280
     0
102
RTVSPost2010PropOp31
 70
     1
102
RTVSPost2010Prop32
280
     0
102
RTVSPost2010PropOp32
 70
     1
102
RTVSPost2010Prop33
280
     0
102
RTVSPost2010PropOp33
 70
     1
102
RTVSPost2010Prop34
280
     0
102
RTVSPost2010PropOp34
 70
     1
102
RTVSPost2010Prop35
280
     0
102
RTVSPost2010PropOp35
 70
     1
102
RTVSPost2010Prop36
280
     0
102
RTVSPost2010PropOp36
 70
     1
102
RTVSPost2010Prop37
 90
       50
102
RTVSPost2010PropOp37
 70
     1
102
RTVSPost2010Prop38
140
0.0
102
RTVSPost2010PropOp38
 70
     1
102
RTVSPost2010Prop39
140
1.0
102
RTVSPost2010PropOp39
 70
     1
102
RTVSPost2010Prop40
 90
        0
102
RTVSPost2010PropOp40
 70
     1
102
RTVSPost2010Prop41ColorIndex
 90
       18
102
RTVSPost2010Prop41ColorRGB
 90
        0
102
RTVSPost2010PropOp41
 70
     1
102
RTVSPost2010Prop42
 90
       50
102
RTVSPost2010PropOp42
 70
     1
102
RTVSPost2010Prop43
 90
        3
102
RTVSPost2010PropOp43
 70
     1
102
RTVSPost2010Prop44ColorIndex
 90
        5
102
RTVSPost2010Prop44ColorRGB
 90
      255
102
RTVSPost2010PropOp44
 70
     1
102
RTVSPost2010Prop45
280
     0
102
RTVSPost2010PropOp45
 70
     1
102
RTVSPost2010Prop46
 90
       50
102
RTVSPost2010PropOp46
 70
     1
102
RTVSPost2010Prop47
 90
       50
102
RTVSPost2010PropOp47
 70
     1
102
RTVSPost2010Prop48
 90
       50
102
RTVSPost2010PropOp48
 70
     1
102
RTVSPost2010Prop49
280
     0
102
RTVSPost2010PropOp49
 70
     1
102
RTVSPost2010Prop50
 90
       50
102
RTVSPost2010PropOp50
 70
     1
102
RTVSPost2010Prop51ColorIndex
 90
      256
102
RTVSPost2010Prop51ColorRGB
 90
-16777216
102
RTVSPost2010PropOp51
 70
     0
102
RTVSPost2010Prop52
140
1.0
102
RTVSPost2010PropOp52
 70
     0
102
RTVSPost2010Prop53
 90
        2
102
RTVSPost2010PropOp53
 70
     1
102
RTVSPost2010Prop54
  1
strokes_ogs.tif
102
RTVSPost2010PropOp54
 70
     1
102
RTVSPost2010Prop55
280
     0
102
RTVSPost2010PropOp55
 70
     1
102
RTVSPost2010Prop56
140
1.0
102
RTVSPost2010PropOp56
 70
     1
102
RTVSPost2010Prop57
140
1.0
102
RTVSPost2010PropOp57
 70
     1
  0
XRECORD
  5
293
102
{ACAD_REACTORS
330
292
102
}
330
292
100
AcDbXrecord
280
     1
102
RTVSPropertyOp0
 70
     1
102
RTVSPropertyOp1
 70
     1
102
RTVSPropertyOp2
 70
     1
102
RTVSPropertyOp3
 70
     1
102
RTVSPropertyOp4
 70
     1
102
RTVSPropertyOp5
 70
     1
102
RTVSPropertyOp6
 70
     1
102
RTVSPropertyOp7
 70
     1
102
RTVSPropertyOp8
 70
     1
102
RTVSPropertyOp9
 70
     1
102
RTVSPropertyOp10
 70
     1
102
RTVSPropertyOp11
 70
     1
102
RTVSPropertyOp12
 70
     1
102
RTVSPropertyOp13
 70
     1
102
RTVSPropertyOp14
 70
     1
102
RTVSPropertyOp15
 70
     1
102
RTVSPropertyOp16
 70
     1
102
RTVSPropertyOp17
 70
     1
102
RTVSPropertyOp18
 70
     1
102
RTVSPropertyOp19
 70
     1
102
RTVSPropertyOp20
 70
     1
102
RTVSPropertyOp21
 70
     1
102
RTVSPropertyOp22
 70
     1
102
RTVSPropertyOp23
 70
     1
102
RTVSPropertyOp24
 70
     1
102
RTVSPropertyOp25
 70
     1
102
RTVSPropertyOp26
 70
     1
102
RTVSPropertyOp27
 70
     1
102
RTVSPropertyOp28
 70
     1
102
RTVSPropertyOp29
 70
     1
102
RTVSPropertyOp30
 70
     1
102
RTVSPropertyOp31
 70
     1
102
RTVSPropertyOp32
 70
     1
102
RTVSPropertyOp33
 70
     1
102
RTVSPropertyOp34
 70
     1
102
RTVSPropertyOp35
 70
     1
102
RTVSPropertyOp36
 70
     1
102
RTVSPropertyOp37
 70
     1
102
RTVSPropertyOp38
 70
     1
102
RTVSPropertyOp39
 70
     1
102
RTVSPropertyOp40
 70
     1
102
RTVSPropertyOp41
 70
     1
102
RTVSPropertyOp42
 70
     1
102
RTVSPropertyOp43
 70
     1
102
RTVSPropertyOp44
 70
     1
102
RTVSPropertyOp45
 70
     1
102
RTVSPropertyOp46
 70
     1
102
RTVSPropertyOp47
 70
     1
102
RTVSPropertyOp48
 70
     1
102
RTVSPropertyOp49
 70
     1
102
RTVSPropertyOp50
 70
     1
102
RTVSPropertyOp51
 70
     0
102
RTVSPropertyOp52
 70
     0
102
RTVSPropertyOp53
 70
     1
102
RTVSPropertyOp54
 70
     1
102
RTVSPropertyOp55
 70
     1
102
RTVSPropertyOp56
 70
     1
102
RTVSPropertyOp57
 70
     1
102
RTVSPost2010Prop28
280
     0
102
RTVSPost2010PropOp28
 70
     1
102
RTVSPost2010Prop29
280
     1
102
RTVSPost2010PropOp29
 70
     1
102
RTVSPost2010Prop30
280
     1
102
RTVSPost2010PropOp30
 70
     1
102
RTVSPost2010Prop31
280
     0
102
RTVSPost2010PropOp31
 70
     1
102
RTVSPost2010Prop32
280
     0
102
RTVSPost2010PropOp32
 70
     1
102
RTVSPost2010Prop33
280
     0
102
RTVSPost2010PropOp33
 70
     1
102
RTVSPost2010Prop34
280
     0
102
RTVSPost2010PropOp34
 70
     1
102
RTVSPost2010Prop35
280
     0
102
RTVSPost2010PropOp35
 70
     1
102
RTVSPost2010Prop36
280
     0
102
RTVSPost2010PropOp36
 70
     1
102
RTVSPost2010Prop37
 90
       50
102
RTVSPost2010PropOp37
 70
     1
102
RTVSPost2010Prop38
140
0.0
102
RTVSPost2010PropOp38
 70
     1
102
RTVSPost2010Prop39
140
1.0
102
RTVSPost2010PropOp39
 70
     1
102
RTVSPost2010Prop40
 90
        0
102
RTVSPost2010PropOp40
 70
     1
102
RTVSPost2010Prop41ColorIndex
 90
       18
102
RTVSPost2010Prop41ColorRGB
 90
        0
102
RTVSPost2010PropOp41
 70
     1
102
RTVSPost2010Prop42
 90
       50
102
RTVSPost2010PropOp42
 70
     1
102
RTVSPost2010Prop43
 90
        3
102
RTVSPost2010PropOp43
 70
     1
102
RTVSPost2010Prop44ColorIndex
 90
        5
102
RTVSPost2010Prop44ColorRGB
 90
      255
102
RTVSPost2010PropOp44
 70
     1
102
RTVSPost2010Prop45
280
     0
102
RTVSPost2010PropOp45
 70
     1
102
RTVSPost2010Prop46
 90
       50
102
RTVSPost2010PropOp46
 70
     1
102
RTVSPost2010Prop47
 90
       50
102
RTVSPost2010PropOp47
 70
     1
102
RTVSPost2010Prop48
 90
       50
102
RTVSPost2010PropOp48
 70
     1
102
RTVSPost2010Prop49
280
     0
102
RTVSPost2010PropOp49
 70
     1
102
RTVSPost2010Prop50
 90
       50
102
RTVSPost2010PropOp50
 70
     1
102
RTVSPost2010Prop51ColorIndex
 90
      256
102
RTVSPost2010Prop51ColorRGB
 90
-16777216
102
RTVSPost2010PropOp51
 70
     0
102
RTVSPost2010Prop52
140
1.0
102
RTVSPost2010PropOp52
 70
     0
102
RTVSPost2010Prop53
 90
        2
102
RTVSPost2010PropOp53
 70
     1
102
RTVSPost2010Prop54
  1
strokes_ogs.tif
102
RTVSPost2010PropOp54
 70
     1
102
RTVSPost2010Prop55
280
     0
102
RTVSPost2010PropOp55
 70
     1
102
RTVSPost2010Prop56
140
1.0
102
RTVSPost2010PropOp56
 70
     1
102
RTVSPost2010Prop57
140
1.0
102
RTVSPost2010PropOp57
 70
     1
  0
ENDSEC
  0
EOF
