  0
SECTION
  2
HEADER
  9
$ACADVER
  1
AC1018
  9
$ACADMAINTVER
 70
     0
  9
$DWGCODEPAGE
  3
ANSI_932
  9
$INSBASE
 10
0.0
 20
0.0
 30
0.0
  9
$EXTMIN
 10
-2100.0
 20
-1485.0
 30
0.0
  9
$EXTMAX
 10
2100.0
 20
1485.0
 30
0.0
  9
$LIMMIN
 10
-2100.0
 20
-1485.0
  9
$LIMMAX
 10
2100.0
 20
1485.0
  9
$ORTHOMODE
 70
     0
  9
$REGENMODE
 70
     1
  9
$FILLMODE
 70
     1
  9
$QTEXTMODE
 70
     0
  9
$MIRRTEXT
 70
     1
  9
$LTSCALE
 40
10.0
  9
$ATTMODE
 70
     1
  9
$TEXTSIZE
 40
2.5
  9
$TRACEWID
 40
1.0
  9
$TEXTSTYLE
  7
Standard
  9
$CLAYER
  8
0
  9
$CELTYPE
  6
ByLayer
  9
$CECOLOR
 62
   256
  9
$CELTSCALE
 40
1.0
  9
$DISPSILH
 70
     0
  9
$DIMSCALE
 40
1.0
  9
$DIMASZ
 40
2.5
  9
$DIMEXO
 40
0.625
  9
$DIMDLI
 40
3.75
  9
$DIMRND
 40
0.0
  9
$DIMDLE
 40
0.0
  9
$DIMEXE
 40
1.25
  9
$DIMTP
 40
0.0
  9
$DIMTM
 40
0.0
  9
$DIMTXT
 40
2.5
  9
$DIMCEN
 40
2.5
  9
$DIMTSZ
 40
0.0
  9
$DIMTOL
 70
     0
  9
$DIMLIM
 70
     0
  9
$DIMTIH
 70
     0
  9
$DIMTOH
 70
     0
  9
$DIMSE1
 70
     0
  9
$DIMSE2
 70
     0
  9
$DIMTAD
 70
     1
  9
$DIMZIN
 70
     8
  9
$DIMBLK
  1

  9
$DIMASO
 70
     1
  9
$DIMSHO
 70
     1
  9
$DIMPOST
  1

  9
$DIMAPOST
  1

  9
$DIMALT
 70
     0
  9
$DIMALTD
 70
     3
  9
$DIMALTF
 40
0.03937007874016
  9
$DIMLFAC
 40
1.0
  9
$DIMTOFL
 70
     1
  9
$DIMTVP
 40
0.0
  9
$DIMTIX
 70
     0
  9
$DIMSOXD
 70
     0
  9
$DIMSAH
 70
     0
  9
$DIMBLK1
  1

  9
$DIMBLK2
  1

  9
$DIMSTYLE
  2
ISO-25
  9
$DIMCLRD
 70
     0
  9
$DIMCLRE
 70
     0
  9
$DIMCLRT
 70
     0
  9
$DIMTFAC
 40
1.0
  9
$DIMGAP
 40
0.625
  9
$DIMJUST
 70
     0
  9
$DIMSD1
 70
     0
  9
$DIMSD2
 70
     0
  9
$DIMTOLJ
 70
     0
  9
$DIMTZIN
 70
     8
  9
$DIMALTZ
 70
     0
  9
$DIMALTTZ
 70
     0
  9
$DIMUPT
 70
     0
  9
$DIMDEC
 70
     2
  9
$DIMTDEC
 70
     2
  9
$DIMALTU
 70
     2
  9
$DIMALTTD
 70
     3
  9
$DIMTXSTY
  7
Standard
  9
$DIMAUNIT
 70
     0
  9
$DIMADEC
 70
     0
  9
$DIMALTRND
 40
0.0
  9
$DIMAZIN
 70
     0
  9
$DIMDSEP
 70
    44
  9
$DIMATFIT
 70
     3
  9
$DIMFRAC
 70
     0
  9
$DIMLDRBLK
  1

  9
$DIMLUNIT
 70
     2
  9
$DIMLWD
 70
    -2
  9
$DIMLWE
 70
    -2
  9
$DIMTMOVE
 70
     0
  9
$LUNITS
 70
     2
  9
$LUPREC
 70
     4
  9
$SKETCHINC
 40
1.0
  9
$FILLETRAD
 40
10.0
  9
$AUNITS
 70
     0
  9
$AUPREC
 70
     0
  9
$MENU
  1
.
  9
$ELEVATION
 40
0.0
  9
$PELEVATION
 40
0.0
  9
$THICKNESS
 40
0.0
  9
$LIMCHECK
 70
     0
  9
$CHAMFERA
 40
0.0
  9
$CHAMFERB
 40
0.0
  9
$CHAMFERC
 40
0.0
  9
$CHAMFERD
 40
0.0
  9
$SKPOLY
 70
     0
  9
$TDCREATE
 40
2459278.469560729
  9
$TDUCREATE
 40
2459278.094560729
  9
$TDUPDATE
 40
2459278.469560845
  9
$TDUUPDATE
 40
2459278.094560845
  9
$TDINDWG
 40
0.0000000116
  9
$TDUSRTIMER
 40
0.0000000116
  9
$USRTIMER
 70
     1
  9
$ANGBASE
 50
0.0
  9
$ANGDIR
 70
     0
  9
$PDMODE
 70
     0
  9
$PDSIZE
 40
0.0
  9
$PLINEWID
 40
0.0
  9
$SPLFRAME
 70
     0
  9
$SPLINETYPE
 70
     6
  9
$SPLINESEGS
 70
     8
  9
$HANDSEED
  5
32B
  9
$SURFTAB1
 70
     6
  9
$SURFTAB2
 70
     6
  9
$SURFTYPE
 70
     6
  9
$SURFU
 70
     6
  9
$SURFV
 70
     6
  9
$UCSBASE
  2

  9
$UCSNAME
  2

  9
$UCSORG
 10
0.0
 20
0.0
 30
0.0
  9
$UCSXDIR
 10
1.0
 20
0.0
 30
0.0
  9
$UCSYDIR
 10
0.0
 20
1.0
 30
0.0
  9
$UCSORTHOREF
  2

  9
$UCSORTHOVIEW
 70
     0
  9
$UCSORGTOP
 10
0.0
 20
0.0
 30
0.0
  9
$UCSORGBOTTOM
 10
0.0
 20
0.0
 30
0.0
  9
$UCSORGLEFT
 10
0.0
 20
0.0
 30
0.0
  9
$UCSORGRIGHT
 10
0.0
 20
0.0
 30
0.0
  9
$UCSORGFRONT
 10
0.0
 20
0.0
 30
0.0
  9
$UCSORGBACK
 10
0.0
 20
0.0
 30
0.0
  9
$PUCSBASE
  2

  9
$PUCSNAME
  2

  9
$PUCSORG
 10
0.0
 20
0.0
 30
0.0
  9
$PUCSXDIR
 10
1.0
 20
0.0
 30
0.0
  9
$PUCSYDIR
 10
0.0
 20
1.0
 30
0.0
  9
$PUCSORTHOREF
  2

  9
$PUCSORTHOVIEW
 70
     0
  9
$PUCSORGTOP
 10
0.0
 20
0.0
 30
0.0
  9
$PUCSORGBOTTOM
 10
0.0
 20
0.0
 30
0.0
  9
$PUCSORGLEFT
 10
0.0
 20
0.0
 30
0.0
  9
$PUCSORGRIGHT
 10
0.0
 20
0.0
 30
0.0
  9
$PUCSORGFRONT
 10
0.0
 20
0.0
 30
0.0
  9
$PUCSORGBACK
 10
0.0
 20
0.0
 30
0.0
  9
$USERI1
 70
     0
  9
$USERI2
 70
     0
  9
$USERI3
 70
     0
  9
$USERI4
 70
     0
  9
$USERI5
 70
     0
  9
$USERR1
 40
0.0
  9
$USERR2
 40
0.0
  9
$USERR3
 40
0.0
  9
$USERR4
 40
0.0
  9
$USERR5
 40
0.0
  9
$WORLDVIEW
 70
     1
  9
$SHADEDGE
 70
     3
  9
$SHADEDIF
 70
    70
  9
$TILEMODE
 70
     1
  9
$MAXACTVP
 70
    64
  9
$PINSBASE
 10
0.0
 20
0.0
 30
0.0
  9
$PLIMCHECK
 70
     0
  9
$PEXTMIN
 10
1.000000000000000E+20
 20
1.000000000000000E+20
 30
1.000000000000000E+20
  9
$PEXTMAX
 10
-1.000000000000000E+20
 20
-1.000000000000000E+20
 30
-1.000000000000000E+20
  9
$PLIMMIN
 10
0.0
 20
0.0
  9
$PLIMMAX
 10
420.0
 20
297.0
  9
$UNITMODE
 70
     0
  9
$VISRETAIN
 70
     1
  9
$PLINEGEN
 70
     0
  9
$PSLTSCALE
 70
     1
  9
$TREEDEPTH
 70
  3020
  9
$CMLSTYLE
  2
Standard
  9
$CMLJUST
 70
     0
  9
$CMLSCALE
 40
20.0
  9
$PROXYGRAPHICS
 70
     1
  9
$MEASUREMENT
 70
     1
  9
$CELWEIGHT
370
    -1
  9
$ENDCAPS
280
     0
  9
$JOINSTYLE
280
     0
  9
$LWDISPLAY
290
     0
  9
$INSUNITS
 70
     4
  9
$HYPERLINKBASE
  1

  9
$STYLESHEET
  1

  9
$XEDIT
290
     1
  9
$CEPSNTYPE
380
     0
  9
$PSTYLEMODE
290
     1
  9
$FINGERPRINTGUID
  2
{3F63483A-07C6-41BA-A452-708E4DDE104D}
  9
$VERSIONGUID
  2
{FAEB1C32-E019-11D5-929B-00C0DF256EC4}
  9
$EXTNAMES
290
     1
  9
$PSVPSCALE
 40
0.0
  9
$OLESTARTUP
290
     0
  9
$SORTENTS
280
   127
  9
$INDEXCTL
280
     0
  9
$HIDETEXT
280
     1
  9
$XCLIPFRAME
290
     0
  9
$HALOGAP
280
     0
  9
$OBSCOLOR
 70
   257
  9
$OBSLTYPE
280
     0
  9
$INTERSECTIONDISPLAY
280
     0
  9
$INTERSECTIONCOLOR
 70
   257
  9
$DIMASSOC
280
     2
  9
$PROJECTNAME
  1

  0
ENDSEC
  0
SECTION
  2
CLASSES
  0
CLASS
  1
ACDBDICTIONARYWDFLT
  2
AcDbDictionaryWithDefault
  3
ObjectDBX Classes
 90
        0
 91
        4
280
     0
281
     0
  0
CLASS
  1
VISUALSTYLE
  2
AcDbVisualStyle
  3
ObjectDBX Classes
 90
     4095
 91
        4
280
     0
281
     0
  0
CLASS
  1
MATERIAL
  2
AcDbMaterial
  3
ObjectDBX Classes
 90
     1153
 91
        4
280
     0
281
     0
  0
CLASS
  1
SCALE
  2
AcDbScale
  3
ObjectDBX Classes
 90
     1153
 91
        4
280
     0
281
     0
  0
CLASS
  1
TABLESTYLE
  2
AcDbTableStyle
  3
ObjectDBX Classes
 90
     4095
 91
        4
280
     0
281
     0
  0
CLASS
  1
MLEADERSTYLE
  2
AcDbMLeaderStyle
  3
ACDB_MLEADERSTYLE_CLASS
 90
     4095
 91
        4
280
     0
281
     0
  0
CLASS
  1
SUN
  2
AcDbSun
  3
SCENEOE
 90
     1153
 91
        4
280
     0
281
     0
  0
CLASS
  1
DICTIONARYVAR
  2
AcDbDictionaryVar
  3
ObjectDBX Classes
 90
        0
 91
        4
280
     0
281
     0
  0
CLASS
  1
CELLSTYLEMAP
  2
AcDbCellStyleMap
  3
ObjectDBX Classes
 90
     1152
 91
        4
280
     0
281
     0
  0
ENDSEC
  0
SECTION
  2
TABLES
  0
TABLE
  2
VPORT
  5
8
102
{ACAD_XDICTIONARY
360
2E2
102
}
330
0
100
AcDbSymbolTable
 70
     1
  0
VPORT
  5
29
330
8
100
AcDbSymbolTableRecord
100
AcDbViewportTableRecord
  2
*Active
 70
     0
 10
0.0
 20
0.0
 11
1.0
 21
1.0
 12
0.0
 22
0.0
 13
0.0
 23
0.0
 14
10.0
 24
10.0
 15
10.0
 25
10.0
 16
0.0
 26
0.0
 36
1.0
 17
0.0
 27
0.0
 37
0.0
 40
3267.0
 41
1.414141414141414
 42
50.0
 43
0.0
 44
0.0
 50
0.0
 51
0.0
 71
     0
 72
 10000
 73
     1
 74
     3
 75
     0
 76
     0
 77
     0
 78
     0
281
     0
 65
     1
110
0.0
120
0.0
130
0.0
111
1.0
121
0.0
131
0.0
112
0.0
122
1.0
132
0.0
 79
     0
146
0.0
  0
ENDTAB
  0
TABLE
  2
LTYPE
  5
5
330
0
100
AcDbSymbolTable
 70
     7
  0
LTYPE
  5
14
330
5
100
AcDbSymbolTableRecord
100
AcDbLinetypeTableRecord
  2
ByBlock
 70
     0
  3

 72
    65
 73
     0
 40
0.0
  0
LTYPE
  5
15
330
5
100
AcDbSymbolTableRecord
100
AcDbLinetypeTableRecord
  2
ByLayer
 70
     0
  3

 72
    65
 73
     0
 40
0.0
  0
LTYPE
  5
16
330
5
100
AcDbSymbolTableRecord
100
AcDbLinetypeTableRecord
  2
Continuous
 70
     0
  3
Solid line
 72
    65
 73
     0
 40
0.0
  0
LTYPE
  5
6F
330
5
100
AcDbSymbolTableRecord
100
AcDbLinetypeTableRecord
  2
JWW_DASHED2
 70
     0
  3
--    ----    ----    ----    --
 72
    65
 73
     2
 40
3.386666666666667
 49
1.693333333333333
 74
     0
 49
-1.693333333333333
 74
     0
  0
LTYPE
  5
70
330
5
100
AcDbSymbolTableRecord
100
AcDbLinetypeTableRecord
  2
JWW_CENTER2
 70
     0
  3
-------------  --  -------------
 72
    65
 73
     4
 40
13.54666666666667
 49
11.00666666666667
 74
     0
 49
-0.8466666666666667
 74
     0
 49
0.8466666666666667
 74
     0
 49
-0.8466666666666667
 74
     0
  0
LTYPE
  5
71
330
5
100
AcDbSymbolTableRecord
100
AcDbLinetypeTableRecord
  2
JWW_CENTER1
 70
     0
  3
-----  --  ----------  --  -----
 72
    65
 73
     4
 40
6.773333333333333
 49
4.233333333333333
 74
     0
 49
-0.8466666666666667
 74
     0
 49
0.8466666666666667
 74
     0
 49
-0.8466666666666667
 74
     0
  0
LTYPE
  5
72
330
5
100
AcDbSymbolTableRecord
100
AcDbLinetypeTableRecord
  2
JWW_PHANTOM1
 70
     0
  3
----  -  -  --------  -  -  ----
 72
    65
 73
     6
 40
6.773333333333333
 49
3.386666666666667
 74
     0
 49
-0.8466666666666667
 74
     0
 49
0.4233333333333333
 74
     0
 49
-0.8466666666666667
 74
     0
 49
0.4233333333333333
 74
     0
 49
-0.8466666666666667
 74
     0
  0
LTYPE
  5
73
330
5
100
AcDbSymbolTableRecord
100
AcDbLinetypeTableRecord
  2
JWW_PHANTOM2
 70
     0
  3
------------  -  -  ------------
 72
    65
 73
     6
 40
13.54666666666667
 49
10.16
 74
     0
 49
-0.8466666666666667
 74
     0
 49
0.4233333333333333
 74
     0
 49
-0.8466666666666667
 74
     0
 49
0.4233333333333333
 74
     0
 49
-0.8466666666666667
 74
     0
  0
LTYPE
  5
74
330
5
100
AcDbSymbolTableRecord
100
AcDbLinetypeTableRecord
  2
JWW_DASHED1
 70
     0
  3
-  --  --  --  --  --  --  --  -
 72
    65
 73
     2
 40
1.693333333333333
 49
0.8466666666666667
 74
     0
 49
-0.8466666666666667
 74
     0
  0
ENDTAB
  0
TABLE
  2
LAYER
  5
2
330
0
100
AcDbSymbolTable
 70
    17
  0
LAYER
  5
10
330
2
100
AcDbSymbolTableRecord
100
AcDbLayerTableRecord
  2
0
 70
     0
 62
     7
  6
Continuous
370
    -3
390
F
  0
LAYER
  5
75
330
2
100
AcDbSymbolTableRecord
100
AcDbLayerTableRecord
  2
C-2
 70
     0
 62
     7
  6
Continuous
370
    -3
390
F
  0
LAYER
  5
76
330
2
100
AcDbSymbolTableRecord
100
AcDbLayerTableRecord
  2
C-4
 70
     0
 62
     7
  6
Continuous
370
    -3
390
F
  0
LAYER
  5
77
330
2
100
AcDbSymbolTableRecord
100
AcDbLayerTableRecord
  2
C-1
 70
     0
 62
     7
  6
Continuous
370
    -3
390
F
  0
LAYER
  5
78
330
2
100
AcDbSymbolTableRecord
100
AcDbLayerTableRecord
  2
C-6
 70
     0
 62
     7
  6
Continuous
370
    -3
390
F
  0
LAYER
  5
79
330
2
100
AcDbSymbolTableRecord
100
AcDbLayerTableRecord
  2
C-5
 70
     0
 62
     7
  6
Continuous
370
    -3
390
F
  0
LAYER
  5
7A
330
2
100
AcDbSymbolTableRecord
100
AcDbLayerTableRecord
  2
C-3
 70
     0
 62
     7
  6
Continuous
370
    -3
390
F
  0
LAYER
  5
7B
330
2
100
AcDbSymbolTableRecord
100
AcDbLayerTableRecord
  2
D-5
 70
     0
 62
     7
  6
Continuous
370
    -3
390
F
  0
LAYER
  5
7C
330
2
100
AcDbSymbolTableRecord
100
AcDbLayerTableRecord
  2
D-4
 70
     0
 62
     7
  6
Continuous
370
    -3
390
F
  0
LAYER
  5
7D
330
2
100
AcDbSymbolTableRecord
100
AcDbLayerTableRecord
  2
D-0
 70
     0
 62
     7
  6
Continuous
370
    -3
390
F
  0
LAYER
  5
7E
330
2
100
AcDbSymbolTableRecord
100
AcDbLayerTableRecord
  2
D-B
 70
     0
 62
     7
  6
Continuous
370
    -3
390
F
  0
LAYER
  5
7F
330
2
100
AcDbSymbolTableRecord
100
AcDbLayerTableRecord
  2
D-3
 70
     0
 62
     7
  6
Continuous
370
    -3
390
F
  0
LAYER
  5
80
330
2
100
AcDbSymbolTableRecord
100
AcDbLayerTableRecord
  2
D-6
 70
     0
 62
     7
  6
Continuous
370
    -3
390
F
  0
LAYER
  5
81
330
2
100
AcDbSymbolTableRecord
100
AcDbLayerTableRecord
  2
D-2
 70
     0
 62
     7
  6
Continuous
370
    -3
390
F
  0
LAYER
  5
82
330
2
100
AcDbSymbolTableRecord
100
AcDbLayerTableRecord
  2
C-0
 70
     0
 62
     7
  6
Continuous
370
    -3
390
F
  0
LAYER
  5
83
330
2
100
AcDbSymbolTableRecord
100
AcDbLayerTableRecord
  2
C-B
 70
     0
 62
     7
  6
Continuous
370
    -3
390
F
  0
LAYER
  5
84
330
2
100
AcDbSymbolTableRecord
100
AcDbLayerTableRecord
  2
F-5ﾚｲﾔ
 70
     0
 62
     7
  6
Continuous
370
    -3
390
F
  0
ENDTAB
  0
TABLE
  2
STYLE
  5
3
330
0
100
AcDbSymbolTable
 70
     2
  0
STYLE
  5
11
330
3
100
AcDbSymbolTableRecord
100
AcDbTextStyleTableRecord
  2
Standard
 70
     0
 40
0.0
 41
1.0
 50
0.0
 71
     0
 42
2.5
  3
txt
  4

  0
STYLE
  5
6E
330
3
100
AcDbSymbolTableRecord
100
AcDbTextStyleTableRecord
  2
ＭＳ ゴシック
 70
     0
 40
1.0
 41
1.0
 50
0.0
 71
     0
 42
2.5
  3

  4

1001
ACAD
1000
MS Gothic
1071
    32817
  0
ENDTAB
  0
TABLE
  2
VIEW
  5
6
330
0
100
AcDbSymbolTable
 70
     0
  0
ENDTAB
  0
TABLE
  2
UCS
  5
7
330
0
100
AcDbSymbolTable
 70
     0
  0
ENDTAB
  0
TABLE
  2
APPID
  5
9
330
0
100
AcDbSymbolTable
 70
     2
  0
APPID
  5
12
330
9
100
AcDbSymbolTableRecord
100
AcDbRegAppTableRecord
  2
ACAD
 70
     0
  0
APPID
  5
321
330
9
100
AcDbSymbolTableRecord
100
AcDbRegAppTableRecord
  2
ACAD_MLEADERVER
 70
     0
  0
ENDTAB
  0
TABLE
  2
DIMSTYLE
  5
A
330
0
100
AcDbSymbolTable
 70
     1
100
AcDbDimStyleTable
  0
DIMSTYLE
105
27
330
A
100
AcDbSymbolTableRecord
100
AcDbDimStyleTableRecord
  2
ISO-25
 70
     0
 41
2.5
 42
0.625
 43
3.75
 44
1.25
 73
     0
 74
     0
 77
     1
 78
     8
140
2.5
141
2.5
143
0.03937007874016
147
0.625
171
     3
172
     1
178
     0
271
     2
272
     2
274
     3
278
    44
283
     0
284
     8
340
11
  0
ENDTAB
  0
TABLE
  2
BLOCK_RECORD
  5
1
330
0
100
AcDbSymbolTable
 70
     1
  0
BLOCK_RECORD
  5
1F
330
1
100
AcDbSymbolTableRecord
100
AcDbBlockTableRecord
  2
*Model_Space
340
22
  0
BLOCK_RECORD
  5
1B
330
1
100
AcDbSymbolTableRecord
100
AcDbBlockTableRecord
  2
*Paper_Space
340
1E
  0
BLOCK_RECORD
  5
23
330
1
100
AcDbSymbolTableRecord
100
AcDbBlockTableRecord
  2
*Paper_Space0
340
26
  0
ENDTAB
  0
ENDSEC
  0
SECTION
  2
BLOCKS
  0
BLOCK
  5
20
330
1F
100
AcDbEntity
  8
0
100
AcDbBlockBegin
  2
*Model_Space
 70
     0
 10
0.0
 20
0.0
 30
0.0
  3
*Model_Space
  1

  0
ENDBLK
  5
21
330
1F
100
AcDbEntity
  8
0
100
AcDbBlockEnd
  0
BLOCK
  5
1C
330
1B
100
AcDbEntity
 67
     1
  8
0
100
AcDbBlockBegin
  2
*Paper_Space
 70
     0
 10
0.0
 20
0.0
 30
0.0
  3
*Paper_Space
  1

  0
ENDBLK
  5
1D
330
1B
100
AcDbEntity
 67
     1
  8
0
100
AcDbBlockEnd
  0
BLOCK
  5
24
330
23
100
AcDbEntity
  8
0
100
AcDbBlockBegin
  2
*Paper_Space0
 70
     0
 10
0.0
 20
0.0
 30
0.0
  3
*Paper_Space0
  1

  0
ENDBLK
  5
25
330
23
100
AcDbEntity
  8
0
100
AcDbBlockEnd
  0
ENDSEC
  0
SECTION
  2
ENTITIES
  0
LINE
  5
85
330
1F
100
AcDbEntity
  8
C-2
  6
Continuous
 62
     3
370
     9
100
AcDbLine
 10
-456.9727093299896
 20
824.2323815143055
 30
0.0
 11
-456.9727093299896
 21
1238.732409557486
 31
0.0
  0
ARC
  5
86
330
1F
100
AcDbEntity
  8
C-2
  6
Continuous
 62
     3
370
     9
100
AcDbCircle
 10
-487.2227225267801
 20
212.4957576230076
 30
0.0
 40
30.24999773180163
100
AcDbArc
 50
269.9998626708984
 51
90.00013732910158
  0
LINE
  5
87
330
1F
100
AcDbEntity
  8
C-2
  6
Continuous
 62
     3
370
     9
100
AcDbLine
 10
-901.7228478962903
 20
182.245744426217
 30
0.0
 11
-487.2227225267801
 21
182.245744426217
 31
0.0
  0
ARC
  5
88
330
1F
100
AcDbEntity
  8
C-2
  6
Continuous
 62
     3
370
     9
100
AcDbCircle
 10
-901.7228478962903
 20
37.49574442621679
 30
0.0
 40
144.75
100
AcDbArc
 50
90.0
 51
180.0
  0
LINE
  5
89
330
1F
100
AcDbEntity
  8
C-2
  6
Continuous
 62
     3
370
     9
100
AcDbLine
 10
-901.7228742898715
 20
242.7457708197983
 30
0.0
 11
-487.2227225267801
 21
242.7457708197983
 31
0.0
  0
ARC
  5
8A
330
1F
100
AcDbEntity
  8
C-2
  6
Continuous
 62
     3
370
     9
100
AcDbCircle
 10
-901.7228742898715
 20
37.49577081979822
 30
0.0
 40
205.2500000000001
100
AcDbArc
 50
90.0
 51
180.0
  0
LINE
  5
8B
330
1F
100
AcDbEntity
  8
C-4
  6
Continuous
 62
     7
370
     9
100
AcDbLine
 10
-919.4004780688854
 20
55.17337459881219
 30
0.0
 11
-1025.466547800727
 21
161.2394443306536
 31
0.0
  0
LINE
  5
8C
330
1F
100
AcDbEntity
  8
C-4
  6
Continuous
 62
     7
370
     9
100
AcDbLine
 10
-1025.466547800727
 20
161.2394443306536
 30
0.0
 11
-1010.24751406973
 21
141.4056579075117
 31
0.0
  0
LINE
  5
8D
330
1F
100
AcDbEntity
  8
C-4
  6
Continuous
 62
     7
370
     9
100
AcDbLine
 10
-1025.466547800727
 20
161.2394443306536
 30
0.0
 11
-1005.632761377585
 21
146.020410599657
 31
0.0
  0
TEXT
  5
8E
330
1F
100
AcDbEntity
  8
C-4
  6
Continuous
 62
     2
370
     9
100
AcDbText
 10
-976.7581768221171
 20
134.6495371866296
 30
0.0
 40
30.47999999999917
  1
R175
 50
314.9999999999993
 41
1.093750000000036
  7
ＭＳ ゴシック
100
AcDbText
  0
LINE
  5
8F
330
1F
100
AcDbEntity
  8
C-1
  6
Continuous
 62
     7
370
     9
100
AcDbLine
 10
-1116.722894085057
 20
-807.2542910401578
 30
0.0
 11
-1116.722894085057
 21
-808.7542588729804
 31
0.0
  0
LINE
  5
90
330
1F
100
AcDbEntity
  8
C-1
  6
Continuous
 62
     7
370
     9
100
AcDbLine
 10
-1036.722828101104
 20
-807.2542910401578
 30
0.0
 11
-1036.722828101104
 21
-808.7542588729804
 31
0.0
  0
LINE
  5
91
330
1F
100
AcDbEntity
  8
C-1
  6
Continuous
 62
     7
370
     9
100
AcDbLine
 10
-1116.722894085057
 20
-807.2542910401578
 30
0.0
 11
-1036.722828101104
 21
-807.2542910401578
 31
0.0
  0
LINE
  5
92
330
1F
100
AcDbEntity
  8
C-1
  6
Continuous
 62
     7
370
     9
100
AcDbLine
 10
-1064.222795109128
 20
-807.2542910401578
 30
0.0
 11
-1064.222795109128
 21
-808.7542588729804
 31
0.0
  0
LINE
  5
93
330
1F
100
AcDbEntity
  8
C-1
  6
Continuous
 62
     7
370
     9
100
AcDbLine
 10
-1089.222927077034
 20
-807.2542910401578
 30
0.0
 11
-1089.222927077034
 21
-808.7542588729804
 31
0.0
  0
LINE
  5
94
330
1F
100
AcDbEntity
  8
C-1
  6
Continuous
 62
     7
370
     9
100
AcDbLine
 10
-527.2227555187567
 20
-807.2542910401578
 30
0.0
 11
-527.2227555187567
 21
-808.7542588729804
 31
0.0
  0
LINE
  5
95
330
1F
100
AcDbEntity
  8
C-1
  6
Continuous
 62
     7
370
     9
100
AcDbLine
 10
-447.2226895348038
 20
-807.2542910401578
 30
0.0
 11
-447.2226895348038
 21
-808.7542588729804
 31
0.0
  0
LINE
  5
96
330
1F
100
AcDbEntity
  8
C-1
  6
Continuous
 62
     7
370
     9
100
AcDbLine
 10
-527.2227555187567
 20
-807.2542910401578
 30
0.0
 11
-447.2226895348038
 21
-807.2542910401578
 31
0.0
  0
LINE
  5
97
330
1F
100
AcDbEntity
  8
C-1
  6
Continuous
 62
     7
370
     9
100
AcDbLine
 10
-507.8382703255554
 20
-807.2542910401578
 30
0.0
 11
-507.8382703255554
 21
-808.7542588729804
 31
0.0
  0
LINE
  5
98
330
1F
100
AcDbEntity
  8
C-1
  6
Continuous
 62
     7
370
     9
100
AcDbLine
 10
-466.6071747280047
 20
-807.2542910401578
 30
0.0
 11
-466.6071747280047
 21
-808.7542588729804
 31
0.0
  0
LINE
  5
99
330
1F
100
AcDbEntity
  8
C-2
  6
Continuous
 62
     3
370
     9
100
AcDbLine
 10
-517.4727357235707
 20
182.245744426217
 30
0.0
 11
-517.4727357235707
 21
-486.4676010852847
 31
0.0
  0
LINE
  5
9A
330
1F
100
AcDbEntity
  8
C-2
  6
Continuous
 62
     3
370
     9
100
AcDbLine
 10
-456.9727093299896
 20
212.4957576230076
 30
0.0
 11
-456.9727093299896
 21
-486.4676010852847
 31
0.0
  0
LINE
  5
9B
330
1F
100
AcDbEntity
  8
C-6
  6
Continuous
 62
     6
370
     9
100
AcDbLine
 10
-524.7227720147447
 20
-557.2542704201726
 30
0.0
 11
-1010.222913880243
 21
-557.2542704201726
 31
0.0
  0
LINE
  5
9C
330
1F
100
AcDbEntity
  8
C-6
  6
Continuous
 62
     6
370
     9
100
AcDbLine
 10
-1039.22296006901
 20
-557.2542704201726
 30
0.0
 11
-1502.722682936409
 21
-557.2542704201726
 31
0.0
  0
LINE
  5
9D
330
1F
100
AcDbEntity
  8
C-2
  6
Continuous
 62
     3
370
     9
100
AcDbLine
 10
-1046.47284789629
 20
37.49574442621679
 30
0.0
 11
-1046.47284789629
 21
-557.2542704201726
 31
0.0
  0
LINE
  5
9E
330
1F
100
AcDbEntity
  8
C-2
  6
Continuous
 62
     3
370
     9
100
AcDbLine
 10
-1106.972874289871
 20
37.49577081979822
 30
0.0
 11
-1106.972874289871
 21
-557.2542704201726
 31
0.0
  0
LINE
  5
9F
330
1F
100
AcDbEntity
  8
C-2
  6
JWW_DASHED2
 62
     3
370
     9
100
AcDbLine
 10
-1106.972874289871
 20
-557.2542704201726
 30
0.0
 11
-1106.972874289871
 21
-807.2542910401578
 31
0.0
  0
LINE
  5
A0
330
1F
100
AcDbEntity
  8
C-2
  6
JWW_DASHED2
 62
     3
370
     9
100
AcDbLine
 10
-1046.47284789629
 20
-557.2542704201726
 30
0.0
 11
-1046.47284789629
 21
-807.2542910401578
 31
0.0
  0
TEXT
  5
A1
330
1F
100
AcDbEntity
  8
C-5
  6
Continuous
 62
     2
370
     9
100
AcDbText
 10
-1501.622306562165
 20
-547.2529461185549
 30
0.0
 40
30.48000000000043
  1
▽G.L.
 41
1.104166666666641
  7
ＭＳ ゴシック
100
AcDbText
  0
LINE
  5
A2
330
1F
100
AcDbEntity
  8
C-5
  6
Continuous
 62
     7
370
     9
100
AcDbLine
 10
-1187.272223524625
 20
73.70548733229981
 30
0.0
 11
-1582.483821656038
 21
73.70548733229981
 31
0.0
  0
TEXT
  5
A3
330
1F
100
AcDbEntity
  8
C-5
  6
Continuous
 62
     7
370
     9
100
AcDbText
 10
-1576.071663088238
 20
32.74654269945049
 30
0.0
 40
22.8599999999987
  1
SUS304　ヘアライン仕上
 41
1.15151515151522
  7
ＭＳ ゴシック
100
AcDbText
  0
TEXT
  5
A4
330
1F
100
AcDbEntity
  8
C-5
  6
Continuous
 62
     7
370
     9
100
AcDbText
 10
-1576.071663088237
 20
85.6591782197788
 30
0.0
 40
22.8599999999987
  1
本体：φ60.5×3.0
 41
1.1568627450981
  7
ＭＳ ゴシック
100
AcDbText
  0
LINE
  5
A5
330
1F
100
AcDbEntity
  8
C-5
  6
Continuous
 62
     7
370
     9
100
AcDbLine
 10
-1106.972874289871
 20
-64.97053831369982
 30
0.0
 11
-1122.191904545172
 21
-45.13670060920475
 31
0.0
  0
LINE
  5
A6
330
1F
100
AcDbEntity
  8
C-5
  6
Continuous
 62
     7
370
     9
100
AcDbLine
 10
-1106.972874289871
 20
-64.97053831369982
 30
0.0
 11
-1116.539953729145
 21
-41.8735473624389
 31
0.0
  0
LINE
  5
A7
330
1F
100
AcDbEntity
  8
C-5
  6
Continuous
 62
     7
370
     9
100
AcDbLine
 10
-1187.272223524625
 20
73.70548733229981
 30
0.0
 11
-1106.972874289871
 21
-64.97053831369982
 31
0.0
  0
TEXT
  5
A8
330
1F
100
AcDbEntity
  8
C-4
  6
Continuous
 62
     2
370
     9
100
AcDbText
 10
-1271.090767818166
 20
-237.2631651026677
 30
0.0
 40
30.47999999999827
  1
φ60.5
 41
1.104166666666731
  7
ＭＳ ゴシック
100
AcDbText
  0
LINE
  5
A9
330
1F
100
AcDbEntity
  8
C-5
  6
Continuous
 62
     7
370
     9
100
AcDbLine
 10
-1110.722874289871
 20
-604.204456603263
 30
0.0
 11
-1125.941904545172
 21
-584.3706188987682
 31
0.0
  0
LINE
  5
AA
330
1F
100
AcDbEntity
  8
C-5
  6
Continuous
 62
     7
370
     9
100
AcDbLine
 10
-1110.722874289871
 20
-604.204456603263
 30
0.0
 11
-1120.289953729145
 21
-581.107465652002
 31
0.0
  0
LINE
  5
AB
330
1F
100
AcDbEntity
  8
C-5
  6
Continuous
 62
     7
370
     9
100
AcDbLine
 10
-1244.875597006326
 20
-372.524292402679
 30
0.0
 11
-1110.722874289871
 21
-604.204456603263
 31
0.0
  0
LINE
  5
AC
330
1F
100
AcDbEntity
  8
C-5
  6
Continuous
 62
     7
370
     9
100
AcDbLine
 10
-1244.875597006326
 20
-372.524292402679
 30
0.0
 11
-1667.254977685506
 21
-372.524292402679
 31
0.0
  0
LINE
  5
AD
330
1F
100
AcDbEntity
  8
C-4
  6
Continuous
 62
     7
370
     9
100
AcDbLine
 10
-1106.972874289871
 20
322.4572326384134
 30
0.0
 11
-456.9727247949784
 21
322.4572326384134
 31
0.0
  0
LWPOLYLINE
  5
AE
330
1F
100
AcDbEntity
  8
C-4
  6
Continuous
 62
     7
370
     9
100
AcDbPolyline
 90
        4
 70
     1
 43
2.0
 10
-1105.972874289871
 20
322.4572326384134
 42
0.4142135623731
 10
-1106.972874289871
 20
323.4572326384134
 42
0.4142135623731
 10
-1107.972874289871
 20
322.4572326384134
 42
0.4142135623731
 10
-1106.972874289871
 20
321.4572326384134
 42
0.4142135623731
  0
LWPOLYLINE
  5
AF
330
1F
100
AcDbEntity
  8
C-4
  6
Continuous
 62
     7
370
     9
100
AcDbPolyline
 90
        4
 70
     1
 43
2.0
 10
-455.9727247949784
 20
322.4572326384134
 42
0.4142135623731
 10
-456.9727247949784
 20
323.4572326384134
 42
0.4142135623731
 10
-457.9727247949784
 20
322.4572326384134
 42
0.4142135623731
 10
-456.9727247949784
 20
321.4572326384134
 42
0.4142135623731
  0
LINE
  5
B0
330
1F
100
AcDbEntity
  8
C-4
  6
Continuous
 62
     7
370
     9
100
AcDbLine
 10
-456.9727247949784
 20
325.4572326384135
 30
0.0
 11
-456.9727247949784
 21
232.4957576230076
 31
0.0
  0
TEXT
  5
B1
330
1F
100
AcDbEntity
  8
C-4
  6
Continuous
 62
     2
370
   211
100
AcDbText
 10
-814.4727995424245
 20
334.0972326384132
 30
0.0
 40
30.48000000000043
  1
650
 41
1.083333333333304
  7
ＭＳ ゴシック
100
AcDbText
  0
LINE
  5
B2
330
1F
100
AcDbEntity
  8
C-4
  6
Continuous
 62
     7
370
     9
100
AcDbLine
 10
-1106.972874289871
 20
325.4572326384135
 30
0.0
 11
-1106.972874289871
 21
99.01255818029512
 31
0.0
  0
LINE
  5
B3
330
1F
100
AcDbEntity
  8
C-4
  6
Continuous
 62
     7
370
     9
100
AcDbLine
 10
-122.367252060352
 20
242.7457708197983
 30
0.0
 11
-122.367252060352
 21
-807.2542910401578
 31
0.0
  0
LWPOLYLINE
  5
B4
330
1F
100
AcDbEntity
  8
C-4
  6
Continuous
 62
     7
370
     9
100
AcDbPolyline
 90
        4
 70
     1
 43
2.0
 10
-121.367252060352
 20
242.7457708197983
 42
0.4142135623731
 10
-122.367252060352
 20
243.7457708197983
 42
0.4142135623731
 10
-123.367252060352
 20
242.7457708197983
 42
0.4142135623731
 10
-122.367252060352
 20
241.7457708197983
 42
0.4142135623731
  0
LWPOLYLINE
  5
B5
330
1F
100
AcDbEntity
  8
C-4
  6
Continuous
 62
     7
370
     9
100
AcDbPolyline
 90
        4
 70
     1
 43
2.0
 10
-121.367252060352
 20
-807.2542910401578
 42
0.4142135623731
 10
-122.367252060352
 20
-806.2542910401578
 42
0.4142135623731
 10
-123.367252060352
 20
-807.2542910401578
 42
0.4142135623731
 10
-122.367252060352
 20
-808.2542910401577
 42
0.4142135623731
  0
LINE
  5
B6
330
1F
100
AcDbEntity
  8
C-4
  6
Continuous
 62
     7
370
     9
100
AcDbLine
 10
-119.3672520603519
 20
242.7457708197983
 30
0.0
 11
-467.2227225267801
 21
242.7457708197983
 31
0.0
  0
LINE
  5
B7
330
1F
100
AcDbEntity
  8
C-4
  6
Continuous
 62
     7
370
     9
100
AcDbLine
 10
-119.367252060352
 20
-807.2542910401578
 30
0.0
 11
-427.2226895348038
 21
-807.2542910401578
 31
0.0
  0
TEXT
  5
B8
330
1F
100
AcDbEntity
  8
C-4
  6
Continuous
 62
     2
370
   211
100
AcDbText
 10
-134.007252060352
 20
-326.0042601101796
 30
0.0
 40
30.48000000000003
  1
1050
 50
90.0
 41
1.093749999999999
  7
ＭＳ ゴシック
100
AcDbText
  0
LINE
  5
B9
330
1F
100
AcDbEntity
  8
C-4
  6
Continuous
 62
     7
370
     9
100
AcDbLine
 10
-214.4834855934402
 20
242.7457427978516
 30
0.0
 11
-214.4834855934403
 21
-557.2542704201726
 31
0.0
  0
LWPOLYLINE
  5
BA
330
1F
100
AcDbEntity
  8
C-4
  6
Continuous
 62
     7
370
     9
100
AcDbPolyline
 90
        4
 70
     1
 43
2.0
 10
-213.4834855934402
 20
242.7457427978516
 42
0.4142135623731
 10
-214.4834855934402
 20
243.7457427978516
 42
0.4142135623731
 10
-215.4834855934402
 20
242.7457427978516
 42
0.4142135623731
 10
-214.4834855934402
 20
241.7457427978516
 42
0.4142135623731
  0
TEXT
  5
BB
330
1F
100
AcDbEntity
  8
C-4
  6
Continuous
 62
     2
370
   211
100
AcDbText
 10
-226.1234855934401
 20
-189.7542638111605
 30
0.0
 40
30.48000000000017
  1
800
 50
90.0
 41
1.083333333333337
  7
ＭＳ ゴシック
100
AcDbText
  0
LINE
  5
BC
330
1F
100
AcDbEntity
  8
C-4
  6
Continuous
 62
     7
370
     9
100
AcDbLine
 10
-214.4834855934403
 20
-557.2542704201726
 30
0.0
 11
-214.4834855934403
 21
-807.2542910401578
 31
0.0
  0
LWPOLYLINE
  5
BD
330
1F
100
AcDbEntity
  8
C-4
  6
Continuous
 62
     7
370
     9
100
AcDbPolyline
 90
        4
 70
     1
 43
2.0
 10
-213.4834855934403
 20
-807.2542910401578
 42
0.4142135623731
 10
-214.4834855934403
 20
-806.2542910401578
 42
0.4142135623731
 10
-215.4834855934403
 20
-807.2542910401578
 42
0.4142135623731
 10
-214.4834855934403
 20
-808.2542910401577
 42
0.4142135623731
  0
TEXT
  5
BE
330
1F
100
AcDbEntity
  8
C-4
  6
Continuous
 62
     2
370
   211
100
AcDbText
 10
-226.1234855934402
 20
-714.7542807301653
 30
0.0
 40
30.48000000000017
  1
250
 50
90.0
 41
1.083333333333337
  7
ＭＳ ゴシック
100
AcDbText
  0
LWPOLYLINE
  5
BF
330
1F
100
AcDbEntity
  8
C-4
  6
Continuous
 62
     7
370
     9
100
AcDbPolyline
 90
        4
 70
     1
 43
2.0
 10
-213.4834855934403
 20
-808.7542588729804
 42
0.4142135623731
 10
-214.4834855934403
 20
-807.7542588729805
 42
0.4142135623731
 10
-215.4834855934403
 20
-808.7542588729804
 42
0.4142135623731
 10
-214.4834855934403
 20
-809.7542588729802
 42
0.4142135623731
  0
LINE
  5
C0
330
1F
100
AcDbEntity
  8
C-4
  6
Continuous
 62
     7
370
     9
100
AcDbLine
 10
-211.4834855934403
 20
-808.7542588729804
 30
0.0
 11
-237.9761302753209
 21
-808.7542588729804
 31
0.0
  0
TEXT
  5
C1
330
1F
100
AcDbEntity
  8
C-4
  6
Continuous
 62
     2
370
   211
100
AcDbText
 10
-226.1234855934403
 20
-879.2781597203259
 30
0.0
 40
30.47999999999989
  1
1.5
 50
90.0
 41
1.083333333333347
  7
ＭＳ ゴシック
100
AcDbText
  0
LINE
  5
C2
330
1F
100
AcDbEntity
  8
C-4
  6
Continuous
 62
     7
370
     9
100
AcDbLine
 10
-214.4834855934403
 20
-807.2542910401578
 30
0.0
 11
-214.4834855934403
 21
-882.4584026402476
 31
0.0
  0
LINE
  5
C3
330
1F
100
AcDbEntity
  8
C-4
  6
Continuous
 62
     7
370
     9
100
AcDbLine
 10
-766.9950011460744
 20
-557.2542704201726
 30
0.0
 11
-766.9950011460744
 21
-808.7542588729804
 31
0.0
  0
LWPOLYLINE
  5
C4
330
1F
100
AcDbEntity
  8
C-4
  6
Continuous
 62
     7
370
     9
100
AcDbPolyline
 90
        4
 70
     1
 43
2.0
 10
-765.9950011460745
 20
-557.2542704201726
 42
0.4142135623731
 10
-766.9950011460744
 20
-556.2542704201726
 42
0.4142135623731
 10
-767.9950011460744
 20
-557.2542704201726
 42
0.4142135623731
 10
-766.9950011460744
 20
-558.2542704201726
 42
0.4142135623731
  0
LWPOLYLINE
  5
C5
330
1F
100
AcDbEntity
  8
C-4
  6
Continuous
 62
     7
370
     9
100
AcDbPolyline
 90
        4
 70
     1
 43
2.0
 10
-765.9950011460745
 20
-808.7542588729804
 42
0.4142135623731
 10
-766.9950011460744
 20
-807.7542588729805
 42
0.4142135623731
 10
-767.9950011460744
 20
-808.7542588729804
 42
0.4142135623731
 10
-766.9950011460744
 20
-809.7542588729802
 42
0.4142135623731
  0
LINE
  5
C6
330
1F
100
AcDbEntity
  8
C-4
  6
Continuous
 62
     7
370
     9
100
AcDbLine
 10
-769.9950011460744
 20
-808.7542588729804
 30
0.0
 11
-707.2227225267801
 21
-808.7542588729804
 31
0.0
  0
TEXT
  5
C7
330
1F
100
AcDbEntity
  8
C-4
  6
Continuous
 62
     2
370
   211
100
AcDbText
 10
-778.6350011460743
 20
-738.0042646465762
 30
0.0
 40
30.48000000000043
  1
251.5
 50
90.0
 41
1.099999999999981
  7
ＭＳ ゴシック
100
AcDbText
  0
LINE
  5
C8
330
1F
100
AcDbEntity
  8
C-4
  6
Continuous
 62
     7
370
     9
100
AcDbLine
 10
-766.9950011460744
 20
-808.7542588729804
 30
0.0
 11
-766.9950011460744
 21
-908.7542588729804
 31
0.0
  0
LWPOLYLINE
  5
C9
330
1F
100
AcDbEntity
  8
C-4
  6
Continuous
 62
     7
370
     9
100
AcDbPolyline
 90
        4
 70
     1
 43
2.0
 10
-765.9950011460745
 20
-908.7542588729804
 42
0.4142135623731
 10
-766.9950011460744
 20
-907.7542588729805
 42
0.4142135623731
 10
-767.9950011460744
 20
-908.7542588729804
 42
0.4142135623731
 10
-766.9950011460744
 20
-909.7542588729802
 42
0.4142135623731
  0
LINE
  5
CA
330
1F
100
AcDbEntity
  8
C-4
  6
Continuous
 62
     7
370
     9
100
AcDbLine
 10
-769.9950011460744
 20
-908.7542588729804
 30
0.0
 11
-707.2227225267801
 21
-908.7542588729804
 31
0.0
  0
TEXT
  5
CB
330
1F
100
AcDbEntity
  8
C-4
  6
Continuous
 62
     2
370
   211
100
AcDbText
 10
-778.6350011460743
 20
-891.2542588729792
 30
0.0
 40
30.48000000000043
  1
100
 50
90.0
 41
1.08333333333328
  7
ＭＳ ゴシック
100
AcDbText
  0
LINE
  5
CC
330
1F
100
AcDbEntity
  8
C-4
  6
Continuous
 62
     7
370
     9
100
AcDbLine
 10
-637.2227225267801
 20
-1022.89152728199
 30
0.0
 11
-337.2227225267801
 21
-1022.89152728199
 31
0.0
  0
LWPOLYLINE
  5
CD
330
1F
100
AcDbEntity
  8
C-4
  6
Continuous
 62
     7
370
     9
100
AcDbPolyline
 90
        4
 70
     1
 43
2.0
 10
-636.2227225267801
 20
-1022.89152728199
 42
0.4142135623731
 10
-637.2227225267801
 20
-1021.89152728199
 42
0.4142135623731
 10
-638.2227225267801
 20
-1022.89152728199
 42
0.4142135623731
 10
-637.2227225267801
 20
-1023.89152728199
 42
0.4142135623731
  0
LWPOLYLINE
  5
CE
330
1F
100
AcDbEntity
  8
C-4
  6
Continuous
 62
     7
370
     9
100
AcDbPolyline
 90
        4
 70
     1
 43
2.0
 10
-336.2227225267801
 20
-1022.89152728199
 42
0.4142135623731
 10
-337.2227225267801
 20
-1021.89152728199
 42
0.4142135623731
 10
-338.2227225267801
 20
-1022.89152728199
 42
0.4142135623731
 10
-337.2227225267801
 20
-1023.89152728199
 42
0.4142135623731
  0
LINE
  5
CF
330
1F
100
AcDbEntity
  8
C-4
  6
Continuous
 62
     7
370
     9
100
AcDbLine
 10
-687.2227225267801
 20
-1106.608300556189
 30
0.0
 11
-287.22272252678
 21
-1106.608300556189
 31
0.0
  0
LWPOLYLINE
  5
D0
330
1F
100
AcDbEntity
  8
C-4
  6
Continuous
 62
     7
370
     9
100
AcDbPolyline
 90
        4
 70
     1
 43
2.0
 10
-686.2227225267802
 20
-1106.608300556189
 42
0.4142135623731
 10
-687.2227225267801
 20
-1105.608300556189
 42
0.4142135623731
 10
-688.22272252678
 20
-1106.608300556189
 42
0.4142135623731
 10
-687.2227225267801
 20
-1107.608300556189
 42
0.4142135623731
  0
LWPOLYLINE
  5
D1
330
1F
100
AcDbEntity
  8
C-4
  6
Continuous
 62
     7
370
     9
100
AcDbPolyline
 90
        4
 70
     1
 43
2.0
 10
-286.22272252678
 20
-1106.608300556189
 42
0.4142135623731
 10
-287.22272252678
 20
-1105.608300556189
 42
0.4142135623731
 10
-288.2227225267801
 20
-1106.608300556189
 42
0.4142135623731
 10
-287.22272252678
 20
-1107.608300556189
 42
0.4142135623731
  0
LINE
  5
D2
330
1F
100
AcDbEntity
  8
C-4
  6
Continuous
 62
     7
370
     9
100
AcDbLine
 10
-687.2227225267801
 20
-1109.60830055619
 30
0.0
 11
-687.2227225267801
 21
-930.4542588729805
 31
0.0
  0
LINE
  5
D3
330
1F
100
AcDbEntity
  8
C-4
  6
Continuous
 62
     7
370
     9
100
AcDbLine
 10
-287.22272252678
 20
-1109.60830055619
 30
0.0
 11
-287.22272252678
 21
-930.4542588729805
 31
0.0
  0
TEXT
  5
D4
330
1F
100
AcDbEntity
  8
C-4
  6
Continuous
 62
     2
370
   211
100
AcDbText
 10
-542.2227225267802
 20
-1011.25152728199
 30
0.0
 40
30.47999999999827
  1
□300
 41
1.100000000000065
  7
ＭＳ ゴシック
100
AcDbText
  0
TEXT
  5
D5
330
1F
100
AcDbEntity
  8
C-4
  6
Continuous
 62
     2
370
   211
100
AcDbText
 10
-542.2227225267802
 20
-1094.968300556188
 30
0.0
 40
30.47999999999827
  1
□400
 41
1.100000000000065
  7
ＭＳ ゴシック
100
AcDbText
  0
LINE
  5
D6
330
1F
100
AcDbEntity
  8
C-4
  6
Continuous
 62
     7
370
     9
100
AcDbLine
 10
-637.2227225267801
 20
-1025.891527281991
 30
0.0
 11
-637.2227225267801
 21
-930.4542588729805
 31
0.0
  0
LINE
  5
D7
330
1F
100
AcDbEntity
  8
C-4
  6
Continuous
 62
     7
370
     9
100
AcDbLine
 10
-337.2227225267801
 20
-1025.891527281991
 30
0.0
 11
-337.2227225267801
 21
-930.4542588729805
 31
0.0
  0
TEXT
  5
D8
330
1F
100
AcDbEntity
  8
C-5
  6
Continuous
 62
     7
370
     9
100
AcDbText
 10
-1663.69041088527
 20
-357.3578255734193
 30
0.0
 40
22.8599999999987
  1
脱着用埋設管
 41
1.138888888888942
  7
ＭＳ ゴシック
100
AcDbText
  0
TEXT
  5
D9
330
1F
100
AcDbEntity
  8
C-5
  6
Continuous
 62
     7
370
     9
100
AcDbText
 10
-1663.690410885271
 20
-407.8577055593111
 30
0.0
 40
22.86000000000087
  1
蓋：SPHC　溶融亜鉛めっき
 41
1.152777777777736
  7
ＭＳ ゴシック
100
AcDbText
  0
TEXT
  5
DA
330
1F
100
AcDbEntity
  8
C-5
  6
Continuous
 62
     7
370
     9
100
AcDbText
 10
-1663.690410885271
 20
-446.1361534024959
 30
0.0
 40
22.8599999999987
  1
埋設管本体：SUS
 41
1.15555555555562
  7
ＭＳ ゴシック
100
AcDbText
  0
LINE
  5
DB
330
1F
100
AcDbEntity
  8
C-2
  6
Continuous
 62
     3
370
     9
100
AcDbLine
 10
-517.4727357235707
 20
824.2324079078866
 30
0.0
 11
-517.4727357235707
 21
1238.732409557486
 31
0.0
  0
LINE
  5
DC
330
1F
100
AcDbEntity
  8
C-2
  6
Continuous
 62
     3
370
     9
100
AcDbLine
 10
-662.2227093299897
 20
618.9823815143056
 30
0.0
 11
-1076.722861093081
 21
618.9823815143056
 31
0.0
  0
ARC
  5
DD
330
1F
100
AcDbEntity
  8
C-2
  6
Continuous
 62
     3
370
     9
100
AcDbCircle
 10
-662.2227093299897
 20
824.2323815143055
 30
0.0
 40
205.2500000000001
100
AcDbArc
 50
270.0
 51
0.0
  0
LINE
  5
DE
330
1F
100
AcDbEntity
  8
C-2
  6
Continuous
 62
     3
370
     9
100
AcDbLine
 10
-662.2227357235706
 20
679.4824079078865
 30
0.0
 11
-1076.722861093081
 21
679.4824079078865
 31
0.0
  0
ARC
  5
DF
330
1F
100
AcDbEntity
  8
C-2
  6
Continuous
 62
     3
370
     9
100
AcDbCircle
 10
-662.2227357235706
 20
824.2324079078866
 30
0.0
 40
144.75
100
AcDbArc
 50
270.0
 51
0.0
  0
LINE
  5
E0
330
1F
100
AcDbEntity
  8
C-4
  6
Continuous
 62
     7
370
     9
100
AcDbLine
 10
-644.5451631404159
 20
806.5548438657892
 30
0.0
 11
-538.4790934085744
 21
700.4886504140368
 31
0.0
  0
LINE
  5
E1
330
1F
100
AcDbEntity
  8
C-4
  6
Continuous
 62
     7
370
     9
100
AcDbLine
 10
-538.4790934085744
 20
700.4886504140368
 30
0.0
 11
-553.6981271395712
 21
720.3224368371787
 31
0.0
  0
LINE
  5
E2
330
1F
100
AcDbEntity
  8
C-4
  6
Continuous
 62
     7
370
     9
100
AcDbLine
 10
-538.4790934085744
 20
700.4886504140368
 30
0.0
 11
-558.3128798317165
 21
715.7076841450333
 31
0.0
  0
TEXT
  5
E3
330
1F
100
AcDbEntity
  8
C-4
  6
Continuous
 62
     2
370
     9
100
AcDbText
 10
-632.6517550128411
 20
816.7794046931539
 30
0.0
 40
30.47999999999994
  1
R175
 50
314.9999999999997
 41
1.093750000000001
  7
ＭＳ ゴシック
100
AcDbText
  0
LINE
  5
E4
330
1F
100
AcDbEntity
  8
C-1
  6
Continuous
 62
     7
370
     9
100
AcDbLine
 10
-1097.338408891856
 20
689.2324277030724
 30
0.0
 11
-1056.107461758199
 21
689.2324277030724
 31
0.0
  0
LINE
  5
E5
330
1F
100
AcDbEntity
  8
C-1
  6
Continuous
 62
     7
370
     9
100
AcDbLine
 10
-1056.107461758199
 20
609.2325101830133
 30
0.0
 11
-1097.338408891856
 21
609.2325101830133
 31
0.0
  0
ARC
  5
E6
330
1F
100
AcDbEntity
  8
C-1
  6
Continuous
 62
     7
370
     9
100
AcDbCircle
 10
-1076.722861093081
 20
649.2323947110958
 30
0.0
 40
44.99999072100665
100
AcDbArc
 50
207.2660827636718
 51
242.7339935302734
  0
ARC
  5
E7
330
1F
100
AcDbEntity
  8
C-1
  6
Continuous
 62
     7
370
     9
100
AcDbCircle
 10
-1076.722861093081
 20
649.2323947110958
 30
0.0
 40
44.99999072100665
100
AcDbArc
 50
117.2660064697266
 51
152.7339172363281
  0
ARC
  5
E8
330
1F
100
AcDbEntity
  8
C-3
  6
Continuous
 62
     3
370
     9
100
AcDbCircle
 10
-1076.722861093081
 20
649.2323947110958
 30
0.0
 40
30.2501121727196
100
AcDbArc
 50
90.0
 51
270.0
  0
ARC
  5
E9
330
1F
100
AcDbEntity
  8
C-1
  6
Continuous
 62
     7
370
     9
100
AcDbCircle
 10
-1076.722861093081
 20
649.2323947110958
 30
0.0
 40
44.99999072100665
100
AcDbArc
 50
297.2660064697265
 51
317.7611570457989
  0
ARC
  5
EA
330
1F
100
AcDbEntity
  8
C-1
  6
Continuous
 62
     7
370
     9
100
AcDbCircle
 10
-1076.722861093081
 20
649.2323947110958
 30
0.0
 40
44.99999072100665
100
AcDbArc
 50
42.23863018314071
 51
62.73399353027343
  0
LINE
  5
EB
330
1F
100
AcDbEntity
  8
C-1
  6
Continuous
 62
     7
370
     9
100
AcDbLine
 10
-447.2226895348035
 20
1259.347957356261
 30
0.0
 11
-447.2226895348035
 21
1218.117010222604
 31
0.0
  0
LINE
  5
EC
330
1F
100
AcDbEntity
  8
C-1
  6
Continuous
 62
     7
370
     9
100
AcDbLine
 10
-527.2226070548628
 20
1218.117010222604
 30
0.0
 11
-527.2226070548628
 21
1259.347957356261
 31
0.0
  0
ARC
  5
ED
330
1F
100
AcDbEntity
  8
C-1
  6
Continuous
 62
     7
370
     9
100
AcDbCircle
 10
-487.2227225267801
 20
1238.732409557486
 30
0.0
 40
44.99999072100665
100
AcDbArc
 50
117.2660827636718
 51
152.7339935302734
  0
ARC
  5
EE
330
1F
100
AcDbEntity
  8
C-1
  6
Continuous
 62
     7
370
     9
100
AcDbCircle
 10
-487.2227225267801
 20
1238.732409557486
 30
0.0
 40
44.99999072100665
100
AcDbArc
 50
27.26600646972657
 51
62.73391723632814
  0
ARC
  5
EF
330
1F
100
AcDbEntity
  8
C-3
  6
Continuous
 62
     3
370
     9
100
AcDbCircle
 10
-487.2227225267801
 20
1238.732409557486
 30
0.0
 40
30.2501121727196
100
AcDbArc
 50
0.0
 51
180.0
  0
ARC
  5
F0
330
1F
100
AcDbEntity
  8
C-1
  6
Continuous
 62
     7
370
     9
100
AcDbCircle
 10
-487.2227225267801
 20
1238.732409557486
 30
0.0
 40
44.99999072100665
100
AcDbArc
 50
207.2660064697266
 51
227.7611570457989
  0
ARC
  5
F1
330
1F
100
AcDbEntity
  8
C-1
  6
Continuous
 62
     7
370
     9
100
AcDbCircle
 10
-487.2227225267801
 20
1238.732409557486
 30
0.0
 40
44.99999072100665
100
AcDbArc
 50
312.2386301831407
 51
332.7339935302734
  0
ARC
  5
F2
330
1F
100
AcDbEntity
  8
C-2
  6
Continuous
 62
     3
370
     9
100
AcDbCircle
 10
489.9672040960173
 20
212.4953864632735
 30
0.0
 40
30.24999773180163
100
AcDbArc
 50
89.99986267089842
 51
270.0001373291016
  0
LINE
  5
F3
330
1F
100
AcDbEntity
  8
C-2
  6
Continuous
 62
     3
370
     9
100
AcDbLine
 10
904.4672057456165
 20
182.2453732664829
 30
0.0
 11
489.9672040960173
 21
182.2453732664829
 31
0.0
  0
ARC
  5
F4
330
1F
100
AcDbEntity
  8
C-2
  6
Continuous
 62
     3
370
     9
100
AcDbCircle
 10
904.4672057456165
 20
37.49537326648294
 30
0.0
 40
144.75
100
AcDbArc
 50
0.0
 51
90.0
  0
LINE
  5
F5
330
1F
100
AcDbEntity
  8
C-2
  6
Continuous
 62
     3
370
     9
100
AcDbLine
 10
904.4672321391977
 20
242.7453996600642
 30
0.0
 11
489.9672040960173
 21
242.7453996600642
 31
0.0
  0
ARC
  5
F6
330
1F
100
AcDbEntity
  8
C-2
  6
Continuous
 62
     3
370
     9
100
AcDbCircle
 10
904.4672321391977
 20
37.49539966006409
 30
0.0
 40
205.2500000000001
100
AcDbArc
 50
0.0
 51
90.0
  0
LINE
  5
F7
330
1F
100
AcDbEntity
  8
C-1
  6
Continuous
 62
     7
370
     9
100
AcDbLine
 10
1119.467251934384
 20
-807.2525614257876
 30
0.0
 11
1119.467251934384
 21
-808.7525292586108
 31
0.0
  0
LINE
  5
F8
330
1F
100
AcDbEntity
  8
C-1
  6
Continuous
 62
     7
370
     9
100
AcDbLine
 10
1039.467185950431
 20
-807.2525614257876
 30
0.0
 11
1039.467185950431
 21
-808.7525292586108
 31
0.0
  0
LINE
  5
F9
330
1F
100
AcDbEntity
  8
C-1
  6
Continuous
 62
     7
370
     9
100
AcDbLine
 10
1119.467251934384
 20
-807.2525614257876
 30
0.0
 11
1039.467185950431
 21
-807.2525614257876
 31
0.0
  0
LINE
  5
FA
330
1F
100
AcDbEntity
  8
C-1
  6
Continuous
 62
     7
370
     9
100
AcDbLine
 10
1066.967152958454
 20
-807.2525614257876
 30
0.0
 11
1066.967152958454
 21
-808.7525292586108
 31
0.0
  0
LINE
  5
FB
330
1F
100
AcDbEntity
  8
C-1
  6
Continuous
 62
     7
370
     9
100
AcDbLine
 10
1091.96728492636
 20
-807.2525614257876
 30
0.0
 11
1091.96728492636
 21
-808.7525292586108
 31
0.0
  0
LINE
  5
FC
330
1F
100
AcDbEntity
  8
C-1
  6
Continuous
 62
     7
370
     9
100
AcDbLine
 10
449.9671711040407
 20
-807.2525589613995
 30
0.0
 11
449.9671711040407
 21
-808.752526794222
 31
0.0
  0
LINE
  5
FD
330
1F
100
AcDbEntity
  8
C-1
  6
Continuous
 62
     7
370
     9
100
AcDbLine
 10
529.9672370879935
 20
-807.2525589613995
 30
0.0
 11
529.9672370879935
 21
-808.752526794222
 31
0.0
  0
LINE
  5
FE
330
1F
100
AcDbEntity
  8
C-1
  6
Continuous
 62
     7
370
     9
100
AcDbLine
 10
449.9671711040407
 20
-807.2525589613995
 30
0.0
 11
529.9672370879935
 21
-807.2525589613995
 31
0.0
  0
LINE
  5
FF
330
1F
100
AcDbEntity
  8
C-1
  6
Continuous
 62
     7
370
     9
100
AcDbLine
 10
469.351656297242
 20
-807.2525589613995
 30
0.0
 11
469.351656297242
 21
-808.752526794222
 31
0.0
  0
LINE
  5
100
330
1F
100
AcDbEntity
  8
C-1
  6
Continuous
 62
     7
370
     9
100
AcDbLine
 10
510.5827518947927
 20
-807.2525589613995
 30
0.0
 11
510.5827518947927
 21
-808.752526794222
 31
0.0
  0
LINE
  5
101
330
1F
100
AcDbEntity
  8
C-2
  6
Continuous
 62
     3
370
     9
100
AcDbLine
 10
520.217217292808
 20
182.2453732664829
 30
0.0
 11
520.217217292808
 21
-486.4658690065264
 31
0.0
  0
LINE
  5
102
330
1F
100
AcDbEntity
  8
C-2
  6
Continuous
 62
     3
370
     9
100
AcDbLine
 10
459.7171908992271
 20
212.4953864632735
 30
0.0
 11
459.7171908992271
 21
-486.4658690065264
 31
0.0
  0
TEXT
  5
103
330
1F
100
AcDbEntity
  8
C-5
  6
Continuous
 62
     2
370
     9
100
AcDbText
 10
1173.200124967281
 20
-547.2529461185549
 30
0.0
 40
30.48000000000043
  1
▽G.L.
 41
1.104166666666658
  7
ＭＳ ゴシック
100
AcDbText
  0
LINE
  5
104
330
1F
100
AcDbEntity
  8
C-4
  6
Continuous
 62
     7
370
     9
100
AcDbLine
 10
922.1449596381228
 20
55.17337459881219
 30
0.0
 11
1028.211029369964
 21
161.2394443306536
 31
0.0
  0
LINE
  5
105
330
1F
100
AcDbEntity
  8
C-4
  6
Continuous
 62
     7
370
     9
100
AcDbLine
 10
1028.211029369964
 20
161.2394443306536
 30
0.0
 11
1012.991995638967
 21
141.4056579075117
 31
0.0
  0
LINE
  5
106
330
1F
100
AcDbEntity
  8
C-4
  6
Continuous
 62
     7
370
     9
100
AcDbLine
 10
1028.211029369964
 20
161.2394443306536
 30
0.0
 11
1008.377242946822
 21
146.020410599657
 31
0.0
  0
TEXT
  5
107
330
1F
100
AcDbEntity
  8
C-4
  6
Continuous
 62
     2
370
     9
100
AcDbText
 10
917.6308150375322
 20
72.77769383280528
 30
0.0
 40
30.4800000000007
  1
R175
 50
45.00000000000066
 41
1.093749999999981
  7
ＭＳ ゴシック
100
AcDbText
  0
LINE
  5
108
330
1F
100
AcDbEntity
  8
C-4
  6
Continuous
 62
     7
370
     9
100
AcDbLine
 10
459.7172063642157
 20
322.4572326384134
 30
0.0
 11
1109.717232139198
 21
322.4572326384134
 31
0.0
  0
LWPOLYLINE
  5
109
330
1F
100
AcDbEntity
  8
C-4
  6
Continuous
 62
     7
370
     9
100
AcDbPolyline
 90
        4
 70
     1
 43
2.0
 10
460.7172063642157
 20
322.4572326384134
 42
0.4142135623731
 10
459.7172063642157
 20
323.4572326384134
 42
0.4142135623731
 10
458.7172063642157
 20
322.4572326384134
 42
0.4142135623731
 10
459.7172063642157
 20
321.4572326384134
 42
0.4142135623731
  0
LWPOLYLINE
  5
10A
330
1F
100
AcDbEntity
  8
C-4
  6
Continuous
 62
     7
370
     9
100
AcDbPolyline
 90
        4
 70
     1
 43
2.0
 10
1110.717232139198
 20
322.4572326384134
 42
0.4142135623731
 10
1109.717232139198
 20
323.4572326384134
 42
0.4142135623731
 10
1108.717232139198
 20
322.4572326384134
 42
0.4142135623731
 10
1109.717232139198
 20
321.4572326384134
 42
0.4142135623731
  0
LINE
  5
10B
330
1F
100
AcDbEntity
  8
C-4
  6
Continuous
 62
     7
370
     9
100
AcDbLine
 10
459.7172063642157
 20
325.4572326384135
 30
0.0
 11
459.7172063642157
 21
232.4953864632735
 31
0.0
  0
TEXT
  5
10C
330
1F
100
AcDbEntity
  8
C-4
  6
Continuous
 62
     2
370
   211
100
AcDbText
 10
752.2172192517064
 20
334.0972326384132
 30
0.0
 40
30.48000000000043
  1
650
 41
1.083333333333327
  7
ＭＳ ゴシック
100
AcDbText
  0
LINE
  5
10D
330
1F
100
AcDbEntity
  8
C-4
  6
Continuous
 62
     7
370
     9
100
AcDbLine
 10
1109.717232139198
 20
325.4572326384135
 30
0.0
 11
1109.717232139198
 21
99.01255818029512
 31
0.0
  0
LINE
  5
10E
330
1F
100
AcDbEntity
  8
C-4
  6
Continuous
 62
     7
370
     9
100
AcDbLine
 10
253.4911267060268
 20
242.7453996600642
 30
0.0
 11
253.4911267060267
 21
-557.2542704201726
 31
0.0
  0
LWPOLYLINE
  5
10F
330
1F
100
AcDbEntity
  8
C-4
  6
Continuous
 62
     7
370
     9
100
AcDbPolyline
 90
        4
 70
     1
 43
2.0
 10
254.4911267060268
 20
242.7453996600642
 42
0.4142135623731
 10
253.4911267060268
 20
243.7453996600642
 42
0.4142135623731
 10
252.4911267060268
 20
242.7453996600642
 42
0.4142135623731
 10
253.4911267060268
 20
241.7453996600642
 42
0.4142135623731
  0
LINE
  5
110
330
1F
100
AcDbEntity
  8
C-4
  6
Continuous
 62
     7
370
     9
100
AcDbLine
 10
250.4911267060268
 20
242.7453996600642
 30
0.0
 11
469.9672040960173
 21
242.7453996600642
 31
0.0
  0
TEXT
  5
111
330
1F
100
AcDbEntity
  8
C-4
  6
Continuous
 62
     2
370
   211
100
AcDbText
 10
241.8511267060267
 20
-189.7544353800544
 30
0.0
 40
30.47999999999989
  1
800
 50
90.0
 41
1.083333333333347
  7
ＭＳ ゴシック
100
AcDbText
  0
LINE
  5
112
330
1F
100
AcDbEntity
  8
C-4
  6
Continuous
 62
     7
370
     9
100
AcDbLine
 10
253.4911267060267
 20
-557.2542704201726
 30
0.0
 11
253.4911267060267
 21
-807.2525589613995
 31
0.0
  0
LWPOLYLINE
  5
113
330
1F
100
AcDbEntity
  8
C-4
  6
Continuous
 62
     7
370
     9
100
AcDbPolyline
 90
        4
 70
     1
 43
2.0
 10
254.4911267060267
 20
-807.2525589613995
 42
0.4142135623731
 10
253.4911267060267
 20
-806.2525589613995
 42
0.4142135623731
 10
252.4911267060267
 20
-807.2525589613995
 42
0.4142135623731
 10
253.4911267060267
 20
-808.2525589613994
 42
0.4142135623731
  0
LINE
  5
114
330
1F
100
AcDbEntity
  8
C-4
  6
Continuous
 62
     7
370
     9
100
AcDbLine
 10
250.4911267060267
 20
-807.2525589613995
 30
0.0
 11
429.9671711040407
 21
-807.2525589613995
 31
0.0
  0
TEXT
  5
115
330
1F
100
AcDbEntity
  8
C-4
  6
Continuous
 62
     2
370
   211
100
AcDbText
 10
241.8511267060267
 20
-714.7534146907861
 30
0.0
 40
30.47999999999989
  1
250
 50
90.0
 41
1.083333333333347
  7
ＭＳ ゴシック
100
AcDbText
  0
LINE
  5
116
330
1F
100
AcDbEntity
  8
C-2
  6
Continuous
 62
     3
370
     9
100
AcDbLine
 10
-517.4727357235707
 20
-537.7591552850427
 30
0.0
 11
-517.4727357235707
 21
-557.2542704201726
 31
0.0
  0
LINE
  5
117
330
1F
100
AcDbEntity
  8
C-2
  6
Continuous
 62
     3
370
     9
100
AcDbLine
 10
-456.9727093299896
 20
-537.7591552850433
 30
0.0
 11
-456.9727093299896
 21
-557.2542704201726
 31
0.0
  0
LWPOLYLINE
  5
118
330
1F
100
AcDbEntity
  8
C-4
  6
Continuous
 62
     7
370
     9
100
AcDbPolyline
 90
        4
 70
     1
 43
2.0
 10
-213.4834855934403
 20
-557.2542704201726
 42
0.4142135623731
 10
-214.4834855934403
 20
-556.2542704201726
 42
0.4142135623731
 10
-215.4834855934403
 20
-557.2542704201726
 42
0.4142135623731
 10
-214.4834855934403
 20
-558.2542704201726
 42
0.4142135623731
  0
LINE
  5
119
330
1F
100
AcDbEntity
  8
C-6
  6
Continuous
 62
     6
370
     9
100
AcDbLine
 10
-186.4732518560488
 20
-557.2542704201726
 30
0.0
 11
-449.7226730388156
 21
-557.2542704201726
 31
0.0
  0
LINE
  5
11A
330
1F
100
AcDbEntity
  8
C-2
  6
Continuous
 62
     3
370
     9
100
AcDbLine
 10
459.7171908992267
 20
-537.757423206285
 30
0.0
 11
459.7171908992267
 21
-557.2525383414143
 31
0.0
  0
LINE
  5
11B
330
1F
100
AcDbEntity
  8
C-2
  6
Continuous
 62
     3
370
     9
100
AcDbLine
 10
520.2172172928077
 20
-537.757423206285
 30
0.0
 11
520.2172172928077
 21
-557.2525383414143
 31
0.0
  0
LINE
  5
11C
330
1F
100
AcDbEntity
  8
C-6
  6
Continuous
 62
     6
370
     9
100
AcDbLine
 10
527.4672535839817
 20
-557.2542704201726
 30
0.0
 11
1012.967271729569
 21
-557.2542704201726
 31
0.0
  0
LINE
  5
11D
330
1F
100
AcDbEntity
  8
C-6
  6
Continuous
 62
     6
370
     9
100
AcDbLine
 10
189.9672040960174
 20
-557.2542704201726
 30
0.0
 11
452.4671546080526
 21
-557.2542704201726
 31
0.0
  0
LINE
  5
11E
330
1F
100
AcDbEntity
  8
C-6
  6
Continuous
 62
     6
370
     9
100
AcDbLine
 10
1049.217106769688
 20
-557.2542704201726
 30
0.0
 11
1305.467370705498
 21
-557.2542704201726
 31
0.0
  0
LWPOLYLINE
  5
11F
330
1F
100
AcDbEntity
  8
C-4
  6
Continuous
 62
     7
370
     9
100
AcDbPolyline
 90
        4
 70
     1
 43
2.0
 10
254.4911267060267
 20
-557.2542704201726
 42
0.4142135623731
 10
253.4911267060267
 20
-556.2542704201726
 42
0.4142135623731
 10
252.4911267060267
 20
-557.2542704201726
 42
0.4142135623731
 10
253.4911267060267
 20
-558.2542704201726
 42
0.4142135623731
  0
LINE
  5
120
330
1F
100
AcDbEntity
  8
C-2
  6
Continuous
 62
     3
370
     9
100
AcDbLine
 10
1049.217205745616
 20
37.49537326648294
 30
0.0
 11
1049.217205745616
 21
-557.2496351822199
 31
0.0
  0
LINE
  5
121
330
1F
100
AcDbEntity
  8
C-2
  6
Continuous
 62
     3
370
     9
100
AcDbLine
 10
1109.717232139198
 20
37.49539966006409
 30
0.0
 11
1109.717232139198
 21
-557.2495497869619
 31
0.0
  0
CIRCLE
  5
122
330
1F
100
AcDbEntity
  8
C-4
  6
Continuous
 62
     7
370
     9
100
AcDbCircle
 10
489.9673525601094
 20
-507.3701052491419
 30
0.0
 40
10.0
  0
LINE
  5
123
330
1F
100
AcDbEntity
  8
C-4
  6
Continuous
 62
     7
370
     9
100
AcDbLine
 10
-1112.743650343471
 20
-513.2545051031477
 30
0.0
 11
-1112.743650343471
 21
-501.2545397447226
 31
0.0
  0
LINE
  5
124
330
1F
100
AcDbEntity
  8
C-1
  6
Continuous
 62
     7
370
     9
100
AcDbLine
 10
-1116.722894085057
 20
669.848090973765
 30
0.0
 11
-1116.722894085057
 21
651.7323947110958
 31
0.0
  0
LINE
  5
125
330
1F
100
AcDbEntity
  8
C-1
  6
Continuous
 62
     7
370
     9
100
AcDbLine
 10
-1116.722894085057
 20
646.7323947110958
 30
0.0
 11
-1116.722894085057
 21
628.6168469123207
 31
0.0
  0
TEXT
  5
126
330
1F
100
AcDbEntity
  8
D-5
  6
Continuous
 62
     2
370
     9
100
AcDbText
 10
1074.050177955149
 20
800.1883016654855
 30
0.0
 40
30.48000000000022
  1
▽G.L.
 41
1.104166666666664
  7
ＭＳ ゴシック
100
AcDbText
  0
LINE
  5
127
330
1F
100
AcDbEntity
  8
D-5
  6
Continuous
 62
     7
370
     9
100
AcDbLine
 10
994.0993254046747
 20
1109.9127651295
 30
0.0
 11
1052.90163685557
 21
1109.9127651295
 31
0.0
  0
TEXT
  5
128
330
1F
100
AcDbEntity
  8
D-5
  6
Continuous
 62
     7
370
     9
100
AcDbText
 10
1022.90163685557
 20
1120.809431796166
 30
0.0
 40
22.86
  1
蓋
  7
ＭＳ ゴシック
100
AcDbText
  0
LINE
  5
129
330
1F
100
AcDbEntity
  8
D-5
  6
Continuous
 62
     7
370
     9
100
AcDbLine
 10
956.2696856443388
 20
1044.38990703257
 30
0.0
 11
994.0993254046747
 21
1109.9127651295
 31
0.0
  0
LINE
  5
12A
330
1F
100
AcDbEntity
  8
D-5
  6
Continuous
 62
     7
370
     9
100
AcDbLine
 10
956.2696856443388
 20
1044.38990703257
 30
0.0
 11
965.8367714534661
 21
1067.486895345352
 31
0.0
  0
LINE
  5
12B
330
1F
100
AcDbEntity
  8
D-5
  6
Continuous
 62
     7
370
     9
100
AcDbLine
 10
956.2696856443388
 20
1044.38990703257
 30
0.0
 11
971.4887213695566
 21
1064.22374053985
 31
0.0
  0
LWPOLYLINE
  5
12C
330
1F
100
AcDbEntity
  8
D-4
  6
Continuous
 62
     7
370
     9
100
AcDbPolyline
 90
        4
 70
     1
 43
2.0
 10
606.9166957911111
 20
795.3088140726995
 42
0.4142135623731
 10
605.9166957911111
 20
796.3088140726995
 42
0.4142135623731
 10
604.9166957911111
 20
795.3088140726995
 42
0.4142135623731
 10
605.9166957911111
 20
794.3088140726996
 42
0.4142135623731
  0
LWPOLYLINE
  5
12D
330
1F
100
AcDbEntity
  8
D-4
  6
Continuous
 62
     7
370
     9
100
AcDbPolyline
 90
        4
 70
     1
 43
2.0
 10
606.9166957911111
 20
787.6420218592548
 42
0.4142135623731
 10
605.9166957911111
 20
788.6420218592548
 42
0.4142135623731
 10
604.9166957911111
 20
787.6420218592548
 42
0.4142135623731
 10
605.9166957911111
 20
786.6420218592549
 42
0.4142135623731
  0
LINE
  5
12E
330
1F
100
AcDbEntity
  8
D-4
  6
Continuous
 62
     7
370
     9
100
AcDbLine
 10
602.9166957911111
 20
795.3088140726995
 30
0.0
 11
642.0387460123511
 21
795.3088140726995
 31
0.0
  0
LINE
  5
12F
330
1F
100
AcDbEntity
  8
D-4
  6
Continuous
 62
     7
370
     9
100
AcDbLine
 10
602.9166957911111
 20
787.6420218592548
 30
0.0
 11
642.038794602367
 21
787.6420218592548
 31
0.0
  0
TEXT
  5
130
330
1F
100
AcDbEntity
  8
D-4
  6
Continuous
 62
     2
370
   211
100
AcDbText
 10
594.2766957911115
 20
716.8633998533433
 30
0.0
 40
30.48000000000022
  1
2.3
 50
90.0
 41
1.083333333333328
  7
ＭＳ ゴシック
100
AcDbText
  0
LINE
  5
131
330
1F
100
AcDbEntity
  8
D-4
  6
Continuous
 62
     7
370
     9
100
AcDbLine
 10
605.9166957911111
 20
795.3088140726995
 30
0.0
 11
605.9166957911111
 21
714.6210830684736
 31
0.0
  0
LINE
  5
132
330
1F
100
AcDbEntity
  8
D-5
  6
Continuous
 62
     7
370
     9
100
AcDbLine
 10
611.9688482159072
 20
970.9745289267026
 30
0.0
 11
548.194560379495
 21
1081.434835675891
 31
0.0
  0
LINE
  5
133
330
1F
100
AcDbEntity
  8
D-5
  6
Continuous
 62
     7
370
     9
100
AcDbLine
 10
611.9688482159072
 20
970.9745289267026
 30
0.0
 11
596.7498124906886
 21
990.8083624339837
 31
0.0
  0
LINE
  5
134
330
1F
100
AcDbEntity
  8
D-5
  6
Continuous
 62
     7
370
     9
100
AcDbLine
 10
621.9691286477062
 20
855.9439404068535
 30
0.0
 11
572.4738636119728
 21
941.5692455621955
 31
0.0
  0
LINE
  5
135
330
1F
100
AcDbEntity
  8
D-5
  6
Continuous
 62
     7
370
     9
100
AcDbLine
 10
572.4738636119728
 20
941.5692455621955
 30
0.0
 11
328.8756603830968
 21
941.5692455621955
 31
0.0
  0
LINE
  5
136
330
1F
100
AcDbEntity
  8
D-5
  6
Continuous
 62
     7
370
     9
100
AcDbLine
 10
548.194560379495
 20
1081.434835675891
 30
0.0
 11
233.8203665075623
 21
1081.434835675891
 31
0.0
  0
TEXT
  5
137
330
1F
100
AcDbEntity
  8
D-5
  6
Continuous
 62
     7
370
     9
100
AcDbText
 10
235.6945584231358
 20
1092.331357809959
 30
0.0
 40
22.86000000000017
  1
ロックピン：SCS13A
 50
0.0000264995452436
 41
1.157407407407397
  7
ＭＳ ゴシック
100
AcDbText
  0
TEXT
  5
138
330
1F
100
AcDbEntity
  8
D-5
  6
Continuous
 62
     7
370
     9
100
AcDbText
 10
329.9738636119725
 20
952.4659122288624
 30
0.0
 40
22.86
  1
南京錠：CAC202
 41
1.154761904761906
  7
ＭＳ ゴシック
100
AcDbText
  0
LINE
  5
139
330
1F
100
AcDbEntity
  8
D-5
  6
Continuous
 62
     7
370
     9
100
AcDbLine
 10
621.9691286477062
 20
855.9439404068535
 30
0.0
 11
606.7500929224875
 21
875.777773914134
 31
0.0
  0
LINE
  5
13A
330
1F
100
AcDbEntity
  8
D-5
  6
Continuous
 62
     7
370
     9
100
AcDbLine
 10
621.9691286477062
 20
855.9439404068535
 30
0.0
 11
612.4020428385777
 21
879.0409287196353
 31
0.0
  0
LINE
  5
13B
330
1F
100
AcDbEntity
  8
D-5
  6
Continuous
 62
     7
370
     9
100
AcDbLine
 10
611.9688482159072
 20
970.9745289267026
 30
0.0
 11
602.4017624067799
 21
994.0715172394845
 31
0.0
  0
LINE
  5
13C
330
1F
100
AcDbEntity
  8
D-0
  6
JWW_CENTER2
 62
     7
370
     9
100
AcDbLine
 10
792.0384646826029
 20
1214.918338980172
 30
0.0
 11
792.0384646826029
 21
636.3246492392607
 31
0.0
  0
LINE
  5
13D
330
1F
100
AcDbEntity
  8
D-B
  6
Continuous
 62
     2
370
     9
100
AcDbLine
 10
655.3018186804587
 20
812.6412505799958
 30
0.0
 11
621.968705293634
 21
812.6412505799958
 31
0.0
  0
LINE
  5
13E
330
1F
100
AcDbEntity
  8
D-B
  6
Continuous
 62
     2
370
     9
100
AcDbLine
 10
655.3018186804587
 20
890.9742649908917
 30
0.0
 11
655.3018186804587
 21
812.6412505799958
 31
0.0
  0
LINE
  5
13F
330
1F
100
AcDbEntity
  8
D-B
  6
Continuous
 62
     2
370
     9
100
AcDbLine
 10
621.968705293634
 20
890.9742649908917
 30
0.0
 11
621.968705293634
 21
812.6412505799958
 31
0.0
  0
LINE
  5
140
330
1F
100
AcDbEntity
  8
D-B
  6
Continuous
 62
     2
370
     9
100
AcDbLine
 10
629.4686063177052
 20
890.9742649908917
 30
0.0
 11
629.4686063177052
 21
812.6412505799958
 31
0.0
  0
LINE
  5
141
330
1F
100
AcDbEntity
  8
D-B
  6
Continuous
 62
     2
370
     9
100
AcDbLine
 10
647.8014227767416
 20
890.9742649908917
 30
0.0
 11
647.8014227767416
 21
812.6412505799958
 31
0.0
  0
ARC
  5
142
330
1F
100
AcDbEntity
  8
D-B
  6
Continuous
 62
     7
370
     9
100
AcDbCircle
 10
638.6352619870473
 20
954.3077247934682
 30
0.0
 40
11.66666681702072
100
AcDbArc
 50
310.0077667236328
 51
229.9952697753906
  0
ARC
  5
143
330
1F
100
AcDbEntity
  8
D-B
  6
Continuous
 62
     7
370
     9
100
AcDbCircle
 10
615.3021815921983
 20
937.6411681000568
 30
0.0
 40
3.333333376291637
100
AcDbArc
 50
180.0
 51
270.0
  0
ARC
  5
144
330
1F
100
AcDbEntity
  8
D-B
  6
Continuous
 62
     7
370
     9
100
AcDbCircle
 10
615.3021815921983
 20
970.9745289267044
 30
0.0
 40
3.333333376291637
100
AcDbArc
 50
90.0
 51
180.0
  0
ARC
  5
145
330
1F
100
AcDbEntity
  8
D-B
  6
Continuous
 62
     7
370
     9
100
AcDbCircle
 10
981.9689032454919
 20
924.3078732573623
 30
0.0
 40
3.333333376291637
100
AcDbArc
 50
270.0
 51
0.0
  0
ARC
  5
146
330
1F
100
AcDbEntity
  8
D-B
  6
Continuous
 62
     7
370
     9
100
AcDbCircle
 10
981.9689032454919
 20
984.3078237693969
 30
0.0
 40
3.333333376291637
100
AcDbArc
 50
0.0
 51
90.0
  0
LINE
  5
147
330
1F
100
AcDbEntity
  8
D-B
  6
Continuous
 62
     7
370
     9
100
AcDbLine
 10
611.9691671813024
 20
970.9745289267044
 30
0.0
 11
611.9691671813024
 21
937.6411681000568
 31
0.0
  0
LINE
  5
148
330
1F
100
AcDbEntity
  8
D-B
  6
Continuous
 62
     7
370
     9
100
AcDbLine
 10
985.3024125360337
 20
924.3078732573623
 30
0.0
 11
985.3024125360337
 21
984.3078237693969
 31
0.0
  0
LINE
  5
149
330
1F
100
AcDbEntity
  8
D-B
  6
Continuous
 62
     7
370
     9
100
AcDbLine
 10
981.9689032454919
 20
987.6413330599387
 30
0.0
 11
965.3023465520805
 21
987.6413330599387
 31
0.0
  0
LINE
  5
14A
330
1F
100
AcDbEntity
  8
D-B
  6
JWW_CENTER1
 62
     7
370
     9
100
AcDbLine
 10
638.6352619870473
 20
969.3619636025896
 30
0.0
 11
638.6352619870473
 21
939.1542626154699
 31
0.0
  0
LINE
  5
14B
330
1F
100
AcDbEntity
  8
D-B
  6
Continuous
 62
     7
370
     9
100
AcDbLine
 10
615.3021815921983
 20
934.307906249338
 30
0.0
 11
631.1353609629742
 21
934.307906249338
 31
0.0
  0
LINE
  5
14C
330
1F
100
AcDbEntity
  8
D-B
  6
JWW_DASHED2
 62
     7
370
     9
100
AcDbLine
 10
631.1353609629742
 20
934.307906249338
 30
0.0
 11
646.1356578907644
 21
934.307906249338
 31
0.0
  0
LINE
  5
14D
330
1F
100
AcDbEntity
  8
D-B
  6
Continuous
 62
     7
370
     9
100
AcDbLine
 10
892.8721719250019
 20
974.3077907774214
 30
0.0
 11
935.8164326336884
 21
974.3077907774214
 31
0.0
  0
LINE
  5
14E
330
1F
100
AcDbEntity
  8
D-B
  6
Continuous
 62
     7
370
     9
100
AcDbLine
 10
892.8722327357992
 20
934.307906249338
 30
0.0
 11
940.0204662318471
 21
934.307906249338
 31
0.0
  0
LINE
  5
14F
330
1F
100
AcDbEntity
  8
D-B
  6
JWW_DASHED2
 62
     7
370
     9
100
AcDbLine
 10
691.2047574402045
 20
934.307906249338
 30
0.0
 11
892.8722327357992
 21
934.307906249338
 31
0.0
  0
LINE
  5
150
330
1F
100
AcDbEntity
  8
D-B
  6
JWW_DASHED2
 62
     7
370
     9
100
AcDbLine
 10
691.2047574402045
 20
974.3077907774214
 30
0.0
 11
892.8721719250019
 21
974.3077907774214
 31
0.0
  0
ARC
  5
151
330
1F
100
AcDbEntity
  8
D-B
  6
Continuous
 62
     7
370
     9
100
AcDbCircle
 10
965.3023465520805
 20
984.3078237693969
 30
0.0
 40
3.333333376291637
100
AcDbArc
 50
90.0
 51
150.1834506803446
  0
LINE
  5
152
330
1F
100
AcDbEntity
  8
D-B
  6
Continuous
 62
     7
370
     9
100
AcDbLine
 10
969.2409651041892
 20
920.9746114066435
 30
0.0
 11
981.9689032454919
 21
920.9746114066435
 31
0.0
  0
LINE
  5
153
330
1F
100
AcDbEntity
  8
D-B
  6
Continuous
 62
     7
370
     9
100
AcDbLine
 10
615.3021815921983
 20
974.3077907774214
 30
0.0
 11
691.2047574402045
 21
974.3077907774214
 31
0.0
  0
LINE
  5
154
330
1F
100
AcDbEntity
  8
D-B
  6
Continuous
 62
     7
370
     9
100
AcDbLine
 10
646.1356578907644
 20
934.307906249338
 30
0.0
 11
691.2047574402045
 21
934.307906249338
 31
0.0
  0
LINE
  5
155
330
1F
100
AcDbEntity
  8
D-B
  6
Continuous
 62
     2
370
     9
100
AcDbLine
 10
631.1353609629742
 20
950.1413330599387
 30
0.0
 11
631.1353609629742
 21
890.9742649908917
 31
0.0
  0
ARC
  5
156
330
1F
100
AcDbEntity
  8
D-B
  6
Continuous
 62
     2
370
     9
100
AcDbCircle
 10
638.6352619870473
 20
950.1413330599387
 30
0.0
 40
7.500001063217987
100
AcDbArc
 50
0.0
 51
180.0
  0
LINE
  5
157
330
1F
100
AcDbEntity
  8
D-B
  6
Continuous
 62
     2
370
     9
100
AcDbLine
 10
655.3018186804587
 20
890.9742649908917
 30
0.0
 11
621.968705293634
 21
890.9742649908917
 31
0.0
  0
LINE
  5
158
330
1F
100
AcDbEntity
  8
D-B
  6
Continuous
 62
     2
370
     9
100
AcDbLine
 10
646.1356578907644
 20
950.1413330599387
 30
0.0
 11
646.1356578907644
 21
890.9742649908917
 31
0.0
  0
LINE
  5
159
330
1F
100
AcDbEntity
  8
D-B
  6
Continuous
 62
     7
370
     9
100
AcDbLine
 10
671.9691671813023
 20
934.307906249338
 30
0.0
 11
671.9691671813023
 21
974.3077907774214
 31
0.0
  0
LINE
  5
15A
330
1F
100
AcDbEntity
  8
D-3
  6
Continuous
 62
     6
370
     9
100
AcDbLine
 10
949.0477215022166
 20
848.4167828818971
 30
0.0
 11
930.8015331446716
 21
1022.022775873752
 31
0.0
  0
ARC
  5
15B
330
1F
100
AcDbEntity
  8
D-3
  6
Continuous
 62
     6
370
     9
100
AcDbCircle
 10
958.9930413295626
 20
849.4621397065944
 30
0.0
 40
10.00000012887491
100
AcDbArc
 50
186.0003509521484
 51
240.9982757568359
  0
LINE
  5
15C
330
1F
100
AcDbEntity
  8
D-3
  6
Continuous
 62
     6
370
     9
100
AcDbLine
 10
954.0941545845418
 20
840.7442895566459
 30
0.0
 11
969.8842798348243
 21
831.9911077261298
 31
0.0
  0
LINE
  5
15D
330
1F
100
AcDbEntity
  8
D-3
  6
Continuous
 62
     6
370
     9
100
AcDbLine
 10
946.2262064715638
 20
1066.597832434429
 30
0.0
 11
971.0736192032839
 21
830.194320803047
 31
0.0
  0
LINE
  5
15E
330
1F
100
AcDbEntity
  8
D-3
  6
Continuous
 62
     6
370
     9
100
AcDbLine
 10
971.0728734227279
 20
830.1942424193618
 30
0.0
 11
974.7394520046662
 21
795.308627993991
 31
0.0
  0
ARC
  5
15F
330
1F
100
AcDbEntity
  8
D-3
  6
Continuous
 62
     6
370
     9
100
AcDbCircle
 10
968.7530576935824
 20
829.9505199325235
 30
0.0
 40
2.333333363404146
100
AcDbArc
 50
5.997558593750015
 51
60.9977264404297
  0
LINE
  5
160
330
1F
100
AcDbEntity
  8
D-3
  6
Continuous
 62
     6
370
     9
100
AcDbLine
 10
982.448800042673
 20
795.3086398627175
 30
0.0
 11
953.8513334324357
 21
1067.399292267784
 31
0.0
  0
LINE
  5
161
330
1F
100
AcDbEntity
  8
D-3
  6
Continuous
 62
     6
370
     9
100
AcDbLine
 10
934.1859849762624
 20
1030.615318559127
 30
0.0
 11
947.7671589647803
 21
1042.420650000359
 31
0.0
  0
ARC
  5
162
330
1F
100
AcDbEntity
  8
D-3
  6
Continuous
 62
     6
370
     9
100
AcDbCircle
 10
940.7468288084481
 20
1023.068146225809
 30
0.0
 40
10.00000012887491
100
AcDbArc
 50
131.0008087158203
 51
186.0004425048828
  0
ARC
  5
163
330
1F
100
AcDbEntity
  8
D-3
  6
Continuous
 62
     6
370
     9
100
AcDbCircle
 10
946.2360338337855
 20
1044.181938851443
 30
0.0
 40
2.333333363404146
100
AcDbArc
 50
311.0011138916016
 51
6.002014160156273
  0
LINE
  5
164
330
1F
100
AcDbEntity
  8
D-3
  6
Continuous
 62
     6
370
     9
100
AcDbLine
 10
953.8513073023119
 20
1067.399289521437
 30
0.0
 11
946.2261622451722
 21
1066.597827785972
 31
0.0
  0
LINE
  5
165
330
1F
100
AcDbEntity
  8
D-3
  6
JWW_PHANTOM1
 62
     6
370
     9
100
AcDbLine
 10
935.6281065923837
 20
795.308429277301
 30
0.0
 11
662.0387460123907
 21
795.3088403467516
 31
0.0
  0
LINE
  5
166
330
1F
100
AcDbEntity
  8
D-3
  6
JWW_PHANTOM1
 62
     6
370
     9
100
AcDbLine
 10
662.0387460123511
 20
795.3088140726995
 30
0.0
 11
662.0387725615547
 21
787.6416647944393
 31
0.0
  0
LINE
  5
167
330
1F
100
AcDbEntity
  8
D-3
  6
JWW_PHANTOM1
 62
     6
370
     9
100
AcDbLine
 10
899.7445028888568
 20
787.6413595990749
 30
0.0
 11
934.8222720928838
 21
787.6413126138686
 31
0.0
  0
LINE
  5
168
330
1F
100
AcDbEntity
  8
D-3
  6
JWW_PHANTOM1
 62
     6
370
     9
100
AcDbLine
 10
662.038794602367
 20
787.6420218592548
 30
0.0
 11
899.7445028888568
 21
787.6420218592548
 31
0.0
  0
ARC
  5
169
330
1F
100
AcDbEntity
  8
D-3
  6
JWW_PHANTOM1
 62
     6
370
     9
100
AcDbCircle
 10
959.0385702569278
 20
769.3087105205725
 30
0.0
 40
297.5650803496612
100
AcDbArc
 50
92.46777586490128
 51
176.4677069816634
  0
CIRCLE
  5
16A
330
1F
100
AcDbEntity
  8
D-3
  6
Continuous
 62
     2
370
     9
100
AcDbCircle
 10
959.0385702569278
 20
769.3087105205725
 30
0.0
 40
8.33333344072909
  0
LINE
  5
16B
330
1F
100
AcDbEntity
  8
D-6
  6
JWW_PHANTOM2
 62
     6
370
     9
100
AcDbLine
 10
667.038794602367
 20
787.6420218592548
 30
0.0
 11
363.032687779566
 21
787.6420218592548
 31
0.0
  0
LINE
  5
16C
330
1F
100
AcDbEntity
  8
D-6
  6
JWW_PHANTOM2
 62
     6
370
     9
100
AcDbLine
 10
1013.704955392063
 20
787.642010478593
 30
0.0
 11
1210.561269058561
 21
787.642010478593
 31
0.0
  0
LINE
  5
16D
330
1F
100
AcDbEntity
  8
D-2
  6
Continuous
 62
     3
370
     9
100
AcDbLine
 10
892.872232735673
 20
934.3087600085465
 30
0.0
 11
892.8722544049425
 21
787.6428756184538
 31
0.0
  0
LINE
  5
16E
330
1F
100
AcDbEntity
  8
D-2
  6
Continuous
 62
     3
370
     9
100
AcDbLine
 10
892.8721719250019
 20
1214.918338980172
 30
0.0
 11
892.8721719250019
 21
787.6421869177216
 31
0.0
  0
LINE
  5
16F
330
1F
100
AcDbEntity
  8
D-2
  6
Continuous
 62
     3
370
     9
100
AcDbLine
 10
691.2047574402045
 20
1214.918338980172
 30
0.0
 11
691.2047574402045
 21
787.6420218592548
 31
0.0
  0
LINE
  5
170
330
1F
100
AcDbEntity
  8
D-3
  6
Continuous
 62
     3
370
     9
100
AcDbLine
 10
1013.704955392063
 20
731.975237521206
 30
0.0
 11
1013.704955392063
 21
790.3084333879713
 31
0.0
  0
LINE
  5
171
330
1F
100
AcDbEntity
  8
D-3
  6
Continuous
 62
     3
370
     9
100
AcDbLine
 10
1008.705681215542
 20
726.9754684650405
 30
0.0
 11
905.3718420052381
 21
726.9754684650405
 31
0.0
  0
ARC
  5
172
330
1F
100
AcDbEntity
  8
D-3
  6
Continuous
 62
     3
370
     9
100
AcDbCircle
 10
1008.705681215542
 20
790.3084333879713
 30
0.0
 40
4.999999581156551
100
AcDbArc
 50
0.0000000000000127
 51
90.00000000000001
  0
ARC
  5
173
330
1F
100
AcDbEntity
  8
D-3
  6
Continuous
 62
     3
370
     9
100
AcDbCircle
 10
1008.705681215542
 20
731.975237521206
 30
0.0
 40
4.999999581156551
100
AcDbArc
 50
270.0
 51
0.0
  0
LINE
  5
174
330
1F
100
AcDbEntity
  8
D-3
  6
Continuous
 62
     3
370
     9
100
AcDbLine
 10
892.8721719250019
 20
795.3086973237819
 30
0.0
 11
1008.705681215542
 21
795.3086973237819
 31
0.0
  0
LINE
  5
175
330
1F
100
AcDbEntity
  8
D-3
  6
Continuous
 62
     4
370
     9
100
AcDbLine
 10
905.3718420052387
 20
782.6420053632669
 30
0.0
 11
905.3718420052387
 21
636.3246492392607
 31
0.0
  0
LINE
  5
176
330
1F
100
AcDbEntity
  8
D-3
  6
Continuous
 62
     4
370
     9
100
AcDbLine
 10
678.705087359968
 20
782.6420053632669
 30
0.0
 11
678.705087359968
 21
636.3246492392607
 31
0.0
  0
LINE
  5
177
330
1F
100
AcDbEntity
  8
D-3
  6
Continuous
 62
     4
370
     9
100
AcDbLine
 10
662.038794602367
 20
787.6420218592548
 30
0.0
 11
662.038794602367
 21
782.6420053632669
 31
0.0
  0
LINE
  5
178
330
1F
100
AcDbEntity
  8
D-3
  6
Continuous
 62
     4
370
     9
100
AcDbLine
 10
922.0386296424856
 20
787.6420218592548
 30
0.0
 11
922.0386296424856
 21
782.6420053632669
 31
0.0
  0
LINE
  5
179
330
1F
100
AcDbEntity
  8
D-3
  6
Continuous
 62
     4
370
     9
100
AcDbLine
 10
922.0386296424856
 20
782.6420053632669
 30
0.0
 11
662.038794602367
 21
782.6420053632669
 31
0.0
  0
LINE
  5
17A
330
1F
100
AcDbEntity
  8
D-0
  6
JWW_CENTER2
 62
     7
370
     9
100
AcDbLine
 10
596.8812209688117
 20
954.3078485133805
 30
0.0
 11
1013.072329130723
 21
954.3078485133805
 31
0.0
  0
LINE
  5
17B
330
1F
100
AcDbEntity
  8
C-1
  6
Continuous
 62
     7
370
     9
100
AcDbLine
 10
-466.6070262641109
 20
1278.732442549462
 30
0.0
 11
-507.8382703255554
 21
1278.732442549462
 31
0.0
  0
LINE
  5
17C
330
1F
100
AcDbEntity
  8
D-5
  6
Continuous
 62
     7
370
     9
100
AcDbLine
 10
484.0384664122435
 20
585.9713590643992
 30
0.0
 11
1100.038466412243
 21
585.9713590643992
 31
0.0
  0
LINE
  5
17D
330
1F
100
AcDbEntity
  8
D-5
  6
Continuous
 62
     7
370
     9
100
AcDbLine
 10
484.0384664122435
 20
515.9713590643992
 30
0.0
 11
1100.038466412243
 21
515.9713590643992
 31
0.0
  0
LINE
  5
17E
330
1F
100
AcDbEntity
  8
D-5
  6
Continuous
 62
     7
370
     9
100
AcDbLine
 10
484.0384664122435
 20
585.9713590643992
 30
0.0
 11
484.0384664122435
 21
515.9713590643992
 31
0.0
  0
LINE
  5
17F
330
1F
100
AcDbEntity
  8
D-5
  6
Continuous
 62
     7
370
     9
100
AcDbLine
 10
1100.038466412243
 20
585.9713590643992
 30
0.0
 11
1100.038466412243
 21
515.9713590643992
 31
0.0
  0
TEXT
  5
180
330
1F
100
AcDbEntity
  8
D-5
  6
Continuous
 62
     2
370
     9
100
AcDbText
 10
502.0384664122436
 20
536.611359064399
 30
0.0
 40
30.48
  1
南京錠部詳細図　Ｓ＝１：３
 41
1.115384615384615
  7
ＭＳ ゴシック
100
AcDbText
  0
LINE
  5
181
330
1F
100
AcDbEntity
  8
C-3
  6
Continuous
 62
     4
370
     9
100
AcDbLine
 10
-1039.22296006901
 20
-557.2542704201726
 30
0.0
 11
-1039.22296006901
 21
-558.7542753689686
 31
0.0
  0
LINE
  5
182
330
1F
100
AcDbEntity
  8
C-3
  6
Continuous
 62
     4
370
     9
100
AcDbLine
 10
-1042.72284789629
 20
-558.7542753689686
 30
0.0
 11
-1039.22296006901
 21
-558.7542753689686
 31
0.0
  0
LINE
  5
183
330
1F
100
AcDbEntity
  8
C-3
  6
Continuous
 62
     4
370
     9
100
AcDbLine
 10
-521.2227357235707
 20
-558.7543124849424
 30
0.0
 11
-521.2227357235707
 21
-807.2542910401578
 31
0.0
  0
LINE
  5
184
330
1F
100
AcDbEntity
  8
C-3
  6
Continuous
 62
     4
370
     9
100
AcDbLine
 10
-453.2227093299898
 20
-558.7543124849424
 30
0.0
 11
-453.2227093299898
 21
-807.2542910401578
 31
0.0
  0
LINE
  5
185
330
1F
100
AcDbEntity
  8
C-3
  6
Continuous
 62
     4
370
     9
100
AcDbLine
 10
-1114.222762117152
 20
-557.2542704201726
 30
0.0
 11
-1114.222762117152
 21
-558.7542753689686
 31
0.0
  0
LINE
  5
186
330
1F
100
AcDbEntity
  8
C-3
  6
Continuous
 62
     4
370
     9
100
AcDbLine
 10
-1110.722874289871
 20
-558.7542753689686
 30
0.0
 11
-1110.722874289871
 21
-807.2542910401578
 31
0.0
  0
LINE
  5
187
330
1F
100
AcDbEntity
  8
C-3
  6
Continuous
 62
     4
370
     9
100
AcDbLine
 10
-1110.722874289871
 20
-558.7542753689686
 30
0.0
 11
-1114.222762117152
 21
-558.7542753689686
 31
0.0
  0
LINE
  5
188
330
1F
100
AcDbEntity
  8
C-3
  6
Continuous
 62
     4
370
     9
100
AcDbLine
 10
-1042.72284789629
 20
-558.7542753689686
 30
0.0
 11
-1042.72284789629
 21
-807.2542910401578
 31
0.0
  0
ARC
  5
189
330
1F
100
AcDbEntity
  8
C-3
  6
JWW_DASHED2
 62
     4
370
     9
100
AcDbCircle
 10
-1042.72284789629
 20
-558.7542753689686
 30
0.0
 40
1.499999874346965
100
AcDbArc
 50
90.0
 51
180.0
  0
LINE
  5
18A
330
1F
100
AcDbEntity
  8
C-3
  6
JWW_DASHED2
 62
     4
370
     9
100
AcDbLine
 10
-1044.22284789629
 20
-558.7542753689686
 30
0.0
 11
-1044.22284789629
 21
-807.2542910401578
 31
0.0
  0
ARC
  5
18B
330
1F
100
AcDbEntity
  8
C-3
  6
JWW_DASHED2
 62
     4
370
     9
100
AcDbCircle
 10
-1110.722874289871
 20
-558.7542753689686
 30
0.0
 40
1.499999874346965
100
AcDbArc
 50
0.0000000000000127
 51
90.00000000000001
  0
LINE
  5
18C
330
1F
100
AcDbEntity
  8
C-3
  6
JWW_DASHED2
 62
     4
370
     9
100
AcDbLine
 10
-1109.222874289871
 20
-558.7542753689686
 30
0.0
 11
-1109.222874289871
 21
-807.2542910401578
 31
0.0
  0
LINE
  5
18D
330
1F
100
AcDbEntity
  8
C-3
  6
JWW_DASHED2
 62
     4
370
     9
100
AcDbLine
 10
-519.7226565428275
 20
-558.7543124849424
 30
0.0
 11
-519.7226565428275
 21
-807.2542910401578
 31
0.0
  0
LINE
  5
18E
330
1F
100
AcDbEntity
  8
C-3
  6
JWW_DASHED2
 62
     4
370
     9
100
AcDbLine
 10
-454.7226400468395
 20
-558.7543124849424
 30
0.0
 11
-454.7226400468395
 21
-807.2542910401578
 31
0.0
  0
LINE
  5
18F
330
1F
100
AcDbEntity
  8
C-3
  6
Continuous
 62
     4
370
     9
100
AcDbLine
 10
1113.467232139198
 20
-558.752545754599
 30
0.0
 11
1113.467232139198
 21
-807.2525614257876
 31
0.0
  0
LINE
  5
190
330
1F
100
AcDbEntity
  8
C-3
  6
Continuous
 62
     4
370
     9
100
AcDbLine
 10
1045.467205745616
 20
-558.752545754599
 30
0.0
 11
1045.467205745616
 21
-807.2525614257876
 31
0.0
  0
LINE
  5
191
330
1F
100
AcDbEntity
  8
C-3
  6
Continuous
 62
     4
370
     9
100
AcDbLine
 10
455.9671908992267
 20
-558.752580406184
 30
0.0
 11
455.9671908992267
 21
-807.2525589613995
 31
0.0
  0
LINE
  5
192
330
1F
100
AcDbEntity
  8
C-3
  6
Continuous
 62
     4
370
     9
100
AcDbLine
 10
523.9672172928076
 20
-558.752580406184
 30
0.0
 11
523.9672172928076
 21
-807.2525589613995
 31
0.0
  0
LINE
  5
193
330
1F
100
AcDbEntity
  8
C-3
  6
JWW_DASHED2
 62
     4
370
     9
100
AcDbLine
 10
457.4672700799699
 20
-558.752580406184
 30
0.0
 11
457.4672700799699
 21
-807.2525589613995
 31
0.0
  0
LINE
  5
194
330
1F
100
AcDbEntity
  8
C-3
  6
JWW_DASHED2
 62
     4
370
     9
100
AcDbLine
 10
522.4672865759579
 20
-558.752580406184
 30
0.0
 11
522.4672865759579
 21
-807.2525589613995
 31
0.0
  0
LINE
  5
195
330
1F
100
AcDbEntity
  8
C-3
  6
JWW_DASHED2
 62
     4
370
     9
100
AcDbLine
 10
1046.96728492636
 20
-558.752545754599
 30
0.0
 11
1046.96728492636
 21
-807.2525243098141
 31
0.0
  0
LINE
  5
196
330
1F
100
AcDbEntity
  8
C-3
  6
JWW_DASHED2
 62
     4
370
     9
100
AcDbLine
 10
1111.967301422348
 20
-558.752545754599
 30
0.0
 11
1111.967301422348
 21
-807.2525243098141
 31
0.0
  0
LINE
  5
197
330
1F
100
AcDbEntity
  8
C-3
  6
Continuous
 62
     4
370
     9
100
AcDbLine
 10
-524.7227720147447
 20
-557.2542704201726
 30
0.0
 11
-524.7227720147447
 21
-558.7543124849424
 31
0.0
  0
LINE
  5
198
330
1F
100
AcDbEntity
  8
C-3
  6
Continuous
 62
     4
370
     9
100
AcDbLine
 10
-449.7226730388156
 20
-557.2542704201726
 30
0.0
 11
-449.7226730388156
 21
-558.7543124849424
 31
0.0
  0
LINE
  5
199
330
1F
100
AcDbEntity
  8
C-3
  6
Continuous
 62
     4
370
     9
100
AcDbLine
 10
-524.7227720147447
 20
-557.2542704201726
 30
0.0
 11
-504.72290398265
 21
-557.2542704201726
 31
0.0
  0
LINE
  5
19A
330
1F
100
AcDbEntity
  8
C-3
  6
Continuous
 62
     4
370
     9
100
AcDbLine
 10
-469.7226895348038
 20
-557.2542704201726
 30
0.0
 11
-449.7226730388156
 21
-557.2542704201726
 31
0.0
  0
LINE
  5
19B
330
1F
100
AcDbEntity
  8
C-3
  6
Continuous
 62
     4
370
     9
100
AcDbLine
 10
-469.7226895348038
 20
-558.7543124849424
 30
0.0
 11
-449.7226730388156
 21
-558.7543124849424
 31
0.0
  0
ARC
  5
19C
330
1F
100
AcDbEntity
  8
C-3
  6
JWW_DASHED1
 62
     4
370
     9
100
AcDbCircle
 10
-453.22270932999
 20
-558.7543124849424
 30
0.0
 40
1.499999874346965
100
AcDbArc
 50
90.0
 51
180.0
  0
ARC
  5
19D
330
1F
100
AcDbEntity
  8
C-3
  6
JWW_DASHED1
 62
     4
370
     9
100
AcDbCircle
 10
-521.2227357235707
 20
-558.7543124849424
 30
0.0
 40
1.499999874346965
100
AcDbArc
 50
0.0
 51
90.0
  0
LINE
  5
19E
330
1F
100
AcDbEntity
  8
C-3
  6
Continuous
 62
     4
370
     9
100
AcDbLine
 10
1116.967268430372
 20
-557.2525408058025
 30
0.0
 11
1116.967268430372
 21
-558.752545754599
 31
0.0
  0
LINE
  5
19F
330
1F
100
AcDbEntity
  8
C-3
  6
Continuous
 62
     4
370
     9
100
AcDbLine
 10
1045.467205745616
 20
-558.752545754599
 30
0.0
 11
1041.967317918336
 21
-558.752545754599
 31
0.0
  0
LINE
  5
1A0
330
1F
100
AcDbEntity
  8
C-3
  6
Continuous
 62
     4
370
     9
100
AcDbLine
 10
452.4671546080526
 20
-557.2525383414143
 30
0.0
 11
452.4671546080526
 21
-558.752580406184
 31
0.0
  0
LINE
  5
1A1
330
1F
100
AcDbEntity
  8
C-3
  6
Continuous
 62
     4
370
     9
100
AcDbLine
 10
527.4672535839817
 20
-557.2525383414143
 30
0.0
 11
527.4672535839817
 21
-558.752580406184
 31
0.0
  0
LINE
  5
1A2
330
1F
100
AcDbEntity
  8
C-3
  6
Continuous
 62
     4
370
     9
100
AcDbLine
 10
452.4671546080526
 20
-557.2525383414143
 30
0.0
 11
472.4670226401474
 21
-557.2525383414143
 31
0.0
  0
LINE
  5
1A3
330
1F
100
AcDbEntity
  8
C-3
  6
Continuous
 62
     4
370
     9
100
AcDbLine
 10
507.4672370879937
 20
-557.2525383414143
 30
0.0
 11
527.4672535839817
 21
-557.2525383414143
 31
0.0
  0
LINE
  5
1A4
330
1F
100
AcDbEntity
  8
C-3
  6
Continuous
 62
     4
370
     9
100
AcDbLine
 10
507.4672370879937
 20
-558.752580406184
 30
0.0
 11
527.4672535839817
 21
-558.752580406184
 31
0.0
  0
LINE
  5
1A5
330
1F
100
AcDbEntity
  8
C-3
  6
Continuous
 62
     4
370
     9
100
AcDbLine
 10
452.4671546080526
 20
-558.752580406184
 30
0.0
 11
472.4670226401474
 21
-558.752580406184
 31
0.0
  0
ARC
  5
1A6
330
1F
100
AcDbEntity
  8
C-3
  6
JWW_DASHED1
 62
     4
370
     9
100
AcDbCircle
 10
523.9672172928076
 20
-558.752580406184
 30
0.0
 40
1.499999874346965
100
AcDbArc
 50
90.0
 51
180.0
  0
ARC
  5
1A7
330
1F
100
AcDbEntity
  8
C-3
  6
JWW_DASHED1
 62
     4
370
     9
100
AcDbCircle
 10
455.9671908992267
 20
-558.752580406184
 30
0.0
 40
1.499999874346965
100
AcDbArc
 50
0.0
 51
90.0
  0
ARC
  5
1A8
330
1F
100
AcDbEntity
  8
C-3
  6
JWW_DASHED1
 62
     4
370
     9
100
AcDbCircle
 10
1113.467232139197
 20
-558.752545754599
 30
0.0
 40
1.499999874346965
100
AcDbArc
 50
90.0
 51
180.0
  0
ARC
  5
1A9
330
1F
100
AcDbEntity
  8
C-3
  6
JWW_DASHED1
 62
     4
370
     9
100
AcDbCircle
 10
1045.467205745616
 20
-558.752545754599
 30
0.0
 40
1.499999874346965
100
AcDbArc
 50
0.0
 51
90.0
  0
LINE
  5
1AA
330
1F
100
AcDbEntity
  8
C-3
  6
Continuous
 62
     4
370
     9
100
AcDbLine
 10
1041.967317918336
 20
-557.2525408058025
 30
0.0
 11
1041.967317918336
 21
-557.3083761798955
 31
0.0
  0
LINE
  5
1AB
330
1F
100
AcDbEntity
  8
C-3
  6
Continuous
 62
     4
370
     9
100
AcDbLine
 10
1041.967317918336
 20
-557.3083761798955
 30
0.0
 11
1041.967317918336
 21
-558.752545754599
 31
0.0
  0
LINE
  5
1AC
330
1F
100
AcDbEntity
  8
C-3
  6
Continuous
 62
     4
370
     9
100
AcDbLine
 10
1041.967317918336
 20
-557.2525408058025
 30
0.0
 11
1049.216983049776
 21
-557.2525408058025
 31
0.0
  0
LINE
  5
1AD
330
1F
100
AcDbEntity
  8
C-3
  6
Continuous
 62
     4
370
     9
100
AcDbLine
 10
-524.7227720147447
 20
-558.7543124849424
 30
0.0
 11
-504.72290398265
 21
-558.7543124849424
 31
0.0
  0
LINE
  5
1AE
330
1F
100
AcDbEntity
  8
C-3
  6
Continuous
 62
     4
370
     9
100
AcDbLine
 10
1116.967268430372
 20
-558.752545754599
 30
0.0
 11
1113.467232139198
 21
-558.752545754599
 31
0.0
  0
ARC
  5
1AF
330
1F
100
AcDbEntity
  8
C-3
  6
Continuous
 62
     4
370
     9
100
AcDbCircle
 10
-1076.722861093081
 20
649.2323947110958
 30
0.0
 40
32.49998505051072
100
AcDbArc
 50
190.6387142656801
 51
291.4448260801233
  0
ARC
  5
1B0
330
1F
100
AcDbEntity
  8
C-3
  6
Continuous
 62
     4
370
     9
100
AcDbCircle
 10
-1076.722861093081
 20
649.2323947110958
 30
0.0
 40
32.49998505051072
100
AcDbArc
 50
68.55457735033664
 51
169.3612857343199
  0
ARC
  5
1B1
330
1F
100
AcDbEntity
  8
C-3
  6
Continuous
 62
     4
370
     9
100
AcDbCircle
 10
-1076.722861093081
 20
649.2323947110958
 30
0.0
 40
37.50000077324945
100
AcDbArc
 50
53.7712352227796
 51
176.1774463496638
  0
ARC
  5
1B2
330
1F
100
AcDbEntity
  8
C-3
  6
Continuous
 62
     4
370
     9
100
AcDbCircle
 10
-1076.722861093081
 20
649.2323947110958
 30
0.0
 40
37.50000077324945
100
AcDbArc
 50
183.8225536503362
 51
306.228444933924
  0
ARC
  5
1B3
330
1F
100
AcDbEntity
  8
C-3
  6
Continuous
 62
     4
370
     9
100
AcDbCircle
 10
-487.2227225267801
 20
1238.732409557486
 30
0.0
 40
32.49998505051072
100
AcDbArc
 50
338.5551739198762
 51
201.4448260801233
  0
ARC
  5
1B4
330
1F
100
AcDbEntity
  8
C-3
  6
Continuous
 62
     4
370
     9
100
AcDbCircle
 10
-487.2227225267801
 20
1238.732409557486
 30
0.0
 40
37.50000077324945
100
AcDbArc
 50
323.7715550660757
 51
216.228444933924
  0
LINE
  5
1B5
330
1F
100
AcDbEntity
  8
C-2
  6
JWW_DASHED2
 62
     3
370
     9
100
AcDbLine
 10
-517.4729584194113
 20
-557.2514019125629
 30
0.0
 11
-517.4729584194113
 21
-807.2508212272925
 31
0.0
  0
LINE
  5
1B6
330
1F
100
AcDbEntity
  8
C-2
  6
JWW_DASHED2
 62
     3
370
     9
100
AcDbLine
 10
-456.9728330499011
 20
-557.2513165173054
 30
0.0
 11
-456.9728330499011
 21
-807.2513866548309
 31
0.0
  0
LINE
  5
1B7
330
1F
100
AcDbEntity
  8
C-2
  6
JWW_DASHED2
 62
     3
370
     9
100
AcDbLine
 10
459.7169682033862
 20
-557.2496698338045
 30
0.0
 11
459.7169682033862
 21
-807.2490891485342
 31
0.0
  0
LINE
  5
1B8
330
1F
100
AcDbEntity
  8
C-2
  6
JWW_DASHED2
 62
     3
370
     9
100
AcDbLine
 10
520.2170935728964
 20
-557.2495844385471
 30
0.0
 11
520.2170935728964
 21
-807.2496545760725
 31
0.0
  0
LINE
  5
1B9
330
1F
100
AcDbEntity
  8
C-2
  6
JWW_DASHED2
 62
     3
370
     9
100
AcDbLine
 10
1049.216983049776
 20
-557.2496351822199
 30
0.0
 11
1049.216983049776
 21
-807.2490544969492
 31
0.0
  0
LINE
  5
1BA
330
1F
100
AcDbEntity
  8
C-2
  6
JWW_DASHED2
 62
     3
370
     9
100
AcDbLine
 10
1109.717108419286
 20
-557.2495497869619
 30
0.0
 11
1109.717108419286
 21
-807.2496199244875
 31
0.0
  0
ARC
  5
1BB
330
1F
100
AcDbEntity
  8
C-0
  6
JWW_CENTER2
 62
     7
370
     9
100
AcDbCircle
 10
-901.7228610930807
 20
37.49575762300765
 30
0.0
 40
175.0
100
AcDbArc
 50
90.0
 51
180.0
  0
LINE
  5
1BC
330
1F
100
AcDbEntity
  8
C-0
  6
JWW_CENTER2
 62
     7
370
     9
100
AcDbLine
 10
-901.7228610930807
 20
212.4957576230076
 30
0.0
 11
-436.478011140589
 21
212.4957576230076
 31
0.0
  0
LINE
  5
1BD
330
1F
100
AcDbEntity
  8
C-0
  6
JWW_CENTER2
 62
     7
370
     9
100
AcDbLine
 10
-1076.722861093081
 20
37.49575762300765
 30
0.0
 11
-1076.722861093081
 21
-814.9583917778582
 31
0.0
  0
LINE
  5
1BE
330
1F
100
AcDbEntity
  8
C-0
  6
JWW_CENTER2
 62
     7
370
     9
100
AcDbLine
 10
-487.2227225267801
 20
256.221838440153
 30
0.0
 11
-487.2227225267801
 21
-819.804253264345
 31
0.0
  0
LINE
  5
1BF
330
1F
100
AcDbEntity
  8
C-0
  6
JWW_CENTER2
 62
     7
370
     9
100
AcDbLine
 10
-537.2227637667505
 20
1238.732409557486
 30
0.0
 11
-437.2226812868098
 21
1238.732409557486
 31
0.0
  0
LINE
  5
1C0
330
1F
100
AcDbEntity
  8
C-0
  6
JWW_CENTER2
 62
     7
370
     9
100
AcDbLine
 10
-662.22272252678
 20
649.2323947110958
 30
0.0
 11
-1126.72277861314
 21
649.2323947110958
 31
0.0
  0
LINE
  5
1C1
330
1F
100
AcDbEntity
  8
C-0
  6
JWW_CENTER2
 62
     7
370
     9
100
AcDbLine
 10
904.4672189424069
 20
212.4953864632735
 30
0.0
 11
439.2224927098266
 21
212.4953864632735
 31
0.0
  0
LINE
  5
1C2
330
1F
100
AcDbEntity
  8
C-0
  6
JWW_CENTER2
 62
     7
370
     9
100
AcDbLine
 10
489.9672040960173
 20
256.2214672804188
 30
0.0
 11
489.9672040960173
 21
-819.804253264345
 31
0.0
  0
LINE
  5
1C3
330
1F
100
AcDbEntity
  8
C-0
  6
JWW_CENTER2
 62
     7
370
     9
100
AcDbLine
 10
1079.467218942407
 20
37.49538646327323
 30
0.0
 11
1079.467218942407
 21
-824.5315910757893
 31
0.0
  0
ARC
  5
1C4
330
1F
100
AcDbEntity
  8
C-0
  6
JWW_CENTER2
 62
     7
370
     9
100
AcDbCircle
 10
904.4672189424069
 20
37.49538646327323
 30
0.0
 40
175.0
100
AcDbArc
 50
0.0
 51
90.0
  0
LINE
  5
1C5
330
1F
100
AcDbEntity
  8
C-0
  6
JWW_CENTER2
 62
     7
370
     9
100
AcDbLine
 10
-487.2227225267801
 20
824.2323947110958
 30
0.0
 11
-487.2227225267801
 21
1317.708767507232
 31
0.0
  0
LINE
  5
1C6
330
1F
100
AcDbEntity
  8
C-0
  6
JWW_CENTER2
 62
     7
370
     9
100
AcDbLine
 10
-1076.722861093081
 20
715.9184166705552
 30
0.0
 11
-1076.722861093081
 21
582.5463727516365
 31
0.0
  0
ARC
  5
1C7
330
1F
100
AcDbEntity
  8
C-0
  6
JWW_CENTER2
 62
     7
370
     9
100
AcDbCircle
 10
-662.22272252678
 20
824.2323947110958
 30
0.0
 40
175.0
100
AcDbArc
 50
270.0
 51
0.0
  0
LINE
  5
1C8
330
1F
100
AcDbEntity
  8
C-3
  6
Continuous
 62
     6
370
     9
100
AcDbLine
 10
-1028.257416889111
 20
-472.5810806899145
 30
0.0
 11
-1030.544948561409
 21
-472.8215179655692
 31
0.0
  0
LINE
  5
1C9
330
1F
100
AcDbEntity
  8
C-3
  6
Continuous
 62
     6
370
     9
100
AcDbLine
 10
-1020.254693401463
 20
-548.7228670074825
 30
0.0
 11
-1022.542225073761
 21
-548.9633042831372
 31
0.0
  0
LINE
  5
1CA
330
1F
100
AcDbEntity
  8
C-3
  6
Continuous
 62
     6
370
     9
100
AcDbLine
 10
-1029.620092736345
 20
-539.0218279251869
 30
0.0
 11
-1035.09395649268
 21
-486.9399888534491
 31
0.0
  0
LINE
  5
1CB
330
1F
100
AcDbEntity
  8
C-3
  6
Continuous
 62
     6
370
     9
100
AcDbLine
 10
-1028.090988864407
 20
-541.3320003412557
 30
0.0
 11
-1023.36909472906
 21
-543.9495301330103
 31
0.0
  0
LINE
  5
1CC
330
1F
100
AcDbEntity
  8
C-3
  6
Continuous
 62
     6
370
     9
100
AcDbLine
 10
-1034.078537692532
 20
-484.3622102692012
 30
0.0
 11
-1030.004243060986
 21
-480.8206783197713
 31
0.0
  0
ARC
  5
1CD
330
1F
100
AcDbEntity
  8
C-3
  6
Continuous
 62
     6
370
     9
100
AcDbCircle
 10
-1030.463590347726
 20
-480.2922953225163
 30
0.0
 40
0.7000000090212437
100
AcDbArc
 50
311.0011138916016
 51
6.002014160156273
  0
ARC
  5
1CE
330
1F
100
AcDbEntity
  8
C-3
  6
Continuous
 62
     6
370
     9
100
AcDbCircle
 10
-1023.708483189787
 20
-544.5617209981915
 30
0.0
 40
0.7000000090212437
100
AcDbArc
 50
5.997558593750015
 51
60.9977264404297
  0
ARC
  5
1CF
330
1F
100
AcDbEntity
  8
C-3
  6
Continuous
 62
     6
370
     9
100
AcDbCircle
 10
-1032.110351855327
 20
-486.6264331102062
 30
0.0
 40
3.000000038662472
100
AcDbArc
 50
131.0008087158203
 51
186.0004425048828
  0
ARC
  5
1D0
330
1F
100
AcDbEntity
  8
C-3
  6
Continuous
 62
     6
370
     9
100
AcDbCircle
 10
-1026.636488098993
 20
-538.7082350659707
 30
0.0
 40
3.000000038662472
100
AcDbArc
 50
186.0003509521484
 51
240.9982757568359
  0
LINE
  5
1D1
330
1F
100
AcDbEntity
  8
C-3
  6
Continuous
 62
     6
370
     9
100
AcDbLine
 10
-1021.912589701083
 20
-554.9542677808145
 30
0.0
 11
-1030.544948561409
 21
-472.8215179655692
 31
0.0
  0
LINE
  5
1D2
330
1F
100
AcDbEntity
  8
C-3
  6
Continuous
 62
     6
370
     9
100
AcDbLine
 10
-1019.599744934931
 20
-554.9542677808145
 30
0.0
 11
-1028.257416889111
 21
-472.5810806899145
 31
0.0
  0
LINE
  5
1D3
330
1F
100
AcDbEntity
  8
C-3
  6
Continuous
 62
     6
370
     9
100
AcDbLine
 10
-1024.102506363351
 20
609.4823749159102
 30
0.0
 11
-1026.390038035648
 21
609.4823749159102
 31
0.0
  0
LINE
  5
1D4
330
1F
100
AcDbEntity
  8
C-3
  6
Continuous
 62
     6
370
     9
100
AcDbLine
 10
-1024.102506363351
 20
688.9824145062818
 30
0.0
 11
-1026.390038035648
 21
688.9824145062818
 31
0.0
  0
ELLIPSE
  5
1D5
330
1F
100
AcDbEntity
  8
C-3
  6
Continuous
 62
     6
370
     9
100
AcDbEllipse
 10
-1026.390038035648
 20
649.2323947110958
 30
0.0
 11
2.433986725410911E-15
 21
39.75001979518581
 31
0.0
210
0.0
220
0.0
230
1.0
 40
0.1045000000000001
 41
2.435659094861532
 42
3.141592653589792
  0
ELLIPSE
  5
1D6
330
1F
100
AcDbEntity
  8
C-3
  6
Continuous
 62
     6
370
     9
100
AcDbEllipse
 10
-1024.102506363351
 20
649.2323947110958
 30
0.0
 11
1.882893705592664E-15
 21
-30.74998778265876
 31
0.0
210
0.0
220
0.0
230
1.0
 40
0.1045
 41
6.102610692862575
 42
6.463759921496596
  0
ELLIPSE
  5
1D7
330
1F
100
AcDbEntity
  8
C-3
  6
Continuous
 62
     6
370
     9
100
AcDbEllipse
 10
-1026.390038035648
 20
649.2323947110958
 30
0.0
 11
2.433986725410911E-15
 21
39.75001979518581
 31
0.0
210
0.0
220
0.0
230
1.0
 40
0.1045000000000001
 41
0.0
 42
0.7059383563643559
  0
ELLIPSE
  5
1D8
330
1F
100
AcDbEntity
  8
C-3
  6
Continuous
 62
     6
370
     9
100
AcDbEllipse
 10
-1024.102506363351
 20
649.2323947110958
 30
0.0
 11
1.882893705592664E-15
 21
-30.74998778265876
 31
0.0
210
0.0
220
0.0
230
1.0
 40
0.1045
 41
2.960995637929004
 42
3.32218966925058
  0
ELLIPSE
  5
1D9
330
1F
100
AcDbEntity
  8
C-3
  6
Continuous
 62
     6
370
     9
100
AcDbEllipse
 10
-1024.102506363351
 20
649.2323947110958
 30
0.0
 11
2.433986725410911E-15
 21
39.75001979518581
 31
0.0
210
0.0
220
0.0
230
1.0
 40
0.1045000000000001
 41
5.577246950815232
 42
6.989123663543943
  0
ELLIPSE
  5
1DA
330
1F
100
AcDbEntity
  8
C-3
  6
Continuous
 62
     6
370
     9
100
AcDbEllipse
 10
-1026.390038035648
 20
649.2323947110958
 30
0.0
 11
2.433986725410911E-15
 21
-39.75001979518581
 31
0.0
210
0.0
220
0.0
230
1.0
 40
0.1045
 41
5.577246950815232
 42
6.283185307179586
  0
ELLIPSE
  5
1DB
330
1F
100
AcDbEntity
  8
C-3
  6
Continuous
 62
     6
370
     9
100
AcDbEllipse
 10
-1024.102506363351
 20
649.2323947110958
 30
0.0
 11
2.433986725410911E-15
 21
-39.75001979518581
 31
0.0
210
0.0
220
0.0
230
1.0
 40
0.1045
 41
5.577246950815232
 42
6.989123663543942
  0
LINE
  5
1DC
330
1F
100
AcDbEntity
  8
C-3
  6
Continuous
 62
     6
370
     9
100
AcDbLine
 10
-526.9727423219659
 20
1186.112054827756
 30
0.0
 11
-526.9727423219659
 21
1188.399586500053
 31
0.0
  0
LINE
  5
1DD
330
1F
100
AcDbEntity
  8
C-3
  6
Continuous
 62
     6
370
     9
100
AcDbLine
 10
-447.4727027315942
 20
1186.112054827756
 30
0.0
 11
-447.4727027315942
 21
1188.399586500053
 31
0.0
  0
ELLIPSE
  5
1DE
330
1F
100
AcDbEntity
  8
C-3
  6
Continuous
 62
     6
370
     9
100
AcDbEllipse
 10
-487.2227225267801
 20
1188.399586500053
 30
0.0
 11
39.75001979518581
 21
0.0
 31
0.0
210
0.0
220
0.0
230
1.0
 40
0.1045000000000001
 41
2.435659094861532
 42
3.141592653589792
  0
ELLIPSE
  5
1DF
330
1F
100
AcDbEntity
  8
C-3
  6
Continuous
 62
     6
370
     9
100
AcDbEllipse
 10
-487.2227225267801
 20
1186.112054827756
 30
0.0
 11
-30.74998778265876
 21
3.765787411185327E-15
 31
0.0
210
0.0
220
0.0
230
1.0
 40
0.1045
 41
6.102610692862575
 42
6.463759921496596
  0
ELLIPSE
  5
1E0
330
1F
100
AcDbEntity
  8
C-3
  6
Continuous
 62
     6
370
     9
100
AcDbEllipse
 10
-487.2227225267801
 20
1188.399586500053
 30
0.0
 11
39.75001979518581
 21
0.0
 31
0.0
210
0.0
220
0.0
230
1.0
 40
0.1045000000000001
 41
0.0
 42
0.7059383563643559
  0
ELLIPSE
  5
1E1
330
1F
100
AcDbEntity
  8
C-3
  6
Continuous
 62
     6
370
     9
100
AcDbEllipse
 10
-487.2227225267801
 20
1186.112054827756
 30
0.0
 11
-30.74998778265876
 21
3.765787411185327E-15
 31
0.0
210
0.0
220
0.0
230
1.0
 40
0.1045
 41
2.960995637929004
 42
3.32218966925058
  0
ELLIPSE
  5
1E2
330
1F
100
AcDbEntity
  8
C-3
  6
Continuous
 62
     6
370
     9
100
AcDbEllipse
 10
-487.2227225267801
 20
1186.112054827756
 30
0.0
 11
39.75001979518581
 21
0.0
 31
0.0
210
0.0
220
0.0
230
1.0
 40
0.1045000000000001
 41
5.577246950815232
 42
6.989123663543943
  0
ELLIPSE
  5
1E3
330
1F
100
AcDbEntity
  8
C-3
  6
Continuous
 62
     6
370
     9
100
AcDbEllipse
 10
-487.2227225267801
 20
1188.399586500053
 30
0.0
 11
-39.75001979518581
 21
4.867973450821823E-15
 31
0.0
210
0.0
220
0.0
230
1.0
 40
0.1045
 41
5.577246950815232
 42
6.283185307179586
  0
ELLIPSE
  5
1E4
330
1F
100
AcDbEntity
  8
C-3
  6
Continuous
 62
     6
370
     9
100
AcDbEllipse
 10
-487.2227225267801
 20
1186.112054827756
 30
0.0
 11
-39.75001979518581
 21
4.867973450821823E-15
 31
0.0
210
0.0
220
0.0
230
1.0
 40
0.1045
 41
5.577246950815232
 42
6.989123663543942
  0
LINE
  5
1E5
330
1F
100
AcDbEntity
  8
C-3
  6
Continuous
 62
     6
370
     9
100
AcDbLine
 10
-472.2226730388156
 20
-548.7220875720411
 30
0.0
 11
-472.2226730388156
 21
-554.9542677808145
 31
0.0
  0
LINE
  5
1E6
330
1F
100
AcDbEntity
  8
C-3
  6
Continuous
 62
     6
370
     9
100
AcDbLine
 10
-502.2227720147447
 20
-548.7220875720411
 30
0.0
 11
-502.2227720147447
 21
-554.9542677808145
 31
0.0
  0
ELLIPSE
  5
1E7
330
1F
100
AcDbEntity
  8
C-3
  6
Continuous
 62
     6
370
     9
100
AcDbEllipse
 10
-487.2227225267801
 20
-512.1133781851637
 30
0.0
 11
39.75001979518581
 21
0.0
 31
0.0
210
0.0
220
0.0
230
1.0
 40
0.9945000000000002
 41
5.099332438335534
 42
10.60863082961343
  0
ELLIPSE
  5
1E8
330
1F
100
AcDbEntity
  8
C-3
  6
Continuous
 62
     6
370
     9
100
AcDbEllipse
 10
489.9672040960173
 20
-512.1116461064054
 30
0.0
 11
39.75001979518581
 21
0.0
 31
0.0
210
0.0
220
0.0
230
1.0
 40
0.9945000000000002
 41
5.099332438335534
 42
10.60863082961343
  0
LINE
  5
1E9
330
1F
100
AcDbEntity
  8
C-3
  6
Continuous
 62
     6
370
     9
100
AcDbLine
 10
1031.001774738438
 20
-472.5793510755449
 30
0.0
 11
1033.289306410735
 21
-472.8197883511996
 31
0.0
  0
LINE
  5
1EA
330
1F
100
AcDbEntity
  8
C-3
  6
Continuous
 62
     6
370
     9
100
AcDbLine
 10
1022.99905125079
 20
-548.7211373931123
 30
0.0
 11
1025.286582923087
 21
-548.9615746687671
 31
0.0
  0
LINE
  5
1EB
330
1F
100
AcDbEntity
  8
C-3
  6
Continuous
 62
     6
370
     9
100
AcDbLine
 10
1032.364450585671
 20
-539.0200983108173
 30
0.0
 11
1037.838314342006
 21
-486.9382592390795
 31
0.0
  0
LINE
  5
1EC
330
1F
100
AcDbEntity
  8
C-3
  6
Continuous
 62
     6
370
     9
100
AcDbLine
 10
1030.835346713733
 20
-541.3302707268855
 30
0.0
 11
1026.113452578387
 21
-543.9478005186402
 31
0.0
  0
LINE
  5
1ED
330
1F
100
AcDbEntity
  8
C-3
  6
Continuous
 62
     6
370
     9
100
AcDbLine
 10
1036.822895541858
 20
-484.3604806548311
 30
0.0
 11
1032.748600910313
 21
-480.8189487054011
 31
0.0
  0
ARC
  5
1EE
330
1F
100
AcDbEntity
  8
C-3
  6
Continuous
 62
     6
370
     9
100
AcDbCircle
 10
1033.207948197052
 20
-480.2905657081462
 30
0.0
 40
0.7000000090212437
100
AcDbArc
 50
173.9979858398438
 51
228.9988861083984
  0
ARC
  5
1EF
330
1F
100
AcDbEntity
  8
C-3
  6
Continuous
 62
     6
370
     9
100
AcDbCircle
 10
1026.452841039113
 20
-544.559991383822
 30
0.0
 40
0.7000000090212437
100
AcDbArc
 50
119.0022735595703
 51
174.00244140625
  0
ARC
  5
1F0
330
1F
100
AcDbEntity
  8
C-3
  6
Continuous
 62
     6
370
     9
100
AcDbCircle
 10
1034.854709704653
 20
-486.624703495836
 30
0.0
 40
3.000000038662472
100
AcDbArc
 50
353.9995574951172
 51
48.99919128417969
  0
ARC
  5
1F1
330
1F
100
AcDbEntity
  8
C-3
  6
Continuous
 62
     6
370
     9
100
AcDbCircle
 10
1029.380845948319
 20
-538.7065054516006
 30
0.0
 40
3.000000038662472
100
AcDbArc
 50
299.0017242431641
 51
353.9996490478516
  0
LINE
  5
1F2
330
1F
100
AcDbEntity
  8
C-3
  6
Continuous
 62
     6
370
     9
100
AcDbLine
 10
504.9672535839817
 20
-548.7203554932828
 30
0.0
 11
504.9672535839817
 21
-554.9525357020561
 31
0.0
  0
LINE
  5
1F3
330
1F
100
AcDbEntity
  8
C-3
  6
Continuous
 62
     6
370
     9
100
AcDbLine
 10
474.9671546080526
 20
-548.7203554932828
 30
0.0
 11
474.9671546080526
 21
-554.9525357020561
 31
0.0
  0
ELLIPSE
  5
1F4
330
1F
100
AcDbEntity
  8
C-3
  6
Continuous
 62
     6
370
     9
100
AcDbEllipse
 10
489.9672040960173
 20
-512.7388318248387
 30
0.0
 11
26.54875884184966
 21
0.0
 31
0.0
210
0.0
220
0.0
230
1.0
 40
0.9945
 41
0.0
 42
6.283185307179586
  0
ELLIPSE
  5
1F5
330
1F
100
AcDbEntity
  8
C-3
  6
Continuous
 62
     6
370
     9
100
AcDbEllipse
 10
489.9672040960173
 20
-512.1116832223788
 30
0.0
 11
30.74998778265876
 21
0.0
 31
0.0
210
0.0
220
0.0
230
1.0
 40
0.9945
 41
0.0
 42
6.283185307179586
  0
LINE
  5
1F6
330
1F
100
AcDbEntity
  8
C-3
  6
Continuous
 62
     6
370
     9
100
AcDbLine
 10
1024.656947550409
 20
-554.9525381664444
 30
0.0
 11
1033.289306410735
 21
-472.8197883511996
 31
0.0
  0
LINE
  5
1F7
330
1F
100
AcDbEntity
  8
C-3
  6
Continuous
 62
     6
370
     9
100
AcDbLine
 10
1022.344102784257
 20
-554.9525381664444
 30
0.0
 11
1031.001774738438
 21
-472.5793510755449
 31
0.0
  0
ELLIPSE
  5
1F8
330
1F
100
AcDbEntity
  8
C-3
  6
Continuous
 62
     6
370
     9
100
AcDbEllipse
 10
-487.2227225267801
 20
-512.1134153011371
 30
0.0
 11
30.74998778265876
 21
0.0
 31
0.0
210
0.0
220
0.0
230
1.0
 40
0.9945
 41
0.0
 42
6.283185307179586
  0
ELLIPSE
  5
1F9
330
1F
100
AcDbEntity
  8
C-3
  6
Continuous
 62
     6
370
     9
100
AcDbEllipse
 10
-487.2227225267801
 20
-512.740563903597
 30
0.0
 11
26.54875884184966
 21
0.0
 31
0.0
210
0.0
220
0.0
230
1.0
 40
0.9945
 41
0.0
 42
6.283185307179586
  0
LINE
  5
1FA
330
1F
100
AcDbEntity
  8
C-3
  6
Continuous
 62
     3
370
     9
100
AcDbLine
 10
-1010.222913880243
 20
-573.9543057215872
 30
0.0
 11
-1010.222913880243
 21
-556.4543469615575
 31
0.0
  0
LINE
  5
1FB
330
1F
100
AcDbEntity
  8
C-3
  6
Continuous
 62
     3
370
     9
100
AcDbLine
 10
-1011.722696133199
 20
-575.4542364384366
 30
0.0
 11
-1042.72284789629
 21
-575.4542364384366
 31
0.0
  0
ARC
  5
1FC
330
1F
100
AcDbEntity
  8
C-3
  6
Continuous
 62
     3
370
     9
100
AcDbCircle
 10
-1011.722696133199
 20
-556.4543469615575
 30
0.0
 40
1.499999874346965
100
AcDbArc
 50
0.0000000000000127
 51
90.00000000000001
  0
ARC
  5
1FD
330
1F
100
AcDbEntity
  8
C-3
  6
Continuous
 62
     3
370
     9
100
AcDbCircle
 10
-1011.722696133199
 20
-573.9543057215872
 30
0.0
 40
1.499999874346965
100
AcDbArc
 50
270.0
 51
0.0
  0
LINE
  5
1FE
330
1F
100
AcDbEntity
  8
C-3
  6
Continuous
 62
     3
370
     9
100
AcDbLine
 10
-1046.472748920361
 20
-554.9542677808145
 30
0.0
 11
-1011.722696133199
 21
-554.9542677808145
 31
0.0
  0
LINE
  5
1FF
330
1F
100
AcDbEntity
  8
C-3
  6
Continuous
 62
     3
370
     9
100
AcDbLine
 10
-504.72290398265
 20
-554.9542677808145
 30
0.0
 11
-469.7226895348038
 21
-554.9542677808145
 31
0.0
  0
LINE
  5
200
330
1F
100
AcDbEntity
  8
C-3
  6
Continuous
 62
     3
370
     9
100
AcDbLine
 10
-504.72290398265
 20
-554.9542677808145
 30
0.0
 11
-504.72290398265
 21
-575.4542735544101
 31
0.0
  0
LINE
  5
201
330
1F
100
AcDbEntity
  8
C-3
  6
Continuous
 62
     3
370
     9
100
AcDbLine
 10
-504.72290398265
 20
-575.4542735544101
 30
0.0
 11
-469.7226895348038
 21
-575.4542735544101
 31
0.0
  0
LINE
  5
202
330
1F
100
AcDbEntity
  8
C-3
  6
Continuous
 62
     3
370
     9
100
AcDbLine
 10
-469.7226895348038
 20
-554.9542677808145
 30
0.0
 11
-469.7226895348038
 21
-575.4542735544101
 31
0.0
  0
LINE
  5
203
330
1F
100
AcDbEntity
  8
C-3
  6
Continuous
 62
     3
370
     9
100
AcDbLine
 10
472.4670226401474
 20
-554.9525357020561
 30
0.0
 11
507.4672370879937
 21
-554.9525357020561
 31
0.0
  0
LINE
  5
204
330
1F
100
AcDbEntity
  8
C-3
  6
Continuous
 62
     3
370
     9
100
AcDbLine
 10
1012.967271729569
 20
-573.952576107217
 30
0.0
 11
1012.967271729569
 21
-556.4526173471879
 31
0.0
  0
LINE
  5
205
330
1F
100
AcDbEntity
  8
C-3
  6
Continuous
 62
     3
370
     9
100
AcDbLine
 10
1014.467053982526
 20
-575.4525068240671
 30
0.0
 11
1045.467205745616
 21
-575.4525068240671
 31
0.0
  0
ARC
  5
206
330
1F
100
AcDbEntity
  8
C-3
  6
Continuous
 62
     3
370
     9
100
AcDbCircle
 10
1014.467053982526
 20
-556.4526173471879
 30
0.0
 40
1.499999874346965
100
AcDbArc
 50
90.0
 51
180.0
  0
ARC
  5
207
330
1F
100
AcDbEntity
  8
C-3
  6
Continuous
 62
     3
370
     9
100
AcDbCircle
 10
1014.467053982526
 20
-573.952576107217
 30
0.0
 40
1.499999874346965
100
AcDbArc
 50
180.0
 51
270.0
  0
LINE
  5
208
330
1F
100
AcDbEntity
  8
C-3
  6
Continuous
 62
     3
370
     9
100
AcDbLine
 10
1049.217106769688
 20
-554.9525381664444
 30
0.0
 11
1014.467053982526
 21
-554.9525381664444
 31
0.0
  0
LINE
  5
209
330
1F
100
AcDbEntity
  8
C-3
  6
Continuous
 62
     3
370
     9
100
AcDbLine
 10
507.4672370879937
 20
-554.9525357020561
 30
0.0
 11
507.4672370879937
 21
-575.4525414756517
 31
0.0
  0
LINE
  5
20A
330
1F
100
AcDbEntity
  8
C-3
  6
Continuous
 62
     3
370
     9
100
AcDbLine
 10
472.4670226401474
 20
-575.4525414756517
 30
0.0
 11
507.4672370879937
 21
-575.4525414756517
 31
0.0
  0
LINE
  5
20B
330
1F
100
AcDbEntity
  8
C-3
  6
Continuous
 62
     3
370
     9
100
AcDbLine
 10
472.4670226401474
 20
-554.9525357020561
 30
0.0
 11
472.4670226401474
 21
-575.4525414756517
 31
0.0
  0
LINE
  5
20C
330
1F
100
AcDbEntity
  8
C-6
  6
Continuous
 62
     6
370
     9
100
AcDbLine
 10
-1076.722861093081
 20
-808.7542588729804
 30
0.0
 11
-876.7228610930808
 21
-808.7542588729804
 31
0.0
  0
LINE
  5
20D
330
1F
100
AcDbEntity
  8
C-6
  6
Continuous
 62
     6
370
     9
100
AcDbLine
 10
-1076.722861093081
 20
-808.7542588729804
 30
0.0
 11
-1276.722861093081
 21
-808.7542588729804
 31
0.0
  0
LINE
  5
20E
330
1F
100
AcDbEntity
  8
C-6
  6
Continuous
 62
     6
370
     9
100
AcDbLine
 10
-1276.722861093081
 20
-808.7542588729804
 30
0.0
 11
-1276.722861093081
 21
-908.7542588729804
 31
0.0
  0
LINE
  5
20F
330
1F
100
AcDbEntity
  8
C-6
  6
Continuous
 62
     6
370
     9
100
AcDbLine
 10
-876.7228610930808
 20
-808.7542588729804
 30
0.0
 11
-876.7228610930808
 21
-908.7542588729804
 31
0.0
  0
LINE
  5
210
330
1F
100
AcDbEntity
  8
C-6
  6
Continuous
 62
     6
370
     9
100
AcDbLine
 10
-1276.722861093081
 20
-908.7542588729804
 30
0.0
 11
-876.7228610930808
 21
-908.7542588729804
 31
0.0
  0
LINE
  5
211
330
1F
100
AcDbEntity
  8
C-6
  6
Continuous
 62
     6
370
     9
100
AcDbLine
 10
-889.772229906621
 20
-808.7542588729804
 30
0.0
 11
-883.247545499851
 21
-833.1047125823986
 31
0.0
  0
LINE
  5
212
330
1F
100
AcDbEntity
  8
C-6
  6
Continuous
 62
     6
370
     9
100
AcDbLine
 10
-890.4684115226532
 20
-908.7542588729804
 30
0.0
 11
-896.9930959294232
 21
-884.4038051635628
 31
0.0
  0
LINE
  5
213
330
1F
100
AcDbEntity
  8
C-6
  6
Continuous
 62
     6
370
     9
100
AcDbLine
 10
-876.7228610930812
 20
-808.7542588729804
 30
0.0
 11
-903.5177803361933
 21
-908.7542588729804
 31
0.0
  0
LINE
  5
214
330
1F
100
AcDbEntity
  8
C-6
  6
Continuous
 62
     6
370
     9
100
AcDbLine
 10
-939.772229906621
 20
-808.7542588729804
 30
0.0
 11
-933.247545499851
 21
-833.1047125823986
 31
0.0
  0
LINE
  5
215
330
1F
100
AcDbEntity
  8
C-6
  6
Continuous
 62
     6
370
     9
100
AcDbLine
 10
-940.4684115226532
 20
-908.7542588729804
 30
0.0
 11
-946.9930959294232
 21
-884.4038051635628
 31
0.0
  0
LINE
  5
216
330
1F
100
AcDbEntity
  8
C-6
  6
Continuous
 62
     6
370
     9
100
AcDbLine
 10
-926.7228610930812
 20
-808.7542588729804
 30
0.0
 11
-953.5177803361933
 21
-908.7542588729804
 31
0.0
  0
LINE
  5
217
330
1F
100
AcDbEntity
  8
C-6
  6
Continuous
 62
     6
370
     9
100
AcDbLine
 10
-989.772229906621
 20
-808.7542588729804
 30
0.0
 11
-983.247545499851
 21
-833.1047125823986
 31
0.0
  0
LINE
  5
218
330
1F
100
AcDbEntity
  8
C-6
  6
Continuous
 62
     6
370
     9
100
AcDbLine
 10
-990.4684115226532
 20
-908.7542588729804
 30
0.0
 11
-996.9930959294232
 21
-884.4038051635628
 31
0.0
  0
LINE
  5
219
330
1F
100
AcDbEntity
  8
C-6
  6
Continuous
 62
     6
370
     9
100
AcDbLine
 10
-976.7228610930812
 20
-808.7542588729804
 30
0.0
 11
-1003.517780336193
 21
-908.7542588729804
 31
0.0
  0
LINE
  5
21A
330
1F
100
AcDbEntity
  8
C-6
  6
Continuous
 62
     6
370
     9
100
AcDbLine
 10
-1039.772229906621
 20
-808.7542588729804
 30
0.0
 11
-1033.247545499851
 21
-833.1047125823986
 31
0.0
  0
LINE
  5
21B
330
1F
100
AcDbEntity
  8
C-6
  6
Continuous
 62
     6
370
     9
100
AcDbLine
 10
-1040.468411522653
 20
-908.7542588729804
 30
0.0
 11
-1046.993095929423
 21
-884.4038051635628
 31
0.0
  0
LINE
  5
21C
330
1F
100
AcDbEntity
  8
C-6
  6
Continuous
 62
     6
370
     9
100
AcDbLine
 10
-1026.722861093081
 20
-808.7542588729804
 30
0.0
 11
-1053.517780336193
 21
-908.7542588729804
 31
0.0
  0
LINE
  5
21D
330
1F
100
AcDbEntity
  8
C-6
  6
Continuous
 62
     6
370
     9
100
AcDbLine
 10
-1239.772229906621
 20
-808.7542588729804
 30
0.0
 11
-1233.247545499851
 21
-833.1047125823986
 31
0.0
  0
LINE
  5
21E
330
1F
100
AcDbEntity
  8
C-6
  6
Continuous
 62
     6
370
     9
100
AcDbLine
 10
-1240.468411522654
 20
-908.7542588729804
 30
0.0
 11
-1246.993095929423
 21
-884.4038051635628
 31
0.0
  0
LINE
  5
21F
330
1F
100
AcDbEntity
  8
C-6
  6
Continuous
 62
     6
370
     9
100
AcDbLine
 10
-1226.722861093081
 20
-808.7542588729804
 30
0.0
 11
-1253.517780336193
 21
-908.7542588729804
 31
0.0
  0
LINE
  5
220
330
1F
100
AcDbEntity
  8
C-6
  6
Continuous
 62
     6
370
     9
100
AcDbLine
 10
-1189.772229906621
 20
-808.7542588729804
 30
0.0
 11
-1183.247545499851
 21
-833.1047125823986
 31
0.0
  0
LINE
  5
221
330
1F
100
AcDbEntity
  8
C-6
  6
Continuous
 62
     6
370
     9
100
AcDbLine
 10
-1190.468411522654
 20
-908.7542588729804
 30
0.0
 11
-1196.993095929424
 21
-884.4038051635628
 31
0.0
  0
LINE
  5
222
330
1F
100
AcDbEntity
  8
C-6
  6
Continuous
 62
     6
370
     9
100
AcDbLine
 10
-1176.722861093081
 20
-808.7542588729804
 30
0.0
 11
-1203.517780336193
 21
-908.7542588729804
 31
0.0
  0
LINE
  5
223
330
1F
100
AcDbEntity
  8
C-6
  6
Continuous
 62
     6
370
     9
100
AcDbLine
 10
-1139.772229906621
 20
-808.7542588729804
 30
0.0
 11
-1133.247545499851
 21
-833.1047125823986
 31
0.0
  0
LINE
  5
224
330
1F
100
AcDbEntity
  8
C-6
  6
Continuous
 62
     6
370
     9
100
AcDbLine
 10
-1140.468411522653
 20
-908.7542588729804
 30
0.0
 11
-1146.993095929423
 21
-884.4038051635628
 31
0.0
  0
LINE
  5
225
330
1F
100
AcDbEntity
  8
C-6
  6
Continuous
 62
     6
370
     9
100
AcDbLine
 10
-1126.722861093081
 20
-808.7542588729804
 30
0.0
 11
-1153.517780336193
 21
-908.7542588729804
 31
0.0
  0
LINE
  5
226
330
1F
100
AcDbEntity
  8
C-6
  6
Continuous
 62
     6
370
     9
100
AcDbLine
 10
-1089.772229906621
 20
-808.7542588729804
 30
0.0
 11
-1083.247545499851
 21
-833.1047125823986
 31
0.0
  0
LINE
  5
227
330
1F
100
AcDbEntity
  8
C-6
  6
Continuous
 62
     6
370
     9
100
AcDbLine
 10
-1090.468411522653
 20
-908.7542588729804
 30
0.0
 11
-1096.993095929423
 21
-884.4038051635628
 31
0.0
  0
LINE
  5
228
330
1F
100
AcDbEntity
  8
C-6
  6
Continuous
 62
     6
370
     9
100
AcDbLine
 10
-1076.722861093081
 20
-808.7542588729804
 30
0.0
 11
-1103.517780336193
 21
-908.7542588729804
 31
0.0
  0
LINE
  5
229
330
1F
100
AcDbEntity
  8
C-6
  6
Continuous
 62
     6
370
     9
100
AcDbLine
 10
-1110.722874289871
 20
-592.9457100207014
 30
0.0
 11
-1226.722861093081
 21
-708.945696823911
 31
0.0
  0
LINE
  5
22A
330
1F
100
AcDbEntity
  8
C-6
  6
Continuous
 62
     6
370
     9
100
AcDbLine
 10
-1110.722874289871
 20
-607.0878456444325
 30
0.0
 11
-1226.722861093081
 21
-723.0878324476421
 31
0.0
  0
LINE
  5
22B
330
1F
100
AcDbEntity
  8
C-6
  6
Continuous
 62
     6
370
     9
100
AcDbLine
 10
-1110.722874289871
 20
-621.2299812681633
 30
0.0
 11
-1226.722861093081
 21
-737.2299680713729
 31
0.0
  0
LINE
  5
22C
330
1F
100
AcDbEntity
  8
C-6
  6
Continuous
 62
     6
370
     9
100
AcDbLine
 10
-926.7228610930812
 20
-636.1111296537636
 30
0.0
 11
-1042.72284789629
 21
-752.1111164569726
 31
0.0
  0
LINE
  5
22D
330
1F
100
AcDbEntity
  8
C-6
  6
Continuous
 62
     6
370
     9
100
AcDbLine
 10
-926.7228610930812
 20
-607.8268584063014
 30
0.0
 11
-1042.72284789629
 21
-723.8268452095105
 31
0.0
  0
LINE
  5
22E
330
1F
100
AcDbEntity
  8
C-6
  6
Continuous
 62
     6
370
     9
100
AcDbLine
 10
-926.7228610930812
 20
-621.9689940300325
 30
0.0
 11
-1042.72284789629
 21
-737.9689808332415
 31
0.0
  0
LINE
  5
22F
330
1F
100
AcDbEntity
  8
C-6
  6
Continuous
 62
     6
370
     9
100
AcDbLine
 10
-487.2227225267801
 20
-808.7542588729804
 30
0.0
 11
-287.22272252678
 21
-808.7542588729804
 31
0.0
  0
LINE
  5
230
330
1F
100
AcDbEntity
  8
C-6
  6
Continuous
 62
     6
370
     9
100
AcDbLine
 10
-487.2227225267801
 20
-808.7542588729804
 30
0.0
 11
-687.2227225267801
 21
-808.7542588729804
 31
0.0
  0
LINE
  5
231
330
1F
100
AcDbEntity
  8
C-6
  6
Continuous
 62
     6
370
     9
100
AcDbLine
 10
-687.2227225267801
 20
-808.7542588729804
 30
0.0
 11
-687.2227225267801
 21
-908.7542588729804
 31
0.0
  0
LINE
  5
232
330
1F
100
AcDbEntity
  8
C-6
  6
Continuous
 62
     6
370
     9
100
AcDbLine
 10
-287.22272252678
 20
-808.7542588729804
 30
0.0
 11
-287.22272252678
 21
-908.7542588729804
 31
0.0
  0
LINE
  5
233
330
1F
100
AcDbEntity
  8
C-6
  6
Continuous
 62
     6
370
     9
100
AcDbLine
 10
-687.2227225267801
 20
-908.7542588729804
 30
0.0
 11
-287.22272252678
 21
-908.7542588729804
 31
0.0
  0
LINE
  5
234
330
1F
100
AcDbEntity
  8
C-6
  6
Continuous
 62
     6
370
     9
100
AcDbLine
 10
-300.2720913403202
 20
-808.7542588729804
 30
0.0
 11
-293.7474069335502
 21
-833.1047125823986
 31
0.0
  0
LINE
  5
235
330
1F
100
AcDbEntity
  8
C-6
  6
Continuous
 62
     6
370
     9
100
AcDbLine
 10
-300.9682729563525
 20
-908.7542588729804
 30
0.0
 11
-307.4929573631225
 21
-884.4038051635628
 31
0.0
  0
LINE
  5
236
330
1F
100
AcDbEntity
  8
C-6
  6
Continuous
 62
     6
370
     9
100
AcDbLine
 10
-287.2227225267802
 20
-808.7542588729804
 30
0.0
 11
-314.0176417698924
 21
-908.7542588729804
 31
0.0
  0
LINE
  5
237
330
1F
100
AcDbEntity
  8
C-6
  6
Continuous
 62
     6
370
     9
100
AcDbLine
 10
-350.2720913403203
 20
-808.7542588729804
 30
0.0
 11
-343.7474069335502
 21
-833.1047125823986
 31
0.0
  0
LINE
  5
238
330
1F
100
AcDbEntity
  8
C-6
  6
Continuous
 62
     6
370
     9
100
AcDbLine
 10
-350.9682729563525
 20
-908.7542588729804
 30
0.0
 11
-357.4929573631226
 21
-884.4038051635628
 31
0.0
  0
LINE
  5
239
330
1F
100
AcDbEntity
  8
C-6
  6
Continuous
 62
     6
370
     9
100
AcDbLine
 10
-337.2227225267802
 20
-808.7542588729804
 30
0.0
 11
-364.0176417698925
 21
-908.7542588729804
 31
0.0
  0
LINE
  5
23A
330
1F
100
AcDbEntity
  8
C-6
  6
Continuous
 62
     6
370
     9
100
AcDbLine
 10
-400.2720913403203
 20
-808.7542588729804
 30
0.0
 11
-393.7474069335502
 21
-833.1047125823986
 31
0.0
  0
LINE
  5
23B
330
1F
100
AcDbEntity
  8
C-6
  6
Continuous
 62
     6
370
     9
100
AcDbLine
 10
-400.9682729563525
 20
-908.7542588729804
 30
0.0
 11
-407.4929573631226
 21
-884.4038051635628
 31
0.0
  0
LINE
  5
23C
330
1F
100
AcDbEntity
  8
C-6
  6
Continuous
 62
     6
370
     9
100
AcDbLine
 10
-387.2227225267802
 20
-808.7542588729804
 30
0.0
 11
-414.0176417698925
 21
-908.7542588729804
 31
0.0
  0
LINE
  5
23D
330
1F
100
AcDbEntity
  8
C-6
  6
Continuous
 62
     6
370
     9
100
AcDbLine
 10
-450.2720913403203
 20
-808.7542588729804
 30
0.0
 11
-443.7474069335502
 21
-833.1047125823986
 31
0.0
  0
LINE
  5
23E
330
1F
100
AcDbEntity
  8
C-6
  6
Continuous
 62
     6
370
     9
100
AcDbLine
 10
-450.9682729563525
 20
-908.7542588729804
 30
0.0
 11
-457.4929573631226
 21
-884.4038051635628
 31
0.0
  0
LINE
  5
23F
330
1F
100
AcDbEntity
  8
C-6
  6
Continuous
 62
     6
370
     9
100
AcDbLine
 10
-437.2227225267802
 20
-808.7542588729804
 30
0.0
 11
-464.0176417698925
 21
-908.7542588729804
 31
0.0
  0
LINE
  5
240
330
1F
100
AcDbEntity
  8
C-6
  6
Continuous
 62
     6
370
     9
100
AcDbLine
 10
-650.2720913403197
 20
-808.7542588729804
 30
0.0
 11
-643.7474069335501
 21
-833.1047125823986
 31
0.0
  0
LINE
  5
241
330
1F
100
AcDbEntity
  8
C-6
  6
Continuous
 62
     6
370
     9
100
AcDbLine
 10
-650.9682729563524
 20
-908.7542588729804
 30
0.0
 11
-657.492957363122
 21
-884.4038051635628
 31
0.0
  0
LINE
  5
242
330
1F
100
AcDbEntity
  8
C-6
  6
Continuous
 62
     6
370
     9
100
AcDbLine
 10
-637.2227225267801
 20
-808.7542588729804
 30
0.0
 11
-664.0176417698921
 21
-908.7542588729804
 31
0.0
  0
LINE
  5
243
330
1F
100
AcDbEntity
  8
C-6
  6
Continuous
 62
     6
370
     9
100
AcDbLine
 10
-600.2720913403203
 20
-808.7542588729804
 30
0.0
 11
-593.7474069335502
 21
-833.1047125823986
 31
0.0
  0
LINE
  5
244
330
1F
100
AcDbEntity
  8
C-6
  6
Continuous
 62
     6
370
     9
100
AcDbLine
 10
-600.9682729563525
 20
-908.7542588729804
 30
0.0
 11
-607.4929573631226
 21
-884.4038051635628
 31
0.0
  0
LINE
  5
245
330
1F
100
AcDbEntity
  8
C-6
  6
Continuous
 62
     6
370
     9
100
AcDbLine
 10
-587.2227225267801
 20
-808.7542588729804
 30
0.0
 11
-614.0176417698924
 21
-908.7542588729804
 31
0.0
  0
LINE
  5
246
330
1F
100
AcDbEntity
  8
C-6
  6
Continuous
 62
     6
370
     9
100
AcDbLine
 10
-550.2720913403203
 20
-808.7542588729804
 30
0.0
 11
-543.7474069335502
 21
-833.1047125823986
 31
0.0
  0
LINE
  5
247
330
1F
100
AcDbEntity
  8
C-6
  6
Continuous
 62
     6
370
     9
100
AcDbLine
 10
-550.9682729563525
 20
-908.7542588729804
 30
0.0
 11
-557.4929573631226
 21
-884.4038051635628
 31
0.0
  0
LINE
  5
248
330
1F
100
AcDbEntity
  8
C-6
  6
Continuous
 62
     6
370
     9
100
AcDbLine
 10
-537.2227225267801
 20
-808.7542588729804
 30
0.0
 11
-564.0176417698924
 21
-908.7542588729804
 31
0.0
  0
LINE
  5
249
330
1F
100
AcDbEntity
  8
C-6
  6
Continuous
 62
     6
370
     9
100
AcDbLine
 10
-500.2720913403203
 20
-808.7542588729804
 30
0.0
 11
-493.7474069335502
 21
-833.1047125823986
 31
0.0
  0
LINE
  5
24A
330
1F
100
AcDbEntity
  8
C-6
  6
Continuous
 62
     6
370
     9
100
AcDbLine
 10
-500.9682729563525
 20
-908.7542588729804
 30
0.0
 11
-507.4929573631226
 21
-884.4038051635628
 31
0.0
  0
LINE
  5
24B
330
1F
100
AcDbEntity
  8
C-6
  6
Continuous
 62
     6
370
     9
100
AcDbLine
 10
-487.2227225267801
 20
-808.7542588729804
 30
0.0
 11
-514.0176417698924
 21
-908.7542588729804
 31
0.0
  0
LINE
  5
24C
330
1F
100
AcDbEntity
  8
C-6
  6
Continuous
 62
     6
370
     9
100
AcDbLine
 10
-521.2227357235706
 20
-592.9457100207014
 30
0.0
 11
-637.2227225267801
 21
-708.945696823911
 31
0.0
  0
LINE
  5
24D
330
1F
100
AcDbEntity
  8
C-6
  6
Continuous
 62
     6
370
     9
100
AcDbLine
 10
-521.2227357235706
 20
-607.0878456444325
 30
0.0
 11
-637.2227225267801
 21
-723.0878324476421
 31
0.0
  0
LINE
  5
24E
330
1F
100
AcDbEntity
  8
C-6
  6
Continuous
 62
     6
370
     9
100
AcDbLine
 10
-521.2227357235706
 20
-621.2299812681633
 30
0.0
 11
-637.2227225267801
 21
-737.2299680713729
 31
0.0
  0
LINE
  5
24F
330
1F
100
AcDbEntity
  8
C-6
  6
Continuous
 62
     6
370
     9
100
AcDbLine
 10
-337.2227225267802
 20
-636.1111296537636
 30
0.0
 11
-453.2227093299895
 21
-752.1111164569726
 31
0.0
  0
LINE
  5
250
330
1F
100
AcDbEntity
  8
C-6
  6
Continuous
 62
     6
370
     9
100
AcDbLine
 10
-337.2227225267802
 20
-607.8268584063014
 30
0.0
 11
-453.2227093299895
 21
-723.8268452095105
 31
0.0
  0
LINE
  5
251
330
1F
100
AcDbEntity
  8
C-6
  6
Continuous
 62
     6
370
     9
100
AcDbLine
 10
-337.2227225267802
 20
-621.9689940300325
 30
0.0
 11
-453.2227093299895
 21
-737.9689808332415
 31
0.0
  0
LINE
  5
252
330
1F
100
AcDbEntity
  8
C-6
  6
Continuous
 62
     6
370
     9
100
AcDbLine
 10
-1226.722861093081
 20
-557.2542704201726
 30
0.0
 11
-1226.722861093081
 21
-808.7542588729804
 31
0.0
  0
LINE
  5
253
330
1F
100
AcDbEntity
  8
C-6
  6
Continuous
 62
     6
370
     9
100
AcDbLine
 10
-926.7228610930808
 20
-557.2542704201726
 30
0.0
 11
-926.7228610930808
 21
-808.7542588729804
 31
0.0
  0
LINE
  5
254
330
1F
100
AcDbEntity
  8
C-6
  6
Continuous
 62
     6
370
     9
100
AcDbLine
 10
-637.2227225267801
 20
-557.2542704201726
 30
0.0
 11
-637.2227225267801
 21
-808.7542588729804
 31
0.0
  0
LINE
  5
255
330
1F
100
AcDbEntity
  8
C-6
  6
Continuous
 62
     6
370
     9
100
AcDbLine
 10
-337.2227225267801
 20
-557.2542704201726
 30
0.0
 11
-337.2227225267801
 21
-808.7542588729804
 31
0.0
  0
LINE
  5
256
330
1F
100
AcDbEntity
  8
C-6
  6
Continuous
 62
     6
370
     9
100
AcDbLine
 10
489.9672040960173
 20
-808.752526794222
 30
0.0
 11
689.9672040960173
 21
-808.752526794222
 31
0.0
  0
LINE
  5
257
330
1F
100
AcDbEntity
  8
C-6
  6
Continuous
 62
     6
370
     9
100
AcDbLine
 10
489.9672040960173
 20
-808.752526794222
 30
0.0
 11
289.9672040960173
 21
-808.752526794222
 31
0.0
  0
LINE
  5
258
330
1F
100
AcDbEntity
  8
C-6
  6
Continuous
 62
     6
370
     9
100
AcDbLine
 10
289.9672040960173
 20
-808.752526794222
 30
0.0
 11
289.9672040960173
 21
-908.752526794222
 31
0.0
  0
LINE
  5
259
330
1F
100
AcDbEntity
  8
C-6
  6
Continuous
 62
     6
370
     9
100
AcDbLine
 10
689.9672040960173
 20
-808.752526794222
 30
0.0
 11
689.9672040960173
 21
-908.752526794222
 31
0.0
  0
LINE
  5
25A
330
1F
100
AcDbEntity
  8
C-6
  6
Continuous
 62
     6
370
     9
100
AcDbLine
 10
289.9672040960173
 20
-908.752526794222
 30
0.0
 11
689.9672040960173
 21
-908.752526794222
 31
0.0
  0
LINE
  5
25B
330
1F
100
AcDbEntity
  8
C-6
  6
Continuous
 62
     6
370
     9
100
AcDbLine
 10
676.9178352824772
 20
-808.752526794222
 30
0.0
 11
683.4425196892472
 21
-833.1029805036403
 31
0.0
  0
LINE
  5
25C
330
1F
100
AcDbEntity
  8
C-6
  6
Continuous
 62
     6
370
     9
100
AcDbLine
 10
676.2216536664449
 20
-908.752526794222
 30
0.0
 11
669.6969692596749
 21
-884.4020730848044
 31
0.0
  0
LINE
  5
25D
330
1F
100
AcDbEntity
  8
C-6
  6
Continuous
 62
     6
370
     9
100
AcDbLine
 10
689.9672040960172
 20
-808.752526794222
 30
0.0
 11
663.172284852905
 21
-908.752526794222
 31
0.0
  0
LINE
  5
25E
330
1F
100
AcDbEntity
  8
C-6
  6
Continuous
 62
     6
370
     9
100
AcDbLine
 10
626.9178352824772
 20
-808.752526794222
 30
0.0
 11
633.4425196892472
 21
-833.1029805036403
 31
0.0
  0
LINE
  5
25F
330
1F
100
AcDbEntity
  8
C-6
  6
Continuous
 62
     6
370
     9
100
AcDbLine
 10
626.2216536664449
 20
-908.752526794222
 30
0.0
 11
619.6969692596749
 21
-884.4020730848044
 31
0.0
  0
LINE
  5
260
330
1F
100
AcDbEntity
  8
C-6
  6
Continuous
 62
     6
370
     9
100
AcDbLine
 10
639.9672040960172
 20
-808.752526794222
 30
0.0
 11
613.172284852905
 21
-908.752526794222
 31
0.0
  0
LINE
  5
261
330
1F
100
AcDbEntity
  8
C-6
  6
Continuous
 62
     6
370
     9
100
AcDbLine
 10
576.9178352824772
 20
-808.752526794222
 30
0.0
 11
583.4425196892472
 21
-833.1029805036403
 31
0.0
  0
LINE
  5
262
330
1F
100
AcDbEntity
  8
C-6
  6
Continuous
 62
     6
370
     9
100
AcDbLine
 10
576.2216536664449
 20
-908.752526794222
 30
0.0
 11
569.6969692596749
 21
-884.4020730848044
 31
0.0
  0
LINE
  5
263
330
1F
100
AcDbEntity
  8
C-6
  6
Continuous
 62
     6
370
     9
100
AcDbLine
 10
589.9672040960172
 20
-808.752526794222
 30
0.0
 11
563.172284852905
 21
-908.752526794222
 31
0.0
  0
LINE
  5
264
330
1F
100
AcDbEntity
  8
C-6
  6
Continuous
 62
     6
370
     9
100
AcDbLine
 10
526.9178352824771
 20
-808.752526794222
 30
0.0
 11
533.4425196892472
 21
-833.1029805036403
 31
0.0
  0
LINE
  5
265
330
1F
100
AcDbEntity
  8
C-6
  6
Continuous
 62
     6
370
     9
100
AcDbLine
 10
526.2216536664449
 20
-908.752526794222
 30
0.0
 11
519.6969692596748
 21
-884.4020730848044
 31
0.0
  0
LINE
  5
266
330
1F
100
AcDbEntity
  8
C-6
  6
Continuous
 62
     6
370
     9
100
AcDbLine
 10
539.9672040960172
 20
-808.752526794222
 30
0.0
 11
513.172284852905
 21
-908.752526794222
 31
0.0
  0
LINE
  5
267
330
1F
100
AcDbEntity
  8
C-6
  6
Continuous
 62
     6
370
     9
100
AcDbLine
 10
326.9178352824777
 20
-808.752526794222
 30
0.0
 11
333.4425196892472
 21
-833.1029805036403
 31
0.0
  0
LINE
  5
268
330
1F
100
AcDbEntity
  8
C-6
  6
Continuous
 62
     6
370
     9
100
AcDbLine
 10
326.2216536664449
 20
-908.752526794222
 30
0.0
 11
319.6969692596754
 21
-884.4020730848044
 31
0.0
  0
LINE
  5
269
330
1F
100
AcDbEntity
  8
C-6
  6
Continuous
 62
     6
370
     9
100
AcDbLine
 10
339.9672040960173
 20
-808.752526794222
 30
0.0
 11
313.1722848529053
 21
-908.752526794222
 31
0.0
  0
LINE
  5
26A
330
1F
100
AcDbEntity
  8
C-6
  6
Continuous
 62
     6
370
     9
100
AcDbLine
 10
376.9178352824771
 20
-808.752526794222
 30
0.0
 11
383.4425196892472
 21
-833.1029805036403
 31
0.0
  0
LINE
  5
26B
330
1F
100
AcDbEntity
  8
C-6
  6
Continuous
 62
     6
370
     9
100
AcDbLine
 10
376.2216536664449
 20
-908.752526794222
 30
0.0
 11
369.6969692596748
 21
-884.4020730848044
 31
0.0
  0
LINE
  5
26C
330
1F
100
AcDbEntity
  8
C-6
  6
Continuous
 62
     6
370
     9
100
AcDbLine
 10
389.9672040960173
 20
-808.752526794222
 30
0.0
 11
363.1722848529051
 21
-908.752526794222
 31
0.0
  0
LINE
  5
26D
330
1F
100
AcDbEntity
  8
C-6
  6
Continuous
 62
     6
370
     9
100
AcDbLine
 10
426.9178352824771
 20
-808.752526794222
 30
0.0
 11
433.4425196892472
 21
-833.1029805036403
 31
0.0
  0
LINE
  5
26E
330
1F
100
AcDbEntity
  8
C-6
  6
Continuous
 62
     6
370
     9
100
AcDbLine
 10
426.2216536664449
 20
-908.752526794222
 30
0.0
 11
419.6969692596748
 21
-884.4020730848044
 31
0.0
  0
LINE
  5
26F
330
1F
100
AcDbEntity
  8
C-6
  6
Continuous
 62
     6
370
     9
100
AcDbLine
 10
439.9672040960173
 20
-808.752526794222
 30
0.0
 11
413.1722848529051
 21
-908.752526794222
 31
0.0
  0
LINE
  5
270
330
1F
100
AcDbEntity
  8
C-6
  6
Continuous
 62
     6
370
     9
100
AcDbLine
 10
476.9178352824771
 20
-808.752526794222
 30
0.0
 11
483.4425196892472
 21
-833.1029805036403
 31
0.0
  0
LINE
  5
271
330
1F
100
AcDbEntity
  8
C-6
  6
Continuous
 62
     6
370
     9
100
AcDbLine
 10
476.2216536664449
 20
-908.752526794222
 30
0.0
 11
469.6969692596748
 21
-884.4020730848044
 31
0.0
  0
LINE
  5
272
330
1F
100
AcDbEntity
  8
C-6
  6
Continuous
 62
     6
370
     9
100
AcDbLine
 10
489.9672040960173
 20
-808.752526794222
 30
0.0
 11
463.1722848529051
 21
-908.752526794222
 31
0.0
  0
LINE
  5
273
330
1F
100
AcDbEntity
  8
C-6
  6
Continuous
 62
     6
370
     9
100
AcDbLine
 10
455.9671908992269
 20
-592.9439779419431
 30
0.0
 11
339.9672040960173
 21
-708.9439647451527
 31
0.0
  0
LINE
  5
274
330
1F
100
AcDbEntity
  8
C-6
  6
Continuous
 62
     6
370
     9
100
AcDbLine
 10
455.9671908992269
 20
-607.0861135656742
 30
0.0
 11
339.9672040960173
 21
-723.0861003688838
 31
0.0
  0
LINE
  5
275
330
1F
100
AcDbEntity
  8
C-6
  6
Continuous
 62
     6
370
     9
100
AcDbLine
 10
455.9671908992269
 20
-621.228249189405
 30
0.0
 11
339.9672040960173
 21
-737.2282359926146
 31
0.0
  0
LINE
  5
276
330
1F
100
AcDbEntity
  8
C-6
  6
Continuous
 62
     6
370
     9
100
AcDbLine
 10
639.9672040960172
 20
-636.1093975750052
 30
0.0
 11
523.967217292808
 21
-752.1093843782143
 31
0.0
  0
LINE
  5
277
330
1F
100
AcDbEntity
  8
C-6
  6
Continuous
 62
     6
370
     9
100
AcDbLine
 10
639.9672040960172
 20
-607.8251263275431
 30
0.0
 11
523.967217292808
 21
-723.8251131307521
 31
0.0
  0
LINE
  5
278
330
1F
100
AcDbEntity
  8
C-6
  6
Continuous
 62
     6
370
     9
100
AcDbLine
 10
639.9672040960172
 20
-621.9672619512742
 30
0.0
 11
523.967217292808
 21
-737.9672487544832
 31
0.0
  0
LINE
  5
279
330
1F
100
AcDbEntity
  8
C-6
  6
Continuous
 62
     6
370
     9
100
AcDbLine
 10
1079.467218942407
 20
-808.7525292586108
 30
0.0
 11
1279.467218942407
 21
-808.7525292586108
 31
0.0
  0
LINE
  5
27A
330
1F
100
AcDbEntity
  8
C-6
  6
Continuous
 62
     6
370
     9
100
AcDbLine
 10
1079.467218942407
 20
-808.7525292586108
 30
0.0
 11
879.467218942407
 21
-808.7525292586108
 31
0.0
  0
LINE
  5
27B
330
1F
100
AcDbEntity
  8
C-6
  6
Continuous
 62
     6
370
     9
100
AcDbLine
 10
879.467218942407
 20
-808.7525292586108
 30
0.0
 11
879.467218942407
 21
-908.7525292586108
 31
0.0
  0
LINE
  5
27C
330
1F
100
AcDbEntity
  8
C-6
  6
Continuous
 62
     6
370
     9
100
AcDbLine
 10
1279.467218942407
 20
-808.7525292586108
 30
0.0
 11
1279.467218942407
 21
-908.7525292586108
 31
0.0
  0
LINE
  5
27D
330
1F
100
AcDbEntity
  8
C-6
  6
Continuous
 62
     6
370
     9
100
AcDbLine
 10
879.467218942407
 20
-908.7525292586108
 30
0.0
 11
1279.467218942407
 21
-908.7525292586108
 31
0.0
  0
LINE
  5
27E
330
1F
100
AcDbEntity
  8
C-6
  6
Continuous
 62
     6
370
     9
100
AcDbLine
 10
1266.417850128867
 20
-808.7525292586108
 30
0.0
 11
1272.942534535637
 21
-833.102982968029
 31
0.0
  0
LINE
  5
27F
330
1F
100
AcDbEntity
  8
C-6
  6
Continuous
 62
     6
370
     9
100
AcDbLine
 10
1265.721668512835
 20
-908.7525292586108
 30
0.0
 11
1259.196984106065
 21
-884.4020755491925
 31
0.0
  0
LINE
  5
280
330
1F
100
AcDbEntity
  8
C-6
  6
Continuous
 62
     6
370
     9
100
AcDbLine
 10
1279.467218942407
 20
-808.7525292586108
 30
0.0
 11
1252.672299699295
 21
-908.7525292586108
 31
0.0
  0
LINE
  5
281
330
1F
100
AcDbEntity
  8
C-6
  6
Continuous
 62
     6
370
     9
100
AcDbLine
 10
1216.417850128867
 20
-808.7525292586108
 30
0.0
 11
1222.942534535637
 21
-833.102982968029
 31
0.0
  0
LINE
  5
282
330
1F
100
AcDbEntity
  8
C-6
  6
Continuous
 62
     6
370
     9
100
AcDbLine
 10
1215.721668512835
 20
-908.7525292586108
 30
0.0
 11
1209.196984106065
 21
-884.4020755491925
 31
0.0
  0
LINE
  5
283
330
1F
100
AcDbEntity
  8
C-6
  6
Continuous
 62
     6
370
     9
100
AcDbLine
 10
1229.467218942407
 20
-808.7525292586108
 30
0.0
 11
1202.672299699295
 21
-908.7525292586108
 31
0.0
  0
LINE
  5
284
330
1F
100
AcDbEntity
  8
C-6
  6
Continuous
 62
     6
370
     9
100
AcDbLine
 10
1166.417850128867
 20
-808.7525292586108
 30
0.0
 11
1172.942534535637
 21
-833.102982968029
 31
0.0
  0
LINE
  5
285
330
1F
100
AcDbEntity
  8
C-6
  6
Continuous
 62
     6
370
     9
100
AcDbLine
 10
1165.721668512835
 20
-908.7525292586108
 30
0.0
 11
1159.196984106065
 21
-884.4020755491925
 31
0.0
  0
LINE
  5
286
330
1F
100
AcDbEntity
  8
C-6
  6
Continuous
 62
     6
370
     9
100
AcDbLine
 10
1179.467218942407
 20
-808.7525292586108
 30
0.0
 11
1152.672299699295
 21
-908.7525292586108
 31
0.0
  0
LINE
  5
287
330
1F
100
AcDbEntity
  8
C-6
  6
Continuous
 62
     6
370
     9
100
AcDbLine
 10
1116.417850128867
 20
-808.7525292586108
 30
0.0
 11
1122.942534535637
 21
-833.102982968029
 31
0.0
  0
LINE
  5
288
330
1F
100
AcDbEntity
  8
C-6
  6
Continuous
 62
     6
370
     9
100
AcDbLine
 10
1115.721668512835
 20
-908.7525292586108
 30
0.0
 11
1109.196984106065
 21
-884.4020755491925
 31
0.0
  0
LINE
  5
289
330
1F
100
AcDbEntity
  8
C-6
  6
Continuous
 62
     6
370
     9
100
AcDbLine
 10
1129.467218942407
 20
-808.7525292586108
 30
0.0
 11
1102.672299699295
 21
-908.7525292586108
 31
0.0
  0
LINE
  5
28A
330
1F
100
AcDbEntity
  8
C-6
  6
Continuous
 62
     6
370
     9
100
AcDbLine
 10
916.4178501288676
 20
-808.7525292586108
 30
0.0
 11
922.9425345356369
 21
-833.102982968029
 31
0.0
  0
LINE
  5
28B
330
1F
100
AcDbEntity
  8
C-6
  6
Continuous
 62
     6
370
     9
100
AcDbLine
 10
915.7216685128346
 20
-908.7525292586108
 30
0.0
 11
909.1969841060653
 21
-884.4020755491925
 31
0.0
  0
LINE
  5
28C
330
1F
100
AcDbEntity
  8
C-6
  6
Continuous
 62
     6
370
     9
100
AcDbLine
 10
929.467218942407
 20
-808.7525292586108
 30
0.0
 11
902.6722996992952
 21
-908.7525292586108
 31
0.0
  0
LINE
  5
28D
330
1F
100
AcDbEntity
  8
C-6
  6
Continuous
 62
     6
370
     9
100
AcDbLine
 10
966.4178501288668
 20
-808.7525292586108
 30
0.0
 11
972.9425345356369
 21
-833.102982968029
 31
0.0
  0
LINE
  5
28E
330
1F
100
AcDbEntity
  8
C-6
  6
Continuous
 62
     6
370
     9
100
AcDbLine
 10
965.7216685128346
 20
-908.7525292586108
 30
0.0
 11
959.1969841060645
 21
-884.4020755491925
 31
0.0
  0
LINE
  5
28F
330
1F
100
AcDbEntity
  8
C-6
  6
Continuous
 62
     6
370
     9
100
AcDbLine
 10
979.467218942407
 20
-808.7525292586108
 30
0.0
 11
952.6722996992947
 21
-908.7525292586108
 31
0.0
  0
LINE
  5
290
330
1F
100
AcDbEntity
  8
C-6
  6
Continuous
 62
     6
370
     9
100
AcDbLine
 10
1016.417850128867
 20
-808.7525292586108
 30
0.0
 11
1022.942534535637
 21
-833.102982968029
 31
0.0
  0
LINE
  5
291
330
1F
100
AcDbEntity
  8
C-6
  6
Continuous
 62
     6
370
     9
100
AcDbLine
 10
1015.721668512835
 20
-908.7525292586108
 30
0.0
 11
1009.196984106065
 21
-884.4020755491925
 31
0.0
  0
LINE
  5
292
330
1F
100
AcDbEntity
  8
C-6
  6
Continuous
 62
     6
370
     9
100
AcDbLine
 10
1029.467218942407
 20
-808.7525292586108
 30
0.0
 11
1002.672299699295
 21
-908.7525292586108
 31
0.0
  0
LINE
  5
293
330
1F
100
AcDbEntity
  8
C-6
  6
Continuous
 62
     6
370
     9
100
AcDbLine
 10
1066.417850128867
 20
-808.7525292586108
 30
0.0
 11
1072.942534535637
 21
-833.102982968029
 31
0.0
  0
LINE
  5
294
330
1F
100
AcDbEntity
  8
C-6
  6
Continuous
 62
     6
370
     9
100
AcDbLine
 10
1065.721668512835
 20
-908.7525292586108
 30
0.0
 11
1059.196984106065
 21
-884.4020755491925
 31
0.0
  0
LINE
  5
295
330
1F
100
AcDbEntity
  8
C-6
  6
Continuous
 62
     6
370
     9
100
AcDbLine
 10
1079.467218942407
 20
-808.7525292586108
 30
0.0
 11
1052.672299699295
 21
-908.7525292586108
 31
0.0
  0
LINE
  5
296
330
1F
100
AcDbEntity
  8
C-6
  6
Continuous
 62
     6
370
     9
100
AcDbLine
 10
1045.467205745617
 20
-592.9439804063318
 30
0.0
 11
929.467218942407
 21
-708.9439672095415
 31
0.0
  0
LINE
  5
297
330
1F
100
AcDbEntity
  8
C-6
  6
Continuous
 62
     6
370
     9
100
AcDbLine
 10
1045.467205745617
 20
-607.0861160300626
 30
0.0
 11
929.467218942407
 21
-723.086102833272
 31
0.0
  0
LINE
  5
298
330
1F
100
AcDbEntity
  8
C-6
  6
Continuous
 62
     6
370
     9
100
AcDbLine
 10
1045.467205745617
 20
-621.2282516537937
 30
0.0
 11
929.467218942407
 21
-737.228238457003
 31
0.0
  0
LINE
  5
299
330
1F
100
AcDbEntity
  8
C-6
  6
Continuous
 62
     6
370
     9
100
AcDbLine
 10
1229.467218942407
 20
-636.1094000393933
 30
0.0
 11
1113.467232139198
 21
-752.109386842603
 31
0.0
  0
LINE
  5
29A
330
1F
100
AcDbEntity
  8
C-6
  6
Continuous
 62
     6
370
     9
100
AcDbLine
 10
1229.467218942407
 20
-607.8251287919318
 30
0.0
 11
1113.467232139198
 21
-723.8251155951409
 31
0.0
  0
LINE
  5
29B
330
1F
100
AcDbEntity
  8
C-6
  6
Continuous
 62
     6
370
     9
100
AcDbLine
 10
1229.467218942407
 20
-621.9672644156623
 30
0.0
 11
1113.467232139198
 21
-737.967251218872
 31
0.0
  0
LINE
  5
29C
330
1F
100
AcDbEntity
  8
C-6
  6
Continuous
 62
     6
370
     9
100
AcDbLine
 10
339.9672040960173
 20
-557.2542704201726
 30
0.0
 11
339.9672040960173
 21
-808.752526794222
 31
0.0
  0
LINE
  5
29D
330
1F
100
AcDbEntity
  8
C-6
  6
Continuous
 62
     6
370
     9
100
AcDbLine
 10
639.9672040960173
 20
-557.2542704201726
 30
0.0
 11
639.9672040960173
 21
-808.752526794222
 31
0.0
  0
LINE
  5
29E
330
1F
100
AcDbEntity
  8
C-6
  6
Continuous
 62
     6
370
     9
100
AcDbLine
 10
929.467218942407
 20
-557.2542704201726
 30
0.0
 11
929.467218942407
 21
-808.7525292586108
 31
0.0
  0
LINE
  5
29F
330
1F
100
AcDbEntity
  8
C-6
  6
Continuous
 62
     6
370
     9
100
AcDbLine
 10
1229.467218942407
 20
-557.2542704201726
 30
0.0
 11
1229.467218942407
 21
-808.7525292586108
 31
0.0
  0
ARC
  5
2A0
330
1F
100
AcDbEntity
  8
C-B
  6
Continuous
 62
     7
370
     9
100
AcDbCircle
 10
-1122.743821901748
 20
-507.2545595399086
 30
0.0
 40
3.500000045106217
100
AcDbArc
 50
310.0077667236328
 51
229.9952697753906
  0
ARC
  5
2A1
330
1F
100
AcDbEntity
  8
C-B
  6
Continuous
 62
     7
370
     9
100
AcDbCircle
 10
-1129.743746020202
 20
-512.2545265479321
 30
0.0
 40
1.000000012887491
100
AcDbArc
 50
180.0
 51
270.0
  0
ARC
  5
2A2
330
1F
100
AcDbEntity
  8
C-B
  6
Continuous
 62
     7
370
     9
100
AcDbCircle
 10
-1129.743746020202
 20
-502.2545182999377
 30
0.0
 40
1.000000012887491
100
AcDbArc
 50
90.0
 51
180.0
  0
ARC
  5
2A3
330
1F
100
AcDbEntity
  8
C-B
  6
Continuous
 62
     7
370
     9
100
AcDbCircle
 10
-1019.743729524214
 20
-516.2545150007404
 30
0.0
 40
1.000000012887491
100
AcDbArc
 50
270.0
 51
0.0
  0
ARC
  5
2A4
330
1F
100
AcDbEntity
  8
C-B
  6
Continuous
 62
     7
370
     9
100
AcDbCircle
 10
-1019.743729524214
 20
-498.25452984713
 30
0.0
 40
1.000000012887491
100
AcDbArc
 50
0.0
 51
90.0
  0
LINE
  5
2A5
330
1F
100
AcDbEntity
  8
C-B
  6
Continuous
 62
     7
370
     9
100
AcDbLine
 10
-1130.743650343471
 20
-502.2545182999377
 30
0.0
 11
-1130.743650343471
 21
-512.2545265479321
 31
0.0
  0
LINE
  5
2A6
330
1F
100
AcDbEntity
  8
C-B
  6
Continuous
 62
     7
370
     9
100
AcDbLine
 10
-1018.743676737052
 20
-516.2545150007404
 30
0.0
 11
-1018.743676737052
 21
-498.25452984713
 31
0.0
  0
LINE
  5
2A7
330
1F
100
AcDbEntity
  8
C-B
  6
Continuous
 62
     7
370
     9
100
AcDbLine
 10
-1019.743729524214
 20
-497.2544770599674
 30
0.0
 11
-1024.743696532238
 21
-497.2544770599674
 31
0.0
  0
LINE
  5
2A8
330
1F
100
AcDbEntity
  8
C-B
  6
JWW_CENTER1
 62
     7
370
     9
100
AcDbLine
 10
-1122.743821901748
 20
-502.7382878971721
 30
0.0
 11
-1122.743821901748
 21
-511.8005981933081
 31
0.0
  0
LINE
  5
2A9
330
1F
100
AcDbEntity
  8
C-B
  6
Continuous
 62
     7
370
     9
100
AcDbLine
 10
-1129.743746020202
 20
-513.2545051031477
 30
0.0
 11
-1124.99379220897
 21
-513.2545051031477
 31
0.0
  0
LINE
  5
2AA
330
1F
100
AcDbEntity
  8
C-B
  6
JWW_DASHED2
 62
     7
370
     9
100
AcDbLine
 10
-1124.99379220897
 20
-513.2545051031477
 30
0.0
 11
-1120.493703130632
 21
-513.2545051031477
 31
0.0
  0
LINE
  5
2AB
330
1F
100
AcDbEntity
  8
C-B
  6
Continuous
 62
     7
370
     9
100
AcDbLine
 10
-1046.472748920361
 20
-501.2545397447226
 30
0.0
 11
-1033.589470707755
 21
-501.2545397447226
 31
0.0
  0
LINE
  5
2AC
330
1F
100
AcDbEntity
  8
C-B
  6
Continuous
 62
     7
370
     9
100
AcDbLine
 10
-1046.472730677122
 20
-513.2545051031477
 30
0.0
 11
-1032.328260628308
 21
-513.2545051031477
 31
0.0
  0
LINE
  5
2AD
330
1F
100
AcDbEntity
  8
C-B
  6
JWW_DASHED2
 62
     7
370
     9
100
AcDbLine
 10
-1106.9729732658
 20
-513.2545051031477
 30
0.0
 11
-1046.472730677122
 21
-513.2545051031477
 31
0.0
  0
LINE
  5
2AE
330
1F
100
AcDbEntity
  8
C-B
  6
JWW_DASHED2
 62
     7
370
     9
100
AcDbLine
 10
-1106.9729732658
 20
-501.2545397447226
 30
0.0
 11
-1046.472748920361
 21
-501.2545397447226
 31
0.0
  0
ARC
  5
2AF
330
1F
100
AcDbEntity
  8
C-B
  6
Continuous
 62
     7
370
     9
100
AcDbCircle
 10
-1024.743696532238
 20
-498.25452984713
 30
0.0
 40
1.000000012887491
100
AcDbArc
 50
90.0
 51
150.1834506803446
  0
LINE
  5
2B0
330
1F
100
AcDbEntity
  8
C-B
  6
Continuous
 62
     7
370
     9
100
AcDbLine
 10
-1023.562110966605
 20
-517.2544935559561
 30
0.0
 11
-1019.743729524214
 21
-517.2544935559561
 31
0.0
  0
LINE
  5
2B1
330
1F
100
AcDbEntity
  8
C-B
  6
Continuous
 62
     7
370
     9
100
AcDbLine
 10
-1129.743746020202
 20
-501.2545397447226
 30
0.0
 11
-1106.9729732658
 21
-501.2545397447226
 31
0.0
  0
LINE
  5
2B2
330
1F
100
AcDbEntity
  8
C-B
  6
Continuous
 62
     7
370
     9
100
AcDbLine
 10
-1120.493703130632
 20
-513.2545051031477
 30
0.0
 11
-1106.9729732658
 21
-513.2545051031477
 31
0.0
  0
LINE
  5
2B3
330
1F
100
AcDbEntity
  8
C-B
  6
Continuous
 62
     2
370
     9
100
AcDbLine
 10
-1125.493732823412
 20
637.2216405216986
 30
0.0
 11
-1119.993732823412
 21
637.2216405216986
 31
0.0
  0
LINE
  5
2B4
330
1F
100
AcDbEntity
  8
C-B
  6
Continuous
 62
     2
370
     9
100
AcDbLine
 10
-1125.493732823412
 20
661.2217197024424
 30
0.0
 11
-1119.993732823412
 21
661.2217197024424
 31
0.0
  0
ARC
  5
2B5
330
1F
100
AcDbEntity
  8
C-B
  6
Continuous
 62
     2
370
     9
100
AcDbCircle
 10
-1122.743732823412
 20
656.4717361984304
 30
0.0
 40
2.25
100
AcDbArc
 50
90.0
 51
180.0
  0
ARC
  5
2B6
330
1F
100
AcDbEntity
  8
C-B
  6
Continuous
 62
     2
370
     9
100
AcDbCircle
 10
-1122.743732823412
 20
656.4717361984304
 30
0.0
 40
2.25
100
AcDbArc
 50
0.0
 51
90.0
  0
LINE
  5
2B7
330
1F
100
AcDbEntity
  8
C-B
  6
Continuous
 62
     2
370
     9
100
AcDbLine
 10
-1120.493732823412
 20
641.9716240257105
 30
0.0
 11
-1120.493732823412
 21
656.4717361984304
 31
0.0
  0
ARC
  5
2B8
330
1F
100
AcDbEntity
  8
C-B
  6
Continuous
 62
     2
370
     9
100
AcDbCircle
 10
-1122.743732823412
 20
641.9716240257105
 30
0.0
 40
2.25
100
AcDbArc
 50
270.0
 51
0.0
  0
LINE
  5
2B9
330
1F
100
AcDbEntity
  8
C-B
  6
Continuous
 62
     2
370
     9
100
AcDbLine
 10
-1124.993732823412
 20
641.9716240257105
 30
0.0
 11
-1124.993732823412
 21
656.4717361984304
 31
0.0
  0
ARC
  5
2BA
330
1F
100
AcDbEntity
  8
C-B
  6
Continuous
 62
     2
370
     9
100
AcDbCircle
 10
-1122.743732823412
 20
641.9716240257105
 30
0.0
 40
2.25
100
AcDbArc
 50
180.0
 51
270.0
  0
ARC
  5
2BB
330
1F
100
AcDbEntity
  8
C-B
  6
Continuous
 62
     2
370
     9
100
AcDbCircle
 10
-1094.618547186111
 20
649.2216801120705
 30
0.0
 40
33.12518737016137
100
AcDbArc
 50
158.7607419407477
 51
175.6531130966875
  0
ARC
  5
2BC
330
1F
100
AcDbEntity
  8
C-B
  6
Continuous
 62
     2
370
     9
100
AcDbCircle
 10
-1094.618547186111
 20
649.2216801120705
 30
0.0
 40
33.12518737016137
100
AcDbArc
 50
184.3097153591279
 51
201.2392580592523
  0
ARC
  5
2BD
330
1F
100
AcDbEntity
  8
C-B
  6
Continuous
 62
     2
370
     9
100
AcDbCircle
 10
-1150.868918460714
 20
649.2216801120705
 30
0.0
 40
33.12518737016137
100
AcDbArc
 50
338.7607419407477
 51
355.690284640872
  0
ARC
  5
2BE
330
1F
100
AcDbEntity
  8
C-B
  6
Continuous
 62
     2
370
     9
100
AcDbCircle
 10
-1150.868918460714
 20
649.2216801120705
 30
0.0
 40
33.12518737016137
100
AcDbArc
 50
4.346886903312476
 51
21.2392580592523
  0
LINE
  5
2BF
330
1F
100
AcDbEntity
  8
C-B
  6
Continuous
 62
     7
370
     9
100
AcDbLine
 10
-1129.743656954754
 20
651.7323947110958
 30
0.0
 11
-1124.993732823412
 21
651.7323947110958
 31
0.0
  0
ARC
  5
2C0
330
1F
100
AcDbEntity
  8
C-B
  6
Continuous
 62
     7
370
     9
100
AcDbCircle
 10
-1129.743656954754
 20
650.7323947110958
 30
0.0
 40
1.0
100
AcDbArc
 50
90.0
 51
180.0
  0
LINE
  5
2C1
330
1F
100
AcDbEntity
  8
C-B
  6
Continuous
 62
     7
370
     9
100
AcDbLine
 10
-1130.743656954753
 20
647.7323947110958
 30
0.0
 11
-1130.743656954753
 21
650.7323947110958
 31
0.0
  0
LINE
  5
2C2
330
1F
100
AcDbEntity
  8
C-B
  6
Continuous
 62
     7
370
     9
100
AcDbLine
 10
-1129.743656954754
 20
646.7323947110958
 30
0.0
 11
-1124.993732823412
 21
646.7323947110958
 31
0.0
  0
ARC
  5
2C3
330
1F
100
AcDbEntity
  8
C-B
  6
Continuous
 62
     7
370
     9
100
AcDbCircle
 10
-1129.743656954754
 20
647.7323947110958
 30
0.0
 40
1.0
100
AcDbArc
 50
180.0
 51
270.0
  0
LINE
  5
2C4
330
1F
100
AcDbEntity
  8
C-B
  6
Continuous
 62
     7
370
     9
100
AcDbLine
 10
-1112.743650343471
 20
646.7323947110958
 30
0.0
 11
-1120.493732823412
 21
646.7323947110958
 31
0.0
  0
LINE
  5
2C5
330
1F
100
AcDbEntity
  8
C-B
  6
Continuous
 62
     7
370
     9
100
AcDbLine
 10
-1112.743650343471
 20
651.7323947110958
 30
0.0
 11
-1120.493732823412
 21
651.7323947110958
 31
0.0
  0
LINE
  5
2C6
330
1F
100
AcDbEntity
  8
C-B
  6
Continuous
 62
     2
370
     9
100
AcDbLine
 10
-1124.99379220897
 20
-508.5044770599674
 30
0.0
 11
-1124.99379220897
 21
-526.2545974806815
 31
0.0
  0
ARC
  5
2C7
330
1F
100
AcDbEntity
  8
C-B
  6
Continuous
 62
     2
370
     9
100
AcDbCircle
 10
-1122.743821901748
 20
-508.5044770599674
 30
0.0
 40
2.250000318965396
100
AcDbArc
 50
0.0
 51
180.0
  0
LINE
  5
2C8
330
1F
100
AcDbEntity
  8
C-B
  6
Continuous
 62
     2
370
     9
100
AcDbLine
 10
-1117.743854893724
 20
-549.7545018039502
 30
0.0
 11
-1127.743788909772
 21
-549.7545018039502
 31
0.0
  0
LINE
  5
2C9
330
1F
100
AcDbEntity
  8
C-B
  6
Continuous
 62
     2
370
     9
100
AcDbLine
 10
-1117.743854893724
 20
-526.2545974806815
 30
0.0
 11
-1117.743854893724
 21
-549.7545018039502
 31
0.0
  0
LINE
  5
2CA
330
1F
100
AcDbEntity
  8
C-B
  6
Continuous
 62
     2
370
     9
100
AcDbLine
 10
-1127.743788909772
 20
-526.2545974806815
 30
0.0
 11
-1127.743788909772
 21
-549.7545018039502
 31
0.0
  0
LINE
  5
2CB
330
1F
100
AcDbEntity
  8
C-B
  6
Continuous
 62
     2
370
     9
100
AcDbLine
 10
-1125.49381860255
 20
-526.2545974806815
 30
0.0
 11
-1125.49381860255
 21
-549.7545018039502
 31
0.0
  0
LINE
  5
2CC
330
1F
100
AcDbEntity
  8
C-B
  6
Continuous
 62
     2
370
     9
100
AcDbLine
 10
-1117.743854893724
 20
-526.2545974806815
 30
0.0
 11
-1127.743788909772
 21
-526.2545974806815
 31
0.0
  0
LINE
  5
2CD
330
1F
100
AcDbEntity
  8
C-B
  6
Continuous
 62
     2
370
     9
100
AcDbLine
 10
-1119.993973664839
 20
-526.2545974806815
 30
0.0
 11
-1119.993973664839
 21
-549.7545018039502
 31
0.0
  0
LINE
  5
2CE
330
1F
100
AcDbEntity
  8
C-B
  6
Continuous
 62
     2
370
     9
100
AcDbLine
 10
-1120.493703130632
 20
-508.5044770599674
 30
0.0
 11
-1120.493703130632
 21
-526.2545974806815
 31
0.0
  0
CIRCLE
  5
2CF
330
1F
100
AcDbEntity
  8
C-3
  6
Continuous
 62
     4
370
     9
100
AcDbCircle
 10
-1026.622829420784
 20
-562.7542638217769
 30
0.0
 40
2.500000032218727
  0
CIRCLE
  5
2D0
330
1F
100
AcDbEntity
  8
C-3
  6
Continuous
 62
     4
370
     9
100
AcDbCircle
 10
1029.36718727011
 20
-562.7525342074074
 30
0.0
 40
2.500000032218727
  0
ARC
  5
2D1
330
1F
100
AcDbEntity
  8
C-B
  6
Continuous
 62
     7
370
     9
100
AcDbCircle
 10
-1111.743650343471
 20
654.2323947110958
 30
0.0
 40
1.0
100
AcDbArc
 50
90.0
 51
180.0
  0
LINE
  5
2D2
330
1F
100
AcDbEntity
  8
C-B
  6
Continuous
 62
     7
370
     9
100
AcDbLine
 10
-1112.743650343471
 20
644.2323947110958
 30
0.0
 11
-1112.743650343471
 21
654.2323947110958
 31
0.0
  0
ARC
  5
2D3
330
1F
100
AcDbEntity
  8
C-B
  6
Continuous
 62
     7
370
     9
100
AcDbCircle
 10
-1111.743650343471
 20
644.2323947110958
 30
0.0
 40
1.0
100
AcDbArc
 50
180.0
 51
270.0
  0
LINE
  5
2D4
330
1F
100
AcDbEntity
  8
C-B
  6
Continuous
 62
     7
370
     9
100
AcDbLine
 10
-1111.743650343471
 20
655.2323947110958
 30
0.0
 11
-1106.371963717985
 21
655.2323947110958
 31
0.0
  0
LINE
  5
2D5
330
1F
100
AcDbEntity
  8
C-B
  6
Continuous
 62
     7
370
     9
100
AcDbLine
 10
-1111.743650343471
 20
643.2323947110958
 30
0.0
 11
-1106.371963717985
 21
643.2323947110958
 31
0.0
  0
LINE
  5
2D6
330
1F
100
AcDbEntity
  8
C-4
  6
Continuous
 62
     7
370
     9
100
AcDbLine
 10
-1106.972874289871
 20
-252.9031980946448
 30
0.0
 11
-1264.715266340125
 21
-252.9031980946448
 31
0.0
  0
LINE
  5
2D7
330
1F
100
AcDbEntity
  8
C-4
  6
Continuous
 62
     7
370
     9
100
AcDbLine
 10
-1106.972874289871
 20
-252.9031980946448
 30
0.0
 11
-1046.47284789629
 21
-252.9031980946448
 31
0.0
  0
LWPOLYLINE
  5
2D8
330
1F
100
AcDbEntity
  8
C-4
  6
Continuous
 62
     7
370
     9
100
AcDbPolyline
 90
        4
 70
     1
 43
2.0
 10
-1105.972874289871
 20
-252.9031980946448
 42
0.4142135623731
 10
-1106.972874289871
 20
-251.9031980946448
 42
0.4142135623731
 10
-1107.972874289871
 20
-252.9031980946448
 42
0.4142135623731
 10
-1106.972874289871
 20
-253.9031980946448
 42
0.4142135623731
  0
LWPOLYLINE
  5
2D9
330
1F
100
AcDbEntity
  8
C-4
  6
Continuous
 62
     7
370
     9
100
AcDbPolyline
 90
        4
 70
     1
 43
2.0
 10
-1045.47284789629
 20
-252.9031980946448
 42
0.4142135623731
 10
-1046.47284789629
 20
-251.9031980946448
 42
0.4142135623731
 10
-1047.47284789629
 20
-252.9031980946448
 42
0.4142135623731
 10
-1046.47284789629
 20
-253.9031980946448
 42
0.4142135623731
  0
LINE
  5
2DA
330
1F
100
AcDbEntity
  8
C-0
  6
JWW_CENTER2
 62
     7
370
     9
100
AcDbLine
 10
-1135.318753807235
 20
-507.2545224239349
 30
0.0
 11
-1012.818451150133
 21
-507.2545224239349
 31
0.0
  0
LINE
  5
2DB
330
1F
100
AcDbEntity
  8
C-0
  6
JWW_CENTER2
 62
     7
370
     9
100
AcDbLine
 10
-498.3074216880044
 20
-507.3701052491421
 30
0.0
 11
-476.7479070946459
 21
-507.3701052491421
 31
0.0
  0
LINE
  5
2DC
330
1F
100
AcDbEntity
  8
C-3
  6
Continuous
 62
     4
370
     9
100
AcDbLine
 10
-494.2227225267801
 20
-508.3701052491421
 30
0.0
 11
-494.2227225267801
 21
-506.3701052491419
 31
0.0
  0
LINE
  5
2DD
330
1F
100
AcDbEntity
  8
C-3
  6
Continuous
 62
     4
370
     9
100
AcDbLine
 10
-480.2227225267803
 20
-508.3701052491421
 30
0.0
 11
-480.2227225267803
 21
-506.3701052491419
 31
0.0
  0
ARC
  5
2DE
330
1F
100
AcDbEntity
  8
C-3
  6
Continuous
 62
     4
370
     9
100
AcDbCircle
 10
-487.2227225267801
 20
-508.3701052491421
 30
0.0
 40
7.000000000000002
100
AcDbArc
 50
180.0
 51
0.0
  0
ARC
  5
2DF
330
1F
100
AcDbEntity
  8
C-3
  6
Continuous
 62
     4
370
     9
100
AcDbCircle
 10
-487.2227225267801
 20
-506.3701052491419
 30
0.0
 40
7.000000000000002
100
AcDbArc
 50
0.0
 51
180.0
  0
TEXT
  5
2E0
330
1F
100
AcDbEntity
  8
F-5ﾚｲﾔ
  6
Continuous
 62
     2
370
     9
100
AcDbText
 10
-957.576346211466
 20
-1370.787879536452
 30
0.0
 40
30.48
  1
車止め　ステンレス製　コーナー型　脱着式　スチール製蓋　鍵付　ＹＣ６Ｈ５－ＤＬ
 41
0.8749999999999999
  7
ＭＳ ゴシック
100
AcDbText
  0
TEXT
  5
2E1
330
1F
100
AcDbEntity
  8
F-5ﾚｲﾔ
  6
Continuous
 62
     2
370
     0
100
AcDbText
 10
1364.844234791176
 20
-1073.374515149894
 30
0.0
 40
30.48000000000003
  1
支柱質量：14.6kg／本
 41
1.1125
  7
ＭＳ ゴシック
100
AcDbText
  0
ENDSEC
  0
SECTION
  2
OBJECTS
  0
DICTIONARY
  5
C
330
0
100
AcDbDictionary
281
     1
  3
ACAD_DETAILVIEWSTYLE
350
327
  3
ACAD_GROUP
350
D
  3
ACAD_LAYOUT
350
1A
  3
ACAD_MATERIAL
350
43
  3
ACAD_MLEADERSTYLE
350
6B
  3
ACAD_MLINESTYLE
350
17
  3
ACAD_PLOTSETTINGS
350
19
  3
ACAD_PLOTSTYLENAME
350
E
  3
ACAD_SCALELIST
350
47
  3
ACAD_SECTIONVIEWSTYLE
350
328
  3
ACAD_TABLESTYLE
350
69
  3
ACAD_VISUALSTYLE
350
2A
  3
ACDB_RECOMPOSE_DATA
350
324
  3
AcDbVariableDictionary
350
2E4
  0
DICTIONARY
  5
2E2
330
8
100
AcDbDictionary
280
     1
281
     1
  3
ACAD_XREC_ROUNDTRIP
360
2E3
  0
DICTIONARY
  5
327
102
{ACAD_REACTORS
330
C
102
}
330
C
100
AcDbDictionary
281
     1
  0
DICTIONARY
  5
D
102
{ACAD_REACTORS
330
C
102
}
330
C
100
AcDbDictionary
281
     1
  0
DICTIONARY
  5
1A
102
{ACAD_REACTORS
330
C
102
}
330
C
100
AcDbDictionary
281
     1
  3
Layout1
350
1E
  3
Layout2
350
26
  3
Model
350
22
  0
DICTIONARY
  5
43
102
{ACAD_REACTORS
330
C
102
}
330
C
100
AcDbDictionary
281
     1
  3
ByBlock
350
45
  3
ByLayer
350
44
  3
Global
350
46
  0
DICTIONARY
  5
6B
102
{ACAD_REACTORS
330
C
102
}
330
C
100
AcDbDictionary
281
     1
  3
Standard
350
6C
  0
DICTIONARY
  5
17
102
{ACAD_REACTORS
330
C
102
}
330
C
100
AcDbDictionary
281
     1
  3
Standard
350
18
  0
DICTIONARY
  5
19
102
{ACAD_REACTORS
330
C
102
}
330
C
100
AcDbDictionary
281
     1
  0
ACDBDICTIONARYWDFLT
  5
E
102
{ACAD_REACTORS
330
C
102
}
330
C
100
AcDbDictionary
281
     1
  3
Normal
350
F
100
AcDbDictionaryWithDefault
340
F
  0
DICTIONARY
  5
47
102
{ACAD_REACTORS
330
C
102
}
330
C
100
AcDbDictionary
281
     1
  3
A0
350
48
  3
A1
350
49
  3
A2
350
4A
  3
A3
350
4B
  3
A4
350
4C
  3
A5
350
4D
  3
A6
350
4E
  3
A7
350
4F
  3
A8
350
50
  3
A9
350
51
  3
B0
350
52
  3
B1
350
53
  3
B2
350
54
  3
B3
350
55
  3
B4
350
56
  3
B5
350
57
  3
B6
350
58
  3
B7
350
59
  3
B8
350
5A
  3
B9
350
5B
  3
C0
350
5C
  3
C1
350
5D
  3
C2
350
5E
  3
C3
350
5F
  3
C4
350
60
  3
C5
350
61
  3
C6
350
62
  3
C7
350
63
  3
C8
350
64
  3
C9
350
65
  3
D0
350
66
  3
D1
350
67
  3
D2
350
68
  0
DICTIONARY
  5
328
102
{ACAD_REACTORS
330
C
102
}
330
C
100
AcDbDictionary
281
     1
  0
DICTIONARY
  5
69
102
{ACAD_REACTORS
330
C
102
}
330
C
100
AcDbDictionary
281
     1
  3
Standard
350
6A
  0
DICTIONARY
  5
2A
102
{ACAD_REACTORS
330
C
102
}
330
C
100
AcDbDictionary
281
     1
  3
2dWireframe
350
2F
  3
Basic
350
32
  3
Brighten
350
36
  3
ColorChange
350
3A
  3
Conceptual
350
34
  3
Dim
350
35
  3
EdgeColorOff
350
3D
  3
Facepattern
350
39
  3
Flat
350
2B
  3
FlatWithEdges
350
2C
  3
Gouraud
350
2D
  3
GouraudWithEdges
350
2E
  3
Hidden
350
31
  3
JitterOff
350
3B
  3
Linepattern
350
38
  3
OverhangOff
350
3C
  3
Realistic
350
33
  3
Shaded
350
42
  3
Shaded with edges
350
41
  3
Shades of Gray
350
3E
  3
Sketchy
350
3F
  3
Thicken
350
37
  3
Wireframe
350
30
  3
X-Ray
350
40
  0
XRECORD
  5
324
102
{ACAD_REACTORS
330
C
102
}
330
C
100
AcDbXrecord
280
     1
 90
        1
330
6A
  0
DICTIONARY
  5
2E4
102
{ACAD_REACTORS
330
C
102
}
330
C
100
AcDbDictionary
281
     1
  3
CANNOSCALE
350
2E5
  3
CENTEREXE
350
329
  3
CENTERLTYPEFILE
350
32A
  3
CMLEADERSTYLE
350
326
  3
CTABLESTYLE
350
325
  3
MSLTSCALE
350
2E6
  3
XCLIPFRAME
350
2E7
  0
XRECORD
  5
2E3
102
{ACAD_REACTORS
330
2E2
102
}
330
2E2
100
AcDbXrecord
280
     1
102
VTR_0.000_0.000_1.000_1.000_VISUALSTYLE
340
2F
102
VTR_0.000_0.000_1.000_1.000_GRIDDISPLAY
 70
     3
102
VTR_0.000_0.000_1.000_1.000_GRIDMAJOR
 70
     5
102
VTR_0.000_0.000_1.000_1.000_DEFAULTLIGHTING
280
     1
102
VTR_0.000_0.000_1.000_1.000_DEFAULTLIGHTINGTYPE
 70
     1
102
VTR_0.000_0.000_1.000_1.000_BRIGHTNESS
141
0.0
102
VTR_0.000_0.000_1.000_1.000_CONTRAST
142
0.0
  0
LAYOUT
  5
1E
102
{ACAD_REACTORS
330
1A
102
}
330
1A
100
AcDbPlotSettings
  1

  2
none_device
  4

  6

 40
0.0
 41
0.0
 42
0.0
 43
0.0
 44
0.0
 45
0.0
 46
0.0
 47
0.0
 48
0.0
 49
0.0
140
0.0
141
0.0
142
1.0
143
1.0
 70
   688
 72
     1
 73
     0
 74
     5
  7

 75
    16
 76
     0
 77
     5
 78
   300
147
1.0
148
0.0
149
0.0
100
AcDbLayout
  1
Layout1
 70
     1
 71
     1
 10
0.0
 20
0.0
 11
420.0
 21
297.0
 12
0.0
 22
0.0
 32
0.0
 14
1.000000000000000E+20
 24
1.000000000000000E+20
 34
1.000000000000000E+20
 15
-1.000000000000000E+20
 25
-1.000000000000000E+20
 35
-1.000000000000000E+20
146
0.0
 13
0.0
 23
0.0
 33
0.0
 16
1.0
 26
0.0
 36
0.0
 17
0.0
 27
1.0
 37
0.0
 76
     0
330
1B
  0
LAYOUT
  5
26
102
{ACAD_REACTORS
330
1A
102
}
330
1A
100
AcDbPlotSettings
  1

  2
none_device
  4

  6

 40
0.0
 41
0.0
 42
0.0
 43
0.0
 44
0.0
 45
0.0
 46
0.0
 47
0.0
 48
0.0
 49
0.0
140
0.0
141
0.0
142
1.0
143
1.0
 70
   688
 72
     1
 73
     0
 74
     5
  7

 75
    16
 76
     0
 77
     5
 78
   300
147
1.0
148
0.0
149
0.0
100
AcDbLayout
  1
Layout2
 70
     1
 71
     2
 10
0.0
 20
0.0
 11
0.0
 21
0.0
 12
0.0
 22
0.0
 32
0.0
 14
0.0
 24
0.0
 34
0.0
 15
0.0
 25
0.0
 35
0.0
146
0.0
 13
0.0
 23
0.0
 33
0.0
 16
1.0
 26
0.0
 36
0.0
 17
0.0
 27
1.0
 37
0.0
 76
     0
330
23
  0
LAYOUT
  5
22
102
{ACAD_REACTORS
330
1A
102
}
330
1A
100
AcDbPlotSettings
  1

  2
none_device
  4
Letter_(8.50_x_11.00_Inches)
  6

 40
6.35
 41
6.35
 42
6.35000508
 43
6.35000508
 44
215.9
 45
279.4
 46
0.0
 47
0.0
 48
0.0
 49
0.0
140
0.0
141
0.0
142
1.0
143
1.0
 70
  1712
 72
     1
 73
     0
 74
     0
  7

 75
     0
 76
     0
 77
     5
 78
   300
147
1.0
148
0.0
149
0.0
100
AcDbLayout
  1
Model
 70
     1
 71
     0
 10
-2100.0
 20
-1485.0
 11
2100.0
 21
1485.0
 12
0.0
 22
0.0
 32
0.0
 14
-2100.0
 24
-1485.0
 34
0.0
 15
2100.0
 25
1485.0
 35
0.0
146
0.0
 13
0.0
 23
0.0
 33
0.0
 16
1.0
 26
0.0
 36
0.0
 17
0.0
 27
1.0
 37
0.0
 76
     0
330
1F
331
29
  0
MATERIAL
  5
45
102
{ACAD_REACTORS
330
43
102
}
102
{ACAD_XDICTIONARY
360
31A
102
}
330
43
100
AcDbMaterial
  1
ByBlock
  0
MATERIAL
  5
44
102
{ACAD_REACTORS
330
43
102
}
102
{ACAD_XDICTIONARY
360
318
102
}
330
43
100
AcDbMaterial
  1
ByLayer
  0
MATERIAL
  5
46
102
{ACAD_REACTORS
330
43
102
}
102
{ACAD_XDICTIONARY
360
31C
102
}
330
43
100
AcDbMaterial
  1
Global
  0
MLEADERSTYLE
  5
6C
102
{ACAD_REACTORS
330
6B
102
}
102
{ACAD_XDICTIONARY
360
322
102
}
330
6B
100
AcDbMLeaderStyle
170
     2
171
     1
172
     0
 90
        2
 40
0.0
 41
0.0
173
     1
 91
-1056964608
340
14
 92
       -2
290
     1
 42
2.0
291
     1
 43
8.0
  3
Standard
341
0
 44
4.0
300

342
11
174
     1
178
     6
175
     1
176
     0
 93
-1056964608
 45
4.0
292
     0
297
     0
 46
4.0
343
0
 94
-1056964608
 47
1.0
 49
1.0
140
1.0
293
     1
141
0.0
294
     1
177
     0
142
1.0
295
     0
296
     0
143
3.75
1001
ACAD_MLEADERVER
1070
     2
  0
MLINESTYLE
  5
18
102
{ACAD_REACTORS
330
17
102
}
330
17
100
AcDbMlineStyle
  2
Standard
 70
     0
  3

 62
   256
 51
90.0
 52
90.0
 71
     2
 49
0.5
 62
   256
  6
BYLAYER
 49
-0.5
 62
   256
  6
BYLAYER
  0
ACDBPLACEHOLDER
  5
F
102
{ACAD_REACTORS
330
E
102
}
330
E
  0
SCALE
  5
48
102
{ACAD_REACTORS
330
47
102
}
330
47
100
AcDbScale
 70
     0
300
1:1
140
1.0
141
1.0
290
     1
  0
SCALE
  5
49
102
{ACAD_REACTORS
330
47
102
}
330
47
100
AcDbScale
 70
     0
300
1:2
140
1.0
141
2.0
290
     0
  0
SCALE
  5
4A
102
{ACAD_REACTORS
330
47
102
}
330
47
100
AcDbScale
 70
     0
300
1:4
140
1.0
141
4.0
290
     0
  0
SCALE
  5
4B
102
{ACAD_REACTORS
330
47
102
}
330
47
100
AcDbScale
 70
     0
300
1:5
140
1.0
141
5.0
290
     0
  0
SCALE
  5
4C
102
{ACAD_REACTORS
330
47
102
}
330
47
100
AcDbScale
 70
     0
300
1:8
140
1.0
141
8.0
290
     0
  0
SCALE
  5
4D
102
{ACAD_REACTORS
330
47
102
}
330
47
100
AcDbScale
 70
     0
300
1:10
140
1.0
141
10.0
290
     0
  0
SCALE
  5
4E
102
{ACAD_REACTORS
330
47
102
}
330
47
100
AcDbScale
 70
     0
300
1:16
140
1.0
141
16.0
290
     0
  0
SCALE
  5
4F
102
{ACAD_REACTORS
330
47
102
}
330
47
100
AcDbScale
 70
     0
300
1:20
140
1.0
141
20.0
290
     0
  0
SCALE
  5
50
102
{ACAD_REACTORS
330
47
102
}
330
47
100
AcDbScale
 70
     0
300
1:30
140
1.0
141
30.0
290
     0
  0
SCALE
  5
51
102
{ACAD_REACTORS
330
47
102
}
330
47
100
AcDbScale
 70
     0
300
1:40
140
1.0
141
40.0
290
     0
  0
SCALE
  5
52
102
{ACAD_REACTORS
330
47
102
}
330
47
100
AcDbScale
 70
     0
300
1:50
140
1.0
141
50.0
290
     0
  0
SCALE
  5
53
102
{ACAD_REACTORS
330
47
102
}
330
47
100
AcDbScale
 70
     0
300
1:100
140
1.0
141
100.0
290
     0
  0
SCALE
  5
54
102
{ACAD_REACTORS
330
47
102
}
330
47
100
AcDbScale
 70
     0
300
2:1
140
2.0
141
1.0
290
     0
  0
SCALE
  5
55
102
{ACAD_REACTORS
330
47
102
}
330
47
100
AcDbScale
 70
     0
300
4:1
140
4.0
141
1.0
290
     0
  0
SCALE
  5
56
102
{ACAD_REACTORS
330
47
102
}
330
47
100
AcDbScale
 70
     0
300
8:1
140
8.0
141
1.0
290
     0
  0
SCALE
  5
57
102
{ACAD_REACTORS
330
47
102
}
330
47
100
AcDbScale
 70
     0
300
10:1
140
10.0
141
1.0
290
     0
  0
SCALE
  5
58
102
{ACAD_REACTORS
330
47
102
}
330
47
100
AcDbScale
 70
     0
300
100:1
140
100.0
141
1.0
290
     0
  0
SCALE
  5
59
102
{ACAD_REACTORS
330
47
102
}
330
47
100
AcDbScale
 70
     0
300
1/128" = 1'-0"
140
0.0078125
141
12.0
290
     0
  0
SCALE
  5
5A
102
{ACAD_REACTORS
330
47
102
}
330
47
100
AcDbScale
 70
     0
300
1/64" = 1'-0"
140
0.015625
141
12.0
290
     0
  0
SCALE
  5
5B
102
{ACAD_REACTORS
330
47
102
}
330
47
100
AcDbScale
 70
     0
300
1/32" = 1'-0"
140
0.03125
141
12.0
290
     0
  0
SCALE
  5
5C
102
{ACAD_REACTORS
330
47
102
}
330
47
100
AcDbScale
 70
     0
300
1/16" = 1'-0"
140
0.0625
141
12.0
290
     0
  0
SCALE
  5
5D
102
{ACAD_REACTORS
330
47
102
}
330
47
100
AcDbScale
 70
     0
300
3/32" = 1'-0"
140
0.09375
141
12.0
290
     0
  0
SCALE
  5
5E
102
{ACAD_REACTORS
330
47
102
}
330
47
100
AcDbScale
 70
     0
300
1/8" = 1'-0"
140
0.125
141
12.0
290
     0
  0
SCALE
  5
5F
102
{ACAD_REACTORS
330
47
102
}
330
47
100
AcDbScale
 70
     0
300
3/16" = 1'-0"
140
0.1875
141
12.0
290
     0
  0
SCALE
  5
60
102
{ACAD_REACTORS
330
47
102
}
330
47
100
AcDbScale
 70
     0
300
1/4" = 1'-0"
140
0.25
141
12.0
290
     0
  0
SCALE
  5
61
102
{ACAD_REACTORS
330
47
102
}
330
47
100
AcDbScale
 70
     0
300
3/8" = 1'-0"
140
0.375
141
12.0
290
     0
  0
SCALE
  5
62
102
{ACAD_REACTORS
330
47
102
}
330
47
100
AcDbScale
 70
     0
300
1/2" = 1'-0"
140
0.5
141
12.0
290
     0
  0
SCALE
  5
63
102
{ACAD_REACTORS
330
47
102
}
330
47
100
AcDbScale
 70
     0
300
3/4" = 1'-0"
140
0.75
141
12.0
290
     0
  0
SCALE
  5
64
102
{ACAD_REACTORS
330
47
102
}
330
47
100
AcDbScale
 70
     0
300
1" = 1'-0"
140
1.0
141
12.0
290
     0
  0
SCALE
  5
65
102
{ACAD_REACTORS
330
47
102
}
330
47
100
AcDbScale
 70
     0
300
1-1/2" = 1'-0"
140
1.5
141
12.0
290
     0
  0
SCALE
  5
66
102
{ACAD_REACTORS
330
47
102
}
330
47
100
AcDbScale
 70
     0
300
3" = 1'-0"
140
3.0
141
12.0
290
     0
  0
SCALE
  5
67
102
{ACAD_REACTORS
330
47
102
}
330
47
100
AcDbScale
 70
     0
300
6" = 1'-0"
140
6.0
141
12.0
290
     0
  0
SCALE
  5
68
102
{ACAD_REACTORS
330
47
102
}
330
47
100
AcDbScale
 70
     0
300
1'-0" = 1'-0"
140
12.0
141
12.0
290
     0
  0
TABLESTYLE
  5
6A
102
{ACAD_REACTORS
330
69
102
}
102
{ACAD_XDICTIONARY
360
31E
102
}
330
69
100
AcDbTableStyle
  3
Standard
 70
     0
 71
     0
 40
0.06
 41
0.06
280
     0
281
     0
  7
Standard
140
4.5
170
     2
 62
     0
 63
   257
283
     0
274
    -2
284
     1
 64
     0
275
    -2
285
     1
 65
     0
276
    -2
286
     1
 66
     0
277
    -2
287
     1
 67
     0
278
    -2
288
     1
 68
     0
279
    -2
289
     1
 69
     0
  7
Standard
140
6.0
170
     5
 62
     0
 63
   257
283
     0
274
    -2
284
     1
 64
     0
275
    -2
285
     1
 65
     0
276
    -2
286
     1
 66
     0
277
    -2
287
     1
 67
     0
278
    -2
288
     1
 68
     0
279
    -2
289
     1
 69
     0
  7
Standard
140
4.5
170
     5
 62
     0
 63
   257
283
     0
274
    -2
284
     1
 64
     0
275
    -2
285
     1
 65
     0
276
    -2
286
     1
 66
     0
277
    -2
287
     1
 67
     0
278
    -2
288
     1
 68
     0
279
    -2
289
     1
 69
     0
  0
VISUALSTYLE
  5
2F
102
{ACAD_REACTORS
330
2A
102
}
102
{ACAD_XDICTIONARY
360
2F0
102
}
330
2A
100
AcDbVisualStyle
  2
2dWireframe
 70
     4
 71
     0
 72
     2
 73
     0
 90
        0
 40
0.6
 41
30.0
 62
     5
 63
     7
421
 16777215
 74
     1
 91
        4
 64
     7
 65
   257
 75
     1
175
     1
 42
1.0
 92
        0
 66
   257
 43
1.0
 76
     1
 77
     6
 78
     2
 67
     7
 79
     5
170
     0
171
     0
290
     0
174
     0
 93
        1
 44
0.0
173
     0
291
     0
 45
0.0
1001
ACAD
1000
AcDbSavedByObjectVersion
1070
     0
  0
VISUALSTYLE
  5
32
102
{ACAD_REACTORS
330
2A
102
}
102
{ACAD_XDICTIONARY
360
2F6
102
}
330
2A
100
AcDbVisualStyle
  2
Basic
 70
     7
 71
     1
 72
     0
 73
     1
 90
        0
 40
0.6
 41
30.0
 62
     5
 63
     7
421
 16777215
 74
     0
 91
        4
 64
     7
 65
   257
 75
     1
175
     1
 42
1.0
 92
        8
 66
     7
 43
1.0
 76
     1
 77
     6
 78
     2
 67
     7
 79
     5
170
     0
171
     0
290
     0
174
     0
 93
        1
 44
0.0
173
     0
291
     1
 45
0.0
1001
ACAD
1000
AcDbSavedByObjectVersion
1070
     0
  0
VISUALSTYLE
  5
36
102
{ACAD_REACTORS
330
2A
102
}
102
{ACAD_XDICTIONARY
360
2FE
102
}
330
2A
100
AcDbVisualStyle
  2
Brighten
 70
    12
 71
     2
 72
     2
 73
     0
 90
        0
 40
0.6
 41
30.0
 62
     5
 63
     7
421
 16777215
 74
     1
 91
        4
 64
     7
 65
   257
 75
     1
175
     1
 42
1.0
 92
        8
 66
     7
 43
1.0
 76
     1
 77
     6
 78
     2
 67
     7
 79
     5
170
     0
171
     0
290
     0
174
     0
 93
        1
 44
50.0
173
     0
291
     1
 45
0.0
1001
ACAD
1000
AcDbSavedByObjectVersion
1070
     0
  0
VISUALSTYLE
  5
3A
102
{ACAD_REACTORS
330
2A
102
}
102
{ACAD_XDICTIONARY
360
306
102
}
330
2A
100
AcDbVisualStyle
  2
ColorChange
 70
    16
 71
     2
 72
     2
 73
     3
 90
        0
 40
0.6
 41
30.0
 62
     5
 63
     8
421
  8421504
 74
     1
 91
        4
 64
     7
 65
   257
 75
     1
175
     1
 42
1.0
 92
        8
 66
     8
424
  8421504
 43
1.0
 76
     1
 77
     6
 78
     2
 67
     7
 79
     5
170
     0
171
     0
290
     0
174
     0
 93
        1
 44
0.0
173
     0
291
     1
 45
0.0
1001
ACAD
1000
AcDbSavedByObjectVersion
1070
     0
  0
VISUALSTYLE
  5
34
102
{ACAD_REACTORS
330
2A
102
}
102
{ACAD_XDICTIONARY
360
2FA
102
}
330
2A
100
AcDbVisualStyle
  2
Conceptual
 70
     9
 71
     3
 72
     2
 73
     0
 90
        0
 40
0.6
 41
30.0
 62
     5
 63
     7
421
 16777215
 74
     2
 91
        2
 64
     7
 65
   257
 75
     1
175
     1
 42
179.0
 92
        8
 66
     7
 43
1.0
 76
     1
 77
     6
 78
     2
 67
     7
 79
     3
170
     0
171
     0
290
     0
174
     0
 93
        1
 44
0.0
173
     0
291
     0
 45
0.0
1001
ACAD
1000
AcDbSavedByObjectVersion
1070
     0
  0
VISUALSTYLE
  5
35
102
{ACAD_REACTORS
330
2A
102
}
102
{ACAD_XDICTIONARY
360
2FC
102
}
330
2A
100
AcDbVisualStyle
  2
Dim
 70
    11
 71
     2
 72
     2
 73
     0
 90
        0
 40
0.6
 41
30.0
 62
     5
 63
     7
421
 16777215
 74
     1
 91
        4
 64
     7
 65
   257
 75
     1
175
     1
 42
1.0
 92
        8
 66
     7
 43
1.0
 76
     1
 77
     6
 78
     2
 67
     7
 79
     5
170
     0
171
     0
290
     0
174
     0
 93
        1
 44
-50.0
173
     0
291
     1
 45
0.0
1001
ACAD
1000
AcDbSavedByObjectVersion
1070
     0
  0
VISUALSTYLE
  5
3D
102
{ACAD_REACTORS
330
2A
102
}
102
{ACAD_XDICTIONARY
360
30C
102
}
330
2A
100
AcDbVisualStyle
  2
EdgeColorOff
 70
    22
 71
     2
 72
     2
 73
     0
 90
        0
 40
0.6
 41
30.0
 62
     5
 63
     7
421
 16777215
 74
     1
 91
        4
 64
     7
 65
   257
 75
     1
175
     1
 42
1.0
 92
        8
 66
     7
 43
1.0
 76
     1
 77
     6
 78
     2
 67
     7
 79
     5
170
     0
171
     0
290
     0
174
     0
 93
        1
 44
0.0
173
     0
291
     1
 45
0.0
1001
ACAD
1000
AcDbSavedByObjectVersion
1070
     0
  0
VISUALSTYLE
  5
39
102
{ACAD_REACTORS
330
2A
102
}
102
{ACAD_XDICTIONARY
360
304
102
}
330
2A
100
AcDbVisualStyle
  2
Facepattern
 70
    15
 71
     2
 72
     2
 73
     0
 90
        0
 40
0.6
 41
30.0
 62
     5
 63
     7
421
 16777215
 74
     1
 91
        4
 64
     7
 65
   257
 75
     1
175
     1
 42
1.0
 92
        8
 66
     7
 43
1.0
 76
     1
 77
     6
 78
     2
 67
     7
 79
     5
170
     0
171
     0
290
     0
174
     0
 93
        1
 44
0.0
173
     0
291
     1
 45
0.0
1001
ACAD
1000
AcDbSavedByObjectVersion
1070
     0
  0
VISUALSTYLE
  5
2B
102
{ACAD_REACTORS
330
2A
102
}
102
{ACAD_XDICTIONARY
360
2E8
102
}
330
2A
100
AcDbVisualStyle
  2
Flat
 70
     0
 71
     2
 72
     1
 73
     1
 90
        2
 40
0.6
 41
30.0
 62
     5
 63
     7
421
 16777215
 74
     0
 91
        0
 64
     7
 65
   257
 75
     1
175
     1
 42
1.0
 92
        8
 66
     7
 43
1.0
 76
     1
 77
     6
 78
     2
 67
     7
 79
     5
170
     0
171
     0
290
     0
174
     0
 93
       13
 44
0.0
173
     0
291
     1
 45
0.0
1001
ACAD
1000
AcDbSavedByObjectVersion
1070
     0
  0
VISUALSTYLE
  5
2C
102
{ACAD_REACTORS
330
2A
102
}
102
{ACAD_XDICTIONARY
360
2EA
102
}
330
2A
100
AcDbVisualStyle
  2
FlatWithEdges
 70
     1
 71
     2
 72
     1
 73
     1
 90
        2
 40
0.6
 41
30.0
 62
     5
 63
     7
421
 16777215
 74
     1
 91
        0
 64
     7
 65
   257
 75
     1
175
     1
 42
1.0
 92
        0
 66
   257
 43
1.0
 76
     1
 77
     6
 78
     2
 67
     7
 79
     5
170
     0
171
     0
290
     0
174
     0
 93
       13
 44
0.0
173
     0
291
     1
 45
0.0
1001
ACAD
1000
AcDbSavedByObjectVersion
1070
     0
  0
VISUALSTYLE
  5
2D
102
{ACAD_REACTORS
330
2A
102
}
102
{ACAD_XDICTIONARY
360
2EC
102
}
330
2A
100
AcDbVisualStyle
  2
Gouraud
 70
     2
 71
     2
 72
     2
 73
     1
 90
        2
 40
0.6
 41
30.0
 62
     5
 63
     7
421
 16777215
 74
     0
 91
        0
 64
     7
 65
   257
 75
     1
175
     1
 42
1.0
 92
        0
 66
     7
 43
1.0
 76
     1
 77
     6
 78
     2
 67
     7
 79
     5
170
     0
171
     0
290
     0
174
     0
 93
       13
 44
0.0
173
     0
291
     1
 45
0.0
1001
ACAD
1000
AcDbSavedByObjectVersion
1070
     0
  0
VISUALSTYLE
  5
2E
102
{ACAD_REACTORS
330
2A
102
}
102
{ACAD_XDICTIONARY
360
2EE
102
}
330
2A
100
AcDbVisualStyle
  2
GouraudWithEdges
 70
     3
 71
     2
 72
     2
 73
     1
 90
        2
 40
0.6
 41
30.0
 62
     5
 63
     7
421
 16777215
 74
     1
 91
        0
 64
     7
 65
   257
 75
     1
175
     1
 42
1.0
 92
        0
 66
   257
 43
1.0
 76
     1
 77
     6
 78
     2
 67
     7
 79
     5
170
     0
171
     0
290
     0
174
     0
 93
       13
 44
0.0
173
     0
291
     1
 45
0.0
1001
ACAD
1000
AcDbSavedByObjectVersion
1070
     0
  0
VISUALSTYLE
  5
31
102
{ACAD_REACTORS
330
2A
102
}
102
{ACAD_XDICTIONARY
360
2F4
102
}
330
2A
100
AcDbVisualStyle
  2
Hidden
 70
     6
 71
     1
 72
     2
 73
     2
 90
        0
 40
0.6
 41
30.0
 62
     5
 63
     7
421
 16777215
 74
     2
 91
        2
 64
     7
 65
   257
 75
     2
175
     1
 42
40.0
 92
        0
 66
   257
 43
1.0
 76
     1
 77
     6
 78
     2
 67
     7
 79
     3
170
     0
171
     0
290
     0
174
     0
 93
        1
 44
0.0
173
     0
291
     0
 45
0.0
1001
ACAD
1000
AcDbSavedByObjectVersion
1070
     0
  0
VISUALSTYLE
  5
3B
102
{ACAD_REACTORS
330
2A
102
}
102
{ACAD_XDICTIONARY
360
308
102
}
330
2A
100
AcDbVisualStyle
  2
JitterOff
 70
    20
 71
     2
 72
     2
 73
     0
 90
        0
 40
0.6
 41
30.0
 62
     5
 63
     7
421
 16777215
 74
     1
 91
        4
 64
     7
 65
   257
 75
     1
175
     1
 42
1.0
 92
       10
 66
     7
 43
1.0
 76
     1
 77
     6
 78
     2
 67
     7
 79
     5
170
     0
171
     0
290
     0
174
     0
 93
        1
 44
0.0
173
     0
291
     1
 45
0.0
1001
ACAD
1000
AcDbSavedByObjectVersion
1070
     0
  0
VISUALSTYLE
  5
38
102
{ACAD_REACTORS
330
2A
102
}
102
{ACAD_XDICTIONARY
360
302
102
}
330
2A
100
AcDbVisualStyle
  2
Linepattern
 70
    14
 71
     2
 72
     2
 73
     0
 90
        0
 40
0.6
 41
30.0
 62
     5
 63
     7
421
 16777215
 74
     1
 91
        4
 64
     7
 65
   257
 75
     7
175
     7
 42
1.0
 92
        8
 66
     7
 43
1.0
 76
     1
 77
     6
 78
     2
 67
     7
 79
     5
170
     0
171
     0
290
     0
174
     0
 93
        1
 44
0.0
173
     0
291
     1
 45
0.0
1001
ACAD
1000
AcDbSavedByObjectVersion
1070
     0
  0
VISUALSTYLE
  5
3C
102
{ACAD_REACTORS
330
2A
102
}
102
{ACAD_XDICTIONARY
360
30A
102
}
330
2A
100
AcDbVisualStyle
  2
OverhangOff
 70
    21
 71
     2
 72
     2
 73
     0
 90
        0
 40
0.6
 41
30.0
 62
     5
 63
     7
421
 16777215
 74
     1
 91
        4
 64
     7
 65
   257
 75
     1
175
     1
 42
1.0
 92
        9
 66
     7
 43
1.0
 76
     1
 77
     6
 78
     2
 67
     7
 79
     5
170
     0
171
     0
290
     0
174
     0
 93
        1
 44
0.0
173
     0
291
     1
 45
0.0
1001
ACAD
1000
AcDbSavedByObjectVersion
1070
     0
  0
VISUALSTYLE
  5
33
102
{ACAD_REACTORS
330
2A
102
}
102
{ACAD_XDICTIONARY
360
2F8
102
}
330
2A
100
AcDbVisualStyle
  2
Realistic
 70
     8
 71
     2
 72
     3
 73
     0
 90
        2
 40
0.6
 41
30.0
 62
     5
 63
     7
421
 16777215
 74
     0
 91
        0
 64
     7
 65
   257
 75
     1
175
     1
 42
1.0
 92
        8
 66
   257
 43
1.0
 76
     1
 77
     6
 78
     2
 67
     7
 79
     3
170
     0
171
     0
290
     0
174
     0
 93
       13
 44
0.0
173
     0
291
     0
 45
0.0
1001
ACAD
1000
AcDbSavedByObjectVersion
1070
     0
  0
VISUALSTYLE
  5
42
102
{ACAD_REACTORS
330
2A
102
}
102
{ACAD_XDICTIONARY
360
316
102
}
330
2A
100
AcDbVisualStyle
  2
Shaded
 70
    27
 71
     2
 72
     2
 73
     1
 90
        2
 40
0.6
 41
30.0
 62
     5
 63
     7
421
 16777215
 74
     0
 91
        4
 64
     7
 65
   257
 75
     1
175
     1
 42
1.0
 92
        8
 66
   257
 43
1.0
 76
     1
 77
     6
 78
     2
 67
     8
425
  7895160
 79
     3
170
     0
171
     0
290
     0
174
     0
 93
        5
 44
0.0
173
     0
291
     0
 45
0.0
1001
ACAD
1000
AcDbSavedByObjectVersion
1070
     0
  0
VISUALSTYLE
  5
41
102
{ACAD_REACTORS
330
2A
102
}
102
{ACAD_XDICTIONARY
360
314
102
}
330
2A
100
AcDbVisualStyle
  2
Shaded with edges
 70
    26
 71
     2
 72
     2
 73
     1
 90
        2
 40
0.6
 41
30.0
 62
     5
 63
     7
421
 16777215
 74
     1
 91
       10
 64
     7
 65
   257
 75
     2
175
     1
 42
1.0
 92
        8
 66
   257
 43
1.0
 76
     1
 77
     6
 78
     2
 67
     7
 79
     3
170
     0
171
     0
290
     0
174
     0
 93
        5
 44
0.0
173
     0
291
     0
 45
0.0
1001
ACAD
1000
AcDbSavedByObjectVersion
1070
     0
  0
VISUALSTYLE
  5
3E
102
{ACAD_REACTORS
330
2A
102
}
102
{ACAD_XDICTIONARY
360
30E
102
}
330
2A
100
AcDbVisualStyle
  2
Shades of Gray
 70
    23
 71
     2
 72
     2
 73
     3
 90
        0
 40
0.6
 41
30.0
 62
     5
 63
     7
421
 16777215
 74
     2
 91
        2
 64
     7
 65
     7
 75
     1
175
     1
 42
40.0
 92
        8
 66
     7
 43
1.0
 76
     1
 77
     6
 78
     2
 67
     7
 79
     3
170
     0
171
     0
290
     0
174
     0
 93
        1
 44
0.0
173
     0
291
     0
 45
0.0
1001
ACAD
1000
AcDbSavedByObjectVersion
1070
     0
  0
VISUALSTYLE
  5
3F
102
{ACAD_REACTORS
330
2A
102
}
102
{ACAD_XDICTIONARY
360
310
102
}
330
2A
100
AcDbVisualStyle
  2
Sketchy
 70
    24
 71
     1
 72
     2
 73
     2
 90
        0
 40
0.6
 41
30.0
 62
     5
 63
     7
421
 16777215
 74
     2
 91
        2
 64
     7
 65
     7
 75
     1
175
     1
 42
40.0
 92
       11
 66
     7
 43
1.0
 76
     1
 77
     6
 78
     2
 67
     7
 79
     6
170
     0
171
     0
290
     0
174
     0
 93
        1
 44
0.0
173
     0
291
     0
 45
0.0
1001
ACAD
1000
AcDbSavedByObjectVersion
1070
     0
  0
VISUALSTYLE
  5
37
102
{ACAD_REACTORS
330
2A
102
}
102
{ACAD_XDICTIONARY
360
300
102
}
330
2A
100
AcDbVisualStyle
  2
Thicken
 70
    13
 71
     2
 72
     2
 73
     0
 90
        0
 40
0.6
 41
30.0
 62
     5
 63
     7
421
 16777215
 74
     1
 91
        4
 64
     7
 65
   257
 75
     1
175
     1
 42
1.0
 92
       12
 66
     7
 43
1.0
 76
     1
 77
     6
 78
     2
 67
     7
 79
     5
170
     0
171
     0
290
     0
174
     0
 93
        1
 44
0.0
173
     0
291
     1
 45
0.0
1001
ACAD
1000
AcDbSavedByObjectVersion
1070
     0
  0
VISUALSTYLE
  5
30
102
{ACAD_REACTORS
330
2A
102
}
102
{ACAD_XDICTIONARY
360
2F2
102
}
330
2A
100
AcDbVisualStyle
  2
Wireframe
 70
     5
 71
     0
 72
     2
 73
     0
 90
        0
 40
0.6
 41
30.0
 62
     5
 63
     7
421
 16777215
 74
     1
 91
        4
 64
     7
 65
   257
 75
     1
175
     1
 42
1.0
 92
        0
 66
   257
 43
1.0
 76
     1
 77
     6
 78
     2
 67
     7
 79
     3
170
     0
171
     0
290
     0
174
     0
 93
        1
 44
0.0
173
     0
291
     0
 45
0.0
1001
ACAD
1000
AcDbSavedByObjectVersion
1070
     0
  0
VISUALSTYLE
  5
40
102
{ACAD_REACTORS
330
2A
102
}
102
{ACAD_XDICTIONARY
360
312
102
}
330
2A
100
AcDbVisualStyle
  2
X-Ray
 70
    25
 71
     2
 72
     2
 73
     1
 90
        1
 40
0.5
 41
30.0
 62
     5
 63
     7
421
 16777215
 74
     1
 91
        0
 64
     7
 65
   257
 75
     1
175
     1
 42
1.0
 92
        8
 66
     7
 43
1.0
 76
     1
 77
     6
 78
     2
 67
     7
 79
     3
170
     0
171
     0
290
     0
174
     0
 93
       13
 44
0.0
173
     0
291
     0
 45
0.0
1001
ACAD
1000
AcDbSavedByObjectVersion
1070
     0
  0
DICTIONARYVAR
  5
2E5
102
{ACAD_REACTORS
330
2E4
102
}
330
2E4
100
DictionaryVariables
280
     0
  1
1:1
  0
DICTIONARYVAR
  5
329
102
{ACAD_REACTORS
330
2E4
102
}
330
2E4
100
DictionaryVariables
280
     0
  1
3.500000
  0
DICTIONARYVAR
  5
32A
102
{ACAD_REACTORS
330
2E4
102
}
330
2E4
100
DictionaryVariables
280
     0
  1
acadiso.lin
  0
DICTIONARYVAR
  5
326
102
{ACAD_REACTORS
330
2E4
102
}
330
2E4
100
DictionaryVariables
280
     0
  1
Standard
  0
DICTIONARYVAR
  5
325
102
{ACAD_REACTORS
330
2E4
102
}
330
2E4
100
DictionaryVariables
280
     0
  1
Standard
  0
DICTIONARYVAR
  5
2E6
102
{ACAD_REACTORS
330
2E4
102
}
330
2E4
100
DictionaryVariables
280
     0
  1
1
  0
DICTIONARYVAR
  5
2E7
102
{ACAD_REACTORS
330
2E4
102
}
330
2E4
100
DictionaryVariables
280
     0
  1
2
  0
DICTIONARY
  5
31A
330
45
100
AcDbDictionary
280
     1
281
     1
  3
ACAD_XREC_ROUNDTRIP
360
31B
  0
DICTIONARY
  5
318
330
44
100
AcDbDictionary
280
     1
281
     1
  3
ACAD_XREC_ROUNDTRIP
360
319
  0
DICTIONARY
  5
31C
330
46
100
AcDbDictionary
280
     1
281
     1
  3
ACAD_XREC_ROUNDTRIP
360
31D
  0
DICTIONARY
  5
322
330
6C
100
AcDbDictionary
280
     1
281
     1
  3
ACAD_XREC_ROUNDTRIP
360
323
  0
DICTIONARY
  5
31E
330
6A
100
AcDbDictionary
280
     1
281
     1
  3
ACAD_ROUNDTRIP_2008_TABLESTYLE_CELLSTYLEMAP
360
320
  3
ACAD_XREC_ROUNDTRIP
360
31F
  0
DICTIONARY
  5
2F0
330
2F
100
AcDbDictionary
280
     1
281
     1
  3
ACAD_XREC_ROUNDTRIP
360
2F1
  0
DICTIONARY
  5
2F6
330
32
100
AcDbDictionary
280
     1
281
     1
  3
ACAD_XREC_ROUNDTRIP
360
2F7
  0
DICTIONARY
  5
2FE
330
36
100
AcDbDictionary
280
     1
281
     1
  3
ACAD_XREC_ROUNDTRIP
360
2FF
  0
DICTIONARY
  5
306
330
3A
100
AcDbDictionary
280
     1
281
     1
  3
ACAD_XREC_ROUNDTRIP
360
307
  0
DICTIONARY
  5
2FA
330
34
100
AcDbDictionary
280
     1
281
     1
  3
ACAD_XREC_ROUNDTRIP
360
2FB
  0
DICTIONARY
  5
2FC
330
35
100
AcDbDictionary
280
     1
281
     1
  3
ACAD_XREC_ROUNDTRIP
360
2FD
  0
DICTIONARY
  5
30C
330
3D
100
AcDbDictionary
280
     1
281
     1
  3
ACAD_XREC_ROUNDTRIP
360
30D
  0
DICTIONARY
  5
304
330
39
100
AcDbDictionary
280
     1
281
     1
  3
ACAD_XREC_ROUNDTRIP
360
305
  0
DICTIONARY
  5
2E8
330
2B
100
AcDbDictionary
280
     1
281
     1
  3
ACAD_XREC_ROUNDTRIP
360
2E9
  0
DICTIONARY
  5
2EA
330
2C
100
AcDbDictionary
280
     1
281
     1
  3
ACAD_XREC_ROUNDTRIP
360
2EB
  0
DICTIONARY
  5
2EC
330
2D
100
AcDbDictionary
280
     1
281
     1
  3
ACAD_XREC_ROUNDTRIP
360
2ED
  0
DICTIONARY
  5
2EE
330
2E
100
AcDbDictionary
280
     1
281
     1
  3
ACAD_XREC_ROUNDTRIP
360
2EF
  0
DICTIONARY
  5
2F4
330
31
100
AcDbDictionary
280
     1
281
     1
  3
ACAD_XREC_ROUNDTRIP
360
2F5
  0
DICTIONARY
  5
308
330
3B
100
AcDbDictionary
280
     1
281
     1
  3
ACAD_XREC_ROUNDTRIP
360
309
  0
DICTIONARY
  5
302
330
38
100
AcDbDictionary
280
     1
281
     1
  3
ACAD_XREC_ROUNDTRIP
360
303
  0
DICTIONARY
  5
30A
330
3C
100
AcDbDictionary
280
     1
281
     1
  3
ACAD_XREC_ROUNDTRIP
360
30B
  0
DICTIONARY
  5
2F8
330
33
100
AcDbDictionary
280
     1
281
     1
  3
ACAD_XREC_ROUNDTRIP
360
2F9
  0
DICTIONARY
  5
316
330
42
100
AcDbDictionary
280
     1
281
     1
  3
ACAD_XREC_ROUNDTRIP
360
317
  0
DICTIONARY
  5
314
330
41
100
AcDbDictionary
280
     1
281
     1
  3
ACAD_XREC_ROUNDTRIP
360
315
  0
DICTIONARY
  5
30E
330
3E
100
AcDbDictionary
280
     1
281
     1
  3
ACAD_XREC_ROUNDTRIP
360
30F
  0
DICTIONARY
  5
310
330
3F
100
AcDbDictionary
280
     1
281
     1
  3
ACAD_XREC_ROUNDTRIP
360
311
  0
DICTIONARY
  5
300
330
37
100
AcDbDictionary
280
     1
281
     1
  3
ACAD_XREC_ROUNDTRIP
360
301
  0
DICTIONARY
  5
2F2
330
30
100
AcDbDictionary
280
     1
281
     1
  3
ACAD_XREC_ROUNDTRIP
360
2F3
  0
DICTIONARY
  5
312
330
40
100
AcDbDictionary
280
     1
281
     1
  3
ACAD_XREC_ROUNDTRIP
360
313
  0
XRECORD
  5
31B
102
{ACAD_REACTORS
330
31A
102
}
330
31A
100
AcDbXrecord
280
     1
102
MATERIAL
148
0.0
149
0.0
149
0.0
 93
        0
 94
      127
282
     0
 72
     1
 77
     1
171
     1
175
     1
179
     1
273
     0
  0
XRECORD
  5
319
102
{ACAD_REACTORS
330
318
102
}
330
318
100
AcDbXrecord
280
     1
102
MATERIAL
148
0.0
149
0.0
149
0.0
 93
        0
 94
      127
282
     0
 72
     1
 77
     1
171
     1
175
     1
179
     1
273
     0
  0
XRECORD
  5
31D
102
{ACAD_REACTORS
330
31C
102
}
330
31C
100
AcDbXrecord
280
     1
102
MATERIAL
148
0.0
149
0.0
149
0.0
 93
        0
 94
      127
282
     0
 72
     1
 77
     1
171
     1
175
     1
179
     1
273
     0
  0
XRECORD
  5
323
102
{ACAD_REACTORS
330
322
102
}
330
322
100
AcDbXrecord
280
     1
102
ACAD_ROUNDTRIP_2010_MLEADER_STYLE
  0
CELLSTYLEMAP
  5
320
102
{ACAD_REACTORS
330
31E
102
}
330
31E
100
AcDbCellStyleMap
 90
        3
300
CELLSTYLE
  1
TABLEFORMAT_BEGIN
 90
        5
170
     1
 91
        0
 92
    32768
 62
   257
 93
        1
300
CONTENTFORMAT
  1
CONTENTFORMAT_BEGIN
 90
        0
 91
        0
 92
        4
 93
        0
300

 40
0.0
140
1.0
 94
        5
 62
     0
340
11
144
6.0
309
CONTENTFORMAT_END
171
     1
301
MARGIN
  1
CELLMARGIN_BEGIN
 40
1.5
 40
1.5
 40
1.5
 40
1.5
 40
1.5
 40
1.5
309
CELLMARGIN_END
 94
        6
 95
        1
302
GRIDFORMAT
  1
GRIDFORMAT_BEGIN
 90
        0
 91
        1
 62
     0
 92
       -2
340
14
 93
        0
 40
0.045
309
GRIDFORMAT_END
 95
        2
302
GRIDFORMAT
  1
GRIDFORMAT_BEGIN
 90
        0
 91
        1
 62
     0
 92
       -2
340
14
 93
        0
 40
0.045
309
GRIDFORMAT_END
 95
        4
302
GRIDFORMAT
  1
GRIDFORMAT_BEGIN
 90
        0
 91
        1
 62
     0
 92
       -2
340
14
 93
        0
 40
0.045
309
GRIDFORMAT_END
 95
        8
302
GRIDFORMAT
  1
GRIDFORMAT_BEGIN
 90
        0
 91
        1
 62
     0
 92
       -2
340
14
 93
        0
 40
0.045
309
GRIDFORMAT_END
 95
       16
302
GRIDFORMAT
  1
GRIDFORMAT_BEGIN
 90
        0
 91
        1
 62
     0
 92
       -2
340
14
 93
        0
 40
0.045
309
GRIDFORMAT_END
 95
       32
302
GRIDFORMAT
  1
GRIDFORMAT_BEGIN
 90
        0
 91
        1
 62
     0
 92
       -2
340
14
 93
        0
 40
0.045
309
GRIDFORMAT_END
309
TABLEFORMAT_END
  1
CELLSTYLE_BEGIN
 90
        1
 91
        1
300
_TITLE
309
CELLSTYLE_END
300
CELLSTYLE
  1
TABLEFORMAT_BEGIN
 90
        5
170
     1
 91
        0
 92
        0
 62
   257
 93
        1
300
CONTENTFORMAT
  1
CONTENTFORMAT_BEGIN
 90
        0
 91
        0
 92
        4
 93
        0
300

 40
0.0
140
1.0
 94
        5
 62
     0
340
11
144
4.5
309
CONTENTFORMAT_END
171
     1
301
MARGIN
  1
CELLMARGIN_BEGIN
 40
1.5
 40
1.5
 40
1.5
 40
1.5
 40
1.5
 40
1.5
309
CELLMARGIN_END
 94
        6
 95
        1
302
GRIDFORMAT
  1
GRIDFORMAT_BEGIN
 90
        0
 91
        1
 62
     0
 92
       -2
340
14
 93
        0
 40
0.045
309
GRIDFORMAT_END
 95
        2
302
GRIDFORMAT
  1
GRIDFORMAT_BEGIN
 90
        0
 91
        1
 62
     0
 92
       -2
340
14
 93
        0
 40
0.045
309
GRIDFORMAT_END
 95
        4
302
GRIDFORMAT
  1
GRIDFORMAT_BEGIN
 90
        0
 91
        1
 62
     0
 92
       -2
340
14
 93
        0
 40
0.045
309
GRIDFORMAT_END
 95
        8
302
GRIDFORMAT
  1
GRIDFORMAT_BEGIN
 90
        0
 91
        1
 62
     0
 92
       -2
340
14
 93
        0
 40
0.045
309
GRIDFORMAT_END
 95
       16
302
GRIDFORMAT
  1
GRIDFORMAT_BEGIN
 90
        0
 91
        1
 62
     0
 92
       -2
340
14
 93
        0
 40
0.045
309
GRIDFORMAT_END
 95
       32
302
GRIDFORMAT
  1
GRIDFORMAT_BEGIN
 90
        0
 91
        1
 62
     0
 92
       -2
340
14
 93
        0
 40
0.045
309
GRIDFORMAT_END
309
TABLEFORMAT_END
  1
CELLSTYLE_BEGIN
 90
        2
 91
        1
300
_HEADER
309
CELLSTYLE_END
300
CELLSTYLE
  1
TABLEFORMAT_BEGIN
 90
        5
170
     1
 91
        0
 92
        0
 62
   257
 93
        1
300
CONTENTFORMAT
  1
CONTENTFORMAT_BEGIN
 90
        0
 91
        0
 92
        4
 93
        0
300

 40
0.0
140
1.0
 94
        2
 62
     0
340
11
144
4.5
309
CONTENTFORMAT_END
171
     1
301
MARGIN
  1
CELLMARGIN_BEGIN
 40
1.5
 40
1.5
 40
1.5
 40
1.5
 40
1.5
 40
1.5
309
CELLMARGIN_END
 94
        6
 95
        1
302
GRIDFORMAT
  1
GRIDFORMAT_BEGIN
 90
        0
 91
        1
 62
     0
 92
       -2
340
14
 93
        0
 40
0.045
309
GRIDFORMAT_END
 95
        2
302
GRIDFORMAT
  1
GRIDFORMAT_BEGIN
 90
        0
 91
        1
 62
     0
 92
       -2
340
14
 93
        0
 40
0.045
309
GRIDFORMAT_END
 95
        4
302
GRIDFORMAT
  1
GRIDFORMAT_BEGIN
 90
        0
 91
        1
 62
     0
 92
       -2
340
14
 93
        0
 40
0.045
309
GRIDFORMAT_END
 95
        8
302
GRIDFORMAT
  1
GRIDFORMAT_BEGIN
 90
        0
 91
        1
 62
     0
 92
       -2
340
14
 93
        0
 40
0.045
309
GRIDFORMAT_END
 95
       16
302
GRIDFORMAT
  1
GRIDFORMAT_BEGIN
 90
        0
 91
        1
 62
     0
 92
       -2
340
14
 93
        0
 40
0.045
309
GRIDFORMAT_END
 95
       32
302
GRIDFORMAT
  1
GRIDFORMAT_BEGIN
 90
        0
 91
        1
 62
     0
 92
       -2
340
14
 93
        0
 40
0.045
309
GRIDFORMAT_END
309
TABLEFORMAT_END
  1
CELLSTYLE_BEGIN
 90
        3
 91
        2
300
_DATA
309
CELLSTYLE_END
  0
XRECORD
  5
31F
102
{ACAD_REACTORS
330
31E
102
}
330
31E
100
AcDbXrecord
280
     1
102
ACAD_ROUNDTRIP_PRE2007_TABLESTYLE
 90
        4
 91
        0
  1

 92
        4
 93
        0
  2

 94
        4
 95
        0
  3

  0
XRECORD
  5
2F1
102
{ACAD_REACTORS
330
2F0
102
}
330
2F0
100
AcDbXrecord
280
     1
102
RTVSPropertyOp0
 70
     1
102
RTVSPropertyOp1
 70
     1
102
RTVSPropertyOp2
 70
     1
102
RTVSPropertyOp3
 70
     1
102
RTVSPropertyOp4
 70
     1
102
RTVSPropertyOp5
 70
     1
102
RTVSPropertyOp6
 70
     1
102
RTVSPropertyOp7
 70
     1
102
RTVSPropertyOp8
 70
     1
102
RTVSPropertyOp9
 70
     1
102
RTVSPropertyOp10
 70
     1
102
RTVSPropertyOp11
 70
     1
102
RTVSPropertyOp12
 70
     1
102
RTVSPropertyOp13
 70
     1
102
RTVSPropertyOp14
 70
     1
102
RTVSPropertyOp15
 70
     1
102
RTVSPropertyOp16
 70
     1
102
RTVSPropertyOp17
 70
     1
102
RTVSPropertyOp18
 70
     1
102
RTVSPropertyOp19
 70
     1
102
RTVSPropertyOp20
 70
     1
102
RTVSPropertyOp21
 70
     1
102
RTVSPropertyOp22
 70
     1
102
RTVSPropertyOp23
 70
     1
102
RTVSPropertyOp24
 70
     1
102
RTVSPropertyOp25
 70
     1
102
RTVSPropertyOp26
 70
     1
102
RTVSPropertyOp27
 70
     1
102
RTVSPropertyOp28
 70
     1
102
RTVSPropertyOp29
 70
     1
102
RTVSPropertyOp30
 70
     1
102
RTVSPropertyOp31
 70
     1
102
RTVSPropertyOp32
 70
     1
102
RTVSPropertyOp33
 70
     1
102
RTVSPropertyOp34
 70
     1
102
RTVSPropertyOp35
 70
     1
102
RTVSPropertyOp36
 70
     1
102
RTVSPropertyOp37
 70
     1
102
RTVSPropertyOp38
 70
     1
102
RTVSPropertyOp39
 70
     1
102
RTVSPropertyOp40
 70
     1
102
RTVSPropertyOp41
 70
     1
102
RTVSPropertyOp42
 70
     1
102
RTVSPropertyOp43
 70
     1
102
RTVSPropertyOp44
 70
     1
102
RTVSPropertyOp45
 70
     1
102
RTVSPropertyOp46
 70
     1
102
RTVSPropertyOp47
 70
     1
102
RTVSPropertyOp48
 70
     1
102
RTVSPropertyOp49
 70
     1
102
RTVSPropertyOp50
 70
     1
102
RTVSPropertyOp51
 70
     0
102
RTVSPropertyOp52
 70
     0
102
RTVSPropertyOp53
 70
     1
102
RTVSPropertyOp54
 70
     1
102
RTVSPropertyOp55
 70
     1
102
RTVSPropertyOp56
 70
     1
102
RTVSPropertyOp57
 70
     1
102
RTVSPost2010Prop28
280
     1
102
RTVSPost2010PropOp28
 70
     1
102
RTVSPost2010Prop29
280
     1
102
RTVSPost2010PropOp29
 70
     1
102
RTVSPost2010Prop30
280
     0
102
RTVSPost2010PropOp30
 70
     1
102
RTVSPost2010Prop31
280
     0
102
RTVSPost2010PropOp31
 70
     1
102
RTVSPost2010Prop32
280
     0
102
RTVSPost2010PropOp32
 70
     1
102
RTVSPost2010Prop33
280
     0
102
RTVSPost2010PropOp33
 70
     1
102
RTVSPost2010Prop34
280
     0
102
RTVSPost2010PropOp34
 70
     1
102
RTVSPost2010Prop35
280
     0
102
RTVSPost2010PropOp35
 70
     1
102
RTVSPost2010Prop36
280
     0
102
RTVSPost2010PropOp36
 70
     1
102
RTVSPost2010Prop37
 90
       50
102
RTVSPost2010PropOp37
 70
     1
102
RTVSPost2010Prop38
140
0.0
102
RTVSPost2010PropOp38
 70
     1
102
RTVSPost2010Prop39
140
1.0
102
RTVSPost2010PropOp39
 70
     1
102
RTVSPost2010Prop40
 90
        0
102
RTVSPost2010PropOp40
 70
     1
102
RTVSPost2010Prop41ColorIndex
 90
       18
102
RTVSPost2010Prop41ColorRGB
 90
        0
102
RTVSPost2010PropOp41
 70
     1
102
RTVSPost2010Prop42
 90
       50
102
RTVSPost2010PropOp42
 70
     1
102
RTVSPost2010Prop43
 90
        3
102
RTVSPost2010PropOp43
 70
     1
102
RTVSPost2010Prop44ColorIndex
 90
        5
102
RTVSPost2010Prop44ColorRGB
 90
      255
102
RTVSPost2010PropOp44
 70
     1
102
RTVSPost2010Prop45
280
     0
102
RTVSPost2010PropOp45
 70
     1
102
RTVSPost2010Prop46
 90
       50
102
RTVSPost2010PropOp46
 70
     1
102
RTVSPost2010Prop47
 90
       50
102
RTVSPost2010PropOp47
 70
     1
102
RTVSPost2010Prop48
 90
       50
102
RTVSPost2010PropOp48
 70
     1
102
RTVSPost2010Prop49
280
     0
102
RTVSPost2010PropOp49
 70
     1
102
RTVSPost2010Prop50
 90
       50
102
RTVSPost2010PropOp50
 70
     1
102
RTVSPost2010Prop51ColorIndex
 90
      256
102
RTVSPost2010Prop51ColorRGB
 90
-16777216
102
RTVSPost2010PropOp51
 70
     0
102
RTVSPost2010Prop52
140
1.0
102
RTVSPost2010PropOp52
 70
     0
102
RTVSPost2010Prop53
 90
        2
102
RTVSPost2010PropOp53
 70
     1
102
RTVSPost2010Prop54
  1
strokes_ogs.tif
102
RTVSPost2010PropOp54
 70
     1
102
RTVSPost2010Prop55
280
     0
102
RTVSPost2010PropOp55
 70
     1
102
RTVSPost2010Prop56
140
1.0
102
RTVSPost2010PropOp56
 70
     1
102
RTVSPost2010Prop57
140
1.0
102
RTVSPost2010PropOp57
 70
     1
  0
XRECORD
  5
2F7
102
{ACAD_REACTORS
330
2F6
102
}
330
2F6
100
AcDbXrecord
280
     1
102
RTVSPropertyOp0
 70
     1
102
RTVSPropertyOp1
 70
     1
102
RTVSPropertyOp2
 70
     1
102
RTVSPropertyOp3
 70
     1
102
RTVSPropertyOp4
 70
     1
102
RTVSPropertyOp5
 70
     1
102
RTVSPropertyOp6
 70
     1
102
RTVSPropertyOp7
 70
     1
102
RTVSPropertyOp8
 70
     1
102
RTVSPropertyOp9
 70
     1
102
RTVSPropertyOp10
 70
     1
102
RTVSPropertyOp11
 70
     1
102
RTVSPropertyOp12
 70
     1
102
RTVSPropertyOp13
 70
     1
102
RTVSPropertyOp14
 70
     1
102
RTVSPropertyOp15
 70
     1
102
RTVSPropertyOp16
 70
     1
102
RTVSPropertyOp17
 70
     1
102
RTVSPropertyOp18
 70
     1
102
RTVSPropertyOp19
 70
     1
102
RTVSPropertyOp20
 70
     1
102
RTVSPropertyOp21
 70
     1
102
RTVSPropertyOp22
 70
     1
102
RTVSPropertyOp23
 70
     1
102
RTVSPropertyOp24
 70
     1
102
RTVSPropertyOp25
 70
     1
102
RTVSPropertyOp26
 70
     1
102
RTVSPropertyOp27
 70
     1
102
RTVSPropertyOp28
 70
     1
102
RTVSPropertyOp29
 70
     1
102
RTVSPropertyOp30
 70
     1
102
RTVSPropertyOp31
 70
     1
102
RTVSPropertyOp32
 70
     1
102
RTVSPropertyOp33
 70
     1
102
RTVSPropertyOp34
 70
     1
102
RTVSPropertyOp35
 70
     1
102
RTVSPropertyOp36
 70
     1
102
RTVSPropertyOp37
 70
     1
102
RTVSPropertyOp38
 70
     1
102
RTVSPropertyOp39
 70
     1
102
RTVSPropertyOp40
 70
     1
102
RTVSPropertyOp41
 70
     1
102
RTVSPropertyOp42
 70
     1
102
RTVSPropertyOp43
 70
     1
102
RTVSPropertyOp44
 70
     1
102
RTVSPropertyOp45
 70
     1
102
RTVSPropertyOp46
 70
     1
102
RTVSPropertyOp47
 70
     1
102
RTVSPropertyOp48
 70
     1
102
RTVSPropertyOp49
 70
     1
102
RTVSPropertyOp50
 70
     1
102
RTVSPropertyOp51
 70
     0
102
RTVSPropertyOp52
 70
     0
102
RTVSPropertyOp53
 70
     1
102
RTVSPropertyOp54
 70
     1
102
RTVSPropertyOp55
 70
     1
102
RTVSPropertyOp56
 70
     1
102
RTVSPropertyOp57
 70
     1
102
RTVSPost2010Prop28
280
     0
102
RTVSPost2010PropOp28
 70
     1
102
RTVSPost2010Prop29
280
     1
102
RTVSPost2010PropOp29
 70
     1
102
RTVSPost2010Prop30
280
     1
102
RTVSPost2010PropOp30
 70
     1
102
RTVSPost2010Prop31
280
     0
102
RTVSPost2010PropOp31
 70
     1
102
RTVSPost2010Prop32
280
     0
102
RTVSPost2010PropOp32
 70
     1
102
RTVSPost2010Prop33
280
     0
102
RTVSPost2010PropOp33
 70
     1
102
RTVSPost2010Prop34
280
     0
102
RTVSPost2010PropOp34
 70
     1
102
RTVSPost2010Prop35
280
     0
102
RTVSPost2010PropOp35
 70
     1
102
RTVSPost2010Prop36
280
     0
102
RTVSPost2010PropOp36
 70
     1
102
RTVSPost2010Prop37
 90
       50
102
RTVSPost2010PropOp37
 70
     1
102
RTVSPost2010Prop38
140
0.0
102
RTVSPost2010PropOp38
 70
     1
102
RTVSPost2010Prop39
140
1.0
102
RTVSPost2010PropOp39
 70
     1
102
RTVSPost2010Prop40
 90
        0
102
RTVSPost2010PropOp40
 70
     1
102
RTVSPost2010Prop41ColorIndex
 90
       18
102
RTVSPost2010Prop41ColorRGB
 90
        0
102
RTVSPost2010PropOp41
 70
     1
102
RTVSPost2010Prop42
 90
       50
102
RTVSPost2010PropOp42
 70
     1
102
RTVSPost2010Prop43
 90
        3
102
RTVSPost2010PropOp43
 70
     1
102
RTVSPost2010Prop44ColorIndex
 90
        5
102
RTVSPost2010Prop44ColorRGB
 90
      255
102
RTVSPost2010PropOp44
 70
     1
102
RTVSPost2010Prop45
280
     0
102
RTVSPost2010PropOp45
 70
     1
102
RTVSPost2010Prop46
 90
       50
102
RTVSPost2010PropOp46
 70
     1
102
RTVSPost2010Prop47
 90
       50
102
RTVSPost2010PropOp47
 70
     1
102
RTVSPost2010Prop48
 90
       50
102
RTVSPost2010PropOp48
 70
     1
102
RTVSPost2010Prop49
280
     0
102
RTVSPost2010PropOp49
 70
     1
102
RTVSPost2010Prop50
 90
       50
102
RTVSPost2010PropOp50
 70
     1
102
RTVSPost2010Prop51ColorIndex
 90
      256
102
RTVSPost2010Prop51ColorRGB
 90
-16777216
102
RTVSPost2010PropOp51
 70
     0
102
RTVSPost2010Prop52
140
1.0
102
RTVSPost2010PropOp52
 70
     0
102
RTVSPost2010Prop53
 90
        2
102
RTVSPost2010PropOp53
 70
     1
102
RTVSPost2010Prop54
  1
strokes_ogs.tif
102
RTVSPost2010PropOp54
 70
     1
102
RTVSPost2010Prop55
280
     0
102
RTVSPost2010PropOp55
 70
     1
102
RTVSPost2010Prop56
140
1.0
102
RTVSPost2010PropOp56
 70
     1
102
RTVSPost2010Prop57
140
1.0
102
RTVSPost2010PropOp57
 70
     1
  0
XRECORD
  5
2FF
102
{ACAD_REACTORS
330
2FE
102
}
330
2FE
100
AcDbXrecord
280
     1
102
RTVSPropertyOp0
 70
     1
102
RTVSPropertyOp1
 70
     1
102
RTVSPropertyOp2
 70
     1
102
RTVSPropertyOp3
 70
     1
102
RTVSPropertyOp4
 70
     1
102
RTVSPropertyOp5
 70
     1
102
RTVSPropertyOp6
 70
     1
102
RTVSPropertyOp7
 70
     1
102
RTVSPropertyOp8
 70
     1
102
RTVSPropertyOp9
 70
     1
102
RTVSPropertyOp10
 70
     1
102
RTVSPropertyOp11
 70
     1
102
RTVSPropertyOp12
 70
     1
102
RTVSPropertyOp13
 70
     1
102
RTVSPropertyOp14
 70
     1
102
RTVSPropertyOp15
 70
     1
102
RTVSPropertyOp16
 70
     1
102
RTVSPropertyOp17
 70
     1
102
RTVSPropertyOp18
 70
     1
102
RTVSPropertyOp19
 70
     1
102
RTVSPropertyOp20
 70
     1
102
RTVSPropertyOp21
 70
     1
102
RTVSPropertyOp22
 70
     1
102
RTVSPropertyOp23
 70
     1
102
RTVSPropertyOp24
 70
     1
102
RTVSPropertyOp25
 70
     1
102
RTVSPropertyOp26
 70
     1
102
RTVSPropertyOp27
 70
     1
102
RTVSPropertyOp28
 70
     1
102
RTVSPropertyOp29
 70
     1
102
RTVSPropertyOp30
 70
     1
102
RTVSPropertyOp31
 70
     1
102
RTVSPropertyOp32
 70
     1
102
RTVSPropertyOp33
 70
     1
102
RTVSPropertyOp34
 70
     1
102
RTVSPropertyOp35
 70
     1
102
RTVSPropertyOp36
 70
     1
102
RTVSPropertyOp37
 70
     1
102
RTVSPropertyOp38
 70
     1
102
RTVSPropertyOp39
 70
     1
102
RTVSPropertyOp40
 70
     1
102
RTVSPropertyOp41
 70
     1
102
RTVSPropertyOp42
 70
     1
102
RTVSPropertyOp43
 70
     1
102
RTVSPropertyOp44
 70
     1
102
RTVSPropertyOp45
 70
     1
102
RTVSPropertyOp46
 70
     1
102
RTVSPropertyOp47
 70
     1
102
RTVSPropertyOp48
 70
     1
102
RTVSPropertyOp49
 70
     1
102
RTVSPropertyOp50
 70
     1
102
RTVSPropertyOp51
 70
     0
102
RTVSPropertyOp52
 70
     0
102
RTVSPropertyOp53
 70
     1
102
RTVSPropertyOp54
 70
     1
102
RTVSPropertyOp55
 70
     1
102
RTVSPropertyOp56
 70
     1
102
RTVSPropertyOp57
 70
     1
102
RTVSPost2010Prop28
280
     0
102
RTVSPost2010PropOp28
 70
     1
102
RTVSPost2010Prop29
280
     1
102
RTVSPost2010PropOp29
 70
     1
102
RTVSPost2010Prop30
280
     1
102
RTVSPost2010PropOp30
 70
     1
102
RTVSPost2010Prop31
280
     0
102
RTVSPost2010PropOp31
 70
     1
102
RTVSPost2010Prop32
280
     0
102
RTVSPost2010PropOp32
 70
     1
102
RTVSPost2010Prop33
280
     0
102
RTVSPost2010PropOp33
 70
     1
102
RTVSPost2010Prop34
280
     0
102
RTVSPost2010PropOp34
 70
     1
102
RTVSPost2010Prop35
280
     0
102
RTVSPost2010PropOp35
 70
     1
102
RTVSPost2010Prop36
280
     0
102
RTVSPost2010PropOp36
 70
     1
102
RTVSPost2010Prop37
 90
       50
102
RTVSPost2010PropOp37
 70
     1
102
RTVSPost2010Prop38
140
0.0
102
RTVSPost2010PropOp38
 70
     1
102
RTVSPost2010Prop39
140
1.0
102
RTVSPost2010PropOp39
 70
     1
102
RTVSPost2010Prop40
 90
        0
102
RTVSPost2010PropOp40
 70
     1
102
RTVSPost2010Prop41ColorIndex
 90
       18
102
RTVSPost2010Prop41ColorRGB
 90
        0
102
RTVSPost2010PropOp41
 70
     1
102
RTVSPost2010Prop42
 90
       50
102
RTVSPost2010PropOp42
 70
     1
102
RTVSPost2010Prop43
 90
        3
102
RTVSPost2010PropOp43
 70
     1
102
RTVSPost2010Prop44ColorIndex
 90
        5
102
RTVSPost2010Prop44ColorRGB
 90
      255
102
RTVSPost2010PropOp44
 70
     1
102
RTVSPost2010Prop45
280
     0
102
RTVSPost2010PropOp45
 70
     1
102
RTVSPost2010Prop46
 90
       50
102
RTVSPost2010PropOp46
 70
     1
102
RTVSPost2010Prop47
 90
       50
102
RTVSPost2010PropOp47
 70
     1
102
RTVSPost2010Prop48
 90
       50
102
RTVSPost2010PropOp48
 70
     1
102
RTVSPost2010Prop49
280
     0
102
RTVSPost2010PropOp49
 70
     1
102
RTVSPost2010Prop50
 90
       50
102
RTVSPost2010PropOp50
 70
     1
102
RTVSPost2010Prop51ColorIndex
 90
      256
102
RTVSPost2010Prop51ColorRGB
 90
-16777216
102
RTVSPost2010PropOp51
 70
     0
102
RTVSPost2010Prop52
140
1.0
102
RTVSPost2010PropOp52
 70
     0
102
RTVSPost2010Prop53
 90
        2
102
RTVSPost2010PropOp53
 70
     1
102
RTVSPost2010Prop54
  1
strokes_ogs.tif
102
RTVSPost2010PropOp54
 70
     1
102
RTVSPost2010Prop55
280
     0
102
RTVSPost2010PropOp55
 70
     1
102
RTVSPost2010Prop56
140
1.0
102
RTVSPost2010PropOp56
 70
     1
102
RTVSPost2010Prop57
140
1.0
102
RTVSPost2010PropOp57
 70
     1
  0
XRECORD
  5
307
102
{ACAD_REACTORS
330
306
102
}
330
306
100
AcDbXrecord
280
     1
102
RTVSPropertyOp0
 70
     1
102
RTVSPropertyOp1
 70
     1
102
RTVSPropertyOp2
 70
     1
102
RTVSPropertyOp3
 70
     1
102
RTVSPropertyOp4
 70
     1
102
RTVSPropertyOp5
 70
     1
102
RTVSPropertyOp6
 70
     1
102
RTVSPropertyOp7
 70
     1
102
RTVSPropertyOp8
 70
     1
102
RTVSPropertyOp9
 70
     1
102
RTVSPropertyOp10
 70
     1
102
RTVSPropertyOp11
 70
     1
102
RTVSPropertyOp12
 70
     1
102
RTVSPropertyOp13
 70
     1
102
RTVSPropertyOp14
 70
     1
102
RTVSPropertyOp15
 70
     1
102
RTVSPropertyOp16
 70
     1
102
RTVSPropertyOp17
 70
     1
102
RTVSPropertyOp18
 70
     1
102
RTVSPropertyOp19
 70
     1
102
RTVSPropertyOp20
 70
     1
102
RTVSPropertyOp21
 70
     1
102
RTVSPropertyOp22
 70
     1
102
RTVSPropertyOp23
 70
     1
102
RTVSPropertyOp24
 70
     1
102
RTVSPropertyOp25
 70
     1
102
RTVSPropertyOp26
 70
     1
102
RTVSPropertyOp27
 70
     1
102
RTVSPropertyOp28
 70
     1
102
RTVSPropertyOp29
 70
     1
102
RTVSPropertyOp30
 70
     1
102
RTVSPropertyOp31
 70
     1
102
RTVSPropertyOp32
 70
     1
102
RTVSPropertyOp33
 70
     1
102
RTVSPropertyOp34
 70
     1
102
RTVSPropertyOp35
 70
     1
102
RTVSPropertyOp36
 70
     1
102
RTVSPropertyOp37
 70
     1
102
RTVSPropertyOp38
 70
     1
102
RTVSPropertyOp39
 70
     1
102
RTVSPropertyOp40
 70
     1
102
RTVSPropertyOp41
 70
     1
102
RTVSPropertyOp42
 70
     1
102
RTVSPropertyOp43
 70
     1
102
RTVSPropertyOp44
 70
     1
102
RTVSPropertyOp45
 70
     1
102
RTVSPropertyOp46
 70
     1
102
RTVSPropertyOp47
 70
     1
102
RTVSPropertyOp48
 70
     1
102
RTVSPropertyOp49
 70
     1
102
RTVSPropertyOp50
 70
     1
102
RTVSPropertyOp51
 70
     0
102
RTVSPropertyOp52
 70
     0
102
RTVSPropertyOp53
 70
     1
102
RTVSPropertyOp54
 70
     1
102
RTVSPropertyOp55
 70
     1
102
RTVSPropertyOp56
 70
     1
102
RTVSPropertyOp57
 70
     1
102
RTVSPost2010Prop28
280
     0
102
RTVSPost2010PropOp28
 70
     1
102
RTVSPost2010Prop29
280
     1
102
RTVSPost2010PropOp29
 70
     1
102
RTVSPost2010Prop30
280
     1
102
RTVSPost2010PropOp30
 70
     1
102
RTVSPost2010Prop31
280
     0
102
RTVSPost2010PropOp31
 70
     1
102
RTVSPost2010Prop32
280
     0
102
RTVSPost2010PropOp32
 70
     1
102
RTVSPost2010Prop33
280
     0
102
RTVSPost2010PropOp33
 70
     1
102
RTVSPost2010Prop34
280
     0
102
RTVSPost2010PropOp34
 70
     1
102
RTVSPost2010Prop35
280
     0
102
RTVSPost2010PropOp35
 70
     1
102
RTVSPost2010Prop36
280
     0
102
RTVSPost2010PropOp36
 70
     1
102
RTVSPost2010Prop37
 90
       50
102
RTVSPost2010PropOp37
 70
     1
102
RTVSPost2010Prop38
140
0.0
102
RTVSPost2010PropOp38
 70
     1
102
RTVSPost2010Prop39
140
1.0
102
RTVSPost2010PropOp39
 70
     1
102
RTVSPost2010Prop40
 90
        0
102
RTVSPost2010PropOp40
 70
     1
102
RTVSPost2010Prop41ColorIndex
 90
       18
102
RTVSPost2010Prop41ColorRGB
 90
        0
102
RTVSPost2010PropOp41
 70
     1
102
RTVSPost2010Prop42
 90
       50
102
RTVSPost2010PropOp42
 70
     1
102
RTVSPost2010Prop43
 90
        3
102
RTVSPost2010PropOp43
 70
     1
102
RTVSPost2010Prop44ColorIndex
 90
        5
102
RTVSPost2010Prop44ColorRGB
 90
      255
102
RTVSPost2010PropOp44
 70
     1
102
RTVSPost2010Prop45
280
     0
102
RTVSPost2010PropOp45
 70
     1
102
RTVSPost2010Prop46
 90
       50
102
RTVSPost2010PropOp46
 70
     1
102
RTVSPost2010Prop47
 90
       50
102
RTVSPost2010PropOp47
 70
     1
102
RTVSPost2010Prop48
 90
       50
102
RTVSPost2010PropOp48
 70
     1
102
RTVSPost2010Prop49
280
     0
102
RTVSPost2010PropOp49
 70
     1
102
RTVSPost2010Prop50
 90
       50
102
RTVSPost2010PropOp50
 70
     1
102
RTVSPost2010Prop51ColorIndex
 90
      256
102
RTVSPost2010Prop51ColorRGB
 90
-16777216
102
RTVSPost2010PropOp51
 70
     0
102
RTVSPost2010Prop52
140
1.0
102
RTVSPost2010PropOp52
 70
     0
102
RTVSPost2010Prop53
 90
        2
102
RTVSPost2010PropOp53
 70
     1
102
RTVSPost2010Prop54
  1
strokes_ogs.tif
102
RTVSPost2010PropOp54
 70
     1
102
RTVSPost2010Prop55
280
     0
102
RTVSPost2010PropOp55
 70
     1
102
RTVSPost2010Prop56
140
1.0
102
RTVSPost2010PropOp56
 70
     1
102
RTVSPost2010Prop57
140
1.0
102
RTVSPost2010PropOp57
 70
     1
  0
XRECORD
  5
2FB
102
{ACAD_REACTORS
330
2FA
102
}
330
2FA
100
AcDbXrecord
280
     1
102
RTVSPropertyOp0
 70
     1
102
RTVSPropertyOp1
 70
     1
102
RTVSPropertyOp2
 70
     1
102
RTVSPropertyOp3
 70
     1
102
RTVSPropertyOp4
 70
     1
102
RTVSPropertyOp5
 70
     1
102
RTVSPropertyOp6
 70
     1
102
RTVSPropertyOp7
 70
     1
102
RTVSPropertyOp8
 70
     1
102
RTVSPropertyOp9
 70
     1
102
RTVSPropertyOp10
 70
     1
102
RTVSPropertyOp11
 70
     1
102
RTVSPropertyOp12
 70
     1
102
RTVSPropertyOp13
 70
     1
102
RTVSPropertyOp14
 70
     1
102
RTVSPropertyOp15
 70
     1
102
RTVSPropertyOp16
 70
     1
102
RTVSPropertyOp17
 70
     1
102
RTVSPropertyOp18
 70
     1
102
RTVSPropertyOp19
 70
     1
102
RTVSPropertyOp20
 70
     1
102
RTVSPropertyOp21
 70
     1
102
RTVSPropertyOp22
 70
     1
102
RTVSPropertyOp23
 70
     1
102
RTVSPropertyOp24
 70
     1
102
RTVSPropertyOp25
 70
     1
102
RTVSPropertyOp26
 70
     1
102
RTVSPropertyOp27
 70
     1
102
RTVSPropertyOp28
 70
     1
102
RTVSPropertyOp29
 70
     1
102
RTVSPropertyOp30
 70
     1
102
RTVSPropertyOp31
 70
     1
102
RTVSPropertyOp32
 70
     1
102
RTVSPropertyOp33
 70
     1
102
RTVSPropertyOp34
 70
     1
102
RTVSPropertyOp35
 70
     1
102
RTVSPropertyOp36
 70
     1
102
RTVSPropertyOp37
 70
     1
102
RTVSPropertyOp38
 70
     1
102
RTVSPropertyOp39
 70
     1
102
RTVSPropertyOp40
 70
     1
102
RTVSPropertyOp41
 70
     1
102
RTVSPropertyOp42
 70
     1
102
RTVSPropertyOp43
 70
     1
102
RTVSPropertyOp44
 70
     1
102
RTVSPropertyOp45
 70
     1
102
RTVSPropertyOp46
 70
     1
102
RTVSPropertyOp47
 70
     1
102
RTVSPropertyOp48
 70
     1
102
RTVSPropertyOp49
 70
     1
102
RTVSPropertyOp50
 70
     1
102
RTVSPropertyOp51
 70
     0
102
RTVSPropertyOp52
 70
     0
102
RTVSPropertyOp53
 70
     1
102
RTVSPropertyOp54
 70
     1
102
RTVSPropertyOp55
 70
     1
102
RTVSPropertyOp56
 70
     1
102
RTVSPropertyOp57
 70
     1
102
RTVSPost2010Prop28
280
     0
102
RTVSPost2010PropOp28
 70
     1
102
RTVSPost2010Prop29
280
     1
102
RTVSPost2010PropOp29
 70
     1
102
RTVSPost2010Prop30
280
     1
102
RTVSPost2010PropOp30
 70
     1
102
RTVSPost2010Prop31
280
     0
102
RTVSPost2010PropOp31
 70
     1
102
RTVSPost2010Prop32
280
     0
102
RTVSPost2010PropOp32
 70
     1
102
RTVSPost2010Prop33
280
     0
102
RTVSPost2010PropOp33
 70
     1
102
RTVSPost2010Prop34
280
     0
102
RTVSPost2010PropOp34
 70
     1
102
RTVSPost2010Prop35
280
     0
102
RTVSPost2010PropOp35
 70
     1
102
RTVSPost2010Prop36
280
     0
102
RTVSPost2010PropOp36
 70
     1
102
RTVSPost2010Prop37
 90
       50
102
RTVSPost2010PropOp37
 70
     1
102
RTVSPost2010Prop38
140
0.0
102
RTVSPost2010PropOp38
 70
     1
102
RTVSPost2010Prop39
140
1.0
102
RTVSPost2010PropOp39
 70
     1
102
RTVSPost2010Prop40
 90
        0
102
RTVSPost2010PropOp40
 70
     1
102
RTVSPost2010Prop41ColorIndex
 90
       18
102
RTVSPost2010Prop41ColorRGB
 90
        0
102
RTVSPost2010PropOp41
 70
     1
102
RTVSPost2010Prop42
 90
       50
102
RTVSPost2010PropOp42
 70
     1
102
RTVSPost2010Prop43
 90
        3
102
RTVSPost2010PropOp43
 70
     1
102
RTVSPost2010Prop44ColorIndex
 90
        5
102
RTVSPost2010Prop44ColorRGB
 90
      255
102
RTVSPost2010PropOp44
 70
     1
102
RTVSPost2010Prop45
280
     0
102
RTVSPost2010PropOp45
 70
     1
102
RTVSPost2010Prop46
 90
       50
102
RTVSPost2010PropOp46
 70
     1
102
RTVSPost2010Prop47
 90
       50
102
RTVSPost2010PropOp47
 70
     1
102
RTVSPost2010Prop48
 90
       50
102
RTVSPost2010PropOp48
 70
     1
102
RTVSPost2010Prop49
280
     0
102
RTVSPost2010PropOp49
 70
     1
102
RTVSPost2010Prop50
 90
       50
102
RTVSPost2010PropOp50
 70
     1
102
RTVSPost2010Prop51ColorIndex
 90
      256
102
RTVSPost2010Prop51ColorRGB
 90
-16777216
102
RTVSPost2010PropOp51
 70
     0
102
RTVSPost2010Prop52
140
1.0
102
RTVSPost2010PropOp52
 70
     0
102
RTVSPost2010Prop53
 90
        2
102
RTVSPost2010PropOp53
 70
     1
102
RTVSPost2010Prop54
  1
strokes_ogs.tif
102
RTVSPost2010PropOp54
 70
     1
102
RTVSPost2010Prop55
280
     0
102
RTVSPost2010PropOp55
 70
     1
102
RTVSPost2010Prop56
140
1.0
102
RTVSPost2010PropOp56
 70
     1
102
RTVSPost2010Prop57
140
1.0
102
RTVSPost2010PropOp57
 70
     1
  0
XRECORD
  5
2FD
102
{ACAD_REACTORS
330
2FC
102
}
330
2FC
100
AcDbXrecord
280
     1
102
RTVSPropertyOp0
 70
     1
102
RTVSPropertyOp1
 70
     1
102
RTVSPropertyOp2
 70
     1
102
RTVSPropertyOp3
 70
     1
102
RTVSPropertyOp4
 70
     1
102
RTVSPropertyOp5
 70
     1
102
RTVSPropertyOp6
 70
     1
102
RTVSPropertyOp7
 70
     1
102
RTVSPropertyOp8
 70
     1
102
RTVSPropertyOp9
 70
     1
102
RTVSPropertyOp10
 70
     1
102
RTVSPropertyOp11
 70
     1
102
RTVSPropertyOp12
 70
     1
102
RTVSPropertyOp13
 70
     1
102
RTVSPropertyOp14
 70
     1
102
RTVSPropertyOp15
 70
     1
102
RTVSPropertyOp16
 70
     1
102
RTVSPropertyOp17
 70
     1
102
RTVSPropertyOp18
 70
     1
102
RTVSPropertyOp19
 70
     1
102
RTVSPropertyOp20
 70
     1
102
RTVSPropertyOp21
 70
     1
102
RTVSPropertyOp22
 70
     1
102
RTVSPropertyOp23
 70
     1
102
RTVSPropertyOp24
 70
     1
102
RTVSPropertyOp25
 70
     1
102
RTVSPropertyOp26
 70
     1
102
RTVSPropertyOp27
 70
     1
102
RTVSPropertyOp28
 70
     1
102
RTVSPropertyOp29
 70
     1
102
RTVSPropertyOp30
 70
     1
102
RTVSPropertyOp31
 70
     1
102
RTVSPropertyOp32
 70
     1
102
RTVSPropertyOp33
 70
     1
102
RTVSPropertyOp34
 70
     1
102
RTVSPropertyOp35
 70
     1
102
RTVSPropertyOp36
 70
     1
102
RTVSPropertyOp37
 70
     1
102
RTVSPropertyOp38
 70
     1
102
RTVSPropertyOp39
 70
     1
102
RTVSPropertyOp40
 70
     1
102
RTVSPropertyOp41
 70
     1
102
RTVSPropertyOp42
 70
     1
102
RTVSPropertyOp43
 70
     1
102
RTVSPropertyOp44
 70
     1
102
RTVSPropertyOp45
 70
     1
102
RTVSPropertyOp46
 70
     1
102
RTVSPropertyOp47
 70
     1
102
RTVSPropertyOp48
 70
     1
102
RTVSPropertyOp49
 70
     1
102
RTVSPropertyOp50
 70
     1
102
RTVSPropertyOp51
 70
     0
102
RTVSPropertyOp52
 70
     0
102
RTVSPropertyOp53
 70
     1
102
RTVSPropertyOp54
 70
     1
102
RTVSPropertyOp55
 70
     1
102
RTVSPropertyOp56
 70
     1
102
RTVSPropertyOp57
 70
     1
102
RTVSPost2010Prop28
280
     0
102
RTVSPost2010PropOp28
 70
     1
102
RTVSPost2010Prop29
280
     1
102
RTVSPost2010PropOp29
 70
     1
102
RTVSPost2010Prop30
280
     1
102
RTVSPost2010PropOp30
 70
     1
102
RTVSPost2010Prop31
280
     0
102
RTVSPost2010PropOp31
 70
     1
102
RTVSPost2010Prop32
280
     0
102
RTVSPost2010PropOp32
 70
     1
102
RTVSPost2010Prop33
280
     0
102
RTVSPost2010PropOp33
 70
     1
102
RTVSPost2010Prop34
280
     0
102
RTVSPost2010PropOp34
 70
     1
102
RTVSPost2010Prop35
280
     0
102
RTVSPost2010PropOp35
 70
     1
102
RTVSPost2010Prop36
280
     0
102
RTVSPost2010PropOp36
 70
     1
102
RTVSPost2010Prop37
 90
       50
102
RTVSPost2010PropOp37
 70
     1
102
RTVSPost2010Prop38
140
0.0
102
RTVSPost2010PropOp38
 70
     1
102
RTVSPost2010Prop39
140
1.0
102
RTVSPost2010PropOp39
 70
     1
102
RTVSPost2010Prop40
 90
        0
102
RTVSPost2010PropOp40
 70
     1
102
RTVSPost2010Prop41ColorIndex
 90
       18
102
RTVSPost2010Prop41ColorRGB
 90
        0
102
RTVSPost2010PropOp41
 70
     1
102
RTVSPost2010Prop42
 90
       50
102
RTVSPost2010PropOp42
 70
     1
102
RTVSPost2010Prop43
 90
        3
102
RTVSPost2010PropOp43
 70
     1
102
RTVSPost2010Prop44ColorIndex
 90
        5
102
RTVSPost2010Prop44ColorRGB
 90
      255
102
RTVSPost2010PropOp44
 70
     1
102
RTVSPost2010Prop45
280
     0
102
RTVSPost2010PropOp45
 70
     1
102
RTVSPost2010Prop46
 90
       50
102
RTVSPost2010PropOp46
 70
     1
102
RTVSPost2010Prop47
 90
       50
102
RTVSPost2010PropOp47
 70
     1
102
RTVSPost2010Prop48
 90
       50
102
RTVSPost2010PropOp48
 70
     1
102
RTVSPost2010Prop49
280
     0
102
RTVSPost2010PropOp49
 70
     1
102
RTVSPost2010Prop50
 90
       50
102
RTVSPost2010PropOp50
 70
     1
102
RTVSPost2010Prop51ColorIndex
 90
      256
102
RTVSPost2010Prop51ColorRGB
 90
-16777216
102
RTVSPost2010PropOp51
 70
     0
102
RTVSPost2010Prop52
140
1.0
102
RTVSPost2010PropOp52
 70
     0
102
RTVSPost2010Prop53
 90
        2
102
RTVSPost2010PropOp53
 70
     1
102
RTVSPost2010Prop54
  1
strokes_ogs.tif
102
RTVSPost2010PropOp54
 70
     1
102
RTVSPost2010Prop55
280
     0
102
RTVSPost2010PropOp55
 70
     1
102
RTVSPost2010Prop56
140
1.0
102
RTVSPost2010PropOp56
 70
     1
102
RTVSPost2010Prop57
140
1.0
102
RTVSPost2010PropOp57
 70
     1
  0
XRECORD
  5
30D
102
{ACAD_REACTORS
330
30C
102
}
330
30C
100
AcDbXrecord
280
     1
102
RTVSPropertyOp0
 70
     0
102
RTVSPropertyOp1
 70
     0
102
RTVSPropertyOp2
 70
     0
102
RTVSPropertyOp3
 70
     0
102
RTVSPropertyOp4
 70
     0
102
RTVSPropertyOp5
 70
     0
102
RTVSPropertyOp6
 70
     0
102
RTVSPropertyOp7
 70
     0
102
RTVSPropertyOp8
 70
     0
102
RTVSPropertyOp9
 70
     0
102
RTVSPropertyOp10
 70
     0
102
RTVSPropertyOp11
 70
     0
102
RTVSPropertyOp12
 70
     0
102
RTVSPropertyOp13
 70
     0
102
RTVSPropertyOp14
 70
     2
102
RTVSPropertyOp15
 70
     0
102
RTVSPropertyOp16
 70
     0
102
RTVSPropertyOp17
 70
     0
102
RTVSPropertyOp18
 70
     0
102
RTVSPropertyOp19
 70
     0
102
RTVSPropertyOp20
 70
     0
102
RTVSPropertyOp21
 70
     0
102
RTVSPropertyOp22
 70
     0
102
RTVSPropertyOp23
 70
     0
102
RTVSPropertyOp24
 70
     0
102
RTVSPropertyOp25
 70
     0
102
RTVSPropertyOp26
 70
     0
102
RTVSPropertyOp27
 70
     0
102
RTVSPropertyOp28
 70
     0
102
RTVSPropertyOp29
 70
     0
102
RTVSPropertyOp30
 70
     0
102
RTVSPropertyOp31
 70
     0
102
RTVSPropertyOp32
 70
     0
102
RTVSPropertyOp33
 70
     0
102
RTVSPropertyOp34
 70
     0
102
RTVSPropertyOp35
 70
     0
102
RTVSPropertyOp36
 70
     0
102
RTVSPropertyOp37
 70
     0
102
RTVSPropertyOp38
 70
     0
102
RTVSPropertyOp39
 70
     0
102
RTVSPropertyOp40
 70
     0
102
RTVSPropertyOp41
 70
     0
102
RTVSPropertyOp42
 70
     0
102
RTVSPropertyOp43
 70
     0
102
RTVSPropertyOp44
 70
     0
102
RTVSPropertyOp45
 70
     0
102
RTVSPropertyOp46
 70
     0
102
RTVSPropertyOp47
 70
     0
102
RTVSPropertyOp48
 70
     0
102
RTVSPropertyOp49
 70
     0
102
RTVSPropertyOp50
 70
     0
102
RTVSPropertyOp51
 70
     0
102
RTVSPropertyOp52
 70
     0
102
RTVSPropertyOp53
 70
     0
102
RTVSPropertyOp54
 70
     0
102
RTVSPropertyOp55
 70
     0
102
RTVSPropertyOp56
 70
     0
102
RTVSPropertyOp57
 70
     0
102
RTVSPost2010Prop28
280
     0
102
RTVSPost2010PropOp28
 70
     0
102
RTVSPost2010Prop29
280
     1
102
RTVSPost2010PropOp29
 70
     0
102
RTVSPost2010Prop30
280
     1
102
RTVSPost2010PropOp30
 70
     0
102
RTVSPost2010Prop31
280
     0
102
RTVSPost2010PropOp31
 70
     0
102
RTVSPost2010Prop32
280
     0
102
RTVSPost2010PropOp32
 70
     0
102
RTVSPost2010Prop33
280
     0
102
RTVSPost2010PropOp33
 70
     0
102
RTVSPost2010Prop34
280
     0
102
RTVSPost2010PropOp34
 70
     0
102
RTVSPost2010Prop35
280
     0
102
RTVSPost2010PropOp35
 70
     0
102
RTVSPost2010Prop36
280
     0
102
RTVSPost2010PropOp36
 70
     0
102
RTVSPost2010Prop37
 90
       50
102
RTVSPost2010PropOp37
 70
     0
102
RTVSPost2010Prop38
140
0.0
102
RTVSPost2010PropOp38
 70
     0
102
RTVSPost2010Prop39
140
1.0
102
RTVSPost2010PropOp39
 70
     0
102
RTVSPost2010Prop40
 90
        0
102
RTVSPost2010PropOp40
 70
     0
102
RTVSPost2010Prop41ColorIndex
 90
       18
102
RTVSPost2010Prop41ColorRGB
 90
        0
102
RTVSPost2010PropOp41
 70
     0
102
RTVSPost2010Prop42
 90
       50
102
RTVSPost2010PropOp42
 70
     0
102
RTVSPost2010Prop43
 90
        3
102
RTVSPost2010PropOp43
 70
     0
102
RTVSPost2010Prop44ColorIndex
 90
        5
102
RTVSPost2010Prop44ColorRGB
 90
      255
102
RTVSPost2010PropOp44
 70
     0
102
RTVSPost2010Prop45
280
     0
102
RTVSPost2010PropOp45
 70
     0
102
RTVSPost2010Prop46
 90
       50
102
RTVSPost2010PropOp46
 70
     0
102
RTVSPost2010Prop47
 90
       50
102
RTVSPost2010PropOp47
 70
     0
102
RTVSPost2010Prop48
 90
       50
102
RTVSPost2010PropOp48
 70
     0
102
RTVSPost2010Prop49
280
     0
102
RTVSPost2010PropOp49
 70
     0
102
RTVSPost2010Prop50
 90
       50
102
RTVSPost2010PropOp50
 70
     0
102
RTVSPost2010Prop51ColorIndex
 90
      256
102
RTVSPost2010Prop51ColorRGB
 90
-16777216
102
RTVSPost2010PropOp51
 70
     0
102
RTVSPost2010Prop52
140
1.0
102
RTVSPost2010PropOp52
 70
     0
102
RTVSPost2010Prop53
 90
        2
102
RTVSPost2010PropOp53
 70
     0
102
RTVSPost2010Prop54
  1
strokes_ogs.tif
102
RTVSPost2010PropOp54
 70
     0
102
RTVSPost2010Prop55
280
     0
102
RTVSPost2010PropOp55
 70
     0
102
RTVSPost2010Prop56
140
1.0
102
RTVSPost2010PropOp56
 70
     0
102
RTVSPost2010Prop57
140
1.0
102
RTVSPost2010PropOp57
 70
     0
  0
XRECORD
  5
305
102
{ACAD_REACTORS
330
304
102
}
330
304
100
AcDbXrecord
280
     1
102
RTVSPropertyOp0
 70
     1
102
RTVSPropertyOp1
 70
     1
102
RTVSPropertyOp2
 70
     1
102
RTVSPropertyOp3
 70
     1
102
RTVSPropertyOp4
 70
     1
102
RTVSPropertyOp5
 70
     1
102
RTVSPropertyOp6
 70
     1
102
RTVSPropertyOp7
 70
     1
102
RTVSPropertyOp8
 70
     1
102
RTVSPropertyOp9
 70
     1
102
RTVSPropertyOp10
 70
     1
102
RTVSPropertyOp11
 70
     1
102
RTVSPropertyOp12
 70
     1
102
RTVSPropertyOp13
 70
     1
102
RTVSPropertyOp14
 70
     1
102
RTVSPropertyOp15
 70
     1
102
RTVSPropertyOp16
 70
     1
102
RTVSPropertyOp17
 70
     1
102
RTVSPropertyOp18
 70
     1
102
RTVSPropertyOp19
 70
     1
102
RTVSPropertyOp20
 70
     1
102
RTVSPropertyOp21
 70
     1
102
RTVSPropertyOp22
 70
     1
102
RTVSPropertyOp23
 70
     1
102
RTVSPropertyOp24
 70
     1
102
RTVSPropertyOp25
 70
     1
102
RTVSPropertyOp26
 70
     1
102
RTVSPropertyOp27
 70
     1
102
RTVSPropertyOp28
 70
     1
102
RTVSPropertyOp29
 70
     1
102
RTVSPropertyOp30
 70
     1
102
RTVSPropertyOp31
 70
     1
102
RTVSPropertyOp32
 70
     1
102
RTVSPropertyOp33
 70
     1
102
RTVSPropertyOp34
 70
     1
102
RTVSPropertyOp35
 70
     1
102
RTVSPropertyOp36
 70
     1
102
RTVSPropertyOp37
 70
     1
102
RTVSPropertyOp38
 70
     1
102
RTVSPropertyOp39
 70
     1
102
RTVSPropertyOp40
 70
     1
102
RTVSPropertyOp41
 70
     1
102
RTVSPropertyOp42
 70
     1
102
RTVSPropertyOp43
 70
     1
102
RTVSPropertyOp44
 70
     1
102
RTVSPropertyOp45
 70
     1
102
RTVSPropertyOp46
 70
     1
102
RTVSPropertyOp47
 70
     1
102
RTVSPropertyOp48
 70
     1
102
RTVSPropertyOp49
 70
     1
102
RTVSPropertyOp50
 70
     1
102
RTVSPropertyOp51
 70
     0
102
RTVSPropertyOp52
 70
     0
102
RTVSPropertyOp53
 70
     1
102
RTVSPropertyOp54
 70
     1
102
RTVSPropertyOp55
 70
     1
102
RTVSPropertyOp56
 70
     1
102
RTVSPropertyOp57
 70
     1
102
RTVSPost2010Prop28
280
     0
102
RTVSPost2010PropOp28
 70
     1
102
RTVSPost2010Prop29
280
     1
102
RTVSPost2010PropOp29
 70
     1
102
RTVSPost2010Prop30
280
     1
102
RTVSPost2010PropOp30
 70
     1
102
RTVSPost2010Prop31
280
     0
102
RTVSPost2010PropOp31
 70
     1
102
RTVSPost2010Prop32
280
     0
102
RTVSPost2010PropOp32
 70
     1
102
RTVSPost2010Prop33
280
     0
102
RTVSPost2010PropOp33
 70
     1
102
RTVSPost2010Prop34
280
     0
102
RTVSPost2010PropOp34
 70
     1
102
RTVSPost2010Prop35
280
     0
102
RTVSPost2010PropOp35
 70
     1
102
RTVSPost2010Prop36
280
     0
102
RTVSPost2010PropOp36
 70
     1
102
RTVSPost2010Prop37
 90
       50
102
RTVSPost2010PropOp37
 70
     1
102
RTVSPost2010Prop38
140
0.0
102
RTVSPost2010PropOp38
 70
     1
102
RTVSPost2010Prop39
140
1.0
102
RTVSPost2010PropOp39
 70
     1
102
RTVSPost2010Prop40
 90
        0
102
RTVSPost2010PropOp40
 70
     1
102
RTVSPost2010Prop41ColorIndex
 90
       18
102
RTVSPost2010Prop41ColorRGB
 90
        0
102
RTVSPost2010PropOp41
 70
     1
102
RTVSPost2010Prop42
 90
       50
102
RTVSPost2010PropOp42
 70
     1
102
RTVSPost2010Prop43
 90
        3
102
RTVSPost2010PropOp43
 70
     1
102
RTVSPost2010Prop44ColorIndex
 90
        5
102
RTVSPost2010Prop44ColorRGB
 90
      255
102
RTVSPost2010PropOp44
 70
     1
102
RTVSPost2010Prop45
280
     0
102
RTVSPost2010PropOp45
 70
     1
102
RTVSPost2010Prop46
 90
       50
102
RTVSPost2010PropOp46
 70
     1
102
RTVSPost2010Prop47
 90
       50
102
RTVSPost2010PropOp47
 70
     1
102
RTVSPost2010Prop48
 90
       50
102
RTVSPost2010PropOp48
 70
     1
102
RTVSPost2010Prop49
280
     0
102
RTVSPost2010PropOp49
 70
     1
102
RTVSPost2010Prop50
 90
       50
102
RTVSPost2010PropOp50
 70
     1
102
RTVSPost2010Prop51ColorIndex
 90
      256
102
RTVSPost2010Prop51ColorRGB
 90
-16777216
102
RTVSPost2010PropOp51
 70
     0
102
RTVSPost2010Prop52
140
1.0
102
RTVSPost2010PropOp52
 70
     0
102
RTVSPost2010Prop53
 90
        2
102
RTVSPost2010PropOp53
 70
     1
102
RTVSPost2010Prop54
  1
strokes_ogs.tif
102
RTVSPost2010PropOp54
 70
     1
102
RTVSPost2010Prop55
280
     0
102
RTVSPost2010PropOp55
 70
     1
102
RTVSPost2010Prop56
140
1.0
102
RTVSPost2010PropOp56
 70
     1
102
RTVSPost2010Prop57
140
1.0
102
RTVSPost2010PropOp57
 70
     1
  0
XRECORD
  5
2E9
102
{ACAD_REACTORS
330
2E8
102
}
330
2E8
100
AcDbXrecord
280
     1
102
RTVSPropertyOp0
 70
     1
102
RTVSPropertyOp1
 70
     1
102
RTVSPropertyOp2
 70
     1
102
RTVSPropertyOp3
 70
     1
102
RTVSPropertyOp4
 70
     1
102
RTVSPropertyOp5
 70
     1
102
RTVSPropertyOp6
 70
     1
102
RTVSPropertyOp7
 70
     1
102
RTVSPropertyOp8
 70
     1
102
RTVSPropertyOp9
 70
     1
102
RTVSPropertyOp10
 70
     1
102
RTVSPropertyOp11
 70
     1
102
RTVSPropertyOp12
 70
     1
102
RTVSPropertyOp13
 70
     1
102
RTVSPropertyOp14
 70
     1
102
RTVSPropertyOp15
 70
     1
102
RTVSPropertyOp16
 70
     1
102
RTVSPropertyOp17
 70
     1
102
RTVSPropertyOp18
 70
     1
102
RTVSPropertyOp19
 70
     1
102
RTVSPropertyOp20
 70
     1
102
RTVSPropertyOp21
 70
     1
102
RTVSPropertyOp22
 70
     1
102
RTVSPropertyOp23
 70
     1
102
RTVSPropertyOp24
 70
     1
102
RTVSPropertyOp25
 70
     1
102
RTVSPropertyOp26
 70
     1
102
RTVSPropertyOp27
 70
     1
102
RTVSPropertyOp28
 70
     1
102
RTVSPropertyOp29
 70
     1
102
RTVSPropertyOp30
 70
     1
102
RTVSPropertyOp31
 70
     1
102
RTVSPropertyOp32
 70
     1
102
RTVSPropertyOp33
 70
     1
102
RTVSPropertyOp34
 70
     1
102
RTVSPropertyOp35
 70
     1
102
RTVSPropertyOp36
 70
     1
102
RTVSPropertyOp37
 70
     1
102
RTVSPropertyOp38
 70
     1
102
RTVSPropertyOp39
 70
     1
102
RTVSPropertyOp40
 70
     1
102
RTVSPropertyOp41
 70
     1
102
RTVSPropertyOp42
 70
     1
102
RTVSPropertyOp43
 70
     1
102
RTVSPropertyOp44
 70
     1
102
RTVSPropertyOp45
 70
     1
102
RTVSPropertyOp46
 70
     1
102
RTVSPropertyOp47
 70
     1
102
RTVSPropertyOp48
 70
     1
102
RTVSPropertyOp49
 70
     1
102
RTVSPropertyOp50
 70
     1
102
RTVSPropertyOp51
 70
     0
102
RTVSPropertyOp52
 70
     0
102
RTVSPropertyOp53
 70
     1
102
RTVSPropertyOp54
 70
     1
102
RTVSPropertyOp55
 70
     1
102
RTVSPropertyOp56
 70
     1
102
RTVSPropertyOp57
 70
     1
102
RTVSPost2010Prop28
280
     0
102
RTVSPost2010PropOp28
 70
     1
102
RTVSPost2010Prop29
280
     1
102
RTVSPost2010PropOp29
 70
     1
102
RTVSPost2010Prop30
280
     1
102
RTVSPost2010PropOp30
 70
     1
102
RTVSPost2010Prop31
280
     0
102
RTVSPost2010PropOp31
 70
     1
102
RTVSPost2010Prop32
280
     0
102
RTVSPost2010PropOp32
 70
     1
102
RTVSPost2010Prop33
280
     0
102
RTVSPost2010PropOp33
 70
     1
102
RTVSPost2010Prop34
280
     0
102
RTVSPost2010PropOp34
 70
     1
102
RTVSPost2010Prop35
280
     0
102
RTVSPost2010PropOp35
 70
     1
102
RTVSPost2010Prop36
280
     0
102
RTVSPost2010PropOp36
 70
     1
102
RTVSPost2010Prop37
 90
       50
102
RTVSPost2010PropOp37
 70
     1
102
RTVSPost2010Prop38
140
0.0
102
RTVSPost2010PropOp38
 70
     1
102
RTVSPost2010Prop39
140
1.0
102
RTVSPost2010PropOp39
 70
     1
102
RTVSPost2010Prop40
 90
        0
102
RTVSPost2010PropOp40
 70
     1
102
RTVSPost2010Prop41ColorIndex
 90
       18
102
RTVSPost2010Prop41ColorRGB
 90
        0
102
RTVSPost2010PropOp41
 70
     1
102
RTVSPost2010Prop42
 90
       50
102
RTVSPost2010PropOp42
 70
     1
102
RTVSPost2010Prop43
 90
        3
102
RTVSPost2010PropOp43
 70
     1
102
RTVSPost2010Prop44ColorIndex
 90
        5
102
RTVSPost2010Prop44ColorRGB
 90
      255
102
RTVSPost2010PropOp44
 70
     1
102
RTVSPost2010Prop45
280
     0
102
RTVSPost2010PropOp45
 70
     1
102
RTVSPost2010Prop46
 90
       50
102
RTVSPost2010PropOp46
 70
     1
102
RTVSPost2010Prop47
 90
       50
102
RTVSPost2010PropOp47
 70
     1
102
RTVSPost2010Prop48
 90
       50
102
RTVSPost2010PropOp48
 70
     1
102
RTVSPost2010Prop49
280
     0
102
RTVSPost2010PropOp49
 70
     1
102
RTVSPost2010Prop50
 90
       50
102
RTVSPost2010PropOp50
 70
     1
102
RTVSPost2010Prop51ColorIndex
 90
      256
102
RTVSPost2010Prop51ColorRGB
 90
-16777216
102
RTVSPost2010PropOp51
 70
     0
102
RTVSPost2010Prop52
140
1.0
102
RTVSPost2010PropOp52
 70
     0
102
RTVSPost2010Prop53
 90
        2
102
RTVSPost2010PropOp53
 70
     1
102
RTVSPost2010Prop54
  1
strokes_ogs.tif
102
RTVSPost2010PropOp54
 70
     1
102
RTVSPost2010Prop55
280
     0
102
RTVSPost2010PropOp55
 70
     1
102
RTVSPost2010Prop56
140
1.0
102
RTVSPost2010PropOp56
 70
     1
102
RTVSPost2010Prop57
140
1.0
102
RTVSPost2010PropOp57
 70
     1
  0
XRECORD
  5
2EB
102
{ACAD_REACTORS
330
2EA
102
}
330
2EA
100
AcDbXrecord
280
     1
102
RTVSPropertyOp0
 70
     1
102
RTVSPropertyOp1
 70
     1
102
RTVSPropertyOp2
 70
     1
102
RTVSPropertyOp3
 70
     1
102
RTVSPropertyOp4
 70
     1
102
RTVSPropertyOp5
 70
     1
102
RTVSPropertyOp6
 70
     1
102
RTVSPropertyOp7
 70
     1
102
RTVSPropertyOp8
 70
     1
102
RTVSPropertyOp9
 70
     1
102
RTVSPropertyOp10
 70
     1
102
RTVSPropertyOp11
 70
     1
102
RTVSPropertyOp12
 70
     1
102
RTVSPropertyOp13
 70
     1
102
RTVSPropertyOp14
 70
     1
102
RTVSPropertyOp15
 70
     1
102
RTVSPropertyOp16
 70
     1
102
RTVSPropertyOp17
 70
     1
102
RTVSPropertyOp18
 70
     1
102
RTVSPropertyOp19
 70
     1
102
RTVSPropertyOp20
 70
     1
102
RTVSPropertyOp21
 70
     1
102
RTVSPropertyOp22
 70
     1
102
RTVSPropertyOp23
 70
     1
102
RTVSPropertyOp24
 70
     1
102
RTVSPropertyOp25
 70
     1
102
RTVSPropertyOp26
 70
     1
102
RTVSPropertyOp27
 70
     1
102
RTVSPropertyOp28
 70
     1
102
RTVSPropertyOp29
 70
     1
102
RTVSPropertyOp30
 70
     1
102
RTVSPropertyOp31
 70
     1
102
RTVSPropertyOp32
 70
     1
102
RTVSPropertyOp33
 70
     1
102
RTVSPropertyOp34
 70
     1
102
RTVSPropertyOp35
 70
     1
102
RTVSPropertyOp36
 70
     1
102
RTVSPropertyOp37
 70
     1
102
RTVSPropertyOp38
 70
     1
102
RTVSPropertyOp39
 70
     1
102
RTVSPropertyOp40
 70
     1
102
RTVSPropertyOp41
 70
     1
102
RTVSPropertyOp42
 70
     1
102
RTVSPropertyOp43
 70
     1
102
RTVSPropertyOp44
 70
     1
102
RTVSPropertyOp45
 70
     1
102
RTVSPropertyOp46
 70
     1
102
RTVSPropertyOp47
 70
     1
102
RTVSPropertyOp48
 70
     1
102
RTVSPropertyOp49
 70
     1
102
RTVSPropertyOp50
 70
     1
102
RTVSPropertyOp51
 70
     0
102
RTVSPropertyOp52
 70
     0
102
RTVSPropertyOp53
 70
     1
102
RTVSPropertyOp54
 70
     1
102
RTVSPropertyOp55
 70
     1
102
RTVSPropertyOp56
 70
     1
102
RTVSPropertyOp57
 70
     1
102
RTVSPost2010Prop28
280
     0
102
RTVSPost2010PropOp28
 70
     1
102
RTVSPost2010Prop29
280
     1
102
RTVSPost2010PropOp29
 70
     1
102
RTVSPost2010Prop30
280
     1
102
RTVSPost2010PropOp30
 70
     1
102
RTVSPost2010Prop31
280
     0
102
RTVSPost2010PropOp31
 70
     1
102
RTVSPost2010Prop32
280
     0
102
RTVSPost2010PropOp32
 70
     1
102
RTVSPost2010Prop33
280
     0
102
RTVSPost2010PropOp33
 70
     1
102
RTVSPost2010Prop34
280
     0
102
RTVSPost2010PropOp34
 70
     1
102
RTVSPost2010Prop35
280
     0
102
RTVSPost2010PropOp35
 70
     1
102
RTVSPost2010Prop36
280
     0
102
RTVSPost2010PropOp36
 70
     1
102
RTVSPost2010Prop37
 90
       50
102
RTVSPost2010PropOp37
 70
     1
102
RTVSPost2010Prop38
140
0.0
102
RTVSPost2010PropOp38
 70
     1
102
RTVSPost2010Prop39
140
1.0
102
RTVSPost2010PropOp39
 70
     1
102
RTVSPost2010Prop40
 90
        0
102
RTVSPost2010PropOp40
 70
     1
102
RTVSPost2010Prop41ColorIndex
 90
       18
102
RTVSPost2010Prop41ColorRGB
 90
        0
102
RTVSPost2010PropOp41
 70
     1
102
RTVSPost2010Prop42
 90
       50
102
RTVSPost2010PropOp42
 70
     1
102
RTVSPost2010Prop43
 90
        3
102
RTVSPost2010PropOp43
 70
     1
102
RTVSPost2010Prop44ColorIndex
 90
        5
102
RTVSPost2010Prop44ColorRGB
 90
      255
102
RTVSPost2010PropOp44
 70
     1
102
RTVSPost2010Prop45
280
     0
102
RTVSPost2010PropOp45
 70
     1
102
RTVSPost2010Prop46
 90
       50
102
RTVSPost2010PropOp46
 70
     1
102
RTVSPost2010Prop47
 90
       50
102
RTVSPost2010PropOp47
 70
     1
102
RTVSPost2010Prop48
 90
       50
102
RTVSPost2010PropOp48
 70
     1
102
RTVSPost2010Prop49
280
     0
102
RTVSPost2010PropOp49
 70
     1
102
RTVSPost2010Prop50
 90
       50
102
RTVSPost2010PropOp50
 70
     1
102
RTVSPost2010Prop51ColorIndex
 90
      256
102
RTVSPost2010Prop51ColorRGB
 90
-16777216
102
RTVSPost2010PropOp51
 70
     0
102
RTVSPost2010Prop52
140
1.0
102
RTVSPost2010PropOp52
 70
     0
102
RTVSPost2010Prop53
 90
        2
102
RTVSPost2010PropOp53
 70
     1
102
RTVSPost2010Prop54
  1
strokes_ogs.tif
102
RTVSPost2010PropOp54
 70
     1
102
RTVSPost2010Prop55
280
     0
102
RTVSPost2010PropOp55
 70
     1
102
RTVSPost2010Prop56
140
1.0
102
RTVSPost2010PropOp56
 70
     1
102
RTVSPost2010Prop57
140
1.0
102
RTVSPost2010PropOp57
 70
     1
  0
XRECORD
  5
2ED
102
{ACAD_REACTORS
330
2EC
102
}
330
2EC
100
AcDbXrecord
280
     1
102
RTVSPropertyOp0
 70
     1
102
RTVSPropertyOp1
 70
     1
102
RTVSPropertyOp2
 70
     1
102
RTVSPropertyOp3
 70
     1
102
RTVSPropertyOp4
 70
     1
102
RTVSPropertyOp5
 70
     1
102
RTVSPropertyOp6
 70
     1
102
RTVSPropertyOp7
 70
     1
102
RTVSPropertyOp8
 70
     1
102
RTVSPropertyOp9
 70
     1
102
RTVSPropertyOp10
 70
     1
102
RTVSPropertyOp11
 70
     1
102
RTVSPropertyOp12
 70
     1
102
RTVSPropertyOp13
 70
     1
102
RTVSPropertyOp14
 70
     1
102
RTVSPropertyOp15
 70
     1
102
RTVSPropertyOp16
 70
     1
102
RTVSPropertyOp17
 70
     1
102
RTVSPropertyOp18
 70
     1
102
RTVSPropertyOp19
 70
     1
102
RTVSPropertyOp20
 70
     1
102
RTVSPropertyOp21
 70
     1
102
RTVSPropertyOp22
 70
     1
102
RTVSPropertyOp23
 70
     1
102
RTVSPropertyOp24
 70
     1
102
RTVSPropertyOp25
 70
     1
102
RTVSPropertyOp26
 70
     1
102
RTVSPropertyOp27
 70
     1
102
RTVSPropertyOp28
 70
     1
102
RTVSPropertyOp29
 70
     1
102
RTVSPropertyOp30
 70
     1
102
RTVSPropertyOp31
 70
     1
102
RTVSPropertyOp32
 70
     1
102
RTVSPropertyOp33
 70
     1
102
RTVSPropertyOp34
 70
     1
102
RTVSPropertyOp35
 70
     1
102
RTVSPropertyOp36
 70
     1
102
RTVSPropertyOp37
 70
     1
102
RTVSPropertyOp38
 70
     1
102
RTVSPropertyOp39
 70
     1
102
RTVSPropertyOp40
 70
     1
102
RTVSPropertyOp41
 70
     1
102
RTVSPropertyOp42
 70
     1
102
RTVSPropertyOp43
 70
     1
102
RTVSPropertyOp44
 70
     1
102
RTVSPropertyOp45
 70
     1
102
RTVSPropertyOp46
 70
     1
102
RTVSPropertyOp47
 70
     1
102
RTVSPropertyOp48
 70
     1
102
RTVSPropertyOp49
 70
     1
102
RTVSPropertyOp50
 70
     1
102
RTVSPropertyOp51
 70
     0
102
RTVSPropertyOp52
 70
     0
102
RTVSPropertyOp53
 70
     1
102
RTVSPropertyOp54
 70
     1
102
RTVSPropertyOp55
 70
     1
102
RTVSPropertyOp56
 70
     1
102
RTVSPropertyOp57
 70
     1
102
RTVSPost2010Prop28
280
     0
102
RTVSPost2010PropOp28
 70
     1
102
RTVSPost2010Prop29
280
     1
102
RTVSPost2010PropOp29
 70
     1
102
RTVSPost2010Prop30
280
     1
102
RTVSPost2010PropOp30
 70
     1
102
RTVSPost2010Prop31
280
     0
102
RTVSPost2010PropOp31
 70
     1
102
RTVSPost2010Prop32
280
     0
102
RTVSPost2010PropOp32
 70
     1
102
RTVSPost2010Prop33
280
     0
102
RTVSPost2010PropOp33
 70
     1
102
RTVSPost2010Prop34
280
     0
102
RTVSPost2010PropOp34
 70
     1
102
RTVSPost2010Prop35
280
     0
102
RTVSPost2010PropOp35
 70
     1
102
RTVSPost2010Prop36
280
     0
102
RTVSPost2010PropOp36
 70
     1
102
RTVSPost2010Prop37
 90
       50
102
RTVSPost2010PropOp37
 70
     1
102
RTVSPost2010Prop38
140
0.0
102
RTVSPost2010PropOp38
 70
     1
102
RTVSPost2010Prop39
140
1.0
102
RTVSPost2010PropOp39
 70
     1
102
RTVSPost2010Prop40
 90
        0
102
RTVSPost2010PropOp40
 70
     1
102
RTVSPost2010Prop41ColorIndex
 90
       18
102
RTVSPost2010Prop41ColorRGB
 90
        0
102
RTVSPost2010PropOp41
 70
     1
102
RTVSPost2010Prop42
 90
       50
102
RTVSPost2010PropOp42
 70
     1
102
RTVSPost2010Prop43
 90
        3
102
RTVSPost2010PropOp43
 70
     1
102
RTVSPost2010Prop44ColorIndex
 90
        5
102
RTVSPost2010Prop44ColorRGB
 90
      255
102
RTVSPost2010PropOp44
 70
     1
102
RTVSPost2010Prop45
280
     0
102
RTVSPost2010PropOp45
 70
     1
102
RTVSPost2010Prop46
 90
       50
102
RTVSPost2010PropOp46
 70
     1
102
RTVSPost2010Prop47
 90
       50
102
RTVSPost2010PropOp47
 70
     1
102
RTVSPost2010Prop48
 90
       50
102
RTVSPost2010PropOp48
 70
     1
102
RTVSPost2010Prop49
280
     0
102
RTVSPost2010PropOp49
 70
     1
102
RTVSPost2010Prop50
 90
       50
102
RTVSPost2010PropOp50
 70
     1
102
RTVSPost2010Prop51ColorIndex
 90
      256
102
RTVSPost2010Prop51ColorRGB
 90
-16777216
102
RTVSPost2010PropOp51
 70
     0
102
RTVSPost2010Prop52
140
1.0
102
RTVSPost2010PropOp52
 70
     0
102
RTVSPost2010Prop53
 90
        2
102
RTVSPost2010PropOp53
 70
     1
102
RTVSPost2010Prop54
  1
strokes_ogs.tif
102
RTVSPost2010PropOp54
 70
     1
102
RTVSPost2010Prop55
280
     0
102
RTVSPost2010PropOp55
 70
     1
102
RTVSPost2010Prop56
140
1.0
102
RTVSPost2010PropOp56
 70
     1
102
RTVSPost2010Prop57
140
1.0
102
RTVSPost2010PropOp57
 70
     1
  0
XRECORD
  5
2EF
102
{ACAD_REACTORS
330
2EE
102
}
330
2EE
100
AcDbXrecord
280
     1
102
RTVSPropertyOp0
 70
     1
102
RTVSPropertyOp1
 70
     1
102
RTVSPropertyOp2
 70
     1
102
RTVSPropertyOp3
 70
     1
102
RTVSPropertyOp4
 70
     1
102
RTVSPropertyOp5
 70
     1
102
RTVSPropertyOp6
 70
     1
102
RTVSPropertyOp7
 70
     1
102
RTVSPropertyOp8
 70
     1
102
RTVSPropertyOp9
 70
     1
102
RTVSPropertyOp10
 70
     1
102
RTVSPropertyOp11
 70
     1
102
RTVSPropertyOp12
 70
     1
102
RTVSPropertyOp13
 70
     1
102
RTVSPropertyOp14
 70
     1
102
RTVSPropertyOp15
 70
     1
102
RTVSPropertyOp16
 70
     1
102
RTVSPropertyOp17
 70
     1
102
RTVSPropertyOp18
 70
     1
102
RTVSPropertyOp19
 70
     1
102
RTVSPropertyOp20
 70
     1
102
RTVSPropertyOp21
 70
     1
102
RTVSPropertyOp22
 70
     1
102
RTVSPropertyOp23
 70
     1
102
RTVSPropertyOp24
 70
     1
102
RTVSPropertyOp25
 70
     1
102
RTVSPropertyOp26
 70
     1
102
RTVSPropertyOp27
 70
     1
102
RTVSPropertyOp28
 70
     1
102
RTVSPropertyOp29
 70
     1
102
RTVSPropertyOp30
 70
     1
102
RTVSPropertyOp31
 70
     1
102
RTVSPropertyOp32
 70
     1
102
RTVSPropertyOp33
 70
     1
102
RTVSPropertyOp34
 70
     1
102
RTVSPropertyOp35
 70
     1
102
RTVSPropertyOp36
 70
     1
102
RTVSPropertyOp37
 70
     1
102
RTVSPropertyOp38
 70
     1
102
RTVSPropertyOp39
 70
     1
102
RTVSPropertyOp40
 70
     1
102
RTVSPropertyOp41
 70
     1
102
RTVSPropertyOp42
 70
     1
102
RTVSPropertyOp43
 70
     1
102
RTVSPropertyOp44
 70
     1
102
RTVSPropertyOp45
 70
     1
102
RTVSPropertyOp46
 70
     1
102
RTVSPropertyOp47
 70
     1
102
RTVSPropertyOp48
 70
     1
102
RTVSPropertyOp49
 70
     1
102
RTVSPropertyOp50
 70
     1
102
RTVSPropertyOp51
 70
     0
102
RTVSPropertyOp52
 70
     0
102
RTVSPropertyOp53
 70
     1
102
RTVSPropertyOp54
 70
     1
102
RTVSPropertyOp55
 70
     1
102
RTVSPropertyOp56
 70
     1
102
RTVSPropertyOp57
 70
     1
102
RTVSPost2010Prop28
280
     0
102
RTVSPost2010PropOp28
 70
     1
102
RTVSPost2010Prop29
280
     1
102
RTVSPost2010PropOp29
 70
     1
102
RTVSPost2010Prop30
280
     1
102
RTVSPost2010PropOp30
 70
     1
102
RTVSPost2010Prop31
280
     0
102
RTVSPost2010PropOp31
 70
     1
102
RTVSPost2010Prop32
280
     0
102
RTVSPost2010PropOp32
 70
     1
102
RTVSPost2010Prop33
280
     0
102
RTVSPost2010PropOp33
 70
     1
102
RTVSPost2010Prop34
280
     0
102
RTVSPost2010PropOp34
 70
     1
102
RTVSPost2010Prop35
280
     0
102
RTVSPost2010PropOp35
 70
     1
102
RTVSPost2010Prop36
280
     0
102
RTVSPost2010PropOp36
 70
     1
102
RTVSPost2010Prop37
 90
       50
102
RTVSPost2010PropOp37
 70
     1
102
RTVSPost2010Prop38
140
0.0
102
RTVSPost2010PropOp38
 70
     1
102
RTVSPost2010Prop39
140
1.0
102
RTVSPost2010PropOp39
 70
     1
102
RTVSPost2010Prop40
 90
        0
102
RTVSPost2010PropOp40
 70
     1
102
RTVSPost2010Prop41ColorIndex
 90
       18
102
RTVSPost2010Prop41ColorRGB
 90
        0
102
RTVSPost2010PropOp41
 70
     1
102
RTVSPost2010Prop42
 90
       50
102
RTVSPost2010PropOp42
 70
     1
102
RTVSPost2010Prop43
 90
        3
102
RTVSPost2010PropOp43
 70
     1
102
RTVSPost2010Prop44ColorIndex
 90
        5
102
RTVSPost2010Prop44ColorRGB
 90
      255
102
RTVSPost2010PropOp44
 70
     1
102
RTVSPost2010Prop45
280
     0
102
RTVSPost2010PropOp45
 70
     1
102
RTVSPost2010Prop46
 90
       50
102
RTVSPost2010PropOp46
 70
     1
102
RTVSPost2010Prop47
 90
       50
102
RTVSPost2010PropOp47
 70
     1
102
RTVSPost2010Prop48
 90
       50
102
RTVSPost2010PropOp48
 70
     1
102
RTVSPost2010Prop49
280
     0
102
RTVSPost2010PropOp49
 70
     1
102
RTVSPost2010Prop50
 90
       50
102
RTVSPost2010PropOp50
 70
     1
102
RTVSPost2010Prop51ColorIndex
 90
      256
102
RTVSPost2010Prop51ColorRGB
 90
-16777216
102
RTVSPost2010PropOp51
 70
     0
102
RTVSPost2010Prop52
140
1.0
102
RTVSPost2010PropOp52
 70
     0
102
RTVSPost2010Prop53
 90
        2
102
RTVSPost2010PropOp53
 70
     1
102
RTVSPost2010Prop54
  1
strokes_ogs.tif
102
RTVSPost2010PropOp54
 70
     1
102
RTVSPost2010Prop55
280
     0
102
RTVSPost2010PropOp55
 70
     1
102
RTVSPost2010Prop56
140
1.0
102
RTVSPost2010PropOp56
 70
     1
102
RTVSPost2010Prop57
140
1.0
102
RTVSPost2010PropOp57
 70
     1
  0
XRECORD
  5
2F5
102
{ACAD_REACTORS
330
2F4
102
}
330
2F4
100
AcDbXrecord
280
     1
102
RTVSPropertyOp0
 70
     1
102
RTVSPropertyOp1
 70
     1
102
RTVSPropertyOp2
 70
     1
102
RTVSPropertyOp3
 70
     1
102
RTVSPropertyOp4
 70
     1
102
RTVSPropertyOp5
 70
     1
102
RTVSPropertyOp6
 70
     1
102
RTVSPropertyOp7
 70
     1
102
RTVSPropertyOp8
 70
     1
102
RTVSPropertyOp9
 70
     1
102
RTVSPropertyOp10
 70
     1
102
RTVSPropertyOp11
 70
     1
102
RTVSPropertyOp12
 70
     1
102
RTVSPropertyOp13
 70
     1
102
RTVSPropertyOp14
 70
     1
102
RTVSPropertyOp15
 70
     1
102
RTVSPropertyOp16
 70
     1
102
RTVSPropertyOp17
 70
     1
102
RTVSPropertyOp18
 70
     1
102
RTVSPropertyOp19
 70
     1
102
RTVSPropertyOp20
 70
     1
102
RTVSPropertyOp21
 70
     1
102
RTVSPropertyOp22
 70
     1
102
RTVSPropertyOp23
 70
     1
102
RTVSPropertyOp24
 70
     1
102
RTVSPropertyOp25
 70
     1
102
RTVSPropertyOp26
 70
     1
102
RTVSPropertyOp27
 70
     1
102
RTVSPropertyOp28
 70
     1
102
RTVSPropertyOp29
 70
     1
102
RTVSPropertyOp30
 70
     1
102
RTVSPropertyOp31
 70
     1
102
RTVSPropertyOp32
 70
     1
102
RTVSPropertyOp33
 70
     1
102
RTVSPropertyOp34
 70
     1
102
RTVSPropertyOp35
 70
     1
102
RTVSPropertyOp36
 70
     1
102
RTVSPropertyOp37
 70
     1
102
RTVSPropertyOp38
 70
     1
102
RTVSPropertyOp39
 70
     1
102
RTVSPropertyOp40
 70
     1
102
RTVSPropertyOp41
 70
     1
102
RTVSPropertyOp42
 70
     1
102
RTVSPropertyOp43
 70
     1
102
RTVSPropertyOp44
 70
     1
102
RTVSPropertyOp45
 70
     1
102
RTVSPropertyOp46
 70
     1
102
RTVSPropertyOp47
 70
     1
102
RTVSPropertyOp48
 70
     1
102
RTVSPropertyOp49
 70
     1
102
RTVSPropertyOp50
 70
     1
102
RTVSPropertyOp51
 70
     0
102
RTVSPropertyOp52
 70
     0
102
RTVSPropertyOp53
 70
     1
102
RTVSPropertyOp54
 70
     1
102
RTVSPropertyOp55
 70
     1
102
RTVSPropertyOp56
 70
     1
102
RTVSPropertyOp57
 70
     1
102
RTVSPost2010Prop28
280
     0
102
RTVSPost2010PropOp28
 70
     1
102
RTVSPost2010Prop29
280
     1
102
RTVSPost2010PropOp29
 70
     1
102
RTVSPost2010Prop30
280
     1
102
RTVSPost2010PropOp30
 70
     1
102
RTVSPost2010Prop31
280
     0
102
RTVSPost2010PropOp31
 70
     1
102
RTVSPost2010Prop32
280
     0
102
RTVSPost2010PropOp32
 70
     1
102
RTVSPost2010Prop33
280
     0
102
RTVSPost2010PropOp33
 70
     1
102
RTVSPost2010Prop34
280
     0
102
RTVSPost2010PropOp34
 70
     1
102
RTVSPost2010Prop35
280
     0
102
RTVSPost2010PropOp35
 70
     1
102
RTVSPost2010Prop36
280
     0
102
RTVSPost2010PropOp36
 70
     1
102
RTVSPost2010Prop37
 90
       50
102
RTVSPost2010PropOp37
 70
     1
102
RTVSPost2010Prop38
140
0.0
102
RTVSPost2010PropOp38
 70
     1
102
RTVSPost2010Prop39
140
1.0
102
RTVSPost2010PropOp39
 70
     1
102
RTVSPost2010Prop40
 90
        0
102
RTVSPost2010PropOp40
 70
     1
102
RTVSPost2010Prop41ColorIndex
 90
       18
102
RTVSPost2010Prop41ColorRGB
 90
        0
102
RTVSPost2010PropOp41
 70
     1
102
RTVSPost2010Prop42
 90
       50
102
RTVSPost2010PropOp42
 70
     1
102
RTVSPost2010Prop43
 90
        3
102
RTVSPost2010PropOp43
 70
     1
102
RTVSPost2010Prop44ColorIndex
 90
        5
102
RTVSPost2010Prop44ColorRGB
 90
      255
102
RTVSPost2010PropOp44
 70
     1
102
RTVSPost2010Prop45
280
     0
102
RTVSPost2010PropOp45
 70
     1
102
RTVSPost2010Prop46
 90
       50
102
RTVSPost2010PropOp46
 70
     1
102
RTVSPost2010Prop47
 90
       50
102
RTVSPost2010PropOp47
 70
     1
102
RTVSPost2010Prop48
 90
       50
102
RTVSPost2010PropOp48
 70
     1
102
RTVSPost2010Prop49
280
     0
102
RTVSPost2010PropOp49
 70
     1
102
RTVSPost2010Prop50
 90
       50
102
RTVSPost2010PropOp50
 70
     1
102
RTVSPost2010Prop51ColorIndex
 90
      256
102
RTVSPost2010Prop51ColorRGB
 90
-16777216
102
RTVSPost2010PropOp51
 70
     0
102
RTVSPost2010Prop52
140
1.0
102
RTVSPost2010PropOp52
 70
     0
102
RTVSPost2010Prop53
 90
        2
102
RTVSPost2010PropOp53
 70
     1
102
RTVSPost2010Prop54
  1
strokes_ogs.tif
102
RTVSPost2010PropOp54
 70
     1
102
RTVSPost2010Prop55
280
     0
102
RTVSPost2010PropOp55
 70
     1
102
RTVSPost2010Prop56
140
1.0
102
RTVSPost2010PropOp56
 70
     1
102
RTVSPost2010Prop57
140
1.0
102
RTVSPost2010PropOp57
 70
     1
  0
XRECORD
  5
309
102
{ACAD_REACTORS
330
308
102
}
330
308
100
AcDbXrecord
280
     1
102
RTVSPropertyOp0
 70
     0
102
RTVSPropertyOp1
 70
     0
102
RTVSPropertyOp2
 70
     0
102
RTVSPropertyOp3
 70
     0
102
RTVSPropertyOp4
 70
     0
102
RTVSPropertyOp5
 70
     0
102
RTVSPropertyOp6
 70
     0
102
RTVSPropertyOp7
 70
     0
102
RTVSPropertyOp8
 70
     0
102
RTVSPropertyOp9
 70
     0
102
RTVSPropertyOp10
 70
     0
102
RTVSPropertyOp11
 70
     0
102
RTVSPropertyOp12
 70
     0
102
RTVSPropertyOp13
 70
     0
102
RTVSPropertyOp14
 70
     2
102
RTVSPropertyOp15
 70
     0
102
RTVSPropertyOp16
 70
     0
102
RTVSPropertyOp17
 70
     0
102
RTVSPropertyOp18
 70
     0
102
RTVSPropertyOp19
 70
     0
102
RTVSPropertyOp20
 70
     0
102
RTVSPropertyOp21
 70
     0
102
RTVSPropertyOp22
 70
     0
102
RTVSPropertyOp23
 70
     0
102
RTVSPropertyOp24
 70
     0
102
RTVSPropertyOp25
 70
     0
102
RTVSPropertyOp26
 70
     0
102
RTVSPropertyOp27
 70
     0
102
RTVSPropertyOp28
 70
     0
102
RTVSPropertyOp29
 70
     0
102
RTVSPropertyOp30
 70
     0
102
RTVSPropertyOp31
 70
     0
102
RTVSPropertyOp32
 70
     0
102
RTVSPropertyOp33
 70
     0
102
RTVSPropertyOp34
 70
     0
102
RTVSPropertyOp35
 70
     0
102
RTVSPropertyOp36
 70
     0
102
RTVSPropertyOp37
 70
     0
102
RTVSPropertyOp38
 70
     0
102
RTVSPropertyOp39
 70
     0
102
RTVSPropertyOp40
 70
     0
102
RTVSPropertyOp41
 70
     0
102
RTVSPropertyOp42
 70
     0
102
RTVSPropertyOp43
 70
     0
102
RTVSPropertyOp44
 70
     0
102
RTVSPropertyOp45
 70
     0
102
RTVSPropertyOp46
 70
     0
102
RTVSPropertyOp47
 70
     0
102
RTVSPropertyOp48
 70
     0
102
RTVSPropertyOp49
 70
     0
102
RTVSPropertyOp50
 70
     0
102
RTVSPropertyOp51
 70
     0
102
RTVSPropertyOp52
 70
     0
102
RTVSPropertyOp53
 70
     0
102
RTVSPropertyOp54
 70
     0
102
RTVSPropertyOp55
 70
     0
102
RTVSPropertyOp56
 70
     0
102
RTVSPropertyOp57
 70
     0
102
RTVSPost2010Prop28
280
     0
102
RTVSPost2010PropOp28
 70
     0
102
RTVSPost2010Prop29
280
     1
102
RTVSPost2010PropOp29
 70
     0
102
RTVSPost2010Prop30
280
     1
102
RTVSPost2010PropOp30
 70
     0
102
RTVSPost2010Prop31
280
     0
102
RTVSPost2010PropOp31
 70
     0
102
RTVSPost2010Prop32
280
     0
102
RTVSPost2010PropOp32
 70
     0
102
RTVSPost2010Prop33
280
     0
102
RTVSPost2010PropOp33
 70
     0
102
RTVSPost2010Prop34
280
     0
102
RTVSPost2010PropOp34
 70
     0
102
RTVSPost2010Prop35
280
     0
102
RTVSPost2010PropOp35
 70
     0
102
RTVSPost2010Prop36
280
     0
102
RTVSPost2010PropOp36
 70
     0
102
RTVSPost2010Prop37
 90
       50
102
RTVSPost2010PropOp37
 70
     0
102
RTVSPost2010Prop38
140
0.0
102
RTVSPost2010PropOp38
 70
     0
102
RTVSPost2010Prop39
140
1.0
102
RTVSPost2010PropOp39
 70
     0
102
RTVSPost2010Prop40
 90
        0
102
RTVSPost2010PropOp40
 70
     0
102
RTVSPost2010Prop41ColorIndex
 90
       18
102
RTVSPost2010Prop41ColorRGB
 90
        0
102
RTVSPost2010PropOp41
 70
     0
102
RTVSPost2010Prop42
 90
       50
102
RTVSPost2010PropOp42
 70
     0
102
RTVSPost2010Prop43
 90
        3
102
RTVSPost2010PropOp43
 70
     0
102
RTVSPost2010Prop44ColorIndex
 90
        5
102
RTVSPost2010Prop44ColorRGB
 90
      255
102
RTVSPost2010PropOp44
 70
     0
102
RTVSPost2010Prop45
280
     0
102
RTVSPost2010PropOp45
 70
     0
102
RTVSPost2010Prop46
 90
       50
102
RTVSPost2010PropOp46
 70
     0
102
RTVSPost2010Prop47
 90
       50
102
RTVSPost2010PropOp47
 70
     0
102
RTVSPost2010Prop48
 90
       50
102
RTVSPost2010PropOp48
 70
     0
102
RTVSPost2010Prop49
280
     0
102
RTVSPost2010PropOp49
 70
     0
102
RTVSPost2010Prop50
 90
       50
102
RTVSPost2010PropOp50
 70
     0
102
RTVSPost2010Prop51ColorIndex
 90
      256
102
RTVSPost2010Prop51ColorRGB
 90
-16777216
102
RTVSPost2010PropOp51
 70
     0
102
RTVSPost2010Prop52
140
1.0
102
RTVSPost2010PropOp52
 70
     0
102
RTVSPost2010Prop53
 90
        2
102
RTVSPost2010PropOp53
 70
     0
102
RTVSPost2010Prop54
  1
strokes_ogs.tif
102
RTVSPost2010PropOp54
 70
     0
102
RTVSPost2010Prop55
280
     0
102
RTVSPost2010PropOp55
 70
     0
102
RTVSPost2010Prop56
140
1.0
102
RTVSPost2010PropOp56
 70
     0
102
RTVSPost2010Prop57
140
1.0
102
RTVSPost2010PropOp57
 70
     0
  0
XRECORD
  5
303
102
{ACAD_REACTORS
330
302
102
}
330
302
100
AcDbXrecord
280
     1
102
RTVSPropertyOp0
 70
     1
102
RTVSPropertyOp1
 70
     1
102
RTVSPropertyOp2
 70
     1
102
RTVSPropertyOp3
 70
     1
102
RTVSPropertyOp4
 70
     1
102
RTVSPropertyOp5
 70
     1
102
RTVSPropertyOp6
 70
     1
102
RTVSPropertyOp7
 70
     1
102
RTVSPropertyOp8
 70
     1
102
RTVSPropertyOp9
 70
     1
102
RTVSPropertyOp10
 70
     1
102
RTVSPropertyOp11
 70
     1
102
RTVSPropertyOp12
 70
     1
102
RTVSPropertyOp13
 70
     1
102
RTVSPropertyOp14
 70
     1
102
RTVSPropertyOp15
 70
     1
102
RTVSPropertyOp16
 70
     1
102
RTVSPropertyOp17
 70
     1
102
RTVSPropertyOp18
 70
     1
102
RTVSPropertyOp19
 70
     1
102
RTVSPropertyOp20
 70
     1
102
RTVSPropertyOp21
 70
     1
102
RTVSPropertyOp22
 70
     1
102
RTVSPropertyOp23
 70
     1
102
RTVSPropertyOp24
 70
     1
102
RTVSPropertyOp25
 70
     1
102
RTVSPropertyOp26
 70
     1
102
RTVSPropertyOp27
 70
     1
102
RTVSPropertyOp28
 70
     1
102
RTVSPropertyOp29
 70
     1
102
RTVSPropertyOp30
 70
     1
102
RTVSPropertyOp31
 70
     1
102
RTVSPropertyOp32
 70
     1
102
RTVSPropertyOp33
 70
     1
102
RTVSPropertyOp34
 70
     1
102
RTVSPropertyOp35
 70
     1
102
RTVSPropertyOp36
 70
     1
102
RTVSPropertyOp37
 70
     1
102
RTVSPropertyOp38
 70
     1
102
RTVSPropertyOp39
 70
     1
102
RTVSPropertyOp40
 70
     1
102
RTVSPropertyOp41
 70
     1
102
RTVSPropertyOp42
 70
     1
102
RTVSPropertyOp43
 70
     1
102
RTVSPropertyOp44
 70
     1
102
RTVSPropertyOp45
 70
     1
102
RTVSPropertyOp46
 70
     1
102
RTVSPropertyOp47
 70
     1
102
RTVSPropertyOp48
 70
     1
102
RTVSPropertyOp49
 70
     1
102
RTVSPropertyOp50
 70
     1
102
RTVSPropertyOp51
 70
     0
102
RTVSPropertyOp52
 70
     0
102
RTVSPropertyOp53
 70
     1
102
RTVSPropertyOp54
 70
     1
102
RTVSPropertyOp55
 70
     1
102
RTVSPropertyOp56
 70
     1
102
RTVSPropertyOp57
 70
     1
102
RTVSPost2010Prop28
280
     0
102
RTVSPost2010PropOp28
 70
     1
102
RTVSPost2010Prop29
280
     1
102
RTVSPost2010PropOp29
 70
     1
102
RTVSPost2010Prop30
280
     1
102
RTVSPost2010PropOp30
 70
     1
102
RTVSPost2010Prop31
280
     0
102
RTVSPost2010PropOp31
 70
     1
102
RTVSPost2010Prop32
280
     0
102
RTVSPost2010PropOp32
 70
     1
102
RTVSPost2010Prop33
280
     0
102
RTVSPost2010PropOp33
 70
     1
102
RTVSPost2010Prop34
280
     0
102
RTVSPost2010PropOp34
 70
     1
102
RTVSPost2010Prop35
280
     0
102
RTVSPost2010PropOp35
 70
     1
102
RTVSPost2010Prop36
280
     0
102
RTVSPost2010PropOp36
 70
     1
102
RTVSPost2010Prop37
 90
       50
102
RTVSPost2010PropOp37
 70
     1
102
RTVSPost2010Prop38
140
0.0
102
RTVSPost2010PropOp38
 70
     1
102
RTVSPost2010Prop39
140
1.0
102
RTVSPost2010PropOp39
 70
     1
102
RTVSPost2010Prop40
 90
        0
102
RTVSPost2010PropOp40
 70
     1
102
RTVSPost2010Prop41ColorIndex
 90
       18
102
RTVSPost2010Prop41ColorRGB
 90
        0
102
RTVSPost2010PropOp41
 70
     1
102
RTVSPost2010Prop42
 90
       50
102
RTVSPost2010PropOp42
 70
     1
102
RTVSPost2010Prop43
 90
        3
102
RTVSPost2010PropOp43
 70
     1
102
RTVSPost2010Prop44ColorIndex
 90
        5
102
RTVSPost2010Prop44ColorRGB
 90
      255
102
RTVSPost2010PropOp44
 70
     1
102
RTVSPost2010Prop45
280
     0
102
RTVSPost2010PropOp45
 70
     1
102
RTVSPost2010Prop46
 90
       50
102
RTVSPost2010PropOp46
 70
     1
102
RTVSPost2010Prop47
 90
       50
102
RTVSPost2010PropOp47
 70
     1
102
RTVSPost2010Prop48
 90
       50
102
RTVSPost2010PropOp48
 70
     1
102
RTVSPost2010Prop49
280
     0
102
RTVSPost2010PropOp49
 70
     1
102
RTVSPost2010Prop50
 90
       50
102
RTVSPost2010PropOp50
 70
     1
102
RTVSPost2010Prop51ColorIndex
 90
      256
102
RTVSPost2010Prop51ColorRGB
 90
-16777216
102
RTVSPost2010PropOp51
 70
     0
102
RTVSPost2010Prop52
140
1.0
102
RTVSPost2010PropOp52
 70
     0
102
RTVSPost2010Prop53
 90
        2
102
RTVSPost2010PropOp53
 70
     1
102
RTVSPost2010Prop54
  1
strokes_ogs.tif
102
RTVSPost2010PropOp54
 70
     1
102
RTVSPost2010Prop55
280
     0
102
RTVSPost2010PropOp55
 70
     1
102
RTVSPost2010Prop56
140
1.0
102
RTVSPost2010PropOp56
 70
     1
102
RTVSPost2010Prop57
140
1.0
102
RTVSPost2010PropOp57
 70
     1
  0
XRECORD
  5
30B
102
{ACAD_REACTORS
330
30A
102
}
330
30A
100
AcDbXrecord
280
     1
102
RTVSPropertyOp0
 70
     0
102
RTVSPropertyOp1
 70
     0
102
RTVSPropertyOp2
 70
     0
102
RTVSPropertyOp3
 70
     0
102
RTVSPropertyOp4
 70
     0
102
RTVSPropertyOp5
 70
     0
102
RTVSPropertyOp6
 70
     0
102
RTVSPropertyOp7
 70
     0
102
RTVSPropertyOp8
 70
     0
102
RTVSPropertyOp9
 70
     0
102
RTVSPropertyOp10
 70
     0
102
RTVSPropertyOp11
 70
     0
102
RTVSPropertyOp12
 70
     0
102
RTVSPropertyOp13
 70
     0
102
RTVSPropertyOp14
 70
     2
102
RTVSPropertyOp15
 70
     0
102
RTVSPropertyOp16
 70
     0
102
RTVSPropertyOp17
 70
     0
102
RTVSPropertyOp18
 70
     0
102
RTVSPropertyOp19
 70
     0
102
RTVSPropertyOp20
 70
     0
102
RTVSPropertyOp21
 70
     0
102
RTVSPropertyOp22
 70
     0
102
RTVSPropertyOp23
 70
     0
102
RTVSPropertyOp24
 70
     0
102
RTVSPropertyOp25
 70
     0
102
RTVSPropertyOp26
 70
     0
102
RTVSPropertyOp27
 70
     0
102
RTVSPropertyOp28
 70
     0
102
RTVSPropertyOp29
 70
     0
102
RTVSPropertyOp30
 70
     0
102
RTVSPropertyOp31
 70
     0
102
RTVSPropertyOp32
 70
     0
102
RTVSPropertyOp33
 70
     0
102
RTVSPropertyOp34
 70
     0
102
RTVSPropertyOp35
 70
     0
102
RTVSPropertyOp36
 70
     0
102
RTVSPropertyOp37
 70
     0
102
RTVSPropertyOp38
 70
     0
102
RTVSPropertyOp39
 70
     0
102
RTVSPropertyOp40
 70
     0
102
RTVSPropertyOp41
 70
     0
102
RTVSPropertyOp42
 70
     0
102
RTVSPropertyOp43
 70
     0
102
RTVSPropertyOp44
 70
     0
102
RTVSPropertyOp45
 70
     0
102
RTVSPropertyOp46
 70
     0
102
RTVSPropertyOp47
 70
     0
102
RTVSPropertyOp48
 70
     0
102
RTVSPropertyOp49
 70
     0
102
RTVSPropertyOp50
 70
     0
102
RTVSPropertyOp51
 70
     0
102
RTVSPropertyOp52
 70
     0
102
RTVSPropertyOp53
 70
     0
102
RTVSPropertyOp54
 70
     0
102
RTVSPropertyOp55
 70
     0
102
RTVSPropertyOp56
 70
     0
102
RTVSPropertyOp57
 70
     0
102
RTVSPost2010Prop28
280
     0
102
RTVSPost2010PropOp28
 70
     0
102
RTVSPost2010Prop29
280
     1
102
RTVSPost2010PropOp29
 70
     0
102
RTVSPost2010Prop30
280
     1
102
RTVSPost2010PropOp30
 70
     0
102
RTVSPost2010Prop31
280
     0
102
RTVSPost2010PropOp31
 70
     0
102
RTVSPost2010Prop32
280
     0
102
RTVSPost2010PropOp32
 70
     0
102
RTVSPost2010Prop33
280
     0
102
RTVSPost2010PropOp33
 70
     0
102
RTVSPost2010Prop34
280
     0
102
RTVSPost2010PropOp34
 70
     0
102
RTVSPost2010Prop35
280
     0
102
RTVSPost2010PropOp35
 70
     0
102
RTVSPost2010Prop36
280
     0
102
RTVSPost2010PropOp36
 70
     0
102
RTVSPost2010Prop37
 90
       50
102
RTVSPost2010PropOp37
 70
     0
102
RTVSPost2010Prop38
140
0.0
102
RTVSPost2010PropOp38
 70
     0
102
RTVSPost2010Prop39
140
1.0
102
RTVSPost2010PropOp39
 70
     0
102
RTVSPost2010Prop40
 90
        0
102
RTVSPost2010PropOp40
 70
     0
102
RTVSPost2010Prop41ColorIndex
 90
       18
102
RTVSPost2010Prop41ColorRGB
 90
        0
102
RTVSPost2010PropOp41
 70
     0
102
RTVSPost2010Prop42
 90
       50
102
RTVSPost2010PropOp42
 70
     0
102
RTVSPost2010Prop43
 90
        3
102
RTVSPost2010PropOp43
 70
     0
102
RTVSPost2010Prop44ColorIndex
 90
        5
102
RTVSPost2010Prop44ColorRGB
 90
      255
102
RTVSPost2010PropOp44
 70
     0
102
RTVSPost2010Prop45
280
     0
102
RTVSPost2010PropOp45
 70
     0
102
RTVSPost2010Prop46
 90
       50
102
RTVSPost2010PropOp46
 70
     0
102
RTVSPost2010Prop47
 90
       50
102
RTVSPost2010PropOp47
 70
     0
102
RTVSPost2010Prop48
 90
       50
102
RTVSPost2010PropOp48
 70
     0
102
RTVSPost2010Prop49
280
     0
102
RTVSPost2010PropOp49
 70
     0
102
RTVSPost2010Prop50
 90
       50
102
RTVSPost2010PropOp50
 70
     0
102
RTVSPost2010Prop51ColorIndex
 90
      256
102
RTVSPost2010Prop51ColorRGB
 90
-16777216
102
RTVSPost2010PropOp51
 70
     0
102
RTVSPost2010Prop52
140
1.0
102
RTVSPost2010PropOp52
 70
     0
102
RTVSPost2010Prop53
 90
        2
102
RTVSPost2010PropOp53
 70
     0
102
RTVSPost2010Prop54
  1
strokes_ogs.tif
102
RTVSPost2010PropOp54
 70
     0
102
RTVSPost2010Prop55
280
     0
102
RTVSPost2010PropOp55
 70
     0
102
RTVSPost2010Prop56
140
1.0
102
RTVSPost2010PropOp56
 70
     0
102
RTVSPost2010Prop57
140
1.0
102
RTVSPost2010PropOp57
 70
     0
  0
XRECORD
  5
2F9
102
{ACAD_REACTORS
330
2F8
102
}
330
2F8
100
AcDbXrecord
280
     1
102
RTVSPropertyOp0
 70
     1
102
RTVSPropertyOp1
 70
     1
102
RTVSPropertyOp2
 70
     1
102
RTVSPropertyOp3
 70
     1
102
RTVSPropertyOp4
 70
     1
102
RTVSPropertyOp5
 70
     1
102
RTVSPropertyOp6
 70
     1
102
RTVSPropertyOp7
 70
     1
102
RTVSPropertyOp8
 70
     1
102
RTVSPropertyOp9
 70
     1
102
RTVSPropertyOp10
 70
     1
102
RTVSPropertyOp11
 70
     1
102
RTVSPropertyOp12
 70
     1
102
RTVSPropertyOp13
 70
     1
102
RTVSPropertyOp14
 70
     1
102
RTVSPropertyOp15
 70
     1
102
RTVSPropertyOp16
 70
     1
102
RTVSPropertyOp17
 70
     1
102
RTVSPropertyOp18
 70
     1
102
RTVSPropertyOp19
 70
     1
102
RTVSPropertyOp20
 70
     1
102
RTVSPropertyOp21
 70
     1
102
RTVSPropertyOp22
 70
     1
102
RTVSPropertyOp23
 70
     1
102
RTVSPropertyOp24
 70
     1
102
RTVSPropertyOp25
 70
     1
102
RTVSPropertyOp26
 70
     1
102
RTVSPropertyOp27
 70
     1
102
RTVSPropertyOp28
 70
     1
102
RTVSPropertyOp29
 70
     1
102
RTVSPropertyOp30
 70
     1
102
RTVSPropertyOp31
 70
     1
102
RTVSPropertyOp32
 70
     1
102
RTVSPropertyOp33
 70
     1
102
RTVSPropertyOp34
 70
     1
102
RTVSPropertyOp35
 70
     1
102
RTVSPropertyOp36
 70
     1
102
RTVSPropertyOp37
 70
     1
102
RTVSPropertyOp38
 70
     1
102
RTVSPropertyOp39
 70
     1
102
RTVSPropertyOp40
 70
     1
102
RTVSPropertyOp41
 70
     1
102
RTVSPropertyOp42
 70
     1
102
RTVSPropertyOp43
 70
     1
102
RTVSPropertyOp44
 70
     1
102
RTVSPropertyOp45
 70
     1
102
RTVSPropertyOp46
 70
     1
102
RTVSPropertyOp47
 70
     1
102
RTVSPropertyOp48
 70
     1
102
RTVSPropertyOp49
 70
     1
102
RTVSPropertyOp50
 70
     1
102
RTVSPropertyOp51
 70
     0
102
RTVSPropertyOp52
 70
     0
102
RTVSPropertyOp53
 70
     1
102
RTVSPropertyOp54
 70
     1
102
RTVSPropertyOp55
 70
     1
102
RTVSPropertyOp56
 70
     1
102
RTVSPropertyOp57
 70
     1
102
RTVSPost2010Prop28
280
     0
102
RTVSPost2010PropOp28
 70
     1
102
RTVSPost2010Prop29
280
     1
102
RTVSPost2010PropOp29
 70
     1
102
RTVSPost2010Prop30
280
     1
102
RTVSPost2010PropOp30
 70
     1
102
RTVSPost2010Prop31
280
     0
102
RTVSPost2010PropOp31
 70
     1
102
RTVSPost2010Prop32
280
     0
102
RTVSPost2010PropOp32
 70
     1
102
RTVSPost2010Prop33
280
     0
102
RTVSPost2010PropOp33
 70
     1
102
RTVSPost2010Prop34
280
     0
102
RTVSPost2010PropOp34
 70
     1
102
RTVSPost2010Prop35
280
     0
102
RTVSPost2010PropOp35
 70
     1
102
RTVSPost2010Prop36
280
     0
102
RTVSPost2010PropOp36
 70
     1
102
RTVSPost2010Prop37
 90
       50
102
RTVSPost2010PropOp37
 70
     1
102
RTVSPost2010Prop38
140
0.0
102
RTVSPost2010PropOp38
 70
     1
102
RTVSPost2010Prop39
140
1.0
102
RTVSPost2010PropOp39
 70
     1
102
RTVSPost2010Prop40
 90
        0
102
RTVSPost2010PropOp40
 70
     1
102
RTVSPost2010Prop41ColorIndex
 90
       18
102
RTVSPost2010Prop41ColorRGB
 90
        0
102
RTVSPost2010PropOp41
 70
     1
102
RTVSPost2010Prop42
 90
       50
102
RTVSPost2010PropOp42
 70
     1
102
RTVSPost2010Prop43
 90
        3
102
RTVSPost2010PropOp43
 70
     1
102
RTVSPost2010Prop44ColorIndex
 90
        5
102
RTVSPost2010Prop44ColorRGB
 90
      255
102
RTVSPost2010PropOp44
 70
     1
102
RTVSPost2010Prop45
280
     0
102
RTVSPost2010PropOp45
 70
     1
102
RTVSPost2010Prop46
 90
       50
102
RTVSPost2010PropOp46
 70
     1
102
RTVSPost2010Prop47
 90
       50
102
RTVSPost2010PropOp47
 70
     1
102
RTVSPost2010Prop48
 90
       50
102
RTVSPost2010PropOp48
 70
     1
102
RTVSPost2010Prop49
280
     0
102
RTVSPost2010PropOp49
 70
     1
102
RTVSPost2010Prop50
 90
       50
102
RTVSPost2010PropOp50
 70
     1
102
RTVSPost2010Prop51ColorIndex
 90
      256
102
RTVSPost2010Prop51ColorRGB
 90
-16777216
102
RTVSPost2010PropOp51
 70
     0
102
RTVSPost2010Prop52
140
1.0
102
RTVSPost2010PropOp52
 70
     0
102
RTVSPost2010Prop53
 90
        2
102
RTVSPost2010PropOp53
 70
     1
102
RTVSPost2010Prop54
  1
strokes_ogs.tif
102
RTVSPost2010PropOp54
 70
     1
102
RTVSPost2010Prop55
280
     0
102
RTVSPost2010PropOp55
 70
     1
102
RTVSPost2010Prop56
140
1.0
102
RTVSPost2010PropOp56
 70
     1
102
RTVSPost2010Prop57
140
1.0
102
RTVSPost2010PropOp57
 70
     1
  0
XRECORD
  5
317
102
{ACAD_REACTORS
330
316
102
}
330
316
100
AcDbXrecord
280
     1
102
RTVSPropertyOp0
 70
     1
102
RTVSPropertyOp1
 70
     1
102
RTVSPropertyOp2
 70
     1
102
RTVSPropertyOp3
 70
     1
102
RTVSPropertyOp4
 70
     1
102
RTVSPropertyOp5
 70
     1
102
RTVSPropertyOp6
 70
     1
102
RTVSPropertyOp7
 70
     1
102
RTVSPropertyOp8
 70
     1
102
RTVSPropertyOp9
 70
     1
102
RTVSPropertyOp10
 70
     1
102
RTVSPropertyOp11
 70
     1
102
RTVSPropertyOp12
 70
     1
102
RTVSPropertyOp13
 70
     1
102
RTVSPropertyOp14
 70
     1
102
RTVSPropertyOp15
 70
     1
102
RTVSPropertyOp16
 70
     1
102
RTVSPropertyOp17
 70
     1
102
RTVSPropertyOp18
 70
     1
102
RTVSPropertyOp19
 70
     1
102
RTVSPropertyOp20
 70
     1
102
RTVSPropertyOp21
 70
     1
102
RTVSPropertyOp22
 70
     1
102
RTVSPropertyOp23
 70
     1
102
RTVSPropertyOp24
 70
     1
102
RTVSPropertyOp25
 70
     1
102
RTVSPropertyOp26
 70
     1
102
RTVSPropertyOp27
 70
     1
102
RTVSPropertyOp28
 70
     1
102
RTVSPropertyOp29
 70
     1
102
RTVSPropertyOp30
 70
     1
102
RTVSPropertyOp31
 70
     1
102
RTVSPropertyOp32
 70
     1
102
RTVSPropertyOp33
 70
     1
102
RTVSPropertyOp34
 70
     1
102
RTVSPropertyOp35
 70
     1
102
RTVSPropertyOp36
 70
     1
102
RTVSPropertyOp37
 70
     1
102
RTVSPropertyOp38
 70
     1
102
RTVSPropertyOp39
 70
     1
102
RTVSPropertyOp40
 70
     1
102
RTVSPropertyOp41
 70
     1
102
RTVSPropertyOp42
 70
     1
102
RTVSPropertyOp43
 70
     1
102
RTVSPropertyOp44
 70
     1
102
RTVSPropertyOp45
 70
     1
102
RTVSPropertyOp46
 70
     1
102
RTVSPropertyOp47
 70
     1
102
RTVSPropertyOp48
 70
     1
102
RTVSPropertyOp49
 70
     1
102
RTVSPropertyOp50
 70
     1
102
RTVSPropertyOp51
 70
     0
102
RTVSPropertyOp52
 70
     0
102
RTVSPropertyOp53
 70
     1
102
RTVSPropertyOp54
 70
     1
102
RTVSPropertyOp55
 70
     1
102
RTVSPropertyOp56
 70
     1
102
RTVSPropertyOp57
 70
     1
102
RTVSPost2010Prop28
280
     0
102
RTVSPost2010PropOp28
 70
     1
102
RTVSPost2010Prop29
280
     1
102
RTVSPost2010PropOp29
 70
     1
102
RTVSPost2010Prop30
280
     1
102
RTVSPost2010PropOp30
 70
     1
102
RTVSPost2010Prop31
280
     0
102
RTVSPost2010PropOp31
 70
     1
102
RTVSPost2010Prop32
280
     0
102
RTVSPost2010PropOp32
 70
     1
102
RTVSPost2010Prop33
280
     0
102
RTVSPost2010PropOp33
 70
     1
102
RTVSPost2010Prop34
280
     0
102
RTVSPost2010PropOp34
 70
     1
102
RTVSPost2010Prop35
280
     0
102
RTVSPost2010PropOp35
 70
     1
102
RTVSPost2010Prop36
280
     0
102
RTVSPost2010PropOp36
 70
     1
102
RTVSPost2010Prop37
 90
       50
102
RTVSPost2010PropOp37
 70
     1
102
RTVSPost2010Prop38
140
0.0
102
RTVSPost2010PropOp38
 70
     1
102
RTVSPost2010Prop39
140
1.0
102
RTVSPost2010PropOp39
 70
     1
102
RTVSPost2010Prop40
 90
        0
102
RTVSPost2010PropOp40
 70
     1
102
RTVSPost2010Prop41ColorIndex
 90
       18
102
RTVSPost2010Prop41ColorRGB
 90
        0
102
RTVSPost2010PropOp41
 70
     1
102
RTVSPost2010Prop42
 90
       50
102
RTVSPost2010PropOp42
 70
     1
102
RTVSPost2010Prop43
 90
        3
102
RTVSPost2010PropOp43
 70
     1
102
RTVSPost2010Prop44ColorIndex
 90
        5
102
RTVSPost2010Prop44ColorRGB
 90
      255
102
RTVSPost2010PropOp44
 70
     1
102
RTVSPost2010Prop45
280
     0
102
RTVSPost2010PropOp45
 70
     1
102
RTVSPost2010Prop46
 90
       50
102
RTVSPost2010PropOp46
 70
     1
102
RTVSPost2010Prop47
 90
       50
102
RTVSPost2010PropOp47
 70
     1
102
RTVSPost2010Prop48
 90
       50
102
RTVSPost2010PropOp48
 70
     1
102
RTVSPost2010Prop49
280
     0
102
RTVSPost2010PropOp49
 70
     1
102
RTVSPost2010Prop50
 90
       50
102
RTVSPost2010PropOp50
 70
     1
102
RTVSPost2010Prop51ColorIndex
 90
      256
102
RTVSPost2010Prop51ColorRGB
 90
-16777216
102
RTVSPost2010PropOp51
 70
     0
102
RTVSPost2010Prop52
140
1.0
102
RTVSPost2010PropOp52
 70
     0
102
RTVSPost2010Prop53
 90
        2
102
RTVSPost2010PropOp53
 70
     1
102
RTVSPost2010Prop54
  1
strokes_ogs.tif
102
RTVSPost2010PropOp54
 70
     1
102
RTVSPost2010Prop55
280
     0
102
RTVSPost2010PropOp55
 70
     1
102
RTVSPost2010Prop56
140
1.0
102
RTVSPost2010PropOp56
 70
     1
102
RTVSPost2010Prop57
140
1.0
102
RTVSPost2010PropOp57
 70
     1
  0
XRECORD
  5
315
102
{ACAD_REACTORS
330
314
102
}
330
314
100
AcDbXrecord
280
     1
102
RTVSPropertyOp0
 70
     1
102
RTVSPropertyOp1
 70
     1
102
RTVSPropertyOp2
 70
     1
102
RTVSPropertyOp3
 70
     1
102
RTVSPropertyOp4
 70
     1
102
RTVSPropertyOp5
 70
     1
102
RTVSPropertyOp6
 70
     1
102
RTVSPropertyOp7
 70
     1
102
RTVSPropertyOp8
 70
     1
102
RTVSPropertyOp9
 70
     1
102
RTVSPropertyOp10
 70
     1
102
RTVSPropertyOp11
 70
     1
102
RTVSPropertyOp12
 70
     1
102
RTVSPropertyOp13
 70
     1
102
RTVSPropertyOp14
 70
     1
102
RTVSPropertyOp15
 70
     1
102
RTVSPropertyOp16
 70
     1
102
RTVSPropertyOp17
 70
     1
102
RTVSPropertyOp18
 70
     1
102
RTVSPropertyOp19
 70
     1
102
RTVSPropertyOp20
 70
     1
102
RTVSPropertyOp21
 70
     1
102
RTVSPropertyOp22
 70
     1
102
RTVSPropertyOp23
 70
     1
102
RTVSPropertyOp24
 70
     1
102
RTVSPropertyOp25
 70
     1
102
RTVSPropertyOp26
 70
     1
102
RTVSPropertyOp27
 70
     1
102
RTVSPropertyOp28
 70
     1
102
RTVSPropertyOp29
 70
     1
102
RTVSPropertyOp30
 70
     1
102
RTVSPropertyOp31
 70
     1
102
RTVSPropertyOp32
 70
     1
102
RTVSPropertyOp33
 70
     1
102
RTVSPropertyOp34
 70
     1
102
RTVSPropertyOp35
 70
     1
102
RTVSPropertyOp36
 70
     1
102
RTVSPropertyOp37
 70
     1
102
RTVSPropertyOp38
 70
     1
102
RTVSPropertyOp39
 70
     1
102
RTVSPropertyOp40
 70
     1
102
RTVSPropertyOp41
 70
     1
102
RTVSPropertyOp42
 70
     1
102
RTVSPropertyOp43
 70
     1
102
RTVSPropertyOp44
 70
     1
102
RTVSPropertyOp45
 70
     1
102
RTVSPropertyOp46
 70
     1
102
RTVSPropertyOp47
 70
     1
102
RTVSPropertyOp48
 70
     1
102
RTVSPropertyOp49
 70
     1
102
RTVSPropertyOp50
 70
     1
102
RTVSPropertyOp51
 70
     0
102
RTVSPropertyOp52
 70
     0
102
RTVSPropertyOp53
 70
     1
102
RTVSPropertyOp54
 70
     1
102
RTVSPropertyOp55
 70
     1
102
RTVSPropertyOp56
 70
     1
102
RTVSPropertyOp57
 70
     1
102
RTVSPost2010Prop28
280
     0
102
RTVSPost2010PropOp28
 70
     1
102
RTVSPost2010Prop29
280
     1
102
RTVSPost2010PropOp29
 70
     1
102
RTVSPost2010Prop30
280
     1
102
RTVSPost2010PropOp30
 70
     1
102
RTVSPost2010Prop31
280
     0
102
RTVSPost2010PropOp31
 70
     1
102
RTVSPost2010Prop32
280
     0
102
RTVSPost2010PropOp32
 70
     1
102
RTVSPost2010Prop33
280
     0
102
RTVSPost2010PropOp33
 70
     1
102
RTVSPost2010Prop34
280
     0
102
RTVSPost2010PropOp34
 70
     1
102
RTVSPost2010Prop35
280
     0
102
RTVSPost2010PropOp35
 70
     1
102
RTVSPost2010Prop36
280
     0
102
RTVSPost2010PropOp36
 70
     1
102
RTVSPost2010Prop37
 90
       50
102
RTVSPost2010PropOp37
 70
     1
102
RTVSPost2010Prop38
140
0.0
102
RTVSPost2010PropOp38
 70
     1
102
RTVSPost2010Prop39
140
1.0
102
RTVSPost2010PropOp39
 70
     1
102
RTVSPost2010Prop40
 90
        0
102
RTVSPost2010PropOp40
 70
     1
102
RTVSPost2010Prop41ColorIndex
 90
       18
102
RTVSPost2010Prop41ColorRGB
 90
        0
102
RTVSPost2010PropOp41
 70
     1
102
RTVSPost2010Prop42
 90
       50
102
RTVSPost2010PropOp42
 70
     1
102
RTVSPost2010Prop43
 90
        3
102
RTVSPost2010PropOp43
 70
     1
102
RTVSPost2010Prop44ColorIndex
 90
        5
102
RTVSPost2010Prop44ColorRGB
 90
      255
102
RTVSPost2010PropOp44
 70
     1
102
RTVSPost2010Prop45
280
     0
102
RTVSPost2010PropOp45
 70
     1
102
RTVSPost2010Prop46
 90
       50
102
RTVSPost2010PropOp46
 70
     1
102
RTVSPost2010Prop47
 90
       50
102
RTVSPost2010PropOp47
 70
     1
102
RTVSPost2010Prop48
 90
       50
102
RTVSPost2010PropOp48
 70
     1
102
RTVSPost2010Prop49
280
     0
102
RTVSPost2010PropOp49
 70
     1
102
RTVSPost2010Prop50
 90
       50
102
RTVSPost2010PropOp50
 70
     1
102
RTVSPost2010Prop51ColorIndex
 90
      256
102
RTVSPost2010Prop51ColorRGB
 90
-16777216
102
RTVSPost2010PropOp51
 70
     0
102
RTVSPost2010Prop52
140
1.0
102
RTVSPost2010PropOp52
 70
     0
102
RTVSPost2010Prop53
 90
        2
102
RTVSPost2010PropOp53
 70
     1
102
RTVSPost2010Prop54
  1
strokes_ogs.tif
102
RTVSPost2010PropOp54
 70
     1
102
RTVSPost2010Prop55
280
     0
102
RTVSPost2010PropOp55
 70
     1
102
RTVSPost2010Prop56
140
1.0
102
RTVSPost2010PropOp56
 70
     1
102
RTVSPost2010Prop57
140
1.0
102
RTVSPost2010PropOp57
 70
     1
  0
XRECORD
  5
30F
102
{ACAD_REACTORS
330
30E
102
}
330
30E
100
AcDbXrecord
280
     1
102
RTVSPropertyOp0
 70
     1
102
RTVSPropertyOp1
 70
     1
102
RTVSPropertyOp2
 70
     1
102
RTVSPropertyOp3
 70
     1
102
RTVSPropertyOp4
 70
     1
102
RTVSPropertyOp5
 70
     1
102
RTVSPropertyOp6
 70
     1
102
RTVSPropertyOp7
 70
     1
102
RTVSPropertyOp8
 70
     1
102
RTVSPropertyOp9
 70
     1
102
RTVSPropertyOp10
 70
     1
102
RTVSPropertyOp11
 70
     1
102
RTVSPropertyOp12
 70
     1
102
RTVSPropertyOp13
 70
     1
102
RTVSPropertyOp14
 70
     1
102
RTVSPropertyOp15
 70
     1
102
RTVSPropertyOp16
 70
     1
102
RTVSPropertyOp17
 70
     1
102
RTVSPropertyOp18
 70
     1
102
RTVSPropertyOp19
 70
     1
102
RTVSPropertyOp20
 70
     1
102
RTVSPropertyOp21
 70
     1
102
RTVSPropertyOp22
 70
     1
102
RTVSPropertyOp23
 70
     1
102
RTVSPropertyOp24
 70
     1
102
RTVSPropertyOp25
 70
     1
102
RTVSPropertyOp26
 70
     1
102
RTVSPropertyOp27
 70
     1
102
RTVSPropertyOp28
 70
     1
102
RTVSPropertyOp29
 70
     1
102
RTVSPropertyOp30
 70
     1
102
RTVSPropertyOp31
 70
     1
102
RTVSPropertyOp32
 70
     1
102
RTVSPropertyOp33
 70
     1
102
RTVSPropertyOp34
 70
     1
102
RTVSPropertyOp35
 70
     1
102
RTVSPropertyOp36
 70
     1
102
RTVSPropertyOp37
 70
     1
102
RTVSPropertyOp38
 70
     1
102
RTVSPropertyOp39
 70
     1
102
RTVSPropertyOp40
 70
     1
102
RTVSPropertyOp41
 70
     1
102
RTVSPropertyOp42
 70
     1
102
RTVSPropertyOp43
 70
     1
102
RTVSPropertyOp44
 70
     1
102
RTVSPropertyOp45
 70
     1
102
RTVSPropertyOp46
 70
     1
102
RTVSPropertyOp47
 70
     1
102
RTVSPropertyOp48
 70
     1
102
RTVSPropertyOp49
 70
     1
102
RTVSPropertyOp50
 70
     1
102
RTVSPropertyOp51
 70
     0
102
RTVSPropertyOp52
 70
     0
102
RTVSPropertyOp53
 70
     1
102
RTVSPropertyOp54
 70
     1
102
RTVSPropertyOp55
 70
     1
102
RTVSPropertyOp56
 70
     1
102
RTVSPropertyOp57
 70
     1
102
RTVSPost2010Prop28
280
     0
102
RTVSPost2010PropOp28
 70
     1
102
RTVSPost2010Prop29
280
     1
102
RTVSPost2010PropOp29
 70
     1
102
RTVSPost2010Prop30
280
     1
102
RTVSPost2010PropOp30
 70
     1
102
RTVSPost2010Prop31
280
     0
102
RTVSPost2010PropOp31
 70
     1
102
RTVSPost2010Prop32
280
     0
102
RTVSPost2010PropOp32
 70
     1
102
RTVSPost2010Prop33
280
     0
102
RTVSPost2010PropOp33
 70
     1
102
RTVSPost2010Prop34
280
     0
102
RTVSPost2010PropOp34
 70
     1
102
RTVSPost2010Prop35
280
     0
102
RTVSPost2010PropOp35
 70
     1
102
RTVSPost2010Prop36
280
     0
102
RTVSPost2010PropOp36
 70
     1
102
RTVSPost2010Prop37
 90
       50
102
RTVSPost2010PropOp37
 70
     1
102
RTVSPost2010Prop38
140
0.0
102
RTVSPost2010PropOp38
 70
     1
102
RTVSPost2010Prop39
140
1.0
102
RTVSPost2010PropOp39
 70
     1
102
RTVSPost2010Prop40
 90
        0
102
RTVSPost2010PropOp40
 70
     1
102
RTVSPost2010Prop41ColorIndex
 90
       18
102
RTVSPost2010Prop41ColorRGB
 90
        0
102
RTVSPost2010PropOp41
 70
     1
102
RTVSPost2010Prop42
 90
       50
102
RTVSPost2010PropOp42
 70
     1
102
RTVSPost2010Prop43
 90
        3
102
RTVSPost2010PropOp43
 70
     1
102
RTVSPost2010Prop44ColorIndex
 90
        5
102
RTVSPost2010Prop44ColorRGB
 90
      255
102
RTVSPost2010PropOp44
 70
     1
102
RTVSPost2010Prop45
280
     0
102
RTVSPost2010PropOp45
 70
     1
102
RTVSPost2010Prop46
 90
       50
102
RTVSPost2010PropOp46
 70
     1
102
RTVSPost2010Prop47
 90
       50
102
RTVSPost2010PropOp47
 70
     1
102
RTVSPost2010Prop48
 90
       50
102
RTVSPost2010PropOp48
 70
     1
102
RTVSPost2010Prop49
280
     0
102
RTVSPost2010PropOp49
 70
     1
102
RTVSPost2010Prop50
 90
       50
102
RTVSPost2010PropOp50
 70
     1
102
RTVSPost2010Prop51ColorIndex
 90
      256
102
RTVSPost2010Prop51ColorRGB
 90
-16777216
102
RTVSPost2010PropOp51
 70
     0
102
RTVSPost2010Prop52
140
1.0
102
RTVSPost2010PropOp52
 70
     0
102
RTVSPost2010Prop53
 90
        2
102
RTVSPost2010PropOp53
 70
     1
102
RTVSPost2010Prop54
  1
strokes_ogs.tif
102
RTVSPost2010PropOp54
 70
     1
102
RTVSPost2010Prop55
280
     0
102
RTVSPost2010PropOp55
 70
     1
102
RTVSPost2010Prop56
140
1.0
102
RTVSPost2010PropOp56
 70
     1
102
RTVSPost2010Prop57
140
1.0
102
RTVSPost2010PropOp57
 70
     1
  0
XRECORD
  5
311
102
{ACAD_REACTORS
330
310
102
}
330
310
100
AcDbXrecord
280
     1
102
RTVSPropertyOp0
 70
     1
102
RTVSPropertyOp1
 70
     1
102
RTVSPropertyOp2
 70
     1
102
RTVSPropertyOp3
 70
     1
102
RTVSPropertyOp4
 70
     1
102
RTVSPropertyOp5
 70
     1
102
RTVSPropertyOp6
 70
     1
102
RTVSPropertyOp7
 70
     1
102
RTVSPropertyOp8
 70
     1
102
RTVSPropertyOp9
 70
     1
102
RTVSPropertyOp10
 70
     1
102
RTVSPropertyOp11
 70
     1
102
RTVSPropertyOp12
 70
     1
102
RTVSPropertyOp13
 70
     1
102
RTVSPropertyOp14
 70
     1
102
RTVSPropertyOp15
 70
     1
102
RTVSPropertyOp16
 70
     1
102
RTVSPropertyOp17
 70
     1
102
RTVSPropertyOp18
 70
     1
102
RTVSPropertyOp19
 70
     1
102
RTVSPropertyOp20
 70
     1
102
RTVSPropertyOp21
 70
     1
102
RTVSPropertyOp22
 70
     1
102
RTVSPropertyOp23
 70
     1
102
RTVSPropertyOp24
 70
     1
102
RTVSPropertyOp25
 70
     1
102
RTVSPropertyOp26
 70
     1
102
RTVSPropertyOp27
 70
     1
102
RTVSPropertyOp28
 70
     1
102
RTVSPropertyOp29
 70
     1
102
RTVSPropertyOp30
 70
     1
102
RTVSPropertyOp31
 70
     1
102
RTVSPropertyOp32
 70
     1
102
RTVSPropertyOp33
 70
     1
102
RTVSPropertyOp34
 70
     1
102
RTVSPropertyOp35
 70
     1
102
RTVSPropertyOp36
 70
     1
102
RTVSPropertyOp37
 70
     1
102
RTVSPropertyOp38
 70
     1
102
RTVSPropertyOp39
 70
     1
102
RTVSPropertyOp40
 70
     1
102
RTVSPropertyOp41
 70
     1
102
RTVSPropertyOp42
 70
     1
102
RTVSPropertyOp43
 70
     1
102
RTVSPropertyOp44
 70
     1
102
RTVSPropertyOp45
 70
     1
102
RTVSPropertyOp46
 70
     1
102
RTVSPropertyOp47
 70
     1
102
RTVSPropertyOp48
 70
     1
102
RTVSPropertyOp49
 70
     1
102
RTVSPropertyOp50
 70
     1
102
RTVSPropertyOp51
 70
     0
102
RTVSPropertyOp52
 70
     0
102
RTVSPropertyOp53
 70
     1
102
RTVSPropertyOp54
 70
     1
102
RTVSPropertyOp55
 70
     1
102
RTVSPropertyOp56
 70
     1
102
RTVSPropertyOp57
 70
     1
102
RTVSPost2010Prop28
280
     0
102
RTVSPost2010PropOp28
 70
     1
102
RTVSPost2010Prop29
280
     1
102
RTVSPost2010PropOp29
 70
     1
102
RTVSPost2010Prop30
280
     1
102
RTVSPost2010PropOp30
 70
     1
102
RTVSPost2010Prop31
280
     0
102
RTVSPost2010PropOp31
 70
     1
102
RTVSPost2010Prop32
280
     0
102
RTVSPost2010PropOp32
 70
     1
102
RTVSPost2010Prop33
280
     0
102
RTVSPost2010PropOp33
 70
     1
102
RTVSPost2010Prop34
280
     0
102
RTVSPost2010PropOp34
 70
     1
102
RTVSPost2010Prop35
280
     0
102
RTVSPost2010PropOp35
 70
     1
102
RTVSPost2010Prop36
280
     0
102
RTVSPost2010PropOp36
 70
     1
102
RTVSPost2010Prop37
 90
       50
102
RTVSPost2010PropOp37
 70
     1
102
RTVSPost2010Prop38
140
0.0
102
RTVSPost2010PropOp38
 70
     1
102
RTVSPost2010Prop39
140
1.0
102
RTVSPost2010PropOp39
 70
     1
102
RTVSPost2010Prop40
 90
        0
102
RTVSPost2010PropOp40
 70
     1
102
RTVSPost2010Prop41ColorIndex
 90
       18
102
RTVSPost2010Prop41ColorRGB
 90
        0
102
RTVSPost2010PropOp41
 70
     1
102
RTVSPost2010Prop42
 90
       50
102
RTVSPost2010PropOp42
 70
     1
102
RTVSPost2010Prop43
 90
        3
102
RTVSPost2010PropOp43
 70
     1
102
RTVSPost2010Prop44ColorIndex
 90
        5
102
RTVSPost2010Prop44ColorRGB
 90
      255
102
RTVSPost2010PropOp44
 70
     1
102
RTVSPost2010Prop45
280
     0
102
RTVSPost2010PropOp45
 70
     1
102
RTVSPost2010Prop46
 90
       50
102
RTVSPost2010PropOp46
 70
     1
102
RTVSPost2010Prop47
 90
       50
102
RTVSPost2010PropOp47
 70
     1
102
RTVSPost2010Prop48
 90
       50
102
RTVSPost2010PropOp48
 70
     1
102
RTVSPost2010Prop49
280
     0
102
RTVSPost2010PropOp49
 70
     1
102
RTVSPost2010Prop50
 90
       50
102
RTVSPost2010PropOp50
 70
     1
102
RTVSPost2010Prop51ColorIndex
 90
      256
102
RTVSPost2010Prop51ColorRGB
 90
-16777216
102
RTVSPost2010PropOp51
 70
     0
102
RTVSPost2010Prop52
140
1.0
102
RTVSPost2010PropOp52
 70
     0
102
RTVSPost2010Prop53
 90
        2
102
RTVSPost2010PropOp53
 70
     1
102
RTVSPost2010Prop54
  1
strokes_ogs.tif
102
RTVSPost2010PropOp54
 70
     1
102
RTVSPost2010Prop55
280
     0
102
RTVSPost2010PropOp55
 70
     1
102
RTVSPost2010Prop56
140
1.0
102
RTVSPost2010PropOp56
 70
     1
102
RTVSPost2010Prop57
140
1.0
102
RTVSPost2010PropOp57
 70
     1
  0
XRECORD
  5
301
102
{ACAD_REACTORS
330
300
102
}
330
300
100
AcDbXrecord
280
     1
102
RTVSPropertyOp0
 70
     1
102
RTVSPropertyOp1
 70
     1
102
RTVSPropertyOp2
 70
     1
102
RTVSPropertyOp3
 70
     1
102
RTVSPropertyOp4
 70
     1
102
RTVSPropertyOp5
 70
     1
102
RTVSPropertyOp6
 70
     1
102
RTVSPropertyOp7
 70
     1
102
RTVSPropertyOp8
 70
     1
102
RTVSPropertyOp9
 70
     1
102
RTVSPropertyOp10
 70
     1
102
RTVSPropertyOp11
 70
     1
102
RTVSPropertyOp12
 70
     1
102
RTVSPropertyOp13
 70
     1
102
RTVSPropertyOp14
 70
     1
102
RTVSPropertyOp15
 70
     1
102
RTVSPropertyOp16
 70
     1
102
RTVSPropertyOp17
 70
     1
102
RTVSPropertyOp18
 70
     1
102
RTVSPropertyOp19
 70
     1
102
RTVSPropertyOp20
 70
     1
102
RTVSPropertyOp21
 70
     1
102
RTVSPropertyOp22
 70
     1
102
RTVSPropertyOp23
 70
     1
102
RTVSPropertyOp24
 70
     1
102
RTVSPropertyOp25
 70
     1
102
RTVSPropertyOp26
 70
     1
102
RTVSPropertyOp27
 70
     1
102
RTVSPropertyOp28
 70
     1
102
RTVSPropertyOp29
 70
     1
102
RTVSPropertyOp30
 70
     1
102
RTVSPropertyOp31
 70
     1
102
RTVSPropertyOp32
 70
     1
102
RTVSPropertyOp33
 70
     1
102
RTVSPropertyOp34
 70
     1
102
RTVSPropertyOp35
 70
     1
102
RTVSPropertyOp36
 70
     1
102
RTVSPropertyOp37
 70
     1
102
RTVSPropertyOp38
 70
     1
102
RTVSPropertyOp39
 70
     1
102
RTVSPropertyOp40
 70
     1
102
RTVSPropertyOp41
 70
     1
102
RTVSPropertyOp42
 70
     1
102
RTVSPropertyOp43
 70
     1
102
RTVSPropertyOp44
 70
     1
102
RTVSPropertyOp45
 70
     1
102
RTVSPropertyOp46
 70
     1
102
RTVSPropertyOp47
 70
     1
102
RTVSPropertyOp48
 70
     1
102
RTVSPropertyOp49
 70
     1
102
RTVSPropertyOp50
 70
     1
102
RTVSPropertyOp51
 70
     0
102
RTVSPropertyOp52
 70
     0
102
RTVSPropertyOp53
 70
     1
102
RTVSPropertyOp54
 70
     1
102
RTVSPropertyOp55
 70
     1
102
RTVSPropertyOp56
 70
     1
102
RTVSPropertyOp57
 70
     1
102
RTVSPost2010Prop28
280
     0
102
RTVSPost2010PropOp28
 70
     1
102
RTVSPost2010Prop29
280
     1
102
RTVSPost2010PropOp29
 70
     1
102
RTVSPost2010Prop30
280
     1
102
RTVSPost2010PropOp30
 70
     1
102
RTVSPost2010Prop31
280
     0
102
RTVSPost2010PropOp31
 70
     1
102
RTVSPost2010Prop32
280
     0
102
RTVSPost2010PropOp32
 70
     1
102
RTVSPost2010Prop33
280
     0
102
RTVSPost2010PropOp33
 70
     1
102
RTVSPost2010Prop34
280
     0
102
RTVSPost2010PropOp34
 70
     1
102
RTVSPost2010Prop35
280
     0
102
RTVSPost2010PropOp35
 70
     1
102
RTVSPost2010Prop36
280
     0
102
RTVSPost2010PropOp36
 70
     1
102
RTVSPost2010Prop37
 90
       50
102
RTVSPost2010PropOp37
 70
     1
102
RTVSPost2010Prop38
140
0.0
102
RTVSPost2010PropOp38
 70
     1
102
RTVSPost2010Prop39
140
1.0
102
RTVSPost2010PropOp39
 70
     1
102
RTVSPost2010Prop40
 90
        0
102
RTVSPost2010PropOp40
 70
     1
102
RTVSPost2010Prop41ColorIndex
 90
       18
102
RTVSPost2010Prop41ColorRGB
 90
        0
102
RTVSPost2010PropOp41
 70
     1
102
RTVSPost2010Prop42
 90
       50
102
RTVSPost2010PropOp42
 70
     1
102
RTVSPost2010Prop43
 90
        3
102
RTVSPost2010PropOp43
 70
     1
102
RTVSPost2010Prop44ColorIndex
 90
        5
102
RTVSPost2010Prop44ColorRGB
 90
      255
102
RTVSPost2010PropOp44
 70
     1
102
RTVSPost2010Prop45
280
     0
102
RTVSPost2010PropOp45
 70
     1
102
RTVSPost2010Prop46
 90
       50
102
RTVSPost2010PropOp46
 70
     1
102
RTVSPost2010Prop47
 90
       50
102
RTVSPost2010PropOp47
 70
     1
102
RTVSPost2010Prop48
 90
       50
102
RTVSPost2010PropOp48
 70
     1
102
RTVSPost2010Prop49
280
     0
102
RTVSPost2010PropOp49
 70
     1
102
RTVSPost2010Prop50
 90
       50
102
RTVSPost2010PropOp50
 70
     1
102
RTVSPost2010Prop51ColorIndex
 90
      256
102
RTVSPost2010Prop51ColorRGB
 90
-16777216
102
RTVSPost2010PropOp51
 70
     0
102
RTVSPost2010Prop52
140
1.0
102
RTVSPost2010PropOp52
 70
     0
102
RTVSPost2010Prop53
 90
        2
102
RTVSPost2010PropOp53
 70
     1
102
RTVSPost2010Prop54
  1
strokes_ogs.tif
102
RTVSPost2010PropOp54
 70
     1
102
RTVSPost2010Prop55
280
     0
102
RTVSPost2010PropOp55
 70
     1
102
RTVSPost2010Prop56
140
1.0
102
RTVSPost2010PropOp56
 70
     1
102
RTVSPost2010Prop57
140
1.0
102
RTVSPost2010PropOp57
 70
     1
  0
XRECORD
  5
2F3
102
{ACAD_REACTORS
330
2F2
102
}
330
2F2
100
AcDbXrecord
280
     1
102
RTVSPropertyOp0
 70
     1
102
RTVSPropertyOp1
 70
     1
102
RTVSPropertyOp2
 70
     1
102
RTVSPropertyOp3
 70
     1
102
RTVSPropertyOp4
 70
     1
102
RTVSPropertyOp5
 70
     1
102
RTVSPropertyOp6
 70
     1
102
RTVSPropertyOp7
 70
     1
102
RTVSPropertyOp8
 70
     1
102
RTVSPropertyOp9
 70
     1
102
RTVSPropertyOp10
 70
     1
102
RTVSPropertyOp11
 70
     1
102
RTVSPropertyOp12
 70
     1
102
RTVSPropertyOp13
 70
     1
102
RTVSPropertyOp14
 70
     1
102
RTVSPropertyOp15
 70
     1
102
RTVSPropertyOp16
 70
     1
102
RTVSPropertyOp17
 70
     1
102
RTVSPropertyOp18
 70
     1
102
RTVSPropertyOp19
 70
     1
102
RTVSPropertyOp20
 70
     1
102
RTVSPropertyOp21
 70
     1
102
RTVSPropertyOp22
 70
     1
102
RTVSPropertyOp23
 70
     1
102
RTVSPropertyOp24
 70
     1
102
RTVSPropertyOp25
 70
     1
102
RTVSPropertyOp26
 70
     1
102
RTVSPropertyOp27
 70
     1
102
RTVSPropertyOp28
 70
     1
102
RTVSPropertyOp29
 70
     1
102
RTVSPropertyOp30
 70
     1
102
RTVSPropertyOp31
 70
     1
102
RTVSPropertyOp32
 70
     1
102
RTVSPropertyOp33
 70
     1
102
RTVSPropertyOp34
 70
     1
102
RTVSPropertyOp35
 70
     1
102
RTVSPropertyOp36
 70
     1
102
RTVSPropertyOp37
 70
     1
102
RTVSPropertyOp38
 70
     1
102
RTVSPropertyOp39
 70
     1
102
RTVSPropertyOp40
 70
     1
102
RTVSPropertyOp41
 70
     1
102
RTVSPropertyOp42
 70
     1
102
RTVSPropertyOp43
 70
     1
102
RTVSPropertyOp44
 70
     1
102
RTVSPropertyOp45
 70
     1
102
RTVSPropertyOp46
 70
     1
102
RTVSPropertyOp47
 70
     1
102
RTVSPropertyOp48
 70
     1
102
RTVSPropertyOp49
 70
     1
102
RTVSPropertyOp50
 70
     1
102
RTVSPropertyOp51
 70
     0
102
RTVSPropertyOp52
 70
     0
102
RTVSPropertyOp53
 70
     1
102
RTVSPropertyOp54
 70
     1
102
RTVSPropertyOp55
 70
     1
102
RTVSPropertyOp56
 70
     1
102
RTVSPropertyOp57
 70
     1
102
RTVSPost2010Prop28
280
     0
102
RTVSPost2010PropOp28
 70
     1
102
RTVSPost2010Prop29
280
     1
102
RTVSPost2010PropOp29
 70
     1
102
RTVSPost2010Prop30
280
     1
102
RTVSPost2010PropOp30
 70
     1
102
RTVSPost2010Prop31
280
     0
102
RTVSPost2010PropOp31
 70
     1
102
RTVSPost2010Prop32
280
     0
102
RTVSPost2010PropOp32
 70
     1
102
RTVSPost2010Prop33
280
     0
102
RTVSPost2010PropOp33
 70
     1
102
RTVSPost2010Prop34
280
     0
102
RTVSPost2010PropOp34
 70
     1
102
RTVSPost2010Prop35
280
     0
102
RTVSPost2010PropOp35
 70
     1
102
RTVSPost2010Prop36
280
     0
102
RTVSPost2010PropOp36
 70
     1
102
RTVSPost2010Prop37
 90
       50
102
RTVSPost2010PropOp37
 70
     1
102
RTVSPost2010Prop38
140
0.0
102
RTVSPost2010PropOp38
 70
     1
102
RTVSPost2010Prop39
140
1.0
102
RTVSPost2010PropOp39
 70
     1
102
RTVSPost2010Prop40
 90
        0
102
RTVSPost2010PropOp40
 70
     1
102
RTVSPost2010Prop41ColorIndex
 90
       18
102
RTVSPost2010Prop41ColorRGB
 90
        0
102
RTVSPost2010PropOp41
 70
     1
102
RTVSPost2010Prop42
 90
       50
102
RTVSPost2010PropOp42
 70
     1
102
RTVSPost2010Prop43
 90
        3
102
RTVSPost2010PropOp43
 70
     1
102
RTVSPost2010Prop44ColorIndex
 90
        5
102
RTVSPost2010Prop44ColorRGB
 90
      255
102
RTVSPost2010PropOp44
 70
     1
102
RTVSPost2010Prop45
280
     0
102
RTVSPost2010PropOp45
 70
     1
102
RTVSPost2010Prop46
 90
       50
102
RTVSPost2010PropOp46
 70
     1
102
RTVSPost2010Prop47
 90
       50
102
RTVSPost2010PropOp47
 70
     1
102
RTVSPost2010Prop48
 90
       50
102
RTVSPost2010PropOp48
 70
     1
102
RTVSPost2010Prop49
280
     0
102
RTVSPost2010PropOp49
 70
     1
102
RTVSPost2010Prop50
 90
       50
102
RTVSPost2010PropOp50
 70
     1
102
RTVSPost2010Prop51ColorIndex
 90
      256
102
RTVSPost2010Prop51ColorRGB
 90
-16777216
102
RTVSPost2010PropOp51
 70
     0
102
RTVSPost2010Prop52
140
1.0
102
RTVSPost2010PropOp52
 70
     0
102
RTVSPost2010Prop53
 90
        2
102
RTVSPost2010PropOp53
 70
     1
102
RTVSPost2010Prop54
  1
strokes_ogs.tif
102
RTVSPost2010PropOp54
 70
     1
102
RTVSPost2010Prop55
280
     0
102
RTVSPost2010PropOp55
 70
     1
102
RTVSPost2010Prop56
140
1.0
102
RTVSPost2010PropOp56
 70
     1
102
RTVSPost2010Prop57
140
1.0
102
RTVSPost2010PropOp57
 70
     1
  0
XRECORD
  5
313
102
{ACAD_REACTORS
330
312
102
}
330
312
100
AcDbXrecord
280
     1
102
RTVSPropertyOp0
 70
     1
102
RTVSPropertyOp1
 70
     1
102
RTVSPropertyOp2
 70
     1
102
RTVSPropertyOp3
 70
     1
102
RTVSPropertyOp4
 70
     1
102
RTVSPropertyOp5
 70
     1
102
RTVSPropertyOp6
 70
     1
102
RTVSPropertyOp7
 70
     1
102
RTVSPropertyOp8
 70
     1
102
RTVSPropertyOp9
 70
     1
102
RTVSPropertyOp10
 70
     1
102
RTVSPropertyOp11
 70
     1
102
RTVSPropertyOp12
 70
     1
102
RTVSPropertyOp13
 70
     1
102
RTVSPropertyOp14
 70
     1
102
RTVSPropertyOp15
 70
     1
102
RTVSPropertyOp16
 70
     1
102
RTVSPropertyOp17
 70
     1
102
RTVSPropertyOp18
 70
     1
102
RTVSPropertyOp19
 70
     1
102
RTVSPropertyOp20
 70
     1
102
RTVSPropertyOp21
 70
     1
102
RTVSPropertyOp22
 70
     1
102
RTVSPropertyOp23
 70
     1
102
RTVSPropertyOp24
 70
     1
102
RTVSPropertyOp25
 70
     1
102
RTVSPropertyOp26
 70
     1
102
RTVSPropertyOp27
 70
     1
102
RTVSPropertyOp28
 70
     1
102
RTVSPropertyOp29
 70
     1
102
RTVSPropertyOp30
 70
     1
102
RTVSPropertyOp31
 70
     1
102
RTVSPropertyOp32
 70
     1
102
RTVSPropertyOp33
 70
     1
102
RTVSPropertyOp34
 70
     1
102
RTVSPropertyOp35
 70
     1
102
RTVSPropertyOp36
 70
     1
102
RTVSPropertyOp37
 70
     1
102
RTVSPropertyOp38
 70
     1
102
RTVSPropertyOp39
 70
     1
102
RTVSPropertyOp40
 70
     1
102
RTVSPropertyOp41
 70
     1
102
RTVSPropertyOp42
 70
     1
102
RTVSPropertyOp43
 70
     1
102
RTVSPropertyOp44
 70
     1
102
RTVSPropertyOp45
 70
     1
102
RTVSPropertyOp46
 70
     1
102
RTVSPropertyOp47
 70
     1
102
RTVSPropertyOp48
 70
     1
102
RTVSPropertyOp49
 70
     1
102
RTVSPropertyOp50
 70
     1
102
RTVSPropertyOp51
 70
     0
102
RTVSPropertyOp52
 70
     0
102
RTVSPropertyOp53
 70
     1
102
RTVSPropertyOp54
 70
     1
102
RTVSPropertyOp55
 70
     1
102
RTVSPropertyOp56
 70
     1
102
RTVSPropertyOp57
 70
     1
102
RTVSPost2010Prop28
280
     0
102
RTVSPost2010PropOp28
 70
     1
102
RTVSPost2010Prop29
280
     1
102
RTVSPost2010PropOp29
 70
     1
102
RTVSPost2010Prop30
280
     1
102
RTVSPost2010PropOp30
 70
     1
102
RTVSPost2010Prop31
280
     0
102
RTVSPost2010PropOp31
 70
     1
102
RTVSPost2010Prop32
280
     0
102
RTVSPost2010PropOp32
 70
     1
102
RTVSPost2010Prop33
280
     0
102
RTVSPost2010PropOp33
 70
     1
102
RTVSPost2010Prop34
280
     0
102
RTVSPost2010PropOp34
 70
     1
102
RTVSPost2010Prop35
280
     0
102
RTVSPost2010PropOp35
 70
     1
102
RTVSPost2010Prop36
280
     0
102
RTVSPost2010PropOp36
 70
     1
102
RTVSPost2010Prop37
 90
       50
102
RTVSPost2010PropOp37
 70
     1
102
RTVSPost2010Prop38
140
0.0
102
RTVSPost2010PropOp38
 70
     1
102
RTVSPost2010Prop39
140
1.0
102
RTVSPost2010PropOp39
 70
     1
102
RTVSPost2010Prop40
 90
        0
102
RTVSPost2010PropOp40
 70
     1
102
RTVSPost2010Prop41ColorIndex
 90
       18
102
RTVSPost2010Prop41ColorRGB
 90
        0
102
RTVSPost2010PropOp41
 70
     1
102
RTVSPost2010Prop42
 90
       50
102
RTVSPost2010PropOp42
 70
     1
102
RTVSPost2010Prop43
 90
        3
102
RTVSPost2010PropOp43
 70
     1
102
RTVSPost2010Prop44ColorIndex
 90
        5
102
RTVSPost2010Prop44ColorRGB
 90
      255
102
RTVSPost2010PropOp44
 70
     1
102
RTVSPost2010Prop45
280
     0
102
RTVSPost2010PropOp45
 70
     1
102
RTVSPost2010Prop46
 90
       50
102
RTVSPost2010PropOp46
 70
     1
102
RTVSPost2010Prop47
 90
       50
102
RTVSPost2010PropOp47
 70
     1
102
RTVSPost2010Prop48
 90
       50
102
RTVSPost2010PropOp48
 70
     1
102
RTVSPost2010Prop49
280
     0
102
RTVSPost2010PropOp49
 70
     1
102
RTVSPost2010Prop50
 90
       50
102
RTVSPost2010PropOp50
 70
     1
102
RTVSPost2010Prop51ColorIndex
 90
      256
102
RTVSPost2010Prop51ColorRGB
 90
-16777216
102
RTVSPost2010PropOp51
 70
     0
102
RTVSPost2010Prop52
140
1.0
102
RTVSPost2010PropOp52
 70
     0
102
RTVSPost2010Prop53
 90
        2
102
RTVSPost2010PropOp53
 70
     1
102
RTVSPost2010Prop54
  1
strokes_ogs.tif
102
RTVSPost2010PropOp54
 70
     1
102
RTVSPost2010Prop55
280
     0
102
RTVSPost2010PropOp55
 70
     1
102
RTVSPost2010Prop56
140
1.0
102
RTVSPost2010PropOp56
 70
     1
102
RTVSPost2010Prop57
140
1.0
102
RTVSPost2010PropOp57
 70
     1
  0
ENDSEC
  0
EOF
