  0
SECTION
  2
HEADER
  9
$ACADVER
  1
AC1018
  9
$ACADMAINTVER
 70
     0
  9
$DWGCODEPAGE
  3
ANSI_932
  9
$INSBASE
 10
0.0
 20
0.0
 30
0.0
  9
$EXTMIN
 10
-2100.0
 20
-1485.0
 30
0.0
  9
$EXTMAX
 10
2100.0
 20
1485.0
 30
0.0
  9
$LIMMIN
 10
-2100.0
 20
-1485.0
  9
$LIMMAX
 10
2100.0
 20
1485.0
  9
$ORTHOMODE
 70
     0
  9
$REGENMODE
 70
     1
  9
$FILLMODE
 70
     1
  9
$QTEXTMODE
 70
     0
  9
$MIRRTEXT
 70
     1
  9
$LTSCALE
 40
10.0
  9
$ATTMODE
 70
     1
  9
$TEXTSIZE
 40
2.5
  9
$TRACEWID
 40
1.0
  9
$TEXTSTYLE
  7
Standard
  9
$CLAYER
  8
0
  9
$CELTYPE
  6
ByLayer
  9
$CECOLOR
 62
   256
  9
$CELTSCALE
 40
1.0
  9
$DISPSILH
 70
     0
  9
$DIMSCALE
 40
1.0
  9
$DIMASZ
 40
2.5
  9
$DIMEXO
 40
0.625
  9
$DIMDLI
 40
3.75
  9
$DIMRND
 40
0.0
  9
$DIMDLE
 40
0.0
  9
$DIMEXE
 40
1.25
  9
$DIMTP
 40
0.0
  9
$DIMTM
 40
0.0
  9
$DIMTXT
 40
2.5
  9
$DIMCEN
 40
2.5
  9
$DIMTSZ
 40
0.0
  9
$DIMTOL
 70
     0
  9
$DIMLIM
 70
     0
  9
$DIMTIH
 70
     0
  9
$DIMTOH
 70
     0
  9
$DIMSE1
 70
     0
  9
$DIMSE2
 70
     0
  9
$DIMTAD
 70
     1
  9
$DIMZIN
 70
     8
  9
$DIMBLK
  1

  9
$DIMASO
 70
     1
  9
$DIMSHO
 70
     1
  9
$DIMPOST
  1

  9
$DIMAPOST
  1

  9
$DIMALT
 70
     0
  9
$DIMALTD
 70
     3
  9
$DIMALTF
 40
0.03937007874016
  9
$DIMLFAC
 40
1.0
  9
$DIMTOFL
 70
     1
  9
$DIMTVP
 40
0.0
  9
$DIMTIX
 70
     0
  9
$DIMSOXD
 70
     0
  9
$DIMSAH
 70
     0
  9
$DIMBLK1
  1

  9
$DIMBLK2
  1

  9
$DIMSTYLE
  2
ISO-25
  9
$DIMCLRD
 70
     0
  9
$DIMCLRE
 70
     0
  9
$DIMCLRT
 70
     0
  9
$DIMTFAC
 40
1.0
  9
$DIMGAP
 40
0.625
  9
$DIMJUST
 70
     0
  9
$DIMSD1
 70
     0
  9
$DIMSD2
 70
     0
  9
$DIMTOLJ
 70
     0
  9
$DIMTZIN
 70
     8
  9
$DIMALTZ
 70
     0
  9
$DIMALTTZ
 70
     0
  9
$DIMUPT
 70
     0
  9
$DIMDEC
 70
     2
  9
$DIMTDEC
 70
     2
  9
$DIMALTU
 70
     2
  9
$DIMALTTD
 70
     3
  9
$DIMTXSTY
  7
Standard
  9
$DIMAUNIT
 70
     0
  9
$DIMADEC
 70
     0
  9
$DIMALTRND
 40
0.0
  9
$DIMAZIN
 70
     0
  9
$DIMDSEP
 70
    44
  9
$DIMATFIT
 70
     3
  9
$DIMFRAC
 70
     0
  9
$DIMLDRBLK
  1

  9
$DIMLUNIT
 70
     2
  9
$DIMLWD
 70
    -2
  9
$DIMLWE
 70
    -2
  9
$DIMTMOVE
 70
     0
  9
$LUNITS
 70
     2
  9
$LUPREC
 70
     4
  9
$SKETCHINC
 40
1.0
  9
$FILLETRAD
 40
10.0
  9
$AUNITS
 70
     0
  9
$AUPREC
 70
     0
  9
$MENU
  1
.
  9
$ELEVATION
 40
0.0
  9
$PELEVATION
 40
0.0
  9
$THICKNESS
 40
0.0
  9
$LIMCHECK
 70
     0
  9
$CHAMFERA
 40
10.0
  9
$CHAMFERB
 40
10.0
  9
$CHAMFERC
 40
20.0
  9
$CHAMFERD
 40
0.0
  9
$SKPOLY
 70
     0
  9
$TDCREATE
 40
2457641.426282002
  9
$TDUCREATE
 40
2457641.051282002
  9
$TDUPDATE
 40
2457641.426282014
  9
$TDUUPDATE
 40
2457641.051282014
  9
$TDINDWG
 40
0.0000000116
  9
$TDUSRTIMER
 40
0.0000000116
  9
$USRTIMER
 70
     1
  9
$ANGBASE
 50
0.0
  9
$ANGDIR
 70
     0
  9
$PDMODE
 70
     0
  9
$PDSIZE
 40
0.0
  9
$PLINEWID
 40
0.0
  9
$SPLFRAME
 70
     0
  9
$SPLINETYPE
 70
     6
  9
$SPLINESEGS
 70
     8
  9
$HANDSEED
  5
5DC
  9
$SURFTAB1
 70
     6
  9
$SURFTAB2
 70
     6
  9
$SURFTYPE
 70
     6
  9
$SURFU
 70
     6
  9
$SURFV
 70
     6
  9
$UCSBASE
  2

  9
$UCSNAME
  2

  9
$UCSORG
 10
0.0
 20
0.0
 30
0.0
  9
$UCSXDIR
 10
1.0
 20
0.0
 30
0.0
  9
$UCSYDIR
 10
0.0
 20
1.0
 30
0.0
  9
$UCSORTHOREF
  2

  9
$UCSORTHOVIEW
 70
     0
  9
$UCSORGTOP
 10
0.0
 20
0.0
 30
0.0
  9
$UCSORGBOTTOM
 10
0.0
 20
0.0
 30
0.0
  9
$UCSORGLEFT
 10
0.0
 20
0.0
 30
0.0
  9
$UCSORGRIGHT
 10
0.0
 20
0.0
 30
0.0
  9
$UCSORGFRONT
 10
0.0
 20
0.0
 30
0.0
  9
$UCSORGBACK
 10
0.0
 20
0.0
 30
0.0
  9
$PUCSBASE
  2

  9
$PUCSNAME
  2

  9
$PUCSORG
 10
0.0
 20
0.0
 30
0.0
  9
$PUCSXDIR
 10
1.0
 20
0.0
 30
0.0
  9
$PUCSYDIR
 10
0.0
 20
1.0
 30
0.0
  9
$PUCSORTHOREF
  2

  9
$PUCSORTHOVIEW
 70
     0
  9
$PUCSORGTOP
 10
0.0
 20
0.0
 30
0.0
  9
$PUCSORGBOTTOM
 10
0.0
 20
0.0
 30
0.0
  9
$PUCSORGLEFT
 10
0.0
 20
0.0
 30
0.0
  9
$PUCSORGRIGHT
 10
0.0
 20
0.0
 30
0.0
  9
$PUCSORGFRONT
 10
0.0
 20
0.0
 30
0.0
  9
$PUCSORGBACK
 10
0.0
 20
0.0
 30
0.0
  9
$USERI1
 70
     0
  9
$USERI2
 70
     0
  9
$USERI3
 70
     0
  9
$USERI4
 70
     0
  9
$USERI5
 70
     0
  9
$USERR1
 40
0.0
  9
$USERR2
 40
0.0
  9
$USERR3
 40
0.0
  9
$USERR4
 40
0.0
  9
$USERR5
 40
0.0
  9
$WORLDVIEW
 70
     1
  9
$SHADEDGE
 70
     3
  9
$SHADEDIF
 70
    70
  9
$TILEMODE
 70
     1
  9
$MAXACTVP
 70
    64
  9
$PINSBASE
 10
0.0
 20
0.0
 30
0.0
  9
$PLIMCHECK
 70
     0
  9
$PEXTMIN
 10
1.000000000000000E+20
 20
1.000000000000000E+20
 30
1.000000000000000E+20
  9
$PEXTMAX
 10
-1.000000000000000E+20
 20
-1.000000000000000E+20
 30
-1.000000000000000E+20
  9
$PLIMMIN
 10
0.0
 20
0.0
  9
$PLIMMAX
 10
420.0
 20
297.0
  9
$UNITMODE
 70
     0
  9
$VISRETAIN
 70
     1
  9
$PLINEGEN
 70
     0
  9
$PSLTSCALE
 70
     1
  9
$TREEDEPTH
 70
  3020
  9
$CMLSTYLE
  2
Standard
  9
$CMLJUST
 70
     0
  9
$CMLSCALE
 40
20.0
  9
$PROXYGRAPHICS
 70
     1
  9
$MEASUREMENT
 70
     1
  9
$CELWEIGHT
370
    -1
  9
$ENDCAPS
280
     0
  9
$JOINSTYLE
280
     0
  9
$LWDISPLAY
290
     0
  9
$INSUNITS
 70
     4
  9
$HYPERLINKBASE
  1

  9
$STYLESHEET
  1

  9
$XEDIT
290
     1
  9
$CEPSNTYPE
380
     0
  9
$PSTYLEMODE
290
     1
  9
$FINGERPRINTGUID
  2
{8E6AFD22-57BF-4138-8BBF-DF793CD89010}
  9
$VERSIONGUID
  2
{FAEB1C32-E019-11D5-929B-00C0DF256EC4}
  9
$EXTNAMES
290
     1
  9
$PSVPSCALE
 40
0.0
  9
$OLESTARTUP
290
     0
  9
$SORTENTS
280
   127
  9
$INDEXCTL
280
     0
  9
$HIDETEXT
280
     1
  9
$XCLIPFRAME
290
     0
  9
$HALOGAP
280
     0
  9
$OBSCOLOR
 70
   257
  9
$OBSLTYPE
280
     0
  9
$INTERSECTIONDISPLAY
280
     0
  9
$INTERSECTIONCOLOR
 70
   257
  9
$DIMASSOC
280
     2
  9
$PROJECTNAME
  1

  0
ENDSEC
  0
SECTION
  2
CLASSES
  0
CLASS
  1
ACDBDICTIONARYWDFLT
  2
AcDbDictionaryWithDefault
  3
ObjectDBX Classes
 90
        0
 91
        4
280
     0
281
     0
  0
CLASS
  1
VISUALSTYLE
  2
AcDbVisualStyle
  3
ObjectDBX Classes
 90
     4095
 91
        4
280
     0
281
     0
  0
ENDSEC
  0
SECTION
  2
TABLES
  0
TABLE
  2
VPORT
  5
8
330
0
100
AcDbSymbolTable
 70
     1
  0
VPORT
  5
29
330
8
100
AcDbSymbolTableRecord
100
AcDbViewportTableRecord
  2
*Active
 70
     0
 10
0.0
 20
0.0
 11
1.0
 21
1.0
 12
0.0
 22
0.0
 13
0.0
 23
0.0
 14
10.0
 24
10.0
 15
10.0
 25
10.0
 16
0.0
 26
0.0
 36
1.0
 17
0.0
 27
0.0
 37
0.0
 40
3267.0
 41
1.414141414141414
 42
50.0
 43
0.0
 44
0.0
 50
0.0
 51
0.0
 71
     0
 72
 10000
 73
     1
 74
     3
 75
     0
 76
     0
 77
     0
 78
     0
281
     0
 65
     1
110
0.0
120
0.0
130
0.0
111
1.0
121
0.0
131
0.0
112
0.0
122
1.0
132
0.0
 79
     0
146
0.0
  0
ENDTAB
  0
TABLE
  2
LTYPE
  5
5
330
0
100
AcDbSymbolTable
 70
     4
  0
LTYPE
  5
14
330
5
100
AcDbSymbolTableRecord
100
AcDbLinetypeTableRecord
  2
ByBlock
 70
     0
  3

 72
    65
 73
     0
 40
0.0
  0
LTYPE
  5
15
330
5
100
AcDbSymbolTableRecord
100
AcDbLinetypeTableRecord
  2
ByLayer
 70
     0
  3

 72
    65
 73
     0
 40
0.0
  0
LTYPE
  5
16
330
5
100
AcDbSymbolTableRecord
100
AcDbLinetypeTableRecord
  2
Continuous
 70
     0
  3
Solid line
 72
    65
 73
     0
 40
0.0
  0
LTYPE
  5
3C
330
5
100
AcDbSymbolTableRecord
100
AcDbLinetypeTableRecord
  2
JWW_DASHED3
 70
     0
  3
---  ------  ------  ------  ---
 72
    65
 73
     2
 40
3.386666666666667
 49
2.54
 74
     0
 49
-0.8466666666666667
 74
     0
  0
LTYPE
  5
3D
330
5
100
AcDbSymbolTableRecord
100
AcDbLinetypeTableRecord
  2
JWW_CENTER2
 70
     0
  3
-------------  --  -------------
 72
    65
 73
     4
 40
13.54666666666667
 49
11.00666666666667
 74
     0
 49
-0.8466666666666667
 74
     0
 49
0.8466666666666667
 74
     0
 49
-0.8466666666666667
 74
     0
  0
LTYPE
  5
3E
330
5
100
AcDbSymbolTableRecord
100
AcDbLinetypeTableRecord
  2
JWW_CENTER1
 70
     0
  3
-----  --  ----------  --  -----
 72
    65
 73
     4
 40
6.773333333333333
 49
4.233333333333333
 74
     0
 49
-0.8466666666666667
 74
     0
 49
0.8466666666666667
 74
     0
 49
-0.8466666666666667
 74
     0
  0
ENDTAB
  0
TABLE
  2
LAYER
  5
2
330
0
100
AcDbSymbolTable
 70
    17
  0
LAYER
  5
10
330
2
100
AcDbSymbolTableRecord
100
AcDbLayerTableRecord
  2
0
 70
     0
 62
     7
  6
Continuous
370
    -3
390
F
  0
LAYER
  5
3F
330
2
100
AcDbSymbolTableRecord
100
AcDbLayerTableRecord
  2
0242_
 70
     0
 62
     7
  6
Continuous
370
    -3
390
F
  0
LAYER
  5
40
330
2
100
AcDbSymbolTableRecord
100
AcDbLayerTableRecord
  2
0216_
 70
     0
 62
     7
  6
Continuous
370
    -3
390
F
  0
LAYER
  5
41
330
2
100
AcDbSymbolTableRecord
100
AcDbLayerTableRecord
  2
0220_
 70
     0
 62
     7
  6
Continuous
370
    -3
390
F
  0
LAYER
  5
42
330
2
100
AcDbSymbolTableRecord
100
AcDbLayerTableRecord
  2
0226_下階梁情報
 70
     0
 62
     7
  6
Continuous
370
    -3
390
F
  0
LAYER
  5
43
330
2
100
AcDbSymbolTableRecord
100
AcDbLayerTableRecord
  2
0234_
 70
     0
 62
     7
  6
Continuous
370
    -3
390
F
  0
LAYER
  5
44
330
2
100
AcDbSymbolTableRecord
100
AcDbLayerTableRecord
  2
0227_下階間仕切
 70
     0
 62
     7
  6
Continuous
370
    -3
390
F
  0
LAYER
  5
45
330
2
100
AcDbSymbolTableRecord
100
AcDbLayerTableRecord
  2
0217_
 70
     0
 62
     7
  6
Continuous
370
    -3
390
F
  0
LAYER
  5
46
330
2
100
AcDbSymbolTableRecord
100
AcDbLayerTableRecord
  2
0243_
 70
     0
 62
     7
  6
Continuous
370
    -3
390
F
  0
LAYER
  5
47
330
2
100
AcDbSymbolTableRecord
100
AcDbLayerTableRecord
  2
0218_
 70
     0
 62
     7
  6
Continuous
370
    -3
390
F
  0
LAYER
  5
48
330
2
100
AcDbSymbolTableRecord
100
AcDbLayerTableRecord
  2
0018_躯　寸法（
 70
     0
 62
     7
  6
Continuous
370
    -3
390
F
  0
LAYER
  5
49
330
2
100
AcDbSymbolTableRecord
100
AcDbLayerTableRecord
  2
0013_躯　下り壁
 70
     0
 62
     7
  6
Continuous
370
    -3
390
F
  0
LAYER
  5
4A
330
2
100
AcDbSymbolTableRecord
100
AcDbLayerTableRecord
  2
0255_
 70
     0
 62
     7
  6
Continuous
370
    -3
390
F
  0
LAYER
  5
4B
330
2
100
AcDbSymbolTableRecord
100
AcDbLayerTableRecord
  2
0191_区画線（防
 70
     0
 62
     7
  6
Continuous
370
    -3
390
F
  0
LAYER
  5
4C
330
2
100
AcDbSymbolTableRecord
100
AcDbLayerTableRecord
  2
0239_詳細図（細
 70
     0
 62
     7
  6
Continuous
370
    -3
390
F
  0
LAYER
  5
4D
330
2
100
AcDbSymbolTableRecord
100
AcDbLayerTableRecord
  2
0192_区画線（防
 70
     0
 62
     7
  6
Continuous
370
    -3
390
F
  0
LAYER
  5
4E
330
2
100
AcDbSymbolTableRecord
100
AcDbLayerTableRecord
  2
0193_区画線（異
 70
     0
 62
     7
  6
Continuous
370
    -3
390
F
  0
ENDTAB
  0
TABLE
  2
STYLE
  5
3
330
0
100
AcDbSymbolTable
 70
     2
  0
STYLE
  5
11
330
3
100
AcDbSymbolTableRecord
100
AcDbTextStyleTableRecord
  2
Standard
 70
     0
 40
0.0
 41
1.0
 50
0.0
 71
     0
 42
2.5
  3
txt
  4

1001
ACAD
1000

1071
        0
  0
STYLE
  5
3B
330
3
100
AcDbSymbolTableRecord
100
AcDbTextStyleTableRecord
  2
ＭＳ ゴシック
 70
     0
 40
1.0
 41
1.0
 50
0.0
 71
     0
 42
10.0
  3

  4

1001
ACAD
1000
MS Gothic
1071
    32817
  0
ENDTAB
  0
TABLE
  2
VIEW
  5
6
330
0
100
AcDbSymbolTable
 70
     0
  0
ENDTAB
  0
TABLE
  2
UCS
  5
7
330
0
100
AcDbSymbolTable
 70
     0
  0
ENDTAB
  0
TABLE
  2
APPID
  5
9
330
0
100
AcDbSymbolTable
 70
     1
  0
APPID
  5
12
330
9
100
AcDbSymbolTableRecord
100
AcDbRegAppTableRecord
  2
ACAD
 70
     0
  0
ENDTAB
  0
TABLE
  2
DIMSTYLE
  5
A
330
0
100
AcDbSymbolTable
 70
     1
100
AcDbDimStyleTable
  0
DIMSTYLE
105
27
330
A
100
AcDbSymbolTableRecord
100
AcDbDimStyleTableRecord
  2
ISO-25
 70
     0
 41
2.5
 42
0.625
 43
3.75
 44
1.25
 73
     0
 74
     0
 77
     1
 78
     8
140
2.5
141
2.5
143
0.03937007874016
147
0.625
171
     3
172
     1
271
     2
272
     2
274
     3
278
    44
283
     0
284
     8
340
11
  0
ENDTAB
  0
TABLE
  2
BLOCK_RECORD
  5
1
330
0
100
AcDbSymbolTable
 70
     1
  0
BLOCK_RECORD
  5
1F
330
1
100
AcDbSymbolTableRecord
100
AcDbBlockTableRecord
  2
*Model_Space
340
22
  0
BLOCK_RECORD
  5
1B
330
1
100
AcDbSymbolTableRecord
100
AcDbBlockTableRecord
  2
*Paper_Space
340
1E
  0
BLOCK_RECORD
  5
23
330
1
100
AcDbSymbolTableRecord
100
AcDbBlockTableRecord
  2
*Paper_Space0
340
26
  0
ENDTAB
  0
ENDSEC
  0
SECTION
  2
BLOCKS
  0
BLOCK
  5
20
330
1F
100
AcDbEntity
  8
0
100
AcDbBlockBegin
  2
*Model_Space
 70
     0
 10
0.0
 20
0.0
 30
0.0
  3
*Model_Space
  1

  0
ENDBLK
  5
21
330
1F
100
AcDbEntity
  8
0
100
AcDbBlockEnd
  0
BLOCK
  5
1C
330
1B
100
AcDbEntity
 67
     1
  8
0
100
AcDbBlockBegin
  2
*Paper_Space
 70
     0
 10
0.0
 20
0.0
 30
0.0
  3
*Paper_Space
  1

  0
ENDBLK
  5
1D
330
1B
100
AcDbEntity
 67
     1
  8
0
100
AcDbBlockEnd
  0
BLOCK
  5
24
330
23
100
AcDbEntity
  8
0
100
AcDbBlockBegin
  2
*Paper_Space0
 70
     0
 10
0.0
 20
0.0
 30
0.0
  3
*Paper_Space0
  1

  0
ENDBLK
  5
25
330
23
100
AcDbEntity
  8
0
100
AcDbBlockEnd
  0
ENDSEC
  0
SECTION
  2
ENTITIES
  0
LINE
  5
4F
330
1F
100
AcDbEntity
  8
0242_
  6
Continuous
 62
     2
370
     9
100
AcDbLine
 10
163.7749133319394
 20
-504.7785315654902
 30
0.0
 11
402.1830765972455
 21
-504.7785315654902
 31
0.0
  0
LINE
  5
50
330
1F
100
AcDbEntity
  8
0242_
  6
Continuous
 62
     2
370
     9
100
AcDbLine
 10
163.7749133319394
 20
-559.5540417695718
 30
0.0
 11
163.7749133319394
 21
-504.7785315654902
 31
0.0
  0
LINE
  5
51
330
1F
100
AcDbEntity
  8
0242_
  6
Continuous
 62
     2
370
     9
100
AcDbLine
 10
402.1830765972455
 20
-504.7785315654902
 30
0.0
 11
402.1830765972455
 21
-559.5540417695718
 31
0.0
  0
TEXT
  5
52
330
1F
100
AcDbEntity
  8
0242_
  6
Continuous
 62
     2
370
     9
100
AcDbText
 10
323.7806296381162
 20
-747.9783211182443
 30
0.0
 40
30.48
  1
材質：メインバー　ＳＵＳ３０４　＠１７
 41
1.118421052631579
  7
ＭＳ ゴシック
100
AcDbText
  0
TEXT
  5
53
330
1F
100
AcDbEntity
  8
0242_
  6
Continuous
 62
     2
370
     9
100
AcDbText
 10
459.4279745564294
 20
-804.0264042873624
 30
0.0
 40
30.48
  1
クロスバー　ＳＵＳ３０４　＠８０
 41
1.1171875
  7
ＭＳ ゴシック
100
AcDbText
  0
TEXT
  5
54
330
1F
100
AcDbEntity
  8
0242_
  6
Continuous
 62
     2
370
     9
100
AcDbText
 10
459.4279745564294
 20
-854.8426131981431
 30
0.0
 40
30.48
  1
サイドバー　ＳＵＳ３０４
 41
1.114583333333333
  7
ＭＳ ゴシック
100
AcDbText
  0
LINE
  5
55
330
1F
100
AcDbEntity
  8
0242_
  6
Continuous
 62
     2
370
     9
100
AcDbLine
 10
402.1830765972455
 20
-559.5540417695718
 30
0.0
 11
163.7749133319394
 21
-559.5540417695718
 31
0.0
  0
TEXT
  5
56
330
1F
100
AcDbEntity
  8
0242_
  6
Continuous
 62
     2
370
     9
100
AcDbText
 10
217.9789949645925
 20
-545.3834295246738
 30
0.0
 40
30.48
  1
仕　様
 41
1.083333333333333
  7
ＭＳ ゴシック
100
AcDbText
  0
TEXT
  5
57
330
1F
100
AcDbEntity
  8
0242_
  6
Continuous
 62
     2
370
     9
100
AcDbText
 10
323.7806296381162
 20
-990.4248941627355
 30
0.0
 40
30.48
  1
材質：冷間圧延ステンレス鋼板（ＳＵＳ３０４－２Ｂ）
 41
1.12
  7
ＭＳ ゴシック
100
AcDbText
  0
TEXT
  5
58
330
1F
100
AcDbEntity
  8
0242_
  6
Continuous
 62
     2
370
     9
100
AcDbText
 10
264.0687155756162
 20
-925.4253519264074
 30
0.0
 40
30.48
  1
ステンレス製受枠　ＳＦ１５Ｂ（四方枠）
 41
1.118421052631579
  7
ＭＳ ゴシック
100
AcDbText
  0
LINE
  5
59
330
1F
100
AcDbEntity
  8
0216_
  6
Continuous
 62
     7
370
     9
100
AcDbLine
 10
-884.8539331046438
 20
-256.2147160169943
 30
0.0
 11
-1158.336703163352
 21
-256.2147160169943
 31
0.0
  0
LINE
  5
5A
330
1F
100
AcDbEntity
  8
0216_
  6
Continuous
 62
     7
370
     9
100
AcDbLine
 10
-776.8485325395728
 20
-1059.171675011105
 30
0.0
 11
-1351.848952156272
 21
-1059.171675011105
 31
0.0
  0
LINE
  5
5B
330
1F
100
AcDbEntity
  8
0216_
  6
Continuous
 62
     7
370
     9
100
AcDbLine
 10
-884.8537891924049
 20
-240.7590635416373
 30
0.0
 11
-884.8537891924049
 21
-23.54356962417206
 31
0.0
  0
LINE
  5
5C
330
1F
100
AcDbEntity
  8
0216_
  6
Continuous
 62
     7
370
     9
100
AcDbLine
 10
-1009.853627067771
 20
-240.7590635416373
 30
0.0
 11
-1009.853627067771
 21
-132.2950001356467
 31
0.0
  0
LINE
  5
5D
330
1F
100
AcDbEntity
  8
0216_
  6
Continuous
 62
     7
370
     9
100
AcDbLine
 10
-1009.853627067771
 20
-135.295564710842
 30
0.0
 11
-884.8537891924049
 21
-135.295564710842
 31
0.0
  0
LINE
  5
5E
330
1F
100
AcDbEntity
  8
0216_
  6
Continuous
 62
     7
370
     9
100
AcDbLine
 10
-879.8535185873176
 20
-240.7590635416373
 30
0.0
 11
-879.8535185873176
 21
-23.54356962417206
 31
0.0
  0
LINE
  5
5F
330
1F
100
AcDbEntity
  8
0216_
  6
Continuous
 62
     7
370
     9
100
AcDbLine
 10
-854.8546403467323
 20
-240.7590635416373
 30
0.0
 11
-854.8546403467323
 21
87.1530894639627
 31
0.0
  0
LINE
  5
60
330
1F
100
AcDbEntity
  8
0242_
  6
Continuous
 62
     7
370
     9
100
AcDbLine
 10
-719.8547619402076
 20
-341.2149067518576
 30
0.0
 11
-598.1081646501685
 21
-201.3341637251242
 31
0.0
  0
LINE
  5
61
330
1F
100
AcDbEntity
  8
0242_
  6
Continuous
 62
     7
370
     9
100
AcDbLine
 10
-598.1081646501685
 20
-201.3341637251242
 30
0.0
 11
-211.4046925127174
 21
-201.3341637251242
 31
0.0
  0
LINE
  5
62
330
1F
100
AcDbEntity
  8
0216_
  6
Continuous
 62
     7
370
     9
100
AcDbLine
 10
-1570.000148463894
 20
-135.295564710842
 30
0.0
 11
-1009.853627067771
 21
-135.295564710842
 31
0.0
  0
LINE
  5
63
330
1F
100
AcDbEntity
  8
0216_
  6
Continuous
 62
     7
370
     9
100
AcDbLine
 10
-1570.000148463894
 20
84.15252488876739
 30
0.0
 11
-854.8546403467323
 21
84.15252488876739
 31
0.0
  0
LINE
  5
64
330
1F
100
AcDbEntity
  8
0216_
  6
Continuous
 62
     7
370
     9
100
AcDbLine
 10
-1009.853627067771
 20
-661.8331928846702
 30
0.0
 11
-859.8544162332679
 21
-661.8331928846702
 31
0.0
  0
LINE
  5
65
330
1F
100
AcDbEntity
  8
0220_
  6
Continuous
 62
     6
370
     9
100
AcDbLine
 10
-859.8544162332679
 20
-506.2143917677267
 30
0.0
 11
-859.8544162332679
 21
-756.2140675184593
 31
0.0
  0
LINE
  5
66
330
1F
100
AcDbEntity
  8
0220_
  6
JWW_DASHED3
 62
     6
370
     9
100
AcDbLine
 10
-766.3525265276099
 20
-633.7143726942405
 30
0.0
 11
-766.3525265276099
 21
-506.2143917677267
 31
0.0
  0
LINE
  5
67
330
1F
100
AcDbEntity
  8
0220_
  6
JWW_DASHED3
 62
     6
370
     9
100
AcDbLine
 10
-721.3520687639381
 20
-506.2143917677267
 30
0.0
 11
-721.3520687639381
 21
-633.7143726942405
 31
0.0
  0
LINE
  5
68
330
1F
100
AcDbEntity
  8
0220_
  6
Continuous
 62
     6
370
     9
100
AcDbLine
 10
-609.8537510454322
 20
-406.2149162886008
 30
0.0
 11
-444.8527592241431
 21
-406.2149162886008
 31
0.0
  0
LINE
  5
69
330
1F
100
AcDbEntity
  8
0220_
  6
Continuous
 62
     6
370
     9
100
AcDbLine
 10
-609.8537510454322
 20
-406.2149162886008
 30
0.0
 11
-609.8537510454322
 21
-506.2143917677267
 31
0.0
  0
LINE
  5
6A
330
1F
100
AcDbEntity
  8
0220_
  6
Continuous
 62
     6
370
     9
100
AcDbLine
 10
-859.8544162332679
 20
-506.2143917677267
 30
0.0
 11
-609.8537510454322
 21
-506.2143917677267
 31
0.0
  0
LINE
  5
6B
330
1F
100
AcDbEntity
  8
0220_
  6
Continuous
 62
     6
370
     9
100
AcDbLine
 10
-766.3525265276099
 20
-308.7145872709616
 30
0.0
 11
-721.3520687639381
 21
-308.7145872709616
 31
0.0
  0
LINE
  5
6C
330
1F
100
AcDbEntity
  8
0220_
  6
JWW_CENTER2
 62
     6
370
     9
100
AcDbLine
 10
-743.852297645774
 20
-304.6353932020529
 30
0.0
 11
-743.852297645774
 21
-633.7143726942405
 31
0.0
  0
LINE
  5
6D
330
1F
100
AcDbEntity
  8
0220_
  6
Continuous
 62
     6
370
     9
100
AcDbLine
 10
-766.3525265276099
 20
-341.2143631574972
 30
0.0
 11
-766.3525265276099
 21
-308.7145872709616
 31
0.0
  0
LINE
  5
6E
330
1F
100
AcDbEntity
  8
0220_
  6
Continuous
 62
     6
370
     9
100
AcDbLine
 10
-721.3520687639381
 20
-341.2143631574972
 30
0.0
 11
-721.3520687639381
 21
-308.7145872709616
 31
0.0
  0
LINE
  5
6F
330
1F
100
AcDbEntity
  8
0220_
  6
Continuous
 62
     6
370
     9
100
AcDbLine
 10
-766.3525265276099
 20
-506.2143917677267
 30
0.0
 11
-766.3525265276099
 21
-391.2141056654318
 31
0.0
  0
LINE
  5
70
330
1F
100
AcDbEntity
  8
0220_
  6
Continuous
 62
     6
370
     9
100
AcDbLine
 10
-721.3520687639381
 20
-506.2143917677267
 30
0.0
 11
-721.3520687639381
 21
-391.2141056654318
 31
0.0
  0
LINE
  5
71
330
1F
100
AcDbEntity
  8
0242_
  6
Continuous
 62
     7
370
     9
100
AcDbLine
 10
-861.7966550409461
 20
-256.2147160169943
 30
0.0
 11
-847.9859584390784
 21
-235.37629085754
 31
0.0
  0
LINE
  5
72
330
1F
100
AcDbEntity
  8
0242_
  6
Continuous
 62
     7
370
     9
100
AcDbLine
 10
-861.7966550409461
 20
-256.2147160169943
 30
0.0
 11
-843.0629795610572
 21
-239.6606083509787
 31
0.0
  0
LINE
  5
73
330
1F
100
AcDbEntity
  8
0220_
  6
Continuous
 62
     6
370
     9
100
AcDbLine
 10
-609.8537510454322
 20
-453.5544796583517
 30
0.0
 11
-562.5137013017799
 21
-406.2144203779562
 31
0.0
  0
LINE
  5
74
330
1F
100
AcDbEntity
  8
0220_
  6
Continuous
 62
     6
370
     9
100
AcDbLine
 10
-859.8534267961646
 20
-703.5521717665061
 30
0.0
 11
-662.5141590654517
 21
-506.2143917677267
 31
0.0
  0
LINE
  5
75
330
1F
100
AcDbEntity
  8
0220_
  6
Continuous
 62
     6
370
     9
100
AcDbLine
 10
-859.8534267961646
 20
-717.6928349134788
 30
0.0
 11
-648.3734768449928
 21
-506.2143917677267
 31
0.0
  0
LINE
  5
76
330
1F
100
AcDbEntity
  8
0220_
  6
Continuous
 62
     6
370
     9
100
AcDbLine
 10
-609.8537510454322
 20
-467.6951618788107
 30
0.0
 11
-548.3730000078345
 21
-406.2144203779562
 31
0.0
  0
LINE
  5
77
330
1F
100
AcDbEntity
  8
0220_
  6
Continuous
 62
     6
370
     9
100
AcDbLine
 10
-859.8534267961646
 20
-731.8335362074241
 30
0.0
 11
-634.2327946245338
 21
-506.2143917677267
 31
0.0
  0
LINE
  5
78
330
1F
100
AcDbEntity
  8
0220_
  6
Continuous
 62
     6
370
     9
100
AcDbLine
 10
-609.8537510454322
 20
-481.8358440992697
 30
0.0
 11
-534.2323368608619
 21
-406.2144203779562
 31
0.0
  0
LINE
  5
79
330
1F
100
AcDbEntity
  8
0220_
  6
Continuous
 62
     6
370
     9
100
AcDbLine
 10
-520.6812733232642
 20
-756.2140675184593
 30
0.0
 11
-444.8527592241431
 21
-680.3860493299827
 31
0.0
  0
LINE
  5
7A
330
1F
100
AcDbEntity
  8
0220_
  6
Continuous
 62
     6
370
     9
100
AcDbLine
 10
-534.8219364702369
 20
-756.2140675184593
 30
0.0
 11
-444.8527592241431
 21
-666.2453480360374
 31
0.0
  0
LINE
  5
7B
330
1F
100
AcDbEntity
  8
0220_
  6
Continuous
 62
     6
370
     9
100
AcDbLine
 10
-506.5405720293189
 20
-756.2140675184593
 30
0.0
 11
-444.8527592241431
 21
-694.5267124769554
 31
0.0
  0
LINE
  5
7C
330
1F
100
AcDbEntity
  8
0226_下階梁情報
  6
Continuous
 62
     7
370
     9
100
AcDbLine
 10
-583.0082577287818
 20
-277.1641274092062
 30
0.0
 11
-583.0082577287818
 21
-275.6638475057944
 31
0.0
  0
LINE
  5
7D
330
1F
100
AcDbEntity
  8
0226_下階梁情報
  6
Continuous
 62
     7
370
     9
100
AcDbLine
 10
-583.0082577287818
 20
-275.6638475057944
 30
0.0
 11
-581.508490425315
 21
-275.6638475057944
 31
0.0
  0
LINE
  5
7E
330
1F
100
AcDbEntity
  8
0226_下階梁情報
  6
Continuous
 62
     7
370
     9
100
AcDbLine
 10
-581.508490425315
 20
-275.6638475057944
 30
0.0
 11
-581.508490425315
 21
-277.1641274092062
 31
0.0
  0
LINE
  5
7F
330
1F
100
AcDbEntity
  8
0226_下階梁情報
  6
Continuous
 62
     7
370
     9
100
AcDbLine
 10
-581.508490425315
 20
-277.1641274092062
 30
0.0
 11
-583.0082577287818
 21
-277.1641274092062
 31
0.0
  0
LINE
  5
80
330
1F
100
AcDbEntity
  8
0226_下階梁情報
  6
Continuous
 62
     7
370
     9
100
AcDbLine
 10
-532.2524326860572
 20
-279.8713679907187
 30
0.0
 11
-532.2524326860572
 21
-278.3710880873068
 31
0.0
  0
LINE
  5
81
330
1F
100
AcDbEntity
  8
0226_下階梁情報
  6
Continuous
 62
     7
370
     9
100
AcDbLine
 10
-532.2524326860572
 20
-278.3710880873068
 30
0.0
 11
-530.7521503984595
 21
-278.3710880873068
 31
0.0
  0
LINE
  5
82
330
1F
100
AcDbEntity
  8
0226_下階梁情報
  6
Continuous
 62
     7
370
     9
100
AcDbLine
 10
-530.7521503984595
 20
-278.3710880873068
 30
0.0
 11
-530.7521503984595
 21
-279.8713679907187
 31
0.0
  0
LINE
  5
83
330
1F
100
AcDbEntity
  8
0226_下階梁情報
  6
Continuous
 62
     7
370
     9
100
AcDbLine
 10
-530.7521503984595
 20
-279.8713679907187
 30
0.0
 11
-532.2524326860572
 21
-279.8713679907187
 31
0.0
  0
LINE
  5
84
330
1F
100
AcDbEntity
  8
0226_下階梁情報
  6
Continuous
 62
     7
370
     9
100
AcDbLine
 10
-467.2845905840064
 20
-277.8409381506308
 30
0.0
 11
-467.2845905840064
 21
-276.3406582472189
 31
0.0
  0
LINE
  5
85
330
1F
100
AcDbEntity
  8
0226_下階梁情報
  6
Continuous
 62
     7
370
     9
100
AcDbLine
 10
-467.2845905840064
 20
-276.3406582472189
 30
0.0
 11
-465.7848042070533
 21
-276.3406582472189
 31
0.0
  0
LINE
  5
86
330
1F
100
AcDbEntity
  8
0226_下階梁情報
  6
Continuous
 62
     7
370
     9
100
AcDbLine
 10
-465.7848042070533
 20
-276.3406582472189
 30
0.0
 11
-465.7848042070533
 21
-277.8409381506308
 31
0.0
  0
LINE
  5
87
330
1F
100
AcDbEntity
  8
0226_下階梁情報
  6
Continuous
 62
     7
370
     9
100
AcDbLine
 10
-465.7848042070533
 20
-277.8409381506308
 30
0.0
 11
-467.2845905840064
 21
-277.8409381506308
 31
0.0
  0
LINE
  5
88
330
1F
100
AcDbEntity
  8
0226_下階梁情報
  6
Continuous
 62
     7
370
     9
100
AcDbLine
 10
-491.6478031694556
 20
-310.324861585842
 30
0.0
 11
-491.6478031694556
 21
-308.8245792982443
 31
0.0
  0
LINE
  5
89
330
1F
100
AcDbEntity
  8
0226_下階梁情報
  6
Continuous
 62
     7
370
     9
100
AcDbLine
 10
-491.6478031694556
 20
-308.8245792982443
 30
0.0
 11
-490.147520881858
 21
-308.8245792982443
 31
0.0
  0
LINE
  5
8A
330
1F
100
AcDbEntity
  8
0226_下階梁情報
  6
Continuous
 62
     7
370
     9
100
AcDbLine
 10
-490.147520881858
 20
-308.8245792982443
 30
0.0
 11
-490.147520881858
 21
-310.324861585842
 31
0.0
  0
LINE
  5
8B
330
1F
100
AcDbEntity
  8
0226_下階梁情報
  6
Continuous
 62
     7
370
     9
100
AcDbLine
 10
-490.147520881858
 20
-310.324861585842
 30
0.0
 11
-491.6478031694556
 21
-310.324861585842
 31
0.0
  0
LINE
  5
8C
330
1F
100
AcDbEntity
  8
0226_下階梁情報
  6
Continuous
 62
     7
370
     9
100
AcDbLine
 10
-542.21283612844
 20
-314.2559118864401
 30
0.0
 11
-542.21283612844
 21
-312.7556295988425
 31
0.0
  0
LINE
  5
8D
330
1F
100
AcDbEntity
  8
0226_下階梁情報
  6
Continuous
 62
     7
370
     9
100
AcDbLine
 10
-542.21283612844
 20
-312.7556295988425
 30
0.0
 11
-540.7130878984595
 21
-312.7556295988425
 31
0.0
  0
LINE
  5
8E
330
1F
100
AcDbEntity
  8
0226_下階梁情報
  6
Continuous
 62
     7
370
     9
100
AcDbLine
 10
-540.7130878984595
 20
-312.7556295988425
 30
0.0
 11
-540.7130878984595
 21
-314.2559118864401
 31
0.0
  0
LINE
  5
8F
330
1F
100
AcDbEntity
  8
0226_下階梁情報
  6
Continuous
 62
     7
370
     9
100
AcDbLine
 10
-540.7130878984595
 20
-314.2559118864401
 30
0.0
 11
-542.21283612844
 21
-314.2559118864401
 31
0.0
  0
LINE
  5
90
330
1F
100
AcDbEntity
  8
0226_下階梁情報
  6
Continuous
 62
     7
370
     9
100
AcDbLine
 10
-559.3223637163306
 20
-348.2227726576193
 30
0.0
 11
-559.3223637163306
 21
-346.7224903700217
 31
0.0
  0
LINE
  5
91
330
1F
100
AcDbEntity
  8
0226_下階梁情報
  6
Continuous
 62
     7
370
     9
100
AcDbLine
 10
-559.3223637163306
 20
-346.7224903700217
 30
0.0
 11
-557.8221195757056
 21
-346.7224903700217
 31
0.0
  0
LINE
  5
92
330
1F
100
AcDbEntity
  8
0226_下階梁情報
  6
Continuous
 62
     7
370
     9
100
AcDbLine
 10
-557.8221195757056
 20
-346.7224903700217
 30
0.0
 11
-557.8221195757056
 21
-348.2227726576193
 31
0.0
  0
LINE
  5
93
330
1F
100
AcDbEntity
  8
0226_下階梁情報
  6
Continuous
 62
     7
370
     9
100
AcDbLine
 10
-557.8221195757056
 20
-348.2227726576193
 30
0.0
 11
-559.3223637163306
 21
-348.2227726576193
 31
0.0
  0
LINE
  5
94
330
1F
100
AcDbEntity
  8
0226_下階梁情報
  6
Continuous
 62
     7
370
     9
100
AcDbLine
 10
-590.6786221086646
 20
-333.6510344145163
 30
0.0
 11
-590.6786221086646
 21
-332.1507568952902
 31
0.0
  0
LINE
  5
95
330
1F
100
AcDbEntity
  8
0226_下階梁情報
  6
Continuous
 62
     7
370
     9
100
AcDbLine
 10
-590.6786221086646
 20
-332.1507568952902
 30
0.0
 11
-589.1788357317115
 21
-332.1507568952902
 31
0.0
  0
LINE
  5
96
330
1F
100
AcDbEntity
  8
0226_下階梁情報
  6
Continuous
 62
     7
370
     9
100
AcDbLine
 10
-589.1788357317115
 20
-332.1507568952902
 30
0.0
 11
-589.1788357317115
 21
-333.6510344145163
 31
0.0
  0
LINE
  5
97
330
1F
100
AcDbEntity
  8
0226_下階梁情報
  6
Continuous
 62
     7
370
     9
100
AcDbLine
 10
-589.1788357317115
 20
-333.6510344145163
 30
0.0
 11
-590.6786221086646
 21
-333.6510344145163
 31
0.0
  0
LINE
  5
98
330
1F
100
AcDbEntity
  8
0226_下階梁情報
  6
Continuous
 62
     7
370
     9
100
AcDbLine
 10
-564.0595692217017
 20
-383.4134407636984
 30
0.0
 11
-564.0595692217017
 21
-381.9131584761008
 31
0.0
  0
LINE
  5
99
330
1F
100
AcDbEntity
  8
0226_下階梁情報
  6
Continuous
 62
     7
370
     9
100
AcDbLine
 10
-564.0595692217017
 20
-381.9131584761008
 30
0.0
 11
-562.5592869341041
 21
-381.9131584761008
 31
0.0
  0
LINE
  5
9A
330
1F
100
AcDbEntity
  8
0226_下階梁情報
  6
Continuous
 62
     7
370
     9
100
AcDbLine
 10
-562.5592869341041
 20
-381.9131584761008
 30
0.0
 11
-562.5592869341041
 21
-383.4134407636984
 31
0.0
  0
LINE
  5
9B
330
1F
100
AcDbEntity
  8
0226_下階梁情報
  6
Continuous
 62
     7
370
     9
100
AcDbLine
 10
-562.5592869341041
 20
-383.4134407636984
 30
0.0
 11
-564.0595692217017
 21
-383.4134407636984
 31
0.0
  0
LINE
  5
9C
330
1F
100
AcDbEntity
  8
0226_下階梁情報
  6
Continuous
 62
     7
370
     9
100
AcDbLine
 10
-511.8544834673072
 20
-388.1382294294699
 30
0.0
 11
-511.8544834673072
 21
-386.6379566786154
 31
0.0
  0
LINE
  5
9D
330
1F
100
AcDbEntity
  8
0226_下階梁情報
  6
Continuous
 62
     7
370
     9
100
AcDbLine
 10
-511.8544834673072
 20
-386.6379566786154
 30
0.0
 11
-510.3546970903541
 21
-386.6379566786154
 31
0.0
  0
LINE
  5
9E
330
1F
100
AcDbEntity
  8
0226_下階梁情報
  6
Continuous
 62
     7
370
     9
100
AcDbLine
 10
-510.3546970903541
 20
-386.6379566786154
 30
0.0
 11
-510.3546970903541
 21
-388.1382294294699
 31
0.0
  0
LINE
  5
9F
330
1F
100
AcDbEntity
  8
0226_下階梁情報
  6
Continuous
 62
     7
370
     9
100
AcDbLine
 10
-510.3546970903541
 20
-388.1382294294699
 30
0.0
 11
-511.8544834673072
 21
-388.1382294294699
 31
0.0
  0
LINE
  5
A0
330
1F
100
AcDbEntity
  8
0226_下階梁情報
  6
Continuous
 62
     7
370
     9
100
AcDbLine
 10
-457.1334141313697
 20
-381.3830109236105
 30
0.0
 11
-457.1334141313697
 21
-379.8827286360129
 31
0.0
  0
LINE
  5
A1
330
1F
100
AcDbEntity
  8
0226_下階梁情報
  6
Continuous
 62
     7
370
     9
100
AcDbLine
 10
-457.1334141313697
 20
-379.8827286360129
 30
0.0
 11
-455.6336659013892
 21
-379.8827286360129
 31
0.0
  0
LINE
  5
A2
330
1F
100
AcDbEntity
  8
0226_下階梁情報
  6
Continuous
 62
     7
370
     9
100
AcDbLine
 10
-455.6336659013892
 20
-379.8827286360129
 30
0.0
 11
-455.6336659013892
 21
-381.3830109236105
 31
0.0
  0
LINE
  5
A3
330
1F
100
AcDbEntity
  8
0226_下階梁情報
  6
Continuous
 62
     7
370
     9
100
AcDbLine
 10
-455.6336659013892
 20
-381.3830109236105
 30
0.0
 11
-457.1334141313697
 21
-381.3830109236105
 31
0.0
  0
LINE
  5
A4
330
1F
100
AcDbEntity
  8
0226_下階梁情報
  6
Continuous
 62
     7
370
     9
100
AcDbLine
 10
-469.3150394975806
 20
-341.4551659223898
 30
0.0
 11
-469.3150394975806
 21
-339.9548836347922
 31
0.0
  0
LINE
  5
A5
330
1F
100
AcDbEntity
  8
0226_下階梁情報
  6
Continuous
 62
     7
370
     9
100
AcDbLine
 10
-469.3150394975806
 20
-339.9548836347922
 30
0.0
 11
-467.814757209983
 21
-339.9548836347922
 31
0.0
  0
LINE
  5
A6
330
1F
100
AcDbEntity
  8
0226_下階梁情報
  6
Continuous
 62
     7
370
     9
100
AcDbLine
 10
-467.814757209983
 20
-339.9548836347922
 30
0.0
 11
-467.814757209983
 21
-341.4551659223898
 31
0.0
  0
LINE
  5
A7
330
1F
100
AcDbEntity
  8
0226_下階梁情報
  6
Continuous
 62
     7
370
     9
100
AcDbLine
 10
-467.814757209983
 20
-341.4551659223898
 30
0.0
 11
-469.3150394975806
 21
-341.4551659223898
 31
0.0
  0
LINE
  5
A8
330
1F
100
AcDbEntity
  8
0226_下階梁情報
  6
Continuous
 62
     7
370
     9
100
AcDbLine
 10
-510.3437870561744
 20
-350.5727787611349
 30
0.0
 11
-510.3437870561744
 21
-349.0724964735373
 31
0.0
  0
LINE
  5
A9
330
1F
100
AcDbEntity
  8
0226_下階梁情報
  6
Continuous
 62
     7
370
     9
100
AcDbLine
 10
-510.3437870561744
 20
-349.0724964735373
 30
0.0
 11
-508.8440388261939
 21
-349.0724964735373
 31
0.0
  0
LINE
  5
AA
330
1F
100
AcDbEntity
  8
0226_下階梁情報
  6
Continuous
 62
     7
370
     9
100
AcDbLine
 10
-508.8440388261939
 20
-349.0724964735373
 30
0.0
 11
-508.8440388261939
 21
-350.5727787611349
 31
0.0
  0
LINE
  5
AB
330
1F
100
AcDbEntity
  8
0226_下階梁情報
  6
Continuous
 62
     7
370
     9
100
AcDbLine
 10
-508.8440388261939
 20
-350.5727787611349
 30
0.0
 11
-510.3437870561744
 21
-350.5727787611349
 31
0.0
  0
LINE
  5
AC
330
1F
100
AcDbEntity
  8
0226_下階梁情報
  6
Continuous
 62
     7
370
     9
100
AcDbLine
 10
-449.8589771806861
 20
-311.0844154951437
 30
0.0
 11
-449.8589771806861
 21
-309.5841332075461
 31
0.0
  0
LINE
  5
AD
330
1F
100
AcDbEntity
  8
0226_下階梁情報
  6
Continuous
 62
     7
370
     9
100
AcDbLine
 10
-449.8589771806861
 20
-309.5841332075461
 30
0.0
 11
-448.3586948930885
 21
-309.5841332075461
 31
0.0
  0
LINE
  5
AE
330
1F
100
AcDbEntity
  8
0226_下階梁情報
  6
Continuous
 62
     7
370
     9
100
AcDbLine
 10
-448.3586948930885
 20
-309.5841332075461
 30
0.0
 11
-448.3586948930885
 21
-311.0844154951437
 31
0.0
  0
LINE
  5
AF
330
1F
100
AcDbEntity
  8
0226_下階梁情報
  6
Continuous
 62
     7
370
     9
100
AcDbLine
 10
-448.3586948930885
 20
-311.0844154951437
 30
0.0
 11
-449.8589771806861
 21
-311.0844154951437
 31
0.0
  0
LINE
  5
B0
330
1F
100
AcDbEntity
  8
0226_下階梁情報
  6
Continuous
 62
     7
370
     9
100
AcDbLine
 10
-687.2093075334693
 20
-423.4418697950705
 30
0.0
 11
-687.2093075334693
 21
-421.9415875074728
 31
0.0
  0
LINE
  5
B1
330
1F
100
AcDbEntity
  8
0226_下階梁情報
  6
Continuous
 62
     7
370
     9
100
AcDbLine
 10
-687.2093075334693
 20
-421.9415875074728
 30
0.0
 11
-685.7090252458717
 21
-421.9415875074728
 31
0.0
  0
LINE
  5
B2
330
1F
100
AcDbEntity
  8
0226_下階梁情報
  6
Continuous
 62
     7
370
     9
100
AcDbLine
 10
-685.7090252458717
 20
-421.9415875074728
 30
0.0
 11
-685.7090252458717
 21
-423.4418697950705
 31
0.0
  0
LINE
  5
B3
330
1F
100
AcDbEntity
  8
0226_下階梁情報
  6
Continuous
 62
     7
370
     9
100
AcDbLine
 10
-685.7090252458717
 20
-423.4418697950705
 30
0.0
 11
-687.2093075334693
 21
-423.4418697950705
 31
0.0
  0
LINE
  5
B4
330
1F
100
AcDbEntity
  8
0226_下階梁情報
  6
Continuous
 62
     7
370
     9
100
AcDbLine
 10
-637.8447598039771
 20
-431.3401432630881
 30
0.0
 11
-637.8447598039771
 21
-429.8398609754904
 31
0.0
  0
LINE
  5
B5
330
1F
100
AcDbEntity
  8
0226_下階梁情報
  6
Continuous
 62
     7
370
     9
100
AcDbLine
 10
-637.8447598039771
 20
-429.8398609754904
 30
0.0
 11
-636.3444965898658
 21
-429.8398609754904
 31
0.0
  0
LINE
  5
B6
330
1F
100
AcDbEntity
  8
0226_下階梁情報
  6
Continuous
 62
     7
370
     9
100
AcDbLine
 10
-636.3444965898658
 20
-429.8398609754904
 30
0.0
 11
-636.3444965898658
 21
-431.3401432630881
 31
0.0
  0
LINE
  5
B7
330
1F
100
AcDbEntity
  8
0226_下階梁情報
  6
Continuous
 62
     7
370
     9
100
AcDbLine
 10
-636.3444965898658
 20
-431.3401432630881
 30
0.0
 11
-637.8447598039771
 21
-431.3401432630881
 31
0.0
  0
LINE
  5
B8
330
1F
100
AcDbEntity
  8
0226_下階梁情報
  6
Continuous
 62
     7
370
     9
100
AcDbLine
 10
-654.7258823930885
 20
-451.9209118482931
 30
0.0
 11
-654.7258823930885
 21
-450.4206486341818
 31
0.0
  0
LINE
  5
B9
330
1F
100
AcDbEntity
  8
0226_下階梁情報
  6
Continuous
 62
     7
370
     9
100
AcDbLine
 10
-654.7258823930885
 20
-450.4206486341818
 30
0.0
 11
-653.2260960161353
 21
-450.4206486341818
 31
0.0
  0
LINE
  5
BA
330
1F
100
AcDbEntity
  8
0226_下階梁情報
  6
Continuous
 62
     7
370
     9
100
AcDbLine
 10
-653.2260960161353
 20
-450.4206486341818
 30
0.0
 11
-653.2260960161353
 21
-451.9209118482931
 31
0.0
  0
LINE
  5
BB
330
1F
100
AcDbEntity
  8
0226_下階梁情報
  6
Continuous
 62
     7
370
     9
100
AcDbLine
 10
-653.2260960161353
 20
-451.9209118482931
 30
0.0
 11
-654.7258823930885
 21
-451.9209118482931
 31
0.0
  0
LINE
  5
BC
330
1F
100
AcDbEntity
  8
0226_下階梁情報
  6
Continuous
 62
     7
370
     9
100
AcDbLine
 10
-703.0058544695045
 20
-486.6290112135275
 30
0.0
 11
-703.0058544695045
 21
-485.1287289259299
 31
0.0
  0
LINE
  5
BD
330
1F
100
AcDbEntity
  8
0226_下階梁情報
  6
Continuous
 62
     7
370
     9
100
AcDbLine
 10
-703.0058544695045
 20
-485.1287289259299
 30
0.0
 11
-701.5060680925513
 21
-485.1287289259299
 31
0.0
  0
LINE
  5
BE
330
1F
100
AcDbEntity
  8
0226_下階梁情報
  6
Continuous
 62
     7
370
     9
100
AcDbLine
 10
-701.5060680925513
 20
-485.1287289259299
 30
0.0
 11
-701.5060680925513
 21
-486.6290112135275
 31
0.0
  0
LINE
  5
BF
330
1F
100
AcDbEntity
  8
0226_下階梁情報
  6
Continuous
 62
     7
370
     9
100
AcDbLine
 10
-701.5060680925513
 20
-486.6290112135275
 30
0.0
 11
-703.0058544695045
 21
-486.6290112135275
 31
0.0
  0
LINE
  5
C0
330
1F
100
AcDbEntity
  8
0226_下階梁情報
  6
Continuous
 62
     7
370
     9
100
AcDbLine
 10
-631.9209354936744
 20
-484.6540661451681
 30
0.0
 11
-631.9209354936744
 21
-483.1537838575705
 31
0.0
  0
LINE
  5
C1
330
1F
100
AcDbEntity
  8
0226_下階梁情報
  6
Continuous
 62
     7
370
     9
100
AcDbLine
 10
-631.9209354936744
 20
-483.1537838575705
 30
0.0
 11
-630.4206722795631
 21
-483.1537838575705
 31
0.0
  0
LINE
  5
C2
330
1F
100
AcDbEntity
  8
0226_下階梁情報
  6
Continuous
 62
     7
370
     9
100
AcDbLine
 10
-630.4206722795631
 20
-483.1537838575705
 30
0.0
 11
-630.4206722795631
 21
-484.6540661451681
 31
0.0
  0
LINE
  5
C3
330
1F
100
AcDbEntity
  8
0226_下階梁情報
  6
Continuous
 62
     7
370
     9
100
AcDbLine
 10
-630.4206722795631
 20
-484.6540661451681
 30
0.0
 11
-631.9209354936744
 21
-484.6540661451681
 31
0.0
  0
LINE
  5
C4
330
1F
100
AcDbEntity
  8
0226_下階梁情報
  6
Continuous
 62
     7
370
     9
100
AcDbLine
 10
-689.1837566911842
 20
-453.0609913465842
 30
0.0
 11
-689.1837566911842
 21
-451.5607090589865
 31
0.0
  0
LINE
  5
C5
330
1F
100
AcDbEntity
  8
0226_下階梁情報
  6
Continuous
 62
     7
370
     9
100
AcDbLine
 10
-689.1837566911842
 20
-451.5607090589865
 30
0.0
 11
-687.683970314231
 21
-451.5607090589865
 31
0.0
  0
LINE
  5
C6
330
1F
100
AcDbEntity
  8
0226_下階梁情報
  6
Continuous
 62
     7
370
     9
100
AcDbLine
 10
-687.683970314231
 20
-451.5607090589865
 30
0.0
 11
-687.683970314231
 21
-453.0609913465842
 31
0.0
  0
LINE
  5
C7
330
1F
100
AcDbEntity
  8
0226_下階梁情報
  6
Continuous
 62
     7
370
     9
100
AcDbLine
 10
-687.683970314231
 20
-453.0609913465842
 30
0.0
 11
-689.1837566911842
 21
-453.0609913465842
 31
0.0
  0
LINE
  5
C8
330
1F
100
AcDbEntity
  8
0226_下階梁情報
  6
Continuous
 62
     7
370
     9
100
AcDbLine
 10
-657.3166912614967
 20
-409.1822739240988
 30
0.0
 11
-657.3166912614967
 21
-407.6820011732443
 31
0.0
  0
LINE
  5
C9
330
1F
100
AcDbEntity
  8
0226_下階梁情報
  6
Continuous
 62
     7
370
     9
100
AcDbLine
 10
-657.3166912614967
 20
-407.6820011732443
 30
0.0
 11
-655.816408973899
 21
-407.6820011732443
 31
0.0
  0
LINE
  5
CA
330
1F
100
AcDbEntity
  8
0226_下階梁情報
  6
Continuous
 62
     7
370
     9
100
AcDbLine
 10
-655.816408973899
 20
-407.6820011732443
 30
0.0
 11
-655.816408973899
 21
-409.1822739240988
 31
0.0
  0
LINE
  5
CB
330
1F
100
AcDbEntity
  8
0226_下階梁情報
  6
Continuous
 62
     7
370
     9
100
AcDbLine
 10
-655.816408973899
 20
-409.1822739240988
 30
0.0
 11
-657.3166912614967
 21
-409.1822739240988
 31
0.0
  0
LINE
  5
CC
330
1F
100
AcDbEntity
  8
0226_下階梁情報
  6
Continuous
 62
     7
370
     9
100
AcDbLine
 10
-666.6002911150123
 20
-480.6219311354025
 30
0.0
 11
-666.6002911150123
 21
-479.1216679212912
 31
0.0
  0
LINE
  5
CD
330
1F
100
AcDbEntity
  8
0226_下階梁情報
  6
Continuous
 62
     7
370
     9
100
AcDbLine
 10
-666.6002911150123
 20
-479.1216679212912
 30
0.0
 11
-665.1000088274146
 21
-479.1216679212912
 31
0.0
  0
LINE
  5
CE
330
1F
100
AcDbEntity
  8
0226_下階梁情報
  6
Continuous
 62
     7
370
     9
100
AcDbLine
 10
-665.1000088274146
 20
-479.1216679212912
 30
0.0
 11
-665.1000088274146
 21
-480.6219311354025
 31
0.0
  0
LINE
  5
CF
330
1F
100
AcDbEntity
  8
0226_下階梁情報
  6
Continuous
 62
     7
370
     9
100
AcDbLine
 10
-665.1000088274146
 20
-480.6219311354025
 30
0.0
 11
-666.6002911150123
 21
-480.6219311354025
 31
0.0
  0
LINE
  5
D0
330
1F
100
AcDbEntity
  8
0226_下階梁情報
  6
Continuous
 62
     7
370
     9
100
AcDbLine
 10
-829.7259491502906
 20
-270.7458241579398
 30
0.0
 11
-829.7259491502906
 21
-269.2455442545279
 31
0.0
  0
LINE
  5
D1
330
1F
100
AcDbEntity
  8
0226_下階梁情報
  6
Continuous
 62
     7
370
     9
100
AcDbLine
 10
-829.7259491502906
 20
-269.2455442545279
 30
0.0
 11
-828.2256716310645
 21
-269.2455442545279
 31
0.0
  0
LINE
  5
D2
330
1F
100
AcDbEntity
  8
0226_下階梁情報
  6
Continuous
 62
     7
370
     9
100
AcDbLine
 10
-828.2256716310645
 20
-269.2455442545279
 30
0.0
 11
-828.2256716310645
 21
-270.7458241579398
 31
0.0
  0
LINE
  5
D3
330
1F
100
AcDbEntity
  8
0226_下階梁情報
  6
Continuous
 62
     7
370
     9
100
AcDbLine
 10
-828.2256716310645
 20
-270.7458241579398
 30
0.0
 11
-829.7259491502906
 21
-270.7458241579398
 31
0.0
  0
LINE
  5
D4
330
1F
100
AcDbEntity
  8
0226_下階梁情報
  6
Continuous
 62
     7
370
     9
100
AcDbLine
 10
-808.4812420427467
 20
-286.5443416235312
 30
0.0
 11
-808.4812420427467
 21
-285.0440617201193
 31
0.0
  0
LINE
  5
D5
330
1F
100
AcDbEntity
  8
0226_下階梁情報
  6
Continuous
 62
     7
370
     9
100
AcDbLine
 10
-808.4812420427467
 20
-285.0440617201193
 30
0.0
 11
-806.980959755149
 21
-285.0440617201193
 31
0.0
  0
LINE
  5
D6
330
1F
100
AcDbEntity
  8
0226_下階梁情報
  6
Continuous
 62
     7
370
     9
100
AcDbLine
 10
-806.980959755149
 20
-285.0440617201193
 30
0.0
 11
-806.980959755149
 21
-286.5443416235312
 31
0.0
  0
LINE
  5
D7
330
1F
100
AcDbEntity
  8
0226_下階梁情報
  6
Continuous
 62
     7
370
     9
100
AcDbLine
 10
-806.980959755149
 20
-286.5443416235312
 30
0.0
 11
-808.4812420427467
 21
-286.5443416235312
 31
0.0
  0
LINE
  5
D8
330
1F
100
AcDbEntity
  8
0226_下階梁情報
  6
Continuous
 62
     7
370
     9
100
AcDbLine
 10
-784.6150082170631
 20
-327.6246471998556
 30
0.0
 11
-784.6150082170631
 21
-326.1243696806296
 31
0.0
  0
LINE
  5
D9
330
1F
100
AcDbEntity
  8
0226_下階梁情報
  6
Continuous
 62
     7
370
     9
100
AcDbLine
 10
-784.6150082170631
 20
-326.1243696806296
 30
0.0
 11
-783.1152218401099
 21
-326.1243696806296
 31
0.0
  0
LINE
  5
DA
330
1F
100
AcDbEntity
  8
0226_下階梁情報
  6
Continuous
 62
     7
370
     9
100
AcDbLine
 10
-783.1152218401099
 20
-326.1243696806296
 30
0.0
 11
-783.1152218401099
 21
-327.6246471998556
 31
0.0
  0
LINE
  5
DB
330
1F
100
AcDbEntity
  8
0226_下階梁情報
  6
Continuous
 62
     7
370
     9
100
AcDbLine
 10
-783.1152218401099
 20
-327.6246471998556
 30
0.0
 11
-784.6150082170631
 21
-327.6246471998556
 31
0.0
  0
LINE
  5
DC
330
1F
100
AcDbEntity
  8
0226_下階梁情報
  6
Continuous
 62
     7
370
     9
100
AcDbLine
 10
-738.8505333482886
 20
-274.6684511301382
 30
0.0
 11
-738.8505333482886
 21
-273.1681712267264
 31
0.0
  0
LINE
  5
DD
330
1F
100
AcDbEntity
  8
0226_下階梁情報
  6
Continuous
 62
     7
370
     9
100
AcDbLine
 10
-738.8505333482886
 20
-273.1681712267264
 30
0.0
 11
-737.3507565080787
 21
-273.1681712267264
 31
0.0
  0
LINE
  5
DE
330
1F
100
AcDbEntity
  8
0226_下階梁情報
  6
Continuous
 62
     7
370
     9
100
AcDbLine
 10
-737.3507565080787
 20
-273.1681712267264
 30
0.0
 11
-737.3507565080787
 21
-274.6684511301382
 31
0.0
  0
LINE
  5
DF
330
1F
100
AcDbEntity
  8
0226_下階梁情報
  6
Continuous
 62
     7
370
     9
100
AcDbLine
 10
-737.3507565080787
 20
-274.6684511301382
 30
0.0
 11
-738.8505333482886
 21
-274.6684511301382
 31
0.0
  0
LINE
  5
E0
330
1F
100
AcDbEntity
  8
0226_下階梁情報
  6
Continuous
 62
     7
370
     9
100
AcDbLine
 10
-691.2924641191627
 20
-269.2703183290823
 30
0.0
 11
-691.2924641191627
 21
-267.7700384256705
 31
0.0
  0
LINE
  5
E1
330
1F
100
AcDbEntity
  8
0226_下階梁情報
  6
Continuous
 62
     7
370
     9
100
AcDbLine
 10
-691.2924641191627
 20
-267.7700384256705
 30
0.0
 11
-689.7926777422095
 21
-267.7700384256705
 31
0.0
  0
LINE
  5
E2
330
1F
100
AcDbEntity
  8
0226_下階梁情報
  6
Continuous
 62
     7
370
     9
100
AcDbLine
 10
-689.7926777422095
 20
-267.7700384256705
 30
0.0
 11
-689.7926777422095
 21
-269.2703183290823
 31
0.0
  0
LINE
  5
E3
330
1F
100
AcDbEntity
  8
0226_下階梁情報
  6
Continuous
 62
     7
370
     9
100
AcDbLine
 10
-689.7926777422095
 20
-269.2703183290823
 30
0.0
 11
-691.2924641191627
 21
-269.2703183290823
 31
0.0
  0
LINE
  5
E4
330
1F
100
AcDbEntity
  8
0226_下階梁情報
  6
Continuous
 62
     7
370
     9
100
AcDbLine
 10
-710.9060925066138
 20
-290.8450098631247
 30
0.0
 11
-710.9060925066138
 21
-289.3447323438986
 31
0.0
  0
LINE
  5
E5
330
1F
100
AcDbEntity
  8
0226_下階梁情報
  6
Continuous
 62
     7
370
     9
100
AcDbLine
 10
-710.9060925066138
 20
-289.3447323438986
 30
0.0
 11
-709.4058102190162
 21
-289.3447323438986
 31
0.0
  0
LINE
  5
E6
330
1F
100
AcDbEntity
  8
0226_下階梁情報
  6
Continuous
 62
     7
370
     9
100
AcDbLine
 10
-709.4058102190162
 20
-289.3447323438986
 30
0.0
 11
-709.4058102190162
 21
-290.8450098631247
 31
0.0
  0
LINE
  5
E7
330
1F
100
AcDbEntity
  8
0226_下階梁情報
  6
Continuous
 62
     7
370
     9
100
AcDbLine
 10
-709.4058102190162
 20
-290.8450098631247
 30
0.0
 11
-710.9060925066138
 21
-290.8450098631247
 31
0.0
  0
LINE
  5
E8
330
1F
100
AcDbEntity
  8
0226_下階梁情報
  6
Continuous
 62
     7
370
     9
100
AcDbLine
 10
-686.5483540117408
 20
-326.9711275694235
 30
0.0
 11
-686.5483540117408
 21
-325.4708452818259
 31
0.0
  0
LINE
  5
E9
330
1F
100
AcDbEntity
  8
0226_下階梁情報
  6
Continuous
 62
     7
370
     9
100
AcDbLine
 10
-686.5483540117408
 20
-325.4708452818259
 30
0.0
 11
-685.0480717241431
 21
-325.4708452818259
 31
0.0
  0
LINE
  5
EA
330
1F
100
AcDbEntity
  8
0226_下階梁情報
  6
Continuous
 62
     7
370
     9
100
AcDbLine
 10
-685.0480717241431
 20
-325.4708452818259
 30
0.0
 11
-685.0480717241431
 21
-326.9711275694235
 31
0.0
  0
LINE
  5
EB
330
1F
100
AcDbEntity
  8
0226_下階梁情報
  6
Continuous
 62
     7
370
     9
100
AcDbLine
 10
-685.0480717241431
 20
-326.9711275694235
 30
0.0
 11
-686.5483540117408
 21
-326.9711275694235
 31
0.0
  0
LINE
  5
EC
330
1F
100
AcDbEntity
  8
0226_下階梁情報
  6
Continuous
 62
     7
370
     9
100
AcDbLine
 10
-682.6252430498267
 20
-365.5438633558615
 30
0.0
 11
-682.6252430498267
 21
-364.0435810682638
 31
0.0
  0
LINE
  5
ED
330
1F
100
AcDbEntity
  8
0226_下階梁情報
  6
Continuous
 62
     7
370
     9
100
AcDbLine
 10
-682.6252430498267
 20
-364.0435810682638
 30
0.0
 11
-681.1254566728736
 21
-364.0435810682638
 31
0.0
  0
LINE
  5
EE
330
1F
100
AcDbEntity
  8
0226_下階梁情報
  6
Continuous
 62
     7
370
     9
100
AcDbLine
 10
-681.1254566728736
 20
-364.0435810682638
 30
0.0
 11
-681.1254566728736
 21
-365.5438633558615
 31
0.0
  0
LINE
  5
EF
330
1F
100
AcDbEntity
  8
0226_下階梁情報
  6
Continuous
 62
     7
370
     9
100
AcDbLine
 10
-681.1254566728736
 20
-365.5438633558615
 30
0.0
 11
-682.6252430498267
 21
-365.5438633558615
 31
0.0
  0
LINE
  5
F0
330
1F
100
AcDbEntity
  8
0226_下階梁情報
  6
Continuous
 62
     7
370
     9
100
AcDbLine
 10
-758.2942169725562
 20
-289.1698308584555
 30
0.0
 11
-758.2942169725562
 21
-287.6695509550436
 31
0.0
  0
LINE
  5
F1
330
1F
100
AcDbEntity
  8
0226_下階梁情報
  6
Continuous
 62
     7
370
     9
100
AcDbLine
 10
-758.2942169725562
 20
-287.6695509550436
 30
0.0
 11
-756.7939346849586
 21
-287.6695509550436
 31
0.0
  0
LINE
  5
F2
330
1F
100
AcDbEntity
  8
0226_下階梁情報
  6
Continuous
 62
     7
370
     9
100
AcDbLine
 10
-756.7939346849586
 20
-287.6695509550436
 30
0.0
 11
-756.7939346849586
 21
-289.1698308584555
 31
0.0
  0
LINE
  5
F3
330
1F
100
AcDbEntity
  8
0226_下階梁情報
  6
Continuous
 62
     7
370
     9
100
AcDbLine
 10
-756.7939346849586
 20
-289.1698308584555
 30
0.0
 11
-758.2942169725562
 21
-289.1698308584555
 31
0.0
  0
LINE
  5
F4
330
1F
100
AcDbEntity
  8
0226_下階梁情報
  6
Continuous
 62
     7
370
     9
100
AcDbLine
 10
-836.5763014375831
 20
-416.6088505384787
 30
0.0
 11
-836.5763014375831
 21
-415.1085777876242
 31
0.0
  0
LINE
  5
F5
330
1F
100
AcDbEntity
  8
0226_下階梁情報
  6
Continuous
 62
     7
370
     9
100
AcDbLine
 10
-836.5763014375831
 20
-415.1085777876242
 30
0.0
 11
-835.076023918357
 21
-415.1085777876242
 31
0.0
  0
LINE
  5
F6
330
1F
100
AcDbEntity
  8
0226_下階梁情報
  6
Continuous
 62
     7
370
     9
100
AcDbLine
 10
-835.076023918357
 20
-415.1085777876242
 30
0.0
 11
-835.076023918357
 21
-416.6088505384787
 31
0.0
  0
LINE
  5
F7
330
1F
100
AcDbEntity
  8
0226_下階梁情報
  6
Continuous
 62
     7
370
     9
100
AcDbLine
 10
-835.076023918357
 20
-416.6088505384787
 30
0.0
 11
-836.5763014375831
 21
-416.6088505384787
 31
0.0
  0
LINE
  5
F8
330
1F
100
AcDbEntity
  8
0226_下階梁情報
  6
Continuous
 62
     7
370
     9
100
AcDbLine
 10
-987.3474472582008
 20
-405.6703968641623
 30
0.0
 11
-987.3474472582008
 21
-404.1701145765646
 31
0.0
  0
LINE
  5
F9
330
1F
100
AcDbEntity
  8
0226_下階梁情報
  6
Continuous
 62
     7
370
     9
100
AcDbLine
 10
-987.3474472582008
 20
-404.1701145765646
 30
0.0
 11
-985.8471745073463
 21
-404.1701145765646
 31
0.0
  0
LINE
  5
FA
330
1F
100
AcDbEntity
  8
0226_下階梁情報
  6
Continuous
 62
     7
370
     9
100
AcDbLine
 10
-985.8471745073463
 20
-404.1701145765646
 30
0.0
 11
-985.8471745073463
 21
-405.6703968641623
 31
0.0
  0
LINE
  5
FB
330
1F
100
AcDbEntity
  8
0226_下階梁情報
  6
Continuous
 62
     7
370
     9
100
AcDbLine
 10
-985.8471745073463
 20
-405.6703968641623
 30
0.0
 11
-987.3474472582008
 21
-405.6703968641623
 31
0.0
  0
LINE
  5
FC
330
1F
100
AcDbEntity
  8
0226_下階梁情報
  6
Continuous
 62
     7
370
     9
100
AcDbLine
 10
-928.1092041551734
 20
-510.3238125440939
 30
0.0
 11
-928.1092041551734
 21
-508.8235302564963
 31
0.0
  0
LINE
  5
FD
330
1F
100
AcDbEntity
  8
0226_下階梁情報
  6
Continuous
 62
     7
370
     9
100
AcDbLine
 10
-928.1092041551734
 20
-508.8235302564963
 30
0.0
 11
-926.6094225465919
 21
-508.8235302564963
 31
0.0
  0
LINE
  5
FE
330
1F
100
AcDbEntity
  8
0226_下階梁情報
  6
Continuous
 62
     7
370
     9
100
AcDbLine
 10
-926.6094225465919
 20
-508.8235302564963
 30
0.0
 11
-926.6094225465919
 21
-510.3238125440939
 31
0.0
  0
LINE
  5
FF
330
1F
100
AcDbEntity
  8
0226_下階梁情報
  6
Continuous
 62
     7
370
     9
100
AcDbLine
 10
-926.6094225465919
 20
-510.3238125440939
 30
0.0
 11
-928.1092041551734
 21
-510.3238125440939
 31
0.0
  0
LINE
  5
100
330
1F
100
AcDbEntity
  8
0226_下階梁情報
  6
Continuous
 62
     7
370
     9
100
AcDbLine
 10
-941.9317930757667
 20
-569.5615597364767
 30
0.0
 11
-941.9317930757667
 21
-568.0612774488791
 31
0.0
  0
LINE
  5
101
330
1F
100
AcDbEntity
  8
0226_下階梁情報
  6
Continuous
 62
     7
370
     9
100
AcDbLine
 10
-941.9317930757667
 20
-568.0612774488791
 30
0.0
 11
-940.431510788169
 21
-568.0612774488791
 31
0.0
  0
LINE
  5
102
330
1F
100
AcDbEntity
  8
0226_下階梁情報
  6
Continuous
 62
     7
370
     9
100
AcDbLine
 10
-940.431510788169
 20
-568.0612774488791
 30
0.0
 11
-940.431510788169
 21
-569.5615597364767
 31
0.0
  0
LINE
  5
103
330
1F
100
AcDbEntity
  8
0226_下階梁情報
  6
Continuous
 62
     7
370
     9
100
AcDbLine
 10
-940.431510788169
 20
-569.5615597364767
 30
0.0
 11
-941.9317930757667
 21
-569.5615597364767
 31
0.0
  0
LINE
  5
104
330
1F
100
AcDbEntity
  8
0226_下階梁情報
  6
Continuous
 62
     7
370
     9
100
AcDbLine
 10
-972.5378864824439
 20
-580.4217548963888
 30
0.0
 11
-972.5378864824439
 21
-578.9214726087912
 31
0.0
  0
LINE
  5
105
330
1F
100
AcDbEntity
  8
0226_下階梁情報
  6
Continuous
 62
     7
370
     9
100
AcDbLine
 10
-972.5378864824439
 20
-578.9214726087912
 30
0.0
 11
-971.0376137315894
 21
-578.9214726087912
 31
0.0
  0
LINE
  5
106
330
1F
100
AcDbEntity
  8
0226_下階梁情報
  6
Continuous
 62
     7
370
     9
100
AcDbLine
 10
-971.0376137315894
 20
-578.9214726087912
 30
0.0
 11
-971.0376137315894
 21
-580.4217548963888
 31
0.0
  0
LINE
  5
107
330
1F
100
AcDbEntity
  8
0226_下階梁情報
  6
Continuous
 62
     7
370
     9
100
AcDbLine
 10
-971.0376137315894
 20
-580.4217548963888
 30
0.0
 11
-972.5378864824439
 21
-580.4217548963888
 31
0.0
  0
LINE
  5
108
330
1F
100
AcDbEntity
  8
0226_下階梁情報
  6
Continuous
 62
     7
370
     9
100
AcDbLine
 10
-995.3913849413062
 20
-514.2731876966818
 30
0.0
 11
-995.3913849413062
 21
-512.7729054090842
 31
0.0
  0
LINE
  5
109
330
1F
100
AcDbEntity
  8
0226_下階梁情報
  6
Continuous
 62
     7
370
     9
100
AcDbLine
 10
-995.3913849413062
 20
-512.7729054090842
 30
0.0
 11
-993.8915985643531
 21
-512.7729054090842
 31
0.0
  0
LINE
  5
10A
330
1F
100
AcDbEntity
  8
0226_下階梁情報
  6
Continuous
 62
     7
370
     9
100
AcDbLine
 10
-993.8915985643531
 20
-512.7729054090842
 30
0.0
 11
-993.8915985643531
 21
-514.2731876966818
 31
0.0
  0
LINE
  5
10B
330
1F
100
AcDbEntity
  8
0226_下階梁情報
  6
Continuous
 62
     7
370
     9
100
AcDbLine
 10
-993.8915985643531
 20
-514.2731876966818
 30
0.0
 11
-995.3913849413062
 21
-514.2731876966818
 31
0.0
  0
LINE
  5
10C
330
1F
100
AcDbEntity
  8
0226_下階梁情報
  6
Continuous
 62
     7
370
     9
100
AcDbLine
 10
-906.3888448297645
 20
-545.0457592604025
 30
0.0
 11
-906.3888448297645
 21
-543.5454769728049
 31
0.0
  0
LINE
  5
10D
330
1F
100
AcDbEntity
  8
0226_下階梁情報
  6
Continuous
 62
     7
370
     9
100
AcDbLine
 10
-906.3888448297645
 20
-543.5454769728049
 30
0.0
 11
-904.8890608369971
 21
-543.5454769728049
 31
0.0
  0
LINE
  5
10E
330
1F
100
AcDbEntity
  8
0226_下階梁情報
  6
Continuous
 62
     7
370
     9
100
AcDbLine
 10
-904.8890608369971
 20
-543.5454769728049
 30
0.0
 11
-904.8890608369971
 21
-545.0457592604025
 31
0.0
  0
LINE
  5
10F
330
1F
100
AcDbEntity
  8
0226_下階梁情報
  6
Continuous
 62
     7
370
     9
100
AcDbLine
 10
-904.8890608369971
 20
-545.0457592604025
 30
0.0
 11
-906.3888448297645
 21
-545.0457592604025
 31
0.0
  0
LINE
  5
110
330
1F
100
AcDbEntity
  8
0226_下階梁情報
  6
Continuous
 62
     7
370
     9
100
AcDbLine
 10
-983.3980721056129
 20
-682.9248066542015
 30
0.0
 11
-983.3980721056129
 21
-681.4245243666038
 31
0.0
  0
LINE
  5
111
330
1F
100
AcDbEntity
  8
0226_下階梁情報
  6
Continuous
 62
     7
370
     9
100
AcDbLine
 10
-983.3980721056129
 20
-681.4245243666038
 30
0.0
 11
-981.8982857286597
 21
-681.4245243666038
 31
0.0
  0
LINE
  5
112
330
1F
100
AcDbEntity
  8
0226_下階梁情報
  6
Continuous
 62
     7
370
     9
100
AcDbLine
 10
-981.8982857286597
 20
-681.4245243666038
 30
0.0
 11
-981.8982857286597
 21
-682.9248066542015
 31
0.0
  0
LINE
  5
113
330
1F
100
AcDbEntity
  8
0226_下階梁情報
  6
Continuous
 62
     7
370
     9
100
AcDbLine
 10
-981.8982857286597
 20
-682.9248066542015
 30
0.0
 11
-983.3980721056129
 21
-682.9248066542015
 31
0.0
  0
LINE
  5
114
330
1F
100
AcDbEntity
  8
0226_下階梁情報
  6
Continuous
 62
     7
370
     9
100
AcDbLine
 10
-913.0078118860389
 20
-686.6368504164085
 30
0.0
 11
-913.0078118860389
 21
-685.1365681288108
 31
0.0
  0
LINE
  5
115
330
1F
100
AcDbEntity
  8
0226_下階梁情報
  6
Continuous
 62
     7
370
     9
100
AcDbLine
 10
-913.0078118860389
 20
-685.1365681288108
 30
0.0
 11
-911.5080278932716
 21
-685.1365681288108
 31
0.0
  0
LINE
  5
116
330
1F
100
AcDbEntity
  8
0226_下階梁情報
  6
Continuous
 62
     7
370
     9
100
AcDbLine
 10
-911.5080278932716
 20
-685.1365681288108
 30
0.0
 11
-911.5080278932716
 21
-686.6368504164085
 31
0.0
  0
LINE
  5
117
330
1F
100
AcDbEntity
  8
0226_下階梁情報
  6
Continuous
 62
     7
370
     9
100
AcDbLine
 10
-911.5080278932716
 20
-686.6368504164085
 30
0.0
 11
-913.0078118860389
 21
-686.6368504164085
 31
0.0
  0
LINE
  5
118
330
1F
100
AcDbEntity
  8
0226_下階梁情報
  6
Continuous
 62
     7
370
     9
100
AcDbLine
 10
-888.6173701107169
 20
-712.5434513685569
 30
0.0
 11
-888.6173701107169
 21
-711.0431690809593
 31
0.0
  0
LINE
  5
119
330
1F
100
AcDbEntity
  8
0226_下階梁情報
  6
Continuous
 62
     7
370
     9
100
AcDbLine
 10
-888.6173701107169
 20
-711.0431690809593
 30
0.0
 11
-887.117585968938
 21
-711.0431690809593
 31
0.0
  0
LINE
  5
11A
330
1F
100
AcDbEntity
  8
0226_下階梁情報
  6
Continuous
 62
     7
370
     9
100
AcDbLine
 10
-887.117585968938
 20
-711.0431690809593
 30
0.0
 11
-887.117585968938
 21
-712.5434513685569
 31
0.0
  0
LINE
  5
11B
330
1F
100
AcDbEntity
  8
0226_下階梁情報
  6
Continuous
 62
     7
370
     9
100
AcDbLine
 10
-887.117585968938
 20
-712.5434513685569
 30
0.0
 11
-888.6173701107169
 21
-712.5434513685569
 31
0.0
  0
LINE
  5
11C
330
1F
100
AcDbEntity
  8
0226_下階梁情報
  6
Continuous
 62
     7
370
     9
100
AcDbLine
 10
-882.3387896835471
 20
-750.7554646131858
 30
0.0
 11
-882.3387896835471
 21
-749.2551823255882
 31
0.0
  0
LINE
  5
11D
330
1F
100
AcDbEntity
  8
0226_下階梁情報
  6
Continuous
 62
     7
370
     9
100
AcDbLine
 10
-882.3387896835471
 20
-749.2551823255882
 30
0.0
 11
-880.8385103761817
 21
-749.2551823255882
 31
0.0
  0
LINE
  5
11E
330
1F
100
AcDbEntity
  8
0226_下階梁情報
  6
Continuous
 62
     7
370
     9
100
AcDbLine
 10
-880.8385103761817
 20
-749.2551823255882
 30
0.0
 11
-880.8385103761817
 21
-750.7554646131858
 31
0.0
  0
LINE
  5
11F
330
1F
100
AcDbEntity
  8
0226_下階梁情報
  6
Continuous
 62
     7
370
     9
100
AcDbLine
 10
-880.8385103761817
 20
-750.7554646131858
 30
0.0
 11
-882.3387896835471
 21
-750.7554646131858
 31
0.0
  0
LINE
  5
120
330
1F
100
AcDbEntity
  8
0226_下階梁情報
  6
Continuous
 62
     7
370
     9
100
AcDbLine
 10
-956.5674465715553
 20
-756.2140675184593
 30
0.0
 11
-956.5674465715553
 21
-754.7137852308616
 31
0.0
  0
LINE
  5
121
330
1F
100
AcDbEntity
  8
0226_下階梁情報
  6
Continuous
 62
     7
370
     9
100
AcDbLine
 10
-956.5674465715553
 20
-754.7137852308616
 30
0.0
 11
-955.0671642839576
 21
-754.7137852308616
 31
0.0
  0
LINE
  5
122
330
1F
100
AcDbEntity
  8
0226_下階梁情報
  6
Continuous
 62
     7
370
     9
100
AcDbLine
 10
-955.0671642839576
 20
-754.7137852308616
 30
0.0
 11
-955.0671642839576
 21
-756.2140675184593
 31
0.0
  0
LINE
  5
123
330
1F
100
AcDbEntity
  8
0226_下階梁情報
  6
Continuous
 62
     7
370
     9
100
AcDbLine
 10
-955.0671642839576
 20
-756.2140675184593
 30
0.0
 11
-956.5674465715553
 21
-756.2140675184593
 31
0.0
  0
LINE
  5
124
330
1F
100
AcDbEntity
  8
0226_下階梁情報
  6
Continuous
 62
     7
370
     9
100
AcDbLine
 10
-991.2963360368873
 20
-746.9175739881858
 30
0.0
 11
-991.2963360368873
 21
-745.4172917005882
 31
0.0
  0
LINE
  5
125
330
1F
100
AcDbEntity
  8
0226_下階梁情報
  6
Continuous
 62
     7
370
     9
100
AcDbLine
 10
-991.2963360368873
 20
-745.4172917005882
 30
0.0
 11
-989.7960537492896
 21
-745.4172917005882
 31
0.0
  0
LINE
  5
126
330
1F
100
AcDbEntity
  8
0226_下階梁情報
  6
Continuous
 62
     7
370
     9
100
AcDbLine
 10
-989.7960537492896
 20
-745.4172917005882
 30
0.0
 11
-989.7960537492896
 21
-746.9175739881858
 31
0.0
  0
LINE
  5
127
330
1F
100
AcDbEntity
  8
0226_下階梁情報
  6
Continuous
 62
     7
370
     9
100
AcDbLine
 10
-989.7960537492896
 20
-746.9175739881858
 30
0.0
 11
-991.2963360368873
 21
-746.9175739881858
 31
0.0
  0
LINE
  5
128
330
1F
100
AcDbEntity
  8
0226_下階梁情報
  6
Continuous
 62
     7
370
     9
100
AcDbLine
 10
-993.5076111375953
 20
-706.6196079847679
 30
0.0
 11
-993.5076111375953
 21
-705.1193256971702
 31
0.0
  0
LINE
  5
129
330
1F
100
AcDbEntity
  8
0226_下階梁情報
  6
Continuous
 62
     7
370
     9
100
AcDbLine
 10
-993.5076111375953
 20
-705.1193256971702
 30
0.0
 11
-992.0078342973853
 21
-705.1193256971702
 31
0.0
  0
LINE
  5
12A
330
1F
100
AcDbEntity
  8
0226_下階梁情報
  6
Continuous
 62
     7
370
     9
100
AcDbLine
 10
-992.0078342973853
 20
-705.1193256971702
 30
0.0
 11
-992.0078342973853
 21
-706.6196079847679
 31
0.0
  0
LINE
  5
12B
330
1F
100
AcDbEntity
  8
0226_下階梁情報
  6
Continuous
 62
     7
370
     9
100
AcDbLine
 10
-992.0078342973853
 20
-706.6196079847679
 30
0.0
 11
-993.5076111375953
 21
-706.6196079847679
 31
0.0
  0
LINE
  5
12C
330
1F
100
AcDbEntity
  8
0226_下階梁情報
  6
Continuous
 62
     7
370
     9
100
AcDbLine
 10
-936.0079687654639
 20
-726.3655491468772
 30
0.0
 11
-936.0079687654639
 21
-724.8652668592796
 31
0.0
  0
LINE
  5
12D
330
1F
100
AcDbEntity
  8
0226_下階梁情報
  6
Continuous
 62
     7
370
     9
100
AcDbLine
 10
-936.0079687654639
 20
-724.8652668592796
 30
0.0
 11
-934.5076864778663
 21
-724.8652668592796
 31
0.0
  0
LINE
  5
12E
330
1F
100
AcDbEntity
  8
0226_下階梁情報
  6
Continuous
 62
     7
370
     9
100
AcDbLine
 10
-934.5076864778663
 20
-724.8652668592796
 30
0.0
 11
-934.5076864778663
 21
-726.3655491468772
 31
0.0
  0
LINE
  5
12F
330
1F
100
AcDbEntity
  8
0226_下階梁情報
  6
Continuous
 62
     7
370
     9
100
AcDbLine
 10
-934.5076864778663
 20
-726.3655491468772
 30
0.0
 11
-936.0079687654639
 21
-726.3655491468772
 31
0.0
  0
LINE
  5
130
330
1F
100
AcDbEntity
  8
0226_下階梁情報
  6
Continuous
 62
     7
370
     9
100
AcDbLine
 10
-947.8556173860694
 20
-692.7975102064476
 30
0.0
 11
-947.8556173860694
 21
-691.2972279188499
 31
0.0
  0
LINE
  5
131
330
1F
100
AcDbEntity
  8
0226_下階梁情報
  6
Continuous
 62
     7
370
     9
100
AcDbLine
 10
-947.8556173860694
 20
-691.2972279188499
 30
0.0
 11
-946.3553350984718
 21
-691.2972279188499
 31
0.0
  0
LINE
  5
132
330
1F
100
AcDbEntity
  8
0226_下階梁情報
  6
Continuous
 62
     7
370
     9
100
AcDbLine
 10
-946.3553350984718
 20
-691.2972279188499
 30
0.0
 11
-946.3553350984718
 21
-692.7975102064476
 31
0.0
  0
LINE
  5
133
330
1F
100
AcDbEntity
  8
0226_下階梁情報
  6
Continuous
 62
     7
370
     9
100
AcDbLine
 10
-946.3553350984718
 20
-692.7975102064476
 30
0.0
 11
-947.8556173860694
 21
-692.7975102064476
 31
0.0
  0
LINE
  5
134
330
1F
100
AcDbEntity
  8
0226_下階梁情報
  6
Continuous
 62
     7
370
     9
100
AcDbLine
 10
-892.5667518198157
 20
-578.6137791273459
 30
0.0
 11
-892.5667518198157
 21
-577.1134968397482
 31
0.0
  0
LINE
  5
135
330
1F
100
AcDbEntity
  8
0226_下階梁情報
  6
Continuous
 62
     7
370
     9
100
AcDbLine
 10
-892.5667518198157
 20
-577.1134968397482
 30
0.0
 11
-891.0669678270484
 21
-577.1134968397482
 31
0.0
  0
LINE
  5
136
330
1F
100
AcDbEntity
  8
0226_下階梁情報
  6
Continuous
 62
     7
370
     9
100
AcDbLine
 10
-891.0669678270484
 20
-577.1134968397482
 30
0.0
 11
-891.0669678270484
 21
-578.6137791273459
 31
0.0
  0
LINE
  5
137
330
1F
100
AcDbEntity
  8
0226_下階梁情報
  6
Continuous
 62
     7
370
     9
100
AcDbLine
 10
-891.0669678270484
 20
-578.6137791273459
 30
0.0
 11
-892.5667518198157
 21
-578.6137791273459
 31
0.0
  0
LINE
  5
138
330
1F
100
AcDbEntity
  8
0226_下階梁情報
  6
Continuous
 62
     7
370
     9
100
AcDbLine
 10
-973.5248631059791
 20
-541.9173641798361
 30
0.0
 11
-973.5248631059791
 21
-540.4171009657248
 31
0.0
  0
LINE
  5
139
330
1F
100
AcDbEntity
  8
0226_下階梁情報
  6
Continuous
 62
     7
370
     9
100
AcDbLine
 10
-973.5248631059791
 20
-540.4171009657248
 30
0.0
 11
-972.025076729026
 21
-540.4171009657248
 31
0.0
  0
LINE
  5
13A
330
1F
100
AcDbEntity
  8
0226_下階梁情報
  6
Continuous
 62
     7
370
     9
100
AcDbLine
 10
-972.025076729026
 20
-540.4171009657248
 30
0.0
 11
-972.025076729026
 21
-541.9173641798361
 31
0.0
  0
LINE
  5
13B
330
1F
100
AcDbEntity
  8
0226_下階梁情報
  6
Continuous
 62
     7
370
     9
100
AcDbLine
 10
-972.025076729026
 20
-541.9173641798361
 30
0.0
 11
-973.5248631059791
 21
-541.9173641798361
 31
0.0
  0
LINE
  5
13C
330
1F
100
AcDbEntity
  8
0226_下階梁情報
  6
Continuous
 62
     7
370
     9
100
AcDbLine
 10
-942.4044674455787
 20
-400.146410047756
 30
0.0
 11
-942.4044674455787
 21
-398.6461372969015
 31
0.0
  0
LINE
  5
13D
330
1F
100
AcDbEntity
  8
0226_下階梁情報
  6
Continuous
 62
     7
370
     9
100
AcDbLine
 10
-942.4044674455787
 20
-398.6461372969015
 30
0.0
 11
-940.9041899263526
 21
-398.6461372969015
 31
0.0
  0
LINE
  5
13E
330
1F
100
AcDbEntity
  8
0226_下階梁情報
  6
Continuous
 62
     7
370
     9
100
AcDbLine
 10
-940.9041899263526
 20
-398.6461372969015
 30
0.0
 11
-940.9041899263526
 21
-400.146410047756
 31
0.0
  0
LINE
  5
13F
330
1F
100
AcDbEntity
  8
0226_下階梁情報
  6
Continuous
 62
     7
370
     9
100
AcDbLine
 10
-940.9041899263526
 20
-400.146410047756
 30
0.0
 11
-942.4044674455787
 21
-400.146410047756
 31
0.0
  0
LINE
  5
140
330
1F
100
AcDbEntity
  8
0226_下階梁情報
  6
Continuous
 62
     7
370
     9
100
AcDbLine
 10
-886.6434223770763
 20
-511.4777584669455
 30
0.0
 11
-886.6434223770763
 21
-509.9774761793478
 31
0.0
  0
LINE
  5
141
330
1F
100
AcDbEntity
  8
0226_下階梁情報
  6
Continuous
 62
     7
370
     9
100
AcDbLine
 10
-886.6434223770763
 20
-509.9774761793478
 30
0.0
 11
-885.1431429579521
 21
-509.9774761793478
 31
0.0
  0
LINE
  5
142
330
1F
100
AcDbEntity
  8
0226_下階梁情報
  6
Continuous
 62
     7
370
     9
100
AcDbLine
 10
-885.1431429579521
 20
-509.9774761793478
 30
0.0
 11
-885.1431429579521
 21
-511.4777584669455
 31
0.0
  0
LINE
  5
143
330
1F
100
AcDbEntity
  8
0226_下階梁情報
  6
Continuous
 62
     7
370
     9
100
AcDbLine
 10
-885.1431429579521
 20
-511.4777584669455
 30
0.0
 11
-886.6434223770763
 21
-511.4777584669455
 31
0.0
  0
LINE
  5
144
330
1F
100
AcDbEntity
  8
0226_下階梁情報
  6
Continuous
 62
     7
370
     9
100
AcDbLine
 10
-945.8806770860816
 20
-534.0191097853049
 30
0.0
 11
-945.8806770860816
 21
-532.5188274977072
 31
0.0
  0
LINE
  5
145
330
1F
100
AcDbEntity
  8
0226_下階梁情報
  6
Continuous
 62
     7
370
     9
100
AcDbLine
 10
-945.8806770860816
 20
-532.5188274977072
 30
0.0
 11
-944.3808954775001
 21
-532.5188274977072
 31
0.0
  0
LINE
  5
146
330
1F
100
AcDbEntity
  8
0226_下階梁情報
  6
Continuous
 62
     7
370
     9
100
AcDbLine
 10
-944.3808954775001
 20
-532.5188274977072
 30
0.0
 11
-944.3808954775001
 21
-534.0191097853049
 31
0.0
  0
LINE
  5
147
330
1F
100
AcDbEntity
  8
0226_下階梁情報
  6
Continuous
 62
     7
370
     9
100
AcDbLine
 10
-944.3808954775001
 20
-534.0191097853049
 30
0.0
 11
-945.8806770860816
 21
-534.0191097853049
 31
0.0
  0
LINE
  5
148
330
1F
100
AcDbEntity
  8
0226_下階梁情報
  6
Continuous
 62
     7
370
     9
100
AcDbLine
 10
-934.0330284654761
 20
-607.0789356825218
 30
0.0
 11
-934.0330284654761
 21
-605.5786533949241
 31
0.0
  0
LINE
  5
149
330
1F
100
AcDbEntity
  8
0226_下階梁情報
  6
Continuous
 62
     7
370
     9
100
AcDbLine
 10
-934.0330284654761
 20
-605.5786533949241
 30
0.0
 11
-932.5332468568946
 21
-605.5786533949241
 31
0.0
  0
LINE
  5
14A
330
1F
100
AcDbEntity
  8
0226_下階梁情報
  6
Continuous
 62
     7
370
     9
100
AcDbLine
 10
-932.5332468568946
 20
-605.5786533949241
 30
0.0
 11
-932.5332468568946
 21
-607.0789356825218
 31
0.0
  0
LINE
  5
14B
330
1F
100
AcDbEntity
  8
0226_下階梁情報
  6
Continuous
 62
     7
370
     9
100
AcDbLine
 10
-932.5332468568946
 20
-607.0789356825218
 30
0.0
 11
-934.0330284654761
 21
-607.0789356825218
 31
0.0
  0
LINE
  5
14C
330
1F
100
AcDbEntity
  8
0226_下階梁情報
  6
Continuous
 62
     7
370
     9
100
AcDbLine
 10
-982.4105995714332
 20
-606.0914631483421
 30
0.0
 11
-982.4105995714332
 21
-604.5911808607444
 31
0.0
  0
LINE
  5
14D
330
1F
100
AcDbEntity
  8
0226_下階梁情報
  6
Continuous
 62
     7
370
     9
100
AcDbLine
 10
-982.4105995714332
 20
-604.5911808607444
 30
0.0
 11
-980.9103172838355
 21
-604.5911808607444
 31
0.0
  0
LINE
  5
14E
330
1F
100
AcDbEntity
  8
0226_下階梁情報
  6
Continuous
 62
     7
370
     9
100
AcDbLine
 10
-980.9103172838355
 20
-604.5911808607444
 30
0.0
 11
-980.9103172838355
 21
-606.0914631483421
 31
0.0
  0
LINE
  5
14F
330
1F
100
AcDbEntity
  8
0226_下階梁情報
  6
Continuous
 62
     7
370
     9
100
AcDbLine
 10
-980.9103172838355
 20
-606.0914631483421
 30
0.0
 11
-982.4105995714332
 21
-606.0914631483421
 31
0.0
  0
LINE
  5
150
330
1F
100
AcDbEntity
  8
0226_下階梁情報
  6
Continuous
 62
     7
370
     9
100
AcDbLine
 10
-969.4575565874244
 20
-725.1972218153343
 30
0.0
 11
-969.4575565874244
 21
-723.6969395277366
 31
0.0
  0
LINE
  5
151
330
1F
100
AcDbEntity
  8
0226_下階梁情報
  6
Continuous
 62
     7
370
     9
100
AcDbLine
 10
-969.4575565874244
 20
-723.6969395277366
 30
0.0
 11
-967.9577797472144
 21
-723.6969395277366
 31
0.0
  0
LINE
  5
152
330
1F
100
AcDbEntity
  8
0226_下階梁情報
  6
Continuous
 62
     7
370
     9
100
AcDbLine
 10
-967.9577797472144
 20
-723.6969395277366
 30
0.0
 11
-967.9577797472144
 21
-725.1972218153343
 31
0.0
  0
LINE
  5
153
330
1F
100
AcDbEntity
  8
0226_下階梁情報
  6
Continuous
 62
     7
370
     9
100
AcDbLine
 10
-967.9577797472144
 20
-725.1972218153343
 30
0.0
 11
-969.4575565874244
 21
-725.1972218153343
 31
0.0
  0
LINE
  5
154
330
1F
100
AcDbEntity
  8
0226_下階梁情報
  6
Continuous
 62
     7
370
     9
100
AcDbLine
 10
-918.9316361963416
 20
-754.70485883926
 30
0.0
 11
-918.9316361963416
 21
-753.2045765516624
 31
0.0
  0
LINE
  5
155
330
1F
100
AcDbEntity
  8
0226_下階梁情報
  6
Continuous
 62
     7
370
     9
100
AcDbLine
 10
-918.9316361963416
 20
-753.2045765516624
 30
0.0
 11
-917.4318522035743
 21
-753.2045765516624
 31
0.0
  0
LINE
  5
156
330
1F
100
AcDbEntity
  8
0226_下階梁情報
  6
Continuous
 62
     7
370
     9
100
AcDbLine
 10
-917.4318522035743
 20
-753.2045765516624
 30
0.0
 11
-917.4318522035743
 21
-754.70485883926
 31
0.0
  0
LINE
  5
157
330
1F
100
AcDbEntity
  8
0226_下階梁情報
  6
Continuous
 62
     7
370
     9
100
AcDbLine
 10
-917.4318522035743
 20
-754.70485883926
 30
0.0
 11
-918.9316361963416
 21
-754.70485883926
 31
0.0
  0
LINE
  5
158
330
1F
100
AcDbEntity
  8
0226_下階梁情報
  6
Continuous
 62
     7
370
     9
100
AcDbLine
 10
-882.6940408169891
 20
-678.9754124281272
 30
0.0
 11
-882.6940408169891
 21
-677.4751682875022
 31
0.0
  0
LINE
  5
159
330
1F
100
AcDbEntity
  8
0226_下階梁情報
  6
Continuous
 62
     7
370
     9
100
AcDbLine
 10
-882.6940408169891
 20
-677.4751682875022
 30
0.0
 11
-881.1937612116004
 21
-677.4751682875022
 31
0.0
  0
LINE
  5
15A
330
1F
100
AcDbEntity
  8
0226_下階梁情報
  6
Continuous
 62
     7
370
     9
100
AcDbLine
 10
-881.1937612116004
 20
-677.4751682875022
 30
0.0
 11
-881.1937612116004
 21
-678.9754124281272
 31
0.0
  0
LINE
  5
15B
330
1F
100
AcDbEntity
  8
0226_下階梁情報
  6
Continuous
 62
     7
370
     9
100
AcDbLine
 10
-881.1937612116004
 20
-678.9754124281272
 30
0.0
 11
-882.6940408169891
 21
-678.9754124281272
 31
0.0
  0
LINE
  5
15C
330
1F
100
AcDbEntity
  8
0226_下階梁情報
  6
Continuous
 62
     7
370
     9
100
AcDbLine
 10
-999.7267406999732
 20
-560.9121533033713
 30
0.0
 11
-999.7267406999732
 21
-559.4118710157736
 31
0.0
  0
LINE
  5
15D
330
1F
100
AcDbEntity
  8
0226_下階梁情報
  6
Continuous
 62
     7
370
     9
100
AcDbLine
 10
-999.7267406999732
 20
-559.4118710157736
 30
0.0
 11
-998.2264584123756
 21
-559.4118710157736
 31
0.0
  0
LINE
  5
15E
330
1F
100
AcDbEntity
  8
0226_下階梁情報
  6
Continuous
 62
     7
370
     9
100
AcDbLine
 10
-998.2264584123756
 20
-559.4118710157736
 30
0.0
 11
-998.2264584123756
 21
-560.9121533033713
 31
0.0
  0
LINE
  5
15F
330
1F
100
AcDbEntity
  8
0226_下階梁情報
  6
Continuous
 62
     7
370
     9
100
AcDbLine
 10
-998.2264584123756
 20
-560.9121533033713
 30
0.0
 11
-999.7267406999732
 21
-560.9121533033713
 31
0.0
  0
LINE
  5
160
330
1F
100
AcDbEntity
  8
0226_下階梁情報
  6
Continuous
 62
     7
370
     9
100
AcDbLine
 10
-882.8050258576537
 20
-604.6461887953147
 30
0.0
 11
-882.8050258576537
 21
-603.1459065077171
 31
0.0
  0
LINE
  5
161
330
1F
100
AcDbEntity
  8
0226_下階梁情報
  6
Continuous
 62
     7
370
     9
100
AcDbLine
 10
-882.8050258576537
 20
-603.1459065077171
 30
0.0
 11
-881.3047462522651
 21
-603.1459065077171
 31
0.0
  0
LINE
  5
162
330
1F
100
AcDbEntity
  8
0226_下階梁情報
  6
Continuous
 62
     7
370
     9
100
AcDbLine
 10
-881.3047462522651
 20
-603.1459065077171
 30
0.0
 11
-881.3047462522651
 21
-604.6461887953147
 31
0.0
  0
LINE
  5
163
330
1F
100
AcDbEntity
  8
0226_下階梁情報
  6
Continuous
 62
     7
370
     9
100
AcDbLine
 10
-881.3047462522651
 20
-604.6461887953147
 30
0.0
 11
-882.8050258576537
 21
-604.6461887953147
 31
0.0
  0
LINE
  5
164
330
1F
100
AcDbEntity
  8
0226_下階梁情報
  6
Continuous
 62
     7
370
     9
100
AcDbLine
 10
-907.5353592455054
 20
-727.9921742079124
 30
0.0
 11
-907.5353592455054
 21
-726.4918919203147
 31
0.0
  0
LINE
  5
165
330
1F
100
AcDbEntity
  8
0226_下階梁情報
  6
Continuous
 62
     7
370
     9
100
AcDbLine
 10
-907.5353592455054
 20
-726.4918919203147
 30
0.0
 11
-906.0350793420936
 21
-726.4918919203147
 31
0.0
  0
LINE
  5
166
330
1F
100
AcDbEntity
  8
0226_下階梁情報
  6
Continuous
 62
     7
370
     9
100
AcDbLine
 10
-906.0350793420936
 20
-726.4918919203147
 30
0.0
 11
-906.0350793420936
 21
-727.9921742079124
 31
0.0
  0
LINE
  5
167
330
1F
100
AcDbEntity
  8
0226_下階梁情報
  6
Continuous
 62
     7
370
     9
100
AcDbLine
 10
-906.0350793420936
 20
-727.9921742079124
 30
0.0
 11
-907.5353592455054
 21
-727.9921742079124
 31
0.0
  0
LINE
  5
168
330
1F
100
AcDbEntity
  8
0226_下階梁情報
  6
Continuous
 62
     7
370
     9
100
AcDbLine
 10
-875.6915807544852
 20
-415.5302258131369
 30
0.0
 11
-875.6915807544852
 21
-414.0299435255392
 31
0.0
  0
LINE
  5
169
330
1F
100
AcDbEntity
  8
0226_下階梁情報
  6
Continuous
 62
     7
370
     9
100
AcDbLine
 10
-875.6915807544852
 20
-414.0299435255392
 30
0.0
 11
-874.1913014471198
 21
-414.0299435255392
 31
0.0
  0
LINE
  5
16A
330
1F
100
AcDbEntity
  8
0226_下階梁情報
  6
Continuous
 62
     7
370
     9
100
AcDbLine
 10
-874.1913014471198
 20
-414.0299435255392
 30
0.0
 11
-874.1913014471198
 21
-415.5302258131369
 31
0.0
  0
LINE
  5
16B
330
1F
100
AcDbEntity
  8
0226_下階梁情報
  6
Continuous
 62
     7
370
     9
100
AcDbLine
 10
-874.1913014471198
 20
-415.5302258131369
 30
0.0
 11
-875.6915807544852
 21
-415.5302258131369
 31
0.0
  0
LINE
  5
16C
330
1F
100
AcDbEntity
  8
0242_
  6
Continuous
 62
     7
370
     9
100
AcDbLine
 10
-719.8547619402076
 20
-341.2149067518576
 30
0.0
 11
-706.0430782854224
 21
-320.3754921553
 31
0.0
  0
LINE
  5
16D
330
1F
100
AcDbEntity
  8
0242_
  6
Continuous
 62
     7
370
     9
100
AcDbLine
 10
-719.8547619402076
 20
-341.2149067518576
 30
0.0
 11
-701.1200970232154
 21
-324.6608038542136
 31
0.0
  0
LINE
  5
16E
330
1F
100
AcDbEntity
  8
0234_
  6
Continuous
 62
     4
370
     9
100
AcDbLine
 10
-994.8542660295631
 20
-333.7153835890158
 30
0.0
 11
-879.8545092165137
 21
-333.7153835890158
 31
0.0
  0
LINE
  5
16F
330
1F
100
AcDbEntity
  8
0227_下階間仕切
  6
Continuous
 62
     2
370
     9
100
AcDbLine
 10
-854.8546737253333
 20
-259.2147161362036
 30
0.0
 11
-854.8546737253333
 21
-283.7145991918906
 31
0.0
  0
LINE
  5
170
330
1F
100
AcDbEntity
  8
0227_下階間仕切
  6
Continuous
 62
     2
370
     9
100
AcDbLine
 10
-854.8546737253333
 20
-378.2143421766623
 30
0.0
 11
-854.8546737253333
 21
-353.7144585249289
 31
0.0
  0
LINE
  5
171
330
1F
100
AcDbEntity
  8
0227_下階間仕切
  6
Continuous
 62
     2
370
     9
100
AcDbLine
 10
-876.8544250547553
 20
-256.2151268057742
 30
0.0
 11
-857.854139190879
 21
-256.2151268057742
 31
0.0
  0
LINE
  5
172
330
1F
100
AcDbEntity
  8
0227_下階間仕切
  6
Continuous
 62
     2
370
     9
100
AcDbLine
 10
-1004.854304176536
 20
-351.214639723049
 30
0.0
 11
-1004.854304176536
 21
-343.7147350904806
 31
0.0
  0
LINE
  5
173
330
1F
100
AcDbEntity
  8
0227_下階間仕切
  6
Continuous
 62
     2
370
     9
100
AcDbLine
 10
-1009.854695183005
 20
-351.214639723049
 30
0.0
 11
-1009.854695183005
 21
-343.7147350904806
 31
0.0
  0
LINE
  5
174
330
1F
100
AcDbEntity
  8
0227_下階間仕切
  6
Continuous
 62
     2
370
     9
100
AcDbLine
 10
-874.854739886489
 20
-376.2146587965353
 30
0.0
 11
-859.8544424593116
 21
-376.2146587965353
 31
0.0
  0
LINE
  5
175
330
1F
100
AcDbEntity
  8
0227_下階間仕切
  6
Continuous
 62
     2
370
     9
100
AcDbLine
 10
-874.8544925272132
 20
-381.2149162886008
 30
0.0
 11
-857.854139190879
 21
-381.2149162886008
 31
0.0
  0
LINE
  5
176
330
1F
100
AcDbEntity
  8
0227_下階間仕切
  6
Continuous
 62
     2
370
     9
100
AcDbLine
 10
-879.8545092165137
 20
-346.2143726942404
 30
0.0
 11
-879.8545092165137
 21
-259.2147161362036
 31
0.0
  0
LINE
  5
177
330
1F
100
AcDbEntity
  8
0227_下階間仕切
  6
Continuous
 62
     2
370
     9
100
AcDbLine
 10
-879.8545092165137
 20
-346.2143726942404
 30
0.0
 11
-929.8541801988746
 21
-346.2143726942404
 31
0.0
  0
LINE
  5
178
330
1F
100
AcDbEntity
  8
0227_下階間仕切
  6
Continuous
 62
     2
370
     9
100
AcDbLine
 10
-1004.854304176536
 20
-356.2148972151144
 30
0.0
 11
-879.8545092165137
 21
-356.2148972151144
 31
0.0
  0
LINE
  5
179
330
1F
100
AcDbEntity
  8
0227_下階間仕切
  6
Continuous
 62
     2
370
     9
100
AcDbLine
 10
-879.8545092165137
 20
-376.2149067518576
 30
0.0
 11
-879.8545092165137
 21
-356.2148972151144
 31
0.0
  0
LINE
  5
17A
330
1F
100
AcDbEntity
  8
0227_下階間仕切
  6
Continuous
 62
     2
370
     9
100
AcDbLine
 10
-874.854739886489
 20
-356.2146492597922
 30
0.0
 11
-874.854739886489
 21
-376.2146587965353
 31
0.0
  0
LINE
  5
17B
330
1F
100
AcDbEntity
  8
0227_下階間仕切
  6
Continuous
 62
     2
370
     9
100
AcDbLine
 10
-879.8547565757896
 20
-351.214639723049
 30
0.0
 11
-1004.854304176536
 21
-351.214639723049
 31
0.0
  0
LINE
  5
17C
330
1F
100
AcDbEntity
  8
0227_下階間仕切
  6
Continuous
 62
     2
370
     9
100
AcDbLine
 10
-874.854739886489
 20
-346.2146206495627
 30
0.0
 11
-874.854739886489
 21
-261.2144010064467
 31
0.0
  0
LINE
  5
17D
330
1F
100
AcDbEntity
  8
0234_
  6
Continuous
 62
     4
370
     9
100
AcDbLine
 10
-879.8545092165137
 20
-339.3057938215597
 30
0.0
 11
-886.763090920415
 21
-346.2143726942404
 31
0.0
  0
LINE
  5
17E
330
1F
100
AcDbEntity
  8
0234_
  6
Continuous
 62
     4
370
     9
100
AcDbLine
 10
-881.3344466507102
 20
-333.7153835890158
 30
0.0
 11
-893.8336217224265
 21
-346.2143726942404
 31
0.0
  0
LINE
  5
17F
330
1F
100
AcDbEntity
  8
0234_
  6
Continuous
 62
     4
370
     9
100
AcDbLine
 10
-888.4057819664146
 20
-333.7153835890158
 30
0.0
 11
-900.9049576341773
 21
-346.2143726942404
 31
0.0
  0
LINE
  5
180
330
1F
100
AcDbEntity
  8
0234_
  6
Continuous
 62
     4
370
     9
100
AcDbLine
 10
-895.4766219675208
 20
-333.7153835890158
 30
0.0
 11
-907.9757970392371
 21
-346.2143726942404
 31
0.0
  0
LINE
  5
181
330
1F
100
AcDbEntity
  8
0234_
  6
Continuous
 62
     4
370
     9
100
AcDbLine
 10
-902.5479572832252
 20
-333.7153835890158
 30
0.0
 11
-915.0471323549415
 21
-346.2143726942404
 31
0.0
  0
LINE
  5
182
330
1F
100
AcDbEntity
  8
0234_
  6
Continuous
 62
     4
370
     9
100
AcDbLine
 10
-909.6187990724708
 20
-333.7153835890158
 30
0.0
 11
-922.118157726493
 21
-346.2143726942404
 31
0.0
  0
LINE
  5
183
330
1F
100
AcDbEntity
  8
0234_
  6
Continuous
 62
     4
370
     9
100
AcDbLine
 10
-916.6901343881751
 20
-333.7153835890158
 30
0.0
 11
-929.1894930421973
 21
-346.2143726942404
 31
0.0
  0
LINE
  5
184
330
1F
100
AcDbEntity
  8
0234_
  6
Continuous
 62
     4
370
     9
100
AcDbLine
 10
-952.0458191454078
 20
-333.7153835890158
 30
0.0
 11
-957.0449083864356
 21
-338.7144680616721
 31
0.0
  0
LINE
  5
185
330
1F
100
AcDbEntity
  8
0234_
  6
Continuous
 62
     4
370
     9
100
AcDbLine
 10
-959.1166609346534
 20
-333.7153835890158
 30
0.0
 11
-964.1158121645118
 21
-338.7144680616721
 31
0.0
  0
LINE
  5
186
330
1F
100
AcDbEntity
  8
0234_
  6
Continuous
 62
     4
370
     9
100
AcDbLine
 10
-994.4723480760719
 20
-333.7153835890158
 30
0.0
 11
-999.4718044817115
 21
-338.7144680616721
 31
0.0
  0
LINE
  5
187
330
1F
100
AcDbEntity
  8
0234_
  6
Continuous
 62
     4
370
     9
100
AcDbLine
 10
-944.9744862138892
 20
-333.7153835890158
 30
0.0
 11
-949.9737518846656
 21
-338.7144680616721
 31
0.0
  0
LINE
  5
188
330
1F
100
AcDbEntity
  8
0234_
  6
Continuous
 62
     4
370
     9
100
AcDbLine
 10
-930.8323067247535
 20
-333.7153835890158
 30
0.0
 11
-935.8315008699561
 21
-338.7144680616721
 31
0.0
  0
LINE
  5
189
330
1F
100
AcDbEntity
  8
0234_
  6
Continuous
 62
     4
370
     9
100
AcDbLine
 10
-937.9036444246436
 20
-333.7153835890158
 30
0.0
 11
-942.9028194963599
 21
-338.7144680616721
 31
0.0
  0
LINE
  5
18A
330
1F
100
AcDbEntity
  8
0234_
  6
Continuous
 62
     4
370
     9
100
AcDbLine
 10
-966.1879986345435
 20
-333.7153835890158
 30
0.0
 11
-971.1870831071998
 21
-338.7144680616721
 31
0.0
  0
LINE
  5
18B
330
1F
100
AcDbEntity
  8
0234_
  6
Continuous
 62
     4
370
     9
100
AcDbLine
 10
-973.2588356554176
 20
-333.7153835890158
 30
0.0
 11
-978.2580154955054
 21
-338.7144680616721
 31
0.0
  0
LINE
  5
18C
330
1F
100
AcDbEntity
  8
0234_
  6
Continuous
 62
     4
370
     9
100
AcDbLine
 10
-980.3296726762916
 20
-333.7153835890158
 30
0.0
 11
-985.328881126609
 21
-338.7144680616721
 31
0.0
  0
LINE
  5
18D
330
1F
100
AcDbEntity
  8
0234_
  6
Continuous
 62
     4
370
     9
100
AcDbLine
 10
-987.4010151445533
 20
-333.7153835890158
 30
0.0
 11
-992.4002808153297
 21
-338.7144680616721
 31
0.0
  0
LINE
  5
18E
330
1F
100
AcDbEntity
  8
0227_下階間仕切
  6
Continuous
 62
     2
370
     9
100
AcDbLine
 10
-934.8545092165137
 20
-343.7147350904806
 30
0.0
 11
-1004.854304176536
 21
-343.7147350904806
 31
0.0
  0
LINE
  5
18F
330
1F
100
AcDbEntity
  8
0227_下階間仕切
  6
Continuous
 62
     2
370
     9
100
AcDbLine
 10
-934.8545092165137
 20
-346.214639723049
 30
0.0
 11
-934.8545092165137
 21
-343.7147350904806
 31
0.0
  0
LINE
  5
190
330
1F
100
AcDbEntity
  8
0227_下階間仕切
  6
Continuous
 62
     2
370
     9
100
AcDbLine
 10
-934.8545092165137
 20
-338.7144680616721
 30
0.0
 11
-1004.854304176536
 21
-338.7144680616721
 31
0.0
  0
LINE
  5
191
330
1F
100
AcDbEntity
  8
0227_下階間仕切
  6
Continuous
 62
     2
370
     9
100
AcDbLine
 10
-929.8545092165137
 20
-343.7144680616721
 30
0.0
 11
-929.8545092165137
 21
-346.2143726942404
 31
0.0
  0
LINE
  5
192
330
1F
100
AcDbEntity
  8
0234_
  6
Continuous
 62
     4
370
     9
100
AcDbLine
 10
-923.7614697038795
 20
-333.7153835890158
 30
0.0
 11
-930.8145683824683
 21
-340.7684822676047
 31
0.0
  0
LINE
  5
193
330
1F
100
AcDbEntity
  8
0217_
  6
Continuous
 62
     3
370
     9
100
AcDbLine
 10
-871.3544565260078
 20
-261.2144010064467
 30
0.0
 11
-871.3544565260078
 21
-373.7144013044699
 31
0.0
  0
LINE
  5
194
330
1F
100
AcDbEntity
  8
0217_
  6
Continuous
 62
     3
370
     9
100
AcDbLine
 10
-709.8545712053443
 20
-351.2143250105246
 30
0.0
 11
-709.8545712053443
 21
-391.2143345472678
 31
0.0
  0
LINE
  5
195
330
1F
100
AcDbEntity
  8
0217_
  6
Continuous
 62
     3
370
     9
100
AcDbLine
 10
-834.8544853746558
 20
-373.034069120632
 30
0.0
 11
-834.8544853746558
 21
-391.2143345472678
 31
0.0
  0
LINE
  5
196
330
1F
100
AcDbEntity
  8
0217_
  6
Continuous
 62
     3
370
     9
100
AcDbLine
 10
-837.783429008689
 20
-365.9629746076926
 30
0.0
 11
-859.8544424593116
 21
-343.8919659254416
 31
0.0
  0
LINE
  5
197
330
1F
100
AcDbEntity
  8
0217_
  6
JWW_CENTER1
 62
     3
370
     9
100
AcDbLine
 10
-809.9160164415504
 20
-312.7142973539694
 30
0.0
 11
-878.5869985639716
 21
-312.7142973539694
 31
0.0
  0
LINE
  5
198
330
1F
100
AcDbEntity
  8
0217_
  6
Continuous
 62
     3
370
     9
100
AcDbLine
 10
-817.1768873750831
 20
-333.8919325468405
 30
0.0
 11
-820.3542631685401
 21
-330.7145567533835
 31
0.0
  0
LINE
  5
199
330
1F
100
AcDbEntity
  8
0217_
  6
Continuous
 62
     3
370
     9
100
AcDbLine
 10
-848.3549254953529
 20
-302.7137728330954
 30
0.0
 11
-859.8544424593116
 21
-291.2142534849509
 31
0.0
  0
LINE
  5
19A
330
1F
100
AcDbEntity
  8
0243_
  6
Continuous
 62
     7
370
     9
100
AcDbLine
 10
-873.6051696359779
 20
-322.713834821926
 30
0.0
 11
-873.6051696359779
 21
-302.7137728330954
 31
0.0
  0
LINE
  5
19B
330
1F
100
AcDbEntity
  8
0243_
  6
Continuous
 62
     7
370
     9
100
AcDbLine
 10
-873.6051696359779
 20
-302.7137728330954
 30
0.0
 11
-874.854739886489
 21
-303.963834821926
 31
0.0
  0
LINE
  5
19C
330
1F
100
AcDbEntity
  8
0243_
  6
Continuous
 62
     7
370
     9
100
AcDbLine
 10
-873.6051696359779
 20
-322.713834821926
 30
0.0
 11
-874.854739886489
 21
-321.4642639753683
 31
0.0
  0
LINE
  5
19D
330
1F
100
AcDbEntity
  8
0243_
  6
Continuous
 62
     7
370
     9
100
AcDbLine
 10
-811.8547075807716
 20
-324.2145605680807
 30
0.0
 11
-811.8547075807716
 21
-301.2140389082297
 31
0.0
  0
LINE
  5
19E
330
1F
100
AcDbEntity
  8
0243_
  6
Continuous
 62
     7
370
     9
100
AcDbLine
 10
-818.3547037660743
 20
-330.7145567533835
 30
0.0
 11
-824.854699951377
 21
-330.7145567533835
 31
0.0
  0
LINE
  5
19F
330
1F
100
AcDbEntity
  8
0243_
  6
Continuous
 62
     7
370
     9
100
AcDbLine
 10
-818.3547037660743
 20
-294.7140403387411
 30
0.0
 11
-824.854699951377
 21
-294.7140403387411
 31
0.0
  0
LINE
  5
1A0
330
1F
100
AcDbEntity
  8
0243_
  6
Continuous
 62
     7
370
     9
100
AcDbLine
 10
-824.854699951377
 20
-294.7140403387411
 30
0.0
 11
-824.854699951377
 21
-330.7145567533835
 31
0.0
  0
LINE
  5
1A1
330
1F
100
AcDbEntity
  8
0243_
  6
Continuous
 62
     7
370
     9
100
AcDbLine
 10
-824.854699951377
 20
-302.7137728330954
 30
0.0
 11
-859.8544424593116
 21
-302.7137728330954
 31
0.0
  0
LINE
  5
1A2
330
1F
100
AcDbEntity
  8
0243_
  6
Continuous
 62
     7
370
     9
100
AcDbLine
 10
-824.854699951377
 20
-303.963834821926
 30
0.0
 11
-859.8544424593116
 21
-303.963834821926
 31
0.0
  0
LINE
  5
1A3
330
1F
100
AcDbEntity
  8
0243_
  6
Continuous
 62
     7
370
     9
100
AcDbLine
 10
-824.854699951377
 20
-321.4642639753683
 30
0.0
 11
-859.8544424593116
 21
-321.4642639753683
 31
0.0
  0
LINE
  5
1A4
330
1F
100
AcDbEntity
  8
0243_
  6
Continuous
 62
     7
370
     9
100
AcDbLine
 10
-824.854699951377
 20
-322.713834821926
 30
0.0
 11
-859.8544424593116
 21
-322.713834821926
 31
0.0
  0
LINE
  5
1A5
330
1F
100
AcDbEntity
  8
0243_
  6
Continuous
 62
     7
370
     9
100
AcDbLine
 10
-871.3544565260078
 20
-321.4642639753683
 30
0.0
 11
-874.854739886489
 21
-321.4642639753683
 31
0.0
  0
LINE
  5
1A6
330
1F
100
AcDbEntity
  8
0243_
  6
Continuous
 62
     7
370
     9
100
AcDbLine
 10
-871.3544565260078
 20
-322.713834821926
 30
0.0
 11
-873.6051696359779
 21
-322.713834821926
 31
0.0
  0
LINE
  5
1A7
330
1F
100
AcDbEntity
  8
0243_
  6
Continuous
 62
     7
370
     9
100
AcDbLine
 10
-871.3544565260078
 20
-303.963834821926
 30
0.0
 11
-874.854739886489
 21
-303.963834821926
 31
0.0
  0
LINE
  5
1A8
330
1F
100
AcDbEntity
  8
0243_
  6
Continuous
 62
     7
370
     9
100
AcDbLine
 10
-871.3544565260078
 20
-302.7137728330954
 30
0.0
 11
-873.6051696359779
 21
-302.7137728330954
 31
0.0
  0
LINE
  5
1A9
330
1F
100
AcDbEntity
  8
0217_
  6
Continuous
 62
     3
370
     9
100
AcDbLine
 10
-719.8544758379127
 20
-341.2144203779562
 30
0.0
 11
-799.4991653978492
 21
-341.2144203779562
 31
0.0
  0
LINE
  5
1AA
330
1F
100
AcDbEntity
  8
0217_
  6
Continuous
 62
     3
370
     9
100
AcDbLine
 10
-834.8544853746558
 20
-391.2143345472678
 30
0.0
 11
-709.8545712053443
 21
-391.2143345472678
 31
0.0
  0
LINE
  5
1AB
330
1F
100
AcDbEntity
  8
0227_下階間仕切
  6
Continuous
 62
     2
370
     9
100
AcDbLine
 10
-874.854739886489
 20
-261.2144010064467
 30
0.0
 11
-859.8544424593116
 21
-261.2144010064467
 31
0.0
  0
LINE
  5
1AC
330
1F
100
AcDbEntity
  8
0227_下階間仕切
  6
Continuous
 62
     2
370
     9
100
AcDbLine
 10
-854.8546737253333
 20
-283.7145991918906
 30
0.0
 11
-859.8544424593116
 21
-283.7145991918906
 31
0.0
  0
LINE
  5
1AD
330
1F
100
AcDbEntity
  8
0227_下階間仕切
  6
Continuous
 62
     2
370
     9
100
AcDbLine
 10
-859.8544424593116
 20
-283.7145991918906
 30
0.0
 11
-859.8544424593116
 21
-261.2144010064467
 31
0.0
  0
LINE
  5
1AE
330
1F
100
AcDbEntity
  8
0217_
  6
Continuous
 62
     3
370
     9
100
AcDbLine
 10
-871.3544565260078
 20
-261.2144010064467
 30
0.0
 11
-859.8544424593116
 21
-261.2144010064467
 31
0.0
  0
LINE
  5
1AF
330
1F
100
AcDbEntity
  8
0227_下階間仕切
  6
Continuous
 62
     2
370
     9
100
AcDbLine
 10
-854.8546737253333
 20
-353.7144585249289
 30
0.0
 11
-859.8544424593116
 21
-353.7144585249289
 31
0.0
  0
LINE
  5
1B0
330
1F
100
AcDbEntity
  8
0227_下階間仕切
  6
Continuous
 62
     2
370
     9
100
AcDbLine
 10
-859.8544424593116
 20
-376.2146587965353
 30
0.0
 11
-859.8544424593116
 21
-353.7144585249289
 31
0.0
  0
LINE
  5
1B1
330
1F
100
AcDbEntity
  8
0217_
  6
Continuous
 62
     3
370
     9
100
AcDbLine
 10
-871.3544565260078
 20
-373.7144013044699
 30
0.0
 11
-859.8544424593116
 21
-373.7144013044699
 31
0.0
  0
LINE
  5
1B2
330
1F
100
AcDbEntity
  8
0217_
  6
Continuous
 62
     3
370
     9
100
AcDbLine
 10
-859.8544424593116
 20
-261.2144010064467
 30
0.0
 11
-859.8544424593116
 21
-373.7144013044699
 31
0.0
  0
LINE
  5
1B3
330
1F
100
AcDbEntity
  8
0220_
  6
Continuous
 62
     6
370
     9
100
AcDbLine
 10
-857.854139190879
 20
-256.2147160169943
 30
0.0
 11
-444.8527592241431
 21
-256.2147160169943
 31
0.0
  0
LINE
  5
1B4
330
1F
100
AcDbEntity
  8
0220_
  6
Continuous
 62
     6
370
     9
100
AcDbLine
 10
-1009.853627067771
 20
-351.214639723049
 30
0.0
 11
-1009.853627067771
 21
-756.2140675184593
 31
0.0
  0
LINE
  5
1B5
330
1F
100
AcDbEntity
  8
0216_
  6
Continuous
 62
     7
370
     9
100
AcDbLine
 10
-926.7085045396949
 20
-381.2145538923605
 30
0.0
 11
-1158.336703163352
 21
-381.2145538923605
 31
0.0
  0
LINE
  5
1B6
330
1F
100
AcDbEntity
  8
0242_
  6
Continuous
 62
     7
370
     9
100
AcDbLine
 10
-885.3373667046095
 20
-394.991552412258
 30
0.0
 11
-950.3858583986427
 21
-338.3745499250754
 31
0.0
  0
LINE
  5
1B7
330
1F
100
AcDbEntity
  8
0242_
  6
Continuous
 62
     7
370
     9
100
AcDbLine
 10
-950.3858583986427
 20
-338.3745499250754
 30
0.0
 11
-933.8322466432716
 21
-357.108718931423
 31
0.0
  0
LINE
  5
1B8
330
1F
100
AcDbEntity
  8
0242_
  6
Continuous
 62
     7
370
     9
100
AcDbLine
 10
-950.3858583986427
 20
-338.3745499250754
 30
0.0
 11
-929.5474356233741
 21
-352.1862431166037
 31
0.0
  0
ARC
  5
1B9
330
1F
100
AcDbEntity
  8
0234_
  6
Continuous
 62
     4
370
     9
100
AcDbCircle
 10
-994.8542660295631
 20
-338.7146587965353
 30
0.0
 40
5.0
100
AcDbArc
 50
90.0
 51
180.0
  0
ARC
  5
1BA
330
1F
100
AcDbEntity
  8
0227_下階間仕切
  6
Continuous
 62
     2
370
     9
100
AcDbCircle
 10
-1004.854304176536
 20
-343.7147350904806
 30
0.0
 40
5.0
100
AcDbArc
 50
90.0
 51
180.0
  0
ARC
  5
1BB
330
1F
100
AcDbEntity
  8
0227_下階間仕切
  6
Continuous
 62
     2
370
     9
100
AcDbCircle
 10
-857.854139190879
 20
-259.2147161362036
 30
0.0
 40
3.00000011920929
100
AcDbArc
 50
0.0
 51
90.0
  0
ARC
  5
1BC
330
1F
100
AcDbEntity
  8
0227_下階間仕切
  6
Continuous
 62
     2
370
     9
100
AcDbCircle
 10
-876.8544250547553
 20
-259.2147161362036
 30
0.0
 40
3.00000011920929
100
AcDbArc
 50
90.0
 51
180.0
  0
ARC
  5
1BD
330
1F
100
AcDbEntity
  8
0227_下階間仕切
  6
Continuous
 62
     2
370
     9
100
AcDbCircle
 10
-857.854139190879
 20
-378.2143421766623
 30
0.0
 40
3.00000011920929
100
AcDbArc
 50
270.0
 51
0.0
  0
ARC
  5
1BE
330
1F
100
AcDbEntity
  8
0227_下階間仕切
  6
Continuous
 62
     2
370
     9
100
AcDbCircle
 10
-1004.854304176536
 20
-351.214639723049
 30
0.0
 40
5.0
100
AcDbArc
 50
180.0
 51
270.0
  0
ARC
  5
1BF
330
1F
100
AcDbEntity
  8
0227_下階間仕切
  6
Continuous
 62
     2
370
     9
100
AcDbCircle
 10
-874.8544925272132
 20
-376.2149067518576
 30
0.0
 40
5.0
100
AcDbArc
 50
180.0
 51
270.0
  0
ARC
  5
1C0
330
1F
100
AcDbEntity
  8
0227_下階間仕切
  6
Continuous
 62
     2
370
     9
100
AcDbCircle
 10
-879.8547565757896
 20
-356.2146492597922
 30
0.0
 40
5.0
100
AcDbArc
 50
0.0
 51
90.0
  0
ARC
  5
1C1
330
1F
100
AcDbEntity
  8
0227_下階間仕切
  6
Continuous
 62
     2
370
     9
100
AcDbCircle
 10
-879.8547565757896
 20
-346.2146206495627
 30
0.0
 40
5.0
100
AcDbArc
 50
270.0
 51
0.0
  0
ARC
  5
1C2
330
1F
100
AcDbEntity
  8
0227_下階間仕切
  6
Continuous
 62
     2
370
     9
100
AcDbCircle
 10
-929.8545092165137
 20
-346.214639723049
 30
0.0
 40
5.0
100
AcDbArc
 50
180.0
 51
270.0
  0
ARC
  5
1C3
330
1F
100
AcDbEntity
  8
0227_下階間仕切
  6
Continuous
 62
     2
370
     9
100
AcDbCircle
 10
-934.8545092165137
 20
-343.7144680616721
 30
0.0
 40
5.0
100
AcDbArc
 50
0.0
 51
90.0
  0
ARC
  5
1C4
330
1F
100
AcDbEntity
  8
0217_
  6
Continuous
 62
     3
370
     9
100
AcDbCircle
 10
-799.4991653978492
 20
-316.2143345472678
 30
0.0
 40
25.0
100
AcDbArc
 50
225.0
 51
270.0
  0
ARC
  5
1C5
330
1F
100
AcDbEntity
  8
0217_
  6
Continuous
 62
     3
370
     9
100
AcDbCircle
 10
-719.8544758379127
 20
-351.2143250105246
 30
0.0
 40
10.0
100
AcDbArc
 50
0.0
 51
90.0
  0
ARC
  5
1C6
330
1F
100
AcDbEntity
  8
0217_
  6
Continuous
 62
     3
370
     9
100
AcDbCircle
 10
-844.8545163690711
 20
-373.034069120632
 30
0.0
 40
10.0
100
AcDbArc
 50
0.0
 51
45.000244140625
  0
ARC
  5
1C7
330
1F
100
AcDbEntity
  8
0243_
  6
Continuous
 62
     7
370
     9
100
AcDbCircle
 10
-818.3547037660743
 20
-301.2140389082297
 30
0.0
 40
6.499999761581421
100
AcDbArc
 50
0.0
 51
90.0
  0
ARC
  5
1C8
330
1F
100
AcDbEntity
  8
0243_
  6
Continuous
 62
     7
370
     9
100
AcDbCircle
 10
-818.3547037660743
 20
-324.2145605680807
 30
0.0
 40
6.499999761581421
100
AcDbArc
 50
270.0
 51
0.0
  0
LWPOLYLINE
  5
1C9
330
1F
100
AcDbEntity
  8
0216_
  6
Continuous
 62
     7
370
     9
100
AcDbPolyline
 90
        4
 70
     1
 43
1.0
 10
-854.3546403467324
 20
84.15252488876739
 42
0.4142135623731
 10
-854.8546403467323
 20
84.6525248887674
 42
0.4142135623731
 10
-855.3546403467323
 20
84.15252488876739
 42
0.4142135623731
 10
-854.8546403467323
 20
83.65252488876737
 42
0.4142135623731
  0
LWPOLYLINE
  5
1CA
330
1F
100
AcDbEntity
  8
0216_
  6
Continuous
 62
     7
370
     9
100
AcDbPolyline
 90
        4
 70
     1
 43
1.0
 10
-1009.353627067771
 20
-135.295564710842
 42
0.4142135623731
 10
-1009.853627067771
 20
-134.795564710842
 42
0.4142135623731
 10
-1010.353627067771
 20
-135.295564710842
 42
0.4142135623731
 10
-1009.853627067771
 20
-135.795564710842
 42
0.4142135623731
  0
LWPOLYLINE
  5
1CB
330
1F
100
AcDbEntity
  8
0216_
  6
Continuous
 62
     7
370
     9
100
AcDbPolyline
 90
        4
 70
     1
 43
1.0
 10
-884.353789192405
 20
-135.295564710842
 42
0.4142135623731
 10
-884.8537891924049
 20
-134.795564710842
 42
0.4142135623731
 10
-885.3537891924049
 20
-135.295564710842
 42
0.4142135623731
 10
-884.8537891924049
 20
-135.795564710842
 42
0.4142135623731
  0
LWPOLYLINE
  5
1CC
330
1F
100
AcDbEntity
  8
0216_
  6
Continuous
 62
     7
370
     9
100
AcDbPolyline
 90
        4
 70
     1
 43
1.0
 10
-884.353789192405
 20
-26.54314237807831
 42
0.4142135623731
 10
-884.8537891924049
 20
-26.04314237807831
 42
0.4142135623731
 10
-885.3537891924049
 20
-26.54314237807831
 42
0.4142135623731
 10
-884.8537891924049
 20
-27.04314237807831
 42
0.4142135623731
  0
LWPOLYLINE
  5
1CD
330
1F
100
AcDbEntity
  8
0216_
  6
Continuous
 62
     7
370
     9
100
AcDbPolyline
 90
        4
 70
     1
 43
1.0
 10
-879.3535185873177
 20
-26.54314237807831
 42
0.4142135623731
 10
-879.8535185873176
 20
-26.04314237807831
 42
0.4142135623731
 10
-880.3535185873176
 20
-26.54314237807831
 42
0.4142135623731
 10
-879.8535185873176
 20
-27.04314237807831
 42
0.4142135623731
  0
LWPOLYLINE
  5
1CE
330
1F
100
AcDbEntity
  8
0216_
  6
Continuous
 62
     7
370
     9
100
AcDbPolyline
 90
        4
 70
     1
 43
1.0
 10
-854.3546403467324
 20
-26.54314237807831
 42
0.4142135623731
 10
-854.8546403467323
 20
-26.04314237807831
 42
0.4142135623731
 10
-855.3546403467323
 20
-26.54314237807831
 42
0.4142135623731
 10
-854.8546403467323
 20
-27.04314237807831
 42
0.4142135623731
  0
LWPOLYLINE
  5
1CF
330
1F
100
AcDbEntity
  8
0216_
  6
Continuous
 62
     7
370
     9
100
AcDbPolyline
 90
        4
 70
     1
 43
1.0
 10
-1154.836138588157
 20
-381.2145538923605
 42
0.4142135623731
 10
-1155.336138588157
 20
-380.7145538923606
 42
0.4142135623731
 10
-1155.836138588157
 20
-381.2145538923605
 42
0.4142135623731
 10
-1155.336138588157
 20
-381.7145538923605
 42
0.4142135623731
  0
LWPOLYLINE
  5
1D0
330
1F
100
AcDbEntity
  8
0216_
  6
Continuous
 62
     7
370
     9
100
AcDbPolyline
 90
        4
 70
     1
 43
1.0
 10
-1154.836138588157
 20
-256.2147160169943
 42
0.4142135623731
 10
-1155.336138588157
 20
-255.7147160169943
 42
0.4142135623731
 10
-1155.836138588157
 20
-256.2147160169943
 42
0.4142135623731
 10
-1155.336138588157
 20
-256.7147160169943
 42
0.4142135623731
  0
LWPOLYLINE
  5
1D1
330
1F
100
AcDbEntity
  8
0216_
  6
Continuous
 62
     7
370
     9
100
AcDbPolyline
 90
        4
 70
     1
 43
1.0
 10
-1009.353627067771
 20
-661.8331928846702
 42
0.4142135623731
 10
-1009.853627067771
 20
-661.3331928846702
 42
0.4142135623731
 10
-1010.353627067771
 20
-661.8331928846702
 42
0.4142135623731
 10
-1009.853627067771
 20
-662.3331928846701
 42
0.4142135623731
  0
LWPOLYLINE
  5
1D2
330
1F
100
AcDbEntity
  8
0216_
  6
Continuous
 62
     7
370
     9
100
AcDbPolyline
 90
        4
 70
     1
 43
1.0
 10
-859.354416233268
 20
-661.8331928846702
 42
0.4142135623731
 10
-859.8544162332679
 20
-661.3331928846702
 42
0.4142135623731
 10
-860.3544162332679
 20
-661.8331928846702
 42
0.4142135623731
 10
-859.8544162332679
 20
-662.3331928846701
 42
0.4142135623731
  0
TEXT
  5
1D3
330
1F
100
AcDbEntity
  8
0216_
  6
Continuous
 62
     2
370
     9
100
AcDbText
 10
-968.6028736650611
 20
-124.6552881452902
 30
0.0
 40
30.48
  1
25
 41
1.0625
  7
ＭＳ ゴシック
100
AcDbText
  0
TEXT
  5
1D4
330
1F
100
AcDbEntity
  8
0216_
  6
Continuous
 62
     2
370
     9
100
AcDbText
 10
-1001.103646141257
 20
-651.1939176771507
 30
0.0
 40
30.48
  1
25～30
 41
1.104166666666667
  7
ＭＳ ゴシック
100
AcDbText
  0
TEXT
  5
1D5
330
1F
100
AcDbEntity
  8
0242_
  6
Continuous
 62
     7
370
     9
100
AcDbText
 10
-597.6662128984595
 20
-230.863919813381
 30
0.0
 40
22.86
  1
ｔ＝２．３（ＳＰＨＣ）
 41
1.151515151515152
  7
ＭＳ ゴシック
100
AcDbText
  0
LINE
  5
1D6
330
1F
100
AcDbEntity
  8
0216_
  6
Continuous
 62
     7
370
     9
100
AcDbLine
 10
-283.8235920488502
 20
-506.2143917677267
 30
0.0
 11
-283.8235920488502
 21
-256.2147160169943
 31
0.0
  0
LINE
  5
1D7
330
1F
100
AcDbEntity
  8
0216_
  6
Continuous
 62
     7
370
     9
100
AcDbLine
 10
-433.8235920488502
 20
-256.2147160169943
 30
0.0
 11
-280.8240192949439
 21
-256.2147160169943
 31
0.0
  0
LINE
  5
1D8
330
1F
100
AcDbEntity
  8
0216_
  6
Continuous
 62
     7
370
     9
100
AcDbLine
 10
-554.0748661577369
 20
-506.2143917677267
 30
0.0
 11
-280.8240192949439
 21
-506.2143917677267
 31
0.0
  0
LWPOLYLINE
  5
1D9
330
1F
100
AcDbEntity
  8
0216_
  6
Continuous
 62
     7
370
     9
100
AcDbPolyline
 90
        4
 70
     1
 43
1.0
 10
-283.3235920488502
 20
-256.2147160169943
 42
0.4142135623731
 10
-283.8235920488502
 20
-255.7147160169943
 42
0.4142135623731
 10
-284.3235920488502
 20
-256.2147160169943
 42
0.4142135623731
 10
-283.8235920488502
 20
-256.7147160169943
 42
0.4142135623731
  0
LWPOLYLINE
  5
1DA
330
1F
100
AcDbEntity
  8
0216_
  6
Continuous
 62
     7
370
     9
100
AcDbPolyline
 90
        4
 70
     1
 43
1.0
 10
-283.3235920488502
 20
-506.2143917677267
 42
0.4142135623731
 10
-283.8235920488502
 20
-505.7143917677268
 42
0.4142135623731
 10
-284.3235920488502
 20
-506.2143917677267
 42
0.4142135623731
 10
-283.8235920488502
 20
-506.7143917677267
 42
0.4142135623731
  0
TEXT
  5
1DB
330
1F
100
AcDbEntity
  8
0216_
  6
Continuous
 62
     2
370
     9
100
AcDbText
 10
-294.4628672563697
 20
-447.4646781165539
 30
0.0
 40
30.48
  1
40～50
 50
90.00000250447816
 41
1.104166666666666
  7
ＭＳ ゴシック
100
AcDbText
  0
LINE
  5
1DC
330
1F
100
AcDbEntity
  8
0216_
  6
Continuous
 62
     7
370
     9
100
AcDbLine
 10
-1009.853627067771
 20
-931.2144108412132
 30
0.0
 11
-609.8527592241431
 21
-931.2144108412132
 31
0.0
  0
LINE
  5
1DD
330
1F
100
AcDbEntity
  8
0216_
  6
Continuous
 62
     7
370
     9
100
AcDbLine
 10
-609.8527592241431
 20
-576.0883732435568
 30
0.0
 11
-609.8527592241431
 21
-934.2139835951194
 31
0.0
  0
LINE
  5
1DE
330
1F
100
AcDbEntity
  8
0216_
  6
Continuous
 62
     7
370
     9
100
AcDbLine
 10
-1009.853627067771
 20
-781.2144108412132
 30
0.0
 11
-1009.853627067771
 21
-934.2139835951194
 31
0.0
  0
LWPOLYLINE
  5
1DF
330
1F
100
AcDbEntity
  8
0216_
  6
Continuous
 62
     7
370
     9
100
AcDbPolyline
 90
        4
 70
     1
 43
1.0
 10
-1009.353627067771
 20
-931.2144108412132
 42
0.4142135623731
 10
-1009.853627067771
 20
-930.7144108412132
 42
0.4142135623731
 10
-1010.353627067771
 20
-931.2144108412132
 42
0.4142135623731
 10
-1009.853627067771
 20
-931.7144108412131
 42
0.4142135623731
  0
LWPOLYLINE
  5
1E0
330
1F
100
AcDbEntity
  8
0216_
  6
Continuous
 62
     7
370
     9
100
AcDbPolyline
 90
        4
 70
     1
 43
1.0
 10
-609.3527592241433
 20
-931.2144108412132
 42
0.4142135623731
 10
-609.8527592241431
 20
-930.7144108412132
 42
0.4142135623731
 10
-610.3527592241431
 20
-931.2144108412132
 42
0.4142135623731
 10
-609.8527592241431
 20
-931.7144108412131
 42
0.4142135623731
  0
TEXT
  5
1E1
330
1F
100
AcDbEntity
  8
0216_
  6
Continuous
 62
     2
370
     9
100
AcDbText
 10
-877.7219906777145
 20
-920.574143812444
 30
0.0
 40
30.48
  1
75～80
 50
359.9997855578312
 41
1.104166666666666
  7
ＭＳ ゴシック
100
AcDbText
  0
LINE
  5
1E2
330
1F
100
AcDbEntity
  8
0242_
  6
Continuous
 62
     7
370
     9
100
AcDbLine
 10
-683.955976237148
 20
15.02042205239967
 30
0.0
 11
-922.2063446694915
 21
-258.7155073089261
 31
0.0
  0
LINE
  5
1E3
330
1F
100
AcDbEntity
  8
0242_
  6
Continuous
 62
     7
370
     9
100
AcDbLine
 10
-922.2063446694915
 20
-258.7155073089261
 30
0.0
 11
-908.3956480676238
 21
-237.8770821494718
 31
0.0
  0
LINE
  5
1E4
330
1F
100
AcDbEntity
  8
0242_
  6
Continuous
 62
     7
370
     9
100
AcDbLine
 10
-922.2063446694915
 20
-258.7155073089261
 30
0.0
 11
-903.4726691896026
 21
-242.1613996429105
 31
0.0
  0
LINE
  5
1E5
330
1F
100
AcDbEntity
  8
0242_
  6
Continuous
 62
     7
370
     9
100
AcDbLine
 10
-625.2051163218168
 20
-96.11426281588143
 30
0.0
 11
-365.8222580454496
 21
-96.11426281588143
 31
0.0
  0
LINE
  5
1E6
330
1F
100
AcDbEntity
  8
0242_
  6
Continuous
 62
     7
370
     9
100
AcDbLine
 10
-674.7004700205473
 20
-41.25199246065683
 30
0.0
 11
-861.7966550409461
 21
-256.2147160169943
 31
0.0
  0
LINE
  5
1E7
330
1F
100
AcDbEntity
  8
0242_
  6
Continuous
 62
     7
370
     9
100
AcDbLine
 10
-625.2051163218168
 20
-96.11426281588143
 30
0.0
 11
-885.3373667046095
 21
-394.991552412258
 31
0.0
  0
LINE
  5
1E8
330
1F
100
AcDbEntity
  8
0242_
  6
Continuous
 62
     7
370
     9
100
AcDbLine
 10
-674.7004700205473
 20
-41.25199246065683
 30
0.0
 11
-223.9101028940824
 21
-41.2519924606568
 31
0.0
  0
TEXT
  5
1E9
330
1F
100
AcDbEntity
  8
0242_
  6
Continuous
 62
     7
370
     9
100
AcDbText
 10
-675.0611687204985
 20
-32.26352001802988
 30
0.0
 40
22.86
  1
ステンレス製受枠ＳＦ１５Ｂ
 41
1.153846153846154
  7
ＭＳ ゴシック
100
AcDbText
  0
TEXT
  5
1EA
330
1F
100
AcDbEntity
  8
0242_
  6
Continuous
 62
     7
370
     9
100
AcDbText
 10
-622.7929557158657
 20
-89.48085032250772
 30
0.0
 40
22.86
  1
クッション材
 50
0.0000000020107014
 41
1.138888888888889
  7
ＭＳ ゴシック
100
AcDbText
  0
TEXT
  5
1EB
330
1F
100
AcDbEntity
  8
0242_
  6
Continuous
 62
     7
370
     9
100
AcDbText
 10
-645.6473224367173
 20
-127.6269813048567
 30
0.0
 40
22.86
  1
（軟質塩化ビニル）
 50
0.0000000020106982
 41
1.148148148148149
  7
ＭＳ ゴシック
100
AcDbText
  0
LINE
  5
1EC
330
1F
100
AcDbEntity
  8
0242_
  6
Continuous
 62
     7
370
     9
100
AcDbLine
 10
-599.605471473899
 20
-560.8464131105382
 30
0.0
 11
-403.2121200695733
 21
-560.8464131105382
 31
0.0
  0
LINE
  5
1ED
330
1F
100
AcDbEntity
  8
0242_
  6
Continuous
 62
     7
370
     9
100
AcDbLine
 10
-721.3520687639381
 20
-420.9656700838048
 30
0.0
 11
-599.605471473899
 21
-560.8464131105382
 31
0.0
  0
TEXT
  5
1EE
330
1F
100
AcDbEntity
  8
0242_
  6
Continuous
 62
     7
370
     9
100
AcDbText
 10
-599.16351972219
 20
-549.1526718080479
 30
0.0
 40
22.86
  1
差筋φ9程度
 41
1.136363636363636
  7
ＭＳ ゴシック
100
AcDbText
  0
LINE
  5
1EF
330
1F
100
AcDbEntity
  8
0242_
  6
Continuous
 62
     7
370
     9
100
AcDbLine
 10
-721.3520687639381
 20
-420.9656700838048
 30
0.0
 11
-702.6174038469459
 21
-437.5197729814488
 31
0.0
  0
LINE
  5
1F0
330
1F
100
AcDbEntity
  8
0242_
  6
Continuous
 62
     7
370
     9
100
AcDbLine
 10
-721.3520687639381
 20
-420.9656700838048
 30
0.0
 11
-707.5403851091529
 21
-441.8050846803624
 31
0.0
  0
LINE
  5
1F1
330
1F
100
AcDbEntity
  8
0216_
  6
Continuous
 62
     7
370
     9
100
AcDbLine
 10
-698.0273693620826
 20
-391.2150974867209
 30
0.0
 11
-595.0268238603736
 21
-391.2150974867209
 31
0.0
  0
LINE
  5
1F2
330
1F
100
AcDbEntity
  8
0216_
  6
Continuous
 62
     7
370
     9
100
AcDbLine
 10
-698.0273693620826
 20
-341.2148590681418
 30
0.0
 11
-595.0268238603736
 21
-341.2148590681418
 31
0.0
  0
LINE
  5
1F3
330
1F
100
AcDbEntity
  8
0216_
  6
Continuous
 62
     7
370
     9
100
AcDbLine
 10
-598.0273693620826
 20
-341.2148590681418
 30
0.0
 11
-598.0273693620826
 21
-256.2147160169943
 31
0.0
  0
LINE
  5
1F4
330
1F
100
AcDbEntity
  8
0216_
  6
Continuous
 62
     7
370
     9
100
AcDbLine
 10
-598.0273693620826
 20
-391.2150974867209
 30
0.0
 11
-598.0273693620826
 21
-341.2148590681418
 31
0.0
  0
LWPOLYLINE
  5
1F5
330
1F
100
AcDbEntity
  8
0216_
  6
Continuous
 62
     7
370
     9
100
AcDbPolyline
 90
        4
 70
     1
 43
1.0
 10
-597.5273693620827
 20
-256.2147160169943
 42
0.4142135623731
 10
-598.0273693620826
 20
-255.7147160169943
 42
0.4142135623731
 10
-598.5273693620826
 20
-256.2147160169943
 42
0.4142135623731
 10
-598.0273693620826
 20
-256.7147160169943
 42
0.4142135623731
  0
LWPOLYLINE
  5
1F6
330
1F
100
AcDbEntity
  8
0216_
  6
Continuous
 62
     7
370
     9
100
AcDbPolyline
 90
        4
 70
     1
 43
1.0
 10
-597.5273693620827
 20
-341.2148590681418
 42
0.4142135623731
 10
-598.0273693620826
 20
-340.7148590681418
 42
0.4142135623731
 10
-598.5273693620826
 20
-341.2148590681418
 42
0.4142135623731
 10
-598.0273693620826
 20
-341.7148590681418
 42
0.4142135623731
  0
LWPOLYLINE
  5
1F7
330
1F
100
AcDbEntity
  8
0216_
  6
Continuous
 62
     7
370
     9
100
AcDbPolyline
 90
        4
 70
     1
 43
1.0
 10
-597.5273693620827
 20
-391.2150974867209
 42
0.4142135623731
 10
-598.0273693620826
 20
-390.7150974867209
 42
0.4142135623731
 10
-598.5273693620826
 20
-391.2150974867209
 42
0.4142135623731
 10
-598.0273693620826
 20
-391.7150974867209
 42
0.4142135623731
  0
TEXT
  5
1F8
330
1F
100
AcDbEntity
  8
0216_
  6
Continuous
 62
     2
370
     9
100
AcDbText
 10
-608.6676554643775
 20
-387.464392014259
 30
0.0
 40
30.48
  1
10
 50
90.00000250447819
 41
1.062500000000001
  7
ＭＳ ゴシック
100
AcDbText
  0
TEXT
  5
1F9
330
1F
100
AcDbEntity
  8
0216_
  6
Continuous
 62
     2
370
     9
100
AcDbText
 10
-608.6676554643775
 20
-319.9647019584118
 30
0.0
 40
30.48
  1
17
 50
90.00000250447819
 41
1.062500000000001
  7
ＭＳ ゴシック
100
AcDbText
  0
LINE
  5
1FA
330
1F
100
AcDbEntity
  8
0226_下階梁情報
  6
Continuous
 62
     7
370
     9
100
AcDbLine
 10
-668.645281595962
 20
-300.7327912803492
 30
0.0
 11
-668.645281595962
 21
-299.2325137611231
 31
0.0
  0
LINE
  5
1FB
330
1F
100
AcDbEntity
  8
0226_下階梁情報
  6
Continuous
 62
     7
370
     9
100
AcDbLine
 10
-668.645281595962
 20
-299.2325137611231
 30
0.0
 11
-667.1450183818507
 21
-299.2325137611231
 31
0.0
  0
LINE
  5
1FC
330
1F
100
AcDbEntity
  8
0226_下階梁情報
  6
Continuous
 62
     7
370
     9
100
AcDbLine
 10
-667.1450183818507
 20
-299.2325137611231
 30
0.0
 11
-667.1450183818507
 21
-300.7327912803492
 31
0.0
  0
LINE
  5
1FD
330
1F
100
AcDbEntity
  8
0226_下階梁情報
  6
Continuous
 62
     7
370
     9
100
AcDbLine
 10
-667.1450183818507
 20
-300.7327912803492
 30
0.0
 11
-668.645281595962
 21
-300.7327912803492
 31
0.0
  0
LINE
  5
1FE
330
1F
100
AcDbEntity
  8
0226_下階梁情報
  6
Continuous
 62
     7
370
     9
100
AcDbLine
 10
-666.1620459827935
 20
-382.679883611625
 30
0.0
 11
-666.1620459827935
 21
-381.1796013240273
 31
0.0
  0
LINE
  5
1FF
330
1F
100
AcDbEntity
  8
0226_下階梁情報
  6
Continuous
 62
     7
370
     9
100
AcDbLine
 10
-666.1620459827935
 20
-381.1796013240273
 30
0.0
 11
-664.6617636951959
 21
-381.1796013240273
 31
0.0
  0
LINE
  5
200
330
1F
100
AcDbEntity
  8
0226_下階梁情報
  6
Continuous
 62
     7
370
     9
100
AcDbLine
 10
-664.6617636951959
 20
-381.1796013240273
 30
0.0
 11
-664.6617636951959
 21
-382.679883611625
 31
0.0
  0
LINE
  5
201
330
1F
100
AcDbEntity
  8
0226_下階梁情報
  6
Continuous
 62
     7
370
     9
100
AcDbLine
 10
-664.6617636951959
 20
-382.679883611625
 30
0.0
 11
-666.1620459827935
 21
-382.679883611625
 31
0.0
  0
LINE
  5
202
330
1F
100
AcDbEntity
  8
0216_
  6
Continuous
 62
     7
370
     9
100
AcDbLine
 10
-854.8546403467323
 20
-394.1819592115744
 30
0.0
 11
-854.8546403467323
 21
-496.0414906141623
 31
0.0
  0
LINE
  5
203
330
1F
100
AcDbEntity
  8
0216_
  6
Continuous
 62
     7
370
     9
100
AcDbLine
 10
-854.8546403467323
 20
-493.0409451124533
 30
0.0
 11
-709.8542088091041
 21
-493.0409451124533
 31
0.0
  0
LINE
  5
204
330
1F
100
AcDbEntity
  8
0216_
  6
Continuous
 62
     7
370
     9
100
AcDbLine
 10
-709.8542088091041
 20
-403.0409451124533
 30
0.0
 11
-709.8542088091041
 21
-496.0414906141623
 31
0.0
  0
LINE
  5
205
330
1F
100
AcDbEntity
  8
0216_
  6
Continuous
 62
     7
370
     9
100
AcDbLine
 10
-854.8546403467323
 20
-493.0409451124533
 30
0.0
 11
-1009.853627067771
 21
-493.0409451124533
 31
0.0
  0
LWPOLYLINE
  5
206
330
1F
100
AcDbEntity
  8
0216_
  6
Continuous
 62
     7
370
     9
100
AcDbPolyline
 90
        4
 70
     1
 43
1.0
 10
-854.3546403467324
 20
-493.0409451124533
 42
0.4142135623731
 10
-854.8546403467323
 20
-492.5409451124534
 42
0.4142135623731
 10
-855.3546403467323
 20
-493.0409451124533
 42
0.4142135623731
 10
-854.8546403467323
 20
-493.5409451124533
 42
0.4142135623731
  0
LWPOLYLINE
  5
207
330
1F
100
AcDbEntity
  8
0216_
  6
Continuous
 62
     7
370
     9
100
AcDbPolyline
 90
        4
 70
     1
 43
1.0
 10
-709.3542088091042
 20
-493.0409451124533
 42
0.4142135623731
 10
-709.8542088091041
 20
-492.5409451124534
 42
0.4142135623731
 10
-710.3542088091041
 20
-493.0409451124533
 42
0.4142135623731
 10
-709.8542088091041
 20
-493.5409451124533
 42
0.4142135623731
  0
LWPOLYLINE
  5
208
330
1F
100
AcDbEntity
  8
0216_
  6
Continuous
 62
     7
370
     9
100
AcDbPolyline
 90
        4
 70
     1
 43
1.0
 10
-854.3546403467324
 20
-493.0409451124533
 42
0.4142135623731
 10
-854.8546403467323
 20
-492.5409451124534
 42
0.4142135623731
 10
-855.3546403467323
 20
-493.0409451124533
 42
0.4142135623731
 10
-854.8546403467323
 20
-493.5409451124533
 42
0.4142135623731
  0
LWPOLYLINE
  5
209
330
1F
100
AcDbEntity
  8
0216_
  6
Continuous
 62
     7
370
     9
100
AcDbPolyline
 90
        4
 70
     1
 43
1.0
 10
-1009.353627067771
 20
-493.0409451124533
 42
0.4142135623731
 10
-1009.853627067771
 20
-492.5409451124534
 42
0.4142135623731
 10
-1010.353627067771
 20
-493.0409451124533
 42
0.4142135623731
 10
-1009.853627067771
 20
-493.5409451124533
 42
0.4142135623731
  0
TEXT
  5
20A
330
1F
100
AcDbEntity
  8
0216_
  6
Continuous
 62
     2
370
     9
100
AcDbText
 10
-819.2706354744674
 20
-482.4016508318314
 30
0.0
 40
30.48
  1
29
 50
0.0006685549992706
 41
1.062500000000002
  7
ＭＳ ゴシック
100
AcDbText
  0
TEXT
  5
20B
330
1F
100
AcDbEntity
  8
0216_
  6
Continuous
 62
     2
370
     9
100
AcDbText
 10
-953.6041325151588
 20
-481.400941297756
 30
0.0
 40
30.48
  1
31
 41
1.0625
  7
ＭＳ ゴシック
100
AcDbText
  0
LINE
  5
20C
330
1F
100
AcDbEntity
  8
0226_下階梁情報
  6
Continuous
 62
     7
370
     9
100
AcDbLine
 10
-913.2568407254473
 20
-412.6668753905037
 30
0.0
 11
-913.2568407254473
 21
-411.1665931029061
 31
0.0
  0
LINE
  5
20D
330
1F
100
AcDbEntity
  8
0226_下階梁情報
  6
Continuous
 62
     7
370
     9
100
AcDbLine
 10
-913.2568407254473
 20
-411.1665931029061
 30
0.0
 11
-911.7565679745928
 21
-411.1665931029061
 31
0.0
  0
LINE
  5
20E
330
1F
100
AcDbEntity
  8
0226_下階梁情報
  6
Continuous
 62
     7
370
     9
100
AcDbLine
 10
-911.7565679745928
 20
-411.1665931029061
 30
0.0
 11
-911.7565679745928
 21
-412.6668753905037
 31
0.0
  0
LINE
  5
20F
330
1F
100
AcDbEntity
  8
0226_下階梁情報
  6
Continuous
 62
     7
370
     9
100
AcDbLine
 10
-911.7565679745928
 20
-412.6668753905037
 30
0.0
 11
-913.2568407254473
 21
-412.6668753905037
 31
0.0
  0
LINE
  5
210
330
1F
100
AcDbEntity
  8
0226_下階梁情報
  6
Continuous
 62
     7
370
     9
100
AcDbLine
 10
-783.6844083407976
 20
-407.3456357835498
 30
0.0
 11
-783.6844083407976
 21
-405.8453534959522
 31
0.0
  0
LINE
  5
211
330
1F
100
AcDbEntity
  8
0226_下階梁情報
  6
Continuous
 62
     7
370
     9
100
AcDbLine
 10
-783.6844083407976
 20
-405.8453534959522
 30
0.0
 11
-782.1846315005877
 21
-405.8453534959522
 31
0.0
  0
LINE
  5
212
330
1F
100
AcDbEntity
  8
0226_下階梁情報
  6
Continuous
 62
     7
370
     9
100
AcDbLine
 10
-782.1846315005877
 20
-405.8453534959522
 30
0.0
 11
-782.1846315005877
 21
-407.3456357835498
 31
0.0
  0
LINE
  5
213
330
1F
100
AcDbEntity
  8
0226_下階梁情報
  6
Continuous
 62
     7
370
     9
100
AcDbLine
 10
-782.1846315005877
 20
-407.3456357835498
 30
0.0
 11
-783.6844083407976
 21
-407.3456357835498
 31
0.0
  0
LINE
  5
214
330
1F
100
AcDbEntity
  8
0217_
  6
Continuous
 62
     3
370
     9
100
AcDbLine
 10
-834.8544853746558
 20
-379.7143192884787
 30
0.0
 11
-709.8545712053443
 21
-379.7143192884787
 31
0.0
  0
TEXT
  5
215
330
1F
100
AcDbEntity
  8
0242_
  6
Continuous
 62
     7
370
     9
100
AcDbText
 10
-597.6662128984595
 20
-189.640422422634
 30
0.0
 40
22.86
  1
溶接用アンカー
 41
1.142857142857143
  7
ＭＳ ゴシック
100
AcDbText
  0
LINE
  5
216
330
1F
100
AcDbEntity
  8
0226_下階梁情報
  6
Continuous
 62
     7
370
     9
100
AcDbLine
 10
-1003.81191492614
 20
-428.7930142137207
 30
0.0
 11
-1003.81191492614
 21
-427.2927319261231
 31
0.0
  0
LINE
  5
217
330
1F
100
AcDbEntity
  8
0226_下階梁情報
  6
Continuous
 62
     7
370
     9
100
AcDbLine
 10
-1003.81191492614
 20
-427.2927319261231
 30
0.0
 11
-1002.311635320751
 21
-427.2927319261231
 31
0.0
  0
LINE
  5
218
330
1F
100
AcDbEntity
  8
0226_下階梁情報
  6
Continuous
 62
     7
370
     9
100
AcDbLine
 10
-1002.311635320751
 20
-427.2927319261231
 30
0.0
 11
-1002.311635320751
 21
-428.7930142137207
 31
0.0
  0
LINE
  5
219
330
1F
100
AcDbEntity
  8
0226_下階梁情報
  6
Continuous
 62
     7
370
     9
100
AcDbLine
 10
-1002.311635320751
 20
-428.7930142137207
 30
0.0
 11
-1003.81191492614
 21
-428.7930142137207
 31
0.0
  0
LINE
  5
21A
330
1F
100
AcDbEntity
  8
0226_下階梁情報
  6
Continuous
 62
     7
370
     9
100
AcDbLine
 10
-960.2354350739403
 20
-431.3922344895996
 30
0.0
 11
-960.2354350739403
 21
-429.891952202002
 31
0.0
  0
LINE
  5
21B
330
1F
100
AcDbEntity
  8
0226_下階梁情報
  6
Continuous
 62
     7
370
     9
100
AcDbLine
 10
-960.2354350739403
 20
-429.891952202002
 30
0.0
 11
-958.7356534653587
 21
-429.891952202002
 31
0.0
  0
LINE
  5
21C
330
1F
100
AcDbEntity
  8
0226_下階梁情報
  6
Continuous
 62
     7
370
     9
100
AcDbLine
 10
-958.7356534653587
 20
-429.891952202002
 30
0.0
 11
-958.7356534653587
 21
-431.3922344895996
 31
0.0
  0
LINE
  5
21D
330
1F
100
AcDbEntity
  8
0226_下階梁情報
  6
Continuous
 62
     7
370
     9
100
AcDbLine
 10
-958.7356534653587
 20
-431.3922344895996
 30
0.0
 11
-960.2354350739403
 21
-431.3922344895996
 31
0.0
  0
TEXT
  5
21E
330
1F
100
AcDbEntity
  8
0216_
  6
Continuous
 62
     2
370
     9
100
AcDbText
 10
-1570.384376229074
 20
-14.27711222462271
 30
0.0
 40
30.48
  1
□450
 41
1.1
  7
ＭＳ ゴシック
100
AcDbText
  0
TEXT
  5
21F
330
1F
100
AcDbEntity
  8
0216_
  6
Continuous
 62
     2
370
     9
100
AcDbText
 10
-1570.384376229074
 20
-124.6552881452902
 30
0.0
 40
30.48
  1
□400
 41
1.1
  7
ＭＳ ゴシック
100
AcDbText
  0
TEXT
  5
220
330
1F
100
AcDbEntity
  8
0216_
  6
Continuous
 62
     2
370
     9
100
AcDbText
 10
-1570.384376229074
 20
95.27390818354057
 30
0.0
 40
30.48
  1
□462
 41
1.1
  7
ＭＳ ゴシック
100
AcDbText
  0
LINE
  5
221
330
1F
100
AcDbEntity
  8
0218_
  6
Continuous
 62
     3
370
     9
100
AcDbLine
 10
-891.353789192405
 20
-258.7155073089261
 30
0.0
 11
-891.353789192405
 21
-265.7155798912752
 31
0.0
  0
LINE
  5
222
330
1F
100
AcDbEntity
  8
0218_
  6
Continuous
 62
     3
370
     9
100
AcDbLine
 10
-931.3529314010198
 20
-258.7155073089261
 30
0.0
 11
-931.3529314010198
 21
-265.7155798912752
 31
0.0
  0
LINE
  5
223
330
1F
100
AcDbEntity
  8
0218_
  6
Continuous
 62
     3
370
     9
100
AcDbLine
 10
-891.353789192405
 20
-265.7155798912752
 30
0.0
 11
-931.3529314010198
 21
-265.7155798912752
 31
0.0
  0
ARC
  5
224
330
1F
100
AcDbEntity
  8
0218_
  6
Continuous
 62
     3
370
     9
100
AcDbCircle
 10
-902.8534312294612
 20
-270.7154726673512
 30
0.0
 40
5.000000064437454
100
AcDbArc
 50
90.0
 51
180.0
  0
ARC
  5
225
330
1F
100
AcDbEntity
  8
0218_
  6
Continuous
 62
     3
370
     9
100
AcDbCircle
 10
-919.8532893639633
 20
-270.7154726673512
 30
0.0
 40
5.000000064437454
100
AcDbArc
 50
0.0
 51
90.0
  0
LINE
  5
226
330
1F
100
AcDbEntity
  8
0218_
  6
Continuous
 62
     3
370
     9
100
AcDbLine
 10
-975.7537891924089
 20
-258.7155073089262
 30
0.0
 11
-975.7537891924089
 21
-265.7155798912753
 31
0.0
  0
LINE
  5
227
330
1F
100
AcDbEntity
  8
0218_
  6
Continuous
 62
     3
370
     9
100
AcDbLine
 10
-975.7537891924089
 20
-258.7155073089262
 30
0.0
 11
-1015.752931401023
 21
-258.7155073089262
 31
0.0
  0
LINE
  5
228
330
1F
100
AcDbEntity
  8
0218_
  6
Continuous
 62
     3
370
     9
100
AcDbLine
 10
-1015.752931401023
 20
-258.7155073089262
 30
0.0
 11
-1015.752931401023
 21
-265.7155798912753
 31
0.0
  0
LINE
  5
229
330
1F
100
AcDbEntity
  8
0218_
  6
Continuous
 62
     3
370
     9
100
AcDbLine
 10
-975.7537891924089
 20
-265.7155798912753
 30
0.0
 11
-1015.752931401023
 21
-265.7155798912753
 31
0.0
  0
ARC
  5
22A
330
1F
100
AcDbEntity
  8
0218_
  6
Continuous
 62
     3
370
     9
100
AcDbCircle
 10
-987.2534312294651
 20
-270.7154726673513
 30
0.0
 40
5.000000064437454
100
AcDbArc
 50
90.0
 51
180.0
  0
ARC
  5
22B
330
1F
100
AcDbEntity
  8
0218_
  6
Continuous
 62
     3
370
     9
100
AcDbCircle
 10
-1004.253289363967
 20
-270.7154726673513
 30
0.0
 40
5.000000064437454
100
AcDbArc
 50
0.0
 51
90.0
  0
LINE
  5
22C
330
1F
100
AcDbEntity
  8
0218_
  6
Continuous
 62
     3
370
     9
100
AcDbLine
 10
-1060.153789192413
 20
-258.7155073089262
 30
0.0
 11
-1060.153789192413
 21
-265.7155798912753
 31
0.0
  0
LINE
  5
22D
330
1F
100
AcDbEntity
  8
0218_
  6
Continuous
 62
     3
370
     9
100
AcDbLine
 10
-1060.153789192413
 20
-258.7155073089262
 30
0.0
 11
-1100.152931401027
 21
-258.7155073089262
 31
0.0
  0
LINE
  5
22E
330
1F
100
AcDbEntity
  8
0218_
  6
Continuous
 62
     3
370
     9
100
AcDbLine
 10
-1100.152931401027
 20
-258.7155073089262
 30
0.0
 11
-1100.152931401027
 21
-265.7155798912753
 31
0.0
  0
LINE
  5
22F
330
1F
100
AcDbEntity
  8
0218_
  6
Continuous
 62
     3
370
     9
100
AcDbLine
 10
-1060.153789192413
 20
-265.7155798912753
 30
0.0
 11
-1100.152931401027
 21
-265.7155798912753
 31
0.0
  0
ARC
  5
230
330
1F
100
AcDbEntity
  8
0218_
  6
Continuous
 62
     3
370
     9
100
AcDbCircle
 10
-1071.653431229469
 20
-270.7154726673513
 30
0.0
 40
5.000000064437454
100
AcDbArc
 50
90.0
 51
180.0
  0
ARC
  5
231
330
1F
100
AcDbEntity
  8
0218_
  6
Continuous
 62
     3
370
     9
100
AcDbCircle
 10
-1088.653289363971
 20
-270.7154726673513
 30
0.0
 40
5.000000064437454
100
AcDbArc
 50
0.0
 51
90.0
  0
LINE
  5
232
330
1F
100
AcDbEntity
  8
0218_
  6
Continuous
 62
     3
370
     9
100
AcDbLine
 10
-1144.553789192416
 20
-258.7155073089262
 30
0.0
 11
-1144.553789192416
 21
-265.7155798912753
 31
0.0
  0
LINE
  5
233
330
1F
100
AcDbEntity
  8
0218_
  6
Continuous
 62
     3
370
     9
100
AcDbLine
 10
-1144.553789192416
 20
-258.7155073089262
 30
0.0
 11
-1184.552931401031
 21
-258.7155073089262
 31
0.0
  0
LINE
  5
234
330
1F
100
AcDbEntity
  8
0218_
  6
Continuous
 62
     3
370
     9
100
AcDbLine
 10
-1184.552931401031
 20
-258.7155073089262
 30
0.0
 11
-1184.552931401031
 21
-265.7155798912753
 31
0.0
  0
LINE
  5
235
330
1F
100
AcDbEntity
  8
0218_
  6
Continuous
 62
     3
370
     9
100
AcDbLine
 10
-1144.553789192416
 20
-265.7155798912753
 30
0.0
 11
-1184.552931401031
 21
-265.7155798912753
 31
0.0
  0
ARC
  5
236
330
1F
100
AcDbEntity
  8
0218_
  6
Continuous
 62
     3
370
     9
100
AcDbCircle
 10
-1156.053431229472
 20
-270.7154726673513
 30
0.0
 40
5.000000064437454
100
AcDbArc
 50
90.0
 51
180.0
  0
ARC
  5
237
330
1F
100
AcDbEntity
  8
0218_
  6
Continuous
 62
     3
370
     9
100
AcDbCircle
 10
-1173.053289363974
 20
-270.7154726673513
 30
0.0
 40
5.000000064437454
100
AcDbArc
 50
0.0
 51
90.0
  0
LINE
  5
238
330
1F
100
AcDbEntity
  8
0218_
  6
Continuous
 62
     3
370
     9
100
AcDbLine
 10
-1228.95378919242
 20
-258.7155073089262
 30
0.0
 11
-1228.95378919242
 21
-265.7155798912753
 31
0.0
  0
LINE
  5
239
330
1F
100
AcDbEntity
  8
0218_
  6
Continuous
 62
     3
370
     9
100
AcDbLine
 10
-1228.95378919242
 20
-258.7155073089262
 30
0.0
 11
-1268.952931401035
 21
-258.7155073089262
 31
0.0
  0
LINE
  5
23A
330
1F
100
AcDbEntity
  8
0218_
  6
Continuous
 62
     3
370
     9
100
AcDbLine
 10
-1268.952931401035
 20
-258.7155073089262
 30
0.0
 11
-1268.952931401035
 21
-265.7155798912753
 31
0.0
  0
LINE
  5
23B
330
1F
100
AcDbEntity
  8
0218_
  6
Continuous
 62
     3
370
     9
100
AcDbLine
 10
-1228.95378919242
 20
-265.7155798912753
 30
0.0
 11
-1268.952931401035
 21
-265.7155798912753
 31
0.0
  0
ARC
  5
23C
330
1F
100
AcDbEntity
  8
0218_
  6
Continuous
 62
     3
370
     9
100
AcDbCircle
 10
-1240.453431229476
 20
-270.7154726673513
 30
0.0
 40
5.000000064437454
100
AcDbArc
 50
90.0
 51
180.0
  0
ARC
  5
23D
330
1F
100
AcDbEntity
  8
0218_
  6
Continuous
 62
     3
370
     9
100
AcDbCircle
 10
-1257.453289363978
 20
-270.7154726673513
 30
0.0
 40
5.000000064437454
100
AcDbArc
 50
0.0
 51
90.0
  0
LINE
  5
23E
330
1F
100
AcDbEntity
  8
0218_
  6
Continuous
 62
     3
370
     9
100
AcDbLine
 10
-1313.353789192424
 20
-258.7155073089262
 30
0.0
 11
-1313.353789192424
 21
-265.7155798912753
 31
0.0
  0
LINE
  5
23F
330
1F
100
AcDbEntity
  8
0218_
  6
Continuous
 62
     3
370
     9
100
AcDbLine
 10
-1313.353789192424
 20
-258.7155073089262
 30
0.0
 11
-1353.352931401039
 21
-258.7155073089262
 31
0.0
  0
LINE
  5
240
330
1F
100
AcDbEntity
  8
0218_
  6
Continuous
 62
     3
370
     9
100
AcDbLine
 10
-1353.352931401039
 20
-258.7155073089262
 30
0.0
 11
-1353.352931401039
 21
-265.7155798912753
 31
0.0
  0
LINE
  5
241
330
1F
100
AcDbEntity
  8
0218_
  6
Continuous
 62
     3
370
     9
100
AcDbLine
 10
-1313.353789192424
 20
-265.7155798912753
 30
0.0
 11
-1353.352931401039
 21
-265.7155798912753
 31
0.0
  0
ARC
  5
242
330
1F
100
AcDbEntity
  8
0218_
  6
Continuous
 62
     3
370
     9
100
AcDbCircle
 10
-1324.853431229481
 20
-270.7154726673513
 30
0.0
 40
5.000000064437454
100
AcDbArc
 50
90.0
 51
180.0
  0
ARC
  5
243
330
1F
100
AcDbEntity
  8
0218_
  6
Continuous
 62
     3
370
     9
100
AcDbCircle
 10
-1341.853289363982
 20
-270.7154726673513
 30
0.0
 40
5.000000064437454
100
AcDbArc
 50
0.0
 51
90.0
  0
LINE
  5
244
330
1F
100
AcDbEntity
  8
0218_
  6
Continuous
 62
     3
370
     9
100
AcDbLine
 10
-1397.753789192428
 20
-258.7155073089262
 30
0.0
 11
-1397.753789192428
 21
-265.7155798912753
 31
0.0
  0
LINE
  5
245
330
1F
100
AcDbEntity
  8
0218_
  6
Continuous
 62
     3
370
     9
100
AcDbLine
 10
-1397.753789192428
 20
-258.7155073089262
 30
0.0
 11
-1437.752931401043
 21
-258.7155073089262
 31
0.0
  0
LINE
  5
246
330
1F
100
AcDbEntity
  8
0218_
  6
Continuous
 62
     3
370
     9
100
AcDbLine
 10
-1437.752931401043
 20
-258.7155073089262
 30
0.0
 11
-1437.752931401043
 21
-265.7155798912753
 31
0.0
  0
LINE
  5
247
330
1F
100
AcDbEntity
  8
0218_
  6
Continuous
 62
     3
370
     9
100
AcDbLine
 10
-1397.753789192428
 20
-265.7155798912753
 30
0.0
 11
-1437.752931401043
 21
-265.7155798912753
 31
0.0
  0
ARC
  5
248
330
1F
100
AcDbEntity
  8
0218_
  6
Continuous
 62
     3
370
     9
100
AcDbCircle
 10
-1409.253431229484
 20
-270.7154726673513
 30
0.0
 40
5.000000064437454
100
AcDbArc
 50
90.0
 51
180.0
  0
ARC
  5
249
330
1F
100
AcDbEntity
  8
0218_
  6
Continuous
 62
     3
370
     9
100
AcDbCircle
 10
-1426.253289363986
 20
-270.7154726673513
 30
0.0
 40
5.000000064437454
100
AcDbArc
 50
0.0
 51
90.0
  0
LINE
  5
24A
330
1F
100
AcDbEntity
  8
0218_
  6
Continuous
 62
     3
370
     9
100
AcDbLine
 10
-1482.153789192432
 20
-258.7155073089262
 30
0.0
 11
-1482.153789192432
 21
-265.7155798912753
 31
0.0
  0
LINE
  5
24B
330
1F
100
AcDbEntity
  8
0218_
  6
Continuous
 62
     3
370
     9
100
AcDbLine
 10
-1482.153789192432
 20
-258.7155073089262
 30
0.0
 11
-1522.152931401047
 21
-258.7155073089262
 31
0.0
  0
LINE
  5
24C
330
1F
100
AcDbEntity
  8
0218_
  6
Continuous
 62
     3
370
     9
100
AcDbLine
 10
-1522.152931401047
 20
-258.7155073089262
 30
0.0
 11
-1522.152931401047
 21
-265.7155798912753
 31
0.0
  0
LINE
  5
24D
330
1F
100
AcDbEntity
  8
0218_
  6
Continuous
 62
     3
370
     9
100
AcDbLine
 10
-1482.153789192432
 20
-265.7155798912753
 30
0.0
 11
-1522.152931401047
 21
-265.7155798912753
 31
0.0
  0
ARC
  5
24E
330
1F
100
AcDbEntity
  8
0218_
  6
Continuous
 62
     3
370
     9
100
AcDbCircle
 10
-1493.653431229488
 20
-270.7154726673513
 30
0.0
 40
5.000000064437454
100
AcDbArc
 50
90.0
 51
180.0
  0
ARC
  5
24F
330
1F
100
AcDbEntity
  8
0218_
  6
Continuous
 62
     3
370
     9
100
AcDbCircle
 10
-1510.65328936399
 20
-270.7154726673513
 30
0.0
 40
5.000000064437454
100
AcDbArc
 50
0.0
 51
90.0
  0
LINE
  5
250
330
1F
100
AcDbEntity
  8
0218_
  6
Continuous
 62
     3
370
     9
100
AcDbLine
 10
-907.8533240055383
 20
-333.7153835890158
 30
0.0
 11
-914.8533965878862
 21
-333.7153835890158
 31
0.0
  0
LINE
  5
251
330
1F
100
AcDbEntity
  8
0218_
  6
Continuous
 62
     3
370
     9
100
AcDbLine
 10
-914.8533965878862
 20
-265.7155798912752
 30
0.0
 11
-914.8533965878862
 21
-333.7153835890158
 31
0.0
  0
LINE
  5
252
330
1F
100
AcDbEntity
  8
0218_
  6
Continuous
 62
     3
370
     9
100
AcDbLine
 10
-907.8533240055383
 20
-265.7155798912752
 30
0.0
 11
-907.8533240055383
 21
-333.7153835890158
 31
0.0
  0
LINE
  5
253
330
1F
100
AcDbEntity
  8
0218_
  6
Continuous
 62
     3
370
     9
100
AcDbLine
 10
-999.2533965878902
 20
-265.7155798912753
 30
0.0
 11
-999.2533965878902
 21
-333.7153835890159
 31
0.0
  0
LINE
  5
254
330
1F
100
AcDbEntity
  8
0218_
  6
Continuous
 62
     3
370
     9
100
AcDbLine
 10
-992.2533240055423
 20
-265.7155798912753
 30
0.0
 11
-992.2533240055423
 21
-333.7153835890158
 31
0.0
  0
LINE
  5
255
330
1F
100
AcDbEntity
  8
0218_
  6
Continuous
 62
     3
370
     9
100
AcDbLine
 10
-1083.653396587894
 20
-265.7155798912753
 30
0.0
 11
-1083.653396587894
 21
-333.7153835890159
 31
0.0
  0
LINE
  5
256
330
1F
100
AcDbEntity
  8
0218_
  6
Continuous
 62
     3
370
     9
100
AcDbLine
 10
-1076.653324005546
 20
-265.7155798912753
 30
0.0
 11
-1076.653324005546
 21
-333.7153835890159
 31
0.0
  0
LINE
  5
257
330
1F
100
AcDbEntity
  8
0218_
  6
Continuous
 62
     3
370
     9
100
AcDbLine
 10
-1168.053396587897
 20
-265.7155798912753
 30
0.0
 11
-1168.053396587897
 21
-333.7153835890159
 31
0.0
  0
LINE
  5
258
330
1F
100
AcDbEntity
  8
0218_
  6
Continuous
 62
     3
370
     9
100
AcDbLine
 10
-1161.053324005549
 20
-265.7155798912753
 30
0.0
 11
-1161.053324005549
 21
-333.7153835890159
 31
0.0
  0
LINE
  5
259
330
1F
100
AcDbEntity
  8
0218_
  6
Continuous
 62
     3
370
     9
100
AcDbLine
 10
-1252.453396587901
 20
-265.7155798912753
 30
0.0
 11
-1252.453396587901
 21
-333.7153835890159
 31
0.0
  0
LINE
  5
25A
330
1F
100
AcDbEntity
  8
0218_
  6
Continuous
 62
     3
370
     9
100
AcDbLine
 10
-1245.453324005553
 20
-265.7155798912753
 30
0.0
 11
-1245.453324005553
 21
-333.7153835890159
 31
0.0
  0
LINE
  5
25B
330
1F
100
AcDbEntity
  8
0218_
  6
Continuous
 62
     3
370
     9
100
AcDbLine
 10
-1336.853396587906
 20
-265.7155798912753
 30
0.0
 11
-1336.853396587906
 21
-333.7153835890159
 31
0.0
  0
LINE
  5
25C
330
1F
100
AcDbEntity
  8
0218_
  6
Continuous
 62
     3
370
     9
100
AcDbLine
 10
-1329.853324005557
 20
-265.7155798912753
 30
0.0
 11
-1329.853324005557
 21
-333.7153835890159
 31
0.0
  0
LINE
  5
25D
330
1F
100
AcDbEntity
  8
0218_
  6
Continuous
 62
     3
370
     9
100
AcDbLine
 10
-1421.253396587909
 20
-265.7155798912753
 30
0.0
 11
-1421.253396587909
 21
-333.7153835890159
 31
0.0
  0
LINE
  5
25E
330
1F
100
AcDbEntity
  8
0218_
  6
Continuous
 62
     3
370
     9
100
AcDbLine
 10
-1414.253324005561
 20
-265.7155798912753
 30
0.0
 11
-1414.253324005561
 21
-333.7153835890159
 31
0.0
  0
LINE
  5
25F
330
1F
100
AcDbEntity
  8
0218_
  6
Continuous
 62
     3
370
     9
100
AcDbLine
 10
-1505.653396587913
 20
-265.7155798912753
 30
0.0
 11
-1505.653396587913
 21
-333.7153835890159
 31
0.0
  0
LINE
  5
260
330
1F
100
AcDbEntity
  8
0218_
  6
Continuous
 62
     3
370
     9
100
AcDbLine
 10
-1498.653324005565
 20
-265.7155798912753
 30
0.0
 11
-1498.653324005565
 21
-333.7153835890159
 31
0.0
  0
LINE
  5
261
330
1F
100
AcDbEntity
  8
0218_
  6
Continuous
 62
     3
370
     9
100
AcDbLine
 10
-891.353789192405
 20
-258.7155073089261
 30
0.0
 11
-931.3529314010198
 21
-258.7155073089261
 31
0.0
  0
LINE
  5
262
330
1F
100
AcDbEntity
  8
0218_
  6
Continuous
 62
     3
370
     9
100
AcDbLine
 10
-891.353789192405
 20
-258.7155073089261
 30
0.0
 11
-891.353789192405
 21
-276.2666124484465
 31
0.0
  0
LINE
  5
263
330
1F
100
AcDbEntity
  8
0218_
  6
Continuous
 62
     3
370
     9
100
AcDbLine
 10
-891.353789192405
 20
-323.1632375526413
 30
0.0
 11
-891.353789192405
 21
-333.7153835890158
 31
0.0
  0
LINE
  5
264
330
1F
100
AcDbEntity
  8
0218_
  6
Continuous
 62
     3
370
     9
100
AcDbLine
 10
-1590.000077256211
 20
-311.2157658835413
 30
0.0
 11
-1570.000148463894
 21
-311.2157658835413
 31
0.0
  0
LINE
  5
265
330
1F
100
AcDbEntity
  8
0218_
  6
Continuous
 62
     3
370
     9
100
AcDbLine
 10
-1570.000148463894
 20
-281.2151250144008
 30
0.0
 11
-1570.000148463894
 21
-233.7155073089262
 31
0.0
  0
LINE
  5
266
330
1F
100
AcDbEntity
  8
0218_
  6
Continuous
 62
     3
370
     9
100
AcDbLine
 10
-1570.000148463894
 20
-358.7153835890159
 30
0.0
 11
-1570.000148463894
 21
-311.2157658835413
 31
0.0
  0
LINE
  5
267
330
1F
100
AcDbEntity
  8
0216_
  6
Continuous
 62
     7
370
     9
100
AcDbLine
 10
-1690.000148463894
 20
-258.7155073089262
 30
0.0
 11
-1690.000148463894
 21
-333.7153835890159
 31
0.0
  0
LWPOLYLINE
  5
268
330
1F
100
AcDbEntity
  8
0216_
  6
Continuous
 62
     7
370
     9
100
AcDbPolyline
 90
        4
 70
     1
 43
1.0
 10
-1689.500148463893
 20
-258.7155073089262
 42
0.4142135623731
 10
-1690.000148463894
 20
-258.2155073089262
 42
0.4142135623731
 10
-1690.500148463894
 20
-258.7155073089262
 42
0.4142135623731
 10
-1690.000148463894
 20
-259.2155073089262
 42
0.4142135623731
  0
LWPOLYLINE
  5
269
330
1F
100
AcDbEntity
  8
0216_
  6
Continuous
 62
     7
370
     9
100
AcDbPolyline
 90
        4
 70
     1
 43
1.0
 10
-1689.500148463893
 20
-333.7153835890159
 42
0.4142135623731
 10
-1690.000148463894
 20
-333.2153835890159
 42
0.4142135623731
 10
-1690.500148463894
 20
-333.7153835890159
 42
0.4142135623731
 10
-1690.000148463894
 20
-334.2153835890159
 42
0.4142135623731
  0
LINE
  5
26A
330
1F
100
AcDbEntity
  8
0216_
  6
Continuous
 62
     7
370
     9
100
AcDbLine
 10
-1693.000148463894
 20
-258.7155073089262
 30
0.0
 11
-1590.000148463894
 21
-258.7155073089262
 31
0.0
  0
LINE
  5
26B
330
1F
100
AcDbEntity
  8
0216_
  6
Continuous
 62
     7
370
     9
100
AcDbLine
 10
-1693.000148463894
 20
-333.7153835890159
 30
0.0
 11
-1590.000148463894
 21
-333.7153835890159
 31
0.0
  0
TEXT
  5
26C
330
1F
100
AcDbEntity
  8
0216_
  6
Continuous
 62
     2
370
   211
100
AcDbText
 10
-1705.640148463894
 20
-317.4654454489711
 30
0.0
 40
30.48
  1
15
 50
90.0
 41
1.0625
  7
ＭＳ ゴシック
100
AcDbText
  0
LINE
  5
26D
330
1F
100
AcDbEntity
  8
0218_
  6
Continuous
 62
     3
370
     9
100
AcDbLine
 10
-1570.000148463894
 20
-281.2151250144008
 30
0.0
 11
-1549.999894150742
 21
-281.2151250144008
 31
0.0
  0
LINE
  5
26E
330
1F
100
AcDbEntity
  8
0218_
  6
Continuous
 62
     3
370
     9
100
AcDbLine
 10
-1590.000077256211
 20
-311.2157658835413
 30
0.0
 11
-1549.999894150742
 21
-281.2151250144008
 31
0.0
  0
LINE
  5
26F
330
1F
100
AcDbEntity
  8
0218_
  6
Continuous
 62
     3
370
     9
100
AcDbLine
 10
-928.8535417525823
 20
-258.7155073089262
 30
0.0
 11
-1570.000148463894
 21
-258.7155073089262
 31
0.0
  0
LINE
  5
270
330
1F
100
AcDbEntity
  8
0218_
  6
Continuous
 62
     3
370
     9
100
AcDbLine
 10
-891.353789192405
 20
-333.7153835890159
 30
0.0
 11
-1570.000148463894
 21
-333.7153835890159
 31
0.0
  0
TEXT
  5
271
330
1F
100
AcDbEntity
  8
0242_
  6
Continuous
 62
     2
370
     9
100
AcDbText
 10
-1320.598744982371
 20
-1041.031980186887
 30
0.0
 40
30.48
  1
A断面詳細図　Ｓ＝１：２
 50
0.00002676319048
 41
1.114130434782608
  7
ＭＳ ゴシック
100
AcDbText
  0
LINE
  5
272
330
1F
100
AcDbEntity
  8
0218_
  6
Continuous
 62
     3
370
     9
100
AcDbLine
 10
-999.503558248574
 20
-274.4669474086934
 30
0.0
 11
-1076.653324005546
 21
-274.4669474086934
 31
0.0
  0
LINE
  5
273
330
1F
100
AcDbEntity
  8
0218_
  6
Continuous
 62
     3
370
     9
100
AcDbLine
 10
-999.503558248574
 20
-299.2155073089262
 30
0.0
 11
-1076.653324005546
 21
-299.2155073089262
 31
0.0
  0
LINE
  5
274
330
1F
100
AcDbEntity
  8
0218_
  6
Continuous
 62
     3
370
     9
100
AcDbLine
 10
-999.503558248574
 20
-323.9640672091579
 30
0.0
 11
-1076.653324005546
 21
-323.9640672091579
 31
0.0
  0
LINE
  5
275
330
1F
100
AcDbEntity
  8
0218_
  6
Continuous
 62
     3
370
     9
100
AcDbLine
 10
-1083.903558248578
 20
-274.4669474086934
 30
0.0
 11
-1161.053324005549
 21
-274.4669474086934
 31
0.0
  0
LINE
  5
276
330
1F
100
AcDbEntity
  8
0218_
  6
Continuous
 62
     3
370
     9
100
AcDbLine
 10
-1083.903558248578
 20
-299.2155073089262
 30
0.0
 11
-1161.053324005549
 21
-299.2155073089262
 31
0.0
  0
LINE
  5
277
330
1F
100
AcDbEntity
  8
0218_
  6
Continuous
 62
     3
370
     9
100
AcDbLine
 10
-1083.903558248578
 20
-323.9640672091579
 30
0.0
 11
-1161.053324005549
 21
-323.9640672091579
 31
0.0
  0
LINE
  5
278
330
1F
100
AcDbEntity
  8
0218_
  6
Continuous
 62
     3
370
     9
100
AcDbLine
 10
-1168.053396587897
 20
-274.4669474086934
 30
0.0
 11
-1245.453324005553
 21
-274.4669474086934
 31
0.0
  0
LINE
  5
279
330
1F
100
AcDbEntity
  8
0218_
  6
Continuous
 62
     3
370
     9
100
AcDbLine
 10
-1168.053396587897
 20
-299.2155073089262
 30
0.0
 11
-1245.453324005553
 21
-299.2155073089262
 31
0.0
  0
LINE
  5
27A
330
1F
100
AcDbEntity
  8
0218_
  6
Continuous
 62
     3
370
     9
100
AcDbLine
 10
-1168.053396587897
 20
-323.9640672091579
 30
0.0
 11
-1245.453324005553
 21
-323.9640672091579
 31
0.0
  0
LINE
  5
27B
330
1F
100
AcDbEntity
  8
0218_
  6
Continuous
 62
     3
370
     9
100
AcDbLine
 10
-1252.453396587901
 20
-274.4669474086934
 30
0.0
 11
-1329.853324005557
 21
-274.4669474086934
 31
0.0
  0
LINE
  5
27C
330
1F
100
AcDbEntity
  8
0218_
  6
Continuous
 62
     3
370
     9
100
AcDbLine
 10
-1252.453396587901
 20
-299.2155073089262
 30
0.0
 11
-1329.853324005557
 21
-299.2155073089262
 31
0.0
  0
LINE
  5
27D
330
1F
100
AcDbEntity
  8
0218_
  6
Continuous
 62
     3
370
     9
100
AcDbLine
 10
-1252.453396587901
 20
-323.9640672091579
 30
0.0
 11
-1329.853324005557
 21
-323.9640672091579
 31
0.0
  0
LINE
  5
27E
330
1F
100
AcDbEntity
  8
0218_
  6
Continuous
 62
     3
370
     9
100
AcDbLine
 10
-1336.853396587906
 20
-274.4669474086934
 30
0.0
 11
-1414.253324005561
 21
-274.4669474086934
 31
0.0
  0
LINE
  5
27F
330
1F
100
AcDbEntity
  8
0218_
  6
Continuous
 62
     3
370
     9
100
AcDbLine
 10
-1336.853396587906
 20
-299.2155073089262
 30
0.0
 11
-1414.253324005561
 21
-299.2155073089262
 31
0.0
  0
LINE
  5
280
330
1F
100
AcDbEntity
  8
0218_
  6
Continuous
 62
     3
370
     9
100
AcDbLine
 10
-1336.853396587906
 20
-323.9640672091579
 30
0.0
 11
-1414.253324005561
 21
-323.9640672091579
 31
0.0
  0
LINE
  5
281
330
1F
100
AcDbEntity
  8
0218_
  6
Continuous
 62
     3
370
     9
100
AcDbLine
 10
-1421.253396587909
 20
-274.4669474086934
 30
0.0
 11
-1498.653324005565
 21
-274.4669474086934
 31
0.0
  0
LINE
  5
282
330
1F
100
AcDbEntity
  8
0218_
  6
Continuous
 62
     3
370
     9
100
AcDbLine
 10
-1421.253396587909
 20
-299.2155073089262
 30
0.0
 11
-1498.653324005565
 21
-299.2155073089262
 31
0.0
  0
LINE
  5
283
330
1F
100
AcDbEntity
  8
0218_
  6
Continuous
 62
     3
370
     9
100
AcDbLine
 10
-1421.253396587909
 20
-323.9640672091579
 30
0.0
 11
-1498.653324005565
 21
-323.9640672091579
 31
0.0
  0
LINE
  5
284
330
1F
100
AcDbEntity
  8
0218_
  6
Continuous
 62
     3
370
     9
100
AcDbLine
 10
-914.8533965878862
 20
-274.4669474086934
 30
0.0
 11
-992.2533240055423
 21
-274.4669474086934
 31
0.0
  0
LINE
  5
285
330
1F
100
AcDbEntity
  8
0218_
  6
Continuous
 62
     3
370
     9
100
AcDbLine
 10
-914.8533965878862
 20
-323.9640672091579
 30
0.0
 11
-992.2533240055423
 21
-323.9640672091579
 31
0.0
  0
LINE
  5
286
330
1F
100
AcDbEntity
  8
0218_
  6
Continuous
 62
     3
370
     9
100
AcDbLine
 10
-914.8533965878862
 20
-299.2155073089262
 30
0.0
 11
-992.2533240055423
 21
-299.2155073089262
 31
0.0
  0
LINE
  5
287
330
1F
100
AcDbEntity
  8
0218_
  6
Continuous
 62
     3
370
     9
100
AcDbLine
 10
-884.8537891924049
 20
-284.215457820961
 30
0.0
 11
-892.3541850961213
 21
-274.4669474086933
 31
0.0
  0
LINE
  5
288
330
1F
100
AcDbEntity
  8
0218_
  6
Continuous
 62
     3
370
     9
100
AcDbLine
 10
-884.8537891924049
 20
-314.2155567968902
 30
0.0
 11
-892.3541850961213
 21
-323.9640672091579
 31
0.0
  0
ARC
  5
289
330
1F
100
AcDbEntity
  8
0218_
  6
Continuous
 62
     3
370
     9
100
AcDbCircle
 10
-902.3428358562564
 20
-288.0250413302516
 30
0.0
 40
15.00000019331236
100
AcDbArc
 50
311.7518768310547
 51
357.7665100097656
  0
ARC
  5
28A
330
1F
100
AcDbEntity
  8
0218_
  6
Continuous
 62
     3
370
     9
100
AcDbCircle
 10
-912.3389098110705
 20
-289.4874106820256
 30
0.0
 40
25.00000322187269
100
AcDbArc
 50
2.014007568359375
 51
36.92071533203126
  0
ARC
  5
28B
330
1F
100
AcDbEntity
  8
0218_
  6
Continuous
 62
     3
370
     9
100
AcDbCircle
 10
-902.3428358562564
 20
-310.4059732875995
 30
0.0
 40
15.00000019331236
100
AcDbArc
 50
2.233489990234375
 51
48.24812316894532
  0
ARC
  5
28C
330
1F
100
AcDbEntity
  8
0218_
  6
Continuous
 62
     3
370
     9
100
AcDbCircle
 10
-912.3389098110705
 20
-308.9436039358261
 30
0.0
 40
25.00000322187269
100
AcDbArc
 50
323.0792846679688
 51
357.9859924316406
  0
LINE
  5
28D
330
1F
100
AcDbEntity
  8
0218_
  6
Continuous
 62
     3
370
     9
100
AcDbLine
 10
-884.8537891924049
 20
-284.215457820961
 30
0.0
 11
-884.8537891924049
 21
-314.2155567968902
 31
0.0
  0
LINE
  5
28E
330
1F
100
AcDbEntity
  8
0218_
  6
Continuous
 62
     3
370
     9
100
AcDbLine
 10
-892.3541684286407
 20
-299.2155073089262
 30
0.0
 11
-907.8533240055383
 21
-299.2155073089262
 31
0.0
  0
LINE
  5
28F
330
1F
100
AcDbEntity
  8
0218_
  6
Continuous
 62
     3
370
     9
100
AcDbLine
 10
-891.353789192405
 20
-323.9640672091579
 30
0.0
 11
-907.8533240055383
 21
-323.9640672091579
 31
0.0
  0
LINE
  5
290
330
1F
100
AcDbEntity
  8
0218_
  6
Continuous
 62
     3
370
     9
100
AcDbLine
 10
-891.353789192405
 20
-274.4669474086934
 30
0.0
 11
-907.8533240055383
 21
-274.4669474086934
 31
0.0
  0
LINE
  5
291
330
1F
100
AcDbEntity
  8
0218_
  6
Continuous
 62
     3
370
     9
100
AcDbLine
 10
-1505.653396587913
 20
-274.4669474086934
 30
0.0
 11
-1570.000148463894
 21
-274.4669474086934
 31
0.0
  0
LINE
  5
292
330
1F
100
AcDbEntity
  8
0218_
  6
Continuous
 62
     3
370
     9
100
AcDbLine
 10
-1505.653396587913
 20
-323.9640672091579
 30
0.0
 11
-1570.000148463894
 21
-323.9640672091579
 31
0.0
  0
LINE
  5
293
330
1F
100
AcDbEntity
  8
0218_
  6
Continuous
 62
     3
370
     9
100
AcDbLine
 10
-1505.653396587913
 20
-299.2155073089262
 30
0.0
 11
-1574.000001044795
 21
-299.2155073089262
 31
0.0
  0
TEXT
  5
294
330
1F
100
AcDbEntity
  8
0216_
  6
Continuous
 62
     2
370
     9
100
AcDbText
 10
-831.2660854565859
 20
-15.90386717055878
 30
0.0
 40
30.48
  1
5
 41
0.9999999999999998
  7
ＭＳ ゴシック
100
AcDbText
  0
LINE
  5
295
330
1F
100
AcDbEntity
  8
0216_
  6
Continuous
 62
     7
370
     9
100
AcDbLine
 10
-1570.000148463894
 20
-26.54314237807831
 30
0.0
 11
-805.124991982159
 21
-26.54314237807831
 31
0.0
  0
TEXT
  5
296
330
1F
100
AcDbEntity
  8
0216_
  6
Continuous
 62
     2
370
     9
100
AcDbText
 10
-1165.976405616966
 20
-433.5223508555646
 30
0.0
 40
30.48
  1
25
 50
90.0000025
 41
1.062499999999999
  7
ＭＳ ゴシック
100
AcDbText
  0
LINE
  5
297
330
1F
100
AcDbEntity
  8
0216_
  6
Continuous
 62
     7
370
     9
100
AcDbLine
 10
-1155.336138588157
 20
-437.9509785256455
 30
0.0
 11
-1155.336138588157
 21
-256.2147160169943
 31
0.0
  0
TEXT
  5
298
330
1F
100
AcDbEntity
  8
0216_
  6
Continuous
 62
     2
370
     9
100
AcDbText
 10
-893.2398986570594
 20
-15.90386717055878
 30
0.0
 40
30.48
  1
1
 41
0.9999999999999998
  7
ＭＳ ゴシック
100
AcDbText
  0
TEXT
  5
299
330
1F
100
AcDbEntity
  8
0242_
  6
Continuous
 62
     7
370
     9
100
AcDbText
 10
-684.3166749370992
 20
24.00889449502662
 30
0.0
 40
22.86
  1
グレーチング（すきま９mm）　ＹＲ－Ａ－１５
 41
1.158730158730159
  7
ＭＳ ゴシック
100
AcDbText
  0
TEXT
  5
29A
330
1F
100
AcDbEntity
  8
0242_
  6
Continuous
 62
     7
370
     9
100
AcDbText
 10
-684.3166749370994
 20
60.55756896268483
 30
0.0
 40
22.86
  1
ステンレス製　縦目タイプ　細目プレーンタイプ
 50
359.9999999999999
 41
1.159090909090909
  7
ＭＳ ゴシック
100
AcDbText
  0
LINE
  5
29B
330
1F
100
AcDbEntity
  8
0242_
  6
Continuous
 62
     7
370
     9
100
AcDbLine
 10
-683.955976237148
 20
15.02042205239967
 30
0.0
 11
88.76221021337656
 21
15.02042205240008
 31
0.0
  0
TEXT
  5
29C
330
1F
100
AcDbEntity
  8
0242_
  6
Continuous
 62
     2
370
     9
100
AcDbText
 10
264.0687155756162
 20
-626.7542954438252
 30
0.0
 40
30.48
  1
ステンレス製　縦目タイプ　細目プレーンタイプ
 41
1.119318181818182
  7
ＭＳ ゴシック
100
AcDbText
  0
TEXT
  5
29D
330
1F
100
AcDbEntity
  8
0242_
  6
Continuous
 62
     2
370
     9
100
AcDbText
 10
264.0687155756162
 20
-682.978778881916
 30
0.0
 40
30.48
  1
グレーチング（すきま９mm）　ＹＲ－Ａ－１５　４５０×４５０×１５
 41
1.12109375
  7
ＭＳ ゴシック
100
AcDbText
  0
TEXT
  5
29E
330
1F
100
AcDbEntity
  8
0018_躯　寸法（
  6
Continuous
 62
     2
370
     9
100
AcDbText
 10
-845.3997081828237
 20
-1330.761336706767
 30
0.0
 40
30.48
  1
ステンレス製　縦目タイプ　細目プレーンタイプ　グレーチング（すきま9mm）
 41
0.7742957746478872
  7
ＭＳ ゴシック
100
AcDbText
  0
TEXT
  5
29F
330
1F
100
AcDbEntity
  8
0013_躯　下り壁
  6
Continuous
 62
     2
370
     9
100
AcDbText
 10
-845.9896769380546
 20
-1379.05859205821
 30
0.0
 40
30.48
  1
ＹＲ－Ａ－１５　４５０×４５０×１５　ステンレス製受枠ＳＦ１５Ｂ（四方枠）
 41
0.7743243243243242
  7
ＭＳ ゴシック
100
AcDbText
  0
LINE
  5
2A0
330
1F
100
AcDbEntity
  8
0226_下階梁情報
  6
Continuous
 62
     3
370
     9
100
AcDbLine
 10
612.3908440022393
 20
826.1929299798446
 30
0.0
 11
612.3908440022393
 21
862.9157071894786
 31
0.0
  0
LINE
  5
2A1
330
1F
100
AcDbEntity
  8
0226_下階梁情報
  6
Continuous
 62
     3
370
     9
100
AcDbLine
 10
587.6419129422726
 20
826.1929299798446
 30
0.0
 11
587.6419129422726
 21
862.9157071894786
 31
0.0
  0
LINE
  5
2A2
330
1F
100
AcDbEntity
  8
0226_下階梁情報
  6
Continuous
 62
     3
370
     9
100
AcDbLine
 10
637.1397750622052
 20
826.1929299798446
 30
0.0
 11
637.1397750622052
 21
862.9157071894786
 31
0.0
  0
LINE
  5
2A3
330
1F
100
AcDbEntity
  8
0216_
  6
Continuous
 62
     7
370
     9
100
AcDbLine
 10
600.0164712621895
 20
494.8408110624936
 30
0.0
 11
584.7974355369715
 21
475.0069775552128
 31
0.0
  0
LINE
  5
2A4
330
1F
100
AcDbEntity
  8
0216_
  6
Continuous
 62
     7
370
     9
100
AcDbLine
 10
600.0164712621895
 20
494.8408110624936
 30
0.0
 11
580.1826377549088
 21
479.6217753372756
 31
0.0
  0
LINE
  5
2A5
330
1F
100
AcDbEntity
  8
0216_
  6
Continuous
 62
     7
370
     9
100
AcDbLine
 10
600.0164712621895
 20
494.8408110624936
 30
0.0
 11
471.1781530298035
 21
366.0024928301074
 31
0.0
  0
LINE
  5
2A6
330
1F
100
AcDbEntity
  8
0216_
  6
Continuous
 62
     7
370
     9
100
AcDbLine
 10
294.5395595028592
 20
366.0024928301074
 30
0.0
 11
471.1781530298035
 21
366.0024928301074
 31
0.0
  0
TEXT
  5
2A7
330
1F
100
AcDbEntity
  8
0242_
  6
Continuous
 62
     7
370
     9
100
AcDbText
 10
294.5395595028592
 20
375.2324928301074
 30
0.0
 40
22.86
  1
クロスバー
 41
1.133333333333333
  7
ＭＳ ゴシック
100
AcDbText
  0
LINE
  5
2A8
330
1F
100
AcDbEntity
  8
0218_
  6
Continuous
 62
     3
370
     9
100
AcDbLine
 10
1312.028541796284
 20
547.7152765924766
 30
0.0
 11
1349.228492968159
 21
547.7152765924766
 31
0.0
  0
SOLID
  5
2A9
330
1F
100
AcDbEntity
  8
0242_
  6
Continuous
 62
     4
370
     9
100
AcDbTrace
 10
1162.007396400369
 20
927.4156461543224
 30
0.0
 11
1202.007396400369
 21
927.4156461543224
 31
0.0
 12
1162.007396400369
 22
923.4156461543226
 32
0.0
 13
1202.007396400369
 23
923.4156461543226
 33
0.0
  0
LINE
  5
2AA
330
1F
100
AcDbEntity
  8
0242_
  6
Continuous
 62
     4
370
     9
100
AcDbLine
 10
1180.051542223588
 20
918.7583283152119
 30
0.0
 11
1180.051542223588
 21
869.5089356322701
 31
0.0
  0
LINE
  5
2AB
330
1F
100
AcDbEntity
  8
0242_
  6
Continuous
 62
     4
370
     9
100
AcDbLine
 10
1180.051542223588
 20
918.7583283152119
 30
0.0
 11
1183.31469702909
 21
893.9722067808667
 31
0.0
  0
LINE
  5
2AC
330
1F
100
AcDbEntity
  8
0242_
  6
Continuous
 62
     4
370
     9
100
AcDbLine
 10
1180.051542223588
 20
918.7583283152119
 30
0.0
 11
1176.788387418087
 21
893.9722067808667
 31
0.0
  0
LINE
  5
2AD
330
1F
100
AcDbEntity
  8
0218_
  6
Continuous
 62
     3
370
     9
100
AcDbLine
 10
1149.891547391175
 20
520.794474322895
 30
0.0
 11
1134.890692898988
 21
520.794474322895
 31
0.0
  0
LINE
  5
2AE
330
1F
100
AcDbEntity
  8
0218_
  6
Continuous
 62
     3
370
     9
100
AcDbLine
 10
1149.891547391175
 20
520.794474322895
 30
0.0
 11
1119.890570828675
 21
500.7933909488713
 31
0.0
  0
LINE
  5
2AF
330
1F
100
AcDbEntity
  8
0218_
  6
Continuous
 62
     3
370
     9
100
AcDbLine
 10
1134.890692898988
 20
500.7933909488713
 30
0.0
 11
1119.890570828675
 21
500.7933909488713
 31
0.0
  0
LINE
  5
2B0
330
1F
100
AcDbEntity
  8
0218_
  6
Continuous
 62
     3
370
     9
100
AcDbLine
 10
1134.890692898988
 20
520.794474322895
 30
0.0
 11
1134.890692898988
 21
579.8069896072593
 31
0.0
  0
LINE
  5
2B1
330
1F
100
AcDbEntity
  8
0218_
  6
Continuous
 62
     3
370
     9
100
AcDbLine
 10
1134.890692898988
 20
440.6233161378714
 30
0.0
 11
1134.890692898988
 21
500.7933909488713
 31
0.0
  0
LINE
  5
2B2
330
1F
100
AcDbEntity
  8
0226_下階梁情報
  6
Continuous
 62
     3
370
     9
100
AcDbLine
 10
302.3908440022393
 20
826.1929299798446
 30
0.0
 11
302.3908440022393
 21
1110.089940551225
 31
0.0
  0
LINE
  5
2B3
330
1F
100
AcDbEntity
  8
0226_下階梁情報
  6
Continuous
 62
     3
370
     9
100
AcDbLine
 10
287.3908440022393
 20
826.1929299798446
 30
0.0
 11
287.3908440022393
 21
1110.089940551225
 31
0.0
  0
LINE
  5
2B4
330
1F
100
AcDbEntity
  8
0226_下階梁情報
  6
Continuous
 62
     3
370
     9
100
AcDbLine
 10
1134.890692898988
 20
987.9155851191662
 30
0.0
 11
302.3908440022393
 21
987.9155851191662
 31
0.0
  0
LINE
  5
2B5
330
1F
100
AcDbEntity
  8
0226_下階梁情報
  6
Continuous
 62
     3
370
     9
100
AcDbLine
 10
1134.890692898988
 20
947.9156461543225
 30
0.0
 11
302.3908440022393
 21
947.9156461543225
 31
0.0
  0
LINE
  5
2B6
330
1F
100
AcDbEntity
  8
0226_下階梁情報
  6
Continuous
 62
     3
370
     9
100
AcDbLine
 10
1134.890692898988
 20
902.9156461543225
 30
0.0
 11
302.3908440022393
 21
902.9156461543225
 31
0.0
  0
LINE
  5
2B7
330
1F
100
AcDbEntity
  8
0226_下階梁情報
  6
Continuous
 62
     3
370
     9
100
AcDbLine
 10
1134.890692898988
 20
862.9157071894786
 30
0.0
 11
302.3908440022393
 21
862.9157071894786
 31
0.0
  0
LINE
  5
2B8
330
1F
100
AcDbEntity
  8
0226_下階梁情報
  6
Continuous
 62
     3
370
     9
100
AcDbLine
 10
1134.890692898988
 20
1072.91552408401
 30
0.0
 11
302.3908440022393
 21
1072.91552408401
 31
0.0
  0
LINE
  5
2B9
330
1F
100
AcDbEntity
  8
0226_下階梁情報
  6
Continuous
 62
     3
370
     9
100
AcDbLine
 10
1134.890692898988
 20
1032.915585119166
 30
0.0
 11
302.3908440022393
 21
1032.915585119166
 31
0.0
  0
LINE
  5
2BA
330
1F
100
AcDbEntity
  8
0218_
  6
Continuous
 62
     3
370
     9
100
AcDbLine
 10
287.3908440022393
 20
547.7152765924766
 30
0.0
 11
1134.890692898988
 21
547.7152765924766
 31
0.0
  0
LINE
  5
2BB
330
1F
100
AcDbEntity
  8
0218_
  6
Continuous
 62
     3
370
     9
100
AcDbLine
 10
287.3908440022393
 20
472.715400312388
 30
0.0
 11
1134.890692898988
 21
472.715400312388
 31
0.0
  0
LINE
  5
2BC
330
1F
100
AcDbEntity
  8
0218_
  6
Continuous
 62
     3
370
     9
100
AcDbLine
 10
302.3908440022393
 20
540.7152040101291
 30
0.0
 11
1134.890692898988
 21
540.7152040101291
 31
0.0
  0
TEXT
  5
2BD
330
1F
100
AcDbEntity
  8
0242_
  6
Continuous
 62
     2
370
     9
100
AcDbText
 10
1170.051542223588
 20
828.4636285809692
 30
0.0
 40
30.48
  1
B
 41
0.9999999999999998
  7
ＭＳ ゴシック
100
AcDbText
  0
LINE
  5
2BE
330
1F
100
AcDbEntity
  8
0216_
  6
Continuous
 62
     7
370
     9
100
AcDbLine
 10
218.4726615119158
 20
441.2971559621088
 30
0.0
 11
287.3908440022393
 21
510.2153384524323
 31
0.0
  0
LINE
  5
2BF
330
1F
100
AcDbEntity
  8
0216_
  6
Continuous
 62
     7
370
     9
100
AcDbLine
 10
287.3908440022393
 20
510.2153384524323
 30
0.0
 11
272.1718082770212
 21
490.3815049451514
 31
0.0
  0
LINE
  5
2C0
330
1F
100
AcDbEntity
  8
0216_
  6
Continuous
 62
     7
370
     9
100
AcDbLine
 10
287.3908440022393
 20
510.2153384524323
 30
0.0
 11
267.5570104949583
 21
494.9963027272142
 31
0.0
  0
LINE
  5
2C1
330
1F
100
AcDbEntity
  8
0242_
  6
Continuous
 62
     7
370
     9
100
AcDbLine
 10
627.5666491306945
 20
276.9008656745947
 30
0.0
 11
824.486770845024
 21
276.9008656745947
 31
0.0
  0
TEXT
  5
2C2
330
1F
100
AcDbEntity
  8
0242_
  6
Continuous
 62
     2
370
     9
100
AcDbText
 10
629.8037635635856
 20
297.5408656745947
 30
0.0
 40
30.48
  1
B-B断面図
 41
1.097222222222222
  7
ＭＳ ゴシック
100
AcDbText
  0
LINE
  5
2C3
330
1F
100
AcDbEntity
  8
0242_
  6
Continuous
 62
     7
370
     9
100
AcDbLine
 10
1339.505454639537
 20
276.9008656745947
 30
0.0
 11
1536.425576353867
 21
276.9008656745947
 31
0.0
  0
TEXT
  5
2C4
330
1F
100
AcDbEntity
  8
0242_
  6
Continuous
 62
     2
370
     9
100
AcDbText
 10
1341.742569072429
 20
297.5408656745947
 30
0.0
 40
30.48
  1
C-C断面図
 41
1.097222222222222
  7
ＭＳ ゴシック
100
AcDbText
  0
LINE
  5
2C5
330
1F
100
AcDbEntity
  8
0216_
  6
Continuous
 62
     7
370
     9
100
AcDbLine
 10
170.9044374624011
 20
882.9156766719005
 30
0.0
 11
170.9044374624011
 21
967.9156156367444
 31
0.0
  0
LWPOLYLINE
  5
2C6
330
1F
100
AcDbEntity
  8
0216_
  6
Continuous
 62
     7
370
     9
100
AcDbPolyline
 90
        4
 70
     1
 43
1.0
 10
171.4044374624011
 20
882.9156766719005
 42
0.4142135623731
 10
170.9044374624011
 20
883.4156766719004
 42
0.4142135623731
 10
170.4044374624011
 20
882.9156766719005
 42
0.4142135623731
 10
170.9044374624011
 20
882.4156766719005
 42
0.4142135623731
  0
LWPOLYLINE
  5
2C7
330
1F
100
AcDbEntity
  8
0216_
  6
Continuous
 62
     7
370
     9
100
AcDbPolyline
 90
        4
 70
     1
 43
1.0
 10
171.4044374624011
 20
967.9156156367444
 42
0.4142135623731
 10
170.9044374624011
 20
968.4156156367443
 42
0.4142135623731
 10
170.4044374624011
 20
967.9156156367444
 42
0.4142135623731
 10
170.9044374624011
 20
967.4156156367444
 42
0.4142135623731
  0
TEXT
  5
2C8
330
1F
100
AcDbEntity
  8
0216_
  6
Continuous
 62
     2
370
   211
100
AcDbText
 10
155.2644374624011
 20
904.1656461543223
 30
0.0
 40
30.48
  1
17
 50
90.0
 41
1.0625
  7
ＭＳ ゴシック
100
AcDbText
  0
LINE
  5
2C9
330
1F
100
AcDbEntity
  8
0216_
  6
Continuous
 62
     7
370
     9
100
AcDbLine
 10
170.9044374624011
 20
967.9156156367444
 30
0.0
 11
170.9044374624011
 21
1052.915554601588
 31
0.0
  0
LWPOLYLINE
  5
2CA
330
1F
100
AcDbEntity
  8
0216_
  6
Continuous
 62
     7
370
     9
100
AcDbPolyline
 90
        4
 70
     1
 43
1.0
 10
171.4044374624011
 20
1052.915554601588
 42
0.4142135623731
 10
170.9044374624011
 20
1053.415554601588
 42
0.4142135623731
 10
170.4044374624011
 20
1052.915554601588
 42
0.4142135623731
 10
170.9044374624011
 20
1052.415554601588
 42
0.4142135623731
  0
TEXT
  5
2CB
330
1F
100
AcDbEntity
  8
0216_
  6
Continuous
 62
     2
370
   211
100
AcDbText
 10
155.2644374624011
 20
989.1655851191663
 30
0.0
 40
30.48
  1
17
 50
90.0
 41
1.0625
  7
ＭＳ ゴシック
100
AcDbText
  0
LINE
  5
2CC
330
1F
100
AcDbEntity
  8
0216_
  6
Continuous
 62
     7
370
     9
100
AcDbLine
 10
167.9044374624013
 20
967.9156156367444
 30
0.0
 11
272.3908440022393
 21
967.9156156367444
 31
0.0
  0
LINE
  5
2CD
330
1F
100
AcDbEntity
  8
0216_
  6
Continuous
 62
     7
370
     9
100
AcDbLine
 10
167.9044374624013
 20
1052.915554601588
 30
0.0
 11
272.3908440022393
 21
1052.915554601588
 31
0.0
  0
LINE
  5
2CE
330
1F
100
AcDbEntity
  8
0218_
  6
Continuous
 62
     3
370
     9
100
AcDbLine
 10
1388.728248827534
 20
547.7152765924766
 30
0.0
 11
1348.728859179096
 21
547.7152765924766
 31
0.0
  0
LINE
  5
2CF
330
1F
100
AcDbEntity
  8
0218_
  6
Continuous
 62
     3
370
     9
100
AcDbLine
 10
1348.728859179096
 20
547.7152765924766
 30
0.0
 11
1348.728859179096
 21
540.7152155573203
 31
0.0
  0
LINE
  5
2D0
330
1F
100
AcDbEntity
  8
0218_
  6
Continuous
 62
     3
370
     9
100
AcDbLine
 10
1388.728248827534
 20
547.7152765924766
 30
0.0
 11
1388.728248827534
 21
540.7152155573203
 31
0.0
  0
LINE
  5
2D1
330
1F
100
AcDbEntity
  8
0218_
  6
Continuous
 62
     3
370
     9
100
AcDbLine
 10
1348.728859179096
 20
540.7152155573203
 30
0.0
 11
1388.728248827534
 21
540.7152155573203
 31
0.0
  0
ARC
  5
2D2
330
1F
100
AcDbEntity
  8
0218_
  6
Continuous
 62
     3
370
     9
100
AcDbCircle
 10
1360.228370897847
 20
535.7152155573203
 30
0.0
 40
5.0
100
AcDbArc
 50
0.0
 51
90.0
  0
ARC
  5
2D3
330
1F
100
AcDbEntity
  8
0218_
  6
Continuous
 62
     3
370
     9
100
AcDbCircle
 10
1377.228737108784
 20
535.7152155573203
 30
0.0
 40
5.0
100
AcDbArc
 50
90.0
 51
180.0
  0
LINE
  5
2D4
330
1F
100
AcDbEntity
  8
0218_
  6
Continuous
 62
     3
370
     9
100
AcDbLine
 10
1365.228370897847
 20
540.7152155573203
 30
0.0
 11
1365.228370897847
 21
472.8744426707864
 31
0.0
  0
LINE
  5
2D5
330
1F
100
AcDbEntity
  8
0218_
  6
Continuous
 62
     3
370
     9
100
AcDbLine
 10
1372.228737108784
 20
540.7152155573203
 30
0.0
 11
1372.228737108784
 21
472.8744426707864
 31
0.0
  0
LWPOLYLINE
  5
2D6
330
1F
100
AcDbEntity
  8
0216_
  6
Continuous
 62
     7
370
     9
100
AcDbPolyline
 90
        4
 70
     1
 43
1.0
 10
1349.728492968159
 20
655.3956354791953
 42
0.4142135623731
 10
1349.228492968159
 20
655.8956354791952
 42
0.4142135623731
 10
1348.728492968159
 20
655.3956354791953
 42
0.4142135623731
 10
1349.228492968159
 20
654.8956354791953
 42
0.4142135623731
  0
LWPOLYLINE
  5
2D7
330
1F
100
AcDbEntity
  8
0216_
  6
Continuous
 62
     7
370
     9
100
AcDbPolyline
 90
        4
 70
     1
 43
1.0
 10
1389.728615038472
 20
655.3956354791953
 42
0.4142135623731
 10
1389.228615038472
 20
655.8956354791952
 42
0.4142135623731
 10
1388.728615038472
 20
655.3956354791953
 42
0.4142135623731
 10
1389.228615038472
 20
654.8956354791953
 42
0.4142135623731
  0
LINE
  5
2D8
330
1F
100
AcDbEntity
  8
0216_
  6
Continuous
 62
     7
370
     9
100
AcDbLine
 10
1349.228492968159
 20
658.3956354791952
 30
0.0
 11
1349.228492968159
 21
567.7152765924766
 31
0.0
  0
LINE
  5
2D9
330
1F
100
AcDbEntity
  8
0216_
  6
Continuous
 62
     7
370
     9
100
AcDbLine
 10
1389.228615038472
 20
658.3956354791952
 30
0.0
 11
1389.228615038472
 21
567.7152765924766
 31
0.0
  0
LWPOLYLINE
  5
2DA
330
1F
100
AcDbEntity
  8
0216_
  6
Continuous
 62
     7
370
     9
100
AcDbPolyline
 90
        4
 70
     1
 43
1.0
 10
1389.728615038472
 20
655.3956354791953
 42
0.4142135623731
 10
1389.228615038472
 20
655.8956354791952
 42
0.4142135623731
 10
1388.728615038472
 20
655.3956354791953
 42
0.4142135623731
 10
1389.228615038472
 20
654.8956354791953
 42
0.4142135623731
  0
TEXT
  5
2DB
330
1F
100
AcDbEntity
  8
0242_
  6
Continuous
 62
     2
370
     9
100
AcDbText
 10
770.8669775497812
 20
174.143629853853
 30
0.0
 40
30.48
  1
メインバー詳細図　Ｓ＝１：２
 41
1.116071428571427
  7
ＭＳ ゴシック
100
AcDbText
  0
LINE
  5
2DC
330
1F
100
AcDbEntity
  8
0242_
  6
Continuous
 62
     7
370
     9
100
AcDbLine
 10
771.3178367650776
 20
153.503629853853
 30
0.0
 11
1392.674388719484
 21
153.503629853853
 31
0.0
  0
LINE
  5
2DD
330
1F
100
AcDbEntity
  8
0242_
  6
Continuous
 62
     7
370
     9
100
AcDbLine
 10
46.75651198612655
 20
441.2971559621088
 30
0.0
 11
218.4726615119158
 21
441.2971559621088
 31
0.0
  0
TEXT
  5
2DE
330
1F
100
AcDbEntity
  8
0242_
  6
Continuous
 62
     7
370
     9
100
AcDbText
 10
46.75651198612655
 20
450.5271559621088
 30
0.0
 40
22.86
  1
サイドバー
 41
1.133333333333333
  7
ＭＳ ゴシック
100
AcDbText
  0
LINE
  5
2DF
330
1F
100
AcDbEntity
  8
0218_
  6
Continuous
 62
     3
370
     9
100
AcDbLine
 10
287.3908440022393
 20
472.715400312388
 30
0.0
 11
287.3908440022393
 21
547.7152765924766
 31
0.0
  0
LINE
  5
2E0
330
1F
100
AcDbEntity
  8
0218_
  6
Continuous
 62
     3
370
     9
100
AcDbLine
 10
302.3908440022393
 20
472.715400312388
 30
0.0
 11
302.3908440022393
 21
547.7152765924766
 31
0.0
  0
LINE
  5
2E1
330
1F
100
AcDbEntity
  8
0242_
  6
JWW_CENTER1
 62
     4
370
     9
100
AcDbLine
 10
768.0166242844774
 20
797.9157071894786
 30
0.0
 11
768.0166242844774
 21
847.9157071894786
 31
0.0
  0
SOLID
  5
2E2
330
1F
100
AcDbEntity
  8
0242_
  6
Continuous
 62
     4
370
     9
100
AcDbTrace
 10
770.0166242844773
 20
797.9157071894786
 30
0.0
 11
770.0166242844773
 21
757.9157071894786
 31
0.0
 12
766.0166242844775
 22
797.9157071894786
 32
0.0
 13
766.0166242844775
 23
757.9157071894786
 33
0.0
  0
LINE
  5
2E3
330
1F
100
AcDbEntity
  8
0242_
  6
Continuous
 62
     4
370
     9
100
AcDbLine
 10
777.6827140821894
 20
776.9347103160048
 30
0.0
 11
826.9321067651312
 21
776.9347103160048
 31
0.0
  0
LINE
  5
2E4
330
1F
100
AcDbEntity
  8
0242_
  6
Continuous
 62
     4
370
     9
100
AcDbLine
 10
777.6827140821894
 20
776.9347103160048
 30
0.0
 11
802.4688356165346
 21
773.6715555105035
 31
0.0
  0
LINE
  5
2E5
330
1F
100
AcDbEntity
  8
0242_
  6
Continuous
 62
     4
370
     9
100
AcDbLine
 10
777.6827140821894
 20
776.9347103160048
 30
0.0
 11
802.4688356165346
 21
780.1978651215062
 31
0.0
  0
TEXT
  5
2E6
330
1F
100
AcDbEntity
  8
0242_
  6
Continuous
 62
     2
370
     9
100
AcDbText
 10
834.6428778990812
 20
764.7295282958012
 30
0.0
 40
30.48
  1
C
 41
0.9999999999999998
  7
ＭＳ ゴシック
100
AcDbText
  0
SOLID
  5
2E7
330
1F
100
AcDbEntity
  8
0242_
  6
Continuous
 62
     4
370
     9
100
AcDbTrace
 10
770.0166242844773
 20
1137.91552408401
 30
0.0
 11
770.0166242844773
 21
1177.91552408401
 31
0.0
 12
766.0166242844775
 22
1137.91552408401
 32
0.0
 13
766.0166242844775
 23
1177.91552408401
 33
0.0
  0
LINE
  5
2E8
330
1F
100
AcDbEntity
  8
0242_
  6
JWW_CENTER1
 62
     4
370
     9
100
AcDbLine
 10
768.0166242844774
 20
1137.91552408401
 30
0.0
 11
768.0166242844774
 21
1087.91552408401
 31
0.0
  0
LINE
  5
2E9
330
1F
100
AcDbEntity
  8
0242_
  6
Continuous
 62
     4
370
     9
100
AcDbLine
 10
777.6827140821894
 20
1158.896520957484
 30
0.0
 11
802.4688356165346
 21
1155.633366151983
 31
0.0
  0
LINE
  5
2EA
330
1F
100
AcDbEntity
  8
0242_
  6
Continuous
 62
     4
370
     9
100
AcDbLine
 10
777.6827140821894
 20
1158.896520957484
 30
0.0
 11
802.4688356165346
 21
1162.159675762985
 31
0.0
  0
LINE
  5
2EB
330
1F
100
AcDbEntity
  8
0242_
  6
Continuous
 62
     4
370
     9
100
AcDbLine
 10
777.6827140821894
 20
1158.896520957484
 30
0.0
 11
826.9321067651312
 21
1158.896520957484
 31
0.0
  0
TEXT
  5
2EC
330
1F
100
AcDbEntity
  8
0242_
  6
Continuous
 62
     2
370
     9
100
AcDbText
 10
834.6428778990812
 20
1146.691338937281
 30
0.0
 40
30.48
  1
C
 41
0.9999999999999998
  7
ＭＳ ゴシック
100
AcDbText
  0
LINE
  5
2ED
330
1F
100
AcDbEntity
  8
0218_
  6
Continuous
 62
     3
370
     9
100
AcDbLine
 10
1474.228737108784
 20
547.7152765924766
 30
0.0
 11
1434.229347460347
 21
547.7152765924766
 31
0.0
  0
LINE
  5
2EE
330
1F
100
AcDbEntity
  8
0218_
  6
Continuous
 62
     3
370
     9
100
AcDbLine
 10
1434.229347460347
 20
547.7152765924766
 30
0.0
 11
1434.229347460347
 21
540.7152155573203
 31
0.0
  0
LINE
  5
2EF
330
1F
100
AcDbEntity
  8
0218_
  6
Continuous
 62
     3
370
     9
100
AcDbLine
 10
1474.228737108784
 20
547.7152765924766
 30
0.0
 11
1474.228737108784
 21
540.7152155573203
 31
0.0
  0
LINE
  5
2F0
330
1F
100
AcDbEntity
  8
0218_
  6
Continuous
 62
     3
370
     9
100
AcDbLine
 10
1434.229347460347
 20
540.7152155573203
 30
0.0
 11
1474.228737108784
 21
540.7152155573203
 31
0.0
  0
ARC
  5
2F1
330
1F
100
AcDbEntity
  8
0218_
  6
Continuous
 62
     3
370
     9
100
AcDbCircle
 10
1445.728859179097
 20
535.7152155573203
 30
0.0
 40
5.0
100
AcDbArc
 50
0.0
 51
90.0
  0
ARC
  5
2F2
330
1F
100
AcDbEntity
  8
0218_
  6
Continuous
 62
     3
370
     9
100
AcDbCircle
 10
1462.729225390035
 20
535.7152155573203
 30
0.0
 40
5.0
100
AcDbArc
 50
90.0
 51
180.0
  0
LINE
  5
2F3
330
1F
100
AcDbEntity
  8
0218_
  6
Continuous
 62
     3
370
     9
100
AcDbLine
 10
1450.728859179097
 20
540.7152155573203
 30
0.0
 11
1450.728859179097
 21
472.8744426707864
 31
0.0
  0
LINE
  5
2F4
330
1F
100
AcDbEntity
  8
0218_
  6
Continuous
 62
     3
370
     9
100
AcDbLine
 10
1457.729225390035
 20
540.7152155573203
 30
0.0
 11
1457.729225390035
 21
472.8744426707864
 31
0.0
  0
LWPOLYLINE
  5
2F5
330
1F
100
AcDbEntity
  8
0216_
  6
Continuous
 62
     7
370
     9
100
AcDbPolyline
 90
        4
 70
     1
 43
1.0
 10
1434.728615038472
 20
655.3956354791953
 42
0.4142135623731
 10
1434.228615038472
 20
655.8956354791952
 42
0.4142135623731
 10
1433.728615038472
 20
655.3956354791953
 42
0.4142135623731
 10
1434.228615038472
 20
654.8956354791953
 42
0.4142135623731
  0
LINE
  5
2F6
330
1F
100
AcDbEntity
  8
0216_
  6
Continuous
 62
     7
370
     9
100
AcDbLine
 10
1434.228615038472
 20
658.3956354791952
 30
0.0
 11
1434.228615038472
 21
567.7152765924766
 31
0.0
  0
LWPOLYLINE
  5
2F7
330
1F
100
AcDbEntity
  8
0216_
  6
Continuous
 62
     7
370
     9
100
AcDbPolyline
 90
        4
 70
     1
 43
1.0
 10
1474.728737108785
 20
655.3956354791953
 42
0.4142135623731
 10
1474.228737108784
 20
655.8956354791952
 42
0.4142135623731
 10
1473.728737108784
 20
655.3956354791953
 42
0.4142135623731
 10
1474.228737108784
 20
654.8956354791953
 42
0.4142135623731
  0
LINE
  5
2F8
330
1F
100
AcDbEntity
  8
0216_
  6
Continuous
 62
     7
370
     9
100
AcDbLine
 10
1474.228737108784
 20
658.3956354791952
 30
0.0
 11
1474.228737108784
 21
567.7152765924766
 31
0.0
  0
LINE
  5
2F9
330
1F
100
AcDbEntity
  8
0218_
  6
Continuous
 62
     3
370
     9
100
AcDbLine
 10
1389.228615038472
 20
547.7152765924766
 30
0.0
 11
1434.228615038472
 21
547.7152765924766
 31
0.0
  0
LWPOLYLINE
  5
2FA
330
1F
100
AcDbEntity
  8
0216_
  6
Continuous
 62
     7
370
     9
100
AcDbPolyline
 90
        4
 70
     1
 43
1.0
 10
1434.728615038472
 20
655.3956354791953
 42
0.4142135623731
 10
1434.228615038472
 20
655.8956354791952
 42
0.4142135623731
 10
1433.728615038472
 20
655.3956354791953
 42
0.4142135623731
 10
1434.228615038472
 20
654.8956354791953
 42
0.4142135623731
  0
LINE
  5
2FB
330
1F
100
AcDbEntity
  8
0218_
  6
Continuous
 62
     3
370
     9
100
AcDbLine
 10
1312.028541796284
 20
472.715400312388
 30
0.0
 11
1595.928199999409
 21
472.715400312388
 31
0.0
  0
LINE
  5
2FC
330
1F
100
AcDbEntity
  8
0218_
  6
Continuous
 62
     3
370
     9
100
AcDbLine
 10
1558.728248827534
 20
547.7152765924766
 30
0.0
 11
1595.928199999409
 21
547.7152765924766
 31
0.0
  0
LWPOLYLINE
  5
2FD
330
1F
100
AcDbEntity
  8
0216_
  6
Continuous
 62
     7
370
     9
100
AcDbPolyline
 90
        4
 70
     1
 43
1.0
 10
1741.292086332993
 20
547.7152765924766
 42
0.4142135623731
 10
1740.792086332993
 20
548.2152765924765
 42
0.4142135623731
 10
1740.292086332993
 20
547.7152765924766
 42
0.4142135623731
 10
1740.792086332993
 20
547.2152765924766
 42
0.4142135623731
  0
LINE
  5
2FE
330
1F
100
AcDbEntity
  8
0216_
  6
Continuous
 62
     7
370
     9
100
AcDbLine
 10
1743.792086332993
 20
547.7152765924766
 30
0.0
 11
1615.928199999409
 21
547.7152765924766
 31
0.0
  0
LINE
  5
2FF
330
1F
100
AcDbEntity
  8
0218_
  6
Continuous
 62
     3
370
     9
100
AcDbLine
 10
1519.228737108784
 20
540.7152155573203
 30
0.0
 11
1519.228737108784
 21
547.7152765924766
 31
0.0
  0
LINE
  5
300
330
1F
100
AcDbEntity
  8
0218_
  6
Continuous
 62
     3
370
     9
100
AcDbLine
 10
1559.228126757222
 20
547.7152765924766
 30
0.0
 11
1519.228737108784
 21
547.7152765924766
 31
0.0
  0
LINE
  5
301
330
1F
100
AcDbEntity
  8
0218_
  6
Continuous
 62
     3
370
     9
100
AcDbLine
 10
1559.228126757222
 20
547.7152765924766
 30
0.0
 11
1559.228126757222
 21
541.7152155573203
 31
0.0
  0
LINE
  5
302
330
1F
100
AcDbEntity
  8
0218_
  6
Continuous
 62
     3
370
     9
100
AcDbLine
 10
1559.228126757222
 20
546.7152765924766
 30
0.0
 11
1559.228126757222
 21
540.7152155573203
 31
0.0
  0
LINE
  5
303
330
1F
100
AcDbEntity
  8
0218_
  6
Continuous
 62
     3
370
     9
100
AcDbLine
 10
1559.228126757222
 20
540.7152155573203
 30
0.0
 11
1519.228737108784
 21
540.7152155573203
 31
0.0
  0
LINE
  5
304
330
1F
100
AcDbEntity
  8
0218_
  6
Continuous
 62
     3
370
     9
100
AcDbLine
 10
1474.228737108784
 20
547.7152765924766
 30
0.0
 11
1519.228737108784
 21
547.7152765924766
 31
0.0
  0
ARC
  5
305
330
1F
100
AcDbEntity
  8
0218_
  6
Continuous
 62
     3
370
     9
100
AcDbCircle
 10
1530.728248827535
 20
535.7152155573203
 30
0.0
 40
5.0
100
AcDbArc
 50
0.0
 51
90.0
  0
ARC
  5
306
330
1F
100
AcDbEntity
  8
0218_
  6
Continuous
 62
     3
370
     9
100
AcDbCircle
 10
1547.728615038472
 20
535.7152155573203
 30
0.0
 40
5.0
100
AcDbArc
 50
90.0
 51
180.0
  0
LWPOLYLINE
  5
307
330
1F
100
AcDbEntity
  8
0216_
  6
Continuous
 62
     7
370
     9
100
AcDbPolyline
 90
        4
 70
     1
 43
1.0
 10
1741.292086332993
 20
472.715400312388
 42
0.4142135623731
 10
1740.792086332993
 20
473.2154003123879
 42
0.4142135623731
 10
1740.292086332993
 20
472.715400312388
 42
0.4142135623731
 10
1740.792086332993
 20
472.2154003123881
 42
0.4142135623731
  0
LINE
  5
308
330
1F
100
AcDbEntity
  8
0216_
  6
Continuous
 62
     7
370
     9
100
AcDbLine
 10
1743.792086332993
 20
472.715400312388
 30
0.0
 11
1615.928199999409
 21
472.715400312388
 31
0.0
  0
LINE
  5
309
330
1F
100
AcDbEntity
  8
0218_
  6
Continuous
 62
     3
370
     9
100
AcDbLine
 10
1535.728248827535
 20
540.7152155573203
 30
0.0
 11
1535.728248827535
 21
472.8744426707864
 31
0.0
  0
LINE
  5
30A
330
1F
100
AcDbEntity
  8
0218_
  6
Continuous
 62
     3
370
     9
100
AcDbLine
 10
1542.728615038472
 20
540.7152155573203
 30
0.0
 11
1542.728615038472
 21
472.8744426707864
 31
0.0
  0
LINE
  5
30B
330
1F
100
AcDbEntity
  8
0216_
  6
Continuous
 62
     7
370
     9
100
AcDbLine
 10
1740.792086332993
 20
547.7152765924766
 30
0.0
 11
1740.792086332993
 21
472.715400312388
 31
0.0
  0
TEXT
  5
30C
330
1F
100
AcDbEntity
  8
0216_
  6
Continuous
 62
     2
370
   211
100
AcDbText
 10
1729.152086332993
 20
488.9653384524323
 30
0.0
 40
30.48
  1
15
 50
90.0
 41
1.0625
  7
ＭＳ ゴシック
100
AcDbText
  0
LWPOLYLINE
  5
30D
330
1F
100
AcDbEntity
  8
0216_
  6
Continuous
 62
     7
370
     9
100
AcDbPolyline
 90
        4
 70
     1
 43
1.0
 10
1519.728737108785
 20
655.3956354791953
 42
0.4142135623731
 10
1519.228737108784
 20
655.8956354791952
 42
0.4142135623731
 10
1518.728737108784
 20
655.3956354791953
 42
0.4142135623731
 10
1519.228737108784
 20
654.8956354791953
 42
0.4142135623731
  0
LINE
  5
30E
330
1F
100
AcDbEntity
  8
0216_
  6
Continuous
 62
     7
370
     9
100
AcDbLine
 10
1519.228737108784
 20
658.3956354791952
 30
0.0
 11
1519.228737108784
 21
567.7152765924766
 31
0.0
  0
LWPOLYLINE
  5
30F
330
1F
100
AcDbEntity
  8
0216_
  6
Continuous
 62
     7
370
     9
100
AcDbPolyline
 90
        4
 70
     1
 43
1.0
 10
1559.728126757222
 20
655.3956354791953
 42
0.4142135623731
 10
1559.228126757222
 20
655.8956354791952
 42
0.4142135623731
 10
1558.728126757222
 20
655.3956354791953
 42
0.4142135623731
 10
1559.228126757222
 20
654.8956354791953
 42
0.4142135623731
  0
LINE
  5
310
330
1F
100
AcDbEntity
  8
0216_
  6
Continuous
 62
     7
370
     9
100
AcDbLine
 10
1559.228126757222
 20
658.3956354791952
 30
0.0
 11
1559.228126757222
 21
567.7152765924766
 31
0.0
  0
LINE
  5
311
330
1F
100
AcDbEntity
  8
0216_
  6
Continuous
 62
     7
370
     9
100
AcDbLine
 10
1349.228492968159
 20
655.3956354791953
 30
0.0
 11
1389.228615038472
 21
655.3956354791953
 31
0.0
  0
TEXT
  5
312
330
1F
100
AcDbEntity
  8
0216_
  6
Continuous
 62
     2
370
   211
100
AcDbText
 10
1359.228554003315
 20
671.0356354791953
 30
0.0
 40
30.48
  1
8
 41
0.9999999999999998
  7
ＭＳ ゴシック
100
AcDbText
  0
LINE
  5
313
330
1F
100
AcDbEntity
  8
0216_
  6
Continuous
 62
     7
370
     9
100
AcDbLine
 10
1434.228615038472
 20
655.3956354791953
 30
0.0
 11
1474.228737108784
 21
655.3956354791953
 31
0.0
  0
TEXT
  5
314
330
1F
100
AcDbEntity
  8
0216_
  6
Continuous
 62
     2
370
   211
100
AcDbText
 10
1444.228676073628
 20
671.0356354791953
 30
0.0
 40
30.48
  1
8
 41
0.9999999999999998
  7
ＭＳ ゴシック
100
AcDbText
  0
LINE
  5
315
330
1F
100
AcDbEntity
  8
0216_
  6
Continuous
 62
     7
370
     9
100
AcDbLine
 10
1434.228615038472
 20
655.3956354791953
 30
0.0
 11
1389.228615038472
 21
655.3956354791953
 31
0.0
  0
TEXT
  5
316
330
1F
100
AcDbEntity
  8
0216_
  6
Continuous
 62
     2
370
   211
100
AcDbText
 10
1401.728615038472
 20
671.0356354791953
 30
0.0
 40
30.48
  1
9
 41
0.9999999999999998
  7
ＭＳ ゴシック
100
AcDbText
  0
LINE
  5
317
330
1F
100
AcDbEntity
  8
0216_
  6
Continuous
 62
     7
370
     9
100
AcDbLine
 10
1474.228737108784
 20
655.3956354791953
 30
0.0
 11
1519.228737108784
 21
655.3956354791953
 31
0.0
  0
TEXT
  5
318
330
1F
100
AcDbEntity
  8
0216_
  6
Continuous
 62
     2
370
   211
100
AcDbText
 10
1486.728737108784
 20
671.0356354791953
 30
0.0
 40
30.48
  1
9
 41
0.9999999999999998
  7
ＭＳ ゴシック
100
AcDbText
  0
LINE
  5
319
330
1F
100
AcDbEntity
  8
0216_
  6
Continuous
 62
     7
370
     9
100
AcDbLine
 10
1519.228737108784
 20
655.3956354791953
 30
0.0
 11
1559.228126757222
 21
655.3956354791953
 31
0.0
  0
TEXT
  5
31A
330
1F
100
AcDbEntity
  8
0216_
  6
Continuous
 62
     2
370
   211
100
AcDbText
 10
1529.228431933003
 20
671.0356354791953
 30
0.0
 40
30.48
  1
8
 41
0.9999999999999998
  7
ＭＳ ゴシック
100
AcDbText
  0
SOLID
  5
31B
330
1F
100
AcDbEntity
  8
0242_
  6
Continuous
 62
     4
370
     9
100
AcDbTrace
 10
11.89361300075575
 20
923.4156461543226
 30
0.0
 11
-28.10638699924425
 21
923.4156461543226
 31
0.0
 12
11.89361300075575
 22
927.4156461543224
 32
0.0
 13
-28.10638699924425
 23
927.4156461543224
 33
0.0
  0
LINE
  5
31C
330
1F
100
AcDbEntity
  8
0242_
  6
Continuous
 62
     4
370
     9
100
AcDbLine
 10
-9.087383872717965
 20
915.7495563566106
 30
0.0
 11
-9.087383872717965
 21
866.5001636736688
 31
0.0
  0
LINE
  5
31D
330
1F
100
AcDbEntity
  8
0242_
  6
Continuous
 62
     4
370
     9
100
AcDbLine
 10
-9.087383872717965
 20
915.7495563566106
 30
0.0
 11
-5.824229067216606
 21
890.9634348222653
 31
0.0
  0
LINE
  5
31E
330
1F
100
AcDbEntity
  8
0242_
  6
Continuous
 62
     4
370
     9
100
AcDbLine
 10
-9.087383872717965
 20
915.7495563566106
 30
0.0
 11
-12.35053867821932
 21
890.9634348222653
 31
0.0
  0
TEXT
  5
31F
330
1F
100
AcDbEntity
  8
0242_
  6
Continuous
 62
     2
370
     9
100
AcDbText
 10
-19.08738387271796
 20
826.1740638362564
 30
0.0
 40
30.48
  1
B
 41
0.9999999999999998
  7
ＭＳ ゴシック
100
AcDbText
  0
LINE
  5
320
330
1F
100
AcDbEntity
  8
0242_
  6
JWW_CENTER1
 62
     4
370
     9
100
AcDbLine
 10
11.89361300075575
 20
925.4156461543225
 30
0.0
 11
111.8936130007557
 21
925.4156461543225
 31
0.0
  0
LINE
  5
321
330
1F
100
AcDbEntity
  8
0216_
  6
Continuous
 62
     7
370
     9
100
AcDbLine
 10
167.9044374624013
 20
882.9156766719005
 30
0.0
 11
272.3908440022393
 21
882.9156766719005
 31
0.0
  0
LINE
  5
322
330
1F
100
AcDbEntity
  8
0218_
  6
Continuous
 62
     3
370
     9
100
AcDbLine
 10
1312.028541796284
 20
531.964207652443
 30
0.0
 11
1365.228370897847
 21
531.964207652443
 31
0.0
  0
LINE
  5
323
330
1F
100
AcDbEntity
  8
0218_
  6
Continuous
 62
     3
370
     9
100
AcDbLine
 10
1312.028541796284
 20
507.2152765924766
 30
0.0
 11
1365.228370897847
 21
507.2152765924766
 31
0.0
  0
LINE
  5
324
330
1F
100
AcDbEntity
  8
0218_
  6
Continuous
 62
     3
370
     9
100
AcDbLine
 10
1312.028541796284
 20
482.4663455325107
 30
0.0
 11
1365.228370897847
 21
482.4663455325107
 31
0.0
  0
LINE
  5
325
330
1F
100
AcDbEntity
  8
0218_
  6
Continuous
 62
     3
370
     9
100
AcDbLine
 10
1372.728737108784
 20
531.964207652443
 30
0.0
 11
1450.728859179097
 21
531.964207652443
 31
0.0
  0
LINE
  5
326
330
1F
100
AcDbEntity
  8
0218_
  6
Continuous
 62
     3
370
     9
100
AcDbLine
 10
1372.728737108784
 20
507.2152765924766
 30
0.0
 11
1450.728859179097
 21
507.2152765924766
 31
0.0
  0
LINE
  5
327
330
1F
100
AcDbEntity
  8
0218_
  6
Continuous
 62
     3
370
     9
100
AcDbLine
 10
1372.728737108784
 20
482.4663455325107
 30
0.0
 11
1450.728859179097
 21
482.4663455325107
 31
0.0
  0
LINE
  5
328
330
1F
100
AcDbEntity
  8
0218_
  6
Continuous
 62
     3
370
     9
100
AcDbLine
 10
1457.728859179097
 20
531.964207652443
 30
0.0
 11
1535.728248827535
 21
531.964207652443
 31
0.0
  0
LINE
  5
329
330
1F
100
AcDbEntity
  8
0218_
  6
Continuous
 62
     3
370
     9
100
AcDbLine
 10
1542.728615038472
 20
531.964207652443
 30
0.0
 11
1595.928199999409
 21
531.964207652443
 31
0.0
  0
LINE
  5
32A
330
1F
100
AcDbEntity
  8
0218_
  6
Continuous
 62
     3
370
     9
100
AcDbLine
 10
1457.728859179097
 20
507.2152765924766
 30
0.0
 11
1535.728248827535
 21
507.2152765924766
 31
0.0
  0
LINE
  5
32B
330
1F
100
AcDbEntity
  8
0218_
  6
Continuous
 62
     3
370
     9
100
AcDbLine
 10
1542.728615038472
 20
507.2152765924766
 30
0.0
 11
1595.928199999409
 21
507.2152765924766
 31
0.0
  0
LINE
  5
32C
330
1F
100
AcDbEntity
  8
0218_
  6
Continuous
 62
     3
370
     9
100
AcDbLine
 10
1457.728859179097
 20
482.4663455325107
 30
0.0
 11
1535.728248827535
 21
482.4663455325107
 31
0.0
  0
LINE
  5
32D
330
1F
100
AcDbEntity
  8
0218_
  6
Continuous
 62
     3
370
     9
100
AcDbLine
 10
1542.728615038472
 20
482.4663455325107
 30
0.0
 11
1595.928199999409
 21
482.4663455325107
 31
0.0
  0
LINE
  5
32E
330
1F
100
AcDbEntity
  8
0216_
  6
Continuous
 62
     7
370
     9
100
AcDbLine
 10
612.3908440022393
 20
658.3956354791952
 30
0.0
 11
612.3908440022393
 21
560.3956354791953
 31
0.0
  0
LINE
  5
32F
330
1F
100
AcDbEntity
  8
0216_
  6
Continuous
 62
     7
370
     9
100
AcDbLine
 10
612.3908440022393
 20
655.3956354791953
 30
0.0
 11
1012.390802762268
 21
655.3956354791953
 31
0.0
  0
TEXT
  5
330
330
1F
100
AcDbEntity
  8
0216_
  6
Continuous
 62
     2
370
   211
100
AcDbText
 10
791.1408233822539
 20
671.0356354791953
 30
0.0
 40
30.48
  1
80
 41
1.0625
  7
ＭＳ ゴシック
100
AcDbText
  0
LINE
  5
331
330
1F
100
AcDbEntity
  8
0216_
  6
Continuous
 62
     7
370
     9
100
AcDbLine
 10
1012.390802762268
 20
658.3956354791952
 30
0.0
 11
1012.390802762268
 21
560.3956354791953
 31
0.0
  0
LWPOLYLINE
  5
332
330
1F
100
AcDbEntity
  8
0216_
  6
Continuous
 62
     7
370
     9
100
AcDbPolyline
 90
        4
 70
     1
 43
1.0
 10
1012.890802762268
 20
655.3956354791953
 42
0.4142135623731
 10
1012.390802762268
 20
655.8956354791952
 42
0.4142135623731
 10
1011.890802762268
 20
655.3956354791953
 42
0.4142135623731
 10
1012.390802762268
 20
654.8956354791953
 42
0.4142135623731
  0
LWPOLYLINE
  5
333
330
1F
100
AcDbEntity
  8
0216_
  6
Continuous
 62
     7
370
     9
100
AcDbPolyline
 90
        4
 70
     1
 43
1.0
 10
612.8908440022393
 20
655.3956354791953
 42
0.4142135623731
 10
612.3908440022393
 20
655.8956354791952
 42
0.4142135623731
 10
611.8908440022393
 20
655.3956354791953
 42
0.4142135623731
 10
612.3908440022393
 20
654.8956354791953
 42
0.4142135623731
  0
LINE
  5
334
330
1F
100
AcDbEntity
  8
0218_
  6
JWW_CENTER1
 62
     3
370
     9
100
AcDbLine
 10
582.2107325553429
 20
507.2152765924766
 30
0.0
 11
642.5711410290023
 21
507.2152765924766
 31
0.0
  0
LINE
  5
335
330
1F
100
AcDbEntity
  8
0218_
  6
JWW_CENTER1
 62
     3
370
     9
100
AcDbLine
 10
612.3908440022393
 20
477.0351651455804
 30
0.0
 11
612.3908440022393
 21
537.3957591991065
 31
0.0
  0
LINE
  5
336
330
1F
100
AcDbEntity
  8
0218_
  6
Continuous
 62
     3
370
     9
100
AcDbLine
 10
637.1395894823382
 20
507.2152765924766
 30
0.0
 11
612.3908440022393
 21
482.4663455325107
 31
0.0
  0
LINE
  5
337
330
1F
100
AcDbEntity
  8
0218_
  6
Continuous
 62
     3
370
     9
100
AcDbLine
 10
629.8908398782424
 20
489.7150951366065
 30
0.0
 11
619.6395936063357
 21
489.7150951366065
 31
0.0
  0
LINE
  5
338
330
1F
100
AcDbEntity
  8
0218_
  6
Continuous
 62
     3
370
     9
100
AcDbLine
 10
629.8908398782424
 20
499.9665269883805
 30
0.0
 11
629.8908398782424
 21
489.7150951366065
 31
0.0
  0
LINE
  5
339
330
1F
100
AcDbEntity
  8
0218_
  6
Continuous
 62
     3
370
     9
100
AcDbLine
 10
594.8908481262362
 20
489.7150951366065
 30
0.0
 11
594.8908481262362
 21
499.9665269883805
 31
0.0
  0
LINE
  5
33A
330
1F
100
AcDbEntity
  8
0218_
  6
Continuous
 62
     3
370
     9
100
AcDbLine
 10
605.142094398143
 20
489.7150951366065
 30
0.0
 11
594.8908481262362
 21
489.7150951366065
 31
0.0
  0
LINE
  5
33B
330
1F
100
AcDbEntity
  8
0218_
  6
Continuous
 62
     3
370
     9
100
AcDbLine
 10
612.3908440022393
 20
482.4663455325107
 30
0.0
 11
587.6420985221398
 21
507.2152765924766
 31
0.0
  0
LINE
  5
33C
330
1F
100
AcDbEntity
  8
0218_
  6
Continuous
 62
     3
370
     9
100
AcDbLine
 10
587.6420985221398
 20
507.2152765924766
 30
0.0
 11
612.3908440022393
 21
531.964207652443
 31
0.0
  0
LINE
  5
33D
330
1F
100
AcDbEntity
  8
0218_
  6
Continuous
 62
     3
370
     9
100
AcDbLine
 10
594.8908481262362
 20
514.4640261965732
 30
0.0
 11
594.8908481262362
 21
524.7154580483466
 31
0.0
  0
LINE
  5
33E
330
1F
100
AcDbEntity
  8
0218_
  6
Continuous
 62
     3
370
     9
100
AcDbLine
 10
594.8908481262362
 20
524.7154580483466
 30
0.0
 11
605.142094398143
 21
524.7154580483466
 31
0.0
  0
LINE
  5
33F
330
1F
100
AcDbEntity
  8
0218_
  6
Continuous
 62
     3
370
     9
100
AcDbLine
 10
629.8908398782424
 20
524.7154580483466
 30
0.0
 11
629.8908398782424
 21
514.4640261965732
 31
0.0
  0
LINE
  5
340
330
1F
100
AcDbEntity
  8
0218_
  6
Continuous
 62
     3
370
     9
100
AcDbLine
 10
612.3908440022393
 20
531.964207652443
 30
0.0
 11
637.1395894823382
 21
507.2152765924766
 31
0.0
  0
LINE
  5
341
330
1F
100
AcDbEntity
  8
0218_
  6
Continuous
 62
     3
370
     9
100
AcDbLine
 10
619.6395936063357
 20
524.7154580483466
 30
0.0
 11
629.8908398782424
 21
524.7154580483466
 31
0.0
  0
LINE
  5
342
330
1F
100
AcDbEntity
  8
0218_
  6
Continuous
 62
     3
370
     9
100
AcDbLine
 10
987.6420572821695
 20
507.2152765924766
 30
0.0
 11
1012.390802762268
 21
531.964207652443
 31
0.0
  0
LINE
  5
343
330
1F
100
AcDbEntity
  8
0218_
  6
JWW_CENTER1
 62
     3
370
     9
100
AcDbLine
 10
982.2106913153726
 20
507.2152765924766
 30
0.0
 11
1042.571099789031
 21
507.2152765924766
 31
0.0
  0
LINE
  5
344
330
1F
100
AcDbEntity
  8
0218_
  6
JWW_CENTER1
 62
     3
370
     9
100
AcDbLine
 10
1012.390802762268
 20
477.0351651455804
 30
0.0
 11
1012.390802762268
 21
537.3957591991065
 31
0.0
  0
LINE
  5
345
330
1F
100
AcDbEntity
  8
0218_
  6
Continuous
 62
     3
370
     9
100
AcDbLine
 10
1012.390802762268
 20
482.4663455325107
 30
0.0
 11
987.6420572821695
 21
507.2152765924766
 31
0.0
  0
LINE
  5
346
330
1F
100
AcDbEntity
  8
0218_
  6
Continuous
 62
     3
370
     9
100
AcDbLine
 10
994.8908068862653
 20
489.7150951366065
 30
0.0
 11
994.8908068862653
 21
499.9665269883805
 31
0.0
  0
LINE
  5
347
330
1F
100
AcDbEntity
  8
0218_
  6
Continuous
 62
     3
370
     9
100
AcDbLine
 10
1005.142053158172
 20
489.7150951366065
 30
0.0
 11
994.8908068862653
 21
489.7150951366065
 31
0.0
  0
LINE
  5
348
330
1F
100
AcDbEntity
  8
0218_
  6
Continuous
 62
     3
370
     9
100
AcDbLine
 10
1029.890798638271
 20
489.7150951366065
 30
0.0
 11
1019.639552366365
 21
489.7150951366065
 31
0.0
  0
LINE
  5
349
330
1F
100
AcDbEntity
  8
0218_
  6
Continuous
 62
     3
370
     9
100
AcDbLine
 10
1029.890798638271
 20
499.9665269883805
 30
0.0
 11
1029.890798638271
 21
489.7150951366065
 31
0.0
  0
LINE
  5
34A
330
1F
100
AcDbEntity
  8
0218_
  6
Continuous
 62
     3
370
     9
100
AcDbLine
 10
1037.139548242368
 20
507.2152765924766
 30
0.0
 11
1012.390802762268
 21
482.4663455325107
 31
0.0
  0
LINE
  5
34B
330
1F
100
AcDbEntity
  8
0218_
  6
Continuous
 62
     3
370
     9
100
AcDbLine
 10
1012.390802762268
 20
531.964207652443
 30
0.0
 11
1037.139548242368
 21
507.2152765924766
 31
0.0
  0
LINE
  5
34C
330
1F
100
AcDbEntity
  8
0218_
  6
Continuous
 62
     3
370
     9
100
AcDbLine
 10
1019.639552366365
 20
524.7154580483466
 30
0.0
 11
1029.890798638271
 21
524.7154580483466
 31
0.0
  0
LINE
  5
34D
330
1F
100
AcDbEntity
  8
0218_
  6
Continuous
 62
     3
370
     9
100
AcDbLine
 10
994.8908068862653
 20
524.7154580483466
 30
0.0
 11
1005.142053158172
 21
524.7154580483466
 31
0.0
  0
LINE
  5
34E
330
1F
100
AcDbEntity
  8
0218_
  6
Continuous
 62
     3
370
     9
100
AcDbLine
 10
994.8908068862653
 20
514.4640261965732
 30
0.0
 11
994.8908068862653
 21
524.7154580483466
 31
0.0
  0
LINE
  5
34F
330
1F
100
AcDbEntity
  8
0218_
  6
Continuous
 62
     3
370
     9
100
AcDbLine
 10
1029.890798638271
 20
524.7154580483466
 30
0.0
 11
1029.890798638271
 21
514.4640261965732
 31
0.0
  0
LINE
  5
350
330
1F
100
AcDbEntity
  8
0216_
  6
Continuous
 62
     7
370
     9
100
AcDbLine
 10
477.0938160113715
 20
602.8874990852141
 30
0.0
 11
307.7961472494624
 21
602.8874990852141
 31
0.0
  0
TEXT
  5
351
330
1F
100
AcDbEntity
  8
0242_
  6
Continuous
 62
     7
370
     9
100
AcDbText
 10
307.0938160113715
 20
612.1174990852141
 30
0.0
 40
22.86
  1
メインバー
 41
1.133333333333333
  7
ＭＳ ゴシック
100
AcDbText
  0
LINE
  5
352
330
1F
100
AcDbEntity
  8
0216_
  6
Continuous
 62
     7
370
     9
100
AcDbLine
 10
532.2660385041095
 20
547.7152765924766
 30
0.0
 11
477.0938160113715
 21
602.8874990852141
 31
0.0
  0
LINE
  5
353
330
1F
100
AcDbEntity
  8
0216_
  6
Continuous
 62
     7
370
     9
100
AcDbLine
 10
532.2660385041095
 20
547.7152765924766
 30
0.0
 11
512.4322049968284
 21
562.9343123176945
 31
0.0
  0
LINE
  5
354
330
1F
100
AcDbEntity
  8
0216_
  6
Continuous
 62
     7
370
     9
100
AcDbLine
 10
532.2660385041095
 20
547.7152765924766
 30
0.0
 11
517.0470027788908
 21
567.5491100997574
 31
0.0
  0
LINE
  5
355
330
1F
100
AcDbEntity
  8
0226_下階梁情報
  6
Continuous
 62
     3
370
     9
100
AcDbLine
 10
1012.390802762268
 20
826.1929299798446
 30
0.0
 11
1012.390802762268
 21
862.9157071894786
 31
0.0
  0
LINE
  5
356
330
1F
100
AcDbEntity
  8
0226_下階梁情報
  6
Continuous
 62
     3
370
     9
100
AcDbLine
 10
1037.139733822234
 20
826.1929299798446
 30
0.0
 11
1037.139733822234
 21
862.9157071894786
 31
0.0
  0
LINE
  5
357
330
1F
100
AcDbEntity
  8
0226_下階梁情報
  6
Continuous
 62
     3
370
     9
100
AcDbLine
 10
987.6418717023021
 20
826.1929299798446
 30
0.0
 11
987.6418717023021
 21
862.9157071894786
 31
0.0
  0
LINE
  5
358
330
1F
100
AcDbEntity
  8
0226_下階梁情報
  6
Continuous
 62
     3
370
     9
100
AcDbLine
 10
612.3908440022393
 20
1072.91552408401
 30
0.0
 11
612.3908440022393
 21
1110.089940551225
 31
0.0
  0
LINE
  5
359
330
1F
100
AcDbEntity
  8
0226_下階梁情報
  6
Continuous
 62
     3
370
     9
100
AcDbLine
 10
637.1397750622052
 20
1072.91552408401
 30
0.0
 11
637.1397750622052
 21
1110.089940551225
 31
0.0
  0
LINE
  5
35A
330
1F
100
AcDbEntity
  8
0226_下階梁情報
  6
Continuous
 62
     3
370
     9
100
AcDbLine
 10
587.6419129422726
 20
1072.91552408401
 30
0.0
 11
587.6419129422726
 21
1110.089940551225
 31
0.0
  0
LINE
  5
35B
330
1F
100
AcDbEntity
  8
0226_下階梁情報
  6
Continuous
 62
     3
370
     9
100
AcDbLine
 10
587.6419129422726
 20
987.9155851191662
 30
0.0
 11
587.6419129422726
 21
1032.915585119166
 31
0.0
  0
LINE
  5
35C
330
1F
100
AcDbEntity
  8
0226_下階梁情報
  6
Continuous
 62
     3
370
     9
100
AcDbLine
 10
612.3908440022393
 20
987.9155851191662
 30
0.0
 11
612.3908440022393
 21
1032.915585119166
 31
0.0
  0
LINE
  5
35D
330
1F
100
AcDbEntity
  8
0226_下階梁情報
  6
Continuous
 62
     3
370
     9
100
AcDbLine
 10
637.1397750622052
 20
987.9155851191662
 30
0.0
 11
637.1397750622052
 21
1032.915585119166
 31
0.0
  0
LINE
  5
35E
330
1F
100
AcDbEntity
  8
0226_下階梁情報
  6
Continuous
 62
     3
370
     9
100
AcDbLine
 10
587.6419129422726
 20
902.9156461543225
 30
0.0
 11
587.6419129422726
 21
947.9156461543225
 31
0.0
  0
LINE
  5
35F
330
1F
100
AcDbEntity
  8
0226_下階梁情報
  6
Continuous
 62
     3
370
     9
100
AcDbLine
 10
612.3908440022393
 20
902.9156461543225
 30
0.0
 11
612.3908440022393
 21
947.9156461543225
 31
0.0
  0
LINE
  5
360
330
1F
100
AcDbEntity
  8
0226_下階梁情報
  6
Continuous
 62
     3
370
     9
100
AcDbLine
 10
637.1397750622052
 20
902.9156461543225
 30
0.0
 11
637.1397750622052
 21
947.9156461543225
 31
0.0
  0
LINE
  5
361
330
1F
100
AcDbEntity
  8
0226_下階梁情報
  6
Continuous
 62
     3
370
     9
100
AcDbLine
 10
987.6418717023021
 20
1072.91552408401
 30
0.0
 11
987.6418717023021
 21
1110.089940551225
 31
0.0
  0
LINE
  5
362
330
1F
100
AcDbEntity
  8
0226_下階梁情報
  6
Continuous
 62
     3
370
     9
100
AcDbLine
 10
1012.390802762268
 20
1072.91552408401
 30
0.0
 11
1012.390802762268
 21
1110.089940551225
 31
0.0
  0
LINE
  5
363
330
1F
100
AcDbEntity
  8
0226_下階梁情報
  6
Continuous
 62
     3
370
     9
100
AcDbLine
 10
1037.139733822234
 20
1072.91552408401
 30
0.0
 11
1037.139733822234
 21
1110.089940551225
 31
0.0
  0
LINE
  5
364
330
1F
100
AcDbEntity
  8
0226_下階梁情報
  6
Continuous
 62
     3
370
     9
100
AcDbLine
 10
987.6418717023021
 20
987.9155851191662
 30
0.0
 11
987.6418717023021
 21
1032.915585119166
 31
0.0
  0
LINE
  5
365
330
1F
100
AcDbEntity
  8
0226_下階梁情報
  6
Continuous
 62
     3
370
     9
100
AcDbLine
 10
1012.390802762268
 20
987.9155851191662
 30
0.0
 11
1012.390802762268
 21
1032.915585119166
 31
0.0
  0
LINE
  5
366
330
1F
100
AcDbEntity
  8
0226_下階梁情報
  6
Continuous
 62
     3
370
     9
100
AcDbLine
 10
1037.139733822234
 20
987.9155851191662
 30
0.0
 11
1037.139733822234
 21
1032.915585119166
 31
0.0
  0
LINE
  5
367
330
1F
100
AcDbEntity
  8
0226_下階梁情報
  6
Continuous
 62
     3
370
     9
100
AcDbLine
 10
987.6418717023021
 20
902.9156461543225
 30
0.0
 11
987.6418717023021
 21
947.9156461543225
 31
0.0
  0
LINE
  5
368
330
1F
100
AcDbEntity
  8
0226_下階梁情報
  6
Continuous
 62
     3
370
     9
100
AcDbLine
 10
1012.390802762268
 20
902.9156461543225
 30
0.0
 11
1012.390802762268
 21
947.9156461543225
 31
0.0
  0
LINE
  5
369
330
1F
100
AcDbEntity
  8
0226_下階梁情報
  6
Continuous
 62
     3
370
     9
100
AcDbLine
 10
1037.139733822234
 20
902.9156461543225
 30
0.0
 11
1037.139733822234
 21
947.9156461543225
 31
0.0
  0
LINE
  5
36A
330
1F
100
AcDbEntity
  8
0242_
  6
JWW_CENTER1
 62
     4
370
     9
100
AcDbLine
 10
1162.007396400369
 20
925.4156461543225
 30
0.0
 11
1061.62399003847
 21
925.4156461543225
 31
0.0
  0
LINE
  5
36B
330
1F
100
AcDbEntity
  8
0255_
  6
Continuous
 62
     7
370
     9
100
AcDbLine
 10
-439.8667587558226
 20
330.8662304757677
 30
0.0
 11
-1014.866819790979
 21
330.8662304757677
 31
0.0
  0
LINE
  5
36C
330
1F
100
AcDbEntity
  8
0191_区画線（防
  6
Continuous
 62
     2
370
     9
100
AcDbLine
 10
-521.3667892734007
 20
497.866260993346
 30
0.0
 11
-521.3667892734007
 21
959.8661389230335
 31
0.0
  0
LINE
  5
36D
330
1F
100
AcDbEntity
  8
0191_区画線（防
  6
Continuous
 62
     2
370
     9
100
AcDbLine
 10
-526.3667892734007
 20
954.8661694406115
 30
0.0
 11
-526.3667892734007
 21
502.8662457345567
 31
0.0
  0
LINE
  5
36E
330
1F
100
AcDbEntity
  8
0191_区画線（防
  6
JWW_DASHED3
 62
     2
370
     9
100
AcDbLine
 10
-552.3667892734006
 20
928.8659252999867
 30
0.0
 11
-552.3667892734006
 21
528.8659710763538
 31
0.0
  0
LINE
  5
36F
330
1F
100
AcDbEntity
  8
0191_区画線（防
  6
Continuous
 62
     2
370
     9
100
AcDbLine
 10
-521.3667892734007
 20
497.866260993346
 30
0.0
 11
-983.3667892734006
 21
497.866260993346
 31
0.0
  0
LINE
  5
370
330
1F
100
AcDbEntity
  8
0191_区画線（防
  6
Continuous
 62
     2
370
     9
100
AcDbLine
 10
-526.3667892734007
 20
502.8662457345567
 30
0.0
 11
-978.3667892734006
 21
502.8662457345567
 31
0.0
  0
LINE
  5
371
330
1F
100
AcDbEntity
  8
0191_区画線（防
  6
JWW_DASHED3
 62
     2
370
     9
100
AcDbLine
 10
-552.3667892734006
 20
528.8659710763538
 30
0.0
 11
-952.3667892734006
 21
528.8659710763538
 31
0.0
  0
LINE
  5
372
330
1F
100
AcDbEntity
  8
0191_区画線（防
  6
JWW_DASHED3
 62
     2
370
     9
100
AcDbLine
 10
-952.3667892734006
 20
928.8659252999867
 30
0.0
 11
-552.3667892734006
 21
928.8659252999867
 31
0.0
  0
LINE
  5
373
330
1F
100
AcDbEntity
  8
0191_区画線（防
  6
JWW_DASHED3
 62
     2
370
     9
100
AcDbLine
 10
-952.3667892734006
 20
928.8659252999867
 30
0.0
 11
-952.3667892734006
 21
528.8659710763538
 31
0.0
  0
LINE
  5
374
330
1F
100
AcDbEntity
  8
0191_区画線（防
  6
Continuous
 62
     2
370
     9
100
AcDbLine
 10
-983.3667892734006
 20
959.8661389230335
 30
0.0
 11
-521.3667892734007
 21
959.8661389230335
 31
0.0
  0
LINE
  5
375
330
1F
100
AcDbEntity
  8
0191_区画線（防
  6
Continuous
 62
     2
370
     9
100
AcDbLine
 10
-978.3667892734006
 20
954.8661694406115
 30
0.0
 11
-526.3667892734007
 21
954.8661694406115
 31
0.0
  0
LINE
  5
376
330
1F
100
AcDbEntity
  8
0191_区画線（防
  6
Continuous
 62
     2
370
     9
100
AcDbLine
 10
-983.3667892734006
 20
959.8661389230335
 30
0.0
 11
-983.3667892734006
 21
497.866260993346
 31
0.0
  0
LINE
  5
377
330
1F
100
AcDbEntity
  8
0191_区画線（防
  6
Continuous
 62
     2
370
     9
100
AcDbLine
 10
-978.3667892734006
 20
502.8662457345567
 30
0.0
 11
-978.3667892734006
 21
954.8661694406115
 31
0.0
  0
LINE
  5
378
330
1F
100
AcDbEntity
  8
0239_詳細図（細
  6
Continuous
 62
     3
370
     9
100
AcDbLine
 10
-975.3667892734006
 20
944.5271694406099
 30
0.0
 11
-531.3667892734006
 21
944.5271694406099
 31
0.0
  0
LINE
  5
379
330
1F
100
AcDbEntity
  8
0239_詳細図（細
  6
Continuous
 62
     3
370
     9
100
AcDbLine
 10
-975.3667892734006
 20
935.6301694406102
 30
0.0
 11
-531.3667892734006
 21
935.6301694406102
 31
0.0
  0
LINE
  5
37A
330
1F
100
AcDbEntity
  8
0239_詳細図（細
  6
Continuous
 62
     3
370
     9
100
AcDbLine
 10
-975.3667892734006
 20
927.6301694406101
 30
0.0
 11
-531.3667892734006
 21
927.6301694406101
 31
0.0
  0
LINE
  5
37B
330
1F
100
AcDbEntity
  8
0239_詳細図（細
  6
Continuous
 62
     3
370
     9
100
AcDbLine
 10
-975.3667892734006
 20
918.7331694406103
 30
0.0
 11
-531.3667892734006
 21
918.7331694406103
 31
0.0
  0
LINE
  5
37C
330
1F
100
AcDbEntity
  8
0239_詳細図（細
  6
Continuous
 62
     3
370
     9
100
AcDbLine
 10
-975.3667892734006
 20
910.7331694406103
 30
0.0
 11
-531.3667892734006
 21
910.7331694406103
 31
0.0
  0
LINE
  5
37D
330
1F
100
AcDbEntity
  8
0239_詳細図（細
  6
Continuous
 62
     3
370
     9
100
AcDbLine
 10
-975.3667892734006
 20
901.8361694406104
 30
0.0
 11
-531.3667892734006
 21
901.8361694406104
 31
0.0
  0
LINE
  5
37E
330
1F
100
AcDbEntity
  8
0239_詳細図（細
  6
Continuous
 62
     3
370
     9
100
AcDbLine
 10
-975.3667892734006
 20
893.8361694406103
 30
0.0
 11
-531.3667892734006
 21
893.8361694406103
 31
0.0
  0
LINE
  5
37F
330
1F
100
AcDbEntity
  8
0239_詳細図（細
  6
Continuous
 62
     3
370
     9
100
AcDbLine
 10
-975.3667892734006
 20
884.9391694406106
 30
0.0
 11
-531.3667892734006
 21
884.9391694406106
 31
0.0
  0
LINE
  5
380
330
1F
100
AcDbEntity
  8
0239_詳細図（細
  6
Continuous
 62
     3
370
     9
100
AcDbLine
 10
-975.3667892734006
 20
876.9391694406104
 30
0.0
 11
-531.3667892734006
 21
876.9391694406104
 31
0.0
  0
LINE
  5
381
330
1F
100
AcDbEntity
  8
0239_詳細図（細
  6
Continuous
 62
     3
370
     9
100
AcDbLine
 10
-975.3667892734006
 20
868.0421694406107
 30
0.0
 11
-531.3667892734006
 21
868.0421694406107
 31
0.0
  0
LINE
  5
382
330
1F
100
AcDbEntity
  8
0239_詳細図（細
  6
Continuous
 62
     3
370
     9
100
AcDbLine
 10
-975.3667892734006
 20
860.0421694406106
 30
0.0
 11
-531.3667892734006
 21
860.0421694406106
 31
0.0
  0
LINE
  5
383
330
1F
100
AcDbEntity
  8
0239_詳細図（細
  6
Continuous
 62
     3
370
     9
100
AcDbLine
 10
-975.3667892734006
 20
851.1451694406107
 30
0.0
 11
-531.3667892734006
 21
851.1451694406107
 31
0.0
  0
LINE
  5
384
330
1F
100
AcDbEntity
  8
0239_詳細図（細
  6
Continuous
 62
     3
370
     9
100
AcDbLine
 10
-975.3667892734006
 20
843.1451694406107
 30
0.0
 11
-531.3667892734006
 21
843.1451694406107
 31
0.0
  0
LINE
  5
385
330
1F
100
AcDbEntity
  8
0239_詳細図（細
  6
Continuous
 62
     3
370
     9
100
AcDbLine
 10
-975.3667892734006
 20
834.2481694406109
 30
0.0
 11
-531.3667892734006
 21
834.2481694406109
 31
0.0
  0
LINE
  5
386
330
1F
100
AcDbEntity
  8
0239_詳細図（細
  6
Continuous
 62
     3
370
     9
100
AcDbLine
 10
-975.3667892734006
 20
826.2481694406108
 30
0.0
 11
-531.3667892734006
 21
826.2481694406108
 31
0.0
  0
LINE
  5
387
330
1F
100
AcDbEntity
  8
0239_詳細図（細
  6
Continuous
 62
     3
370
     9
100
AcDbLine
 10
-975.3667892734006
 20
817.3511694406111
 30
0.0
 11
-531.3667892734006
 21
817.3511694406111
 31
0.0
  0
LINE
  5
388
330
1F
100
AcDbEntity
  8
0239_詳細図（細
  6
Continuous
 62
     3
370
     9
100
AcDbLine
 10
-975.3667892734006
 20
809.3511694406109
 30
0.0
 11
-531.3667892734006
 21
809.3511694406109
 31
0.0
  0
LINE
  5
389
330
1F
100
AcDbEntity
  8
0239_詳細図（細
  6
Continuous
 62
     3
370
     9
100
AcDbLine
 10
-975.3667892734006
 20
800.4541694406112
 30
0.0
 11
-531.3667892734006
 21
800.4541694406112
 31
0.0
  0
LINE
  5
38A
330
1F
100
AcDbEntity
  8
0239_詳細図（細
  6
Continuous
 62
     3
370
     9
100
AcDbLine
 10
-975.3667892734006
 20
792.454169440611
 30
0.0
 11
-531.3667892734006
 21
792.454169440611
 31
0.0
  0
LINE
  5
38B
330
1F
100
AcDbEntity
  8
0239_詳細図（細
  6
Continuous
 62
     3
370
     9
100
AcDbLine
 10
-975.3667892734006
 20
783.5571694406112
 30
0.0
 11
-531.3667892734006
 21
783.5571694406112
 31
0.0
  0
LINE
  5
38C
330
1F
100
AcDbEntity
  8
0239_詳細図（細
  6
Continuous
 62
     3
370
     9
100
AcDbLine
 10
-975.3667892734006
 20
775.5571694406112
 30
0.0
 11
-531.3667892734006
 21
775.5571694406112
 31
0.0
  0
LINE
  5
38D
330
1F
100
AcDbEntity
  8
0239_詳細図（細
  6
Continuous
 62
     3
370
     9
100
AcDbLine
 10
-975.3667892734006
 20
766.6601694406114
 30
0.0
 11
-531.3667892734006
 21
766.6601694406114
 31
0.0
  0
LINE
  5
38E
330
1F
100
AcDbEntity
  8
0239_詳細図（細
  6
Continuous
 62
     3
370
     9
100
AcDbLine
 10
-975.3667892734006
 20
758.6601694406113
 30
0.0
 11
-531.3667892734006
 21
758.6601694406113
 31
0.0
  0
LINE
  5
38F
330
1F
100
AcDbEntity
  8
0239_詳細図（細
  6
Continuous
 62
     3
370
     9
100
AcDbLine
 10
-977.3667892734006
 20
952.5271694406101
 30
0.0
 11
-527.3667892734006
 21
952.5271694406101
 31
0.0
  0
LINE
  5
390
330
1F
100
AcDbEntity
  8
0192_区画線（防
  6
Continuous
 62
     3
370
     9
100
AcDbLine
 10
-977.3667892734006
 20
505.2051694406131
 30
0.0
 11
-977.3667892734006
 21
952.5271694406101
 31
0.0
  0
LINE
  5
391
330
1F
100
AcDbEntity
  8
0239_詳細図（細
  6
Continuous
 62
     3
370
     9
100
AcDbLine
 10
-975.3667892734006
 20
952.5271694406101
 30
0.0
 11
-975.3667892734006
 21
505.2051694406131
 31
0.0
  0
LINE
  5
392
330
1F
100
AcDbEntity
  8
0193_区画線（異
  6
Continuous
 62
     7
370
     9
100
AcDbLine
 10
-977.3667892734006
 20
1079.866138923034
 30
0.0
 11
-952.3667892734006
 21
1079.866138923034
 31
0.0
  0
LWPOLYLINE
  5
393
330
1F
100
AcDbEntity
  8
0193_区画線（異
  6
Continuous
 62
     7
370
     9
100
AcDbPolyline
 90
        4
 70
     1
 43
1.0
 10
-976.8667892734006
 20
1079.866138923034
 42
0.4142135623731
 10
-977.3667892734006
 20
1080.366138923034
 42
0.4142135623731
 10
-977.8667892734006
 20
1079.866138923034
 42
0.4142135623731
 10
-977.3667892734006
 20
1079.366138923034
 42
0.4142135623731
  0
LWPOLYLINE
  5
394
330
1F
100
AcDbEntity
  8
0193_区画線（異
  6
Continuous
 62
     7
370
     9
100
AcDbPolyline
 90
        4
 70
     1
 43
1.0
 10
-951.8667892734006
 20
1079.866138923034
 42
0.4142135623731
 10
-952.3667892734006
 20
1080.366138923034
 42
0.4142135623731
 10
-952.8667892734006
 20
1079.866138923034
 42
0.4142135623731
 10
-952.3667892734006
 20
1079.366138923034
 42
0.4142135623731
  0
LINE
  5
395
330
1F
100
AcDbEntity
  8
0193_区画線（異
  6
Continuous
 62
     7
370
     9
100
AcDbLine
 10
-952.3667892734006
 20
1079.866138923034
 30
0.0
 11
-552.3667892734006
 21
1079.866138923034
 31
0.0
  0
LWPOLYLINE
  5
396
330
1F
100
AcDbEntity
  8
0193_区画線（異
  6
Continuous
 62
     7
370
     9
100
AcDbPolyline
 90
        4
 70
     1
 43
1.0
 10
-551.8667892734006
 20
1079.866138923034
 42
0.4142135623731
 10
-552.3667892734006
 20
1080.366138923034
 42
0.4142135623731
 10
-552.8667892734006
 20
1079.866138923034
 42
0.4142135623731
 10
-552.3667892734006
 20
1079.366138923034
 42
0.4142135623731
  0
TEXT
  5
397
330
1F
100
AcDbEntity
  8
0193_区画線（異
  6
Continuous
 62
     2
370
   211
100
AcDbText
 10
-784.8667892734006
 20
1095.506138923034
 30
0.0
 40
30.48
  1
400
 41
1.083333333333333
  7
ＭＳ ゴシック
100
AcDbText
  0
LINE
  5
398
330
1F
100
AcDbEntity
  8
0193_区画線（異
  6
Continuous
 62
     7
370
     9
100
AcDbLine
 10
-552.3667892734006
 20
1079.866138923034
 30
0.0
 11
-527.3667892734006
 21
1079.866138923034
 31
0.0
  0
LWPOLYLINE
  5
399
330
1F
100
AcDbEntity
  8
0193_区画線（異
  6
Continuous
 62
     7
370
     9
100
AcDbPolyline
 90
        4
 70
     1
 43
1.0
 10
-526.8667892734006
 20
1079.866138923034
 42
0.4142135623731
 10
-527.3667892734006
 20
1080.366138923034
 42
0.4142135623731
 10
-527.8667892734006
 20
1079.866138923034
 42
0.4142135623731
 10
-527.3667892734006
 20
1079.366138923034
 42
0.4142135623731
  0
LINE
  5
39A
330
1F
100
AcDbEntity
  8
0193_区画線（異
  6
Continuous
 62
     7
370
     9
100
AcDbLine
 10
-977.3667892734006
 20
1082.866138923034
 30
0.0
 11
-977.3667892734006
 21
979.8661389230335
 31
0.0
  0
LINE
  5
39B
330
1F
100
AcDbEntity
  8
0193_区画線（異
  6
Continuous
 62
     7
370
     9
100
AcDbLine
 10
-952.3667892734006
 20
1082.866138923034
 30
0.0
 11
-952.3667892734006
 21
979.8661389230335
 31
0.0
  0
LINE
  5
39C
330
1F
100
AcDbEntity
  8
0193_区画線（異
  6
Continuous
 62
     7
370
     9
100
AcDbLine
 10
-552.3667892734006
 20
1082.866138923034
 30
0.0
 11
-552.3667892734006
 21
979.8661389230335
 31
0.0
  0
LINE
  5
39D
330
1F
100
AcDbEntity
  8
0193_区画線（異
  6
Continuous
 62
     7
370
     9
100
AcDbLine
 10
-527.3667892734006
 20
1082.866138923034
 30
0.0
 11
-527.3667892734006
 21
979.8661389230335
 31
0.0
  0
LINE
  5
39E
330
1F
100
AcDbEntity
  8
0193_区画線（異
  6
Continuous
 62
     7
370
     9
100
AcDbLine
 10
-983.3667892734006
 20
1149.866138923034
 30
0.0
 11
-978.3667892734006
 21
1149.866138923034
 31
0.0
  0
LWPOLYLINE
  5
39F
330
1F
100
AcDbEntity
  8
0193_区画線（異
  6
Continuous
 62
     7
370
     9
100
AcDbPolyline
 90
        4
 70
     1
 43
1.0
 10
-982.8667892734006
 20
1149.866138923034
 42
0.4142135623731
 10
-983.3667892734006
 20
1150.366138923034
 42
0.4142135623731
 10
-983.8667892734006
 20
1149.866138923034
 42
0.4142135623731
 10
-983.3667892734006
 20
1149.366138923034
 42
0.4142135623731
  0
LWPOLYLINE
  5
3A0
330
1F
100
AcDbEntity
  8
0193_区画線（異
  6
Continuous
 62
     7
370
     9
100
AcDbPolyline
 90
        4
 70
     1
 43
1.0
 10
-977.8667892734006
 20
1149.866138923034
 42
0.4142135623731
 10
-978.3667892734006
 20
1150.366138923034
 42
0.4142135623731
 10
-978.8667892734006
 20
1149.866138923034
 42
0.4142135623731
 10
-978.3667892734006
 20
1149.366138923034
 42
0.4142135623731
  0
LINE
  5
3A1
330
1F
100
AcDbEntity
  8
0193_区画線（異
  6
Continuous
 62
     7
370
     9
100
AcDbLine
 10
-978.3667892734006
 20
1149.866138923034
 30
0.0
 11
-977.3667892734006
 21
1149.866138923034
 31
0.0
  0
LWPOLYLINE
  5
3A2
330
1F
100
AcDbEntity
  8
0193_区画線（異
  6
Continuous
 62
     7
370
     9
100
AcDbPolyline
 90
        4
 70
     1
 43
1.0
 10
-976.8667892734006
 20
1149.866138923034
 42
0.4142135623731
 10
-977.3667892734006
 20
1150.366138923034
 42
0.4142135623731
 10
-977.8667892734006
 20
1149.866138923034
 42
0.4142135623731
 10
-977.3667892734006
 20
1149.366138923034
 42
0.4142135623731
  0
LWPOLYLINE
  5
3A3
330
1F
100
AcDbEntity
  8
0193_区画線（異
  6
Continuous
 62
     7
370
     9
100
AcDbPolyline
 90
        4
 70
     1
 43
1.0
 10
-526.8667892734006
 20
1149.866138923034
 42
0.4142135623731
 10
-527.3667892734006
 20
1150.366138923034
 42
0.4142135623731
 10
-527.8667892734006
 20
1149.866138923034
 42
0.4142135623731
 10
-527.3667892734006
 20
1149.366138923034
 42
0.4142135623731
  0
TEXT
  5
3A4
330
1F
100
AcDbEntity
  8
0193_区画線（異
  6
Continuous
 62
     2
370
   211
100
AcDbText
 10
-784.8667892734006
 20
1165.506138923034
 30
0.0
 40
30.48
  1
450
 41
1.083333333333333
  7
ＭＳ ゴシック
100
AcDbText
  0
LINE
  5
3A5
330
1F
100
AcDbEntity
  8
0193_区画線（異
  6
Continuous
 62
     7
370
     9
100
AcDbLine
 10
-527.3667892734006
 20
1149.866138923034
 30
0.0
 11
-526.3667892734007
 21
1149.866138923034
 31
0.0
  0
LWPOLYLINE
  5
3A6
330
1F
100
AcDbEntity
  8
0193_区画線（異
  6
Continuous
 62
     7
370
     9
100
AcDbPolyline
 90
        4
 70
     1
 43
1.0
 10
-525.8667892734007
 20
1149.866138923034
 42
0.4142135623731
 10
-526.3667892734007
 20
1150.366138923034
 42
0.4142135623731
 10
-526.8667892734006
 20
1149.866138923034
 42
0.4142135623731
 10
-526.3667892734007
 20
1149.366138923034
 42
0.4142135623731
  0
LINE
  5
3A7
330
1F
100
AcDbEntity
  8
0193_区画線（異
  6
Continuous
 62
     7
370
     9
100
AcDbLine
 10
-526.3667892734007
 20
1149.866138923034
 30
0.0
 11
-521.3667892734007
 21
1149.866138923034
 31
0.0
  0
LWPOLYLINE
  5
3A8
330
1F
100
AcDbEntity
  8
0193_区画線（異
  6
Continuous
 62
     7
370
     9
100
AcDbPolyline
 90
        4
 70
     1
 43
1.0
 10
-520.8667892734007
 20
1149.866138923034
 42
0.4142135623731
 10
-521.3667892734007
 20
1150.366138923034
 42
0.4142135623731
 10
-521.8667892734006
 20
1149.866138923034
 42
0.4142135623731
 10
-521.3667892734007
 20
1149.366138923034
 42
0.4142135623731
  0
LINE
  5
3A9
330
1F
100
AcDbEntity
  8
0193_区画線（異
  6
Continuous
 62
     7
370
     9
100
AcDbLine
 10
-983.3667892734006
 20
1152.866138923033
 30
0.0
 11
-983.3667892734006
 21
979.8661389230335
 31
0.0
  0
LINE
  5
3AA
330
1F
100
AcDbEntity
  8
0193_区画線（異
  6
Continuous
 62
     7
370
     9
100
AcDbLine
 10
-978.3667892734006
 20
1152.866138923033
 30
0.0
 11
-978.3667892734006
 21
979.8661389230335
 31
0.0
  0
LINE
  5
3AB
330
1F
100
AcDbEntity
  8
0193_区画線（異
  6
Continuous
 62
     7
370
     9
100
AcDbLine
 10
-977.3667892734006
 20
1152.866138923033
 30
0.0
 11
-977.3667892734006
 21
979.8661389230335
 31
0.0
  0
LINE
  5
3AC
330
1F
100
AcDbEntity
  8
0193_区画線（異
  6
Continuous
 62
     7
370
     9
100
AcDbLine
 10
-527.3667892734006
 20
1152.866138923033
 30
0.0
 11
-527.3667892734006
 21
979.8661389230335
 31
0.0
  0
LINE
  5
3AD
330
1F
100
AcDbEntity
  8
0193_区画線（異
  6
Continuous
 62
     7
370
     9
100
AcDbLine
 10
-526.3667892734007
 20
1152.866138923033
 30
0.0
 11
-526.3667892734007
 21
979.8661389230335
 31
0.0
  0
LINE
  5
3AE
330
1F
100
AcDbEntity
  8
0193_区画線（異
  6
Continuous
 62
     7
370
     9
100
AcDbLine
 10
-521.3667892734007
 20
1152.866138923033
 30
0.0
 11
-521.3667892734007
 21
979.8661389230335
 31
0.0
  0
LINE
  5
3AF
330
1F
100
AcDbEntity
  8
0193_区画線（異
  6
Continuous
 62
     7
370
     9
100
AcDbLine
 10
-983.3667892734006
 20
1219.866138923034
 30
0.0
 11
-521.3667892734007
 21
1219.866138923034
 31
0.0
  0
LWPOLYLINE
  5
3B0
330
1F
100
AcDbEntity
  8
0193_区画線（異
  6
Continuous
 62
     7
370
     9
100
AcDbPolyline
 90
        4
 70
     1
 43
1.0
 10
-982.8667892734006
 20
1219.866138923034
 42
0.4142135623731
 10
-983.3667892734006
 20
1220.366138923034
 42
0.4142135623731
 10
-983.8667892734006
 20
1219.866138923034
 42
0.4142135623731
 10
-983.3667892734006
 20
1219.366138923034
 42
0.4142135623731
  0
LWPOLYLINE
  5
3B1
330
1F
100
AcDbEntity
  8
0193_区画線（異
  6
Continuous
 62
     7
370
     9
100
AcDbPolyline
 90
        4
 70
     1
 43
1.0
 10
-520.8667892734007
 20
1219.866138923034
 42
0.4142135623731
 10
-521.3667892734007
 20
1220.366138923034
 42
0.4142135623731
 10
-521.8667892734006
 20
1219.866138923034
 42
0.4142135623731
 10
-521.3667892734007
 20
1219.366138923034
 42
0.4142135623731
  0
TEXT
  5
3B2
330
1F
100
AcDbEntity
  8
0193_区画線（異
  6
Continuous
 62
     2
370
   211
100
AcDbText
 10
-784.8667892734006
 20
1235.506138923034
 30
0.0
 40
30.48
  1
462
 41
1.083333333333333
  7
ＭＳ ゴシック
100
AcDbText
  0
LINE
  5
3B3
330
1F
100
AcDbEntity
  8
0193_区画線（異
  6
Continuous
 62
     7
370
     9
100
AcDbLine
 10
-983.3667892734006
 20
1222.866138923034
 30
0.0
 11
-983.3667892734006
 21
979.8661389230335
 31
0.0
  0
LINE
  5
3B4
330
1F
100
AcDbEntity
  8
0193_区画線（異
  6
Continuous
 62
     7
370
     9
100
AcDbLine
 10
-521.3667892734007
 20
1222.866138923034
 30
0.0
 11
-521.3667892734007
 21
979.8661389230335
 31
0.0
  0
LINE
  5
3B5
330
1F
100
AcDbEntity
  8
0193_区画線（異
  6
Continuous
 62
     7
370
     9
100
AcDbLine
 10
-1103.366789273401
 20
503.8661694406116
 30
0.0
 11
-1103.366789273401
 21
528.8659710763538
 31
0.0
  0
LWPOLYLINE
  5
3B6
330
1F
100
AcDbEntity
  8
0193_区画線（異
  6
Continuous
 62
     7
370
     9
100
AcDbPolyline
 90
        4
 70
     1
 43
1.0
 10
-1102.866789273401
 20
503.8661694406116
 42
0.4142135623731
 10
-1103.366789273401
 20
504.3661694406115
 42
0.4142135623731
 10
-1103.866789273401
 20
503.8661694406116
 42
0.4142135623731
 10
-1103.366789273401
 20
503.3661694406117
 42
0.4142135623731
  0
LWPOLYLINE
  5
3B7
330
1F
100
AcDbEntity
  8
0193_区画線（異
  6
Continuous
 62
     7
370
     9
100
AcDbPolyline
 90
        4
 70
     1
 43
1.0
 10
-1102.866789273401
 20
528.8659710763538
 42
0.4142135623731
 10
-1103.366789273401
 20
529.3659710763538
 42
0.4142135623731
 10
-1103.866789273401
 20
528.8659710763538
 42
0.4142135623731
 10
-1103.366789273401
 20
528.3659710763538
 42
0.4142135623731
  0
LINE
  5
3B8
330
1F
100
AcDbEntity
  8
0193_区画線（異
  6
Continuous
 62
     7
370
     9
100
AcDbLine
 10
-1103.366789273401
 20
528.8659710763538
 30
0.0
 11
-1103.366789273401
 21
928.8659252999867
 31
0.0
  0
LWPOLYLINE
  5
3B9
330
1F
100
AcDbEntity
  8
0193_区画線（異
  6
Continuous
 62
     7
370
     9
100
AcDbPolyline
 90
        4
 70
     1
 43
1.0
 10
-1102.866789273401
 20
928.8659252999867
 42
0.4142135623731
 10
-1103.366789273401
 20
929.3659252999867
 42
0.4142135623731
 10
-1103.866789273401
 20
928.8659252999867
 42
0.4142135623731
 10
-1103.366789273401
 20
928.3659252999867
 42
0.4142135623731
  0
TEXT
  5
3BA
330
1F
100
AcDbEntity
  8
0193_区画線（異
  6
Continuous
 62
     2
370
   211
100
AcDbText
 10
-1119.006789273401
 20
696.3659481881701
 30
0.0
 40
30.48
  1
400
 50
90.0
 41
1.083333333333333
  7
ＭＳ ゴシック
100
AcDbText
  0
LINE
  5
3BB
330
1F
100
AcDbEntity
  8
0193_区画線（異
  6
Continuous
 62
     7
370
     9
100
AcDbLine
 10
-1103.366789273401
 20
928.8659252999867
 30
0.0
 11
-1103.366789273401
 21
953.8661694406117
 31
0.0
  0
LWPOLYLINE
  5
3BC
330
1F
100
AcDbEntity
  8
0193_区画線（異
  6
Continuous
 62
     7
370
     9
100
AcDbPolyline
 90
        4
 70
     1
 43
1.0
 10
-1102.866789273401
 20
953.8661694406117
 42
0.4142135623731
 10
-1103.366789273401
 20
954.3661694406115
 42
0.4142135623731
 10
-1103.866789273401
 20
953.8661694406117
 42
0.4142135623731
 10
-1103.366789273401
 20
953.3661694406117
 42
0.4142135623731
  0
LINE
  5
3BD
330
1F
100
AcDbEntity
  8
0193_区画線（異
  6
Continuous
 62
     7
370
     9
100
AcDbLine
 10
-1106.366789273401
 20
503.8661694406116
 30
0.0
 11
-1003.366789273401
 21
503.8661694406116
 31
0.0
  0
LINE
  5
3BE
330
1F
100
AcDbEntity
  8
0193_区画線（異
  6
Continuous
 62
     7
370
     9
100
AcDbLine
 10
-1106.366789273401
 20
528.8659710763538
 30
0.0
 11
-1003.366789273401
 21
528.8659710763538
 31
0.0
  0
LINE
  5
3BF
330
1F
100
AcDbEntity
  8
0193_区画線（異
  6
Continuous
 62
     7
370
     9
100
AcDbLine
 10
-1106.366789273401
 20
928.8659252999867
 30
0.0
 11
-1003.366789273401
 21
928.8659252999867
 31
0.0
  0
LINE
  5
3C0
330
1F
100
AcDbEntity
  8
0193_区画線（異
  6
Continuous
 62
     7
370
     9
100
AcDbLine
 10
-1106.366789273401
 20
953.8661694406117
 30
0.0
 11
-1003.366789273401
 21
953.8661694406117
 31
0.0
  0
LINE
  5
3C1
330
1F
100
AcDbEntity
  8
0193_区画線（異
  6
Continuous
 62
     7
370
     9
100
AcDbLine
 10
-1173.366789273401
 20
497.866260993346
 30
0.0
 11
-1173.366789273401
 21
502.8662457345567
 31
0.0
  0
LWPOLYLINE
  5
3C2
330
1F
100
AcDbEntity
  8
0193_区画線（異
  6
Continuous
 62
     7
370
     9
100
AcDbPolyline
 90
        4
 70
     1
 43
1.0
 10
-1172.866789273401
 20
497.866260993346
 42
0.4142135623731
 10
-1173.366789273401
 20
498.3662609933459
 42
0.4142135623731
 10
-1173.866789273401
 20
497.866260993346
 42
0.4142135623731
 10
-1173.366789273401
 20
497.366260993346
 42
0.4142135623731
  0
LWPOLYLINE
  5
3C3
330
1F
100
AcDbEntity
  8
0193_区画線（異
  6
Continuous
 62
     7
370
     9
100
AcDbPolyline
 90
        4
 70
     1
 43
1.0
 10
-1172.866789273401
 20
502.8662457345567
 42
0.4142135623731
 10
-1173.366789273401
 20
503.3662457345566
 42
0.4142135623731
 10
-1173.866789273401
 20
502.8662457345567
 42
0.4142135623731
 10
-1173.366789273401
 20
502.3662457345567
 42
0.4142135623731
  0
LINE
  5
3C4
330
1F
100
AcDbEntity
  8
0193_区画線（異
  6
Continuous
 62
     7
370
     9
100
AcDbLine
 10
-1173.366789273401
 20
502.8662457345567
 30
0.0
 11
-1173.366789273401
 21
503.8661694406116
 31
0.0
  0
LWPOLYLINE
  5
3C5
330
1F
100
AcDbEntity
  8
0193_区画線（異
  6
Continuous
 62
     7
370
     9
100
AcDbPolyline
 90
        4
 70
     1
 43
1.0
 10
-1172.866789273401
 20
503.8661694406116
 42
0.4142135623731
 10
-1173.366789273401
 20
504.3661694406115
 42
0.4142135623731
 10
-1173.866789273401
 20
503.8661694406116
 42
0.4142135623731
 10
-1173.366789273401
 20
503.3661694406117
 42
0.4142135623731
  0
LWPOLYLINE
  5
3C6
330
1F
100
AcDbEntity
  8
0193_区画線（異
  6
Continuous
 62
     7
370
     9
100
AcDbPolyline
 90
        4
 70
     1
 43
1.0
 10
-1172.866789273401
 20
953.8661694406117
 42
0.4142135623731
 10
-1173.366789273401
 20
954.3661694406115
 42
0.4142135623731
 10
-1173.866789273401
 20
953.8661694406117
 42
0.4142135623731
 10
-1173.366789273401
 20
953.3661694406117
 42
0.4142135623731
  0
TEXT
  5
3C7
330
1F
100
AcDbEntity
  8
0193_区画線（異
  6
Continuous
 62
     2
370
   211
100
AcDbText
 10
-1189.006789273401
 20
696.3661694406117
 30
0.0
 40
30.48
  1
450
 50
90.0
 41
1.083333333333333
  7
ＭＳ ゴシック
100
AcDbText
  0
LINE
  5
3C8
330
1F
100
AcDbEntity
  8
0193_区画線（異
  6
Continuous
 62
     7
370
     9
100
AcDbLine
 10
-1173.366789273401
 20
953.8661694406117
 30
0.0
 11
-1173.366789273401
 21
954.8661694406115
 31
0.0
  0
LWPOLYLINE
  5
3C9
330
1F
100
AcDbEntity
  8
0193_区画線（異
  6
Continuous
 62
     7
370
     9
100
AcDbPolyline
 90
        4
 70
     1
 43
1.0
 10
-1172.866789273401
 20
954.8661694406115
 42
0.4142135623731
 10
-1173.366789273401
 20
955.3661694406115
 42
0.4142135623731
 10
-1173.866789273401
 20
954.8661694406115
 42
0.4142135623731
 10
-1173.366789273401
 20
954.3661694406115
 42
0.4142135623731
  0
LINE
  5
3CA
330
1F
100
AcDbEntity
  8
0193_区画線（異
  6
Continuous
 62
     7
370
     9
100
AcDbLine
 10
-1173.366789273401
 20
954.8661694406115
 30
0.0
 11
-1173.366789273401
 21
959.8661389230335
 31
0.0
  0
LWPOLYLINE
  5
3CB
330
1F
100
AcDbEntity
  8
0193_区画線（異
  6
Continuous
 62
     7
370
     9
100
AcDbPolyline
 90
        4
 70
     1
 43
1.0
 10
-1172.866789273401
 20
959.8661389230335
 42
0.4142135623731
 10
-1173.366789273401
 20
960.3661389230335
 42
0.4142135623731
 10
-1173.866789273401
 20
959.8661389230335
 42
0.4142135623731
 10
-1173.366789273401
 20
959.3661389230335
 42
0.4142135623731
  0
LINE
  5
3CC
330
1F
100
AcDbEntity
  8
0193_区画線（異
  6
Continuous
 62
     7
370
     9
100
AcDbLine
 10
-1176.366789273401
 20
497.866260993346
 30
0.0
 11
-1003.366789273401
 21
497.866260993346
 31
0.0
  0
LINE
  5
3CD
330
1F
100
AcDbEntity
  8
0193_区画線（異
  6
Continuous
 62
     7
370
     9
100
AcDbLine
 10
-1176.366789273401
 20
502.8662457345567
 30
0.0
 11
-1003.366789273401
 21
502.8662457345567
 31
0.0
  0
LINE
  5
3CE
330
1F
100
AcDbEntity
  8
0193_区画線（異
  6
Continuous
 62
     7
370
     9
100
AcDbLine
 10
-1176.366789273401
 20
503.8661694406116
 30
0.0
 11
-1003.366789273401
 21
503.8661694406116
 31
0.0
  0
LINE
  5
3CF
330
1F
100
AcDbEntity
  8
0193_区画線（異
  6
Continuous
 62
     7
370
     9
100
AcDbLine
 10
-1176.366789273401
 20
953.8661694406117
 30
0.0
 11
-1003.366789273401
 21
953.8661694406117
 31
0.0
  0
LINE
  5
3D0
330
1F
100
AcDbEntity
  8
0193_区画線（異
  6
Continuous
 62
     7
370
     9
100
AcDbLine
 10
-1176.366789273401
 20
954.8661694406115
 30
0.0
 11
-1003.366789273401
 21
954.8661694406115
 31
0.0
  0
LINE
  5
3D1
330
1F
100
AcDbEntity
  8
0193_区画線（異
  6
Continuous
 62
     7
370
     9
100
AcDbLine
 10
-1176.366789273401
 20
959.8661389230335
 30
0.0
 11
-1003.366789273401
 21
959.8661389230335
 31
0.0
  0
LINE
  5
3D2
330
1F
100
AcDbEntity
  8
0193_区画線（異
  6
Continuous
 62
     7
370
     9
100
AcDbLine
 10
-1243.366789273401
 20
497.866260993346
 30
0.0
 11
-1243.366789273401
 21
959.8661389230335
 31
0.0
  0
LWPOLYLINE
  5
3D3
330
1F
100
AcDbEntity
  8
0193_区画線（異
  6
Continuous
 62
     7
370
     9
100
AcDbPolyline
 90
        4
 70
     1
 43
1.0
 10
-1242.866789273401
 20
497.866260993346
 42
0.4142135623731
 10
-1243.366789273401
 20
498.3662609933459
 42
0.4142135623731
 10
-1243.866789273401
 20
497.866260993346
 42
0.4142135623731
 10
-1243.366789273401
 20
497.366260993346
 42
0.4142135623731
  0
LWPOLYLINE
  5
3D4
330
1F
100
AcDbEntity
  8
0193_区画線（異
  6
Continuous
 62
     7
370
     9
100
AcDbPolyline
 90
        4
 70
     1
 43
1.0
 10
-1242.866789273401
 20
959.8661389230335
 42
0.4142135623731
 10
-1243.366789273401
 20
960.3661389230335
 42
0.4142135623731
 10
-1243.866789273401
 20
959.8661389230335
 42
0.4142135623731
 10
-1243.366789273401
 20
959.3661389230335
 42
0.4142135623731
  0
TEXT
  5
3D5
330
1F
100
AcDbEntity
  8
0193_区画線（異
  6
Continuous
 62
     2
370
   211
100
AcDbText
 10
-1259.006789273401
 20
696.3661999581898
 30
0.0
 40
30.48
  1
462
 50
90.0
 41
1.083333333333333
  7
ＭＳ ゴシック
100
AcDbText
  0
LINE
  5
3D6
330
1F
100
AcDbEntity
  8
0193_区画線（異
  6
Continuous
 62
     7
370
     9
100
AcDbLine
 10
-1246.366789273401
 20
497.866260993346
 30
0.0
 11
-1003.366789273401
 21
497.866260993346
 31
0.0
  0
LINE
  5
3D7
330
1F
100
AcDbEntity
  8
0193_区画線（異
  6
Continuous
 62
     7
370
     9
100
AcDbLine
 10
-1246.366789273401
 20
959.8661389230335
 30
0.0
 11
-1003.366789273401
 21
959.8661389230335
 31
0.0
  0
LINE
  5
3D8
330
1F
100
AcDbEntity
  8
0193_区画線（異
  6
Continuous
 62
     7
370
     9
100
AcDbLine
 10
-1023.725433534069
 20
1149.866138923034
 30
0.0
 11
-481.7571795658154
 21
1149.866138923034
 31
0.0
  0
TEXT
  5
3D9
330
1F
100
AcDbEntity
  8
0193_区画線（異
  6
Continuous
 62
     2
370
   211
100
AcDbText
 10
-965.156839429761
 20
1095.506138923034
 30
0.0
 40
30.48
  1
25
 41
1.0625
  7
ＭＳ ゴシック
100
AcDbText
  0
TEXT
  5
3DA
330
1F
100
AcDbEntity
  8
0193_区画線（異
  6
Continuous
 62
     2
370
   211
100
AcDbText
 10
-585.0207850079923
 20
1095.506138923034
 30
0.0
 40
30.48
  1
25
 41
1.0625
  7
ＭＳ ゴシック
100
AcDbText
  0
TEXT
  5
3DB
330
1F
100
AcDbEntity
  8
0193_区画線（異
  6
Continuous
 62
     2
370
   211
100
AcDbText
 10
-975.7571795658155
 20
1165.506138923034
 30
0.0
 40
30.48
  1
1
 41
0.9999999999999998
  7
ＭＳ ゴシック
100
AcDbText
  0
TEXT
  5
3DC
330
1F
100
AcDbEntity
  8
0193_区画線（異
  6
Continuous
 62
     2
370
   211
100
AcDbText
 10
-1011.276453942233
 20
1165.506138923034
 30
0.0
 40
30.48
  1
5
 41
0.9999999999999998
  7
ＭＳ ゴシック
100
AcDbText
  0
TEXT
  5
3DD
330
1F
100
AcDbEntity
  8
0193_区画線（異
  6
Continuous
 62
     2
370
   211
100
AcDbText
 10
-512.4102407903051
 20
1165.506138923034
 30
0.0
 40
30.48
  1
5
 41
0.9999999999999998
  7
ＭＳ ゴシック
100
AcDbText
  0
TEXT
  5
3DE
330
1F
100
AcDbEntity
  8
0193_区画線（異
  6
Continuous
 62
     2
370
   211
100
AcDbText
 10
-552.5190843277201
 20
1165.506138923034
 30
0.0
 40
30.48
  1
1
 41
0.9999999999999998
  7
ＭＳ ゴシック
100
AcDbText
  0
TEXT
  5
3DF
330
1F
100
AcDbEntity
  8
0193_区画線（異
  6
Continuous
 62
     2
370
   211
100
AcDbText
 10
-1119.006789273401
 20
901.4470241310886
 30
0.0
 40
30.48
  1
25
 50
90.0
 41
1.0625
  7
ＭＳ ゴシック
100
AcDbText
  0
TEXT
  5
3E0
330
1F
100
AcDbEntity
  8
0193_区画線（異
  6
Continuous
 62
     2
370
   211
100
AcDbText
 10
-1119.006789273401
 20
514.7259356957145
 30
0.0
 40
30.48
  1
25
 50
90.0
 41
1.0625
  7
ＭＳ ゴシック
100
AcDbText
  0
TEXT
  5
3E1
330
1F
100
AcDbEntity
  8
0193_区画線（異
  6
Continuous
 62
     2
370
   211
100
AcDbText
 10
-1189.006789273401
 20
972.2616499814287
 30
0.0
 40
30.48
  1
5
 50
90.0
 41
0.9999999999999998
  7
ＭＳ ゴシック
100
AcDbText
  0
LINE
  5
3E2
330
1F
100
AcDbEntity
  8
0193_区画線（異
  6
Continuous
 62
     7
370
     9
100
AcDbLine
 10
-1173.366789273401
 20
462.6426023623811
 30
0.0
 11
-1173.366789273401
 21
993.0371601855104
 31
0.0
  0
TEXT
  5
3E3
330
1F
100
AcDbEntity
  8
0193_区画線（異
  6
Continuous
 62
     2
370
   211
100
AcDbText
 10
-1189.006789273401
 20
930.3568880766669
 30
0.0
 40
30.48
  1
1
 50
90.0
 41
0.9999999999999998
  7
ＭＳ ゴシック
100
AcDbText
  0
TEXT
  5
3E4
330
1F
100
AcDbEntity
  8
0193_区画線（異
  6
Continuous
 62
     2
370
   211
100
AcDbText
 10
-1189.006789273401
 20
469.0054141537643
 30
0.0
 40
30.48
  1
5
 50
90.0
 41
0.9999999999999998
  7
ＭＳ ゴシック
100
AcDbText
  0
TEXT
  5
3E5
330
1F
100
AcDbEntity
  8
0193_区画線（異
  6
Continuous
 62
     2
370
   211
100
AcDbText
 10
-1189.006789273401
 20
507.7174322943538
 30
0.0
 40
30.48
  1
1
 50
90.0
 41
0.9999999999999998
  7
ＭＳ ゴシック
100
AcDbText
  0
LINE
  5
3E6
330
1F
100
AcDbEntity
  8
0255_
  6
Continuous
 62
     7
370
     9
100
AcDbLine
 10
-464.8667587558226
 20
330.8662304757677
 30
0.0
 11
-1039.866819790979
 21
330.8662304757677
 31
0.0
  0
LINE
  5
3E7
330
1F
100
AcDbEntity
  8
0239_詳細図（細
  6
Continuous
 62
     3
370
     9
100
AcDbLine
 10
-977.3667892734006
 20
505.2051694406131
 30
0.0
 11
-527.3667892734006
 21
505.2051694406131
 31
0.0
  0
LINE
  5
3E8
330
1F
100
AcDbEntity
  8
0192_区画線（防
  6
Continuous
 62
     3
370
     9
100
AcDbLine
 10
-527.3667892734006
 20
952.5271694406101
 30
0.0
 11
-527.3667892734006
 21
505.2051694406131
 31
0.0
  0
LINE
  5
3E9
330
1F
100
AcDbEntity
  8
0239_詳細図（細
  6
Continuous
 62
     3
370
     9
100
AcDbLine
 10
-531.3667892734006
 20
952.5271694406101
 30
0.0
 11
-531.3667892734006
 21
505.2051694406131
 31
0.0
  0
LINE
  5
3EA
330
1F
100
AcDbEntity
  8
0239_詳細図（細
  6
Continuous
 62
     3
370
     9
100
AcDbLine
 10
-975.3667892734006
 20
513.2051694406132
 30
0.0
 11
-531.3667892734006
 21
513.2051694406132
 31
0.0
  0
LINE
  5
3EB
330
1F
100
AcDbEntity
  8
0239_詳細図（細
  6
Continuous
 62
     3
370
     9
100
AcDbLine
 10
-975.3667892734006
 20
749.7631694406116
 30
0.0
 11
-531.3667892734006
 21
749.7631694406116
 31
0.0
  0
LINE
  5
3EC
330
1F
100
AcDbEntity
  8
0239_詳細図（細
  6
Continuous
 62
     3
370
     9
100
AcDbLine
 10
-975.3667892734006
 20
741.7631694406114
 30
0.0
 11
-531.3667892734006
 21
741.7631694406114
 31
0.0
  0
LINE
  5
3ED
330
1F
100
AcDbEntity
  8
0239_詳細図（細
  6
Continuous
 62
     3
370
     9
100
AcDbLine
 10
-975.3667892734006
 20
732.8661694406117
 30
0.0
 11
-531.3667892734006
 21
732.8661694406117
 31
0.0
  0
LINE
  5
3EE
330
1F
100
AcDbEntity
  8
0239_詳細図（細
  6
Continuous
 62
     3
370
     9
100
AcDbLine
 10
-975.3667892734006
 20
724.8661694406115
 30
0.0
 11
-531.3667892734006
 21
724.8661694406115
 31
0.0
  0
LINE
  5
3EF
330
1F
100
AcDbEntity
  8
0239_詳細図（細
  6
Continuous
 62
     3
370
     9
100
AcDbLine
 10
-975.3667892734006
 20
715.9691694406117
 30
0.0
 11
-531.3667892734006
 21
715.9691694406117
 31
0.0
  0
LINE
  5
3F0
330
1F
100
AcDbEntity
  8
0239_詳細図（細
  6
Continuous
 62
     3
370
     9
100
AcDbLine
 10
-975.3667892734006
 20
707.9691694406117
 30
0.0
 11
-531.3667892734006
 21
707.9691694406117
 31
0.0
  0
LINE
  5
3F1
330
1F
100
AcDbEntity
  8
0239_詳細図（細
  6
Continuous
 62
     3
370
     9
100
AcDbLine
 10
-975.3667892734006
 20
699.0721694406119
 30
0.0
 11
-531.3667892734006
 21
699.0721694406119
 31
0.0
  0
LINE
  5
3F2
330
1F
100
AcDbEntity
  8
0239_詳細図（細
  6
Continuous
 62
     3
370
     9
100
AcDbLine
 10
-975.3667892734006
 20
691.0721694406118
 30
0.0
 11
-531.3667892734006
 21
691.0721694406118
 31
0.0
  0
LINE
  5
3F3
330
1F
100
AcDbEntity
  8
0239_詳細図（細
  6
Continuous
 62
     3
370
     9
100
AcDbLine
 10
-975.3667892734006
 20
682.1751694406121
 30
0.0
 11
-531.3667892734006
 21
682.1751694406121
 31
0.0
  0
LINE
  5
3F4
330
1F
100
AcDbEntity
  8
0239_詳細図（細
  6
Continuous
 62
     3
370
     9
100
AcDbLine
 10
-975.3667892734006
 20
674.1751694406119
 30
0.0
 11
-531.3667892734006
 21
674.1751694406119
 31
0.0
  0
LINE
  5
3F5
330
1F
100
AcDbEntity
  8
0239_詳細図（細
  6
Continuous
 62
     3
370
     9
100
AcDbLine
 10
-975.3667892734006
 20
665.2781694406121
 30
0.0
 11
-531.3667892734006
 21
665.2781694406121
 31
0.0
  0
LINE
  5
3F6
330
1F
100
AcDbEntity
  8
0239_詳細図（細
  6
Continuous
 62
     3
370
     9
100
AcDbLine
 10
-975.3667892734006
 20
657.278169440612
 30
0.0
 11
-531.3667892734006
 21
657.278169440612
 31
0.0
  0
LINE
  5
3F7
330
1F
100
AcDbEntity
  8
0239_詳細図（細
  6
Continuous
 62
     3
370
     9
100
AcDbLine
 10
-975.3667892734006
 20
648.3811694406122
 30
0.0
 11
-531.3667892734006
 21
648.3811694406122
 31
0.0
  0
LINE
  5
3F8
330
1F
100
AcDbEntity
  8
0239_詳細図（細
  6
Continuous
 62
     3
370
     9
100
AcDbLine
 10
-975.3667892734006
 20
640.3811694406122
 30
0.0
 11
-531.3667892734006
 21
640.3811694406122
 31
0.0
  0
LINE
  5
3F9
330
1F
100
AcDbEntity
  8
0239_詳細図（細
  6
Continuous
 62
     3
370
     9
100
AcDbLine
 10
-975.3667892734006
 20
631.4841694406124
 30
0.0
 11
-531.3667892734006
 21
631.4841694406124
 31
0.0
  0
LINE
  5
3FA
330
1F
100
AcDbEntity
  8
0239_詳細図（細
  6
Continuous
 62
     3
370
     9
100
AcDbLine
 10
-975.3667892734006
 20
623.4841694406123
 30
0.0
 11
-531.3667892734006
 21
623.4841694406123
 31
0.0
  0
LINE
  5
3FB
330
1F
100
AcDbEntity
  8
0239_詳細図（細
  6
Continuous
 62
     3
370
     9
100
AcDbLine
 10
-975.3667892734006
 20
614.5871694406126
 30
0.0
 11
-531.3667892734006
 21
614.5871694406126
 31
0.0
  0
LINE
  5
3FC
330
1F
100
AcDbEntity
  8
0239_詳細図（細
  6
Continuous
 62
     3
370
     9
100
AcDbLine
 10
-975.3667892734006
 20
606.5871694406123
 30
0.0
 11
-531.3667892734006
 21
606.5871694406123
 31
0.0
  0
LINE
  5
3FD
330
1F
100
AcDbEntity
  8
0239_詳細図（細
  6
Continuous
 62
     3
370
     9
100
AcDbLine
 10
-975.3667892734006
 20
597.6901694406126
 30
0.0
 11
-531.3667892734006
 21
597.6901694406126
 31
0.0
  0
LINE
  5
3FE
330
1F
100
AcDbEntity
  8
0239_詳細図（細
  6
Continuous
 62
     3
370
     9
100
AcDbLine
 10
-975.3667892734006
 20
589.6901694406125
 30
0.0
 11
-531.3667892734006
 21
589.6901694406125
 31
0.0
  0
LINE
  5
3FF
330
1F
100
AcDbEntity
  8
0239_詳細図（細
  6
Continuous
 62
     3
370
     9
100
AcDbLine
 10
-975.3667892734006
 20
580.7931694406127
 30
0.0
 11
-531.3667892734006
 21
580.7931694406127
 31
0.0
  0
LINE
  5
400
330
1F
100
AcDbEntity
  8
0239_詳細図（細
  6
Continuous
 62
     3
370
     9
100
AcDbLine
 10
-975.3667892734006
 20
572.7931694406127
 30
0.0
 11
-531.3667892734006
 21
572.7931694406127
 31
0.0
  0
LINE
  5
401
330
1F
100
AcDbEntity
  8
0239_詳細図（細
  6
Continuous
 62
     3
370
     9
100
AcDbLine
 10
-975.3667892734006
 20
563.8961694406129
 30
0.0
 11
-531.3667892734006
 21
563.8961694406129
 31
0.0
  0
LINE
  5
402
330
1F
100
AcDbEntity
  8
0239_詳細図（細
  6
Continuous
 62
     3
370
     9
100
AcDbLine
 10
-975.3667892734006
 20
555.8961694406128
 30
0.0
 11
-531.3667892734006
 21
555.8961694406128
 31
0.0
  0
LINE
  5
403
330
1F
100
AcDbEntity
  8
0239_詳細図（細
  6
Continuous
 62
     3
370
     9
100
AcDbLine
 10
-975.3667892734006
 20
546.9991694406131
 30
0.0
 11
-531.3667892734006
 21
546.9991694406131
 31
0.0
  0
LINE
  5
404
330
1F
100
AcDbEntity
  8
0239_詳細図（細
  6
Continuous
 62
     3
370
     9
100
AcDbLine
 10
-975.3667892734006
 20
538.9991694406128
 30
0.0
 11
-531.3667892734006
 21
538.9991694406128
 31
0.0
  0
LINE
  5
405
330
1F
100
AcDbEntity
  8
0239_詳細図（細
  6
Continuous
 62
     3
370
     9
100
AcDbLine
 10
-975.3667892734006
 20
530.1021694406131
 30
0.0
 11
-531.3667892734006
 21
530.1021694406131
 31
0.0
  0
LINE
  5
406
330
1F
100
AcDbEntity
  8
0239_詳細図（細
  6
Continuous
 62
     3
370
     9
100
AcDbLine
 10
-975.3667892734006
 20
522.102169440613
 30
0.0
 11
-531.3667892734006
 21
522.102169440613
 31
0.0
  0
TEXT
  5
407
330
1F
100
AcDbEntity
  8
0255_
  6
Continuous
 62
     2
370
     9
100
AcDbText
 10
-1007.366789273401
 20
349.0059167169178
 30
0.0
 40
30.48
  1
平面詳細図　Ｓ＝１：１０
 41
1.114583333333333
  7
ＭＳ ゴシック
100
AcDbText
  0
SOLID
  5
408
330
1F
100
AcDbEntity
  8
0255_
  6
Continuous
 62
     4
370
     9
100
AcDbTrace
 10
-791.3667892734007
 20
989.8661389230335
 30
0.0
 11
-791.3667892734007
 21
1029.866138923034
 31
0.0
 12
-795.3667892734007
 22
989.8661389230335
 32
0.0
 13
-795.3667892734007
 23
1029.866138923034
 33
0.0
  0
LINE
  5
409
330
1F
100
AcDbEntity
  8
0255_
  6
Continuous
 62
     4
370
     9
100
AcDbLine
 10
-783.7006994756887
 20
1010.847135796507
 30
0.0
 11
-734.451306792747
 21
1010.847135796507
 31
0.0
  0
LINE
  5
40A
330
1F
100
AcDbEntity
  8
0255_
  6
Continuous
 62
     4
370
     9
100
AcDbLine
 10
-783.7006994756887
 20
1010.847135796507
 30
0.0
 11
-758.9145779413435
 21
1007.583980991006
 31
0.0
  0
LINE
  5
40B
330
1F
100
AcDbEntity
  8
0255_
  6
Continuous
 62
     4
370
     9
100
AcDbLine
 10
-783.7006994756887
 20
1010.847135796507
 30
0.0
 11
-758.9145779413435
 21
1014.110290602009
 31
0.0
  0
LINE
  5
40C
330
1F
100
AcDbEntity
  8
0255_
  6
JWW_CENTER1
 62
     4
370
     9
100
AcDbLine
 10
-793.3667892734006
 20
807.1272180533084
 30
0.0
 11
-793.3667892734006
 21
989.8661389230335
 31
0.0
  0
TEXT
  5
40D
330
1F
100
AcDbEntity
  8
0255_
  6
Continuous
 62
     2
370
     9
100
AcDbText
 10
-728.7683667210598
 20
998.6419537763036
 30
0.0
 40
30.48
  1
A
 41
0.9999999999999998
  7
ＭＳ ゴシック
100
AcDbText
  0
LINE
  5
40E
330
1F
100
AcDbEntity
  8
0239_詳細図（細
  6
Continuous
 62
     3
370
     9
100
AcDbLine
 10
-677.3165367417064
 20
623.4841694406123
 30
0.0
 11
-677.3165367417064
 21
614.5871694406126
 31
0.0
  0
LINE
  5
40F
330
1F
100
AcDbEntity
  8
0239_詳細図（細
  6
Continuous
 62
     3
370
     9
100
AcDbLine
 10
-667.4170418050949
 20
623.4841694406123
 30
0.0
 11
-667.4170418050949
 21
614.5871694406126
 31
0.0
  0
LINE
  5
410
330
1F
100
AcDbEntity
  8
0239_詳細図（細
  6
Continuous
 62
     3
370
     9
100
AcDbLine
 10
-672.3667892734006
 20
623.4841694406123
 30
0.0
 11
-672.3667892734006
 21
614.5871694406126
 31
0.0
  0
LINE
  5
411
330
1F
100
AcDbEntity
  8
0239_詳細図（細
  6
Continuous
 62
     3
370
     9
100
AcDbLine
 10
-597.3165367417064
 20
707.9691694406117
 30
0.0
 11
-597.3165367417064
 21
699.0721694406119
 31
0.0
  0
LINE
  5
412
330
1F
100
AcDbEntity
  8
0239_詳細図（細
  6
Continuous
 62
     3
370
     9
100
AcDbLine
 10
-587.4170418050949
 20
707.9691694406117
 30
0.0
 11
-587.4170418050949
 21
699.0721694406119
 31
0.0
  0
LINE
  5
413
330
1F
100
AcDbEntity
  8
0239_詳細図（細
  6
Continuous
 62
     3
370
     9
100
AcDbLine
 10
-592.3667892734006
 20
707.9691694406117
 30
0.0
 11
-592.3667892734006
 21
699.0721694406119
 31
0.0
  0
LINE
  5
414
330
1F
100
AcDbEntity
  8
0239_詳細図（細
  6
Continuous
 62
     3
370
     9
100
AcDbLine
 10
-917.3165367417064
 20
944.5271694406099
 30
0.0
 11
-917.3165367417064
 21
935.6301694406102
 31
0.0
  0
LINE
  5
415
330
1F
100
AcDbEntity
  8
0239_詳細図（細
  6
Continuous
 62
     3
370
     9
100
AcDbLine
 10
-907.4170418050949
 20
944.5271694406099
 30
0.0
 11
-907.4170418050949
 21
935.6301694406102
 31
0.0
  0
LINE
  5
416
330
1F
100
AcDbEntity
  8
0239_詳細図（細
  6
Continuous
 62
     3
370
     9
100
AcDbLine
 10
-912.3667892734006
 20
944.5271694406099
 30
0.0
 11
-912.3667892734006
 21
935.6301694406102
 31
0.0
  0
LINE
  5
417
330
1F
100
AcDbEntity
  8
0239_詳細図（細
  6
Continuous
 62
     3
370
     9
100
AcDbLine
 10
-917.3165367417064
 20
927.6301694406101
 30
0.0
 11
-917.3165367417064
 21
918.7331694406103
 31
0.0
  0
LINE
  5
418
330
1F
100
AcDbEntity
  8
0239_詳細図（細
  6
Continuous
 62
     3
370
     9
100
AcDbLine
 10
-907.4170418050949
 20
927.6301694406101
 30
0.0
 11
-907.4170418050949
 21
918.7331694406103
 31
0.0
  0
LINE
  5
419
330
1F
100
AcDbEntity
  8
0239_詳細図（細
  6
Continuous
 62
     3
370
     9
100
AcDbLine
 10
-912.3667892734006
 20
927.6301694406101
 30
0.0
 11
-912.3667892734006
 21
918.7331694406103
 31
0.0
  0
LINE
  5
41A
330
1F
100
AcDbEntity
  8
0239_詳細図（細
  6
Continuous
 62
     3
370
     9
100
AcDbLine
 10
-917.3165367417064
 20
910.7331694406103
 30
0.0
 11
-917.3165367417064
 21
901.8361694406104
 31
0.0
  0
LINE
  5
41B
330
1F
100
AcDbEntity
  8
0239_詳細図（細
  6
Continuous
 62
     3
370
     9
100
AcDbLine
 10
-907.4170418050949
 20
910.7331694406103
 30
0.0
 11
-907.4170418050949
 21
901.8361694406104
 31
0.0
  0
LINE
  5
41C
330
1F
100
AcDbEntity
  8
0239_詳細図（細
  6
Continuous
 62
     3
370
     9
100
AcDbLine
 10
-912.3667892734006
 20
910.7331694406103
 30
0.0
 11
-912.3667892734006
 21
901.8361694406104
 31
0.0
  0
LINE
  5
41D
330
1F
100
AcDbEntity
  8
0239_詳細図（細
  6
Continuous
 62
     3
370
     9
100
AcDbLine
 10
-917.3165367417064
 20
893.8361694406103
 30
0.0
 11
-917.3165367417064
 21
884.9391694406106
 31
0.0
  0
LINE
  5
41E
330
1F
100
AcDbEntity
  8
0239_詳細図（細
  6
Continuous
 62
     3
370
     9
100
AcDbLine
 10
-907.4170418050949
 20
893.8361694406103
 30
0.0
 11
-907.4170418050949
 21
884.9391694406106
 31
0.0
  0
LINE
  5
41F
330
1F
100
AcDbEntity
  8
0239_詳細図（細
  6
Continuous
 62
     3
370
     9
100
AcDbLine
 10
-912.3667892734006
 20
893.8361694406103
 30
0.0
 11
-912.3667892734006
 21
884.9391694406106
 31
0.0
  0
LINE
  5
420
330
1F
100
AcDbEntity
  8
0239_詳細図（細
  6
Continuous
 62
     3
370
     9
100
AcDbLine
 10
-917.3165367417064
 20
876.9391694406104
 30
0.0
 11
-917.3165367417064
 21
868.0421694406107
 31
0.0
  0
LINE
  5
421
330
1F
100
AcDbEntity
  8
0239_詳細図（細
  6
Continuous
 62
     3
370
     9
100
AcDbLine
 10
-907.4170418050949
 20
876.9391694406104
 30
0.0
 11
-907.4170418050949
 21
868.0421694406107
 31
0.0
  0
LINE
  5
422
330
1F
100
AcDbEntity
  8
0239_詳細図（細
  6
Continuous
 62
     3
370
     9
100
AcDbLine
 10
-912.3667892734006
 20
876.9391694406104
 30
0.0
 11
-912.3667892734006
 21
868.0421694406107
 31
0.0
  0
LINE
  5
423
330
1F
100
AcDbEntity
  8
0239_詳細図（細
  6
Continuous
 62
     3
370
     9
100
AcDbLine
 10
-917.3165367417064
 20
860.0421694406106
 30
0.0
 11
-917.3165367417064
 21
851.1451694406107
 31
0.0
  0
LINE
  5
424
330
1F
100
AcDbEntity
  8
0239_詳細図（細
  6
Continuous
 62
     3
370
     9
100
AcDbLine
 10
-907.4170418050949
 20
860.0421694406106
 30
0.0
 11
-907.4170418050949
 21
851.1451694406107
 31
0.0
  0
LINE
  5
425
330
1F
100
AcDbEntity
  8
0239_詳細図（細
  6
Continuous
 62
     3
370
     9
100
AcDbLine
 10
-912.3667892734006
 20
860.0421694406106
 30
0.0
 11
-912.3667892734006
 21
851.1451694406107
 31
0.0
  0
LINE
  5
426
330
1F
100
AcDbEntity
  8
0239_詳細図（細
  6
Continuous
 62
     3
370
     9
100
AcDbLine
 10
-917.3165367417064
 20
843.1451694406107
 30
0.0
 11
-917.3165367417064
 21
834.2481694406109
 31
0.0
  0
LINE
  5
427
330
1F
100
AcDbEntity
  8
0239_詳細図（細
  6
Continuous
 62
     3
370
     9
100
AcDbLine
 10
-907.4170418050949
 20
843.1451694406107
 30
0.0
 11
-907.4170418050949
 21
834.2481694406109
 31
0.0
  0
LINE
  5
428
330
1F
100
AcDbEntity
  8
0239_詳細図（細
  6
Continuous
 62
     3
370
     9
100
AcDbLine
 10
-912.3667892734006
 20
843.1451694406107
 30
0.0
 11
-912.3667892734006
 21
834.2481694406109
 31
0.0
  0
LINE
  5
429
330
1F
100
AcDbEntity
  8
0239_詳細図（細
  6
Continuous
 62
     3
370
     9
100
AcDbLine
 10
-917.3165367417064
 20
826.2481694406108
 30
0.0
 11
-917.3165367417064
 21
817.3511694406111
 31
0.0
  0
LINE
  5
42A
330
1F
100
AcDbEntity
  8
0239_詳細図（細
  6
Continuous
 62
     3
370
     9
100
AcDbLine
 10
-907.4170418050949
 20
826.2481694406108
 30
0.0
 11
-907.4170418050949
 21
817.3511694406111
 31
0.0
  0
LINE
  5
42B
330
1F
100
AcDbEntity
  8
0239_詳細図（細
  6
Continuous
 62
     3
370
     9
100
AcDbLine
 10
-912.3667892734006
 20
826.2481694406108
 30
0.0
 11
-912.3667892734006
 21
817.3511694406111
 31
0.0
  0
LINE
  5
42C
330
1F
100
AcDbEntity
  8
0239_詳細図（細
  6
Continuous
 62
     3
370
     9
100
AcDbLine
 10
-917.3165367417064
 20
809.3511694406109
 30
0.0
 11
-917.3165367417064
 21
800.4541694406112
 31
0.0
  0
LINE
  5
42D
330
1F
100
AcDbEntity
  8
0239_詳細図（細
  6
Continuous
 62
     3
370
     9
100
AcDbLine
 10
-907.4170418050949
 20
809.3511694406109
 30
0.0
 11
-907.4170418050949
 21
800.4541694406112
 31
0.0
  0
LINE
  5
42E
330
1F
100
AcDbEntity
  8
0239_詳細図（細
  6
Continuous
 62
     3
370
     9
100
AcDbLine
 10
-912.3667892734006
 20
809.3511694406109
 30
0.0
 11
-912.3667892734006
 21
800.4541694406112
 31
0.0
  0
LINE
  5
42F
330
1F
100
AcDbEntity
  8
0239_詳細図（細
  6
Continuous
 62
     3
370
     9
100
AcDbLine
 10
-917.3165367417064
 20
792.454169440611
 30
0.0
 11
-917.3165367417064
 21
783.5571694406112
 31
0.0
  0
LINE
  5
430
330
1F
100
AcDbEntity
  8
0239_詳細図（細
  6
Continuous
 62
     3
370
     9
100
AcDbLine
 10
-907.4170418050949
 20
792.454169440611
 30
0.0
 11
-907.4170418050949
 21
783.5571694406112
 31
0.0
  0
LINE
  5
431
330
1F
100
AcDbEntity
  8
0239_詳細図（細
  6
Continuous
 62
     3
370
     9
100
AcDbLine
 10
-912.3667892734006
 20
792.454169440611
 30
0.0
 11
-912.3667892734006
 21
783.5571694406112
 31
0.0
  0
LINE
  5
432
330
1F
100
AcDbEntity
  8
0239_詳細図（細
  6
Continuous
 62
     3
370
     9
100
AcDbLine
 10
-917.3165367417064
 20
775.5571694406112
 30
0.0
 11
-917.3165367417064
 21
766.6601694406114
 31
0.0
  0
LINE
  5
433
330
1F
100
AcDbEntity
  8
0239_詳細図（細
  6
Continuous
 62
     3
370
     9
100
AcDbLine
 10
-907.4170418050949
 20
775.5571694406112
 30
0.0
 11
-907.4170418050949
 21
766.6601694406114
 31
0.0
  0
LINE
  5
434
330
1F
100
AcDbEntity
  8
0239_詳細図（細
  6
Continuous
 62
     3
370
     9
100
AcDbLine
 10
-912.3667892734006
 20
775.5571694406112
 30
0.0
 11
-912.3667892734006
 21
766.6601694406114
 31
0.0
  0
LINE
  5
435
330
1F
100
AcDbEntity
  8
0239_詳細図（細
  6
Continuous
 62
     3
370
     9
100
AcDbLine
 10
-917.3165367417064
 20
758.6601694406113
 30
0.0
 11
-917.3165367417064
 21
749.7631694406116
 31
0.0
  0
LINE
  5
436
330
1F
100
AcDbEntity
  8
0239_詳細図（細
  6
Continuous
 62
     3
370
     9
100
AcDbLine
 10
-907.4170418050949
 20
758.6601694406113
 30
0.0
 11
-907.4170418050949
 21
749.7631694406116
 31
0.0
  0
LINE
  5
437
330
1F
100
AcDbEntity
  8
0239_詳細図（細
  6
Continuous
 62
     3
370
     9
100
AcDbLine
 10
-912.3667892734006
 20
758.6601694406113
 30
0.0
 11
-912.3667892734006
 21
749.7631694406116
 31
0.0
  0
LINE
  5
438
330
1F
100
AcDbEntity
  8
0239_詳細図（細
  6
Continuous
 62
     3
370
     9
100
AcDbLine
 10
-917.3165367417064
 20
741.7631694406114
 30
0.0
 11
-917.3165367417064
 21
732.8661694406117
 31
0.0
  0
LINE
  5
439
330
1F
100
AcDbEntity
  8
0239_詳細図（細
  6
Continuous
 62
     3
370
     9
100
AcDbLine
 10
-907.4170418050949
 20
741.7631694406114
 30
0.0
 11
-907.4170418050949
 21
732.8661694406117
 31
0.0
  0
LINE
  5
43A
330
1F
100
AcDbEntity
  8
0239_詳細図（細
  6
Continuous
 62
     3
370
     9
100
AcDbLine
 10
-912.3667892734006
 20
741.7631694406114
 30
0.0
 11
-912.3667892734006
 21
732.8661694406117
 31
0.0
  0
LINE
  5
43B
330
1F
100
AcDbEntity
  8
0239_詳細図（細
  6
Continuous
 62
     3
370
     9
100
AcDbLine
 10
-917.3165367417064
 20
724.8661694406115
 30
0.0
 11
-917.3165367417064
 21
715.9691694406117
 31
0.0
  0
LINE
  5
43C
330
1F
100
AcDbEntity
  8
0239_詳細図（細
  6
Continuous
 62
     3
370
     9
100
AcDbLine
 10
-907.4170418050949
 20
724.8661694406115
 30
0.0
 11
-907.4170418050949
 21
715.9691694406117
 31
0.0
  0
LINE
  5
43D
330
1F
100
AcDbEntity
  8
0239_詳細図（細
  6
Continuous
 62
     3
370
     9
100
AcDbLine
 10
-912.3667892734006
 20
724.8661694406115
 30
0.0
 11
-912.3667892734006
 21
715.9691694406117
 31
0.0
  0
LINE
  5
43E
330
1F
100
AcDbEntity
  8
0239_詳細図（細
  6
Continuous
 62
     3
370
     9
100
AcDbLine
 10
-917.3165367417064
 20
707.9691694406117
 30
0.0
 11
-917.3165367417064
 21
699.0721694406119
 31
0.0
  0
LINE
  5
43F
330
1F
100
AcDbEntity
  8
0239_詳細図（細
  6
Continuous
 62
     3
370
     9
100
AcDbLine
 10
-907.4170418050949
 20
707.9691694406117
 30
0.0
 11
-907.4170418050949
 21
699.0721694406119
 31
0.0
  0
LINE
  5
440
330
1F
100
AcDbEntity
  8
0239_詳細図（細
  6
Continuous
 62
     3
370
     9
100
AcDbLine
 10
-912.3667892734006
 20
707.9691694406117
 30
0.0
 11
-912.3667892734006
 21
699.0721694406119
 31
0.0
  0
LINE
  5
441
330
1F
100
AcDbEntity
  8
0239_詳細図（細
  6
Continuous
 62
     3
370
     9
100
AcDbLine
 10
-917.3165367417064
 20
691.0721694406118
 30
0.0
 11
-917.3165367417064
 21
682.1751694406121
 31
0.0
  0
LINE
  5
442
330
1F
100
AcDbEntity
  8
0239_詳細図（細
  6
Continuous
 62
     3
370
     9
100
AcDbLine
 10
-907.4170418050949
 20
691.0721694406118
 30
0.0
 11
-907.4170418050949
 21
682.1751694406121
 31
0.0
  0
LINE
  5
443
330
1F
100
AcDbEntity
  8
0239_詳細図（細
  6
Continuous
 62
     3
370
     9
100
AcDbLine
 10
-912.3667892734006
 20
691.0721694406118
 30
0.0
 11
-912.3667892734006
 21
682.1751694406121
 31
0.0
  0
LINE
  5
444
330
1F
100
AcDbEntity
  8
0239_詳細図（細
  6
Continuous
 62
     3
370
     9
100
AcDbLine
 10
-917.3165367417064
 20
674.1751694406119
 30
0.0
 11
-917.3165367417064
 21
665.2781694406121
 31
0.0
  0
LINE
  5
445
330
1F
100
AcDbEntity
  8
0239_詳細図（細
  6
Continuous
 62
     3
370
     9
100
AcDbLine
 10
-907.4170418050949
 20
674.1751694406119
 30
0.0
 11
-907.4170418050949
 21
665.2781694406121
 31
0.0
  0
LINE
  5
446
330
1F
100
AcDbEntity
  8
0239_詳細図（細
  6
Continuous
 62
     3
370
     9
100
AcDbLine
 10
-912.3667892734006
 20
674.1751694406119
 30
0.0
 11
-912.3667892734006
 21
665.2781694406121
 31
0.0
  0
LINE
  5
447
330
1F
100
AcDbEntity
  8
0239_詳細図（細
  6
Continuous
 62
     3
370
     9
100
AcDbLine
 10
-917.3165367417064
 20
657.278169440612
 30
0.0
 11
-917.3165367417064
 21
648.3811694406122
 31
0.0
  0
LINE
  5
448
330
1F
100
AcDbEntity
  8
0239_詳細図（細
  6
Continuous
 62
     3
370
     9
100
AcDbLine
 10
-907.4170418050949
 20
657.278169440612
 30
0.0
 11
-907.4170418050949
 21
648.3811694406122
 31
0.0
  0
LINE
  5
449
330
1F
100
AcDbEntity
  8
0239_詳細図（細
  6
Continuous
 62
     3
370
     9
100
AcDbLine
 10
-912.3667892734006
 20
657.278169440612
 30
0.0
 11
-912.3667892734006
 21
648.3811694406122
 31
0.0
  0
LINE
  5
44A
330
1F
100
AcDbEntity
  8
0239_詳細図（細
  6
Continuous
 62
     3
370
     9
100
AcDbLine
 10
-917.3165367417064
 20
640.3811694406122
 30
0.0
 11
-917.3165367417064
 21
631.4841694406124
 31
0.0
  0
LINE
  5
44B
330
1F
100
AcDbEntity
  8
0239_詳細図（細
  6
Continuous
 62
     3
370
     9
100
AcDbLine
 10
-907.4170418050949
 20
640.3811694406122
 30
0.0
 11
-907.4170418050949
 21
631.4841694406124
 31
0.0
  0
LINE
  5
44C
330
1F
100
AcDbEntity
  8
0239_詳細図（細
  6
Continuous
 62
     3
370
     9
100
AcDbLine
 10
-912.3667892734006
 20
640.3811694406122
 30
0.0
 11
-912.3667892734006
 21
631.4841694406124
 31
0.0
  0
LINE
  5
44D
330
1F
100
AcDbEntity
  8
0239_詳細図（細
  6
Continuous
 62
     3
370
     9
100
AcDbLine
 10
-917.3165367417064
 20
623.4841694406123
 30
0.0
 11
-917.3165367417064
 21
614.5871694406126
 31
0.0
  0
LINE
  5
44E
330
1F
100
AcDbEntity
  8
0239_詳細図（細
  6
Continuous
 62
     3
370
     9
100
AcDbLine
 10
-907.4170418050949
 20
623.4841694406123
 30
0.0
 11
-907.4170418050949
 21
614.5871694406126
 31
0.0
  0
LINE
  5
44F
330
1F
100
AcDbEntity
  8
0239_詳細図（細
  6
Continuous
 62
     3
370
     9
100
AcDbLine
 10
-912.3667892734006
 20
623.4841694406123
 30
0.0
 11
-912.3667892734006
 21
614.5871694406126
 31
0.0
  0
LINE
  5
450
330
1F
100
AcDbEntity
  8
0239_詳細図（細
  6
Continuous
 62
     3
370
     9
100
AcDbLine
 10
-917.3165367417064
 20
606.5871694406123
 30
0.0
 11
-917.3165367417064
 21
597.6901694406126
 31
0.0
  0
LINE
  5
451
330
1F
100
AcDbEntity
  8
0239_詳細図（細
  6
Continuous
 62
     3
370
     9
100
AcDbLine
 10
-907.4170418050949
 20
606.5871694406123
 30
0.0
 11
-907.4170418050949
 21
597.6901694406126
 31
0.0
  0
LINE
  5
452
330
1F
100
AcDbEntity
  8
0239_詳細図（細
  6
Continuous
 62
     3
370
     9
100
AcDbLine
 10
-912.3667892734006
 20
606.5871694406123
 30
0.0
 11
-912.3667892734006
 21
597.6901694406126
 31
0.0
  0
LINE
  5
453
330
1F
100
AcDbEntity
  8
0239_詳細図（細
  6
Continuous
 62
     3
370
     9
100
AcDbLine
 10
-917.3165367417064
 20
589.6901694406125
 30
0.0
 11
-917.3165367417064
 21
580.7931694406127
 31
0.0
  0
LINE
  5
454
330
1F
100
AcDbEntity
  8
0239_詳細図（細
  6
Continuous
 62
     3
370
     9
100
AcDbLine
 10
-907.4170418050949
 20
589.6901694406125
 30
0.0
 11
-907.4170418050949
 21
580.7931694406127
 31
0.0
  0
LINE
  5
455
330
1F
100
AcDbEntity
  8
0239_詳細図（細
  6
Continuous
 62
     3
370
     9
100
AcDbLine
 10
-912.3667892734006
 20
589.6901694406125
 30
0.0
 11
-912.3667892734006
 21
580.7931694406127
 31
0.0
  0
LINE
  5
456
330
1F
100
AcDbEntity
  8
0239_詳細図（細
  6
Continuous
 62
     3
370
     9
100
AcDbLine
 10
-917.3165367417064
 20
572.7931694406127
 30
0.0
 11
-917.3165367417064
 21
563.8961694406129
 31
0.0
  0
LINE
  5
457
330
1F
100
AcDbEntity
  8
0239_詳細図（細
  6
Continuous
 62
     3
370
     9
100
AcDbLine
 10
-907.4170418050949
 20
572.7931694406127
 30
0.0
 11
-907.4170418050949
 21
563.8961694406129
 31
0.0
  0
LINE
  5
458
330
1F
100
AcDbEntity
  8
0239_詳細図（細
  6
Continuous
 62
     3
370
     9
100
AcDbLine
 10
-912.3667892734006
 20
572.7931694406127
 30
0.0
 11
-912.3667892734006
 21
563.8961694406129
 31
0.0
  0
LINE
  5
459
330
1F
100
AcDbEntity
  8
0239_詳細図（細
  6
Continuous
 62
     3
370
     9
100
AcDbLine
 10
-917.3165367417064
 20
555.8961694406128
 30
0.0
 11
-917.3165367417064
 21
546.9991694406131
 31
0.0
  0
LINE
  5
45A
330
1F
100
AcDbEntity
  8
0239_詳細図（細
  6
Continuous
 62
     3
370
     9
100
AcDbLine
 10
-907.4170418050949
 20
555.8961694406128
 30
0.0
 11
-907.4170418050949
 21
546.9991694406131
 31
0.0
  0
LINE
  5
45B
330
1F
100
AcDbEntity
  8
0239_詳細図（細
  6
Continuous
 62
     3
370
     9
100
AcDbLine
 10
-912.3667892734006
 20
555.8961694406128
 30
0.0
 11
-912.3667892734006
 21
546.9991694406131
 31
0.0
  0
LINE
  5
45C
330
1F
100
AcDbEntity
  8
0239_詳細図（細
  6
Continuous
 62
     3
370
     9
100
AcDbLine
 10
-917.3165367417064
 20
538.9991694406128
 30
0.0
 11
-917.3165367417064
 21
530.1021694406131
 31
0.0
  0
LINE
  5
45D
330
1F
100
AcDbEntity
  8
0239_詳細図（細
  6
Continuous
 62
     3
370
     9
100
AcDbLine
 10
-907.4170418050949
 20
538.9991694406128
 30
0.0
 11
-907.4170418050949
 21
530.1021694406131
 31
0.0
  0
LINE
  5
45E
330
1F
100
AcDbEntity
  8
0239_詳細図（細
  6
Continuous
 62
     3
370
     9
100
AcDbLine
 10
-912.3667892734006
 20
538.9991694406128
 30
0.0
 11
-912.3667892734006
 21
530.1021694406131
 31
0.0
  0
LINE
  5
45F
330
1F
100
AcDbEntity
  8
0239_詳細図（細
  6
Continuous
 62
     3
370
     9
100
AcDbLine
 10
-917.3165367417064
 20
522.102169440613
 30
0.0
 11
-917.3165367417064
 21
513.2051694406132
 31
0.0
  0
LINE
  5
460
330
1F
100
AcDbEntity
  8
0239_詳細図（細
  6
Continuous
 62
     3
370
     9
100
AcDbLine
 10
-907.4170418050949
 20
522.102169440613
 30
0.0
 11
-907.4170418050949
 21
513.2051694406132
 31
0.0
  0
LINE
  5
461
330
1F
100
AcDbEntity
  8
0239_詳細図（細
  6
Continuous
 62
     3
370
     9
100
AcDbLine
 10
-912.3667892734006
 20
522.102169440613
 30
0.0
 11
-912.3667892734006
 21
513.2051694406132
 31
0.0
  0
LINE
  5
462
330
1F
100
AcDbEntity
  8
0239_詳細図（細
  6
Continuous
 62
     3
370
     9
100
AcDbLine
 10
-837.3165367417064
 20
944.5271694406099
 30
0.0
 11
-837.3165367417064
 21
935.6301694406102
 31
0.0
  0
LINE
  5
463
330
1F
100
AcDbEntity
  8
0239_詳細図（細
  6
Continuous
 62
     3
370
     9
100
AcDbLine
 10
-827.4170418050949
 20
944.5271694406099
 30
0.0
 11
-827.4170418050949
 21
935.6301694406102
 31
0.0
  0
LINE
  5
464
330
1F
100
AcDbEntity
  8
0239_詳細図（細
  6
Continuous
 62
     3
370
     9
100
AcDbLine
 10
-832.3667892734006
 20
944.5271694406099
 30
0.0
 11
-832.3667892734006
 21
935.6301694406102
 31
0.0
  0
LINE
  5
465
330
1F
100
AcDbEntity
  8
0239_詳細図（細
  6
Continuous
 62
     3
370
     9
100
AcDbLine
 10
-837.3165367417064
 20
927.6301694406101
 30
0.0
 11
-837.3165367417064
 21
918.7331694406103
 31
0.0
  0
LINE
  5
466
330
1F
100
AcDbEntity
  8
0239_詳細図（細
  6
Continuous
 62
     3
370
     9
100
AcDbLine
 10
-827.4170418050949
 20
927.6301694406101
 30
0.0
 11
-827.4170418050949
 21
918.7331694406103
 31
0.0
  0
LINE
  5
467
330
1F
100
AcDbEntity
  8
0239_詳細図（細
  6
Continuous
 62
     3
370
     9
100
AcDbLine
 10
-832.3667892734006
 20
927.6301694406101
 30
0.0
 11
-832.3667892734006
 21
918.7331694406103
 31
0.0
  0
LINE
  5
468
330
1F
100
AcDbEntity
  8
0239_詳細図（細
  6
Continuous
 62
     3
370
     9
100
AcDbLine
 10
-837.3165367417064
 20
910.7331694406103
 30
0.0
 11
-837.3165367417064
 21
901.8361694406104
 31
0.0
  0
LINE
  5
469
330
1F
100
AcDbEntity
  8
0239_詳細図（細
  6
Continuous
 62
     3
370
     9
100
AcDbLine
 10
-827.4170418050949
 20
910.7331694406103
 30
0.0
 11
-827.4170418050949
 21
901.8361694406104
 31
0.0
  0
LINE
  5
46A
330
1F
100
AcDbEntity
  8
0239_詳細図（細
  6
Continuous
 62
     3
370
     9
100
AcDbLine
 10
-832.3667892734006
 20
910.7331694406103
 30
0.0
 11
-832.3667892734006
 21
901.8361694406104
 31
0.0
  0
LINE
  5
46B
330
1F
100
AcDbEntity
  8
0239_詳細図（細
  6
Continuous
 62
     3
370
     9
100
AcDbLine
 10
-837.3165367417064
 20
893.8361694406103
 30
0.0
 11
-837.3165367417064
 21
884.9391694406106
 31
0.0
  0
LINE
  5
46C
330
1F
100
AcDbEntity
  8
0239_詳細図（細
  6
Continuous
 62
     3
370
     9
100
AcDbLine
 10
-827.4170418050949
 20
893.8361694406103
 30
0.0
 11
-827.4170418050949
 21
884.9391694406106
 31
0.0
  0
LINE
  5
46D
330
1F
100
AcDbEntity
  8
0239_詳細図（細
  6
Continuous
 62
     3
370
     9
100
AcDbLine
 10
-832.3667892734006
 20
893.8361694406103
 30
0.0
 11
-832.3667892734006
 21
884.9391694406106
 31
0.0
  0
LINE
  5
46E
330
1F
100
AcDbEntity
  8
0239_詳細図（細
  6
Continuous
 62
     3
370
     9
100
AcDbLine
 10
-837.3165367417064
 20
876.9391694406104
 30
0.0
 11
-837.3165367417064
 21
868.0421694406107
 31
0.0
  0
LINE
  5
46F
330
1F
100
AcDbEntity
  8
0239_詳細図（細
  6
Continuous
 62
     3
370
     9
100
AcDbLine
 10
-827.4170418050949
 20
876.9391694406104
 30
0.0
 11
-827.4170418050949
 21
868.0421694406107
 31
0.0
  0
LINE
  5
470
330
1F
100
AcDbEntity
  8
0239_詳細図（細
  6
Continuous
 62
     3
370
     9
100
AcDbLine
 10
-832.3667892734006
 20
876.9391694406104
 30
0.0
 11
-832.3667892734006
 21
868.0421694406107
 31
0.0
  0
LINE
  5
471
330
1F
100
AcDbEntity
  8
0239_詳細図（細
  6
Continuous
 62
     3
370
     9
100
AcDbLine
 10
-837.3165367417064
 20
860.0421694406106
 30
0.0
 11
-837.3165367417064
 21
851.1451694406107
 31
0.0
  0
LINE
  5
472
330
1F
100
AcDbEntity
  8
0239_詳細図（細
  6
Continuous
 62
     3
370
     9
100
AcDbLine
 10
-827.4170418050949
 20
860.0421694406106
 30
0.0
 11
-827.4170418050949
 21
851.1451694406107
 31
0.0
  0
LINE
  5
473
330
1F
100
AcDbEntity
  8
0239_詳細図（細
  6
Continuous
 62
     3
370
     9
100
AcDbLine
 10
-832.3667892734006
 20
860.0421694406106
 30
0.0
 11
-832.3667892734006
 21
851.1451694406107
 31
0.0
  0
LINE
  5
474
330
1F
100
AcDbEntity
  8
0239_詳細図（細
  6
Continuous
 62
     3
370
     9
100
AcDbLine
 10
-837.3165367417064
 20
843.1451694406107
 30
0.0
 11
-837.3165367417064
 21
834.2481694406109
 31
0.0
  0
LINE
  5
475
330
1F
100
AcDbEntity
  8
0239_詳細図（細
  6
Continuous
 62
     3
370
     9
100
AcDbLine
 10
-827.4170418050949
 20
843.1451694406107
 30
0.0
 11
-827.4170418050949
 21
834.2481694406109
 31
0.0
  0
LINE
  5
476
330
1F
100
AcDbEntity
  8
0239_詳細図（細
  6
Continuous
 62
     3
370
     9
100
AcDbLine
 10
-832.3667892734006
 20
843.1451694406107
 30
0.0
 11
-832.3667892734006
 21
834.2481694406109
 31
0.0
  0
LINE
  5
477
330
1F
100
AcDbEntity
  8
0239_詳細図（細
  6
Continuous
 62
     3
370
     9
100
AcDbLine
 10
-837.3165367417064
 20
826.2481694406108
 30
0.0
 11
-837.3165367417064
 21
817.3511694406111
 31
0.0
  0
LINE
  5
478
330
1F
100
AcDbEntity
  8
0239_詳細図（細
  6
Continuous
 62
     3
370
     9
100
AcDbLine
 10
-827.4170418050949
 20
826.2481694406108
 30
0.0
 11
-827.4170418050949
 21
817.3511694406111
 31
0.0
  0
LINE
  5
479
330
1F
100
AcDbEntity
  8
0239_詳細図（細
  6
Continuous
 62
     3
370
     9
100
AcDbLine
 10
-832.3667892734006
 20
826.2481694406108
 30
0.0
 11
-832.3667892734006
 21
817.3511694406111
 31
0.0
  0
LINE
  5
47A
330
1F
100
AcDbEntity
  8
0239_詳細図（細
  6
Continuous
 62
     3
370
     9
100
AcDbLine
 10
-837.3165367417064
 20
809.3511694406109
 30
0.0
 11
-837.3165367417064
 21
800.4541694406112
 31
0.0
  0
LINE
  5
47B
330
1F
100
AcDbEntity
  8
0239_詳細図（細
  6
Continuous
 62
     3
370
     9
100
AcDbLine
 10
-827.4170418050949
 20
809.3511694406109
 30
0.0
 11
-827.4170418050949
 21
800.4541694406112
 31
0.0
  0
LINE
  5
47C
330
1F
100
AcDbEntity
  8
0239_詳細図（細
  6
Continuous
 62
     3
370
     9
100
AcDbLine
 10
-832.3667892734006
 20
809.3511694406109
 30
0.0
 11
-832.3667892734006
 21
800.4541694406112
 31
0.0
  0
LINE
  5
47D
330
1F
100
AcDbEntity
  8
0239_詳細図（細
  6
Continuous
 62
     3
370
     9
100
AcDbLine
 10
-837.3165367417064
 20
792.454169440611
 30
0.0
 11
-837.3165367417064
 21
783.5571694406112
 31
0.0
  0
LINE
  5
47E
330
1F
100
AcDbEntity
  8
0239_詳細図（細
  6
Continuous
 62
     3
370
     9
100
AcDbLine
 10
-827.4170418050949
 20
792.454169440611
 30
0.0
 11
-827.4170418050949
 21
783.5571694406112
 31
0.0
  0
LINE
  5
47F
330
1F
100
AcDbEntity
  8
0239_詳細図（細
  6
Continuous
 62
     3
370
     9
100
AcDbLine
 10
-832.3667892734006
 20
792.454169440611
 30
0.0
 11
-832.3667892734006
 21
783.5571694406112
 31
0.0
  0
LINE
  5
480
330
1F
100
AcDbEntity
  8
0239_詳細図（細
  6
Continuous
 62
     3
370
     9
100
AcDbLine
 10
-837.3165367417064
 20
775.5571694406112
 30
0.0
 11
-837.3165367417064
 21
766.6601694406114
 31
0.0
  0
LINE
  5
481
330
1F
100
AcDbEntity
  8
0239_詳細図（細
  6
Continuous
 62
     3
370
     9
100
AcDbLine
 10
-827.4170418050949
 20
775.5571694406112
 30
0.0
 11
-827.4170418050949
 21
766.6601694406114
 31
0.0
  0
LINE
  5
482
330
1F
100
AcDbEntity
  8
0239_詳細図（細
  6
Continuous
 62
     3
370
     9
100
AcDbLine
 10
-832.3667892734006
 20
775.5571694406112
 30
0.0
 11
-832.3667892734006
 21
766.6601694406114
 31
0.0
  0
LINE
  5
483
330
1F
100
AcDbEntity
  8
0239_詳細図（細
  6
Continuous
 62
     3
370
     9
100
AcDbLine
 10
-837.3165367417064
 20
758.6601694406113
 30
0.0
 11
-837.3165367417064
 21
749.7631694406116
 31
0.0
  0
LINE
  5
484
330
1F
100
AcDbEntity
  8
0239_詳細図（細
  6
Continuous
 62
     3
370
     9
100
AcDbLine
 10
-827.4170418050949
 20
758.6601694406113
 30
0.0
 11
-827.4170418050949
 21
749.7631694406116
 31
0.0
  0
LINE
  5
485
330
1F
100
AcDbEntity
  8
0239_詳細図（細
  6
Continuous
 62
     3
370
     9
100
AcDbLine
 10
-832.3667892734006
 20
758.6601694406113
 30
0.0
 11
-832.3667892734006
 21
749.7631694406116
 31
0.0
  0
LINE
  5
486
330
1F
100
AcDbEntity
  8
0239_詳細図（細
  6
Continuous
 62
     3
370
     9
100
AcDbLine
 10
-837.3165367417064
 20
741.7631694406114
 30
0.0
 11
-837.3165367417064
 21
732.8661694406117
 31
0.0
  0
LINE
  5
487
330
1F
100
AcDbEntity
  8
0239_詳細図（細
  6
Continuous
 62
     3
370
     9
100
AcDbLine
 10
-827.4170418050949
 20
741.7631694406114
 30
0.0
 11
-827.4170418050949
 21
732.8661694406117
 31
0.0
  0
LINE
  5
488
330
1F
100
AcDbEntity
  8
0239_詳細図（細
  6
Continuous
 62
     3
370
     9
100
AcDbLine
 10
-832.3667892734006
 20
741.7631694406114
 30
0.0
 11
-832.3667892734006
 21
732.8661694406117
 31
0.0
  0
LINE
  5
489
330
1F
100
AcDbEntity
  8
0239_詳細図（細
  6
Continuous
 62
     3
370
     9
100
AcDbLine
 10
-837.3165367417064
 20
724.8661694406115
 30
0.0
 11
-837.3165367417064
 21
715.9691694406117
 31
0.0
  0
LINE
  5
48A
330
1F
100
AcDbEntity
  8
0239_詳細図（細
  6
Continuous
 62
     3
370
     9
100
AcDbLine
 10
-827.4170418050949
 20
724.8661694406115
 30
0.0
 11
-827.4170418050949
 21
715.9691694406117
 31
0.0
  0
LINE
  5
48B
330
1F
100
AcDbEntity
  8
0239_詳細図（細
  6
Continuous
 62
     3
370
     9
100
AcDbLine
 10
-832.3667892734006
 20
724.8661694406115
 30
0.0
 11
-832.3667892734006
 21
715.9691694406117
 31
0.0
  0
LINE
  5
48C
330
1F
100
AcDbEntity
  8
0239_詳細図（細
  6
Continuous
 62
     3
370
     9
100
AcDbLine
 10
-837.3165367417064
 20
707.9691694406117
 30
0.0
 11
-837.3165367417064
 21
699.0721694406119
 31
0.0
  0
LINE
  5
48D
330
1F
100
AcDbEntity
  8
0239_詳細図（細
  6
Continuous
 62
     3
370
     9
100
AcDbLine
 10
-827.4170418050949
 20
707.9691694406117
 30
0.0
 11
-827.4170418050949
 21
699.0721694406119
 31
0.0
  0
LINE
  5
48E
330
1F
100
AcDbEntity
  8
0239_詳細図（細
  6
Continuous
 62
     3
370
     9
100
AcDbLine
 10
-832.3667892734006
 20
707.9691694406117
 30
0.0
 11
-832.3667892734006
 21
699.0721694406119
 31
0.0
  0
LINE
  5
48F
330
1F
100
AcDbEntity
  8
0239_詳細図（細
  6
Continuous
 62
     3
370
     9
100
AcDbLine
 10
-837.3165367417064
 20
691.0721694406118
 30
0.0
 11
-837.3165367417064
 21
682.1751694406121
 31
0.0
  0
LINE
  5
490
330
1F
100
AcDbEntity
  8
0239_詳細図（細
  6
Continuous
 62
     3
370
     9
100
AcDbLine
 10
-827.4170418050949
 20
691.0721694406118
 30
0.0
 11
-827.4170418050949
 21
682.1751694406121
 31
0.0
  0
LINE
  5
491
330
1F
100
AcDbEntity
  8
0239_詳細図（細
  6
Continuous
 62
     3
370
     9
100
AcDbLine
 10
-832.3667892734006
 20
691.0721694406118
 30
0.0
 11
-832.3667892734006
 21
682.1751694406121
 31
0.0
  0
LINE
  5
492
330
1F
100
AcDbEntity
  8
0239_詳細図（細
  6
Continuous
 62
     3
370
     9
100
AcDbLine
 10
-837.3165367417064
 20
674.1751694406119
 30
0.0
 11
-837.3165367417064
 21
665.2781694406121
 31
0.0
  0
LINE
  5
493
330
1F
100
AcDbEntity
  8
0239_詳細図（細
  6
Continuous
 62
     3
370
     9
100
AcDbLine
 10
-827.4170418050949
 20
674.1751694406119
 30
0.0
 11
-827.4170418050949
 21
665.2781694406121
 31
0.0
  0
LINE
  5
494
330
1F
100
AcDbEntity
  8
0239_詳細図（細
  6
Continuous
 62
     3
370
     9
100
AcDbLine
 10
-832.3667892734006
 20
674.1751694406119
 30
0.0
 11
-832.3667892734006
 21
665.2781694406121
 31
0.0
  0
LINE
  5
495
330
1F
100
AcDbEntity
  8
0239_詳細図（細
  6
Continuous
 62
     3
370
     9
100
AcDbLine
 10
-837.3165367417064
 20
657.278169440612
 30
0.0
 11
-837.3165367417064
 21
648.3811694406122
 31
0.0
  0
LINE
  5
496
330
1F
100
AcDbEntity
  8
0239_詳細図（細
  6
Continuous
 62
     3
370
     9
100
AcDbLine
 10
-827.4170418050949
 20
657.278169440612
 30
0.0
 11
-827.4170418050949
 21
648.3811694406122
 31
0.0
  0
LINE
  5
497
330
1F
100
AcDbEntity
  8
0239_詳細図（細
  6
Continuous
 62
     3
370
     9
100
AcDbLine
 10
-832.3667892734006
 20
657.278169440612
 30
0.0
 11
-832.3667892734006
 21
648.3811694406122
 31
0.0
  0
LINE
  5
498
330
1F
100
AcDbEntity
  8
0239_詳細図（細
  6
Continuous
 62
     3
370
     9
100
AcDbLine
 10
-837.3165367417064
 20
640.3811694406122
 30
0.0
 11
-837.3165367417064
 21
631.4841694406124
 31
0.0
  0
LINE
  5
499
330
1F
100
AcDbEntity
  8
0239_詳細図（細
  6
Continuous
 62
     3
370
     9
100
AcDbLine
 10
-827.4170418050949
 20
640.3811694406122
 30
0.0
 11
-827.4170418050949
 21
631.4841694406124
 31
0.0
  0
LINE
  5
49A
330
1F
100
AcDbEntity
  8
0239_詳細図（細
  6
Continuous
 62
     3
370
     9
100
AcDbLine
 10
-832.3667892734006
 20
640.3811694406122
 30
0.0
 11
-832.3667892734006
 21
631.4841694406124
 31
0.0
  0
LINE
  5
49B
330
1F
100
AcDbEntity
  8
0239_詳細図（細
  6
Continuous
 62
     3
370
     9
100
AcDbLine
 10
-837.3165367417064
 20
623.4841694406123
 30
0.0
 11
-837.3165367417064
 21
614.5871694406126
 31
0.0
  0
LINE
  5
49C
330
1F
100
AcDbEntity
  8
0239_詳細図（細
  6
Continuous
 62
     3
370
     9
100
AcDbLine
 10
-827.4170418050949
 20
623.4841694406123
 30
0.0
 11
-827.4170418050949
 21
614.5871694406126
 31
0.0
  0
LINE
  5
49D
330
1F
100
AcDbEntity
  8
0239_詳細図（細
  6
Continuous
 62
     3
370
     9
100
AcDbLine
 10
-832.3667892734006
 20
623.4841694406123
 30
0.0
 11
-832.3667892734006
 21
614.5871694406126
 31
0.0
  0
LINE
  5
49E
330
1F
100
AcDbEntity
  8
0239_詳細図（細
  6
Continuous
 62
     3
370
     9
100
AcDbLine
 10
-837.3165367417064
 20
606.5871694406123
 30
0.0
 11
-837.3165367417064
 21
597.6901694406126
 31
0.0
  0
LINE
  5
49F
330
1F
100
AcDbEntity
  8
0239_詳細図（細
  6
Continuous
 62
     3
370
     9
100
AcDbLine
 10
-827.4170418050949
 20
606.5871694406123
 30
0.0
 11
-827.4170418050949
 21
597.6901694406126
 31
0.0
  0
LINE
  5
4A0
330
1F
100
AcDbEntity
  8
0239_詳細図（細
  6
Continuous
 62
     3
370
     9
100
AcDbLine
 10
-832.3667892734006
 20
606.5871694406123
 30
0.0
 11
-832.3667892734006
 21
597.6901694406126
 31
0.0
  0
LINE
  5
4A1
330
1F
100
AcDbEntity
  8
0239_詳細図（細
  6
Continuous
 62
     3
370
     9
100
AcDbLine
 10
-837.3165367417064
 20
589.6901694406125
 30
0.0
 11
-837.3165367417064
 21
580.7931694406127
 31
0.0
  0
LINE
  5
4A2
330
1F
100
AcDbEntity
  8
0239_詳細図（細
  6
Continuous
 62
     3
370
     9
100
AcDbLine
 10
-827.4170418050949
 20
589.6901694406125
 30
0.0
 11
-827.4170418050949
 21
580.7931694406127
 31
0.0
  0
LINE
  5
4A3
330
1F
100
AcDbEntity
  8
0239_詳細図（細
  6
Continuous
 62
     3
370
     9
100
AcDbLine
 10
-832.3667892734006
 20
589.6901694406125
 30
0.0
 11
-832.3667892734006
 21
580.7931694406127
 31
0.0
  0
LINE
  5
4A4
330
1F
100
AcDbEntity
  8
0239_詳細図（細
  6
Continuous
 62
     3
370
     9
100
AcDbLine
 10
-837.3165367417064
 20
572.7931694406127
 30
0.0
 11
-837.3165367417064
 21
563.8961694406129
 31
0.0
  0
LINE
  5
4A5
330
1F
100
AcDbEntity
  8
0239_詳細図（細
  6
Continuous
 62
     3
370
     9
100
AcDbLine
 10
-827.4170418050949
 20
572.7931694406127
 30
0.0
 11
-827.4170418050949
 21
563.8961694406129
 31
0.0
  0
LINE
  5
4A6
330
1F
100
AcDbEntity
  8
0239_詳細図（細
  6
Continuous
 62
     3
370
     9
100
AcDbLine
 10
-832.3667892734006
 20
572.7931694406127
 30
0.0
 11
-832.3667892734006
 21
563.8961694406129
 31
0.0
  0
LINE
  5
4A7
330
1F
100
AcDbEntity
  8
0239_詳細図（細
  6
Continuous
 62
     3
370
     9
100
AcDbLine
 10
-837.3165367417064
 20
555.8961694406128
 30
0.0
 11
-837.3165367417064
 21
546.9991694406131
 31
0.0
  0
LINE
  5
4A8
330
1F
100
AcDbEntity
  8
0239_詳細図（細
  6
Continuous
 62
     3
370
     9
100
AcDbLine
 10
-827.4170418050949
 20
555.8961694406128
 30
0.0
 11
-827.4170418050949
 21
546.9991694406131
 31
0.0
  0
LINE
  5
4A9
330
1F
100
AcDbEntity
  8
0239_詳細図（細
  6
Continuous
 62
     3
370
     9
100
AcDbLine
 10
-832.3667892734006
 20
555.8961694406128
 30
0.0
 11
-832.3667892734006
 21
546.9991694406131
 31
0.0
  0
LINE
  5
4AA
330
1F
100
AcDbEntity
  8
0239_詳細図（細
  6
Continuous
 62
     3
370
     9
100
AcDbLine
 10
-837.3165367417064
 20
538.9991694406128
 30
0.0
 11
-837.3165367417064
 21
530.1021694406131
 31
0.0
  0
LINE
  5
4AB
330
1F
100
AcDbEntity
  8
0239_詳細図（細
  6
Continuous
 62
     3
370
     9
100
AcDbLine
 10
-827.4170418050949
 20
538.9991694406128
 30
0.0
 11
-827.4170418050949
 21
530.1021694406131
 31
0.0
  0
LINE
  5
4AC
330
1F
100
AcDbEntity
  8
0239_詳細図（細
  6
Continuous
 62
     3
370
     9
100
AcDbLine
 10
-832.3667892734006
 20
538.9991694406128
 30
0.0
 11
-832.3667892734006
 21
530.1021694406131
 31
0.0
  0
LINE
  5
4AD
330
1F
100
AcDbEntity
  8
0239_詳細図（細
  6
Continuous
 62
     3
370
     9
100
AcDbLine
 10
-837.3165367417064
 20
522.102169440613
 30
0.0
 11
-837.3165367417064
 21
513.2051694406132
 31
0.0
  0
LINE
  5
4AE
330
1F
100
AcDbEntity
  8
0239_詳細図（細
  6
Continuous
 62
     3
370
     9
100
AcDbLine
 10
-827.4170418050949
 20
522.102169440613
 30
0.0
 11
-827.4170418050949
 21
513.2051694406132
 31
0.0
  0
LINE
  5
4AF
330
1F
100
AcDbEntity
  8
0239_詳細図（細
  6
Continuous
 62
     3
370
     9
100
AcDbLine
 10
-832.3667892734006
 20
522.102169440613
 30
0.0
 11
-832.3667892734006
 21
513.2051694406132
 31
0.0
  0
LINE
  5
4B0
330
1F
100
AcDbEntity
  8
0239_詳細図（細
  6
Continuous
 62
     3
370
     9
100
AcDbLine
 10
-757.3165367417064
 20
944.5271694406099
 30
0.0
 11
-757.3165367417064
 21
935.6301694406102
 31
0.0
  0
LINE
  5
4B1
330
1F
100
AcDbEntity
  8
0239_詳細図（細
  6
Continuous
 62
     3
370
     9
100
AcDbLine
 10
-747.4170418050949
 20
944.5271694406099
 30
0.0
 11
-747.4170418050949
 21
935.6301694406102
 31
0.0
  0
LINE
  5
4B2
330
1F
100
AcDbEntity
  8
0239_詳細図（細
  6
Continuous
 62
     3
370
     9
100
AcDbLine
 10
-752.3667892734006
 20
944.5271694406099
 30
0.0
 11
-752.3667892734006
 21
935.6301694406102
 31
0.0
  0
LINE
  5
4B3
330
1F
100
AcDbEntity
  8
0239_詳細図（細
  6
Continuous
 62
     3
370
     9
100
AcDbLine
 10
-757.3165367417064
 20
927.6301694406101
 30
0.0
 11
-757.3165367417064
 21
918.7331694406103
 31
0.0
  0
LINE
  5
4B4
330
1F
100
AcDbEntity
  8
0239_詳細図（細
  6
Continuous
 62
     3
370
     9
100
AcDbLine
 10
-747.4170418050949
 20
927.6301694406101
 30
0.0
 11
-747.4170418050949
 21
918.7331694406103
 31
0.0
  0
LINE
  5
4B5
330
1F
100
AcDbEntity
  8
0239_詳細図（細
  6
Continuous
 62
     3
370
     9
100
AcDbLine
 10
-752.3667892734006
 20
927.6301694406101
 30
0.0
 11
-752.3667892734006
 21
918.7331694406103
 31
0.0
  0
LINE
  5
4B6
330
1F
100
AcDbEntity
  8
0239_詳細図（細
  6
Continuous
 62
     3
370
     9
100
AcDbLine
 10
-757.3165367417064
 20
910.7331694406103
 30
0.0
 11
-757.3165367417064
 21
901.8361694406104
 31
0.0
  0
LINE
  5
4B7
330
1F
100
AcDbEntity
  8
0239_詳細図（細
  6
Continuous
 62
     3
370
     9
100
AcDbLine
 10
-747.4170418050949
 20
910.7331694406103
 30
0.0
 11
-747.4170418050949
 21
901.8361694406104
 31
0.0
  0
LINE
  5
4B8
330
1F
100
AcDbEntity
  8
0239_詳細図（細
  6
Continuous
 62
     3
370
     9
100
AcDbLine
 10
-752.3667892734006
 20
910.7331694406103
 30
0.0
 11
-752.3667892734006
 21
901.8361694406104
 31
0.0
  0
LINE
  5
4B9
330
1F
100
AcDbEntity
  8
0239_詳細図（細
  6
Continuous
 62
     3
370
     9
100
AcDbLine
 10
-757.3165367417064
 20
893.8361694406103
 30
0.0
 11
-757.3165367417064
 21
884.9391694406106
 31
0.0
  0
LINE
  5
4BA
330
1F
100
AcDbEntity
  8
0239_詳細図（細
  6
Continuous
 62
     3
370
     9
100
AcDbLine
 10
-747.4170418050949
 20
893.8361694406103
 30
0.0
 11
-747.4170418050949
 21
884.9391694406106
 31
0.0
  0
LINE
  5
4BB
330
1F
100
AcDbEntity
  8
0239_詳細図（細
  6
Continuous
 62
     3
370
     9
100
AcDbLine
 10
-752.3667892734006
 20
893.8361694406103
 30
0.0
 11
-752.3667892734006
 21
884.9391694406106
 31
0.0
  0
LINE
  5
4BC
330
1F
100
AcDbEntity
  8
0239_詳細図（細
  6
Continuous
 62
     3
370
     9
100
AcDbLine
 10
-757.3165367417064
 20
876.9391694406104
 30
0.0
 11
-757.3165367417064
 21
868.0421694406107
 31
0.0
  0
LINE
  5
4BD
330
1F
100
AcDbEntity
  8
0239_詳細図（細
  6
Continuous
 62
     3
370
     9
100
AcDbLine
 10
-747.4170418050949
 20
876.9391694406104
 30
0.0
 11
-747.4170418050949
 21
868.0421694406107
 31
0.0
  0
LINE
  5
4BE
330
1F
100
AcDbEntity
  8
0239_詳細図（細
  6
Continuous
 62
     3
370
     9
100
AcDbLine
 10
-752.3667892734006
 20
876.9391694406104
 30
0.0
 11
-752.3667892734006
 21
868.0421694406107
 31
0.0
  0
LINE
  5
4BF
330
1F
100
AcDbEntity
  8
0239_詳細図（細
  6
Continuous
 62
     3
370
     9
100
AcDbLine
 10
-757.3165367417064
 20
860.0421694406106
 30
0.0
 11
-757.3165367417064
 21
851.1451694406107
 31
0.0
  0
LINE
  5
4C0
330
1F
100
AcDbEntity
  8
0239_詳細図（細
  6
Continuous
 62
     3
370
     9
100
AcDbLine
 10
-747.4170418050949
 20
860.0421694406106
 30
0.0
 11
-747.4170418050949
 21
851.1451694406107
 31
0.0
  0
LINE
  5
4C1
330
1F
100
AcDbEntity
  8
0239_詳細図（細
  6
Continuous
 62
     3
370
     9
100
AcDbLine
 10
-752.3667892734006
 20
860.0421694406106
 30
0.0
 11
-752.3667892734006
 21
851.1451694406107
 31
0.0
  0
LINE
  5
4C2
330
1F
100
AcDbEntity
  8
0239_詳細図（細
  6
Continuous
 62
     3
370
     9
100
AcDbLine
 10
-757.3165367417064
 20
843.1451694406107
 30
0.0
 11
-757.3165367417064
 21
834.2481694406109
 31
0.0
  0
LINE
  5
4C3
330
1F
100
AcDbEntity
  8
0239_詳細図（細
  6
Continuous
 62
     3
370
     9
100
AcDbLine
 10
-747.4170418050949
 20
843.1451694406107
 30
0.0
 11
-747.4170418050949
 21
834.2481694406109
 31
0.0
  0
LINE
  5
4C4
330
1F
100
AcDbEntity
  8
0239_詳細図（細
  6
Continuous
 62
     3
370
     9
100
AcDbLine
 10
-752.3667892734006
 20
843.1451694406107
 30
0.0
 11
-752.3667892734006
 21
834.2481694406109
 31
0.0
  0
LINE
  5
4C5
330
1F
100
AcDbEntity
  8
0239_詳細図（細
  6
Continuous
 62
     3
370
     9
100
AcDbLine
 10
-757.3165367417064
 20
826.2481694406108
 30
0.0
 11
-757.3165367417064
 21
817.3511694406111
 31
0.0
  0
LINE
  5
4C6
330
1F
100
AcDbEntity
  8
0239_詳細図（細
  6
Continuous
 62
     3
370
     9
100
AcDbLine
 10
-747.4170418050949
 20
826.2481694406108
 30
0.0
 11
-747.4170418050949
 21
817.3511694406111
 31
0.0
  0
LINE
  5
4C7
330
1F
100
AcDbEntity
  8
0239_詳細図（細
  6
Continuous
 62
     3
370
     9
100
AcDbLine
 10
-752.3667892734006
 20
826.2481694406108
 30
0.0
 11
-752.3667892734006
 21
817.3511694406111
 31
0.0
  0
LINE
  5
4C8
330
1F
100
AcDbEntity
  8
0239_詳細図（細
  6
Continuous
 62
     3
370
     9
100
AcDbLine
 10
-757.3165367417064
 20
809.3511694406109
 30
0.0
 11
-757.3165367417064
 21
800.4541694406112
 31
0.0
  0
LINE
  5
4C9
330
1F
100
AcDbEntity
  8
0239_詳細図（細
  6
Continuous
 62
     3
370
     9
100
AcDbLine
 10
-747.4170418050949
 20
809.3511694406109
 30
0.0
 11
-747.4170418050949
 21
800.4541694406112
 31
0.0
  0
LINE
  5
4CA
330
1F
100
AcDbEntity
  8
0239_詳細図（細
  6
Continuous
 62
     3
370
     9
100
AcDbLine
 10
-752.3667892734006
 20
809.3511694406109
 30
0.0
 11
-752.3667892734006
 21
800.4541694406112
 31
0.0
  0
LINE
  5
4CB
330
1F
100
AcDbEntity
  8
0239_詳細図（細
  6
Continuous
 62
     3
370
     9
100
AcDbLine
 10
-757.3165367417064
 20
792.454169440611
 30
0.0
 11
-757.3165367417064
 21
783.5571694406112
 31
0.0
  0
LINE
  5
4CC
330
1F
100
AcDbEntity
  8
0239_詳細図（細
  6
Continuous
 62
     3
370
     9
100
AcDbLine
 10
-747.4170418050949
 20
792.454169440611
 30
0.0
 11
-747.4170418050949
 21
783.5571694406112
 31
0.0
  0
LINE
  5
4CD
330
1F
100
AcDbEntity
  8
0239_詳細図（細
  6
Continuous
 62
     3
370
     9
100
AcDbLine
 10
-752.3667892734006
 20
792.454169440611
 30
0.0
 11
-752.3667892734006
 21
783.5571694406112
 31
0.0
  0
LINE
  5
4CE
330
1F
100
AcDbEntity
  8
0239_詳細図（細
  6
Continuous
 62
     3
370
     9
100
AcDbLine
 10
-757.3165367417064
 20
775.5571694406112
 30
0.0
 11
-757.3165367417064
 21
766.6601694406114
 31
0.0
  0
LINE
  5
4CF
330
1F
100
AcDbEntity
  8
0239_詳細図（細
  6
Continuous
 62
     3
370
     9
100
AcDbLine
 10
-747.4170418050949
 20
775.5571694406112
 30
0.0
 11
-747.4170418050949
 21
766.6601694406114
 31
0.0
  0
LINE
  5
4D0
330
1F
100
AcDbEntity
  8
0239_詳細図（細
  6
Continuous
 62
     3
370
     9
100
AcDbLine
 10
-752.3667892734006
 20
775.5571694406112
 30
0.0
 11
-752.3667892734006
 21
766.6601694406114
 31
0.0
  0
LINE
  5
4D1
330
1F
100
AcDbEntity
  8
0239_詳細図（細
  6
Continuous
 62
     3
370
     9
100
AcDbLine
 10
-757.3165367417064
 20
758.6601694406113
 30
0.0
 11
-757.3165367417064
 21
749.7631694406116
 31
0.0
  0
LINE
  5
4D2
330
1F
100
AcDbEntity
  8
0239_詳細図（細
  6
Continuous
 62
     3
370
     9
100
AcDbLine
 10
-747.4170418050949
 20
758.6601694406113
 30
0.0
 11
-747.4170418050949
 21
749.7631694406116
 31
0.0
  0
LINE
  5
4D3
330
1F
100
AcDbEntity
  8
0239_詳細図（細
  6
Continuous
 62
     3
370
     9
100
AcDbLine
 10
-752.3667892734006
 20
758.6601694406113
 30
0.0
 11
-752.3667892734006
 21
749.7631694406116
 31
0.0
  0
LINE
  5
4D4
330
1F
100
AcDbEntity
  8
0239_詳細図（細
  6
Continuous
 62
     3
370
     9
100
AcDbLine
 10
-757.3165367417064
 20
741.7631694406114
 30
0.0
 11
-757.3165367417064
 21
732.8661694406117
 31
0.0
  0
LINE
  5
4D5
330
1F
100
AcDbEntity
  8
0239_詳細図（細
  6
Continuous
 62
     3
370
     9
100
AcDbLine
 10
-747.4170418050949
 20
741.7631694406114
 30
0.0
 11
-747.4170418050949
 21
732.8661694406117
 31
0.0
  0
LINE
  5
4D6
330
1F
100
AcDbEntity
  8
0239_詳細図（細
  6
Continuous
 62
     3
370
     9
100
AcDbLine
 10
-752.3667892734006
 20
741.7631694406114
 30
0.0
 11
-752.3667892734006
 21
732.8661694406117
 31
0.0
  0
LINE
  5
4D7
330
1F
100
AcDbEntity
  8
0239_詳細図（細
  6
Continuous
 62
     3
370
     9
100
AcDbLine
 10
-757.3165367417064
 20
724.8661694406115
 30
0.0
 11
-757.3165367417064
 21
715.9691694406117
 31
0.0
  0
LINE
  5
4D8
330
1F
100
AcDbEntity
  8
0239_詳細図（細
  6
Continuous
 62
     3
370
     9
100
AcDbLine
 10
-747.4170418050949
 20
724.8661694406115
 30
0.0
 11
-747.4170418050949
 21
715.9691694406117
 31
0.0
  0
LINE
  5
4D9
330
1F
100
AcDbEntity
  8
0239_詳細図（細
  6
Continuous
 62
     3
370
     9
100
AcDbLine
 10
-752.3667892734006
 20
724.8661694406115
 30
0.0
 11
-752.3667892734006
 21
715.9691694406117
 31
0.0
  0
LINE
  5
4DA
330
1F
100
AcDbEntity
  8
0239_詳細図（細
  6
Continuous
 62
     3
370
     9
100
AcDbLine
 10
-757.3165367417064
 20
707.9691694406117
 30
0.0
 11
-757.3165367417064
 21
699.0721694406119
 31
0.0
  0
LINE
  5
4DB
330
1F
100
AcDbEntity
  8
0239_詳細図（細
  6
Continuous
 62
     3
370
     9
100
AcDbLine
 10
-747.4170418050949
 20
707.9691694406117
 30
0.0
 11
-747.4170418050949
 21
699.0721694406119
 31
0.0
  0
LINE
  5
4DC
330
1F
100
AcDbEntity
  8
0239_詳細図（細
  6
Continuous
 62
     3
370
     9
100
AcDbLine
 10
-752.3667892734006
 20
707.9691694406117
 30
0.0
 11
-752.3667892734006
 21
699.0721694406119
 31
0.0
  0
LINE
  5
4DD
330
1F
100
AcDbEntity
  8
0239_詳細図（細
  6
Continuous
 62
     3
370
     9
100
AcDbLine
 10
-757.3165367417064
 20
691.0721694406118
 30
0.0
 11
-757.3165367417064
 21
682.1751694406121
 31
0.0
  0
LINE
  5
4DE
330
1F
100
AcDbEntity
  8
0239_詳細図（細
  6
Continuous
 62
     3
370
     9
100
AcDbLine
 10
-747.4170418050949
 20
691.0721694406118
 30
0.0
 11
-747.4170418050949
 21
682.1751694406121
 31
0.0
  0
LINE
  5
4DF
330
1F
100
AcDbEntity
  8
0239_詳細図（細
  6
Continuous
 62
     3
370
     9
100
AcDbLine
 10
-752.3667892734006
 20
691.0721694406118
 30
0.0
 11
-752.3667892734006
 21
682.1751694406121
 31
0.0
  0
LINE
  5
4E0
330
1F
100
AcDbEntity
  8
0239_詳細図（細
  6
Continuous
 62
     3
370
     9
100
AcDbLine
 10
-757.3165367417064
 20
674.1751694406119
 30
0.0
 11
-757.3165367417064
 21
665.2781694406121
 31
0.0
  0
LINE
  5
4E1
330
1F
100
AcDbEntity
  8
0239_詳細図（細
  6
Continuous
 62
     3
370
     9
100
AcDbLine
 10
-747.4170418050949
 20
674.1751694406119
 30
0.0
 11
-747.4170418050949
 21
665.2781694406121
 31
0.0
  0
LINE
  5
4E2
330
1F
100
AcDbEntity
  8
0239_詳細図（細
  6
Continuous
 62
     3
370
     9
100
AcDbLine
 10
-752.3667892734006
 20
674.1751694406119
 30
0.0
 11
-752.3667892734006
 21
665.2781694406121
 31
0.0
  0
LINE
  5
4E3
330
1F
100
AcDbEntity
  8
0239_詳細図（細
  6
Continuous
 62
     3
370
     9
100
AcDbLine
 10
-757.3165367417064
 20
657.278169440612
 30
0.0
 11
-757.3165367417064
 21
648.3811694406122
 31
0.0
  0
LINE
  5
4E4
330
1F
100
AcDbEntity
  8
0239_詳細図（細
  6
Continuous
 62
     3
370
     9
100
AcDbLine
 10
-747.4170418050949
 20
657.278169440612
 30
0.0
 11
-747.4170418050949
 21
648.3811694406122
 31
0.0
  0
LINE
  5
4E5
330
1F
100
AcDbEntity
  8
0239_詳細図（細
  6
Continuous
 62
     3
370
     9
100
AcDbLine
 10
-752.3667892734006
 20
657.278169440612
 30
0.0
 11
-752.3667892734006
 21
648.3811694406122
 31
0.0
  0
LINE
  5
4E6
330
1F
100
AcDbEntity
  8
0239_詳細図（細
  6
Continuous
 62
     3
370
     9
100
AcDbLine
 10
-757.3165367417064
 20
640.3811694406122
 30
0.0
 11
-757.3165367417064
 21
631.4841694406124
 31
0.0
  0
LINE
  5
4E7
330
1F
100
AcDbEntity
  8
0239_詳細図（細
  6
Continuous
 62
     3
370
     9
100
AcDbLine
 10
-747.4170418050949
 20
640.3811694406122
 30
0.0
 11
-747.4170418050949
 21
631.4841694406124
 31
0.0
  0
LINE
  5
4E8
330
1F
100
AcDbEntity
  8
0239_詳細図（細
  6
Continuous
 62
     3
370
     9
100
AcDbLine
 10
-752.3667892734006
 20
640.3811694406122
 30
0.0
 11
-752.3667892734006
 21
631.4841694406124
 31
0.0
  0
LINE
  5
4E9
330
1F
100
AcDbEntity
  8
0239_詳細図（細
  6
Continuous
 62
     3
370
     9
100
AcDbLine
 10
-757.3165367417064
 20
623.4841694406123
 30
0.0
 11
-757.3165367417064
 21
614.5871694406126
 31
0.0
  0
LINE
  5
4EA
330
1F
100
AcDbEntity
  8
0239_詳細図（細
  6
Continuous
 62
     3
370
     9
100
AcDbLine
 10
-747.4170418050949
 20
623.4841694406123
 30
0.0
 11
-747.4170418050949
 21
614.5871694406126
 31
0.0
  0
LINE
  5
4EB
330
1F
100
AcDbEntity
  8
0239_詳細図（細
  6
Continuous
 62
     3
370
     9
100
AcDbLine
 10
-752.3667892734006
 20
623.4841694406123
 30
0.0
 11
-752.3667892734006
 21
614.5871694406126
 31
0.0
  0
LINE
  5
4EC
330
1F
100
AcDbEntity
  8
0239_詳細図（細
  6
Continuous
 62
     3
370
     9
100
AcDbLine
 10
-757.3165367417064
 20
606.5871694406123
 30
0.0
 11
-757.3165367417064
 21
597.6901694406126
 31
0.0
  0
LINE
  5
4ED
330
1F
100
AcDbEntity
  8
0239_詳細図（細
  6
Continuous
 62
     3
370
     9
100
AcDbLine
 10
-747.4170418050949
 20
606.5871694406123
 30
0.0
 11
-747.4170418050949
 21
597.6901694406126
 31
0.0
  0
LINE
  5
4EE
330
1F
100
AcDbEntity
  8
0239_詳細図（細
  6
Continuous
 62
     3
370
     9
100
AcDbLine
 10
-752.3667892734006
 20
606.5871694406123
 30
0.0
 11
-752.3667892734006
 21
597.6901694406126
 31
0.0
  0
LINE
  5
4EF
330
1F
100
AcDbEntity
  8
0239_詳細図（細
  6
Continuous
 62
     3
370
     9
100
AcDbLine
 10
-757.3165367417064
 20
589.6901694406125
 30
0.0
 11
-757.3165367417064
 21
580.7931694406127
 31
0.0
  0
LINE
  5
4F0
330
1F
100
AcDbEntity
  8
0239_詳細図（細
  6
Continuous
 62
     3
370
     9
100
AcDbLine
 10
-747.4170418050949
 20
589.6901694406125
 30
0.0
 11
-747.4170418050949
 21
580.7931694406127
 31
0.0
  0
LINE
  5
4F1
330
1F
100
AcDbEntity
  8
0239_詳細図（細
  6
Continuous
 62
     3
370
     9
100
AcDbLine
 10
-752.3667892734006
 20
589.6901694406125
 30
0.0
 11
-752.3667892734006
 21
580.7931694406127
 31
0.0
  0
LINE
  5
4F2
330
1F
100
AcDbEntity
  8
0239_詳細図（細
  6
Continuous
 62
     3
370
     9
100
AcDbLine
 10
-757.3165367417064
 20
572.7931694406127
 30
0.0
 11
-757.3165367417064
 21
563.8961694406129
 31
0.0
  0
LINE
  5
4F3
330
1F
100
AcDbEntity
  8
0239_詳細図（細
  6
Continuous
 62
     3
370
     9
100
AcDbLine
 10
-747.4170418050949
 20
572.7931694406127
 30
0.0
 11
-747.4170418050949
 21
563.8961694406129
 31
0.0
  0
LINE
  5
4F4
330
1F
100
AcDbEntity
  8
0239_詳細図（細
  6
Continuous
 62
     3
370
     9
100
AcDbLine
 10
-752.3667892734006
 20
572.7931694406127
 30
0.0
 11
-752.3667892734006
 21
563.8961694406129
 31
0.0
  0
LINE
  5
4F5
330
1F
100
AcDbEntity
  8
0239_詳細図（細
  6
Continuous
 62
     3
370
     9
100
AcDbLine
 10
-757.3165367417064
 20
555.8961694406128
 30
0.0
 11
-757.3165367417064
 21
546.9991694406131
 31
0.0
  0
LINE
  5
4F6
330
1F
100
AcDbEntity
  8
0239_詳細図（細
  6
Continuous
 62
     3
370
     9
100
AcDbLine
 10
-747.4170418050949
 20
555.8961694406128
 30
0.0
 11
-747.4170418050949
 21
546.9991694406131
 31
0.0
  0
LINE
  5
4F7
330
1F
100
AcDbEntity
  8
0239_詳細図（細
  6
Continuous
 62
     3
370
     9
100
AcDbLine
 10
-752.3667892734006
 20
555.8961694406128
 30
0.0
 11
-752.3667892734006
 21
546.9991694406131
 31
0.0
  0
LINE
  5
4F8
330
1F
100
AcDbEntity
  8
0239_詳細図（細
  6
Continuous
 62
     3
370
     9
100
AcDbLine
 10
-757.3165367417064
 20
538.9991694406128
 30
0.0
 11
-757.3165367417064
 21
530.1021694406131
 31
0.0
  0
LINE
  5
4F9
330
1F
100
AcDbEntity
  8
0239_詳細図（細
  6
Continuous
 62
     3
370
     9
100
AcDbLine
 10
-752.3667892734006
 20
538.9991694406128
 30
0.0
 11
-752.3667892734006
 21
530.1021694406131
 31
0.0
  0
LINE
  5
4FA
330
1F
100
AcDbEntity
  8
0239_詳細図（細
  6
Continuous
 62
     3
370
     9
100
AcDbLine
 10
-677.3165367417064
 20
944.5271694406099
 30
0.0
 11
-677.3165367417064
 21
935.6301694406102
 31
0.0
  0
LINE
  5
4FB
330
1F
100
AcDbEntity
  8
0239_詳細図（細
  6
Continuous
 62
     3
370
     9
100
AcDbLine
 10
-667.4170418050949
 20
944.5271694406099
 30
0.0
 11
-667.4170418050949
 21
935.6301694406102
 31
0.0
  0
LINE
  5
4FC
330
1F
100
AcDbEntity
  8
0239_詳細図（細
  6
Continuous
 62
     3
370
     9
100
AcDbLine
 10
-672.3667892734006
 20
944.5271694406099
 30
0.0
 11
-672.3667892734006
 21
935.6301694406102
 31
0.0
  0
LINE
  5
4FD
330
1F
100
AcDbEntity
  8
0239_詳細図（細
  6
Continuous
 62
     3
370
     9
100
AcDbLine
 10
-677.3165367417064
 20
927.6301694406101
 30
0.0
 11
-677.3165367417064
 21
918.7331694406103
 31
0.0
  0
LINE
  5
4FE
330
1F
100
AcDbEntity
  8
0239_詳細図（細
  6
Continuous
 62
     3
370
     9
100
AcDbLine
 10
-667.4170418050949
 20
927.6301694406101
 30
0.0
 11
-667.4170418050949
 21
918.7331694406103
 31
0.0
  0
LINE
  5
4FF
330
1F
100
AcDbEntity
  8
0239_詳細図（細
  6
Continuous
 62
     3
370
     9
100
AcDbLine
 10
-672.3667892734006
 20
927.6301694406101
 30
0.0
 11
-672.3667892734006
 21
918.7331694406103
 31
0.0
  0
LINE
  5
500
330
1F
100
AcDbEntity
  8
0239_詳細図（細
  6
Continuous
 62
     3
370
     9
100
AcDbLine
 10
-677.3165367417064
 20
910.7331694406103
 30
0.0
 11
-677.3165367417064
 21
901.8361694406104
 31
0.0
  0
LINE
  5
501
330
1F
100
AcDbEntity
  8
0239_詳細図（細
  6
Continuous
 62
     3
370
     9
100
AcDbLine
 10
-667.4170418050949
 20
910.7331694406103
 30
0.0
 11
-667.4170418050949
 21
901.8361694406104
 31
0.0
  0
LINE
  5
502
330
1F
100
AcDbEntity
  8
0239_詳細図（細
  6
Continuous
 62
     3
370
     9
100
AcDbLine
 10
-672.3667892734006
 20
910.7331694406103
 30
0.0
 11
-672.3667892734006
 21
901.8361694406104
 31
0.0
  0
LINE
  5
503
330
1F
100
AcDbEntity
  8
0239_詳細図（細
  6
Continuous
 62
     3
370
     9
100
AcDbLine
 10
-677.3165367417064
 20
893.8361694406103
 30
0.0
 11
-677.3165367417064
 21
884.9391694406106
 31
0.0
  0
LINE
  5
504
330
1F
100
AcDbEntity
  8
0239_詳細図（細
  6
Continuous
 62
     3
370
     9
100
AcDbLine
 10
-667.4170418050949
 20
893.8361694406103
 30
0.0
 11
-667.4170418050949
 21
884.9391694406106
 31
0.0
  0
LINE
  5
505
330
1F
100
AcDbEntity
  8
0239_詳細図（細
  6
Continuous
 62
     3
370
     9
100
AcDbLine
 10
-672.3667892734006
 20
893.8361694406103
 30
0.0
 11
-672.3667892734006
 21
884.9391694406106
 31
0.0
  0
LINE
  5
506
330
1F
100
AcDbEntity
  8
0239_詳細図（細
  6
Continuous
 62
     3
370
     9
100
AcDbLine
 10
-677.3165367417064
 20
876.9391694406104
 30
0.0
 11
-677.3165367417064
 21
868.0421694406107
 31
0.0
  0
LINE
  5
507
330
1F
100
AcDbEntity
  8
0239_詳細図（細
  6
Continuous
 62
     3
370
     9
100
AcDbLine
 10
-667.4170418050949
 20
876.9391694406104
 30
0.0
 11
-667.4170418050949
 21
868.0421694406107
 31
0.0
  0
LINE
  5
508
330
1F
100
AcDbEntity
  8
0239_詳細図（細
  6
Continuous
 62
     3
370
     9
100
AcDbLine
 10
-672.3667892734006
 20
876.9391694406104
 30
0.0
 11
-672.3667892734006
 21
868.0421694406107
 31
0.0
  0
LINE
  5
509
330
1F
100
AcDbEntity
  8
0239_詳細図（細
  6
Continuous
 62
     3
370
     9
100
AcDbLine
 10
-677.3165367417064
 20
860.0421694406106
 30
0.0
 11
-677.3165367417064
 21
851.1451694406107
 31
0.0
  0
LINE
  5
50A
330
1F
100
AcDbEntity
  8
0239_詳細図（細
  6
Continuous
 62
     3
370
     9
100
AcDbLine
 10
-667.4170418050949
 20
860.0421694406106
 30
0.0
 11
-667.4170418050949
 21
851.1451694406107
 31
0.0
  0
LINE
  5
50B
330
1F
100
AcDbEntity
  8
0239_詳細図（細
  6
Continuous
 62
     3
370
     9
100
AcDbLine
 10
-672.3667892734006
 20
860.0421694406106
 30
0.0
 11
-672.3667892734006
 21
851.1451694406107
 31
0.0
  0
LINE
  5
50C
330
1F
100
AcDbEntity
  8
0239_詳細図（細
  6
Continuous
 62
     3
370
     9
100
AcDbLine
 10
-677.3165367417064
 20
843.1451694406107
 30
0.0
 11
-677.3165367417064
 21
834.2481694406109
 31
0.0
  0
LINE
  5
50D
330
1F
100
AcDbEntity
  8
0239_詳細図（細
  6
Continuous
 62
     3
370
     9
100
AcDbLine
 10
-667.4170418050949
 20
843.1451694406107
 30
0.0
 11
-667.4170418050949
 21
834.2481694406109
 31
0.0
  0
LINE
  5
50E
330
1F
100
AcDbEntity
  8
0239_詳細図（細
  6
Continuous
 62
     3
370
     9
100
AcDbLine
 10
-672.3667892734006
 20
843.1451694406107
 30
0.0
 11
-672.3667892734006
 21
834.2481694406109
 31
0.0
  0
LINE
  5
50F
330
1F
100
AcDbEntity
  8
0239_詳細図（細
  6
Continuous
 62
     3
370
     9
100
AcDbLine
 10
-677.3165367417064
 20
826.2481694406108
 30
0.0
 11
-677.3165367417064
 21
817.3511694406111
 31
0.0
  0
LINE
  5
510
330
1F
100
AcDbEntity
  8
0239_詳細図（細
  6
Continuous
 62
     3
370
     9
100
AcDbLine
 10
-667.4170418050949
 20
826.2481694406108
 30
0.0
 11
-667.4170418050949
 21
817.3511694406111
 31
0.0
  0
LINE
  5
511
330
1F
100
AcDbEntity
  8
0239_詳細図（細
  6
Continuous
 62
     3
370
     9
100
AcDbLine
 10
-672.3667892734006
 20
826.2481694406108
 30
0.0
 11
-672.3667892734006
 21
817.3511694406111
 31
0.0
  0
LINE
  5
512
330
1F
100
AcDbEntity
  8
0239_詳細図（細
  6
Continuous
 62
     3
370
     9
100
AcDbLine
 10
-677.3165367417064
 20
809.3511694406109
 30
0.0
 11
-677.3165367417064
 21
800.4541694406112
 31
0.0
  0
LINE
  5
513
330
1F
100
AcDbEntity
  8
0239_詳細図（細
  6
Continuous
 62
     3
370
     9
100
AcDbLine
 10
-667.4170418050949
 20
809.3511694406109
 30
0.0
 11
-667.4170418050949
 21
800.4541694406112
 31
0.0
  0
LINE
  5
514
330
1F
100
AcDbEntity
  8
0239_詳細図（細
  6
Continuous
 62
     3
370
     9
100
AcDbLine
 10
-672.3667892734006
 20
809.3511694406109
 30
0.0
 11
-672.3667892734006
 21
800.4541694406112
 31
0.0
  0
LINE
  5
515
330
1F
100
AcDbEntity
  8
0239_詳細図（細
  6
Continuous
 62
     3
370
     9
100
AcDbLine
 10
-677.3165367417064
 20
792.454169440611
 30
0.0
 11
-677.3165367417064
 21
783.5571694406112
 31
0.0
  0
LINE
  5
516
330
1F
100
AcDbEntity
  8
0239_詳細図（細
  6
Continuous
 62
     3
370
     9
100
AcDbLine
 10
-667.4170418050949
 20
792.454169440611
 30
0.0
 11
-667.4170418050949
 21
783.5571694406112
 31
0.0
  0
LINE
  5
517
330
1F
100
AcDbEntity
  8
0239_詳細図（細
  6
Continuous
 62
     3
370
     9
100
AcDbLine
 10
-672.3667892734006
 20
792.454169440611
 30
0.0
 11
-672.3667892734006
 21
783.5571694406112
 31
0.0
  0
LINE
  5
518
330
1F
100
AcDbEntity
  8
0239_詳細図（細
  6
Continuous
 62
     3
370
     9
100
AcDbLine
 10
-677.3165367417064
 20
775.5571694406112
 30
0.0
 11
-677.3165367417064
 21
766.6601694406114
 31
0.0
  0
LINE
  5
519
330
1F
100
AcDbEntity
  8
0239_詳細図（細
  6
Continuous
 62
     3
370
     9
100
AcDbLine
 10
-667.4170418050949
 20
775.5571694406112
 30
0.0
 11
-667.4170418050949
 21
766.6601694406114
 31
0.0
  0
LINE
  5
51A
330
1F
100
AcDbEntity
  8
0239_詳細図（細
  6
Continuous
 62
     3
370
     9
100
AcDbLine
 10
-672.3667892734006
 20
775.5571694406112
 30
0.0
 11
-672.3667892734006
 21
766.6601694406114
 31
0.0
  0
LINE
  5
51B
330
1F
100
AcDbEntity
  8
0239_詳細図（細
  6
Continuous
 62
     3
370
     9
100
AcDbLine
 10
-677.3165367417064
 20
758.6601694406113
 30
0.0
 11
-677.3165367417064
 21
749.7631694406116
 31
0.0
  0
LINE
  5
51C
330
1F
100
AcDbEntity
  8
0239_詳細図（細
  6
Continuous
 62
     3
370
     9
100
AcDbLine
 10
-667.4170418050949
 20
758.6601694406113
 30
0.0
 11
-667.4170418050949
 21
749.7631694406116
 31
0.0
  0
LINE
  5
51D
330
1F
100
AcDbEntity
  8
0239_詳細図（細
  6
Continuous
 62
     3
370
     9
100
AcDbLine
 10
-672.3667892734006
 20
758.6601694406113
 30
0.0
 11
-672.3667892734006
 21
749.7631694406116
 31
0.0
  0
LINE
  5
51E
330
1F
100
AcDbEntity
  8
0239_詳細図（細
  6
Continuous
 62
     3
370
     9
100
AcDbLine
 10
-677.3165367417064
 20
741.7631694406114
 30
0.0
 11
-677.3165367417064
 21
732.8661694406117
 31
0.0
  0
LINE
  5
51F
330
1F
100
AcDbEntity
  8
0239_詳細図（細
  6
Continuous
 62
     3
370
     9
100
AcDbLine
 10
-667.4170418050949
 20
741.7631694406114
 30
0.0
 11
-667.4170418050949
 21
732.8661694406117
 31
0.0
  0
LINE
  5
520
330
1F
100
AcDbEntity
  8
0239_詳細図（細
  6
Continuous
 62
     3
370
     9
100
AcDbLine
 10
-672.3667892734006
 20
741.7631694406114
 30
0.0
 11
-672.3667892734006
 21
732.8661694406117
 31
0.0
  0
LINE
  5
521
330
1F
100
AcDbEntity
  8
0239_詳細図（細
  6
Continuous
 62
     3
370
     9
100
AcDbLine
 10
-677.3165367417064
 20
724.8661694406115
 30
0.0
 11
-677.3165367417064
 21
715.9691694406117
 31
0.0
  0
LINE
  5
522
330
1F
100
AcDbEntity
  8
0239_詳細図（細
  6
Continuous
 62
     3
370
     9
100
AcDbLine
 10
-667.4170418050949
 20
724.8661694406115
 30
0.0
 11
-667.4170418050949
 21
715.9691694406117
 31
0.0
  0
LINE
  5
523
330
1F
100
AcDbEntity
  8
0239_詳細図（細
  6
Continuous
 62
     3
370
     9
100
AcDbLine
 10
-672.3667892734006
 20
724.8661694406115
 30
0.0
 11
-672.3667892734006
 21
715.9691694406117
 31
0.0
  0
LINE
  5
524
330
1F
100
AcDbEntity
  8
0239_詳細図（細
  6
Continuous
 62
     3
370
     9
100
AcDbLine
 10
-677.3165367417064
 20
707.9691694406117
 30
0.0
 11
-677.3165367417064
 21
699.0721694406119
 31
0.0
  0
LINE
  5
525
330
1F
100
AcDbEntity
  8
0239_詳細図（細
  6
Continuous
 62
     3
370
     9
100
AcDbLine
 10
-667.4170418050949
 20
707.9691694406117
 30
0.0
 11
-667.4170418050949
 21
699.0721694406119
 31
0.0
  0
LINE
  5
526
330
1F
100
AcDbEntity
  8
0239_詳細図（細
  6
Continuous
 62
     3
370
     9
100
AcDbLine
 10
-672.3667892734006
 20
707.9691694406117
 30
0.0
 11
-672.3667892734006
 21
699.0721694406119
 31
0.0
  0
LINE
  5
527
330
1F
100
AcDbEntity
  8
0239_詳細図（細
  6
Continuous
 62
     3
370
     9
100
AcDbLine
 10
-677.3165367417064
 20
691.0721694406118
 30
0.0
 11
-677.3165367417064
 21
682.1751694406121
 31
0.0
  0
LINE
  5
528
330
1F
100
AcDbEntity
  8
0239_詳細図（細
  6
Continuous
 62
     3
370
     9
100
AcDbLine
 10
-667.4170418050949
 20
691.0721694406118
 30
0.0
 11
-667.4170418050949
 21
682.1751694406121
 31
0.0
  0
LINE
  5
529
330
1F
100
AcDbEntity
  8
0239_詳細図（細
  6
Continuous
 62
     3
370
     9
100
AcDbLine
 10
-672.3667892734006
 20
691.0721694406118
 30
0.0
 11
-672.3667892734006
 21
682.1751694406121
 31
0.0
  0
LINE
  5
52A
330
1F
100
AcDbEntity
  8
0239_詳細図（細
  6
Continuous
 62
     3
370
     9
100
AcDbLine
 10
-677.3165367417064
 20
674.1751694406119
 30
0.0
 11
-677.3165367417064
 21
665.2781694406121
 31
0.0
  0
LINE
  5
52B
330
1F
100
AcDbEntity
  8
0239_詳細図（細
  6
Continuous
 62
     3
370
     9
100
AcDbLine
 10
-667.4170418050949
 20
674.1751694406119
 30
0.0
 11
-667.4170418050949
 21
665.2781694406121
 31
0.0
  0
LINE
  5
52C
330
1F
100
AcDbEntity
  8
0239_詳細図（細
  6
Continuous
 62
     3
370
     9
100
AcDbLine
 10
-672.3667892734006
 20
674.1751694406119
 30
0.0
 11
-672.3667892734006
 21
665.2781694406121
 31
0.0
  0
LINE
  5
52D
330
1F
100
AcDbEntity
  8
0239_詳細図（細
  6
Continuous
 62
     3
370
     9
100
AcDbLine
 10
-677.3165367417064
 20
657.278169440612
 30
0.0
 11
-677.3165367417064
 21
648.3811694406122
 31
0.0
  0
LINE
  5
52E
330
1F
100
AcDbEntity
  8
0239_詳細図（細
  6
Continuous
 62
     3
370
     9
100
AcDbLine
 10
-667.4170418050949
 20
657.278169440612
 30
0.0
 11
-667.4170418050949
 21
648.3811694406122
 31
0.0
  0
LINE
  5
52F
330
1F
100
AcDbEntity
  8
0239_詳細図（細
  6
Continuous
 62
     3
370
     9
100
AcDbLine
 10
-672.3667892734006
 20
657.278169440612
 30
0.0
 11
-672.3667892734006
 21
648.3811694406122
 31
0.0
  0
LINE
  5
530
330
1F
100
AcDbEntity
  8
0239_詳細図（細
  6
Continuous
 62
     3
370
     9
100
AcDbLine
 10
-677.3165367417064
 20
640.3811694406122
 30
0.0
 11
-677.3165367417064
 21
631.4841694406124
 31
0.0
  0
LINE
  5
531
330
1F
100
AcDbEntity
  8
0239_詳細図（細
  6
Continuous
 62
     3
370
     9
100
AcDbLine
 10
-667.4170418050949
 20
640.3811694406122
 30
0.0
 11
-667.4170418050949
 21
631.4841694406124
 31
0.0
  0
LINE
  5
532
330
1F
100
AcDbEntity
  8
0239_詳細図（細
  6
Continuous
 62
     3
370
     9
100
AcDbLine
 10
-672.3667892734006
 20
640.3811694406122
 30
0.0
 11
-672.3667892734006
 21
631.4841694406124
 31
0.0
  0
LINE
  5
533
330
1F
100
AcDbEntity
  8
0239_詳細図（細
  6
Continuous
 62
     3
370
     9
100
AcDbLine
 10
-597.3165367417064
 20
944.5271694406099
 30
0.0
 11
-597.3165367417064
 21
935.6301694406102
 31
0.0
  0
LINE
  5
534
330
1F
100
AcDbEntity
  8
0239_詳細図（細
  6
Continuous
 62
     3
370
     9
100
AcDbLine
 10
-587.4170418050949
 20
944.5271694406099
 30
0.0
 11
-587.4170418050949
 21
935.6301694406102
 31
0.0
  0
LINE
  5
535
330
1F
100
AcDbEntity
  8
0239_詳細図（細
  6
Continuous
 62
     3
370
     9
100
AcDbLine
 10
-592.3667892734006
 20
944.5271694406099
 30
0.0
 11
-592.3667892734006
 21
935.6301694406102
 31
0.0
  0
LINE
  5
536
330
1F
100
AcDbEntity
  8
0239_詳細図（細
  6
Continuous
 62
     3
370
     9
100
AcDbLine
 10
-597.3165367417064
 20
927.6301694406101
 30
0.0
 11
-597.3165367417064
 21
918.7331694406103
 31
0.0
  0
LINE
  5
537
330
1F
100
AcDbEntity
  8
0239_詳細図（細
  6
Continuous
 62
     3
370
     9
100
AcDbLine
 10
-587.4170418050949
 20
927.6301694406101
 30
0.0
 11
-587.4170418050949
 21
918.7331694406103
 31
0.0
  0
LINE
  5
538
330
1F
100
AcDbEntity
  8
0239_詳細図（細
  6
Continuous
 62
     3
370
     9
100
AcDbLine
 10
-592.3667892734006
 20
927.6301694406101
 30
0.0
 11
-592.3667892734006
 21
918.7331694406103
 31
0.0
  0
LINE
  5
539
330
1F
100
AcDbEntity
  8
0239_詳細図（細
  6
Continuous
 62
     3
370
     9
100
AcDbLine
 10
-597.3165367417064
 20
910.7331694406103
 30
0.0
 11
-597.3165367417064
 21
901.8361694406104
 31
0.0
  0
LINE
  5
53A
330
1F
100
AcDbEntity
  8
0239_詳細図（細
  6
Continuous
 62
     3
370
     9
100
AcDbLine
 10
-587.4170418050949
 20
910.7331694406103
 30
0.0
 11
-587.4170418050949
 21
901.8361694406104
 31
0.0
  0
LINE
  5
53B
330
1F
100
AcDbEntity
  8
0239_詳細図（細
  6
Continuous
 62
     3
370
     9
100
AcDbLine
 10
-592.3667892734006
 20
910.7331694406103
 30
0.0
 11
-592.3667892734006
 21
901.8361694406104
 31
0.0
  0
LINE
  5
53C
330
1F
100
AcDbEntity
  8
0239_詳細図（細
  6
Continuous
 62
     3
370
     9
100
AcDbLine
 10
-597.3165367417064
 20
893.8361694406103
 30
0.0
 11
-597.3165367417064
 21
884.9391694406106
 31
0.0
  0
LINE
  5
53D
330
1F
100
AcDbEntity
  8
0239_詳細図（細
  6
Continuous
 62
     3
370
     9
100
AcDbLine
 10
-587.4170418050949
 20
893.8361694406103
 30
0.0
 11
-587.4170418050949
 21
884.9391694406106
 31
0.0
  0
LINE
  5
53E
330
1F
100
AcDbEntity
  8
0239_詳細図（細
  6
Continuous
 62
     3
370
     9
100
AcDbLine
 10
-592.3667892734006
 20
893.8361694406103
 30
0.0
 11
-592.3667892734006
 21
884.9391694406106
 31
0.0
  0
LINE
  5
53F
330
1F
100
AcDbEntity
  8
0239_詳細図（細
  6
Continuous
 62
     3
370
     9
100
AcDbLine
 10
-597.3165367417064
 20
876.9391694406104
 30
0.0
 11
-597.3165367417064
 21
868.0421694406107
 31
0.0
  0
LINE
  5
540
330
1F
100
AcDbEntity
  8
0239_詳細図（細
  6
Continuous
 62
     3
370
     9
100
AcDbLine
 10
-587.4170418050949
 20
876.9391694406104
 30
0.0
 11
-587.4170418050949
 21
868.0421694406107
 31
0.0
  0
LINE
  5
541
330
1F
100
AcDbEntity
  8
0239_詳細図（細
  6
Continuous
 62
     3
370
     9
100
AcDbLine
 10
-592.3667892734006
 20
876.9391694406104
 30
0.0
 11
-592.3667892734006
 21
868.0421694406107
 31
0.0
  0
LINE
  5
542
330
1F
100
AcDbEntity
  8
0239_詳細図（細
  6
Continuous
 62
     3
370
     9
100
AcDbLine
 10
-597.3165367417064
 20
860.0421694406106
 30
0.0
 11
-597.3165367417064
 21
851.1451694406107
 31
0.0
  0
LINE
  5
543
330
1F
100
AcDbEntity
  8
0239_詳細図（細
  6
Continuous
 62
     3
370
     9
100
AcDbLine
 10
-587.4170418050949
 20
860.0421694406106
 30
0.0
 11
-587.4170418050949
 21
851.1451694406107
 31
0.0
  0
LINE
  5
544
330
1F
100
AcDbEntity
  8
0239_詳細図（細
  6
Continuous
 62
     3
370
     9
100
AcDbLine
 10
-592.3667892734006
 20
860.0421694406106
 30
0.0
 11
-592.3667892734006
 21
851.1451694406107
 31
0.0
  0
LINE
  5
545
330
1F
100
AcDbEntity
  8
0239_詳細図（細
  6
Continuous
 62
     3
370
     9
100
AcDbLine
 10
-597.3165367417064
 20
843.1451694406107
 30
0.0
 11
-597.3165367417064
 21
834.2481694406109
 31
0.0
  0
LINE
  5
546
330
1F
100
AcDbEntity
  8
0239_詳細図（細
  6
Continuous
 62
     3
370
     9
100
AcDbLine
 10
-587.4170418050949
 20
843.1451694406107
 30
0.0
 11
-587.4170418050949
 21
834.2481694406109
 31
0.0
  0
LINE
  5
547
330
1F
100
AcDbEntity
  8
0239_詳細図（細
  6
Continuous
 62
     3
370
     9
100
AcDbLine
 10
-592.3667892734006
 20
843.1451694406107
 30
0.0
 11
-592.3667892734006
 21
834.2481694406109
 31
0.0
  0
LINE
  5
548
330
1F
100
AcDbEntity
  8
0239_詳細図（細
  6
Continuous
 62
     3
370
     9
100
AcDbLine
 10
-597.3165367417064
 20
826.2481694406108
 30
0.0
 11
-597.3165367417064
 21
817.3511694406111
 31
0.0
  0
LINE
  5
549
330
1F
100
AcDbEntity
  8
0239_詳細図（細
  6
Continuous
 62
     3
370
     9
100
AcDbLine
 10
-587.4170418050949
 20
826.2481694406108
 30
0.0
 11
-587.4170418050949
 21
817.3511694406111
 31
0.0
  0
LINE
  5
54A
330
1F
100
AcDbEntity
  8
0239_詳細図（細
  6
Continuous
 62
     3
370
     9
100
AcDbLine
 10
-592.3667892734006
 20
826.2481694406108
 30
0.0
 11
-592.3667892734006
 21
817.3511694406111
 31
0.0
  0
LINE
  5
54B
330
1F
100
AcDbEntity
  8
0239_詳細図（細
  6
Continuous
 62
     3
370
     9
100
AcDbLine
 10
-597.3165367417064
 20
809.3511694406109
 30
0.0
 11
-597.3165367417064
 21
800.4541694406112
 31
0.0
  0
LINE
  5
54C
330
1F
100
AcDbEntity
  8
0239_詳細図（細
  6
Continuous
 62
     3
370
     9
100
AcDbLine
 10
-587.4170418050949
 20
809.3511694406109
 30
0.0
 11
-587.4170418050949
 21
800.4541694406112
 31
0.0
  0
LINE
  5
54D
330
1F
100
AcDbEntity
  8
0239_詳細図（細
  6
Continuous
 62
     3
370
     9
100
AcDbLine
 10
-592.3667892734006
 20
809.3511694406109
 30
0.0
 11
-592.3667892734006
 21
800.4541694406112
 31
0.0
  0
LINE
  5
54E
330
1F
100
AcDbEntity
  8
0239_詳細図（細
  6
Continuous
 62
     3
370
     9
100
AcDbLine
 10
-597.3165367417064
 20
792.454169440611
 30
0.0
 11
-597.3165367417064
 21
783.5571694406112
 31
0.0
  0
LINE
  5
54F
330
1F
100
AcDbEntity
  8
0239_詳細図（細
  6
Continuous
 62
     3
370
     9
100
AcDbLine
 10
-587.4170418050949
 20
792.454169440611
 30
0.0
 11
-587.4170418050949
 21
783.5571694406112
 31
0.0
  0
LINE
  5
550
330
1F
100
AcDbEntity
  8
0239_詳細図（細
  6
Continuous
 62
     3
370
     9
100
AcDbLine
 10
-592.3667892734006
 20
792.454169440611
 30
0.0
 11
-592.3667892734006
 21
783.5571694406112
 31
0.0
  0
LINE
  5
551
330
1F
100
AcDbEntity
  8
0239_詳細図（細
  6
Continuous
 62
     3
370
     9
100
AcDbLine
 10
-597.3165367417064
 20
775.5571694406112
 30
0.0
 11
-597.3165367417064
 21
766.6601694406114
 31
0.0
  0
LINE
  5
552
330
1F
100
AcDbEntity
  8
0239_詳細図（細
  6
Continuous
 62
     3
370
     9
100
AcDbLine
 10
-587.4170418050949
 20
775.5571694406112
 30
0.0
 11
-587.4170418050949
 21
766.6601694406114
 31
0.0
  0
LINE
  5
553
330
1F
100
AcDbEntity
  8
0239_詳細図（細
  6
Continuous
 62
     3
370
     9
100
AcDbLine
 10
-592.3667892734006
 20
775.5571694406112
 30
0.0
 11
-592.3667892734006
 21
766.6601694406114
 31
0.0
  0
LINE
  5
554
330
1F
100
AcDbEntity
  8
0239_詳細図（細
  6
Continuous
 62
     3
370
     9
100
AcDbLine
 10
-597.3165367417064
 20
758.6601694406113
 30
0.0
 11
-597.3165367417064
 21
749.7631694406116
 31
0.0
  0
LINE
  5
555
330
1F
100
AcDbEntity
  8
0239_詳細図（細
  6
Continuous
 62
     3
370
     9
100
AcDbLine
 10
-587.4170418050949
 20
758.6601694406113
 30
0.0
 11
-587.4170418050949
 21
749.7631694406116
 31
0.0
  0
LINE
  5
556
330
1F
100
AcDbEntity
  8
0239_詳細図（細
  6
Continuous
 62
     3
370
     9
100
AcDbLine
 10
-592.3667892734006
 20
758.6601694406113
 30
0.0
 11
-592.3667892734006
 21
749.7631694406116
 31
0.0
  0
LINE
  5
557
330
1F
100
AcDbEntity
  8
0239_詳細図（細
  6
Continuous
 62
     3
370
     9
100
AcDbLine
 10
-597.3165367417064
 20
741.7631694406114
 30
0.0
 11
-597.3165367417064
 21
732.8661694406117
 31
0.0
  0
LINE
  5
558
330
1F
100
AcDbEntity
  8
0239_詳細図（細
  6
Continuous
 62
     3
370
     9
100
AcDbLine
 10
-587.4170418050949
 20
741.7631694406114
 30
0.0
 11
-587.4170418050949
 21
732.8661694406117
 31
0.0
  0
LINE
  5
559
330
1F
100
AcDbEntity
  8
0239_詳細図（細
  6
Continuous
 62
     3
370
     9
100
AcDbLine
 10
-592.3667892734006
 20
741.7631694406114
 30
0.0
 11
-592.3667892734006
 21
732.8661694406117
 31
0.0
  0
LINE
  5
55A
330
1F
100
AcDbEntity
  8
0239_詳細図（細
  6
Continuous
 62
     3
370
     9
100
AcDbLine
 10
-597.3165367417064
 20
724.8661694406115
 30
0.0
 11
-597.3165367417064
 21
715.9691694406117
 31
0.0
  0
LINE
  5
55B
330
1F
100
AcDbEntity
  8
0239_詳細図（細
  6
Continuous
 62
     3
370
     9
100
AcDbLine
 10
-587.4170418050949
 20
724.8661694406115
 30
0.0
 11
-587.4170418050949
 21
715.9691694406117
 31
0.0
  0
LINE
  5
55C
330
1F
100
AcDbEntity
  8
0239_詳細図（細
  6
Continuous
 62
     3
370
     9
100
AcDbLine
 10
-592.3667892734006
 20
724.8661694406115
 30
0.0
 11
-592.3667892734006
 21
715.9691694406117
 31
0.0
  0
LINE
  5
55D
330
1F
100
AcDbEntity
  8
0239_詳細図（細
  6
Continuous
 62
     3
370
     9
100
AcDbLine
 10
-915.3667991709937
 20
953.8661694406117
 30
0.0
 11
-909.3667793758077
 21
953.8661694406117
 31
0.0
  0
LINE
  5
55E
330
1F
100
AcDbEntity
  8
0239_詳細図（細
  6
Continuous
 62
     3
370
     9
100
AcDbLine
 10
-915.3667991709937
 20
953.8661694406117
 30
0.0
 11
-917.1071413622071
 21
952.5271694406101
 31
0.0
  0
LINE
  5
55F
330
1F
100
AcDbEntity
  8
0239_詳細図（細
  6
Continuous
 62
     3
370
     9
100
AcDbLine
 10
-909.3667793758077
 20
953.8661694406117
 30
0.0
 11
-907.6264371845941
 21
952.5271694406101
 31
0.0
  0
ARC
  5
560
330
1F
100
AcDbEntity
  8
0239_詳細図（細
  6
Continuous
 62
     3
370
     9
100
AcDbCircle
 10
-914.3124085987806
 20
948.3691453168788
 30
0.0
 40
5.000000644374538
100
AcDbArc
 50
92.01400756835946
 51
123.736064100288
  0
ARC
  5
561
330
1F
100
AcDbEntity
  8
0239_詳細図（細
  6
Continuous
 62
     3
370
     9
100
AcDbCircle
 10
-914.6048824691353
 20
950.3683601078412
 30
0.0
 40
3.000000038662472
100
AcDbArc
 50
46.0217214916906
 51
87.76651000976574
  0
ARC
  5
562
330
1F
100
AcDbEntity
  8
0239_詳細図（細
  6
Continuous
 62
     3
370
     9
100
AcDbCircle
 10
-910.1286960776661
 20
950.3683601078412
 30
0.0
 40
3.000000038662472
100
AcDbArc
 50
92.23348999023446
 51
133.9782785083094
  0
ARC
  5
563
330
1F
100
AcDbEntity
  8
0239_詳細図（細
  6
Continuous
 62
     3
370
     9
100
AcDbCircle
 10
-910.4211699480207
 20
948.3691453168788
 30
0.0
 40
5.000000644374538
100
AcDbArc
 50
56.26393589971201
 51
87.98599243164075
  0
LINE
  5
564
330
1F
100
AcDbEntity
  8
0239_詳細図（細
  6
Continuous
 62
     3
370
     9
100
AcDbLine
 10
-835.3667991709937
 20
953.8661694406117
 30
0.0
 11
-829.3667793758077
 21
953.8661694406117
 31
0.0
  0
LINE
  5
565
330
1F
100
AcDbEntity
  8
0239_詳細図（細
  6
Continuous
 62
     3
370
     9
100
AcDbLine
 10
-835.3667991709937
 20
953.8661694406117
 30
0.0
 11
-837.1071413622071
 21
952.5271694406101
 31
0.0
  0
LINE
  5
566
330
1F
100
AcDbEntity
  8
0239_詳細図（細
  6
Continuous
 62
     3
370
     9
100
AcDbLine
 10
-829.3667793758077
 20
953.8661694406117
 30
0.0
 11
-827.6264371845941
 21
952.5271694406101
 31
0.0
  0
ARC
  5
567
330
1F
100
AcDbEntity
  8
0239_詳細図（細
  6
Continuous
 62
     3
370
     9
100
AcDbCircle
 10
-834.3124085987806
 20
948.3691453168788
 30
0.0
 40
5.000000644374538
100
AcDbArc
 50
92.01400756835946
 51
123.736064100288
  0
ARC
  5
568
330
1F
100
AcDbEntity
  8
0239_詳細図（細
  6
Continuous
 62
     3
370
     9
100
AcDbCircle
 10
-834.6048824691353
 20
950.3683601078412
 30
0.0
 40
3.000000038662472
100
AcDbArc
 50
46.0217214916906
 51
87.76651000976574
  0
ARC
  5
569
330
1F
100
AcDbEntity
  8
0239_詳細図（細
  6
Continuous
 62
     3
370
     9
100
AcDbCircle
 10
-830.1286960776661
 20
950.3683601078412
 30
0.0
 40
3.000000038662472
100
AcDbArc
 50
92.23348999023446
 51
133.9782785083094
  0
ARC
  5
56A
330
1F
100
AcDbEntity
  8
0239_詳細図（細
  6
Continuous
 62
     3
370
     9
100
AcDbCircle
 10
-830.4211699480207
 20
948.3691453168788
 30
0.0
 40
5.000000644374538
100
AcDbArc
 50
56.26393589971201
 51
87.98599243164075
  0
LINE
  5
56B
330
1F
100
AcDbEntity
  8
0239_詳細図（細
  6
Continuous
 62
     3
370
     9
100
AcDbLine
 10
-755.3667991709937
 20
953.8661694406117
 30
0.0
 11
-749.3667793758077
 21
953.8661694406117
 31
0.0
  0
LINE
  5
56C
330
1F
100
AcDbEntity
  8
0239_詳細図（細
  6
Continuous
 62
     3
370
     9
100
AcDbLine
 10
-755.3667991709937
 20
953.8661694406117
 30
0.0
 11
-757.1071413622071
 21
952.5271694406101
 31
0.0
  0
LINE
  5
56D
330
1F
100
AcDbEntity
  8
0239_詳細図（細
  6
Continuous
 62
     3
370
     9
100
AcDbLine
 10
-749.3667793758077
 20
953.8661694406117
 30
0.0
 11
-747.6264371845941
 21
952.5271694406101
 31
0.0
  0
ARC
  5
56E
330
1F
100
AcDbEntity
  8
0239_詳細図（細
  6
Continuous
 62
     3
370
     9
100
AcDbCircle
 10
-754.3124085987806
 20
948.3691453168788
 30
0.0
 40
5.000000644374538
100
AcDbArc
 50
92.01400756835946
 51
123.736064100288
  0
ARC
  5
56F
330
1F
100
AcDbEntity
  8
0239_詳細図（細
  6
Continuous
 62
     3
370
     9
100
AcDbCircle
 10
-754.6048824691353
 20
950.3683601078412
 30
0.0
 40
3.000000038662472
100
AcDbArc
 50
46.0217214916906
 51
87.76651000976574
  0
ARC
  5
570
330
1F
100
AcDbEntity
  8
0239_詳細図（細
  6
Continuous
 62
     3
370
     9
100
AcDbCircle
 10
-750.1286960776661
 20
950.3683601078412
 30
0.0
 40
3.000000038662472
100
AcDbArc
 50
92.23348999023446
 51
133.9782785083094
  0
ARC
  5
571
330
1F
100
AcDbEntity
  8
0239_詳細図（細
  6
Continuous
 62
     3
370
     9
100
AcDbCircle
 10
-750.4211699480207
 20
948.3691453168788
 30
0.0
 40
5.000000644374538
100
AcDbArc
 50
56.26393589971201
 51
87.98599243164075
  0
LINE
  5
572
330
1F
100
AcDbEntity
  8
0239_詳細図（細
  6
Continuous
 62
     3
370
     9
100
AcDbLine
 10
-675.3667991709937
 20
953.8661694406117
 30
0.0
 11
-669.3667793758077
 21
953.8661694406117
 31
0.0
  0
LINE
  5
573
330
1F
100
AcDbEntity
  8
0239_詳細図（細
  6
Continuous
 62
     3
370
     9
100
AcDbLine
 10
-675.3667991709937
 20
953.8661694406117
 30
0.0
 11
-677.1071413622071
 21
952.5271694406101
 31
0.0
  0
LINE
  5
574
330
1F
100
AcDbEntity
  8
0239_詳細図（細
  6
Continuous
 62
     3
370
     9
100
AcDbLine
 10
-669.3667793758077
 20
953.8661694406117
 30
0.0
 11
-667.6264371845941
 21
952.5271694406101
 31
0.0
  0
ARC
  5
575
330
1F
100
AcDbEntity
  8
0239_詳細図（細
  6
Continuous
 62
     3
370
     9
100
AcDbCircle
 10
-674.3124085987806
 20
948.3691453168788
 30
0.0
 40
5.000000644374538
100
AcDbArc
 50
92.01400756835946
 51
123.736064100288
  0
ARC
  5
576
330
1F
100
AcDbEntity
  8
0239_詳細図（細
  6
Continuous
 62
     3
370
     9
100
AcDbCircle
 10
-674.6048824691353
 20
950.3683601078412
 30
0.0
 40
3.000000038662472
100
AcDbArc
 50
46.0217214916906
 51
87.76651000976574
  0
ARC
  5
577
330
1F
100
AcDbEntity
  8
0239_詳細図（細
  6
Continuous
 62
     3
370
     9
100
AcDbCircle
 10
-670.1286960776661
 20
950.3683601078412
 30
0.0
 40
3.000000038662472
100
AcDbArc
 50
92.23348999023446
 51
133.9782785083094
  0
ARC
  5
578
330
1F
100
AcDbEntity
  8
0239_詳細図（細
  6
Continuous
 62
     3
370
     9
100
AcDbCircle
 10
-670.4211699480207
 20
948.3691453168788
 30
0.0
 40
5.000000644374538
100
AcDbArc
 50
56.26393589971201
 51
87.98599243164075
  0
LINE
  5
579
330
1F
100
AcDbEntity
  8
0239_詳細図（細
  6
Continuous
 62
     3
370
     9
100
AcDbLine
 10
-595.3667991709937
 20
953.8661694406117
 30
0.0
 11
-589.3667793758077
 21
953.8661694406117
 31
0.0
  0
LINE
  5
57A
330
1F
100
AcDbEntity
  8
0239_詳細図（細
  6
Continuous
 62
     3
370
     9
100
AcDbLine
 10
-595.3667991709937
 20
953.8661694406117
 30
0.0
 11
-597.1071413622071
 21
952.5271694406101
 31
0.0
  0
LINE
  5
57B
330
1F
100
AcDbEntity
  8
0239_詳細図（細
  6
Continuous
 62
     3
370
     9
100
AcDbLine
 10
-589.3667793758077
 20
953.8661694406117
 30
0.0
 11
-587.6264371845941
 21
952.5271694406101
 31
0.0
  0
ARC
  5
57C
330
1F
100
AcDbEntity
  8
0239_詳細図（細
  6
Continuous
 62
     3
370
     9
100
AcDbCircle
 10
-594.3124085987806
 20
948.3691453168788
 30
0.0
 40
5.000000644374538
100
AcDbArc
 50
92.01400756835946
 51
123.736064100288
  0
ARC
  5
57D
330
1F
100
AcDbEntity
  8
0239_詳細図（細
  6
Continuous
 62
     3
370
     9
100
AcDbCircle
 10
-594.6048824691353
 20
950.3683601078412
 30
0.0
 40
3.000000038662472
100
AcDbArc
 50
46.0217214916906
 51
87.76651000976574
  0
ARC
  5
57E
330
1F
100
AcDbEntity
  8
0239_詳細図（細
  6
Continuous
 62
     3
370
     9
100
AcDbCircle
 10
-590.1286960776661
 20
950.3683601078412
 30
0.0
 40
3.000000038662472
100
AcDbArc
 50
92.23348999023446
 51
133.9782785083094
  0
ARC
  5
57F
330
1F
100
AcDbEntity
  8
0239_詳細図（細
  6
Continuous
 62
     3
370
     9
100
AcDbCircle
 10
-590.4211699480207
 20
948.3691453168788
 30
0.0
 40
5.000000644374538
100
AcDbArc
 50
56.26393589971201
 51
87.98599243164075
  0
LINE
  5
580
330
1F
100
AcDbEntity
  8
0239_詳細図（細
  6
Continuous
 62
     3
370
     9
100
AcDbLine
 10
-915.3667991709937
 20
503.8661694406116
 30
0.0
 11
-909.3667793758077
 21
503.8661694406116
 31
0.0
  0
LINE
  5
581
330
1F
100
AcDbEntity
  8
0239_詳細図（細
  6
Continuous
 62
     3
370
     9
100
AcDbLine
 10
-915.3667991709937
 20
503.8661694406116
 30
0.0
 11
-917.1071413622071
 21
505.2051694406131
 31
0.0
  0
LINE
  5
582
330
1F
100
AcDbEntity
  8
0239_詳細図（細
  6
Continuous
 62
     3
370
     9
100
AcDbLine
 10
-909.3667793758077
 20
503.8661694406116
 30
0.0
 11
-907.6264371845941
 21
505.2051694406131
 31
0.0
  0
ARC
  5
583
330
1F
100
AcDbEntity
  8
0239_詳細図（細
  6
Continuous
 62
     3
370
     9
100
AcDbCircle
 10
-914.3124085987806
 20
509.3631935643444
 30
0.0
 40
5.000000644374538
100
AcDbArc
 50
236.263935899712
 51
267.9859924316406
  0
ARC
  5
584
330
1F
100
AcDbEntity
  8
0239_詳細図（細
  6
Continuous
 62
     3
370
     9
100
AcDbCircle
 10
-914.6048824691353
 20
507.3639787733819
 30
0.0
 40
3.000000038662471
100
AcDbArc
 50
272.2334899902343
 51
313.9782785083094
  0
ARC
  5
585
330
1F
100
AcDbEntity
  8
0239_詳細図（細
  6
Continuous
 62
     3
370
     9
100
AcDbCircle
 10
-910.1286960776661
 20
507.3639787733819
 30
0.0
 40
3.000000038662471
100
AcDbArc
 50
226.0217214916906
 51
267.7665100097655
  0
ARC
  5
586
330
1F
100
AcDbEntity
  8
0239_詳細図（細
  6
Continuous
 62
     3
370
     9
100
AcDbCircle
 10
-910.4211699480207
 20
509.3631935643444
 30
0.0
 40
5.000000644374538
100
AcDbArc
 50
272.0140075683593
 51
303.736064100288
  0
LINE
  5
587
330
1F
100
AcDbEntity
  8
0239_詳細図（細
  6
Continuous
 62
     3
370
     9
100
AcDbLine
 10
-835.3667991709937
 20
503.8661694406116
 30
0.0
 11
-829.3667793758077
 21
503.8661694406116
 31
0.0
  0
LINE
  5
588
330
1F
100
AcDbEntity
  8
0239_詳細図（細
  6
Continuous
 62
     3
370
     9
100
AcDbLine
 10
-835.3667991709937
 20
503.8661694406116
 30
0.0
 11
-837.1071413622071
 21
505.2051694406131
 31
0.0
  0
LINE
  5
589
330
1F
100
AcDbEntity
  8
0239_詳細図（細
  6
Continuous
 62
     3
370
     9
100
AcDbLine
 10
-829.3667793758077
 20
503.8661694406116
 30
0.0
 11
-827.6264371845941
 21
505.2051694406131
 31
0.0
  0
ARC
  5
58A
330
1F
100
AcDbEntity
  8
0239_詳細図（細
  6
Continuous
 62
     3
370
     9
100
AcDbCircle
 10
-834.3124085987806
 20
509.3631935643444
 30
0.0
 40
5.000000644374538
100
AcDbArc
 50
236.263935899712
 51
267.9859924316406
  0
ARC
  5
58B
330
1F
100
AcDbEntity
  8
0239_詳細図（細
  6
Continuous
 62
     3
370
     9
100
AcDbCircle
 10
-834.6048824691353
 20
507.3639787733819
 30
0.0
 40
3.000000038662471
100
AcDbArc
 50
272.2334899902343
 51
313.9782785083094
  0
ARC
  5
58C
330
1F
100
AcDbEntity
  8
0239_詳細図（細
  6
Continuous
 62
     3
370
     9
100
AcDbCircle
 10
-830.1286960776661
 20
507.3639787733819
 30
0.0
 40
3.000000038662471
100
AcDbArc
 50
226.0217214916906
 51
267.7665100097655
  0
ARC
  5
58D
330
1F
100
AcDbEntity
  8
0239_詳細図（細
  6
Continuous
 62
     3
370
     9
100
AcDbCircle
 10
-830.4211699480207
 20
509.3631935643444
 30
0.0
 40
5.000000644374538
100
AcDbArc
 50
272.0140075683593
 51
303.736064100288
  0
LINE
  5
58E
330
1F
100
AcDbEntity
  8
0239_詳細図（細
  6
Continuous
 62
     3
370
     9
100
AcDbLine
 10
-597.3165367417064
 20
691.0721694406118
 30
0.0
 11
-597.3165367417064
 21
682.1751694406121
 31
0.0
  0
LINE
  5
58F
330
1F
100
AcDbEntity
  8
0239_詳細図（細
  6
Continuous
 62
     3
370
     9
100
AcDbLine
 10
-587.4170418050949
 20
691.0721694406118
 30
0.0
 11
-587.4170418050949
 21
682.1751694406121
 31
0.0
  0
LINE
  5
590
330
1F
100
AcDbEntity
  8
0239_詳細図（細
  6
Continuous
 62
     3
370
     9
100
AcDbLine
 10
-592.3667892734006
 20
691.0721694406118
 30
0.0
 11
-592.3667892734006
 21
682.1751694406121
 31
0.0
  0
LINE
  5
591
330
1F
100
AcDbEntity
  8
0239_詳細図（細
  6
Continuous
 62
     3
370
     9
100
AcDbLine
 10
-597.3165367417064
 20
674.1751694406119
 30
0.0
 11
-597.3165367417064
 21
665.2781694406121
 31
0.0
  0
LINE
  5
592
330
1F
100
AcDbEntity
  8
0239_詳細図（細
  6
Continuous
 62
     3
370
     9
100
AcDbLine
 10
-587.4170418050949
 20
674.1751694406119
 30
0.0
 11
-587.4170418050949
 21
665.2781694406121
 31
0.0
  0
LINE
  5
593
330
1F
100
AcDbEntity
  8
0239_詳細図（細
  6
Continuous
 62
     3
370
     9
100
AcDbLine
 10
-592.3667892734006
 20
674.1751694406119
 30
0.0
 11
-592.3667892734006
 21
665.2781694406121
 31
0.0
  0
LINE
  5
594
330
1F
100
AcDbEntity
  8
0239_詳細図（細
  6
Continuous
 62
     3
370
     9
100
AcDbLine
 10
-597.3165367417064
 20
657.278169440612
 30
0.0
 11
-597.3165367417064
 21
648.3811694406122
 31
0.0
  0
LINE
  5
595
330
1F
100
AcDbEntity
  8
0239_詳細図（細
  6
Continuous
 62
     3
370
     9
100
AcDbLine
 10
-587.4170418050949
 20
657.278169440612
 30
0.0
 11
-587.4170418050949
 21
648.3811694406122
 31
0.0
  0
LINE
  5
596
330
1F
100
AcDbEntity
  8
0239_詳細図（細
  6
Continuous
 62
     3
370
     9
100
AcDbLine
 10
-592.3667892734006
 20
657.278169440612
 30
0.0
 11
-592.3667892734006
 21
648.3811694406122
 31
0.0
  0
LINE
  5
597
330
1F
100
AcDbEntity
  8
0239_詳細図（細
  6
Continuous
 62
     3
370
     9
100
AcDbLine
 10
-597.3165367417064
 20
640.3811694406122
 30
0.0
 11
-597.3165367417064
 21
631.4841694406124
 31
0.0
  0
LINE
  5
598
330
1F
100
AcDbEntity
  8
0239_詳細図（細
  6
Continuous
 62
     3
370
     9
100
AcDbLine
 10
-587.4170418050949
 20
640.3811694406122
 30
0.0
 11
-587.4170418050949
 21
631.4841694406124
 31
0.0
  0
LINE
  5
599
330
1F
100
AcDbEntity
  8
0239_詳細図（細
  6
Continuous
 62
     3
370
     9
100
AcDbLine
 10
-592.3667892734006
 20
640.3811694406122
 30
0.0
 11
-592.3667892734006
 21
631.4841694406124
 31
0.0
  0
LINE
  5
59A
330
1F
100
AcDbEntity
  8
0239_詳細図（細
  6
Continuous
 62
     3
370
     9
100
AcDbLine
 10
-597.3165367417064
 20
623.4841694406123
 30
0.0
 11
-597.3165367417064
 21
614.5871694406126
 31
0.0
  0
LINE
  5
59B
330
1F
100
AcDbEntity
  8
0239_詳細図（細
  6
Continuous
 62
     3
370
     9
100
AcDbLine
 10
-587.4170418050949
 20
623.4841694406123
 30
0.0
 11
-587.4170418050949
 21
614.5871694406126
 31
0.0
  0
LINE
  5
59C
330
1F
100
AcDbEntity
  8
0239_詳細図（細
  6
Continuous
 62
     3
370
     9
100
AcDbLine
 10
-592.3667892734006
 20
623.4841694406123
 30
0.0
 11
-592.3667892734006
 21
614.5871694406126
 31
0.0
  0
LINE
  5
59D
330
1F
100
AcDbEntity
  8
0239_詳細図（細
  6
Continuous
 62
     3
370
     9
100
AcDbLine
 10
-597.3165367417064
 20
606.5871694406123
 30
0.0
 11
-597.3165367417064
 21
597.6901694406126
 31
0.0
  0
LINE
  5
59E
330
1F
100
AcDbEntity
  8
0239_詳細図（細
  6
Continuous
 62
     3
370
     9
100
AcDbLine
 10
-587.4170418050949
 20
606.5871694406123
 30
0.0
 11
-587.4170418050949
 21
597.6901694406126
 31
0.0
  0
LINE
  5
59F
330
1F
100
AcDbEntity
  8
0239_詳細図（細
  6
Continuous
 62
     3
370
     9
100
AcDbLine
 10
-592.3667892734006
 20
606.5871694406123
 30
0.0
 11
-592.3667892734006
 21
597.6901694406126
 31
0.0
  0
LINE
  5
5A0
330
1F
100
AcDbEntity
  8
0239_詳細図（細
  6
Continuous
 62
     3
370
     9
100
AcDbLine
 10
-597.3165367417064
 20
589.6901694406125
 30
0.0
 11
-597.3165367417064
 21
580.7931694406127
 31
0.0
  0
LINE
  5
5A1
330
1F
100
AcDbEntity
  8
0239_詳細図（細
  6
Continuous
 62
     3
370
     9
100
AcDbLine
 10
-587.4170418050949
 20
589.6901694406125
 30
0.0
 11
-587.4170418050949
 21
580.7931694406127
 31
0.0
  0
LINE
  5
5A2
330
1F
100
AcDbEntity
  8
0239_詳細図（細
  6
Continuous
 62
     3
370
     9
100
AcDbLine
 10
-592.3667892734006
 20
589.6901694406125
 30
0.0
 11
-592.3667892734006
 21
580.7931694406127
 31
0.0
  0
LINE
  5
5A3
330
1F
100
AcDbEntity
  8
0239_詳細図（細
  6
Continuous
 62
     3
370
     9
100
AcDbLine
 10
-597.3165367417064
 20
572.7931694406127
 30
0.0
 11
-597.3165367417064
 21
563.8961694406129
 31
0.0
  0
LINE
  5
5A4
330
1F
100
AcDbEntity
  8
0239_詳細図（細
  6
Continuous
 62
     3
370
     9
100
AcDbLine
 10
-587.4170418050949
 20
572.7931694406127
 30
0.0
 11
-587.4170418050949
 21
563.8961694406129
 31
0.0
  0
LINE
  5
5A5
330
1F
100
AcDbEntity
  8
0239_詳細図（細
  6
Continuous
 62
     3
370
     9
100
AcDbLine
 10
-592.3667892734006
 20
572.7931694406127
 30
0.0
 11
-592.3667892734006
 21
563.8961694406129
 31
0.0
  0
LINE
  5
5A6
330
1F
100
AcDbEntity
  8
0239_詳細図（細
  6
Continuous
 62
     3
370
     9
100
AcDbLine
 10
-597.3165367417064
 20
555.8961694406128
 30
0.0
 11
-597.3165367417064
 21
546.9991694406131
 31
0.0
  0
LINE
  5
5A7
330
1F
100
AcDbEntity
  8
0239_詳細図（細
  6
Continuous
 62
     3
370
     9
100
AcDbLine
 10
-587.4170418050949
 20
555.8961694406128
 30
0.0
 11
-587.4170418050949
 21
546.9991694406131
 31
0.0
  0
LINE
  5
5A8
330
1F
100
AcDbEntity
  8
0239_詳細図（細
  6
Continuous
 62
     3
370
     9
100
AcDbLine
 10
-592.3667892734006
 20
555.8961694406128
 30
0.0
 11
-592.3667892734006
 21
546.9991694406131
 31
0.0
  0
LINE
  5
5A9
330
1F
100
AcDbEntity
  8
0239_詳細図（細
  6
Continuous
 62
     3
370
     9
100
AcDbLine
 10
-597.3165367417064
 20
538.9991694406128
 30
0.0
 11
-597.3165367417064
 21
530.1021694406131
 31
0.0
  0
LINE
  5
5AA
330
1F
100
AcDbEntity
  8
0239_詳細図（細
  6
Continuous
 62
     3
370
     9
100
AcDbLine
 10
-587.4170418050949
 20
538.9991694406128
 30
0.0
 11
-587.4170418050949
 21
530.1021694406131
 31
0.0
  0
LINE
  5
5AB
330
1F
100
AcDbEntity
  8
0239_詳細図（細
  6
Continuous
 62
     3
370
     9
100
AcDbLine
 10
-592.3667892734006
 20
538.9991694406128
 30
0.0
 11
-592.3667892734006
 21
530.1021694406131
 31
0.0
  0
LINE
  5
5AC
330
1F
100
AcDbEntity
  8
0239_詳細図（細
  6
Continuous
 62
     3
370
     9
100
AcDbLine
 10
-597.3165367417064
 20
522.102169440613
 30
0.0
 11
-597.3165367417064
 21
513.2051694406132
 31
0.0
  0
LINE
  5
5AD
330
1F
100
AcDbEntity
  8
0239_詳細図（細
  6
Continuous
 62
     3
370
     9
100
AcDbLine
 10
-587.4170418050949
 20
522.102169440613
 30
0.0
 11
-587.4170418050949
 21
513.2051694406132
 31
0.0
  0
LINE
  5
5AE
330
1F
100
AcDbEntity
  8
0239_詳細図（細
  6
Continuous
 62
     3
370
     9
100
AcDbLine
 10
-592.3667892734006
 20
522.102169440613
 30
0.0
 11
-592.3667892734006
 21
513.2051694406132
 31
0.0
  0
LINE
  5
5AF
330
1F
100
AcDbEntity
  8
0239_詳細図（細
  6
Continuous
 62
     3
370
     9
100
AcDbLine
 10
-677.3165367417064
 20
606.5871694406123
 30
0.0
 11
-677.3165367417064
 21
597.6901694406126
 31
0.0
  0
LINE
  5
5B0
330
1F
100
AcDbEntity
  8
0239_詳細図（細
  6
Continuous
 62
     3
370
     9
100
AcDbLine
 10
-667.4170418050949
 20
606.5871694406123
 30
0.0
 11
-667.4170418050949
 21
597.6901694406126
 31
0.0
  0
LINE
  5
5B1
330
1F
100
AcDbEntity
  8
0239_詳細図（細
  6
Continuous
 62
     3
370
     9
100
AcDbLine
 10
-672.3667892734006
 20
606.5871694406123
 30
0.0
 11
-672.3667892734006
 21
597.6901694406126
 31
0.0
  0
LINE
  5
5B2
330
1F
100
AcDbEntity
  8
0239_詳細図（細
  6
Continuous
 62
     3
370
     9
100
AcDbLine
 10
-677.3165367417064
 20
589.6901694406125
 30
0.0
 11
-677.3165367417064
 21
580.7931694406127
 31
0.0
  0
LINE
  5
5B3
330
1F
100
AcDbEntity
  8
0239_詳細図（細
  6
Continuous
 62
     3
370
     9
100
AcDbLine
 10
-667.4170418050949
 20
589.6901694406125
 30
0.0
 11
-667.4170418050949
 21
580.7931694406127
 31
0.0
  0
LINE
  5
5B4
330
1F
100
AcDbEntity
  8
0239_詳細図（細
  6
Continuous
 62
     3
370
     9
100
AcDbLine
 10
-672.3667892734006
 20
589.6901694406125
 30
0.0
 11
-672.3667892734006
 21
580.7931694406127
 31
0.0
  0
LINE
  5
5B5
330
1F
100
AcDbEntity
  8
0239_詳細図（細
  6
Continuous
 62
     3
370
     9
100
AcDbLine
 10
-677.3165367417064
 20
572.7931694406127
 30
0.0
 11
-677.3165367417064
 21
563.8961694406129
 31
0.0
  0
LINE
  5
5B6
330
1F
100
AcDbEntity
  8
0239_詳細図（細
  6
Continuous
 62
     3
370
     9
100
AcDbLine
 10
-667.4170418050949
 20
572.7931694406127
 30
0.0
 11
-667.4170418050949
 21
563.8961694406129
 31
0.0
  0
LINE
  5
5B7
330
1F
100
AcDbEntity
  8
0239_詳細図（細
  6
Continuous
 62
     3
370
     9
100
AcDbLine
 10
-672.3667892734006
 20
572.7931694406127
 30
0.0
 11
-672.3667892734006
 21
563.8961694406129
 31
0.0
  0
LINE
  5
5B8
330
1F
100
AcDbEntity
  8
0239_詳細図（細
  6
Continuous
 62
     3
370
     9
100
AcDbLine
 10
-677.3165367417064
 20
555.8961694406128
 30
0.0
 11
-677.3165367417064
 21
546.9991694406131
 31
0.0
  0
LINE
  5
5B9
330
1F
100
AcDbEntity
  8
0239_詳細図（細
  6
Continuous
 62
     3
370
     9
100
AcDbLine
 10
-667.4170418050949
 20
555.8961694406128
 30
0.0
 11
-667.4170418050949
 21
546.9991694406131
 31
0.0
  0
LINE
  5
5BA
330
1F
100
AcDbEntity
  8
0239_詳細図（細
  6
Continuous
 62
     3
370
     9
100
AcDbLine
 10
-672.3667892734006
 20
555.8961694406128
 30
0.0
 11
-672.3667892734006
 21
546.9991694406131
 31
0.0
  0
LINE
  5
5BB
330
1F
100
AcDbEntity
  8
0239_詳細図（細
  6
Continuous
 62
     3
370
     9
100
AcDbLine
 10
-677.3165367417064
 20
538.9991694406128
 30
0.0
 11
-677.3165367417064
 21
530.1021694406131
 31
0.0
  0
LINE
  5
5BC
330
1F
100
AcDbEntity
  8
0239_詳細図（細
  6
Continuous
 62
     3
370
     9
100
AcDbLine
 10
-667.4170418050949
 20
538.9991694406128
 30
0.0
 11
-667.4170418050949
 21
530.1021694406131
 31
0.0
  0
LINE
  5
5BD
330
1F
100
AcDbEntity
  8
0239_詳細図（細
  6
Continuous
 62
     3
370
     9
100
AcDbLine
 10
-672.3667892734006
 20
538.9991694406128
 30
0.0
 11
-672.3667892734006
 21
530.1021694406131
 31
0.0
  0
LINE
  5
5BE
330
1F
100
AcDbEntity
  8
0239_詳細図（細
  6
Continuous
 62
     3
370
     9
100
AcDbLine
 10
-677.3165367417064
 20
522.102169440613
 30
0.0
 11
-677.3165367417064
 21
513.2051694406132
 31
0.0
  0
LINE
  5
5BF
330
1F
100
AcDbEntity
  8
0239_詳細図（細
  6
Continuous
 62
     3
370
     9
100
AcDbLine
 10
-667.4170418050949
 20
522.102169440613
 30
0.0
 11
-667.4170418050949
 21
513.2051694406132
 31
0.0
  0
LINE
  5
5C0
330
1F
100
AcDbEntity
  8
0239_詳細図（細
  6
Continuous
 62
     3
370
     9
100
AcDbLine
 10
-672.3667892734006
 20
522.102169440613
 30
0.0
 11
-672.3667892734006
 21
513.2051694406132
 31
0.0
  0
LINE
  5
5C1
330
1F
100
AcDbEntity
  8
0239_詳細図（細
  6
Continuous
 62
     3
370
     9
100
AcDbLine
 10
-747.4170418050949
 20
538.9991694406128
 30
0.0
 11
-747.4170418050949
 21
530.1021694406131
 31
0.0
  0
LINE
  5
5C2
330
1F
100
AcDbEntity
  8
0239_詳細図（細
  6
Continuous
 62
     3
370
     9
100
AcDbLine
 10
-757.3165367417064
 20
522.102169440613
 30
0.0
 11
-757.3165367417064
 21
513.2051694406132
 31
0.0
  0
LINE
  5
5C3
330
1F
100
AcDbEntity
  8
0239_詳細図（細
  6
Continuous
 62
     3
370
     9
100
AcDbLine
 10
-752.3667892734006
 20
522.102169440613
 30
0.0
 11
-752.3667892734006
 21
513.2051694406132
 31
0.0
  0
LINE
  5
5C4
330
1F
100
AcDbEntity
  8
0239_詳細図（細
  6
Continuous
 62
     3
370
     9
100
AcDbLine
 10
-747.4170418050949
 20
522.102169440613
 30
0.0
 11
-747.4170418050949
 21
513.2051694406132
 31
0.0
  0
LINE
  5
5C5
330
1F
100
AcDbEntity
  8
0239_詳細図（細
  6
Continuous
 62
     3
370
     9
100
AcDbLine
 10
-755.3667991709937
 20
503.8661694406116
 30
0.0
 11
-749.3667793758077
 21
503.8661694406116
 31
0.0
  0
LINE
  5
5C6
330
1F
100
AcDbEntity
  8
0239_詳細図（細
  6
Continuous
 62
     3
370
     9
100
AcDbLine
 10
-755.3667991709937
 20
503.8661694406116
 30
0.0
 11
-757.1071413622071
 21
505.2051694406131
 31
0.0
  0
LINE
  5
5C7
330
1F
100
AcDbEntity
  8
0239_詳細図（細
  6
Continuous
 62
     3
370
     9
100
AcDbLine
 10
-749.3667793758077
 20
503.8661694406116
 30
0.0
 11
-747.6264371845941
 21
505.2051694406131
 31
0.0
  0
ARC
  5
5C8
330
1F
100
AcDbEntity
  8
0239_詳細図（細
  6
Continuous
 62
     3
370
     9
100
AcDbCircle
 10
-754.3124085987806
 20
509.3631935643444
 30
0.0
 40
5.000000644374538
100
AcDbArc
 50
236.263935899712
 51
267.9859924316406
  0
ARC
  5
5C9
330
1F
100
AcDbEntity
  8
0239_詳細図（細
  6
Continuous
 62
     3
370
     9
100
AcDbCircle
 10
-754.6048824691353
 20
507.3639787733819
 30
0.0
 40
3.000000038662471
100
AcDbArc
 50
272.2334899902343
 51
313.9782785083094
  0
ARC
  5
5CA
330
1F
100
AcDbEntity
  8
0239_詳細図（細
  6
Continuous
 62
     3
370
     9
100
AcDbCircle
 10
-750.1286960776661
 20
507.3639787733819
 30
0.0
 40
3.000000038662471
100
AcDbArc
 50
226.0217214916906
 51
267.7665100097655
  0
ARC
  5
5CB
330
1F
100
AcDbEntity
  8
0239_詳細図（細
  6
Continuous
 62
     3
370
     9
100
AcDbCircle
 10
-750.4211699480207
 20
509.3631935643444
 30
0.0
 40
5.000000644374538
100
AcDbArc
 50
272.0140075683593
 51
303.736064100288
  0
LINE
  5
5CC
330
1F
100
AcDbEntity
  8
0239_詳細図（細
  6
Continuous
 62
     3
370
     9
100
AcDbLine
 10
-675.3667991709937
 20
503.8661694406116
 30
0.0
 11
-669.3667793758077
 21
503.8661694406116
 31
0.0
  0
LINE
  5
5CD
330
1F
100
AcDbEntity
  8
0239_詳細図（細
  6
Continuous
 62
     3
370
     9
100
AcDbLine
 10
-675.3667991709937
 20
503.8661694406116
 30
0.0
 11
-677.1071413622071
 21
505.2051694406131
 31
0.0
  0
LINE
  5
5CE
330
1F
100
AcDbEntity
  8
0239_詳細図（細
  6
Continuous
 62
     3
370
     9
100
AcDbLine
 10
-669.3667793758077
 20
503.8661694406116
 30
0.0
 11
-667.6264371845941
 21
505.2051694406131
 31
0.0
  0
ARC
  5
5CF
330
1F
100
AcDbEntity
  8
0239_詳細図（細
  6
Continuous
 62
     3
370
     9
100
AcDbCircle
 10
-674.3124085987806
 20
509.3631935643444
 30
0.0
 40
5.000000644374538
100
AcDbArc
 50
236.263935899712
 51
267.9859924316406
  0
ARC
  5
5D0
330
1F
100
AcDbEntity
  8
0239_詳細図（細
  6
Continuous
 62
     3
370
     9
100
AcDbCircle
 10
-674.6048824691353
 20
507.3639787733819
 30
0.0
 40
3.000000038662471
100
AcDbArc
 50
272.2334899902343
 51
313.9782785083094
  0
ARC
  5
5D1
330
1F
100
AcDbEntity
  8
0239_詳細図（細
  6
Continuous
 62
     3
370
     9
100
AcDbCircle
 10
-670.1286960776661
 20
507.3639787733819
 30
0.0
 40
3.000000038662471
100
AcDbArc
 50
226.0217214916906
 51
267.7665100097655
  0
ARC
  5
5D2
330
1F
100
AcDbEntity
  8
0239_詳細図（細
  6
Continuous
 62
     3
370
     9
100
AcDbCircle
 10
-670.4211699480207
 20
509.3631935643444
 30
0.0
 40
5.000000644374538
100
AcDbArc
 50
272.0140075683593
 51
303.736064100288
  0
LINE
  5
5D3
330
1F
100
AcDbEntity
  8
0239_詳細図（細
  6
Continuous
 62
     3
370
     9
100
AcDbLine
 10
-595.3667991709937
 20
503.8661694406116
 30
0.0
 11
-589.3667793758077
 21
503.8661694406116
 31
0.0
  0
LINE
  5
5D4
330
1F
100
AcDbEntity
  8
0239_詳細図（細
  6
Continuous
 62
     3
370
     9
100
AcDbLine
 10
-595.3667991709937
 20
503.8661694406116
 30
0.0
 11
-597.1071413622071
 21
505.2051694406131
 31
0.0
  0
LINE
  5
5D5
330
1F
100
AcDbEntity
  8
0239_詳細図（細
  6
Continuous
 62
     3
370
     9
100
AcDbLine
 10
-589.3667793758077
 20
503.8661694406116
 30
0.0
 11
-587.6264371845941
 21
505.2051694406131
 31
0.0
  0
ARC
  5
5D6
330
1F
100
AcDbEntity
  8
0239_詳細図（細
  6
Continuous
 62
     3
370
     9
100
AcDbCircle
 10
-594.3124085987806
 20
509.3631935643444
 30
0.0
 40
5.000000644374538
100
AcDbArc
 50
236.263935899712
 51
267.9859924316406
  0
ARC
  5
5D7
330
1F
100
AcDbEntity
  8
0239_詳細図（細
  6
Continuous
 62
     3
370
     9
100
AcDbCircle
 10
-594.6048824691353
 20
507.3639787733819
 30
0.0
 40
3.000000038662471
100
AcDbArc
 50
272.2334899902343
 51
313.9782785083094
  0
ARC
  5
5D8
330
1F
100
AcDbEntity
  8
0239_詳細図（細
  6
Continuous
 62
     3
370
     9
100
AcDbCircle
 10
-590.1286960776661
 20
507.3639787733819
 30
0.0
 40
3.000000038662471
100
AcDbArc
 50
226.0217214916906
 51
267.7665100097655
  0
ARC
  5
5D9
330
1F
100
AcDbEntity
  8
0239_詳細図（細
  6
Continuous
 62
     3
370
     9
100
AcDbCircle
 10
-590.4211699480207
 20
509.3631935643444
 30
0.0
 40
5.000000644374538
100
AcDbArc
 50
272.0140075683593
 51
303.736064100288
  0
ENDSEC
  0
SECTION
  2
OBJECTS
  0
DICTIONARY
  5
C
330
0
100
AcDbDictionary
281
     1
  3
ACAD_GROUP
350
D
  3
ACAD_LAYOUT
350
1A
  3
ACAD_MLEADERSTYLE
350
5DB
  3
ACAD_MLINESTYLE
350
17
  3
ACAD_PLOTSETTINGS
350
19
  3
ACAD_PLOTSTYLENAME
350
E
  3
ACAD_TABLESTYLE
350
5DA
  3
ACAD_VISUALSTYLE
350
2A
  0
DICTIONARY
  5
D
102
{ACAD_REACTORS
330
C
102
}
330
C
100
AcDbDictionary
281
     1
  0
DICTIONARY
  5
1A
102
{ACAD_REACTORS
330
C
102
}
330
C
100
AcDbDictionary
281
     1
  3
Layout1
350
1E
  3
Layout2
350
26
  3
Model
350
22
  0
DICTIONARY
  5
5DB
102
{ACAD_REACTORS
330
C
102
}
330
C
100
AcDbDictionary
281
     1
  0
DICTIONARY
  5
17
102
{ACAD_REACTORS
330
C
102
}
330
C
100
AcDbDictionary
281
     1
  3
Standard
350
18
  0
DICTIONARY
  5
19
102
{ACAD_REACTORS
330
C
102
}
330
C
100
AcDbDictionary
281
     1
  0
ACDBDICTIONARYWDFLT
  5
E
102
{ACAD_REACTORS
330
C
102
}
330
C
100
AcDbDictionary
281
     1
  3
Normal
350
F
100
AcDbDictionaryWithDefault
340
F
  0
DICTIONARY
  5
5DA
102
{ACAD_REACTORS
330
C
102
}
330
C
100
AcDbDictionary
281
     1
  0
DICTIONARY
  5
2A
102
{ACAD_REACTORS
330
C
102
}
330
C
100
AcDbDictionary
281
     1
  3
2dWireframe
350
2F
  3
3D Hidden
350
31
  3
3dWireframe
350
30
  3
Basic
350
32
  3
Brighten
350
36
  3
ColorChange
350
3A
  3
Conceptual
350
34
  3
Dim
350
35
  3
Facepattern
350
39
  3
Flat
350
2B
  3
FlatWithEdges
350
2C
  3
Gouraud
350
2D
  3
GouraudWithEdges
350
2E
  3
Linepattern
350
38
  3
Realistic
350
33
  3
Thicken
350
37
  0
LAYOUT
  5
1E
102
{ACAD_REACTORS
330
1A
102
}
330
1A
100
AcDbPlotSettings
  1

  2
none_device
  4

  6

 40
0.0
 41
0.0
 42
0.0
 43
0.0
 44
0.0
 45
0.0
 46
0.0
 47
0.0
 48
0.0
 49
0.0
140
0.0
141
0.0
142
1.0
143
1.0
 70
   688
 72
     0
 73
     0
 74
     5
  7

 75
    16
 76
     0
 77
     5
 78
   300
147
1.0
148
0.0
149
0.0
100
AcDbLayout
  1
Layout1
 70
     1
 71
     1
 10
0.0
 20
0.0
 11
420.0
 21
297.0
 12
0.0
 22
0.0
 32
0.0
 14
1.000000000000000E+20
 24
1.000000000000000E+20
 34
1.000000000000000E+20
 15
-1.000000000000000E+20
 25
-1.000000000000000E+20
 35
-1.000000000000000E+20
146
0.0
 13
0.0
 23
0.0
 33
0.0
 16
1.0
 26
0.0
 36
0.0
 17
0.0
 27
1.0
 37
0.0
 76
     0
330
1B
  0
LAYOUT
  5
26
102
{ACAD_REACTORS
330
1A
102
}
330
1A
100
AcDbPlotSettings
  1

  2
none_device
  4

  6

 40
0.0
 41
0.0
 42
0.0
 43
0.0
 44
0.0
 45
0.0
 46
0.0
 47
0.0
 48
0.0
 49
0.0
140
0.0
141
0.0
142
1.0
143
1.0
 70
   688
 72
     0
 73
     0
 74
     5
  7

 75
    16
 76
     0
 77
     5
 78
   300
147
1.0
148
0.0
149
0.0
100
AcDbLayout
  1
Layout2
 70
     1
 71
     2
 10
0.0
 20
0.0
 11
0.0
 21
0.0
 12
0.0
 22
0.0
 32
0.0
 14
0.0
 24
0.0
 34
0.0
 15
0.0
 25
0.0
 35
0.0
146
0.0
 13
0.0
 23
0.0
 33
0.0
 16
1.0
 26
0.0
 36
0.0
 17
0.0
 27
1.0
 37
0.0
 76
     0
330
23
  0
LAYOUT
  5
22
102
{ACAD_REACTORS
330
1A
102
}
330
1A
100
AcDbPlotSettings
  1

  2
none_device
  4

  6

 40
0.0
 41
0.0
 42
0.0
 43
0.0
 44
0.0
 45
0.0
 46
0.0
 47
0.0
 48
0.0
 49
0.0
140
0.0
141
0.0
142
1.0
143
1.0
 70
  1712
 72
     0
 73
     0
 74
     0
  7

 75
     0
 76
     0
 77
     5
 78
   300
147
1.0
148
0.0
149
0.0
100
AcDbLayout
  1
Model
 70
     1
 71
     0
 10
-2100.0
 20
-1485.0
 11
2100.0
 21
1485.0
 12
0.0
 22
0.0
 32
0.0
 14
-2100.0
 24
-1485.0
 34
0.0
 15
2100.0
 25
1485.0
 35
0.0
146
0.0
 13
0.0
 23
0.0
 33
0.0
 16
1.0
 26
0.0
 36
0.0
 17
0.0
 27
1.0
 37
0.0
 76
     0
330
1F
331
29
  0
MLINESTYLE
  5
18
102
{ACAD_REACTORS
330
17
102
}
330
17
100
AcDbMlineStyle
  2
Standard
 70
     0
  3

 62
   256
 51
90.0
 52
90.0
 71
     2
 49
0.5
 62
   256
  6
BYLAYER
 49
-0.5
 62
   256
  6
BYLAYER
  0
ACDBPLACEHOLDER
  5
F
102
{ACAD_REACTORS
330
E
102
}
330
E
  0
VISUALSTYLE
  5
2F
102
{ACAD_REACTORS
330
2A
102
}
330
2A
100
AcDbVisualStyle
  2
2dWireframe
 70
     4
 71
     0
 72
     2
 73
     0
 90
        0
 40
-0.6
 41
-30.0
 62
     5
 63
     7
421
 16777215
 74
     1
 91
        4
 64
     7
 65
   257
 75
     1
175
     1
 42
1.0
 92
        0
 66
   257
 43
1.0
 76
     1
 77
     6
 78
     2
 67
     7
 79
     5
170
     0
171
     0
290
     0
174
     0
 93
        1
 44
0.0
173
     0
291
     0
 45
0.0
1001
ACAD
1000
AcDbSavedByObjectVersion
1070
     0
  0
VISUALSTYLE
  5
31
102
{ACAD_REACTORS
330
2A
102
}
330
2A
100
AcDbVisualStyle
  2
3D Hidden
 70
     6
 71
     1
 72
     2
 73
     2
 90
        0
 40
-0.6
 41
-30.0
 62
     5
 63
     7
421
 16777215
 74
     2
 91
        2
 64
     7
 65
   257
 75
     2
175
     1
 42
40.0
 92
        0
 66
   257
 43
1.0
 76
     1
 77
     6
 78
     2
 67
     7
 79
     3
170
     0
171
     0
290
     0
174
     0
 93
        1
 44
0.0
173
     0
291
     0
 45
0.0
1001
ACAD
1000
AcDbSavedByObjectVersion
1070
     0
  0
VISUALSTYLE
  5
30
102
{ACAD_REACTORS
330
2A
102
}
330
2A
100
AcDbVisualStyle
  2
3dWireframe
 70
     5
 71
     0
 72
     2
 73
     0
 90
        0
 40
-0.6
 41
-30.0
 62
     5
 63
     7
421
 16777215
 74
     1
 91
        4
 64
     7
 65
   257
 75
     1
175
     1
 42
1.0
 92
        0
 66
   257
 43
1.0
 76
     1
 77
     6
 78
     2
 67
     7
 79
     5
170
     0
171
     0
290
     0
174
     0
 93
        1
 44
0.0
173
     0
291
     0
 45
0.0
1001
ACAD
1000
AcDbSavedByObjectVersion
1070
     0
  0
VISUALSTYLE
  5
32
102
{ACAD_REACTORS
330
2A
102
}
330
2A
100
AcDbVisualStyle
  2
Basic
 70
     7
 71
     1
 72
     0
 73
     1
 90
        0
 40
-0.6
 41
-30.0
 62
     5
 63
     7
421
 16777215
 74
     0
 91
        4
 64
     7
 65
   257
 75
     1
175
     1
 42
1.0
 92
        8
 66
     7
 43
1.0
 76
     1
 77
     6
 78
     2
 67
     7
 79
     5
170
     0
171
     0
290
     0
174
     0
 93
        1
 44
0.0
173
     0
291
     1
 45
0.0
1001
ACAD
1000
AcDbSavedByObjectVersion
1070
     0
  0
VISUALSTYLE
  5
36
102
{ACAD_REACTORS
330
2A
102
}
330
2A
100
AcDbVisualStyle
  2
Brighten
 70
    12
 71
     2
 72
     2
 73
     0
 90
        0
 40
-0.6
 41
-30.0
 62
     5
 63
     7
421
 16777215
 74
     1
 91
        4
 64
     7
 65
   257
 75
     1
175
     1
 42
1.0
 92
        8
 66
     7
 43
1.0
 76
     1
 77
     6
 78
     2
 67
     7
 79
     5
170
     0
171
     0
290
     0
174
     0
 93
        1
 44
50.0
173
     0
291
     1
 45
0.0
1001
ACAD
1000
AcDbSavedByObjectVersion
1070
     0
  0
VISUALSTYLE
  5
3A
102
{ACAD_REACTORS
330
2A
102
}
330
2A
100
AcDbVisualStyle
  2
ColorChange
 70
    16
 71
     2
 72
     2
 73
     3
 90
        0
 40
-0.6
 41
-30.0
 62
     5
 63
     8
421
  8421504
 74
     1
 91
        4
 64
     7
 65
   257
 75
     1
175
     1
 42
1.0
 92
        8
 66
     8
424
  8421504
 43
1.0
 76
     1
 77
     6
 78
     2
 67
     7
 79
     5
170
     0
171
     0
290
     0
174
     0
 93
        1
 44
0.0
173
     0
291
     1
 45
0.0
1001
ACAD
1000
AcDbSavedByObjectVersion
1070
     0
  0
VISUALSTYLE
  5
34
102
{ACAD_REACTORS
330
2A
102
}
330
2A
100
AcDbVisualStyle
  2
Conceptual
 70
     9
 71
     3
 72
     2
 73
     0
 90
        0
 40
-0.6
 41
-30.0
 62
     5
 63
     7
421
 16777215
 74
     2
 91
        2
 64
     7
 65
   257
 75
     1
175
     1
 42
40.0
 92
        8
 66
     7
 43
1.0
 76
     1
 77
     6
 78
     2
 67
     7
 79
     3
170
     0
171
     0
290
     0
174
     0
 93
        1
 44
0.0
173
     0
291
     0
 45
0.0
1001
ACAD
1000
AcDbSavedByObjectVersion
1070
     0
  0
VISUALSTYLE
  5
35
102
{ACAD_REACTORS
330
2A
102
}
330
2A
100
AcDbVisualStyle
  2
Dim
 70
    11
 71
     2
 72
     2
 73
     0
 90
        0
 40
-0.6
 41
-30.0
 62
     5
 63
     7
421
 16777215
 74
     1
 91
        4
 64
     7
 65
   257
 75
     1
175
     1
 42
1.0
 92
        8
 66
     7
 43
1.0
 76
     1
 77
     6
 78
     2
 67
     7
 79
     5
170
     0
171
     0
290
     0
174
     0
 93
        1
 44
-50.0
173
     0
291
     1
 45
0.0
1001
ACAD
1000
AcDbSavedByObjectVersion
1070
     0
  0
VISUALSTYLE
  5
39
102
{ACAD_REACTORS
330
2A
102
}
330
2A
100
AcDbVisualStyle
  2
Facepattern
 70
    15
 71
     2
 72
     2
 73
     0
 90
        0
 40
-0.6
 41
-30.0
 62
     5
 63
     7
421
 16777215
 74
     1
 91
        4
 64
     7
 65
   257
 75
     1
175
     1
 42
1.0
 92
        8
 66
     7
 43
1.0
 76
     1
 77
     6
 78
     2
 67
     7
 79
     5
170
     0
171
     0
290
     0
174
     0
 93
        1
 44
0.0
173
     0
291
     1
 45
0.0
1001
ACAD
1000
AcDbSavedByObjectVersion
1070
     0
  0
VISUALSTYLE
  5
2B
102
{ACAD_REACTORS
330
2A
102
}
330
2A
100
AcDbVisualStyle
  2
Flat
 70
     0
 71
     2
 72
     1
 73
     1
 90
        2
 40
-0.6
 41
30.0
 62
     5
 63
     7
421
 16777215
 74
     0
 91
        4
 64
     7
 65
   257
 75
     1
175
     1
 42
1.0
 92
        8
 66
     7
 43
1.0
 76
     1
 77
     6
 78
     2
 67
     7
 79
     5
170
     0
171
     0
290
     0
174
     0
 93
       13
 44
0.0
173
     0
291
     1
 45
0.0
1001
ACAD
1000
AcDbSavedByObjectVersion
1070
     0
  0
VISUALSTYLE
  5
2C
102
{ACAD_REACTORS
330
2A
102
}
330
2A
100
AcDbVisualStyle
  2
FlatWithEdges
 70
     1
 71
     2
 72
     1
 73
     1
 90
        2
 40
-0.6
 41
30.0
 62
     5
 63
     7
421
 16777215
 74
     1
 91
        4
 64
     7
 65
   257
 75
     1
175
     1
 42
1.0
 92
        0
 66
   257
 43
1.0
 76
     1
 77
     6
 78
     2
 67
     7
 79
     5
170
     0
171
     0
290
     0
174
     0
 93
       13
 44
0.0
173
     0
291
     1
 45
0.0
1001
ACAD
1000
AcDbSavedByObjectVersion
1070
     0
  0
VISUALSTYLE
  5
2D
102
{ACAD_REACTORS
330
2A
102
}
330
2A
100
AcDbVisualStyle
  2
Gouraud
 70
     2
 71
     2
 72
     2
 73
     1
 90
        2
 40
-0.6
 41
30.0
 62
     5
 63
     7
421
 16777215
 74
     0
 91
        4
 64
     7
 65
   257
 75
     1
175
     1
 42
1.0
 92
        0
 66
     7
 43
1.0
 76
     1
 77
     6
 78
     2
 67
     7
 79
     5
170
     0
171
     0
290
     0
174
     0
 93
       13
 44
0.0
173
     0
291
     1
 45
0.0
1001
ACAD
1000
AcDbSavedByObjectVersion
1070
     0
  0
VISUALSTYLE
  5
2E
102
{ACAD_REACTORS
330
2A
102
}
330
2A
100
AcDbVisualStyle
  2
GouraudWithEdges
 70
     3
 71
     2
 72
     2
 73
     1
 90
        2
 40
-0.6
 41
30.0
 62
     5
 63
     7
421
 16777215
 74
     1
 91
        4
 64
     7
 65
   257
 75
     1
175
     1
 42
1.0
 92
        0
 66
   257
 43
1.0
 76
     1
 77
     6
 78
     2
 67
     7
 79
     5
170
     0
171
     0
290
     0
174
     0
 93
       13
 44
0.0
173
     0
291
     1
 45
0.0
1001
ACAD
1000
AcDbSavedByObjectVersion
1070
     0
  0
VISUALSTYLE
  5
38
102
{ACAD_REACTORS
330
2A
102
}
330
2A
100
AcDbVisualStyle
  2
Linepattern
 70
    14
 71
     2
 72
     2
 73
     0
 90
        0
 40
-0.6
 41
-30.0
 62
     5
 63
     7
421
 16777215
 74
     1
 91
        4
 64
     7
 65
   257
 75
     7
175
     7
 42
1.0
 92
        8
 66
     7
 43
1.0
 76
     1
 77
     6
 78
     2
 67
     7
 79
     5
170
     0
171
     0
290
     0
174
     0
 93
        1
 44
0.0
173
     0
291
     1
 45
0.0
1001
ACAD
1000
AcDbSavedByObjectVersion
1070
     0
  0
VISUALSTYLE
  5
33
102
{ACAD_REACTORS
330
2A
102
}
330
2A
100
AcDbVisualStyle
  2
Realistic
 70
     8
 71
     2
 72
     2
 73
     0
 90
        0
 40
-0.6
 41
-30.0
 62
     5
 63
     7
421
 16777215
 74
     1
 91
        0
 64
     7
 65
   257
 75
     1
175
     1
 42
1.0
 92
        8
 66
     8
424
  7895160
 43
1.0
 76
     1
 77
     6
 78
     2
 67
     7
 79
     5
170
     0
171
     0
290
     0
174
     0
 93
       13
 44
0.0
173
     0
291
     0
 45
0.0
1001
ACAD
1000
AcDbSavedByObjectVersion
1070
     0
  0
VISUALSTYLE
  5
37
102
{ACAD_REACTORS
330
2A
102
}
330
2A
100
AcDbVisualStyle
  2
Thicken
 70
    13
 71
     2
 72
     2
 73
     0
 90
        0
 40
-0.6
 41
-30.0
 62
     5
 63
     7
421
 16777215
 74
     1
 91
        4
 64
     7
 65
   257
 75
     1
175
     1
 42
1.0
 92
       12
 66
     7
 43
1.0
 76
     1
 77
     6
 78
     2
 67
     7
 79
     5
170
     0
171
     0
290
     0
174
     0
 93
        1
 44
0.0
173
     0
291
     1
 45
0.0
1001
ACAD
1000
AcDbSavedByObjectVersion
1070
     0
  0
ENDSEC
  0
EOF
