  0
SECTION
  2
HEADER
  9
$ACADVER
  1
AC1018
  9
$ACADMAINTVER
 70
     0
  9
$DWGCODEPAGE
  3
ANSI_932
  9
$INSBASE
 10
0.0
 20
0.0
 30
0.0
  9
$EXTMIN
 10
-2100.0
 20
-1485.0
 30
0.0
  9
$EXTMAX
 10
2100.0
 20
1485.0
 30
0.0
  9
$LIMMIN
 10
-2100.0
 20
-1485.0
  9
$LIMMAX
 10
2100.0
 20
1485.0
  9
$ORTHOMODE
 70
     0
  9
$REGENMODE
 70
     1
  9
$FILLMODE
 70
     1
  9
$QTEXTMODE
 70
     0
  9
$MIRRTEXT
 70
     1
  9
$LTSCALE
 40
10.0
  9
$ATTMODE
 70
     1
  9
$TEXTSIZE
 40
2.5
  9
$TRACEWID
 40
1.0
  9
$TEXTSTYLE
  7
Standard
  9
$CLAYER
  8
0
  9
$CELTYPE
  6
ByLayer
  9
$CECOLOR
 62
   256
  9
$CELTSCALE
 40
1.0
  9
$DISPSILH
 70
     0
  9
$DIMSCALE
 40
1.0
  9
$DIMASZ
 40
2.5
  9
$DIMEXO
 40
0.625
  9
$DIMDLI
 40
3.75
  9
$DIMRND
 40
0.0
  9
$DIMDLE
 40
0.0
  9
$DIMEXE
 40
1.25
  9
$DIMTP
 40
0.0
  9
$DIMTM
 40
0.0
  9
$DIMTXT
 40
2.5
  9
$DIMCEN
 40
2.5
  9
$DIMTSZ
 40
0.0
  9
$DIMTOL
 70
     0
  9
$DIMLIM
 70
     0
  9
$DIMTIH
 70
     0
  9
$DIMTOH
 70
     0
  9
$DIMSE1
 70
     0
  9
$DIMSE2
 70
     0
  9
$DIMTAD
 70
     1
  9
$DIMZIN
 70
     8
  9
$DIMBLK
  1

  9
$DIMASO
 70
     1
  9
$DIMSHO
 70
     1
  9
$DIMPOST
  1

  9
$DIMAPOST
  1

  9
$DIMALT
 70
     0
  9
$DIMALTD
 70
     3
  9
$DIMALTF
 40
0.03937007874016
  9
$DIMLFAC
 40
1.0
  9
$DIMTOFL
 70
     1
  9
$DIMTVP
 40
0.0
  9
$DIMTIX
 70
     0
  9
$DIMSOXD
 70
     0
  9
$DIMSAH
 70
     0
  9
$DIMBLK1
  1

  9
$DIMBLK2
  1

  9
$DIMSTYLE
  2
ISO-25
  9
$DIMCLRD
 70
     0
  9
$DIMCLRE
 70
     0
  9
$DIMCLRT
 70
     0
  9
$DIMTFAC
 40
1.0
  9
$DIMGAP
 40
0.625
  9
$DIMJUST
 70
     0
  9
$DIMSD1
 70
     0
  9
$DIMSD2
 70
     0
  9
$DIMTOLJ
 70
     0
  9
$DIMTZIN
 70
     8
  9
$DIMALTZ
 70
     0
  9
$DIMALTTZ
 70
     0
  9
$DIMUPT
 70
     0
  9
$DIMDEC
 70
     2
  9
$DIMTDEC
 70
     2
  9
$DIMALTU
 70
     2
  9
$DIMALTTD
 70
     3
  9
$DIMTXSTY
  7
Standard
  9
$DIMAUNIT
 70
     0
  9
$DIMADEC
 70
     0
  9
$DIMALTRND
 40
0.0
  9
$DIMAZIN
 70
     0
  9
$DIMDSEP
 70
    44
  9
$DIMATFIT
 70
     3
  9
$DIMFRAC
 70
     0
  9
$DIMLDRBLK
  1

  9
$DIMLUNIT
 70
     2
  9
$DIMLWD
 70
    -2
  9
$DIMLWE
 70
    -2
  9
$DIMTMOVE
 70
     0
  9
$LUNITS
 70
     2
  9
$LUPREC
 70
     4
  9
$SKETCHINC
 40
1.0
  9
$FILLETRAD
 40
10.0
  9
$AUNITS
 70
     0
  9
$AUPREC
 70
     0
  9
$MENU
  1
.
  9
$ELEVATION
 40
0.0
  9
$PELEVATION
 40
0.0
  9
$THICKNESS
 40
0.0
  9
$LIMCHECK
 70
     0
  9
$CHAMFERA
 40
10.0
  9
$CHAMFERB
 40
10.0
  9
$CHAMFERC
 40
20.0
  9
$CHAMFERD
 40
0.0
  9
$SKPOLY
 70
     0
  9
$TDCREATE
 40
2457641.479828623
  9
$TDUCREATE
 40
2457641.104828623
  9
$TDUPDATE
 40
2457641.479828634
  9
$TDUUPDATE
 40
2457641.104828634
  9
$TDINDWG
 40
0.0000000116
  9
$TDUSRTIMER
 40
0.0000000116
  9
$USRTIMER
 70
     1
  9
$ANGBASE
 50
0.0
  9
$ANGDIR
 70
     0
  9
$PDMODE
 70
     0
  9
$PDSIZE
 40
0.0
  9
$PLINEWID
 40
0.0
  9
$SPLFRAME
 70
     0
  9
$SPLINETYPE
 70
     6
  9
$SPLINESEGS
 70
     8
  9
$HANDSEED
  5
56B
  9
$SURFTAB1
 70
     6
  9
$SURFTAB2
 70
     6
  9
$SURFTYPE
 70
     6
  9
$SURFU
 70
     6
  9
$SURFV
 70
     6
  9
$UCSBASE
  2

  9
$UCSNAME
  2

  9
$UCSORG
 10
0.0
 20
0.0
 30
0.0
  9
$UCSXDIR
 10
1.0
 20
0.0
 30
0.0
  9
$UCSYDIR
 10
0.0
 20
1.0
 30
0.0
  9
$UCSORTHOREF
  2

  9
$UCSORTHOVIEW
 70
     0
  9
$UCSORGTOP
 10
0.0
 20
0.0
 30
0.0
  9
$UCSORGBOTTOM
 10
0.0
 20
0.0
 30
0.0
  9
$UCSORGLEFT
 10
0.0
 20
0.0
 30
0.0
  9
$UCSORGRIGHT
 10
0.0
 20
0.0
 30
0.0
  9
$UCSORGFRONT
 10
0.0
 20
0.0
 30
0.0
  9
$UCSORGBACK
 10
0.0
 20
0.0
 30
0.0
  9
$PUCSBASE
  2

  9
$PUCSNAME
  2

  9
$PUCSORG
 10
0.0
 20
0.0
 30
0.0
  9
$PUCSXDIR
 10
1.0
 20
0.0
 30
0.0
  9
$PUCSYDIR
 10
0.0
 20
1.0
 30
0.0
  9
$PUCSORTHOREF
  2

  9
$PUCSORTHOVIEW
 70
     0
  9
$PUCSORGTOP
 10
0.0
 20
0.0
 30
0.0
  9
$PUCSORGBOTTOM
 10
0.0
 20
0.0
 30
0.0
  9
$PUCSORGLEFT
 10
0.0
 20
0.0
 30
0.0
  9
$PUCSORGRIGHT
 10
0.0
 20
0.0
 30
0.0
  9
$PUCSORGFRONT
 10
0.0
 20
0.0
 30
0.0
  9
$PUCSORGBACK
 10
0.0
 20
0.0
 30
0.0
  9
$USERI1
 70
     0
  9
$USERI2
 70
     0
  9
$USERI3
 70
     0
  9
$USERI4
 70
     0
  9
$USERI5
 70
     0
  9
$USERR1
 40
0.0
  9
$USERR2
 40
0.0
  9
$USERR3
 40
0.0
  9
$USERR4
 40
0.0
  9
$USERR5
 40
0.0
  9
$WORLDVIEW
 70
     1
  9
$SHADEDGE
 70
     3
  9
$SHADEDIF
 70
    70
  9
$TILEMODE
 70
     1
  9
$MAXACTVP
 70
    64
  9
$PINSBASE
 10
0.0
 20
0.0
 30
0.0
  9
$PLIMCHECK
 70
     0
  9
$PEXTMIN
 10
1.000000000000000E+20
 20
1.000000000000000E+20
 30
1.000000000000000E+20
  9
$PEXTMAX
 10
-1.000000000000000E+20
 20
-1.000000000000000E+20
 30
-1.000000000000000E+20
  9
$PLIMMIN
 10
0.0
 20
0.0
  9
$PLIMMAX
 10
420.0
 20
297.0
  9
$UNITMODE
 70
     0
  9
$VISRETAIN
 70
     1
  9
$PLINEGEN
 70
     0
  9
$PSLTSCALE
 70
     1
  9
$TREEDEPTH
 70
  3020
  9
$CMLSTYLE
  2
Standard
  9
$CMLJUST
 70
     0
  9
$CMLSCALE
 40
20.0
  9
$PROXYGRAPHICS
 70
     1
  9
$MEASUREMENT
 70
     1
  9
$CELWEIGHT
370
    -1
  9
$ENDCAPS
280
     0
  9
$JOINSTYLE
280
     0
  9
$LWDISPLAY
290
     0
  9
$INSUNITS
 70
     4
  9
$HYPERLINKBASE
  1

  9
$STYLESHEET
  1

  9
$XEDIT
290
     1
  9
$CEPSNTYPE
380
     0
  9
$PSTYLEMODE
290
     1
  9
$FINGERPRINTGUID
  2
{4003128D-3827-4547-A629-B8607931ECC4}
  9
$VERSIONGUID
  2
{FAEB1C32-E019-11D5-929B-00C0DF256EC4}
  9
$EXTNAMES
290
     1
  9
$PSVPSCALE
 40
0.0
  9
$OLESTARTUP
290
     0
  9
$SORTENTS
280
   127
  9
$INDEXCTL
280
     0
  9
$HIDETEXT
280
     1
  9
$XCLIPFRAME
290
     0
  9
$HALOGAP
280
     0
  9
$OBSCOLOR
 70
   257
  9
$OBSLTYPE
280
     0
  9
$INTERSECTIONDISPLAY
280
     0
  9
$INTERSECTIONCOLOR
 70
   257
  9
$DIMASSOC
280
     2
  9
$PROJECTNAME
  1

  0
ENDSEC
  0
SECTION
  2
CLASSES
  0
CLASS
  1
ACDBDICTIONARYWDFLT
  2
AcDbDictionaryWithDefault
  3
ObjectDBX Classes
 90
        0
 91
        4
280
     0
281
     0
  0
CLASS
  1
VISUALSTYLE
  2
AcDbVisualStyle
  3
ObjectDBX Classes
 90
     4095
 91
        4
280
     0
281
     0
  0
ENDSEC
  0
SECTION
  2
TABLES
  0
TABLE
  2
VPORT
  5
8
330
0
100
AcDbSymbolTable
 70
     1
  0
VPORT
  5
29
330
8
100
AcDbSymbolTableRecord
100
AcDbViewportTableRecord
  2
*Active
 70
     0
 10
0.0
 20
0.0
 11
1.0
 21
1.0
 12
0.0
 22
0.0
 13
0.0
 23
0.0
 14
10.0
 24
10.0
 15
10.0
 25
10.0
 16
0.0
 26
0.0
 36
1.0
 17
0.0
 27
0.0
 37
0.0
 40
3267.0
 41
1.414141414141414
 42
50.0
 43
0.0
 44
0.0
 50
0.0
 51
0.0
 71
     0
 72
 10000
 73
     1
 74
     3
 75
     0
 76
     0
 77
     0
 78
     0
281
     0
 65
     1
110
0.0
120
0.0
130
0.0
111
1.0
121
0.0
131
0.0
112
0.0
122
1.0
132
0.0
 79
     0
146
0.0
  0
ENDTAB
  0
TABLE
  2
LTYPE
  5
5
330
0
100
AcDbSymbolTable
 70
     5
  0
LTYPE
  5
14
330
5
100
AcDbSymbolTableRecord
100
AcDbLinetypeTableRecord
  2
ByBlock
 70
     0
  3

 72
    65
 73
     0
 40
0.0
  0
LTYPE
  5
15
330
5
100
AcDbSymbolTableRecord
100
AcDbLinetypeTableRecord
  2
ByLayer
 70
     0
  3

 72
    65
 73
     0
 40
0.0
  0
LTYPE
  5
16
330
5
100
AcDbSymbolTableRecord
100
AcDbLinetypeTableRecord
  2
Continuous
 70
     0
  3
Solid line
 72
    65
 73
     0
 40
0.0
  0
LTYPE
  5
3C
330
5
100
AcDbSymbolTableRecord
100
AcDbLinetypeTableRecord
  2
JWW_DASHED3
 70
     0
  3
---  ------  ------  ------  ---
 72
    65
 73
     2
 40
3.386666666666667
 49
2.54
 74
     0
 49
-0.8466666666666667
 74
     0
  0
LTYPE
  5
3D
330
5
100
AcDbSymbolTableRecord
100
AcDbLinetypeTableRecord
  2
JWW_CENTER2
 70
     0
  3
-------------  --  -------------
 72
    65
 73
     4
 40
13.54666666666667
 49
11.00666666666667
 74
     0
 49
-0.8466666666666667
 74
     0
 49
0.8466666666666667
 74
     0
 49
-0.8466666666666667
 74
     0
  0
LTYPE
  5
3E
330
5
100
AcDbSymbolTableRecord
100
AcDbLinetypeTableRecord
  2
JWW_CENTER1
 70
     0
  3
-----  --  ----------  --  -----
 72
    65
 73
     4
 40
6.773333333333333
 49
4.233333333333333
 74
     0
 49
-0.8466666666666667
 74
     0
 49
0.8466666666666667
 74
     0
 49
-0.8466666666666667
 74
     0
  0
LTYPE
  5
3F
330
5
100
AcDbSymbolTableRecord
100
AcDbLinetypeTableRecord
  2
JWW_DASHED2
 70
     0
  3
--    ----    ----    ----    --
 72
    65
 73
     2
 40
3.386666666666667
 49
1.693333333333333
 74
     0
 49
-1.693333333333333
 74
     0
  0
ENDTAB
  0
TABLE
  2
LAYER
  5
2
330
0
100
AcDbSymbolTable
 70
    17
  0
LAYER
  5
10
330
2
100
AcDbSymbolTableRecord
100
AcDbLayerTableRecord
  2
0
 70
     0
 62
     7
  6
Continuous
370
    -3
390
F
  0
LAYER
  5
40
330
2
100
AcDbSymbolTableRecord
100
AcDbLayerTableRecord
  2
D-2
 70
     0
 62
     7
  6
Continuous
370
    -3
390
F
  0
LAYER
  5
41
330
2
100
AcDbSymbolTableRecord
100
AcDbLayerTableRecord
  2
D-4
 70
     0
 62
     7
  6
Continuous
370
    -3
390
F
  0
LAYER
  5
42
330
2
100
AcDbSymbolTableRecord
100
AcDbLayerTableRecord
  2
D-6
 70
     0
 62
     7
  6
Continuous
370
    -3
390
F
  0
LAYER
  5
43
330
2
100
AcDbSymbolTableRecord
100
AcDbLayerTableRecord
  2
D-0
 70
     0
 62
     7
  6
Continuous
370
    -3
390
F
  0
LAYER
  5
44
330
2
100
AcDbSymbolTableRecord
100
AcDbLayerTableRecord
  2
D-9
 70
     0
 62
     7
  6
Continuous
370
    -3
390
F
  0
LAYER
  5
45
330
2
100
AcDbSymbolTableRecord
100
AcDbLayerTableRecord
  2
D-1
 70
     0
 62
     7
  6
Continuous
370
    -3
390
F
  0
LAYER
  5
46
330
2
100
AcDbSymbolTableRecord
100
AcDbLayerTableRecord
  2
D-3
 70
     0
 62
     7
  6
Continuous
370
    -3
390
F
  0
LAYER
  5
47
330
2
100
AcDbSymbolTableRecord
100
AcDbLayerTableRecord
  2
D-A
 70
     0
 62
     7
  6
Continuous
370
    -3
390
F
  0
LAYER
  5
48
330
2
100
AcDbSymbolTableRecord
100
AcDbLayerTableRecord
  2
D-5
 70
     0
 62
     7
  6
Continuous
370
    -3
390
F
  0
LAYER
  5
49
330
2
100
AcDbSymbolTableRecord
100
AcDbLayerTableRecord
  2
F-5ﾚｲﾔ
 70
     0
 62
     7
  6
Continuous
370
    -3
390
F
  0
LAYER
  5
4A
330
2
100
AcDbSymbolTableRecord
100
AcDbLayerTableRecord
  2
C-4
 70
     0
 62
     7
  6
Continuous
370
    -3
390
F
  0
LAYER
  5
4B
330
2
100
AcDbSymbolTableRecord
100
AcDbLayerTableRecord
  2
C-5
 70
     0
 62
     7
  6
Continuous
370
    -3
390
F
  0
LAYER
  5
4C
330
2
100
AcDbSymbolTableRecord
100
AcDbLayerTableRecord
  2
C-1
 70
     0
 62
     7
  6
Continuous
370
    -3
390
F
  0
LAYER
  5
4D
330
2
100
AcDbSymbolTableRecord
100
AcDbLayerTableRecord
  2
C-2
 70
     0
 62
     7
  6
Continuous
370
    -3
390
F
  0
LAYER
  5
4E
330
2
100
AcDbSymbolTableRecord
100
AcDbLayerTableRecord
  2
C-A
 70
     0
 62
     7
  6
Continuous
370
    -3
390
F
  0
LAYER
  5
4F
330
2
100
AcDbSymbolTableRecord
100
AcDbLayerTableRecord
  2
F-4ﾚｲﾔ
 70
     0
 62
     7
  6
Continuous
370
    -3
390
F
  0
ENDTAB
  0
TABLE
  2
STYLE
  5
3
330
0
100
AcDbSymbolTable
 70
     2
  0
STYLE
  5
11
330
3
100
AcDbSymbolTableRecord
100
AcDbTextStyleTableRecord
  2
Standard
 70
     0
 40
0.0
 41
1.0
 50
0.0
 71
     0
 42
2.5
  3
txt
  4

1001
ACAD
1000

1071
        0
  0
STYLE
  5
3B
330
3
100
AcDbSymbolTableRecord
100
AcDbTextStyleTableRecord
  2
ＭＳ ゴシック
 70
     0
 40
1.0
 41
1.0
 50
0.0
 71
     0
 42
10.0
  3

  4

1001
ACAD
1000
MS Gothic
1071
    32817
  0
ENDTAB
  0
TABLE
  2
VIEW
  5
6
330
0
100
AcDbSymbolTable
 70
     0
  0
ENDTAB
  0
TABLE
  2
UCS
  5
7
330
0
100
AcDbSymbolTable
 70
     0
  0
ENDTAB
  0
TABLE
  2
APPID
  5
9
330
0
100
AcDbSymbolTable
 70
     1
  0
APPID
  5
12
330
9
100
AcDbSymbolTableRecord
100
AcDbRegAppTableRecord
  2
ACAD
 70
     0
  0
ENDTAB
  0
TABLE
  2
DIMSTYLE
  5
A
330
0
100
AcDbSymbolTable
 70
     1
100
AcDbDimStyleTable
  0
DIMSTYLE
105
27
330
A
100
AcDbSymbolTableRecord
100
AcDbDimStyleTableRecord
  2
ISO-25
 70
     0
 41
2.5
 42
0.625
 43
3.75
 44
1.25
 73
     0
 74
     0
 77
     1
 78
     8
140
2.5
141
2.5
143
0.03937007874016
147
0.625
171
     3
172
     1
271
     2
272
     2
274
     3
278
    44
283
     0
284
     8
340
11
  0
ENDTAB
  0
TABLE
  2
BLOCK_RECORD
  5
1
330
0
100
AcDbSymbolTable
 70
     1
  0
BLOCK_RECORD
  5
1F
330
1
100
AcDbSymbolTableRecord
100
AcDbBlockTableRecord
  2
*Model_Space
340
22
  0
BLOCK_RECORD
  5
1B
330
1
100
AcDbSymbolTableRecord
100
AcDbBlockTableRecord
  2
*Paper_Space
340
1E
  0
BLOCK_RECORD
  5
23
330
1
100
AcDbSymbolTableRecord
100
AcDbBlockTableRecord
  2
*Paper_Space0
340
26
  0
ENDTAB
  0
ENDSEC
  0
SECTION
  2
BLOCKS
  0
BLOCK
  5
20
330
1F
100
AcDbEntity
  8
0
100
AcDbBlockBegin
  2
*Model_Space
 70
     0
 10
0.0
 20
0.0
 30
0.0
  3
*Model_Space
  1

  0
ENDBLK
  5
21
330
1F
100
AcDbEntity
  8
0
100
AcDbBlockEnd
  0
BLOCK
  5
1C
330
1B
100
AcDbEntity
 67
     1
  8
0
100
AcDbBlockBegin
  2
*Paper_Space
 70
     0
 10
0.0
 20
0.0
 30
0.0
  3
*Paper_Space
  1

  0
ENDBLK
  5
1D
330
1B
100
AcDbEntity
 67
     1
  8
0
100
AcDbBlockEnd
  0
BLOCK
  5
24
330
23
100
AcDbEntity
  8
0
100
AcDbBlockBegin
  2
*Paper_Space0
 70
     0
 10
0.0
 20
0.0
 30
0.0
  3
*Paper_Space0
  1

  0
ENDBLK
  5
25
330
23
100
AcDbEntity
  8
0
100
AcDbBlockEnd
  0
ENDSEC
  0
SECTION
  2
ENTITIES
  0
ARC
  5
50
330
1F
100
AcDbEntity
  8
D-2
  6
Continuous
 62
     3
370
     9
100
AcDbCircle
 10
-978.0047709070805
 20
-269.1087444054108
 30
0.0
 40
5.0
100
AcDbArc
 50
0.0
 51
90.00000000000001
  0
LINE
  5
51
330
1F
100
AcDbEntity
  8
D-2
  6
Continuous
 62
     3
370
     9
100
AcDbLine
 10
-739.5042139612797
 20
-333.1088595615847
 30
0.0
 11
-739.5042139612797
 21
-258.1087612139208
 31
0.0
  0
LINE
  5
52
330
1F
100
AcDbEntity
  8
D-2
  6
Continuous
 62
     3
370
     9
100
AcDbLine
 10
-1414.504137667334
 20
-333.1088595615847
 30
0.0
 11
-739.5042139612797
 21
-333.1088595615847
 31
0.0
  0
LINE
  5
53
330
1F
100
AcDbEntity
  8
D-2
  6
Continuous
 62
     3
370
     9
100
AcDbLine
 10
-739.5042139612797
 20
-258.1087612139208
 30
0.0
 11
-1414.504137667334
 21
-258.1087612139208
 31
0.0
  0
LINE
  5
54
330
1F
100
AcDbEntity
  8
D-2
  6
Continuous
 62
     3
370
     9
100
AcDbLine
 10
-1369.504175814307
 20
-264.1087444054108
 30
0.0
 11
-1369.504175814307
 21
-258.1087612139208
 31
0.0
  0
LINE
  5
55
330
1F
100
AcDbEntity
  8
D-2
  6
Continuous
 62
     3
370
     9
100
AcDbLine
 10
-1409.504824312842
 20
-264.1087444054108
 30
0.0
 11
-1409.504824312842
 21
-258.1087612139208
 31
0.0
  0
LINE
  5
56
330
1F
100
AcDbEntity
  8
D-2
  6
Continuous
 62
     3
370
     9
100
AcDbLine
 10
-1313.504801424659
 20
-264.1087444054108
 30
0.0
 11
-1302.004480990088
 21
-264.1087444054108
 31
0.0
  0
LINE
  5
57
330
1F
100
AcDbEntity
  8
D-2
  6
Continuous
 62
     3
370
     9
100
AcDbLine
 10
-1339.505015047705
 20
-264.1087444054108
 30
0.0
 11
-1299.50436654917
 21
-264.1087444054108
 31
0.0
  0
LINE
  5
58
330
1F
100
AcDbEntity
  8
D-2
  6
Continuous
 62
     3
370
     9
100
AcDbLine
 10
-1299.50436654917
 20
-264.1087444054108
 30
0.0
 11
-1299.50436654917
 21
-258.1087612139208
 31
0.0
  0
LINE
  5
59
330
1F
100
AcDbEntity
  8
D-2
  6
Continuous
 62
     3
370
     9
100
AcDbLine
 10
-1339.505015047705
 20
-264.1087444054108
 30
0.0
 11
-1339.505015047705
 21
-258.1087612139208
 31
0.0
  0
LINE
  5
5A
330
1F
100
AcDbEntity
  8
D-2
  6
Continuous
 62
     3
370
     9
100
AcDbLine
 10
-1243.504954012549
 20
-264.1087444054108
 30
0.0
 11
-1232.004633577979
 21
-264.1087444054108
 31
0.0
  0
LINE
  5
5B
330
1F
100
AcDbEntity
  8
D-2
  6
Continuous
 62
     3
370
     9
100
AcDbLine
 10
-1269.505167635596
 20
-264.1087444054108
 30
0.0
 11
-1229.504519137061
 21
-264.1087444054108
 31
0.0
  0
LINE
  5
5C
330
1F
100
AcDbEntity
  8
D-2
  6
Continuous
 62
     3
370
     9
100
AcDbLine
 10
-1229.504519137061
 20
-264.1087444054108
 30
0.0
 11
-1229.504519137061
 21
-258.1087612139208
 31
0.0
  0
LINE
  5
5D
330
1F
100
AcDbEntity
  8
D-2
  6
Continuous
 62
     3
370
     9
100
AcDbLine
 10
-1269.505167635596
 20
-264.1087444054108
 30
0.0
 11
-1269.505167635596
 21
-258.1087612139208
 31
0.0
  0
LINE
  5
5E
330
1F
100
AcDbEntity
  8
D-2
  6
Continuous
 62
     3
370
     9
100
AcDbLine
 10
-1173.504648836768
 20
-264.1087444054108
 30
0.0
 11
-1162.004328402198
 21
-264.1087444054108
 31
0.0
  0
LINE
  5
5F
330
1F
100
AcDbEntity
  8
D-2
  6
Continuous
 62
     3
370
     9
100
AcDbLine
 10
-1199.504862459815
 20
-264.1087444054108
 30
0.0
 11
-1159.50421396128
 21
-264.1087444054108
 31
0.0
  0
LINE
  5
60
330
1F
100
AcDbEntity
  8
D-2
  6
Continuous
 62
     3
370
     9
100
AcDbLine
 10
-1159.50421396128
 20
-264.1087444054108
 30
0.0
 11
-1159.50421396128
 21
-258.1087612139208
 31
0.0
  0
LINE
  5
61
330
1F
100
AcDbEntity
  8
D-2
  6
Continuous
 62
     3
370
     9
100
AcDbLine
 10
-1199.504862459815
 20
-264.1087444054108
 30
0.0
 11
-1199.504862459815
 21
-258.1087612139208
 31
0.0
  0
LINE
  5
62
330
1F
100
AcDbEntity
  8
D-2
  6
Continuous
 62
     3
370
     9
100
AcDbLine
 10
-1103.504801424659
 20
-264.1087444054108
 30
0.0
 11
-1092.004480990088
 21
-264.1087444054108
 31
0.0
  0
LINE
  5
63
330
1F
100
AcDbEntity
  8
D-2
  6
Continuous
 62
     3
370
     9
100
AcDbLine
 10
-1129.505015047705
 20
-264.1087444054108
 30
0.0
 11
-1089.50436654917
 21
-264.1087444054108
 31
0.0
  0
LINE
  5
64
330
1F
100
AcDbEntity
  8
D-2
  6
Continuous
 62
     3
370
     9
100
AcDbLine
 10
-1089.50436654917
 20
-264.1087444054108
 30
0.0
 11
-1089.50436654917
 21
-258.1087612139208
 31
0.0
  0
LINE
  5
65
330
1F
100
AcDbEntity
  8
D-2
  6
Continuous
 62
     3
370
     9
100
AcDbLine
 10
-1129.505015047705
 20
-264.1087444054108
 30
0.0
 11
-1129.505015047705
 21
-258.1087612139208
 31
0.0
  0
LINE
  5
66
330
1F
100
AcDbEntity
  8
D-2
  6
Continuous
 62
     3
370
     9
100
AcDbLine
 10
-1033.504973086036
 20
-264.1087444054108
 30
0.0
 11
-1022.004652651465
 21
-264.1087444054108
 31
0.0
  0
LINE
  5
67
330
1F
100
AcDbEntity
  8
D-2
  6
Continuous
 62
     3
370
     9
100
AcDbLine
 10
-1059.505186709082
 20
-264.1087444054108
 30
0.0
 11
-1019.504538210547
 21
-264.1087444054108
 31
0.0
  0
LINE
  5
68
330
1F
100
AcDbEntity
  8
D-2
  6
Continuous
 62
     3
370
     9
100
AcDbLine
 10
-1019.504538210547
 20
-264.1087444054108
 30
0.0
 11
-1019.504538210547
 21
-258.1087612139208
 31
0.0
  0
LINE
  5
69
330
1F
100
AcDbEntity
  8
D-2
  6
Continuous
 62
     3
370
     9
100
AcDbLine
 10
-1059.505186709082
 20
-264.1087444054108
 30
0.0
 11
-1059.505186709082
 21
-258.1087612139208
 31
0.0
  0
LINE
  5
6A
330
1F
100
AcDbEntity
  8
D-2
  6
Continuous
 62
     3
370
     9
100
AcDbLine
 10
-963.504648836768
 20
-264.1087444054108
 30
0.0
 11
-952.0043284021976
 21
-264.1087444054108
 31
0.0
  0
LINE
  5
6B
330
1F
100
AcDbEntity
  8
D-2
  6
Continuous
 62
     3
370
     9
100
AcDbLine
 10
-989.5048624598148
 20
-264.1087444054108
 30
0.0
 11
-949.5042139612797
 21
-264.1087444054108
 31
0.0
  0
LINE
  5
6C
330
1F
100
AcDbEntity
  8
D-2
  6
Continuous
 62
     3
370
     9
100
AcDbLine
 10
-949.5042139612797
 20
-264.1087444054108
 30
0.0
 11
-949.5042139612797
 21
-258.1087612139208
 31
0.0
  0
LINE
  5
6D
330
1F
100
AcDbEntity
  8
D-2
  6
Continuous
 62
     3
370
     9
100
AcDbLine
 10
-989.5048624598148
 20
-264.1087444054108
 30
0.0
 11
-989.5048624598148
 21
-258.1087612139208
 31
0.0
  0
LINE
  5
6E
330
1F
100
AcDbEntity
  8
D-2
  6
Continuous
 62
     3
370
     9
100
AcDbLine
 10
-893.5048204981449
 20
-264.1087444054108
 30
0.0
 11
-882.0045000635746
 21
-264.1087444054108
 31
0.0
  0
LINE
  5
6F
330
1F
100
AcDbEntity
  8
D-2
  6
Continuous
 62
     3
370
     9
100
AcDbLine
 10
-919.5050341211918
 20
-264.1087444054108
 30
0.0
 11
-879.5043856226566
 21
-264.1087444054108
 31
0.0
  0
LINE
  5
70
330
1F
100
AcDbEntity
  8
D-2
  6
Continuous
 62
     3
370
     9
100
AcDbLine
 10
-879.5043856226566
 20
-264.1087444054108
 30
0.0
 11
-879.5043856226566
 21
-258.1087612139208
 31
0.0
  0
LINE
  5
71
330
1F
100
AcDbEntity
  8
D-2
  6
Continuous
 62
     3
370
     9
100
AcDbLine
 10
-919.5050341211918
 20
-264.1087444054108
 30
0.0
 11
-919.5050341211918
 21
-258.1087612139208
 31
0.0
  0
LINE
  5
72
330
1F
100
AcDbEntity
  8
D-2
  6
Continuous
 62
     3
370
     9
100
AcDbLine
 10
-823.5049921595219
 20
-264.1087444054108
 30
0.0
 11
-812.0046717249515
 21
-264.1087444054108
 31
0.0
  0
LINE
  5
73
330
1F
100
AcDbEntity
  8
D-2
  6
Continuous
 62
     3
370
     9
100
AcDbLine
 10
-849.5052057825687
 20
-264.1087444054108
 30
0.0
 11
-809.5045572840336
 21
-264.1087444054108
 31
0.0
  0
LINE
  5
74
330
1F
100
AcDbEntity
  8
D-2
  6
Continuous
 62
     3
370
     9
100
AcDbLine
 10
-809.5045572840336
 20
-264.1087444054108
 30
0.0
 11
-809.5045572840336
 21
-258.1087612139208
 31
0.0
  0
LINE
  5
75
330
1F
100
AcDbEntity
  8
D-2
  6
Continuous
 62
     3
370
     9
100
AcDbLine
 10
-849.5052057825687
 20
-264.1087444054108
 30
0.0
 11
-849.5052057825687
 21
-258.1087612139208
 31
0.0
  0
LINE
  5
76
330
1F
100
AcDbEntity
  8
D-2
  6
Continuous
 62
     3
370
     9
100
AcDbLine
 10
-753.5041767679813
 20
-264.1087444054108
 30
0.0
 11
-742.003856333411
 21
-264.1087444054108
 31
0.0
  0
LINE
  5
77
330
1F
100
AcDbEntity
  8
D-2
  6
Continuous
 62
     3
370
     9
100
AcDbLine
 10
-779.5043903910282
 20
-264.1087444054108
 30
0.0
 11
-739.503741892493
 21
-264.1087444054108
 31
0.0
  0
LINE
  5
78
330
1F
100
AcDbEntity
  8
D-2
  6
Continuous
 62
     3
370
     9
100
AcDbLine
 10
-739.503741892493
 20
-264.1087444054108
 30
0.0
 11
-739.503741892493
 21
-258.1087612139208
 31
0.0
  0
LINE
  5
79
330
1F
100
AcDbEntity
  8
D-2
  6
Continuous
 62
     3
370
     9
100
AcDbLine
 10
-779.5043903910282
 20
-264.1087444054108
 30
0.0
 11
-779.5043903910282
 21
-258.1087612139208
 31
0.0
  0
ARC
  5
7A
330
1F
100
AcDbEntity
  8
D-2
  6
Continuous
 62
     3
370
     9
100
AcDbCircle
 10
-1398.004732760108
 20
-269.1087444054108
 30
0.0
 40
5.0
100
AcDbArc
 50
0.0
 51
90.00000000000001
  0
ARC
  5
7B
330
1F
100
AcDbEntity
  8
D-2
  6
Continuous
 62
     3
370
     9
100
AcDbCircle
 10
-1381.004763277686
 20
-269.1087444054108
 30
0.0
 40
5.0
100
AcDbArc
 50
90.0
 51
180.0
  0
LINE
  5
7C
330
1F
100
AcDbEntity
  8
D-2
  6
Continuous
 62
     3
370
     9
100
AcDbLine
 10
-1409.504824312842
 20
-264.1087444054108
 30
0.0
 11
-1369.504175814307
 21
-264.1087444054108
 31
0.0
  0
ARC
  5
7D
330
1F
100
AcDbEntity
  8
D-2
  6
Continuous
 62
     3
370
     9
100
AcDbCircle
 10
-1328.004923494971
 20
-269.1087444054108
 30
0.0
 40
5.0
100
AcDbArc
 50
0.0
 51
90.00000000000001
  0
ARC
  5
7E
330
1F
100
AcDbEntity
  8
D-2
  6
Continuous
 62
     3
370
     9
100
AcDbCircle
 10
-1311.004954012549
 20
-269.1087444054108
 30
0.0
 40
5.0
100
AcDbArc
 50
90.0
 51
180.0
  0
ARC
  5
7F
330
1F
100
AcDbEntity
  8
D-2
  6
Continuous
 62
     3
370
     9
100
AcDbCircle
 10
-1258.005076082862
 20
-269.1087444054108
 30
0.0
 40
5.0
100
AcDbArc
 50
0.0
 51
90.00000000000001
  0
ARC
  5
80
330
1F
100
AcDbEntity
  8
D-2
  6
Continuous
 62
     3
370
     9
100
AcDbCircle
 10
-1241.00510660044
 20
-269.1087444054108
 30
0.0
 40
5.0
100
AcDbArc
 50
90.0
 51
180.0
  0
ARC
  5
81
330
1F
100
AcDbEntity
  8
D-2
  6
Continuous
 62
     3
370
     9
100
AcDbCircle
 10
-1188.00477090708
 20
-269.1087444054108
 30
0.0
 40
5.0
100
AcDbArc
 50
0.0
 51
90.00000000000001
  0
ARC
  5
82
330
1F
100
AcDbEntity
  8
D-2
  6
Continuous
 62
     3
370
     9
100
AcDbCircle
 10
-1171.004801424659
 20
-269.1087444054108
 30
0.0
 40
5.0
100
AcDbArc
 50
90.0
 51
180.0
  0
ARC
  5
83
330
1F
100
AcDbEntity
  8
D-2
  6
Continuous
 62
     3
370
     9
100
AcDbCircle
 10
-1118.004923494971
 20
-269.1087444054108
 30
0.0
 40
5.0
100
AcDbArc
 50
0.0
 51
90.00000000000001
  0
ARC
  5
84
330
1F
100
AcDbEntity
  8
D-2
  6
Continuous
 62
     3
370
     9
100
AcDbCircle
 10
-1101.004954012549
 20
-269.1087444054108
 30
0.0
 40
5.0
100
AcDbArc
 50
90.0
 51
180.0
  0
ARC
  5
85
330
1F
100
AcDbEntity
  8
D-2
  6
Continuous
 62
     3
370
     9
100
AcDbCircle
 10
-1048.005095156348
 20
-269.1087444054108
 30
0.0
 40
5.0
100
AcDbArc
 50
0.0
 51
90.00000000000001
  0
ARC
  5
86
330
1F
100
AcDbEntity
  8
D-2
  6
Continuous
 62
     3
370
     9
100
AcDbCircle
 10
-1031.005125673926
 20
-269.1087444054108
 30
0.0
 40
5.0
100
AcDbArc
 50
90.0
 51
180.0
  0
ARC
  5
87
330
1F
100
AcDbEntity
  8
D-2
  6
Continuous
 62
     3
370
     9
100
AcDbCircle
 10
-961.0048014246586
 20
-269.1087444054108
 30
0.0
 40
5.0
100
AcDbArc
 50
90.0
 51
180.0
  0
ARC
  5
88
330
1F
100
AcDbEntity
  8
D-2
  6
Continuous
 62
     3
370
     9
100
AcDbCircle
 10
-908.0049425684574
 20
-269.1087444054108
 30
0.0
 40
5.0
100
AcDbArc
 50
0.0
 51
90.00000000000001
  0
ARC
  5
89
330
1F
100
AcDbEntity
  8
D-2
  6
Continuous
 62
     3
370
     9
100
AcDbCircle
 10
-891.0049730860355
 20
-269.1087444054108
 30
0.0
 40
5.0
100
AcDbArc
 50
90.0
 51
180.0
  0
ARC
  5
8A
330
1F
100
AcDbEntity
  8
D-2
  6
Continuous
 62
     3
370
     9
100
AcDbCircle
 10
-838.0051142298344
 20
-269.1087444054108
 30
0.0
 40
5.0
100
AcDbArc
 50
0.0
 51
90.00000000000001
  0
ARC
  5
8B
330
1F
100
AcDbEntity
  8
D-2
  6
Continuous
 62
     3
370
     9
100
AcDbCircle
 10
-821.0051447474125
 20
-269.1087444054108
 30
0.0
 40
5.0
100
AcDbArc
 50
90.0
 51
180.0
  0
ARC
  5
8C
330
1F
100
AcDbEntity
  8
D-2
  6
Continuous
 62
     3
370
     9
100
AcDbCircle
 10
-768.0042988382938
 20
-269.1087444054108
 30
0.0
 40
5.0
100
AcDbArc
 50
0.0
 51
90.00000000000001
  0
ARC
  5
8D
330
1F
100
AcDbEntity
  8
D-2
  6
Continuous
 62
     3
370
     9
100
AcDbCircle
 10
-751.004329355872
 20
-269.1087444054108
 30
0.0
 40
5.0
100
AcDbArc
 50
90.0
 51
180.0
  0
LINE
  5
8E
330
1F
100
AcDbEntity
  8
D-2
  6
Continuous
 62
     3
370
     9
100
AcDbLine
 10
-763.0042988382938
 20
-333.1088595615847
 30
0.0
 11
-763.0042988382938
 21
-269.1087444054108
 31
0.0
  0
LINE
  5
8F
330
1F
100
AcDbEntity
  8
D-2
  6
Continuous
 62
     3
370
     9
100
AcDbLine
 10
-756.004329355872
 20
-269.1087444054108
 30
0.0
 11
-756.004329355872
 21
-333.1088595615847
 31
0.0
  0
LINE
  5
90
330
1F
100
AcDbEntity
  8
D-2
  6
Continuous
 62
     3
370
     9
100
AcDbLine
 10
-833.0051142298344
 20
-333.1088595615847
 30
0.0
 11
-833.0051142298344
 21
-269.1087444054108
 31
0.0
  0
LINE
  5
91
330
1F
100
AcDbEntity
  8
D-2
  6
Continuous
 62
     3
370
     9
100
AcDbLine
 10
-826.0051447474125
 20
-269.1087444054108
 30
0.0
 11
-826.0051447474125
 21
-333.1088595615847
 31
0.0
  0
LINE
  5
92
330
1F
100
AcDbEntity
  8
D-2
  6
Continuous
 62
     3
370
     9
100
AcDbLine
 10
-903.0049425684574
 20
-333.1088595615847
 30
0.0
 11
-903.0049425684574
 21
-269.1087444054108
 31
0.0
  0
LINE
  5
93
330
1F
100
AcDbEntity
  8
D-2
  6
Continuous
 62
     3
370
     9
100
AcDbLine
 10
-896.0049730860355
 20
-269.1087444054108
 30
0.0
 11
-896.0049730860355
 21
-333.1088595615847
 31
0.0
  0
LINE
  5
94
330
1F
100
AcDbEntity
  8
D-2
  6
Continuous
 62
     3
370
     9
100
AcDbLine
 10
-973.0047709070805
 20
-333.1088595615847
 30
0.0
 11
-973.0047709070805
 21
-269.1087444054108
 31
0.0
  0
LINE
  5
95
330
1F
100
AcDbEntity
  8
D-2
  6
Continuous
 62
     3
370
     9
100
AcDbLine
 10
-966.0048014246586
 20
-269.1087444054108
 30
0.0
 11
-966.0048014246586
 21
-333.1088595615847
 31
0.0
  0
LINE
  5
96
330
1F
100
AcDbEntity
  8
D-2
  6
Continuous
 62
     3
370
     9
100
AcDbLine
 10
-1043.005095156348
 20
-333.1088595615847
 30
0.0
 11
-1043.005095156348
 21
-269.1087444054108
 31
0.0
  0
LINE
  5
97
330
1F
100
AcDbEntity
  8
D-2
  6
Continuous
 62
     3
370
     9
100
AcDbLine
 10
-1036.005125673926
 20
-269.1087444054108
 30
0.0
 11
-1036.005125673926
 21
-333.1088595615847
 31
0.0
  0
LINE
  5
98
330
1F
100
AcDbEntity
  8
D-2
  6
Continuous
 62
     3
370
     9
100
AcDbLine
 10
-1113.004923494971
 20
-333.1088595615847
 30
0.0
 11
-1113.004923494971
 21
-269.1087444054108
 31
0.0
  0
LINE
  5
99
330
1F
100
AcDbEntity
  8
D-2
  6
Continuous
 62
     3
370
     9
100
AcDbLine
 10
-1106.004954012549
 20
-269.1087444054108
 30
0.0
 11
-1106.004954012549
 21
-333.1088595615847
 31
0.0
  0
LINE
  5
9A
330
1F
100
AcDbEntity
  8
D-2
  6
Continuous
 62
     3
370
     9
100
AcDbLine
 10
-1183.00477090708
 20
-333.1088595615847
 30
0.0
 11
-1183.00477090708
 21
-269.1087444054108
 31
0.0
  0
LINE
  5
9B
330
1F
100
AcDbEntity
  8
D-2
  6
Continuous
 62
     3
370
     9
100
AcDbLine
 10
-1176.004801424659
 20
-269.1087444054108
 30
0.0
 11
-1176.004801424659
 21
-333.1088595615847
 31
0.0
  0
LINE
  5
9C
330
1F
100
AcDbEntity
  8
D-2
  6
Continuous
 62
     3
370
     9
100
AcDbLine
 10
-1253.005076082862
 20
-333.1088595615847
 30
0.0
 11
-1253.005076082862
 21
-269.1087444054108
 31
0.0
  0
LINE
  5
9D
330
1F
100
AcDbEntity
  8
D-2
  6
Continuous
 62
     3
370
     9
100
AcDbLine
 10
-1246.00510660044
 20
-269.1087444054108
 30
0.0
 11
-1246.00510660044
 21
-333.1088595615847
 31
0.0
  0
LINE
  5
9E
330
1F
100
AcDbEntity
  8
D-2
  6
Continuous
 62
     3
370
     9
100
AcDbLine
 10
-1323.004923494971
 20
-333.1088595615847
 30
0.0
 11
-1323.004923494971
 21
-269.1087444054108
 31
0.0
  0
LINE
  5
9F
330
1F
100
AcDbEntity
  8
D-2
  6
Continuous
 62
     3
370
     9
100
AcDbLine
 10
-1316.004954012549
 20
-269.1087444054108
 30
0.0
 11
-1316.004954012549
 21
-333.1088595615847
 31
0.0
  0
LINE
  5
A0
330
1F
100
AcDbEntity
  8
D-4
  6
Continuous
 62
     7
370
     9
100
AcDbLine
 10
-1437.171831759131
 20
-134.6896099077685
 30
0.0
 11
-864.5040518366459
 21
-134.6896099077685
 31
0.0
  0
LINE
  5
A1
330
1F
100
AcDbEntity
  8
D-4
  6
Continuous
 62
     7
370
     9
100
AcDbLine
 10
-864.5040518366459
 20
-240.1531087385638
 30
0.0
 11
-864.5040518366459
 21
-131.6890453325732
 31
0.0
  0
LINE
  5
A2
330
1F
100
AcDbEntity
  8
D-4
  6
Continuous
 62
     7
370
     9
100
AcDbLine
 10
-864.5040518366459
 20
-134.6896099077685
 30
0.0
 11
-739.5042139612797
 21
-134.6896099077685
 31
0.0
  0
LINE
  5
A3
330
1F
100
AcDbEntity
  8
D-4
  6
Continuous
 62
     7
370
     9
100
AcDbLine
 10
-739.5042139612797
 20
-240.1531087385638
 30
0.0
 11
-739.5042139612797
 21
-22.93761482109858
 31
0.0
  0
LINE
  5
A4
330
1F
100
AcDbEntity
  8
D-4
  6
Continuous
 62
     7
370
     9
100
AcDbLine
 10
-734.5039433561924
 20
-240.1531087385638
 30
0.0
 11
-734.5039433561924
 21
-22.93761482109858
 31
0.0
  0
LINE
  5
A5
330
1F
100
AcDbEntity
  8
D-4
  6
Continuous
 62
     7
370
     9
100
AcDbLine
 10
-709.5050651156071
 20
-240.1531087385638
 30
0.0
 11
-709.5050651156071
 21
87.75904426703619
 31
0.0
  0
LINE
  5
A6
330
1F
100
AcDbEntity
  8
D-4
  6
Continuous
 62
     7
370
     9
100
AcDbLine
 10
-864.5040518366459
 20
-661.2272380815966
 30
0.0
 11
-714.5048410021427
 21
-661.2272380815966
 31
0.0
  0
LINE
  5
A7
330
1F
100
AcDbEntity
  8
D-4
  6
Continuous
 62
     7
370
     9
100
AcDbLine
 10
-192.8188425623539
 20
-505.6084369646533
 30
0.0
 11
-192.8188425623539
 21
-255.6087612139208
 31
0.0
  0
LINE
  5
A8
330
1F
100
AcDbEntity
  8
D-4
  6
Continuous
 62
     7
370
     9
100
AcDbLine
 10
-288.474016817725
 20
-255.6087612139208
 30
0.0
 11
-189.8192698084476
 21
-255.6087612139208
 31
0.0
  0
LINE
  5
A9
330
1F
100
AcDbEntity
  8
D-6
  6
Continuous
 62
     6
370
     9
100
AcDbLine
 10
-714.5048410021427
 20
-505.6084369646533
 30
0.0
 11
-714.5048410021427
 21
-755.6081127153857
 31
0.0
  0
LINE
  5
AA
330
1F
100
AcDbEntity
  8
D-6
  6
JWW_DASHED3
 62
     6
370
     9
100
AcDbLine
 10
-621.0029512964848
 20
-633.1084178911669
 30
0.0
 11
-621.0029512964848
 21
-505.6084369646533
 31
0.0
  0
LINE
  5
AB
330
1F
100
AcDbEntity
  8
D-6
  6
JWW_DASHED3
 62
     6
370
     9
100
AcDbLine
 10
-576.0024935328129
 20
-505.6084369646533
 30
0.0
 11
-576.0024935328129
 21
-633.1084178911669
 31
0.0
  0
LINE
  5
AC
330
1F
100
AcDbEntity
  8
D-6
  6
Continuous
 62
     6
370
     9
100
AcDbLine
 10
-464.504175814307
 20
-405.6089614855273
 30
0.0
 11
-299.503183993018
 21
-405.6089614855273
 31
0.0
  0
LINE
  5
AD
330
1F
100
AcDbEntity
  8
D-6
  6
Continuous
 62
     6
370
     9
100
AcDbLine
 10
-464.504175814307
 20
-405.6089614855273
 30
0.0
 11
-464.504175814307
 21
-505.6084369646533
 31
0.0
  0
LINE
  5
AE
330
1F
100
AcDbEntity
  8
D-4
  6
Continuous
 62
     7
370
     9
100
AcDbLine
 10
-408.7252909266117
 20
-505.6084369646533
 30
0.0
 11
-189.8192698084476
 21
-505.6084369646533
 31
0.0
  0
LINE
  5
AF
330
1F
100
AcDbEntity
  8
D-6
  6
Continuous
 62
     6
370
     9
100
AcDbLine
 10
-714.5048410021427
 20
-505.6084369646533
 30
0.0
 11
-464.504175814307
 21
-505.6084369646533
 31
0.0
  0
LINE
  5
B0
330
1F
100
AcDbEntity
  8
D-6
  6
Continuous
 62
     6
370
     9
100
AcDbLine
 10
-621.0029512964848
 20
-308.1086324678881
 30
0.0
 11
-576.0024935328129
 21
-308.1086324678881
 31
0.0
  0
LINE
  5
B1
330
1F
100
AcDbEntity
  8
D-6
  6
JWW_CENTER2
 62
     6
370
     9
100
AcDbLine
 10
-598.5027224146488
 20
-304.0294383989794
 30
0.0
 11
-598.5027224146488
 21
-633.1084178911669
 31
0.0
  0
LINE
  5
B2
330
1F
100
AcDbEntity
  8
D-4
  6
Continuous
 62
     7
370
     9
100
AcDbLine
 10
-709.5050651156071
 20
-393.5760044085009
 30
0.0
 11
-709.5050651156071
 21
-464.918548964165
 31
0.0
  0
LINE
  5
B3
330
1F
100
AcDbEntity
  8
D-6
  6
Continuous
 62
     6
370
     9
100
AcDbLine
 10
-621.0029512964848
 20
-340.6084083544238
 30
0.0
 11
-621.0029512964848
 21
-308.1086324678881
 31
0.0
  0
LINE
  5
B4
330
1F
100
AcDbEntity
  8
D-6
  6
Continuous
 62
     6
370
     9
100
AcDbLine
 10
-576.0024935328129
 20
-340.6084083544238
 30
0.0
 11
-576.0024935328129
 21
-308.1086324678881
 31
0.0
  0
LINE
  5
B5
330
1F
100
AcDbEntity
  8
D-6
  6
Continuous
 62
     6
370
     9
100
AcDbLine
 10
-621.0029512964848
 20
-505.6084369646533
 30
0.0
 11
-621.0029512964848
 21
-390.6081508623583
 31
0.0
  0
LINE
  5
B6
330
1F
100
AcDbEntity
  8
D-6
  6
Continuous
 62
     6
370
     9
100
AcDbLine
 10
-576.0024935328129
 20
-505.6084369646533
 30
0.0
 11
-576.0024935328129
 21
-390.6081508623583
 31
0.0
  0
LINE
  5
B7
330
1F
100
AcDbEntity
  8
D-4
  6
Continuous
 62
     7
370
     9
100
AcDbLine
 10
-737.6491788350704
 20
-255.6087612139208
 30
0.0
 11
-1012.987127932227
 21
-255.6087612139208
 31
0.0
  0
LINE
  5
B8
330
1F
100
AcDbEntity
  8
D-4
  6
Continuous
 62
     7
370
     9
100
AcDbLine
 10
-1437.171831759131
 20
84.75847969184088
 30
0.0
 11
-709.5050651156071
 21
84.75847969184088
 31
0.0
  0
LINE
  5
B9
330
1F
100
AcDbEntity
  8
D-4
  6
Continuous
 62
     7
370
     9
100
AcDbLine
 10
-1437.171831759131
 20
-25.93718757500483
 30
0.0
 11
-673.4185892664555
 21
-25.93718757500483
 31
0.0
  0
LINE
  5
BA
330
1F
100
AcDbEntity
  8
D-4
  6
Continuous
 62
     7
370
     9
100
AcDbLine
 10
-709.5050651156071
 20
-461.918003462456
 30
0.0
 11
-564.5046335779789
 21
-461.918003462456
 31
0.0
  0
LINE
  5
BB
330
1F
100
AcDbEntity
  8
D-6
  6
Continuous
 62
     6
370
     9
100
AcDbLine
 10
-464.504175814307
 20
-452.9485248552783
 30
0.0
 11
-417.1641260706547
 21
-405.6084655748828
 31
0.0
  0
LINE
  5
BC
330
1F
100
AcDbEntity
  8
D-6
  6
Continuous
 62
     6
370
     9
100
AcDbLine
 10
-714.5038515650394
 20
-702.9462169634326
 30
0.0
 11
-517.1645838343265
 21
-505.6084369646533
 31
0.0
  0
LINE
  5
BD
330
1F
100
AcDbEntity
  8
D-6
  6
Continuous
 62
     6
370
     9
100
AcDbLine
 10
-714.5038515650394
 20
-717.0868801104052
 30
0.0
 11
-503.0239016138676
 21
-505.6084369646533
 31
0.0
  0
LINE
  5
BE
330
1F
100
AcDbEntity
  8
D-6
  6
Continuous
 62
     6
370
     9
100
AcDbLine
 10
-464.504175814307
 20
-467.0892070757372
 30
0.0
 11
-403.0234247767094
 21
-405.6084655748828
 31
0.0
  0
LINE
  5
BF
330
1F
100
AcDbEntity
  8
D-6
  6
Continuous
 62
     6
370
     9
100
AcDbLine
 10
-714.5038515650394
 20
-731.2275814043505
 30
0.0
 11
-488.8832193934086
 21
-505.6084369646533
 31
0.0
  0
LINE
  5
C0
330
1F
100
AcDbEntity
  8
D-6
  6
Continuous
 62
     6
370
     9
100
AcDbLine
 10
-464.504175814307
 20
-481.2298892961962
 30
0.0
 11
-388.8827616297367
 21
-405.6084655748828
 31
0.0
  0
LINE
  5
C1
330
1F
100
AcDbEntity
  8
D-6
  6
Continuous
 62
     6
370
     9
100
AcDbLine
 10
-375.331698092139
 20
-755.6081127153857
 30
0.0
 11
-299.503183993018
 21
-679.7800945269091
 31
0.0
  0
LINE
  5
C2
330
1F
100
AcDbEntity
  8
D-6
  6
Continuous
 62
     6
370
     9
100
AcDbLine
 10
-389.4723612391117
 20
-755.6081127153857
 30
0.0
 11
-299.503183993018
 21
-665.6393932329638
 31
0.0
  0
LINE
  5
C3
330
1F
100
AcDbEntity
  8
D-6
  6
Continuous
 62
     6
370
     9
100
AcDbLine
 10
-361.1909967981937
 20
-755.6081127153857
 30
0.0
 11
-299.503183993018
 21
-693.9207576738818
 31
0.0
  0
LINE
  5
C4
330
1F
100
AcDbEntity
  8
D-0
  6
Continuous
 62
     7
370
     9
100
AcDbLine
 10
-437.6586824976566
 20
-276.5581726061328
 30
0.0
 11
-437.6586824976566
 21
-275.0578927027209
 31
0.0
  0
LINE
  5
C5
330
1F
100
AcDbEntity
  8
D-0
  6
Continuous
 62
     7
370
     9
100
AcDbLine
 10
-437.6586824976566
 20
-275.0578927027209
 30
0.0
 11
-436.1589151941898
 21
-275.0578927027209
 31
0.0
  0
LINE
  5
C6
330
1F
100
AcDbEntity
  8
D-0
  6
Continuous
 62
     7
370
     9
100
AcDbLine
 10
-436.1589151941898
 20
-275.0578927027209
 30
0.0
 11
-436.1589151941898
 21
-276.5581726061328
 31
0.0
  0
LINE
  5
C7
330
1F
100
AcDbEntity
  8
D-0
  6
Continuous
 62
     7
370
     9
100
AcDbLine
 10
-436.1589151941898
 20
-276.5581726061328
 30
0.0
 11
-437.6586824976566
 21
-276.5581726061328
 31
0.0
  0
LINE
  5
C8
330
1F
100
AcDbEntity
  8
D-0
  6
Continuous
 62
     7
370
     9
100
AcDbLine
 10
-386.902857454932
 20
-279.2654131876452
 30
0.0
 11
-386.902857454932
 21
-277.7651332842333
 31
0.0
  0
LINE
  5
C9
330
1F
100
AcDbEntity
  8
D-0
  6
Continuous
 62
     7
370
     9
100
AcDbLine
 10
-386.902857454932
 20
-277.7651332842333
 30
0.0
 11
-385.4025751673344
 21
-277.7651332842333
 31
0.0
  0
LINE
  5
CA
330
1F
100
AcDbEntity
  8
D-0
  6
Continuous
 62
     7
370
     9
100
AcDbLine
 10
-385.4025751673344
 20
-277.7651332842333
 30
0.0
 11
-385.4025751673344
 21
-279.2654131876452
 31
0.0
  0
LINE
  5
CB
330
1F
100
AcDbEntity
  8
D-0
  6
Continuous
 62
     7
370
     9
100
AcDbLine
 10
-385.4025751673344
 20
-279.2654131876452
 30
0.0
 11
-386.902857454932
 21
-279.2654131876452
 31
0.0
  0
LINE
  5
CC
330
1F
100
AcDbEntity
  8
D-0
  6
Continuous
 62
     7
370
     9
100
AcDbLine
 10
-321.9350153528812
 20
-277.2349833475573
 30
0.0
 11
-321.9350153528812
 21
-275.7347034441455
 31
0.0
  0
LINE
  5
CD
330
1F
100
AcDbEntity
  8
D-0
  6
Continuous
 62
     7
370
     9
100
AcDbLine
 10
-321.9350153528812
 20
-275.7347034441455
 30
0.0
 11
-320.4352289759281
 21
-275.7347034441455
 31
0.0
  0
LINE
  5
CE
330
1F
100
AcDbEntity
  8
D-0
  6
Continuous
 62
     7
370
     9
100
AcDbLine
 10
-320.4352289759281
 20
-275.7347034441455
 30
0.0
 11
-320.4352289759281
 21
-277.2349833475573
 31
0.0
  0
LINE
  5
CF
330
1F
100
AcDbEntity
  8
D-0
  6
Continuous
 62
     7
370
     9
100
AcDbLine
 10
-320.4352289759281
 20
-277.2349833475573
 30
0.0
 11
-321.9350153528812
 21
-277.2349833475573
 31
0.0
  0
LINE
  5
D0
330
1F
100
AcDbEntity
  8
D-0
  6
Continuous
 62
     7
370
     9
100
AcDbLine
 10
-346.2982279383305
 20
-309.7189067827685
 30
0.0
 11
-346.2982279383305
 21
-308.2186244951708
 31
0.0
  0
LINE
  5
D1
330
1F
100
AcDbEntity
  8
D-0
  6
Continuous
 62
     7
370
     9
100
AcDbLine
 10
-346.2982279383305
 20
-308.2186244951708
 30
0.0
 11
-344.7979456507328
 21
-308.2186244951708
 31
0.0
  0
LINE
  5
D2
330
1F
100
AcDbEntity
  8
D-0
  6
Continuous
 62
     7
370
     9
100
AcDbLine
 10
-344.7979456507328
 20
-308.2186244951708
 30
0.0
 11
-344.7979456507328
 21
-309.7189067827685
 31
0.0
  0
LINE
  5
D3
330
1F
100
AcDbEntity
  8
D-0
  6
Continuous
 62
     7
370
     9
100
AcDbLine
 10
-344.7979456507328
 20
-309.7189067827685
 30
0.0
 11
-346.2982279383305
 21
-309.7189067827685
 31
0.0
  0
LINE
  5
D4
330
1F
100
AcDbEntity
  8
D-0
  6
Continuous
 62
     7
370
     9
100
AcDbLine
 10
-396.8632608973148
 20
-313.6499570833666
 30
0.0
 11
-396.8632608973148
 21
-312.149674795769
 31
0.0
  0
LINE
  5
D5
330
1F
100
AcDbEntity
  8
D-0
  6
Continuous
 62
     7
370
     9
100
AcDbLine
 10
-396.8632608973148
 20
-312.149674795769
 30
0.0
 11
-395.3635126673344
 21
-312.149674795769
 31
0.0
  0
LINE
  5
D6
330
1F
100
AcDbEntity
  8
D-0
  6
Continuous
 62
     7
370
     9
100
AcDbLine
 10
-395.3635126673344
 20
-312.149674795769
 30
0.0
 11
-395.3635126673344
 21
-313.6499570833666
 31
0.0
  0
LINE
  5
D7
330
1F
100
AcDbEntity
  8
D-0
  6
Continuous
 62
     7
370
     9
100
AcDbLine
 10
-395.3635126673344
 20
-313.6499570833666
 30
0.0
 11
-396.8632608973148
 21
-313.6499570833666
 31
0.0
  0
LINE
  5
D8
330
1F
100
AcDbEntity
  8
D-0
  6
Continuous
 62
     7
370
     9
100
AcDbLine
 10
-413.9727884852055
 20
-347.6168178545458
 30
0.0
 11
-413.9727884852055
 21
-346.1165355669482
 31
0.0
  0
LINE
  5
D9
330
1F
100
AcDbEntity
  8
D-0
  6
Continuous
 62
     7
370
     9
100
AcDbLine
 10
-413.9727884852055
 20
-346.1165355669482
 30
0.0
 11
-412.4725443445805
 21
-346.1165355669482
 31
0.0
  0
LINE
  5
DA
330
1F
100
AcDbEntity
  8
D-0
  6
Continuous
 62
     7
370
     9
100
AcDbLine
 10
-412.4725443445805
 20
-346.1165355669482
 30
0.0
 11
-412.4725443445805
 21
-347.6168178545458
 31
0.0
  0
LINE
  5
DB
330
1F
100
AcDbEntity
  8
D-0
  6
Continuous
 62
     7
370
     9
100
AcDbLine
 10
-412.4725443445805
 20
-347.6168178545458
 30
0.0
 11
-413.9727884852055
 21
-347.6168178545458
 31
0.0
  0
LINE
  5
DC
330
1F
100
AcDbEntity
  8
D-0
  6
Continuous
 62
     7
370
     9
100
AcDbLine
 10
-445.3290468775394
 20
-333.0450796114428
 30
0.0
 11
-445.3290468775394
 21
-331.5448020922167
 31
0.0
  0
LINE
  5
DD
330
1F
100
AcDbEntity
  8
D-0
  6
Continuous
 62
     7
370
     9
100
AcDbLine
 10
-445.3290468775394
 20
-331.5448020922167
 30
0.0
 11
-443.8292605005863
 21
-331.5448020922167
 31
0.0
  0
LINE
  5
DE
330
1F
100
AcDbEntity
  8
D-0
  6
Continuous
 62
     7
370
     9
100
AcDbLine
 10
-443.8292605005863
 20
-331.5448020922167
 30
0.0
 11
-443.8292605005863
 21
-333.0450796114428
 31
0.0
  0
LINE
  5
DF
330
1F
100
AcDbEntity
  8
D-0
  6
Continuous
 62
     7
370
     9
100
AcDbLine
 10
-443.8292605005863
 20
-333.0450796114428
 30
0.0
 11
-445.3290468775394
 21
-333.0450796114428
 31
0.0
  0
LINE
  5
E0
330
1F
100
AcDbEntity
  8
D-0
  6
Continuous
 62
     7
370
     9
100
AcDbLine
 10
-456.0534578882816
 20
-374.2651103960497
 30
0.0
 11
-456.0534578882816
 21
-372.7648281084521
 31
0.0
  0
LINE
  5
E1
330
1F
100
AcDbEntity
  8
D-0
  6
Continuous
 62
     7
370
     9
100
AcDbLine
 10
-456.0534578882816
 20
-372.7648281084521
 30
0.0
 11
-454.553175600684
 21
-372.7648281084521
 31
0.0
  0
LINE
  5
E2
330
1F
100
AcDbEntity
  8
D-0
  6
Continuous
 62
     7
370
     9
100
AcDbLine
 10
-454.553175600684
 20
-372.7648281084521
 30
0.0
 11
-454.553175600684
 21
-374.2651103960497
 31
0.0
  0
LINE
  5
E3
330
1F
100
AcDbEntity
  8
D-0
  6
Continuous
 62
     7
370
     9
100
AcDbLine
 10
-454.553175600684
 20
-374.2651103960497
 30
0.0
 11
-456.0534578882816
 21
-374.2651103960497
 31
0.0
  0
LINE
  5
E4
330
1F
100
AcDbEntity
  8
D-0
  6
Continuous
 62
     7
370
     9
100
AcDbLine
 10
-418.7099939905765
 20
-382.8074859606249
 30
0.0
 11
-418.7099939905765
 21
-381.3072036730273
 31
0.0
  0
LINE
  5
E5
330
1F
100
AcDbEntity
  8
D-0
  6
Continuous
 62
     7
370
     9
100
AcDbLine
 10
-418.7099939905765
 20
-381.3072036730273
 30
0.0
 11
-417.2097117029789
 21
-381.3072036730273
 31
0.0
  0
LINE
  5
E6
330
1F
100
AcDbEntity
  8
D-0
  6
Continuous
 62
     7
370
     9
100
AcDbLine
 10
-417.2097117029789
 20
-381.3072036730273
 30
0.0
 11
-417.2097117029789
 21
-382.8074859606249
 31
0.0
  0
LINE
  5
E7
330
1F
100
AcDbEntity
  8
D-0
  6
Continuous
 62
     7
370
     9
100
AcDbLine
 10
-417.2097117029789
 20
-382.8074859606249
 30
0.0
 11
-418.7099939905765
 21
-382.8074859606249
 31
0.0
  0
LINE
  5
E8
330
1F
100
AcDbEntity
  8
D-0
  6
Continuous
 62
     7
370
     9
100
AcDbLine
 10
-366.504908236182
 20
-387.5322746263964
 30
0.0
 11
-366.504908236182
 21
-386.0320018755419
 31
0.0
  0
LINE
  5
E9
330
1F
100
AcDbEntity
  8
D-0
  6
Continuous
 62
     7
370
     9
100
AcDbLine
 10
-366.504908236182
 20
-386.0320018755419
 30
0.0
 11
-365.0051218592289
 21
-386.0320018755419
 31
0.0
  0
LINE
  5
EA
330
1F
100
AcDbEntity
  8
D-0
  6
Continuous
 62
     7
370
     9
100
AcDbLine
 10
-365.0051218592289
 20
-386.0320018755419
 30
0.0
 11
-365.0051218592289
 21
-387.5322746263964
 31
0.0
  0
LINE
  5
EB
330
1F
100
AcDbEntity
  8
D-0
  6
Continuous
 62
     7
370
     9
100
AcDbLine
 10
-365.0051218592289
 20
-387.5322746263964
 30
0.0
 11
-366.504908236182
 21
-387.5322746263964
 31
0.0
  0
LINE
  5
EC
330
1F
100
AcDbEntity
  8
D-0
  6
Continuous
 62
     7
370
     9
100
AcDbLine
 10
-311.7838389002445
 20
-380.7770561205371
 30
0.0
 11
-311.7838389002445
 21
-379.2767738329394
 31
0.0
  0
LINE
  5
ED
330
1F
100
AcDbEntity
  8
D-0
  6
Continuous
 62
     7
370
     9
100
AcDbLine
 10
-311.7838389002445
 20
-379.2767738329394
 30
0.0
 11
-310.284090670264
 21
-379.2767738329394
 31
0.0
  0
LINE
  5
EE
330
1F
100
AcDbEntity
  8
D-0
  6
Continuous
 62
     7
370
     9
100
AcDbLine
 10
-310.284090670264
 20
-379.2767738329394
 30
0.0
 11
-310.284090670264
 21
-380.7770561205371
 31
0.0
  0
LINE
  5
EF
330
1F
100
AcDbEntity
  8
D-0
  6
Continuous
 62
     7
370
     9
100
AcDbLine
 10
-310.284090670264
 20
-380.7770561205371
 30
0.0
 11
-311.7838389002445
 21
-380.7770561205371
 31
0.0
  0
LINE
  5
F0
330
1F
100
AcDbEntity
  8
D-0
  6
Continuous
 62
     7
370
     9
100
AcDbLine
 10
-323.9654642664555
 20
-340.8492111193164
 30
0.0
 11
-323.9654642664555
 21
-339.3489288317187
 31
0.0
  0
LINE
  5
F1
330
1F
100
AcDbEntity
  8
D-0
  6
Continuous
 62
     7
370
     9
100
AcDbLine
 10
-323.9654642664555
 20
-339.3489288317187
 30
0.0
 11
-322.4651819788578
 21
-339.3489288317187
 31
0.0
  0
LINE
  5
F2
330
1F
100
AcDbEntity
  8
D-0
  6
Continuous
 62
     7
370
     9
100
AcDbLine
 10
-322.4651819788578
 20
-339.3489288317187
 30
0.0
 11
-322.4651819788578
 21
-340.8492111193164
 31
0.0
  0
LINE
  5
F3
330
1F
100
AcDbEntity
  8
D-0
  6
Continuous
 62
     7
370
     9
100
AcDbLine
 10
-322.4651819788578
 20
-340.8492111193164
 30
0.0
 11
-323.9654642664555
 21
-340.8492111193164
 31
0.0
  0
LINE
  5
F4
330
1F
100
AcDbEntity
  8
D-0
  6
Continuous
 62
     7
370
     9
100
AcDbLine
 10
-364.9942118250492
 20
-349.9668239580615
 30
0.0
 11
-364.9942118250492
 21
-348.4665416704638
 31
0.0
  0
LINE
  5
F5
330
1F
100
AcDbEntity
  8
D-0
  6
Continuous
 62
     7
370
     9
100
AcDbLine
 10
-364.9942118250492
 20
-348.4665416704638
 30
0.0
 11
-363.4944635950687
 21
-348.4665416704638
 31
0.0
  0
LINE
  5
F6
330
1F
100
AcDbEntity
  8
D-0
  6
Continuous
 62
     7
370
     9
100
AcDbLine
 10
-363.4944635950687
 20
-348.4665416704638
 30
0.0
 11
-363.4944635950687
 21
-349.9668239580615
 31
0.0
  0
LINE
  5
F7
330
1F
100
AcDbEntity
  8
D-0
  6
Continuous
 62
     7
370
     9
100
AcDbLine
 10
-363.4944635950687
 20
-349.9668239580615
 30
0.0
 11
-364.9942118250492
 21
-349.9668239580615
 31
0.0
  0
LINE
  5
F8
330
1F
100
AcDbEntity
  8
D-0
  6
Continuous
 62
     7
370
     9
100
AcDbLine
 10
-304.5094019495609
 20
-310.4784606920703
 30
0.0
 11
-304.5094019495609
 21
-308.9781784044726
 31
0.0
  0
LINE
  5
F9
330
1F
100
AcDbEntity
  8
D-0
  6
Continuous
 62
     7
370
     9
100
AcDbLine
 10
-304.5094019495609
 20
-308.9781784044726
 30
0.0
 11
-303.0091196619633
 21
-308.9781784044726
 31
0.0
  0
LINE
  5
FA
330
1F
100
AcDbEntity
  8
D-0
  6
Continuous
 62
     7
370
     9
100
AcDbLine
 10
-303.0091196619633
 20
-308.9781784044726
 30
0.0
 11
-303.0091196619633
 21
-310.4784606920703
 31
0.0
  0
LINE
  5
FB
330
1F
100
AcDbEntity
  8
D-0
  6
Continuous
 62
     7
370
     9
100
AcDbLine
 10
-303.0091196619633
 20
-310.4784606920703
 30
0.0
 11
-304.5094019495609
 21
-310.4784606920703
 31
0.0
  0
LINE
  5
FC
330
1F
100
AcDbEntity
  8
D-0
  6
Continuous
 62
     7
370
     9
100
AcDbLine
 10
-458.5099894129398
 20
-299.5855783449633
 30
0.0
 11
-458.5099894129398
 21
-298.0853008257372
 31
0.0
  0
LINE
  5
FD
330
1F
100
AcDbEntity
  8
D-0
  6
Continuous
 62
     7
370
     9
100
AcDbLine
 10
-458.5099894129398
 20
-298.0853008257372
 30
0.0
 11
-457.0097261988285
 21
-298.0853008257372
 31
0.0
  0
LINE
  5
FE
330
1F
100
AcDbEntity
  8
D-0
  6
Continuous
 62
     7
370
     9
100
AcDbLine
 10
-457.0097261988285
 20
-298.0853008257372
 30
0.0
 11
-457.0097261988285
 21
-299.5855783449633
 31
0.0
  0
LINE
  5
FF
330
1F
100
AcDbEntity
  8
D-0
  6
Continuous
 62
     7
370
     9
100
AcDbLine
 10
-457.0097261988285
 20
-299.5855783449633
 30
0.0
 11
-458.5099894129398
 21
-299.5855783449633
 31
0.0
  0
LINE
  5
100
330
1F
100
AcDbEntity
  8
D-0
  6
Continuous
 62
     7
370
     9
100
AcDbLine
 10
-541.8597323023441
 20
-422.835914991997
 30
0.0
 11
-541.8597323023441
 21
-421.3356327043994
 31
0.0
  0
LINE
  5
101
330
1F
100
AcDbEntity
  8
D-0
  6
Continuous
 62
     7
370
     9
100
AcDbLine
 10
-541.8597323023441
 20
-421.3356327043994
 30
0.0
 11
-540.3594500147465
 21
-421.3356327043994
 31
0.0
  0
LINE
  5
102
330
1F
100
AcDbEntity
  8
D-0
  6
Continuous
 62
     7
370
     9
100
AcDbLine
 10
-540.3594500147465
 20
-421.3356327043994
 30
0.0
 11
-540.3594500147465
 21
-422.835914991997
 31
0.0
  0
LINE
  5
103
330
1F
100
AcDbEntity
  8
D-0
  6
Continuous
 62
     7
370
     9
100
AcDbLine
 10
-540.3594500147465
 20
-422.835914991997
 30
0.0
 11
-541.8597323023441
 21
-422.835914991997
 31
0.0
  0
LINE
  5
104
330
1F
100
AcDbEntity
  8
D-0
  6
Continuous
 62
     7
370
     9
100
AcDbLine
 10
-492.4951845728519
 20
-430.7341884600146
 30
0.0
 11
-492.4951845728519
 21
-429.2339061724169
 31
0.0
  0
LINE
  5
105
330
1F
100
AcDbEntity
  8
D-0
  6
Continuous
 62
     7
370
     9
100
AcDbLine
 10
-492.4951845728519
 20
-429.2339061724169
 30
0.0
 11
-490.9949213587406
 21
-429.2339061724169
 31
0.0
  0
LINE
  5
106
330
1F
100
AcDbEntity
  8
D-0
  6
Continuous
 62
     7
370
     9
100
AcDbLine
 10
-490.9949213587406
 20
-429.2339061724169
 30
0.0
 11
-490.9949213587406
 21
-430.7341884600146
 31
0.0
  0
LINE
  5
107
330
1F
100
AcDbEntity
  8
D-0
  6
Continuous
 62
     7
370
     9
100
AcDbLine
 10
-490.9949213587406
 20
-430.7341884600146
 30
0.0
 11
-492.4951845728519
 21
-430.7341884600146
 31
0.0
  0
LINE
  5
108
330
1F
100
AcDbEntity
  8
D-0
  6
Continuous
 62
     7
370
     9
100
AcDbLine
 10
-509.3763071619633
 20
-451.3149570452197
 30
0.0
 11
-509.3763071619633
 21
-449.8146938311083
 31
0.0
  0
LINE
  5
109
330
1F
100
AcDbEntity
  8
D-0
  6
Continuous
 62
     7
370
     9
100
AcDbLine
 10
-509.3763071619633
 20
-449.8146938311083
 30
0.0
 11
-507.8765207850101
 21
-449.8146938311083
 31
0.0
  0
LINE
  5
10A
330
1F
100
AcDbEntity
  8
D-0
  6
Continuous
 62
     7
370
     9
100
AcDbLine
 10
-507.8765207850101
 20
-449.8146938311083
 30
0.0
 11
-507.8765207850101
 21
-451.3149570452197
 31
0.0
  0
LINE
  5
10B
330
1F
100
AcDbEntity
  8
D-0
  6
Continuous
 62
     7
370
     9
100
AcDbLine
 10
-507.8765207850101
 20
-451.3149570452197
 30
0.0
 11
-509.3763071619633
 21
-451.3149570452197
 31
0.0
  0
LINE
  5
10C
330
1F
100
AcDbEntity
  8
D-0
  6
Continuous
 62
     7
370
     9
100
AcDbLine
 10
-557.6562792383793
 20
-486.023056410454
 30
0.0
 11
-557.6562792383793
 21
-484.5227741228564
 31
0.0
  0
LINE
  5
10D
330
1F
100
AcDbEntity
  8
D-0
  6
Continuous
 62
     7
370
     9
100
AcDbLine
 10
-557.6562792383793
 20
-484.5227741228564
 30
0.0
 11
-556.1564928614262
 21
-484.5227741228564
 31
0.0
  0
LINE
  5
10E
330
1F
100
AcDbEntity
  8
D-0
  6
Continuous
 62
     7
370
     9
100
AcDbLine
 10
-556.1564928614262
 20
-484.5227741228564
 30
0.0
 11
-556.1564928614262
 21
-486.023056410454
 31
0.0
  0
LINE
  5
10F
330
1F
100
AcDbEntity
  8
D-0
  6
Continuous
 62
     7
370
     9
100
AcDbLine
 10
-556.1564928614262
 20
-486.023056410454
 30
0.0
 11
-557.6562792383793
 21
-486.023056410454
 31
0.0
  0
LINE
  5
110
330
1F
100
AcDbEntity
  8
D-0
  6
Continuous
 62
     7
370
     9
100
AcDbLine
 10
-486.5713602625492
 20
-484.0481113420947
 30
0.0
 11
-486.5713602625492
 21
-482.547829054497
 31
0.0
  0
LINE
  5
111
330
1F
100
AcDbEntity
  8
D-0
  6
Continuous
 62
     7
370
     9
100
AcDbLine
 10
-486.5713602625492
 20
-482.547829054497
 30
0.0
 11
-485.0710970484379
 21
-482.547829054497
 31
0.0
  0
LINE
  5
112
330
1F
100
AcDbEntity
  8
D-0
  6
Continuous
 62
     7
370
     9
100
AcDbLine
 10
-485.0710970484379
 20
-482.547829054497
 30
0.0
 11
-485.0710970484379
 21
-484.0481113420947
 31
0.0
  0
LINE
  5
113
330
1F
100
AcDbEntity
  8
D-0
  6
Continuous
 62
     7
370
     9
100
AcDbLine
 10
-485.0710970484379
 20
-484.0481113420947
 30
0.0
 11
-486.5713602625492
 21
-484.0481113420947
 31
0.0
  0
LINE
  5
114
330
1F
100
AcDbEntity
  8
D-0
  6
Continuous
 62
     7
370
     9
100
AcDbLine
 10
-543.834181460059
 20
-452.4550365435107
 30
0.0
 11
-543.834181460059
 21
-450.954754255913
 31
0.0
  0
LINE
  5
115
330
1F
100
AcDbEntity
  8
D-0
  6
Continuous
 62
     7
370
     9
100
AcDbLine
 10
-543.834181460059
 20
-450.954754255913
 30
0.0
 11
-542.3343950831058
 21
-450.954754255913
 31
0.0
  0
LINE
  5
116
330
1F
100
AcDbEntity
  8
D-0
  6
Continuous
 62
     7
370
     9
100
AcDbLine
 10
-542.3343950831058
 20
-450.954754255913
 30
0.0
 11
-542.3343950831058
 21
-452.4550365435107
 31
0.0
  0
LINE
  5
117
330
1F
100
AcDbEntity
  8
D-0
  6
Continuous
 62
     7
370
     9
100
AcDbLine
 10
-542.3343950831058
 20
-452.4550365435107
 30
0.0
 11
-543.834181460059
 21
-452.4550365435107
 31
0.0
  0
LINE
  5
118
330
1F
100
AcDbEntity
  8
D-0
  6
Continuous
 62
     7
370
     9
100
AcDbLine
 10
-511.9671160303715
 20
-408.5763191210253
 30
0.0
 11
-511.9671160303715
 21
-407.0760463701708
 31
0.0
  0
LINE
  5
119
330
1F
100
AcDbEntity
  8
D-0
  6
Continuous
 62
     7
370
     9
100
AcDbLine
 10
-511.9671160303715
 20
-407.0760463701708
 30
0.0
 11
-510.4668337427738
 21
-407.0760463701708
 31
0.0
  0
LINE
  5
11A
330
1F
100
AcDbEntity
  8
D-0
  6
Continuous
 62
     7
370
     9
100
AcDbLine
 10
-510.4668337427738
 20
-407.0760463701708
 30
0.0
 11
-510.4668337427738
 21
-408.5763191210253
 31
0.0
  0
LINE
  5
11B
330
1F
100
AcDbEntity
  8
D-0
  6
Continuous
 62
     7
370
     9
100
AcDbLine
 10
-510.4668337427738
 20
-408.5763191210253
 30
0.0
 11
-511.9671160303715
 21
-408.5763191210253
 31
0.0
  0
LINE
  5
11C
330
1F
100
AcDbEntity
  8
D-0
  6
Continuous
 62
     7
370
     9
100
AcDbLine
 10
-521.2507158838871
 20
-480.015976332329
 30
0.0
 11
-521.2507158838871
 21
-478.5157131182177
 31
0.0
  0
LINE
  5
11D
330
1F
100
AcDbEntity
  8
D-0
  6
Continuous
 62
     7
370
     9
100
AcDbLine
 10
-521.2507158838871
 20
-478.5157131182177
 30
0.0
 11
-519.7504335962894
 21
-478.5157131182177
 31
0.0
  0
LINE
  5
11E
330
1F
100
AcDbEntity
  8
D-0
  6
Continuous
 62
     7
370
     9
100
AcDbLine
 10
-519.7504335962894
 20
-478.5157131182177
 30
0.0
 11
-519.7504335962894
 21
-480.015976332329
 31
0.0
  0
LINE
  5
11F
330
1F
100
AcDbEntity
  8
D-0
  6
Continuous
 62
     7
370
     9
100
AcDbLine
 10
-519.7504335962894
 20
-480.015976332329
 30
0.0
 11
-521.2507158838871
 21
-480.015976332329
 31
0.0
  0
LINE
  5
120
330
1F
100
AcDbEntity
  8
D-0
  6
Continuous
 62
     7
370
     9
100
AcDbLine
 10
-684.3763739191654
 20
-270.1398693548663
 30
0.0
 11
-684.3763739191654
 21
-268.6395894514544
 31
0.0
  0
LINE
  5
121
330
1F
100
AcDbEntity
  8
D-0
  6
Continuous
 62
     7
370
     9
100
AcDbLine
 10
-684.3763739191654
 20
-268.6395894514544
 30
0.0
 11
-682.8760963999393
 21
-268.6395894514544
 31
0.0
  0
LINE
  5
122
330
1F
100
AcDbEntity
  8
D-0
  6
Continuous
 62
     7
370
     9
100
AcDbLine
 10
-682.8760963999393
 20
-268.6395894514544
 30
0.0
 11
-682.8760963999393
 21
-270.1398693548663
 31
0.0
  0
LINE
  5
123
330
1F
100
AcDbEntity
  8
D-0
  6
Continuous
 62
     7
370
     9
100
AcDbLine
 10
-682.8760963999393
 20
-270.1398693548663
 30
0.0
 11
-684.3763739191654
 21
-270.1398693548663
 31
0.0
  0
LINE
  5
124
330
1F
100
AcDbEntity
  8
D-0
  6
Continuous
 62
     7
370
     9
100
AcDbLine
 10
-663.1316668116215
 20
-285.9383868204577
 30
0.0
 11
-663.1316668116215
 21
-284.4381069170458
 31
0.0
  0
LINE
  5
125
330
1F
100
AcDbEntity
  8
D-0
  6
Continuous
 62
     7
370
     9
100
AcDbLine
 10
-663.1316668116215
 20
-284.4381069170458
 30
0.0
 11
-661.6313845240238
 21
-284.4381069170458
 31
0.0
  0
LINE
  5
126
330
1F
100
AcDbEntity
  8
D-0
  6
Continuous
 62
     7
370
     9
100
AcDbLine
 10
-661.6313845240238
 20
-284.4381069170458
 30
0.0
 11
-661.6313845240238
 21
-285.9383868204577
 31
0.0
  0
LINE
  5
127
330
1F
100
AcDbEntity
  8
D-0
  6
Continuous
 62
     7
370
     9
100
AcDbLine
 10
-661.6313845240238
 20
-285.9383868204577
 30
0.0
 11
-663.1316668116215
 21
-285.9383868204577
 31
0.0
  0
LINE
  5
128
330
1F
100
AcDbEntity
  8
D-0
  6
Continuous
 62
     7
370
     9
100
AcDbLine
 10
-639.2654329859379
 20
-327.0186923967822
 30
0.0
 11
-639.2654329859379
 21
-325.5184148775561
 31
0.0
  0
LINE
  5
129
330
1F
100
AcDbEntity
  8
D-0
  6
Continuous
 62
     7
370
     9
100
AcDbLine
 10
-639.2654329859379
 20
-325.5184148775561
 30
0.0
 11
-637.7656466089848
 21
-325.5184148775561
 31
0.0
  0
LINE
  5
12A
330
1F
100
AcDbEntity
  8
D-0
  6
Continuous
 62
     7
370
     9
100
AcDbLine
 10
-637.7656466089848
 20
-325.5184148775561
 30
0.0
 11
-637.7656466089848
 21
-327.0186923967822
 31
0.0
  0
LINE
  5
12B
330
1F
100
AcDbEntity
  8
D-0
  6
Continuous
 62
     7
370
     9
100
AcDbLine
 10
-637.7656466089848
 20
-327.0186923967822
 30
0.0
 11
-639.2654329859379
 21
-327.0186923967822
 31
0.0
  0
LINE
  5
12C
330
1F
100
AcDbEntity
  8
D-0
  6
Continuous
 62
     7
370
     9
100
AcDbLine
 10
-593.5009581171635
 20
-274.0624963270648
 30
0.0
 11
-593.5009581171635
 21
-272.5622164236529
 31
0.0
  0
LINE
  5
12D
330
1F
100
AcDbEntity
  8
D-0
  6
Continuous
 62
     7
370
     9
100
AcDbLine
 10
-593.5009581171635
 20
-272.5622164236529
 30
0.0
 11
-592.0011812769535
 21
-272.5622164236529
 31
0.0
  0
LINE
  5
12E
330
1F
100
AcDbEntity
  8
D-0
  6
Continuous
 62
     7
370
     9
100
AcDbLine
 10
-592.0011812769535
 20
-272.5622164236529
 30
0.0
 11
-592.0011812769535
 21
-274.0624963270648
 31
0.0
  0
LINE
  5
12F
330
1F
100
AcDbEntity
  8
D-0
  6
Continuous
 62
     7
370
     9
100
AcDbLine
 10
-592.0011812769535
 20
-274.0624963270648
 30
0.0
 11
-593.5009581171635
 21
-274.0624963270648
 31
0.0
  0
LINE
  5
130
330
1F
100
AcDbEntity
  8
D-0
  6
Continuous
 62
     7
370
     9
100
AcDbLine
 10
-545.9428888880375
 20
-268.6643635260089
 30
0.0
 11
-545.9428888880375
 21
-267.164083622597
 31
0.0
  0
LINE
  5
131
330
1F
100
AcDbEntity
  8
D-0
  6
Continuous
 62
     7
370
     9
100
AcDbLine
 10
-545.9428888880375
 20
-267.164083622597
 30
0.0
 11
-544.4431025110844
 21
-267.164083622597
 31
0.0
  0
LINE
  5
132
330
1F
100
AcDbEntity
  8
D-0
  6
Continuous
 62
     7
370
     9
100
AcDbLine
 10
-544.4431025110844
 20
-267.164083622597
 30
0.0
 11
-544.4431025110844
 21
-268.6643635260089
 31
0.0
  0
LINE
  5
133
330
1F
100
AcDbEntity
  8
D-0
  6
Continuous
 62
     7
370
     9
100
AcDbLine
 10
-544.4431025110844
 20
-268.6643635260089
 30
0.0
 11
-545.9428888880375
 21
-268.6643635260089
 31
0.0
  0
LINE
  5
134
330
1F
100
AcDbEntity
  8
D-0
  6
Continuous
 62
     7
370
     9
100
AcDbLine
 10
-565.5565172754887
 20
-290.2390550600512
 30
0.0
 11
-565.5565172754887
 21
-288.7387775408251
 31
0.0
  0
LINE
  5
135
330
1F
100
AcDbEntity
  8
D-0
  6
Continuous
 62
     7
370
     9
100
AcDbLine
 10
-565.5565172754887
 20
-288.7387775408251
 30
0.0
 11
-564.056234987891
 21
-288.7387775408251
 31
0.0
  0
LINE
  5
136
330
1F
100
AcDbEntity
  8
D-0
  6
Continuous
 62
     7
370
     9
100
AcDbLine
 10
-564.056234987891
 20
-288.7387775408251
 30
0.0
 11
-564.056234987891
 21
-290.2390550600512
 31
0.0
  0
LINE
  5
137
330
1F
100
AcDbEntity
  8
D-0
  6
Continuous
 62
     7
370
     9
100
AcDbLine
 10
-564.056234987891
 20
-290.2390550600512
 30
0.0
 11
-565.5565172754887
 21
-290.2390550600512
 31
0.0
  0
LINE
  5
138
330
1F
100
AcDbEntity
  8
D-0
  6
Continuous
 62
     7
370
     9
100
AcDbLine
 10
-541.1987787806156
 20
-326.36517276635
 30
0.0
 11
-541.1987787806156
 21
-324.8648904787524
 31
0.0
  0
LINE
  5
139
330
1F
100
AcDbEntity
  8
D-0
  6
Continuous
 62
     7
370
     9
100
AcDbLine
 10
-541.1987787806156
 20
-324.8648904787524
 30
0.0
 11
-539.698496493018
 21
-324.8648904787524
 31
0.0
  0
LINE
  5
13A
330
1F
100
AcDbEntity
  8
D-0
  6
Continuous
 62
     7
370
     9
100
AcDbLine
 10
-539.698496493018
 20
-324.8648904787524
 30
0.0
 11
-539.698496493018
 21
-326.36517276635
 31
0.0
  0
LINE
  5
13B
330
1F
100
AcDbEntity
  8
D-0
  6
Continuous
 62
     7
370
     9
100
AcDbLine
 10
-539.698496493018
 20
-326.36517276635
 30
0.0
 11
-541.1987787806156
 21
-326.36517276635
 31
0.0
  0
LINE
  5
13C
330
1F
100
AcDbEntity
  8
D-0
  6
Continuous
 62
     7
370
     9
100
AcDbLine
 10
-537.2756678187015
 20
-364.937908552788
 30
0.0
 11
-537.2756678187015
 21
-363.4376262651904
 31
0.0
  0
LINE
  5
13D
330
1F
100
AcDbEntity
  8
D-0
  6
Continuous
 62
     7
370
     9
100
AcDbLine
 10
-537.2756678187015
 20
-363.4376262651904
 30
0.0
 11
-535.7758814417484
 21
-363.4376262651904
 31
0.0
  0
LINE
  5
13E
330
1F
100
AcDbEntity
  8
D-0
  6
Continuous
 62
     7
370
     9
100
AcDbLine
 10
-535.7758814417484
 20
-363.4376262651904
 30
0.0
 11
-535.7758814417484
 21
-364.937908552788
 31
0.0
  0
LINE
  5
13F
330
1F
100
AcDbEntity
  8
D-0
  6
Continuous
 62
     7
370
     9
100
AcDbLine
 10
-535.7758814417484
 20
-364.937908552788
 30
0.0
 11
-537.2756678187015
 21
-364.937908552788
 31
0.0
  0
LINE
  5
140
330
1F
100
AcDbEntity
  8
D-0
  6
Continuous
 62
     7
370
     9
100
AcDbLine
 10
-612.944641741431
 20
-288.563876055382
 30
0.0
 11
-612.944641741431
 21
-287.0635961519702
 31
0.0
  0
LINE
  5
141
330
1F
100
AcDbEntity
  8
D-0
  6
Continuous
 62
     7
370
     9
100
AcDbLine
 10
-612.944641741431
 20
-287.0635961519702
 30
0.0
 11
-611.4443594538334
 21
-287.0635961519702
 31
0.0
  0
LINE
  5
142
330
1F
100
AcDbEntity
  8
D-0
  6
Continuous
 62
     7
370
     9
100
AcDbLine
 10
-611.4443594538334
 20
-287.0635961519702
 30
0.0
 11
-611.4443594538334
 21
-288.563876055382
 31
0.0
  0
LINE
  5
143
330
1F
100
AcDbEntity
  8
D-0
  6
Continuous
 62
     7
370
     9
100
AcDbLine
 10
-611.4443594538334
 20
-288.563876055382
 30
0.0
 11
-612.944641741431
 21
-288.563876055382
 31
0.0
  0
LINE
  5
144
330
1F
100
AcDbEntity
  8
D-0
  6
Continuous
 62
     7
370
     9
100
AcDbLine
 10
-691.2267262064579
 20
-416.0028957354052
 30
0.0
 11
-691.2267262064579
 21
-414.5026229845507
 31
0.0
  0
LINE
  5
145
330
1F
100
AcDbEntity
  8
D-0
  6
Continuous
 62
     7
370
     9
100
AcDbLine
 10
-691.2267262064579
 20
-414.5026229845507
 30
0.0
 11
-689.7264486872318
 21
-414.5026229845507
 31
0.0
  0
LINE
  5
146
330
1F
100
AcDbEntity
  8
D-0
  6
Continuous
 62
     7
370
     9
100
AcDbLine
 10
-689.7264486872318
 20
-414.5026229845507
 30
0.0
 11
-689.7264486872318
 21
-416.0028957354052
 31
0.0
  0
LINE
  5
147
330
1F
100
AcDbEntity
  8
D-0
  6
Continuous
 62
     7
370
     9
100
AcDbLine
 10
-689.7264486872318
 20
-416.0028957354052
 30
0.0
 11
-691.2267262064579
 21
-416.0028957354052
 31
0.0
  0
LINE
  5
148
330
1F
100
AcDbEntity
  8
D-0
  6
Continuous
 62
     7
370
     9
100
AcDbLine
 10
-841.9978720270756
 20
-405.0644420610888
 30
0.0
 11
-841.9978720270756
 21
-403.5641597734912
 31
0.0
  0
LINE
  5
149
330
1F
100
AcDbEntity
  8
D-0
  6
Continuous
 62
     7
370
     9
100
AcDbLine
 10
-841.9978720270756
 20
-403.5641597734912
 30
0.0
 11
-840.4975992762211
 21
-403.5641597734912
 31
0.0
  0
LINE
  5
14A
330
1F
100
AcDbEntity
  8
D-0
  6
Continuous
 62
     7
370
     9
100
AcDbLine
 10
-840.4975992762211
 20
-403.5641597734912
 30
0.0
 11
-840.4975992762211
 21
-405.0644420610888
 31
0.0
  0
LINE
  5
14B
330
1F
100
AcDbEntity
  8
D-0
  6
Continuous
 62
     7
370
     9
100
AcDbLine
 10
-840.4975992762211
 20
-405.0644420610888
 30
0.0
 11
-841.9978720270756
 21
-405.0644420610888
 31
0.0
  0
LINE
  5
14C
330
1F
100
AcDbEntity
  8
D-0
  6
Continuous
 62
     7
370
     9
100
AcDbLine
 10
-782.7596289240482
 20
-509.7178577410205
 30
0.0
 11
-782.7596289240482
 21
-508.2175754534228
 31
0.0
  0
LINE
  5
14D
330
1F
100
AcDbEntity
  8
D-0
  6
Continuous
 62
     7
370
     9
100
AcDbLine
 10
-782.7596289240482
 20
-508.2175754534228
 30
0.0
 11
-781.2598473154667
 21
-508.2175754534228
 31
0.0
  0
LINE
  5
14E
330
1F
100
AcDbEntity
  8
D-0
  6
Continuous
 62
     7
370
     9
100
AcDbLine
 10
-781.2598473154667
 20
-508.2175754534228
 30
0.0
 11
-781.2598473154667
 21
-509.7178577410205
 31
0.0
  0
LINE
  5
14F
330
1F
100
AcDbEntity
  8
D-0
  6
Continuous
 62
     7
370
     9
100
AcDbLine
 10
-781.2598473154667
 20
-509.7178577410205
 30
0.0
 11
-782.7596289240482
 21
-509.7178577410205
 31
0.0
  0
LINE
  5
150
330
1F
100
AcDbEntity
  8
D-0
  6
Continuous
 62
     7
370
     9
100
AcDbLine
 10
-796.5822178446415
 20
-568.9556049334033
 30
0.0
 11
-796.5822178446415
 21
-567.4553226458056
 31
0.0
  0
LINE
  5
151
330
1F
100
AcDbEntity
  8
D-0
  6
Continuous
 62
     7
370
     9
100
AcDbLine
 10
-796.5822178446415
 20
-567.4553226458056
 30
0.0
 11
-795.0819355570438
 21
-567.4553226458056
 31
0.0
  0
LINE
  5
152
330
1F
100
AcDbEntity
  8
D-0
  6
Continuous
 62
     7
370
     9
100
AcDbLine
 10
-795.0819355570438
 20
-567.4553226458056
 30
0.0
 11
-795.0819355570438
 21
-568.9556049334033
 31
0.0
  0
LINE
  5
153
330
1F
100
AcDbEntity
  8
D-0
  6
Continuous
 62
     7
370
     9
100
AcDbLine
 10
-795.0819355570438
 20
-568.9556049334033
 30
0.0
 11
-796.5822178446415
 21
-568.9556049334033
 31
0.0
  0
LINE
  5
154
330
1F
100
AcDbEntity
  8
D-0
  6
Continuous
 62
     7
370
     9
100
AcDbLine
 10
-827.1883112513187
 20
-579.8158000933154
 30
0.0
 11
-827.1883112513187
 21
-578.3155178057177
 31
0.0
  0
LINE
  5
155
330
1F
100
AcDbEntity
  8
D-0
  6
Continuous
 62
     7
370
     9
100
AcDbLine
 10
-827.1883112513187
 20
-578.3155178057177
 30
0.0
 11
-825.6880385004642
 21
-578.3155178057177
 31
0.0
  0
LINE
  5
156
330
1F
100
AcDbEntity
  8
D-0
  6
Continuous
 62
     7
370
     9
100
AcDbLine
 10
-825.6880385004642
 20
-578.3155178057177
 30
0.0
 11
-825.6880385004642
 21
-579.8158000933154
 31
0.0
  0
LINE
  5
157
330
1F
100
AcDbEntity
  8
D-0
  6
Continuous
 62
     7
370
     9
100
AcDbLine
 10
-825.6880385004642
 20
-579.8158000933154
 30
0.0
 11
-827.1883112513187
 21
-579.8158000933154
 31
0.0
  0
LINE
  5
158
330
1F
100
AcDbEntity
  8
D-0
  6
Continuous
 62
     7
370
     9
100
AcDbLine
 10
-850.041809710181
 20
-513.6672328936083
 30
0.0
 11
-850.041809710181
 21
-512.1669506060107
 31
0.0
  0
LINE
  5
159
330
1F
100
AcDbEntity
  8
D-0
  6
Continuous
 62
     7
370
     9
100
AcDbLine
 10
-850.041809710181
 20
-512.1669506060107
 30
0.0
 11
-848.5420233332279
 21
-512.1669506060107
 31
0.0
  0
LINE
  5
15A
330
1F
100
AcDbEntity
  8
D-0
  6
Continuous
 62
     7
370
     9
100
AcDbLine
 10
-848.5420233332279
 20
-512.1669506060107
 30
0.0
 11
-848.5420233332279
 21
-513.6672328936083
 31
0.0
  0
LINE
  5
15B
330
1F
100
AcDbEntity
  8
D-0
  6
Continuous
 62
     7
370
     9
100
AcDbLine
 10
-848.5420233332279
 20
-513.6672328936083
 30
0.0
 11
-850.041809710181
 21
-513.6672328936083
 31
0.0
  0
LINE
  5
15C
330
1F
100
AcDbEntity
  8
D-0
  6
Continuous
 62
     7
370
     9
100
AcDbLine
 10
-824.2263990961674
 20
-491.9468807207568
 30
0.0
 11
-824.2263990961674
 21
-490.4465984331591
 31
0.0
  0
LINE
  5
15D
330
1F
100
AcDbEntity
  8
D-0
  6
Continuous
 62
     7
370
     9
100
AcDbLine
 10
-824.2263990961674
 20
-490.4465984331591
 30
0.0
 11
-822.7261263453129
 21
-490.4465984331591
 31
0.0
  0
LINE
  5
15E
330
1F
100
AcDbEntity
  8
D-0
  6
Continuous
 62
     7
370
     9
100
AcDbLine
 10
-822.7261263453129
 20
-490.4465984331591
 30
0.0
 11
-822.7261263453129
 21
-491.9468807207568
 31
0.0
  0
LINE
  5
15F
330
1F
100
AcDbEntity
  8
D-0
  6
Continuous
 62
     7
370
     9
100
AcDbLine
 10
-822.7261263453129
 20
-491.9468807207568
 30
0.0
 11
-824.2263990961674
 21
-491.9468807207568
 31
0.0
  0
LINE
  5
160
330
1F
100
AcDbEntity
  8
D-0
  6
Continuous
 62
     7
370
     9
100
AcDbLine
 10
-761.0392695986393
 20
-544.439804457329
 30
0.0
 11
-761.0392695986393
 21
-542.9395221697314
 31
0.0
  0
LINE
  5
161
330
1F
100
AcDbEntity
  8
D-0
  6
Continuous
 62
     7
370
     9
100
AcDbLine
 10
-761.0392695986393
 20
-542.9395221697314
 30
0.0
 11
-759.539485605872
 21
-542.9395221697314
 31
0.0
  0
LINE
  5
162
330
1F
100
AcDbEntity
  8
D-0
  6
Continuous
 62
     7
370
     9
100
AcDbLine
 10
-759.539485605872
 20
-542.9395221697314
 30
0.0
 11
-759.539485605872
 21
-544.439804457329
 31
0.0
  0
LINE
  5
163
330
1F
100
AcDbEntity
  8
D-0
  6
Continuous
 62
     7
370
     9
100
AcDbLine
 10
-759.539485605872
 20
-544.439804457329
 30
0.0
 11
-761.0392695986393
 21
-544.439804457329
 31
0.0
  0
LINE
  5
164
330
1F
100
AcDbEntity
  8
D-0
  6
Continuous
 62
     7
370
     9
100
AcDbLine
 10
-838.0484968744877
 20
-682.3188518511279
 30
0.0
 11
-838.0484968744877
 21
-680.8185695635302
 31
0.0
  0
LINE
  5
165
330
1F
100
AcDbEntity
  8
D-0
  6
Continuous
 62
     7
370
     9
100
AcDbLine
 10
-838.0484968744877
 20
-680.8185695635302
 30
0.0
 11
-836.5487104975346
 21
-680.8185695635302
 31
0.0
  0
LINE
  5
166
330
1F
100
AcDbEntity
  8
D-0
  6
Continuous
 62
     7
370
     9
100
AcDbLine
 10
-836.5487104975346
 20
-680.8185695635302
 30
0.0
 11
-836.5487104975346
 21
-682.3188518511279
 31
0.0
  0
LINE
  5
167
330
1F
100
AcDbEntity
  8
D-0
  6
Continuous
 62
     7
370
     9
100
AcDbLine
 10
-836.5487104975346
 20
-682.3188518511279
 30
0.0
 11
-838.0484968744877
 21
-682.3188518511279
 31
0.0
  0
LINE
  5
168
330
1F
100
AcDbEntity
  8
D-0
  6
Continuous
 62
     7
370
     9
100
AcDbLine
 10
-767.6582366549137
 20
-686.0308956133349
 30
0.0
 11
-767.6582366549137
 21
-684.5306133257372
 31
0.0
  0
LINE
  5
169
330
1F
100
AcDbEntity
  8
D-0
  6
Continuous
 62
     7
370
     9
100
AcDbLine
 10
-767.6582366549137
 20
-684.5306133257372
 30
0.0
 11
-766.1584526621464
 21
-684.5306133257372
 31
0.0
  0
LINE
  5
16A
330
1F
100
AcDbEntity
  8
D-0
  6
Continuous
 62
     7
370
     9
100
AcDbLine
 10
-766.1584526621464
 20
-684.5306133257372
 30
0.0
 11
-766.1584526621464
 21
-686.0308956133349
 31
0.0
  0
LINE
  5
16B
330
1F
100
AcDbEntity
  8
D-0
  6
Continuous
 62
     7
370
     9
100
AcDbLine
 10
-766.1584526621464
 20
-686.0308956133349
 30
0.0
 11
-767.6582366549137
 21
-686.0308956133349
 31
0.0
  0
LINE
  5
16C
330
1F
100
AcDbEntity
  8
D-0
  6
Continuous
 62
     7
370
     9
100
AcDbLine
 10
-743.2677948795917
 20
-711.9374965654833
 30
0.0
 11
-743.2677948795917
 21
-710.4372142778857
 31
0.0
  0
LINE
  5
16D
330
1F
100
AcDbEntity
  8
D-0
  6
Continuous
 62
     7
370
     9
100
AcDbLine
 10
-743.2677948795917
 20
-710.4372142778857
 30
0.0
 11
-741.7680107378128
 21
-710.4372142778857
 31
0.0
  0
LINE
  5
16E
330
1F
100
AcDbEntity
  8
D-0
  6
Continuous
 62
     7
370
     9
100
AcDbLine
 10
-741.7680107378128
 20
-710.4372142778857
 30
0.0
 11
-741.7680107378128
 21
-711.9374965654833
 31
0.0
  0
LINE
  5
16F
330
1F
100
AcDbEntity
  8
D-0
  6
Continuous
 62
     7
370
     9
100
AcDbLine
 10
-741.7680107378128
 20
-711.9374965654833
 30
0.0
 11
-743.2677948795917
 21
-711.9374965654833
 31
0.0
  0
LINE
  5
170
330
1F
100
AcDbEntity
  8
D-0
  6
Continuous
 62
     7
370
     9
100
AcDbLine
 10
-736.989214452422
 20
-750.1495098101122
 30
0.0
 11
-736.989214452422
 21
-748.6492275225146
 31
0.0
  0
LINE
  5
171
330
1F
100
AcDbEntity
  8
D-0
  6
Continuous
 62
     7
370
     9
100
AcDbLine
 10
-736.989214452422
 20
-748.6492275225146
 30
0.0
 11
-735.4889351450565
 21
-748.6492275225146
 31
0.0
  0
LINE
  5
172
330
1F
100
AcDbEntity
  8
D-0
  6
Continuous
 62
     7
370
     9
100
AcDbLine
 10
-735.4889351450565
 20
-748.6492275225146
 30
0.0
 11
-735.4889351450565
 21
-750.1495098101122
 31
0.0
  0
LINE
  5
173
330
1F
100
AcDbEntity
  8
D-0
  6
Continuous
 62
     7
370
     9
100
AcDbLine
 10
-735.4889351450565
 20
-750.1495098101122
 30
0.0
 11
-736.989214452422
 21
-750.1495098101122
 31
0.0
  0
LINE
  5
174
330
1F
100
AcDbEntity
  8
D-0
  6
Continuous
 62
     7
370
     9
100
AcDbLine
 10
-811.2178713404301
 20
-755.6081127153857
 30
0.0
 11
-811.2178713404301
 21
-754.107830427788
 31
0.0
  0
LINE
  5
175
330
1F
100
AcDbEntity
  8
D-0
  6
Continuous
 62
     7
370
     9
100
AcDbLine
 10
-811.2178713404301
 20
-754.107830427788
 30
0.0
 11
-809.7175890528324
 21
-754.107830427788
 31
0.0
  0
LINE
  5
176
330
1F
100
AcDbEntity
  8
D-0
  6
Continuous
 62
     7
370
     9
100
AcDbLine
 10
-809.7175890528324
 20
-754.107830427788
 30
0.0
 11
-809.7175890528324
 21
-755.6081127153857
 31
0.0
  0
LINE
  5
177
330
1F
100
AcDbEntity
  8
D-0
  6
Continuous
 62
     7
370
     9
100
AcDbLine
 10
-809.7175890528324
 20
-755.6081127153857
 30
0.0
 11
-811.2178713404301
 21
-755.6081127153857
 31
0.0
  0
LINE
  5
178
330
1F
100
AcDbEntity
  8
D-0
  6
Continuous
 62
     7
370
     9
100
AcDbLine
 10
-845.9467608057621
 20
-746.3116191851122
 30
0.0
 11
-845.9467608057621
 21
-744.8113368975146
 31
0.0
  0
LINE
  5
179
330
1F
100
AcDbEntity
  8
D-0
  6
Continuous
 62
     7
370
     9
100
AcDbLine
 10
-845.9467608057621
 20
-744.8113368975146
 30
0.0
 11
-844.4464785181644
 21
-744.8113368975146
 31
0.0
  0
LINE
  5
17A
330
1F
100
AcDbEntity
  8
D-0
  6
Continuous
 62
     7
370
     9
100
AcDbLine
 10
-844.4464785181644
 20
-744.8113368975146
 30
0.0
 11
-844.4464785181644
 21
-746.3116191851122
 31
0.0
  0
LINE
  5
17B
330
1F
100
AcDbEntity
  8
D-0
  6
Continuous
 62
     7
370
     9
100
AcDbLine
 10
-844.4464785181644
 20
-746.3116191851122
 30
0.0
 11
-845.9467608057621
 21
-746.3116191851122
 31
0.0
  0
LINE
  5
17C
330
1F
100
AcDbEntity
  8
D-0
  6
Continuous
 62
     7
370
     9
100
AcDbLine
 10
-848.1580359064701
 20
-706.0136531816943
 30
0.0
 11
-848.1580359064701
 21
-704.5133708940966
 31
0.0
  0
LINE
  5
17D
330
1F
100
AcDbEntity
  8
D-0
  6
Continuous
 62
     7
370
     9
100
AcDbLine
 10
-848.1580359064701
 20
-704.5133708940966
 30
0.0
 11
-846.6582590662601
 21
-704.5133708940966
 31
0.0
  0
LINE
  5
17E
330
1F
100
AcDbEntity
  8
D-0
  6
Continuous
 62
     7
370
     9
100
AcDbLine
 10
-846.6582590662601
 20
-704.5133708940966
 30
0.0
 11
-846.6582590662601
 21
-706.0136531816943
 31
0.0
  0
LINE
  5
17F
330
1F
100
AcDbEntity
  8
D-0
  6
Continuous
 62
     7
370
     9
100
AcDbLine
 10
-846.6582590662601
 20
-706.0136531816943
 30
0.0
 11
-848.1580359064701
 21
-706.0136531816943
 31
0.0
  0
LINE
  5
180
330
1F
100
AcDbEntity
  8
D-0
  6
Continuous
 62
     7
370
     9
100
AcDbLine
 10
-790.6583935343388
 20
-725.7595943438037
 30
0.0
 11
-790.6583935343388
 21
-724.259312056206
 31
0.0
  0
LINE
  5
181
330
1F
100
AcDbEntity
  8
D-0
  6
Continuous
 62
     7
370
     9
100
AcDbLine
 10
-790.6583935343388
 20
-724.259312056206
 30
0.0
 11
-789.1581112467411
 21
-724.259312056206
 31
0.0
  0
LINE
  5
182
330
1F
100
AcDbEntity
  8
D-0
  6
Continuous
 62
     7
370
     9
100
AcDbLine
 10
-789.1581112467411
 20
-724.259312056206
 30
0.0
 11
-789.1581112467411
 21
-725.7595943438037
 31
0.0
  0
LINE
  5
183
330
1F
100
AcDbEntity
  8
D-0
  6
Continuous
 62
     7
370
     9
100
AcDbLine
 10
-789.1581112467411
 20
-725.7595943438037
 30
0.0
 11
-790.6583935343388
 21
-725.7595943438037
 31
0.0
  0
LINE
  5
184
330
1F
100
AcDbEntity
  8
D-0
  6
Continuous
 62
     7
370
     9
100
AcDbLine
 10
-802.5060421549442
 20
-692.191555403374
 30
0.0
 11
-802.5060421549442
 21
-690.6912731157763
 31
0.0
  0
LINE
  5
185
330
1F
100
AcDbEntity
  8
D-0
  6
Continuous
 62
     7
370
     9
100
AcDbLine
 10
-802.5060421549442
 20
-690.6912731157763
 30
0.0
 11
-801.0057598673466
 21
-690.6912731157763
 31
0.0
  0
LINE
  5
186
330
1F
100
AcDbEntity
  8
D-0
  6
Continuous
 62
     7
370
     9
100
AcDbLine
 10
-801.0057598673466
 20
-690.6912731157763
 30
0.0
 11
-801.0057598673466
 21
-692.191555403374
 31
0.0
  0
LINE
  5
187
330
1F
100
AcDbEntity
  8
D-0
  6
Continuous
 62
     7
370
     9
100
AcDbLine
 10
-801.0057598673466
 20
-692.191555403374
 30
0.0
 11
-802.5060421549442
 21
-692.191555403374
 31
0.0
  0
LINE
  5
188
330
1F
100
AcDbEntity
  8
D-0
  6
Continuous
 62
     7
370
     9
100
AcDbLine
 10
-747.2171765886906
 20
-578.0078243242724
 30
0.0
 11
-747.2171765886906
 21
-576.5075420366747
 31
0.0
  0
LINE
  5
189
330
1F
100
AcDbEntity
  8
D-0
  6
Continuous
 62
     7
370
     9
100
AcDbLine
 10
-747.2171765886906
 20
-576.5075420366747
 30
0.0
 11
-745.7173925959232
 21
-576.5075420366747
 31
0.0
  0
LINE
  5
18A
330
1F
100
AcDbEntity
  8
D-0
  6
Continuous
 62
     7
370
     9
100
AcDbLine
 10
-745.7173925959232
 20
-576.5075420366747
 30
0.0
 11
-745.7173925959232
 21
-578.0078243242724
 31
0.0
  0
LINE
  5
18B
330
1F
100
AcDbEntity
  8
D-0
  6
Continuous
 62
     7
370
     9
100
AcDbLine
 10
-745.7173925959232
 20
-578.0078243242724
 30
0.0
 11
-747.2171765886906
 21
-578.0078243242724
 31
0.0
  0
LINE
  5
18C
330
1F
100
AcDbEntity
  8
D-0
  6
Continuous
 62
     7
370
     9
100
AcDbLine
 10
-735.3700223886135
 20
-478.1242870317919
 30
0.0
 11
-735.3700223886135
 21
-476.6240047441943
 31
0.0
  0
LINE
  5
18D
330
1F
100
AcDbEntity
  8
D-0
  6
Continuous
 62
     7
370
     9
100
AcDbLine
 10
-735.3700223886135
 20
-476.6240047441943
 30
0.0
 11
-733.8697427832249
 21
-476.6240047441943
 31
0.0
  0
LINE
  5
18E
330
1F
100
AcDbEntity
  8
D-0
  6
Continuous
 62
     7
370
     9
100
AcDbLine
 10
-733.8697427832249
 20
-476.6240047441943
 30
0.0
 11
-733.8697427832249
 21
-478.1242870317919
 31
0.0
  0
LINE
  5
18F
330
1F
100
AcDbEntity
  8
D-0
  6
Continuous
 62
     7
370
     9
100
AcDbLine
 10
-733.8697427832249
 20
-478.1242870317919
 30
0.0
 11
-735.3700223886135
 21
-478.1242870317919
 31
0.0
  0
LINE
  5
190
330
1F
100
AcDbEntity
  8
D-0
  6
Continuous
 62
     7
370
     9
100
AcDbLine
 10
-639.258986147559
 20
-489.3486331926806
 30
0.0
 11
-639.258986147559
 21
-487.848350905083
 31
0.0
  0
LINE
  5
191
330
1F
100
AcDbEntity
  8
D-0
  6
Continuous
 62
     7
370
     9
100
AcDbLine
 10
-639.258986147559
 20
-487.848350905083
 30
0.0
 11
-637.759209307349
 21
-487.848350905083
 31
0.0
  0
LINE
  5
192
330
1F
100
AcDbEntity
  8
D-0
  6
Continuous
 62
     7
370
     9
100
AcDbLine
 10
-637.759209307349
 20
-487.848350905083
 30
0.0
 11
-637.759209307349
 21
-489.3486331926806
 31
0.0
  0
LINE
  5
193
330
1F
100
AcDbEntity
  8
D-0
  6
Continuous
 62
     7
370
     9
100
AcDbLine
 10
-637.759209307349
 20
-489.3486331926806
 30
0.0
 11
-639.258986147559
 21
-489.3486331926806
 31
0.0
  0
LINE
  5
194
330
1F
100
AcDbEntity
  8
D-0
  6
Continuous
 62
     7
370
     9
100
AcDbLine
 10
-691.793542536414
 20
-480.7235073076708
 30
0.0
 11
-691.793542536414
 21
-479.2232250200732
 31
0.0
  0
LINE
  5
195
330
1F
100
AcDbEntity
  8
D-0
  6
Continuous
 62
     7
370
     9
100
AcDbLine
 10
-691.793542536414
 20
-479.2232250200732
 30
0.0
 11
-690.2937609278324
 21
-479.2232250200732
 31
0.0
  0
LINE
  5
196
330
1F
100
AcDbEntity
  8
D-0
  6
Continuous
 62
     7
370
     9
100
AcDbLine
 10
-690.2937609278324
 20
-479.2232250200732
 30
0.0
 11
-690.2937609278324
 21
-480.7235073076708
 31
0.0
  0
LINE
  5
197
330
1F
100
AcDbEntity
  8
D-0
  6
Continuous
 62
     7
370
     9
100
AcDbLine
 10
-690.2937609278324
 20
-480.7235073076708
 30
0.0
 11
-691.793542536414
 21
-480.7235073076708
 31
0.0
  0
LINE
  5
198
330
1F
100
AcDbEntity
  8
D-0
  6
Continuous
 62
     7
370
     9
100
AcDbLine
 10
-828.1752878748539
 20
-541.3114093767626
 30
0.0
 11
-828.1752878748539
 21
-539.8111461626513
 31
0.0
  0
LINE
  5
199
330
1F
100
AcDbEntity
  8
D-0
  6
Continuous
 62
     7
370
     9
100
AcDbLine
 10
-828.1752878748539
 20
-539.8111461626513
 30
0.0
 11
-826.6755014979008
 21
-539.8111461626513
 31
0.0
  0
LINE
  5
19A
330
1F
100
AcDbEntity
  8
D-0
  6
Continuous
 62
     7
370
     9
100
AcDbLine
 10
-826.6755014979008
 20
-539.8111461626513
 30
0.0
 11
-826.6755014979008
 21
-541.3114093767626
 31
0.0
  0
LINE
  5
19B
330
1F
100
AcDbEntity
  8
D-0
  6
Continuous
 62
     7
370
     9
100
AcDbLine
 10
-826.6755014979008
 20
-541.3114093767626
 30
0.0
 11
-828.1752878748539
 21
-541.3114093767626
 31
0.0
  0
LINE
  5
19C
330
1F
100
AcDbEntity
  8
D-0
  6
Continuous
 62
     7
370
     9
100
AcDbLine
 10
-797.0548922144535
 20
-399.5404552446826
 30
0.0
 11
-797.0548922144535
 21
-398.0401824938281
 31
0.0
  0
LINE
  5
19D
330
1F
100
AcDbEntity
  8
D-0
  6
Continuous
 62
     7
370
     9
100
AcDbLine
 10
-797.0548922144535
 20
-398.0401824938281
 30
0.0
 11
-795.5546146952274
 21
-398.0401824938281
 31
0.0
  0
LINE
  5
19E
330
1F
100
AcDbEntity
  8
D-0
  6
Continuous
 62
     7
370
     9
100
AcDbLine
 10
-795.5546146952274
 20
-398.0401824938281
 30
0.0
 11
-795.5546146952274
 21
-399.5404552446826
 31
0.0
  0
LINE
  5
19F
330
1F
100
AcDbEntity
  8
D-0
  6
Continuous
 62
     7
370
     9
100
AcDbLine
 10
-795.5546146952274
 20
-399.5404552446826
 30
0.0
 11
-797.0548922144535
 21
-399.5404552446826
 31
0.0
  0
LINE
  5
1A0
330
1F
100
AcDbEntity
  8
D-0
  6
Continuous
 62
     7
370
     9
100
AcDbLine
 10
-741.2938471459511
 20
-510.871803663872
 30
0.0
 11
-741.2938471459511
 21
-509.3715213762744
 31
0.0
  0
LINE
  5
1A1
330
1F
100
AcDbEntity
  8
D-0
  6
Continuous
 62
     7
370
     9
100
AcDbLine
 10
-741.2938471459511
 20
-509.3715213762744
 30
0.0
 11
-739.793567726827
 21
-509.3715213762744
 31
0.0
  0
LINE
  5
1A2
330
1F
100
AcDbEntity
  8
D-0
  6
Continuous
 62
     7
370
     9
100
AcDbLine
 10
-739.793567726827
 20
-509.3715213762744
 30
0.0
 11
-739.793567726827
 21
-510.871803663872
 31
0.0
  0
LINE
  5
1A3
330
1F
100
AcDbEntity
  8
D-0
  6
Continuous
 62
     7
370
     9
100
AcDbLine
 10
-739.793567726827
 20
-510.871803663872
 30
0.0
 11
-741.2938471459511
 21
-510.871803663872
 31
0.0
  0
LINE
  5
1A4
330
1F
100
AcDbEntity
  8
D-0
  6
Continuous
 62
     7
370
     9
100
AcDbLine
 10
-800.5311018549564
 20
-533.4131549822314
 30
0.0
 11
-800.5311018549564
 21
-531.9128726946337
 31
0.0
  0
LINE
  5
1A5
330
1F
100
AcDbEntity
  8
D-0
  6
Continuous
 62
     7
370
     9
100
AcDbLine
 10
-800.5311018549564
 20
-531.9128726946337
 30
0.0
 11
-799.0313202463749
 21
-531.9128726946337
 31
0.0
  0
LINE
  5
1A6
330
1F
100
AcDbEntity
  8
D-0
  6
Continuous
 62
     7
370
     9
100
AcDbLine
 10
-799.0313202463749
 20
-531.9128726946337
 30
0.0
 11
-799.0313202463749
 21
-533.4131549822314
 31
0.0
  0
LINE
  5
1A7
330
1F
100
AcDbEntity
  8
D-0
  6
Continuous
 62
     7
370
     9
100
AcDbLine
 10
-799.0313202463749
 20
-533.4131549822314
 30
0.0
 11
-800.5311018549564
 21
-533.4131549822314
 31
0.0
  0
LINE
  5
1A8
330
1F
100
AcDbEntity
  8
D-0
  6
Continuous
 62
     7
370
     9
100
AcDbLine
 10
-788.683453234351
 20
-606.4729808794482
 30
0.0
 11
-788.683453234351
 21
-604.9726985918505
 31
0.0
  0
LINE
  5
1A9
330
1F
100
AcDbEntity
  8
D-0
  6
Continuous
 62
     7
370
     9
100
AcDbLine
 10
-788.683453234351
 20
-604.9726985918505
 30
0.0
 11
-787.1836716257694
 21
-604.9726985918505
 31
0.0
  0
LINE
  5
1AA
330
1F
100
AcDbEntity
  8
D-0
  6
Continuous
 62
     7
370
     9
100
AcDbLine
 10
-787.1836716257694
 20
-604.9726985918505
 30
0.0
 11
-787.1836716257694
 21
-606.4729808794482
 31
0.0
  0
LINE
  5
1AB
330
1F
100
AcDbEntity
  8
D-0
  6
Continuous
 62
     7
370
     9
100
AcDbLine
 10
-787.1836716257694
 20
-606.4729808794482
 30
0.0
 11
-788.683453234351
 21
-606.4729808794482
 31
0.0
  0
LINE
  5
1AC
330
1F
100
AcDbEntity
  8
D-0
  6
Continuous
 62
     7
370
     9
100
AcDbLine
 10
-837.061024340308
 20
-605.4855083452685
 30
0.0
 11
-837.061024340308
 21
-603.9852260576708
 31
0.0
  0
LINE
  5
1AD
330
1F
100
AcDbEntity
  8
D-0
  6
Continuous
 62
     7
370
     9
100
AcDbLine
 10
-837.061024340308
 20
-603.9852260576708
 30
0.0
 11
-835.5607420527103
 21
-603.9852260576708
 31
0.0
  0
LINE
  5
1AE
330
1F
100
AcDbEntity
  8
D-0
  6
Continuous
 62
     7
370
     9
100
AcDbLine
 10
-835.5607420527103
 20
-603.9852260576708
 30
0.0
 11
-835.5607420527103
 21
-605.4855083452685
 31
0.0
  0
LINE
  5
1AF
330
1F
100
AcDbEntity
  8
D-0
  6
Continuous
 62
     7
370
     9
100
AcDbLine
 10
-835.5607420527103
 20
-605.4855083452685
 30
0.0
 11
-837.061024340308
 21
-605.4855083452685
 31
0.0
  0
LINE
  5
1B0
330
1F
100
AcDbEntity
  8
D-0
  6
Continuous
 62
     7
370
     9
100
AcDbLine
 10
-824.1079813562992
 20
-724.5912670122607
 30
0.0
 11
-824.1079813562992
 21
-723.090984724663
 31
0.0
  0
LINE
  5
1B1
330
1F
100
AcDbEntity
  8
D-0
  6
Continuous
 62
     7
370
     9
100
AcDbLine
 10
-824.1079813562992
 20
-723.090984724663
 30
0.0
 11
-822.6082045160892
 21
-723.090984724663
 31
0.0
  0
LINE
  5
1B2
330
1F
100
AcDbEntity
  8
D-0
  6
Continuous
 62
     7
370
     9
100
AcDbLine
 10
-822.6082045160892
 20
-723.090984724663
 30
0.0
 11
-822.6082045160892
 21
-724.5912670122607
 31
0.0
  0
LINE
  5
1B3
330
1F
100
AcDbEntity
  8
D-0
  6
Continuous
 62
     7
370
     9
100
AcDbLine
 10
-822.6082045160892
 20
-724.5912670122607
 30
0.0
 11
-824.1079813562992
 21
-724.5912670122607
 31
0.0
  0
LINE
  5
1B4
330
1F
100
AcDbEntity
  8
D-0
  6
Continuous
 62
     7
370
     9
100
AcDbLine
 10
-773.5820609652164
 20
-754.0989040361865
 30
0.0
 11
-773.5820609652164
 21
-752.5986217485888
 31
0.0
  0
LINE
  5
1B5
330
1F
100
AcDbEntity
  8
D-0
  6
Continuous
 62
     7
370
     9
100
AcDbLine
 10
-773.5820609652164
 20
-752.5986217485888
 30
0.0
 11
-772.0822769724491
 21
-752.5986217485888
 31
0.0
  0
LINE
  5
1B6
330
1F
100
AcDbEntity
  8
D-0
  6
Continuous
 62
     7
370
     9
100
AcDbLine
 10
-772.0822769724491
 20
-752.5986217485888
 30
0.0
 11
-772.0822769724491
 21
-754.0989040361865
 31
0.0
  0
LINE
  5
1B7
330
1F
100
AcDbEntity
  8
D-0
  6
Continuous
 62
     7
370
     9
100
AcDbLine
 10
-772.0822769724491
 20
-754.0989040361865
 30
0.0
 11
-773.5820609652164
 21
-754.0989040361865
 31
0.0
  0
LINE
  5
1B8
330
1F
100
AcDbEntity
  8
D-0
  6
Continuous
 62
     7
370
     9
100
AcDbLine
 10
-737.3444655858639
 20
-678.3694576250537
 30
0.0
 11
-737.3444655858639
 21
-676.8692134844287
 31
0.0
  0
LINE
  5
1B9
330
1F
100
AcDbEntity
  8
D-0
  6
Continuous
 62
     7
370
     9
100
AcDbLine
 10
-737.3444655858639
 20
-676.8692134844287
 30
0.0
 11
-735.8441859804752
 21
-676.8692134844287
 31
0.0
  0
LINE
  5
1BA
330
1F
100
AcDbEntity
  8
D-0
  6
Continuous
 62
     7
370
     9
100
AcDbLine
 10
-735.8441859804752
 20
-676.8692134844287
 30
0.0
 11
-735.8441859804752
 21
-678.3694576250537
 31
0.0
  0
LINE
  5
1BB
330
1F
100
AcDbEntity
  8
D-0
  6
Continuous
 62
     7
370
     9
100
AcDbLine
 10
-735.8441859804752
 20
-678.3694576250537
 30
0.0
 11
-737.3444655858639
 21
-678.3694576250537
 31
0.0
  0
LINE
  5
1BC
330
1F
100
AcDbEntity
  8
D-0
  6
Continuous
 62
     7
370
     9
100
AcDbLine
 10
-854.377165468848
 20
-560.3061985002978
 30
0.0
 11
-854.377165468848
 21
-558.8059162127001
 31
0.0
  0
LINE
  5
1BD
330
1F
100
AcDbEntity
  8
D-0
  6
Continuous
 62
     7
370
     9
100
AcDbLine
 10
-854.377165468848
 20
-558.8059162127001
 30
0.0
 11
-852.8768831812504
 21
-558.8059162127001
 31
0.0
  0
LINE
  5
1BE
330
1F
100
AcDbEntity
  8
D-0
  6
Continuous
 62
     7
370
     9
100
AcDbLine
 10
-852.8768831812504
 20
-558.8059162127001
 30
0.0
 11
-852.8768831812504
 21
-560.3061985002978
 31
0.0
  0
LINE
  5
1BF
330
1F
100
AcDbEntity
  8
D-0
  6
Continuous
 62
     7
370
     9
100
AcDbLine
 10
-852.8768831812504
 20
-560.3061985002978
 30
0.0
 11
-854.377165468848
 21
-560.3061985002978
 31
0.0
  0
LINE
  5
1C0
330
1F
100
AcDbEntity
  8
D-0
  6
Continuous
 62
     7
370
     9
100
AcDbLine
 10
-737.4554506265285
 20
-604.0402339922412
 30
0.0
 11
-737.4554506265285
 21
-602.5399517046435
 31
0.0
  0
LINE
  5
1C1
330
1F
100
AcDbEntity
  8
D-0
  6
Continuous
 62
     7
370
     9
100
AcDbLine
 10
-737.4554506265285
 20
-602.5399517046435
 30
0.0
 11
-735.9551710211399
 21
-602.5399517046435
 31
0.0
  0
LINE
  5
1C2
330
1F
100
AcDbEntity
  8
D-0
  6
Continuous
 62
     7
370
     9
100
AcDbLine
 10
-735.9551710211399
 20
-602.5399517046435
 30
0.0
 11
-735.9551710211399
 21
-604.0402339922412
 31
0.0
  0
LINE
  5
1C3
330
1F
100
AcDbEntity
  8
D-0
  6
Continuous
 62
     7
370
     9
100
AcDbLine
 10
-735.9551710211399
 20
-604.0402339922412
 30
0.0
 11
-737.4554506265285
 21
-604.0402339922412
 31
0.0
  0
LINE
  5
1C4
330
1F
100
AcDbEntity
  8
D-0
  6
Continuous
 62
     7
370
     9
100
AcDbLine
 10
-762.1857840143803
 20
-727.3862194048388
 30
0.0
 11
-762.1857840143803
 21
-725.8859371172412
 31
0.0
  0
LINE
  5
1C5
330
1F
100
AcDbEntity
  8
D-0
  6
Continuous
 62
     7
370
     9
100
AcDbLine
 10
-762.1857840143803
 20
-725.8859371172412
 30
0.0
 11
-760.6855041109684
 21
-725.8859371172412
 31
0.0
  0
LINE
  5
1C6
330
1F
100
AcDbEntity
  8
D-0
  6
Continuous
 62
     7
370
     9
100
AcDbLine
 10
-760.6855041109684
 20
-725.8859371172412
 30
0.0
 11
-760.6855041109684
 21
-727.3862194048388
 31
0.0
  0
LINE
  5
1C7
330
1F
100
AcDbEntity
  8
D-0
  6
Continuous
 62
     7
370
     9
100
AcDbLine
 10
-760.6855041109684
 20
-727.3862194048388
 30
0.0
 11
-762.1857840143803
 21
-727.3862194048388
 31
0.0
  0
LINE
  5
1C8
330
1F
100
AcDbEntity
  8
D-0
  6
Continuous
 62
     7
370
     9
100
AcDbLine
 10
-730.3420055233601
 20
-414.9242710100634
 30
0.0
 11
-730.3420055233601
 21
-413.4239887224658
 31
0.0
  0
LINE
  5
1C9
330
1F
100
AcDbEntity
  8
D-0
  6
Continuous
 62
     7
370
     9
100
AcDbLine
 10
-730.3420055233601
 20
-413.4239887224658
 30
0.0
 11
-728.8417262159946
 21
-413.4239887224658
 31
0.0
  0
LINE
  5
1CA
330
1F
100
AcDbEntity
  8
D-0
  6
Continuous
 62
     7
370
     9
100
AcDbLine
 10
-728.8417262159946
 20
-413.4239887224658
 30
0.0
 11
-728.8417262159946
 21
-414.9242710100634
 31
0.0
  0
LINE
  5
1CB
330
1F
100
AcDbEntity
  8
D-0
  6
Continuous
 62
     7
370
     9
100
AcDbLine
 10
-728.8417262159946
 20
-414.9242710100634
 30
0.0
 11
-730.3420055233601
 21
-414.9242710100634
 31
0.0
  0
LINE
  5
1CC
330
1F
100
AcDbEntity
  8
D-4
  6
Continuous
 62
     7
370
     9
100
AcDbLine
 10
-564.5046335779789
 20
-402.4349903093798
 30
0.0
 11
-564.5046335779789
 21
-464.918548964165
 31
0.0
  0
LINE
  5
1CD
330
1F
100
AcDbEntity
  8
D-4
  6
Continuous
 62
     7
370
     9
100
AcDbLine
 10
-552.6777941309574
 20
-390.6091426836474
 30
0.0
 11
-462.930746706641
 21
-390.6091426836474
 31
0.0
  0
LINE
  5
1CE
330
1F
100
AcDbEntity
  8
D-4
  6
Continuous
 62
     7
370
     9
100
AcDbLine
 10
-552.6777941309574
 20
-340.6089042650683
 30
0.0
 11
-462.930746706641
 21
-340.6089042650683
 31
0.0
  0
LINE
  5
1CF
330
1F
100
AcDbEntity
  8
D-4
  6
Continuous
 62
     7
370
     9
100
AcDbLine
 10
-465.93129220835
 20
-340.6089042650683
 30
0.0
 11
-465.93129220835
 21
-255.6087612139208
 31
0.0
  0
LINE
  5
1D0
330
1F
100
AcDbEntity
  8
D-4
  6
Continuous
 62
     7
370
     9
100
AcDbLine
 10
-465.93129220835
 20
-390.6091426836474
 30
0.0
 11
-465.93129220835
 21
-340.6089042650683
 31
0.0
  0
LINE
  5
1D1
330
1F
100
AcDbEntity
  8
D-4
  6
Continuous
 62
     7
370
     9
100
AcDbLine
 10
-709.5050651156071
 20
-461.918003462456
 30
0.0
 11
-864.5040518366459
 21
-461.918003462456
 31
0.0
  0
LINE
  5
1D2
330
1F
100
AcDbEntity
  8
D-9
  6
Continuous
 62
     4
370
     9
100
AcDbLine
 10
-849.5046907984379
 20
-333.1094287859423
 30
0.0
 11
-734.5049339853886
 21
-333.1094287859423
 31
0.0
  0
LINE
  5
1D3
330
1F
100
AcDbEntity
  8
D-1
  6
Continuous
 62
     2
370
     9
100
AcDbLine
 10
-709.5050984942081
 20
-258.6087613331301
 30
0.0
 11
-709.5050984942081
 21
-283.1086443888171
 31
0.0
  0
LINE
  5
1D4
330
1F
100
AcDbEntity
  8
D-1
  6
Continuous
 62
     2
370
     9
100
AcDbLine
 10
-709.5050984942081
 20
-377.6083873735888
 30
0.0
 11
-709.5050984942081
 21
-353.1085037218554
 31
0.0
  0
LINE
  5
1D5
330
1F
100
AcDbEntity
  8
D-1
  6
Continuous
 62
     2
370
     9
100
AcDbLine
 10
-731.5048498236301
 20
-255.6091720027007
 30
0.0
 11
-712.5045639597538
 21
-255.6091720027007
 31
0.0
  0
LINE
  5
1D6
330
1F
100
AcDbEntity
  8
D-1
  6
Continuous
 62
     2
370
     9
100
AcDbLine
 10
-859.5047289454105
 20
-350.6086849199755
 30
0.0
 11
-859.5047289454105
 21
-343.1087802874072
 31
0.0
  0
LINE
  5
1D7
330
1F
100
AcDbEntity
  8
D-1
  6
Continuous
 62
     2
370
     9
100
AcDbLine
 10
-864.5051199518803
 20
-350.6086849199755
 30
0.0
 11
-864.5051199518803
 21
-343.1087802874072
 31
0.0
  0
LINE
  5
1D8
330
1F
100
AcDbEntity
  8
D-1
  6
Continuous
 62
     2
370
     9
100
AcDbLine
 10
-729.5051646553638
 20
-375.6087039934619
 30
0.0
 11
-714.5048672281864
 21
-375.6087039934619
 31
0.0
  0
LINE
  5
1D9
330
1F
100
AcDbEntity
  8
D-1
  6
Continuous
 62
     2
370
     9
100
AcDbLine
 10
-729.504917296088
 20
-380.6089614855273
 30
0.0
 11
-712.5045639597538
 21
-380.6089614855273
 31
0.0
  0
LINE
  5
1DA
330
1F
100
AcDbEntity
  8
D-1
  6
Continuous
 62
     2
370
     9
100
AcDbLine
 10
-734.5049339853886
 20
-345.6084178911669
 30
0.0
 11
-734.5049339853886
 21
-258.6087613331301
 31
0.0
  0
LINE
  5
1DB
330
1F
100
AcDbEntity
  8
D-1
  6
Continuous
 62
     2
370
     9
100
AcDbLine
 10
-734.5049339853886
 20
-345.6084178911669
 30
0.0
 11
-784.5046049677494
 21
-345.6084178911669
 31
0.0
  0
LINE
  5
1DC
330
1F
100
AcDbEntity
  8
D-1
  6
Continuous
 62
     2
370
     9
100
AcDbLine
 10
-859.5047289454105
 20
-355.608942412041
 30
0.0
 11
-734.5049339853886
 21
-355.608942412041
 31
0.0
  0
LINE
  5
1DD
330
1F
100
AcDbEntity
  8
D-1
  6
Continuous
 62
     2
370
     9
100
AcDbLine
 10
-734.5049339853886
 20
-375.6089519487841
 30
0.0
 11
-734.5049339853886
 21
-355.608942412041
 31
0.0
  0
LINE
  5
1DE
330
1F
100
AcDbEntity
  8
D-1
  6
Continuous
 62
     2
370
     9
100
AcDbLine
 10
-729.5051646553638
 20
-355.6086944567187
 30
0.0
 11
-729.5051646553638
 21
-375.6087039934619
 31
0.0
  0
LINE
  5
1DF
330
1F
100
AcDbEntity
  8
D-1
  6
Continuous
 62
     2
370
     9
100
AcDbLine
 10
-734.5051813446644
 20
-350.6086849199755
 30
0.0
 11
-859.5047289454105
 21
-350.6086849199755
 31
0.0
  0
LINE
  5
1E0
330
1F
100
AcDbEntity
  8
D-1
  6
Continuous
 62
     2
370
     9
100
AcDbLine
 10
-729.5051646553638
 20
-345.6086658464892
 30
0.0
 11
-729.5051646553638
 21
-260.6084462033732
 31
0.0
  0
LINE
  5
1E1
330
1F
100
AcDbEntity
  8
D-9
  6
Continuous
 62
     4
370
     9
100
AcDbLine
 10
-734.5049339853886
 20
-338.6998390184863
 30
0.0
 11
-741.4135156892899
 21
-345.6084178911669
 31
0.0
  0
LINE
  5
1E2
330
1F
100
AcDbEntity
  8
D-9
  6
Continuous
 62
     4
370
     9
100
AcDbLine
 10
-735.984871419585
 20
-333.1094287859423
 30
0.0
 11
-748.4840464913013
 21
-345.6084178911669
 31
0.0
  0
LINE
  5
1E3
330
1F
100
AcDbEntity
  8
D-9
  6
Continuous
 62
     4
370
     9
100
AcDbLine
 10
-743.0562067352894
 20
-333.1094287859423
 30
0.0
 11
-755.5553824030521
 21
-345.6084178911669
 31
0.0
  0
LINE
  5
1E4
330
1F
100
AcDbEntity
  8
D-9
  6
Continuous
 62
     4
370
     9
100
AcDbLine
 10
-750.1270467363956
 20
-333.1094287859423
 30
0.0
 11
-762.626221808112
 21
-345.6084178911669
 31
0.0
  0
LINE
  5
1E5
330
1F
100
AcDbEntity
  8
D-9
  6
Continuous
 62
     4
370
     9
100
AcDbLine
 10
-757.1983820521
 20
-333.1094287859423
 30
0.0
 11
-769.6975571238163
 21
-345.6084178911669
 31
0.0
  0
LINE
  5
1E6
330
1F
100
AcDbEntity
  8
D-9
  6
Continuous
 62
     4
370
     9
100
AcDbLine
 10
-764.2692238413456
 20
-333.1094287859423
 30
0.0
 11
-776.7685824953678
 21
-345.6084178911669
 31
0.0
  0
LINE
  5
1E7
330
1F
100
AcDbEntity
  8
D-9
  6
Continuous
 62
     4
370
     9
100
AcDbLine
 10
-771.3405591570499
 20
-333.1094287859423
 30
0.0
 11
-783.8399178110722
 21
-345.6084178911669
 31
0.0
  0
LINE
  5
1E8
330
1F
100
AcDbEntity
  8
D-9
  6
Continuous
 62
     4
370
     9
100
AcDbLine
 10
-806.6962439142826
 20
-333.1094287859423
 30
0.0
 11
-811.6953331553104
 21
-338.1085132585986
 31
0.0
  0
LINE
  5
1E9
330
1F
100
AcDbEntity
  8
D-9
  6
Continuous
 62
     4
370
     9
100
AcDbLine
 10
-813.7670857035282
 20
-333.1094287859423
 30
0.0
 11
-818.7662369333866
 21
-338.1085132585986
 31
0.0
  0
LINE
  5
1EA
330
1F
100
AcDbEntity
  8
D-9
  6
Continuous
 62
     4
370
     9
100
AcDbLine
 10
-849.1227728449467
 20
-333.1094287859423
 30
0.0
 11
-854.1222292505863
 21
-338.1085132585986
 31
0.0
  0
LINE
  5
1EB
330
1F
100
AcDbEntity
  8
D-9
  6
Continuous
 62
     4
370
     9
100
AcDbLine
 10
-799.624910982764
 20
-333.1094287859423
 30
0.0
 11
-804.6241766535404
 21
-338.1085132585986
 31
0.0
  0
LINE
  5
1EC
330
1F
100
AcDbEntity
  8
D-9
  6
Continuous
 62
     4
370
     9
100
AcDbLine
 10
-785.4827314936283
 20
-333.1094287859423
 30
0.0
 11
-790.481925638831
 21
-338.1085132585986
 31
0.0
  0
LINE
  5
1ED
330
1F
100
AcDbEntity
  8
D-9
  6
Continuous
 62
     4
370
     9
100
AcDbLine
 10
-792.5540691935184
 20
-333.1094287859423
 30
0.0
 11
-797.5532442652348
 21
-338.1085132585986
 31
0.0
  0
LINE
  5
1EE
330
1F
100
AcDbEntity
  8
D-9
  6
Continuous
 62
     4
370
     9
100
AcDbLine
 10
-820.8384234034183
 20
-333.1094287859423
 30
0.0
 11
-825.8375078760746
 21
-338.1085132585986
 31
0.0
  0
LINE
  5
1EF
330
1F
100
AcDbEntity
  8
D-9
  6
Continuous
 62
     4
370
     9
100
AcDbLine
 10
-827.9092604242924
 20
-333.1094287859423
 30
0.0
 11
-832.9084402643803
 21
-338.1085132585986
 31
0.0
  0
LINE
  5
1F0
330
1F
100
AcDbEntity
  8
D-9
  6
Continuous
 62
     4
370
     9
100
AcDbLine
 10
-834.9800974451664
 20
-333.1094287859423
 30
0.0
 11
-839.9793058954838
 21
-338.1085132585986
 31
0.0
  0
LINE
  5
1F1
330
1F
100
AcDbEntity
  8
D-9
  6
Continuous
 62
     4
370
     9
100
AcDbLine
 10
-842.0514399134281
 20
-333.1094287859423
 30
0.0
 11
-847.0507055842045
 21
-338.1085132585986
 31
0.0
  0
LINE
  5
1F2
330
1F
100
AcDbEntity
  8
D-1
  6
Continuous
 62
     2
370
     9
100
AcDbLine
 10
-789.5049339853886
 20
-343.1087802874072
 30
0.0
 11
-859.5047289454105
 21
-343.1087802874072
 31
0.0
  0
LINE
  5
1F3
330
1F
100
AcDbEntity
  8
D-1
  6
Continuous
 62
     2
370
     9
100
AcDbLine
 10
-789.5049339853886
 20
-345.6086849199755
 30
0.0
 11
-789.5049339853886
 21
-343.1087802874072
 31
0.0
  0
LINE
  5
1F4
330
1F
100
AcDbEntity
  8
D-1
  6
Continuous
 62
     2
370
     9
100
AcDbLine
 10
-789.5049339853886
 20
-338.1085132585986
 30
0.0
 11
-859.5047289454105
 21
-338.1085132585986
 31
0.0
  0
LINE
  5
1F5
330
1F
100
AcDbEntity
  8
D-1
  6
Continuous
 62
     2
370
     9
100
AcDbLine
 10
-784.5049339853886
 20
-343.1085132585986
 30
0.0
 11
-784.5049339853886
 21
-345.6084178911669
 31
0.0
  0
LINE
  5
1F6
330
1F
100
AcDbEntity
  8
D-9
  6
Continuous
 62
     4
370
     9
100
AcDbLine
 10
-778.4118944727543
 20
-333.1094287859423
 30
0.0
 11
-785.4649931513432
 21
-340.1625274645312
 31
0.0
  0
LINE
  5
1F7
330
1F
100
AcDbEntity
  8
D-3
  6
Continuous
 62
     3
370
     9
100
AcDbLine
 10
-726.0048812948826
 20
-260.6084462033732
 30
0.0
 11
-726.0048812948826
 21
-373.1084465013964
 31
0.0
  0
LINE
  5
1F8
330
1F
100
AcDbEntity
  8
D-3
  6
Continuous
 62
     3
370
     9
100
AcDbLine
 10
-564.5049959742191
 20
-350.6083702074511
 30
0.0
 11
-564.5049959742191
 21
-390.6083797441943
 31
0.0
  0
LINE
  5
1F9
330
1F
100
AcDbEntity
  8
D-3
  6
Continuous
 62
     3
370
     9
100
AcDbLine
 10
-689.5049101435307
 20
-372.4281143175585
 30
0.0
 11
-689.5049101435307
 21
-390.6083797441943
 31
0.0
  0
LINE
  5
1FA
330
1F
100
AcDbEntity
  8
D-3
  6
Continuous
 62
     3
370
     9
100
AcDbLine
 10
-692.4338537775639
 20
-365.3570198046191
 30
0.0
 11
-714.5048672281864
 21
-343.2860111223681
 31
0.0
  0
LINE
  5
1FB
330
1F
100
AcDbEntity
  8
D-3
  6
JWW_CENTER1
 62
     3
370
     9
100
AcDbLine
 10
-664.5664412104252
 20
-312.1083425508959
 30
0.0
 11
-733.2374233328464
 21
-312.1083425508959
 31
0.0
  0
LINE
  5
1FC
330
1F
100
AcDbEntity
  8
D-3
  6
Continuous
 62
     3
370
     9
100
AcDbLine
 10
-671.8273121439579
 20
-333.285977743767
 30
0.0
 11
-675.0046879374149
 21
-330.10860195031
 31
0.0
  0
LINE
  5
1FD
330
1F
100
AcDbEntity
  8
D-3
  6
Continuous
 62
     3
370
     9
100
AcDbLine
 10
-703.0053502642277
 20
-302.1078180300219
 30
0.0
 11
-714.5048672281864
 21
-290.6082986818774
 31
0.0
  0
LINE
  5
1FE
330
1F
100
AcDbEntity
  8
D-A
  6
Continuous
 62
     7
370
     9
100
AcDbLine
 10
-728.2555944048527
 20
-322.1078800188525
 30
0.0
 11
-728.2555944048527
 21
-302.1078180300219
 31
0.0
  0
LINE
  5
1FF
330
1F
100
AcDbEntity
  8
D-A
  6
Continuous
 62
     7
370
     9
100
AcDbLine
 10
-728.2555944048527
 20
-302.1078180300219
 30
0.0
 11
-729.5051646553638
 21
-303.3578800188525
 31
0.0
  0
LINE
  5
200
330
1F
100
AcDbEntity
  8
D-A
  6
Continuous
 62
     7
370
     9
100
AcDbLine
 10
-728.2555944048527
 20
-322.1078800188525
 30
0.0
 11
-729.5051646553638
 21
-320.8583091722949
 31
0.0
  0
LINE
  5
201
330
1F
100
AcDbEntity
  8
D-A
  6
Continuous
 62
     7
370
     9
100
AcDbLine
 10
-666.5051323496464
 20
-323.6086057650073
 30
0.0
 11
-666.5051323496464
 21
-300.6080841051562
 31
0.0
  0
LINE
  5
202
330
1F
100
AcDbEntity
  8
D-A
  6
Continuous
 62
     7
370
     9
100
AcDbLine
 10
-673.0051285349491
 20
-330.10860195031
 30
0.0
 11
-679.5051247202518
 21
-330.10860195031
 31
0.0
  0
LINE
  5
203
330
1F
100
AcDbEntity
  8
D-A
  6
Continuous
 62
     7
370
     9
100
AcDbLine
 10
-673.0051285349491
 20
-294.1080855356677
 30
0.0
 11
-679.5051247202518
 21
-294.1080855356677
 31
0.0
  0
LINE
  5
204
330
1F
100
AcDbEntity
  8
D-A
  6
Continuous
 62
     7
370
     9
100
AcDbLine
 10
-679.5051247202518
 20
-294.1080855356677
 30
0.0
 11
-679.5051247202518
 21
-330.10860195031
 31
0.0
  0
LINE
  5
205
330
1F
100
AcDbEntity
  8
D-A
  6
Continuous
 62
     7
370
     9
100
AcDbLine
 10
-679.5051247202518
 20
-302.1078180300219
 30
0.0
 11
-714.5048672281864
 21
-302.1078180300219
 31
0.0
  0
LINE
  5
206
330
1F
100
AcDbEntity
  8
D-A
  6
Continuous
 62
     7
370
     9
100
AcDbLine
 10
-679.5051247202518
 20
-303.3578800188525
 30
0.0
 11
-714.5048672281864
 21
-303.3578800188525
 31
0.0
  0
LINE
  5
207
330
1F
100
AcDbEntity
  8
D-A
  6
Continuous
 62
     7
370
     9
100
AcDbLine
 10
-679.5051247202518
 20
-320.8583091722949
 30
0.0
 11
-714.5048672281864
 21
-320.8583091722949
 31
0.0
  0
LINE
  5
208
330
1F
100
AcDbEntity
  8
D-A
  6
Continuous
 62
     7
370
     9
100
AcDbLine
 10
-679.5051247202518
 20
-322.1078800188525
 30
0.0
 11
-714.5048672281864
 21
-322.1078800188525
 31
0.0
  0
LINE
  5
209
330
1F
100
AcDbEntity
  8
D-A
  6
Continuous
 62
     7
370
     9
100
AcDbLine
 10
-726.0048812948826
 20
-320.8583091722949
 30
0.0
 11
-729.5051646553638
 21
-320.8583091722949
 31
0.0
  0
LINE
  5
20A
330
1F
100
AcDbEntity
  8
D-A
  6
Continuous
 62
     7
370
     9
100
AcDbLine
 10
-726.0048812948826
 20
-322.1078800188525
 30
0.0
 11
-728.2555944048527
 21
-322.1078800188525
 31
0.0
  0
LINE
  5
20B
330
1F
100
AcDbEntity
  8
D-A
  6
Continuous
 62
     7
370
     9
100
AcDbLine
 10
-726.0048812948826
 20
-303.3578800188525
 30
0.0
 11
-729.5051646553638
 21
-303.3578800188525
 31
0.0
  0
LINE
  5
20C
330
1F
100
AcDbEntity
  8
D-A
  6
Continuous
 62
     7
370
     9
100
AcDbLine
 10
-726.0048812948826
 20
-302.1078180300219
 30
0.0
 11
-728.2555944048527
 21
-302.1078180300219
 31
0.0
  0
LINE
  5
20D
330
1F
100
AcDbEntity
  8
D-3
  6
JWW_DASHED2
 62
     3
370
     9
100
AcDbLine
 10
-689.5049101435307
 20
-379.1083644854052
 30
0.0
 11
-564.5049959742191
 21
-379.1083644854052
 31
0.0
  0
LINE
  5
20E
330
1F
100
AcDbEntity
  8
D-3
  6
Continuous
 62
     3
370
     9
100
AcDbLine
 10
-574.5049006067875
 20
-340.6084655748828
 30
0.0
 11
-654.149590166724
 21
-340.6084655748828
 31
0.0
  0
LINE
  5
20F
330
1F
100
AcDbEntity
  8
D-3
  6
Continuous
 62
     3
370
     9
100
AcDbLine
 10
-689.5049101435307
 20
-390.6083797441943
 30
0.0
 11
-564.5049959742191
 21
-390.6083797441943
 31
0.0
  0
LINE
  5
210
330
1F
100
AcDbEntity
  8
D-1
  6
Continuous
 62
     2
370
     9
100
AcDbLine
 10
-729.5051646553638
 20
-260.6084462033732
 30
0.0
 11
-714.5048672281864
 21
-260.6084462033732
 31
0.0
  0
LINE
  5
211
330
1F
100
AcDbEntity
  8
D-1
  6
Continuous
 62
     2
370
     9
100
AcDbLine
 10
-709.5050984942081
 20
-283.1086443888171
 30
0.0
 11
-714.5048672281864
 21
-283.1086443888171
 31
0.0
  0
LINE
  5
212
330
1F
100
AcDbEntity
  8
D-1
  6
Continuous
 62
     2
370
     9
100
AcDbLine
 10
-714.5048672281864
 20
-283.1086443888171
 30
0.0
 11
-714.5048672281864
 21
-260.6084462033732
 31
0.0
  0
LINE
  5
213
330
1F
100
AcDbEntity
  8
D-3
  6
Continuous
 62
     3
370
     9
100
AcDbLine
 10
-726.0048812948826
 20
-260.6084462033732
 30
0.0
 11
-714.5048672281864
 21
-260.6084462033732
 31
0.0
  0
LINE
  5
214
330
1F
100
AcDbEntity
  8
D-1
  6
Continuous
 62
     2
370
     9
100
AcDbLine
 10
-709.5050984942081
 20
-353.1085037218554
 30
0.0
 11
-714.5048672281864
 21
-353.1085037218554
 31
0.0
  0
LINE
  5
215
330
1F
100
AcDbEntity
  8
D-1
  6
Continuous
 62
     2
370
     9
100
AcDbLine
 10
-714.5048672281864
 20
-375.6087039934619
 30
0.0
 11
-714.5048672281864
 21
-353.1085037218554
 31
0.0
  0
LINE
  5
216
330
1F
100
AcDbEntity
  8
D-3
  6
Continuous
 62
     3
370
     9
100
AcDbLine
 10
-726.0048812948826
 20
-373.1084465013964
 30
0.0
 11
-714.5048672281864
 21
-373.1084465013964
 31
0.0
  0
LINE
  5
217
330
1F
100
AcDbEntity
  8
D-3
  6
Continuous
 62
     3
370
     9
100
AcDbLine
 10
-714.5048672281864
 20
-260.6084462033732
 30
0.0
 11
-714.5048672281864
 21
-373.1084465013964
 31
0.0
  0
LINE
  5
218
330
1F
100
AcDbEntity
  8
D-6
  6
Continuous
 62
     6
370
     9
100
AcDbLine
 10
-712.5045639597538
 20
-255.6087612139208
 30
0.0
 11
-299.503183993018
 21
-255.6087612139208
 31
0.0
  0
LINE
  5
219
330
1F
100
AcDbEntity
  8
D-6
  6
Continuous
 62
     6
370
     9
100
AcDbLine
 10
-864.5040518366459
 20
-350.6086849199755
 30
0.0
 11
-864.5040518366459
 21
-755.6081127153857
 31
0.0
  0
LINE
  5
21A
330
1F
100
AcDbEntity
  8
D-4
  6
Continuous
 62
     7
370
     9
100
AcDbLine
 10
-781.3589293085697
 20
-380.6085990892871
 30
0.0
 11
-1012.987127932227
 21
-380.6085990892871
 31
0.0
  0
ARC
  5
21B
330
1F
100
AcDbEntity
  8
D-9
  6
Continuous
 62
     4
370
     9
100
AcDbCircle
 10
-849.5046907984379
 20
-338.1087039934619
 30
0.0
 40
5.0
100
AcDbArc
 50
90.0
 51
180.0
  0
ARC
  5
21C
330
1F
100
AcDbEntity
  8
D-1
  6
Continuous
 62
     2
370
     9
100
AcDbCircle
 10
-859.5047289454105
 20
-343.1087802874072
 30
0.0
 40
5.0
100
AcDbArc
 50
90.0
 51
180.0
  0
ARC
  5
21D
330
1F
100
AcDbEntity
  8
D-1
  6
Continuous
 62
     2
370
     9
100
AcDbCircle
 10
-712.5045639597538
 20
-258.6087613331301
 30
0.0
 40
3.00000011920929
100
AcDbArc
 50
0.0
 51
90.0
  0
ARC
  5
21E
330
1F
100
AcDbEntity
  8
D-1
  6
Continuous
 62
     2
370
     9
100
AcDbCircle
 10
-731.5048498236301
 20
-258.6087613331301
 30
0.0
 40
3.00000011920929
100
AcDbArc
 50
90.0
 51
180.0
  0
ARC
  5
21F
330
1F
100
AcDbEntity
  8
D-1
  6
Continuous
 62
     2
370
     9
100
AcDbCircle
 10
-712.5045639597538
 20
-377.6083873735888
 30
0.0
 40
3.00000011920929
100
AcDbArc
 50
270.0
 51
0.0
  0
ARC
  5
220
330
1F
100
AcDbEntity
  8
D-1
  6
Continuous
 62
     2
370
     9
100
AcDbCircle
 10
-859.5047289454105
 20
-350.6086849199755
 30
0.0
 40
5.0
100
AcDbArc
 50
180.0
 51
270.0
  0
ARC
  5
221
330
1F
100
AcDbEntity
  8
D-1
  6
Continuous
 62
     2
370
     9
100
AcDbCircle
 10
-729.504917296088
 20
-375.6089519487841
 30
0.0
 40
5.0
100
AcDbArc
 50
180.0
 51
270.0
  0
ARC
  5
222
330
1F
100
AcDbEntity
  8
D-1
  6
Continuous
 62
     2
370
     9
100
AcDbCircle
 10
-734.5051813446644
 20
-355.6086944567187
 30
0.0
 40
5.0
100
AcDbArc
 50
0.0
 51
90.0
  0
ARC
  5
223
330
1F
100
AcDbEntity
  8
D-1
  6
Continuous
 62
     2
370
     9
100
AcDbCircle
 10
-734.5051813446644
 20
-345.6086658464892
 30
0.0
 40
5.0
100
AcDbArc
 50
270.0
 51
0.0
  0
ARC
  5
224
330
1F
100
AcDbEntity
  8
D-1
  6
Continuous
 62
     2
370
     9
100
AcDbCircle
 10
-784.5049339853886
 20
-345.6086849199755
 30
0.0
 40
5.0
100
AcDbArc
 50
180.0
 51
270.0
  0
ARC
  5
225
330
1F
100
AcDbEntity
  8
D-1
  6
Continuous
 62
     2
370
     9
100
AcDbCircle
 10
-789.5049339853886
 20
-343.1085132585986
 30
0.0
 40
5.0
100
AcDbArc
 50
0.0
 51
90.0
  0
ARC
  5
226
330
1F
100
AcDbEntity
  8
D-3
  6
Continuous
 62
     3
370
     9
100
AcDbCircle
 10
-654.149590166724
 20
-315.6083797441943
 30
0.0
 40
25.0
100
AcDbArc
 50
225.0
 51
270.0
  0
ARC
  5
227
330
1F
100
AcDbEntity
  8
D-3
  6
Continuous
 62
     3
370
     9
100
AcDbCircle
 10
-574.5049006067875
 20
-350.6083702074511
 30
0.0
 40
10.0
100
AcDbArc
 50
0.0
 51
90.0
  0
ARC
  5
228
330
1F
100
AcDbEntity
  8
D-3
  6
Continuous
 62
     3
370
     9
100
AcDbCircle
 10
-699.5049411379459
 20
-372.4281143175585
 30
0.0
 40
10.0
100
AcDbArc
 50
0.0
 51
45.000244140625
  0
ARC
  5
229
330
1F
100
AcDbEntity
  8
D-A
  6
Continuous
 62
     7
370
     9
100
AcDbCircle
 10
-673.0051285349491
 20
-300.6080841051562
 30
0.0
 40
6.499999761581421
100
AcDbArc
 50
0.0
 51
90.0
  0
ARC
  5
22A
330
1F
100
AcDbEntity
  8
D-A
  6
Continuous
 62
     7
370
     9
100
AcDbCircle
 10
-673.0051285349491
 20
-323.6086057650073
 30
0.0
 40
6.499999761581421
100
AcDbArc
 50
270.0
 51
0.0
  0
LWPOLYLINE
  5
22B
330
1F
100
AcDbEntity
  8
D-4
  6
Continuous
 62
     7
370
     9
100
AcDbPolyline
 90
        4
 70
     1
 43
1.0
 10
-709.0050651156071
 20
84.75847969184088
 42
0.4142135623731
 10
-709.5050651156071
 20
85.25847969184088
 42
0.4142135623731
 10
-710.0050651156071
 20
84.75847969184088
 42
0.4142135623731
 10
-709.5050651156071
 20
84.25847969184088
 42
0.4142135623731
  0
LWPOLYLINE
  5
22C
330
1F
100
AcDbEntity
  8
D-4
  6
Continuous
 62
     7
370
     9
100
AcDbPolyline
 90
        4
 70
     1
 43
1.0
 10
-864.0040518366459
 20
-134.6896099077685
 42
0.4142135623731
 10
-864.5040518366459
 20
-134.1896099077685
 42
0.4142135623731
 10
-865.0040518366459
 20
-134.6896099077685
 42
0.4142135623731
 10
-864.5040518366459
 20
-135.1896099077685
 42
0.4142135623731
  0
LWPOLYLINE
  5
22D
330
1F
100
AcDbEntity
  8
D-4
  6
Continuous
 62
     7
370
     9
100
AcDbPolyline
 90
        4
 70
     1
 43
1.0
 10
-739.0042139612797
 20
-134.6896099077685
 42
0.4142135623731
 10
-739.5042139612797
 20
-134.1896099077685
 42
0.4142135623731
 10
-740.0042139612797
 20
-134.6896099077685
 42
0.4142135623731
 10
-739.5042139612797
 20
-135.1896099077685
 42
0.4142135623731
  0
LWPOLYLINE
  5
22E
330
1F
100
AcDbEntity
  8
D-4
  6
Continuous
 62
     7
370
     9
100
AcDbPolyline
 90
        4
 70
     1
 43
1.0
 10
-739.0042139612797
 20
-25.93718757500483
 42
0.4142135623731
 10
-739.5042139612797
 20
-25.43718757500483
 42
0.4142135623731
 10
-740.0042139612797
 20
-25.93718757500483
 42
0.4142135623731
 10
-739.5042139612797
 20
-26.43718757500483
 42
0.4142135623731
  0
LWPOLYLINE
  5
22F
330
1F
100
AcDbEntity
  8
D-4
  6
Continuous
 62
     7
370
     9
100
AcDbPolyline
 90
        4
 70
     1
 43
1.0
 10
-734.0039433561924
 20
-25.93718757500483
 42
0.4142135623731
 10
-734.5039433561924
 20
-25.43718757500483
 42
0.4142135623731
 10
-735.0039433561924
 20
-25.93718757500483
 42
0.4142135623731
 10
-734.5039433561924
 20
-26.43718757500483
 42
0.4142135623731
  0
LWPOLYLINE
  5
230
330
1F
100
AcDbEntity
  8
D-4
  6
Continuous
 62
     7
370
     9
100
AcDbPolyline
 90
        4
 70
     1
 43
1.0
 10
-709.0050651156071
 20
-25.93718757500483
 42
0.4142135623731
 10
-709.5050651156071
 20
-25.43718757500483
 42
0.4142135623731
 10
-710.0050651156071
 20
-25.93718757500483
 42
0.4142135623731
 10
-709.5050651156071
 20
-26.43718757500483
 42
0.4142135623731
  0
LWPOLYLINE
  5
231
330
1F
100
AcDbEntity
  8
D-4
  6
Continuous
 62
     7
370
     9
100
AcDbPolyline
 90
        4
 70
     1
 43
1.0
 10
-1009.486563357032
 20
-380.6085990892871
 42
0.4142135623731
 10
-1009.986563357032
 20
-380.1085990892871
 42
0.4142135623731
 10
-1010.486563357032
 20
-380.6085990892871
 42
0.4142135623731
 10
-1009.986563357032
 20
-381.1085990892871
 42
0.4142135623731
  0
LWPOLYLINE
  5
232
330
1F
100
AcDbEntity
  8
D-4
  6
Continuous
 62
     7
370
     9
100
AcDbPolyline
 90
        4
 70
     1
 43
1.0
 10
-1009.486563357032
 20
-255.6087612139208
 42
0.4142135623731
 10
-1009.986563357032
 20
-255.1087612139208
 42
0.4142135623731
 10
-1010.486563357032
 20
-255.6087612139208
 42
0.4142135623731
 10
-1009.986563357032
 20
-256.1087612139208
 42
0.4142135623731
  0
LWPOLYLINE
  5
233
330
1F
100
AcDbEntity
  8
D-4
  6
Continuous
 62
     7
370
     9
100
AcDbPolyline
 90
        4
 70
     1
 43
1.0
 10
-709.0050651156071
 20
-461.918003462456
 42
0.4142135623731
 10
-709.5050651156071
 20
-461.418003462456
 42
0.4142135623731
 10
-710.0050651156071
 20
-461.918003462456
 42
0.4142135623731
 10
-709.5050651156071
 20
-462.418003462456
 42
0.4142135623731
  0
LWPOLYLINE
  5
234
330
1F
100
AcDbEntity
  8
D-4
  6
Continuous
 62
     7
370
     9
100
AcDbPolyline
 90
        4
 70
     1
 43
1.0
 10
-564.0046335779789
 20
-461.918003462456
 42
0.4142135623731
 10
-564.5046335779789
 20
-461.418003462456
 42
0.4142135623731
 10
-565.0046335779789
 20
-461.918003462456
 42
0.4142135623731
 10
-564.5046335779789
 20
-462.418003462456
 42
0.4142135623731
  0
LWPOLYLINE
  5
235
330
1F
100
AcDbEntity
  8
D-4
  6
Continuous
 62
     7
370
     9
100
AcDbPolyline
 90
        4
 70
     1
 43
1.0
 10
-864.0040518366459
 20
-661.2272380815966
 42
0.4142135623731
 10
-864.5040518366459
 20
-660.7272380815966
 42
0.4142135623731
 10
-865.0040518366459
 20
-661.2272380815966
 42
0.4142135623731
 10
-864.5040518366459
 20
-661.7272380815966
 42
0.4142135623731
  0
LWPOLYLINE
  5
236
330
1F
100
AcDbEntity
  8
D-4
  6
Continuous
 62
     7
370
     9
100
AcDbPolyline
 90
        4
 70
     1
 43
1.0
 10
-714.0048410021427
 20
-661.2272380815966
 42
0.4142135623731
 10
-714.5048410021427
 20
-660.7272380815966
 42
0.4142135623731
 10
-715.0048410021427
 20
-661.2272380815966
 42
0.4142135623731
 10
-714.5048410021427
 20
-661.7272380815966
 42
0.4142135623731
  0
LWPOLYLINE
  5
237
330
1F
100
AcDbEntity
  8
D-4
  6
Continuous
 62
     7
370
     9
100
AcDbPolyline
 90
        4
 70
     1
 43
1.0
 10
-192.3188425623539
 20
-255.6087612139208
 42
0.4142135623731
 10
-192.8188425623539
 20
-255.1087612139208
 42
0.4142135623731
 10
-193.3188425623539
 20
-255.6087612139208
 42
0.4142135623731
 10
-192.8188425623539
 20
-256.1087612139208
 42
0.4142135623731
  0
LWPOLYLINE
  5
238
330
1F
100
AcDbEntity
  8
D-4
  6
Continuous
 62
     7
370
     9
100
AcDbPolyline
 90
        4
 70
     1
 43
1.0
 10
-192.3188425623539
 20
-505.6084369646533
 42
0.4142135623731
 10
-192.8188425623539
 20
-505.1084369646533
 42
0.4142135623731
 10
-193.3188425623539
 20
-505.6084369646533
 42
0.4142135623731
 10
-192.8188425623539
 20
-506.1084369646533
 42
0.4142135623731
  0
LWPOLYLINE
  5
239
330
1F
100
AcDbEntity
  8
D-4
  6
Continuous
 62
     7
370
     9
100
AcDbPolyline
 90
        4
 70
     1
 43
1.0
 10
-465.43129220835
 20
-255.6087612139208
 42
0.4142135623731
 10
-465.93129220835
 20
-255.1087612139208
 42
0.4142135623731
 10
-466.4312922083499
 20
-255.6087612139208
 42
0.4142135623731
 10
-465.93129220835
 20
-256.1087612139208
 42
0.4142135623731
  0
LWPOLYLINE
  5
23A
330
1F
100
AcDbEntity
  8
D-4
  6
Continuous
 62
     7
370
     9
100
AcDbPolyline
 90
        4
 70
     1
 43
1.0
 10
-465.43129220835
 20
-340.6089042650683
 42
0.4142135623731
 10
-465.93129220835
 20
-340.1089042650683
 42
0.4142135623731
 10
-466.4312922083499
 20
-340.6089042650683
 42
0.4142135623731
 10
-465.93129220835
 20
-341.1089042650683
 42
0.4142135623731
  0
LWPOLYLINE
  5
23B
330
1F
100
AcDbEntity
  8
D-4
  6
Continuous
 62
     7
370
     9
100
AcDbPolyline
 90
        4
 70
     1
 43
1.0
 10
-465.43129220835
 20
-390.6091426836474
 42
0.4142135623731
 10
-465.93129220835
 20
-390.1091426836474
 42
0.4142135623731
 10
-466.4312922083499
 20
-390.6091426836474
 42
0.4142135623731
 10
-465.93129220835
 20
-391.1091426836474
 42
0.4142135623731
  0
LWPOLYLINE
  5
23C
330
1F
100
AcDbEntity
  8
D-4
  6
Continuous
 62
     7
370
     9
100
AcDbPolyline
 90
        4
 70
     1
 43
1.0
 10
-709.0050651156071
 20
-461.918003462456
 42
0.4142135623731
 10
-709.5050651156071
 20
-461.418003462456
 42
0.4142135623731
 10
-710.0050651156071
 20
-461.918003462456
 42
0.4142135623731
 10
-709.5050651156071
 20
-462.418003462456
 42
0.4142135623731
  0
LWPOLYLINE
  5
23D
330
1F
100
AcDbEntity
  8
D-4
  6
Continuous
 62
     7
370
     9
100
AcDbPolyline
 90
        4
 70
     1
 43
1.0
 10
-864.0040518366459
 20
-461.918003462456
 42
0.4142135623731
 10
-864.5040518366459
 20
-461.418003462456
 42
0.4142135623731
 10
-865.0040518366459
 20
-461.918003462456
 42
0.4142135623731
 10
-864.5040518366459
 20
-462.418003462456
 42
0.4142135623731
  0
TEXT
  5
23E
330
1F
100
AcDbEntity
  8
D-4
  6
Continuous
 62
     2
370
     9
100
AcDbText
 10
-823.2532984339359
 20
-124.0493333422167
 30
0.0
 40
30.48
  1
25
 41
1.0625
  7
ＭＳ ゴシック
100
AcDbText
  0
TEXT
  5
23F
330
1F
100
AcDbEntity
  8
D-4
  6
Continuous
 62
     2
370
     9
100
AcDbText
 10
-855.7540709101322
 20
-650.5879628740771
 30
0.0
 40
30.48
  1
25～30
 41
1.104166666666667
  7
ＭＳ ゴシック
100
AcDbText
  0
TEXT
  5
240
330
1F
100
AcDbEntity
  8
D-4
  6
Continuous
 62
     2
370
     9
100
AcDbText
 10
-203.4581177698734
 20
-446.8587233134804
 30
0.0
 40
30.48
  1
40～50
 50
90.00000250447816
 41
1.104166666666666
  7
ＭＳ ゴシック
100
AcDbText
  0
TEXT
  5
241
330
1F
100
AcDbEntity
  8
D-4
  6
Continuous
 62
     2
370
     9
100
AcDbText
 10
-673.9210602433423
 20
-451.2787091818341
 30
0.0
 40
30.48
  1
29
 50
0.0006685549992706
 41
1.0625
  7
ＭＳ ゴシック
100
AcDbText
  0
TEXT
  5
242
330
1F
100
AcDbEntity
  8
D-4
  6
Continuous
 62
     2
370
     9
100
AcDbText
 10
-476.5715783106449
 20
-386.8584372111855
 30
0.0
 40
30.48
  1
10
 50
90.00000250447819
 41
1.062500000000001
  7
ＭＳ ゴシック
100
AcDbText
  0
TEXT
  5
243
330
1F
100
AcDbEntity
  8
D-4
  6
Continuous
 62
     2
370
     9
100
AcDbText
 10
-476.5715783106449
 20
-319.3587471553383
 30
0.0
 40
30.48
  1
17
 50
90.00000250447819
 41
1.0625
  7
ＭＳ ゴシック
100
AcDbText
  0
TEXT
  5
244
330
1F
100
AcDbEntity
  8
D-4
  6
Continuous
 62
     2
370
     9
100
AcDbText
 10
-808.2545572840336
 20
-450.2779996477587
 30
0.0
 40
30.48
  1
31
 41
1.0625
  7
ＭＳ ゴシック
100
AcDbText
  0
TEXT
  5
245
330
1F
100
AcDbEntity
  8
D-4
  6
Continuous
 62
     2
370
     9
100
AcDbText
 10
-1427.171831759131
 20
-124.0496099077685
 30
0.0
 40
30.48
  1
□350
 41
1.1
  7
ＭＳ ゴシック
100
AcDbText
  0
TEXT
  5
246
330
1F
100
AcDbEntity
  8
D-4
  6
Continuous
 62
     2
370
     9
100
AcDbText
 10
-1427.171831759131
 20
-15.24960990776849
 30
0.0
 40
30.48
  1
□400
 41
1.1
  7
ＭＳ ゴシック
100
AcDbText
  0
TEXT
  5
247
330
1F
100
AcDbEntity
  8
D-4
  6
Continuous
 62
     2
370
     9
100
AcDbText
 10
-1427.171831759131
 20
95.4503900922315
 30
0.0
 40
30.48
  1
□412
 41
1.1
  7
ＭＳ ゴシック
100
AcDbText
  0
TEXT
  5
248
330
1F
100
AcDbEntity
  8
D-4
  6
Continuous
 62
     2
370
     9
100
AcDbText
 10
-748.4696205170587
 20
-15.2979123674853
 30
0.0
 40
30.48
  1
1
 41
0.9999999999999998
  7
ＭＳ ゴシック
100
AcDbText
  0
TEXT
  5
249
330
1F
100
AcDbEntity
  8
D-4
  6
Continuous
 62
     2
370
     9
100
AcDbText
 10
-697.786434365308
 20
-15.2979123674853
 30
0.0
 40
30.48
  1
5
 41
0.9999999999999998
  7
ＭＳ ゴシック
100
AcDbText
  0
LINE
  5
24A
330
1F
100
AcDbEntity
  8
D-4
  6
Continuous
 62
     7
370
     9
100
AcDbLine
 10
-864.5040518366459
 20
-859.5239920977044
 30
0.0
 11
-464.503183993018
 21
-859.5239920977044
 31
0.0
  0
LINE
  5
24B
330
1F
100
AcDbEntity
  8
D-4
  6
Continuous
 62
     7
370
     9
100
AcDbLine
 10
-464.503183993018
 20
-575.4824184404833
 30
0.0
 11
-464.503183993018
 21
-862.5235648516107
 31
0.0
  0
LINE
  5
24C
330
1F
100
AcDbEntity
  8
D-4
  6
Continuous
 62
     7
370
     9
100
AcDbLine
 10
-864.5040518366459
 20
-780.6084560381396
 30
0.0
 11
-864.5040518366459
 21
-862.5235648516107
 31
0.0
  0
LWPOLYLINE
  5
24D
330
1F
100
AcDbEntity
  8
D-4
  6
Continuous
 62
     7
370
     9
100
AcDbPolyline
 90
        4
 70
     1
 43
1.0
 10
-864.0040518366459
 20
-859.5239920977044
 42
0.4142135623731
 10
-864.5040518366459
 20
-859.0239920977045
 42
0.4142135623731
 10
-865.0040518366459
 20
-859.5239920977044
 42
0.4142135623731
 10
-864.5040518366459
 20
-860.0239920977044
 42
0.4142135623731
  0
LWPOLYLINE
  5
24E
330
1F
100
AcDbEntity
  8
D-4
  6
Continuous
 62
     7
370
     9
100
AcDbPolyline
 90
        4
 70
     1
 43
1.0
 10
-464.003183993018
 20
-859.5239920977044
 42
0.4142135623731
 10
-464.503183993018
 20
-859.0239920977045
 42
0.4142135623731
 10
-465.0031839930179
 20
-859.5239920977044
 42
0.4142135623731
 10
-464.503183993018
 20
-860.0239920977044
 42
0.4142135623731
  0
TEXT
  5
24F
330
1F
100
AcDbEntity
  8
D-4
  6
Continuous
 62
     2
370
     9
100
AcDbText
 10
-732.3724154465893
 20
-848.8837250689353
 30
0.0
 40
30.48
  1
75～80
 50
359.9997855578312
 41
1.104166666666666
  7
ＭＳ ゴシック
100
AcDbText
  0
LINE
  5
250
330
1F
100
AcDbEntity
  8
D-4
  6
Continuous
 62
     7
370
     9
100
AcDbLine
 10
-1542.836530286495
 20
-333.1088595615847
 30
0.0
 11
-1542.836530286495
 21
-258.1087612139208
 31
0.0
  0
LINE
  5
251
330
1F
100
AcDbEntity
  8
D-4
  6
Continuous
 62
     7
370
     9
100
AcDbLine
 10
-1434.392748507178
 20
-333.1088595615847
 30
0.0
 11
-1545.836637098018
 21
-333.1088595615847
 31
0.0
  0
LINE
  5
252
330
1F
100
AcDbEntity
  8
D-4
  6
Continuous
 62
     7
370
     9
100
AcDbLine
 10
-1434.392748507178
 20
-258.1087612139208
 30
0.0
 11
-1545.836637098018
 21
-258.1087612139208
 31
0.0
  0
LWPOLYLINE
  5
253
330
1F
100
AcDbEntity
  8
D-4
  6
Continuous
 62
     7
370
     9
100
AcDbPolyline
 90
        4
 70
     1
 43
1.0
 10
-1542.336530286495
 20
-333.1088595615847
 42
0.4142135623731
 10
-1542.836530286495
 20
-332.6088595615847
 42
0.4142135623731
 10
-1543.336530286495
 20
-333.1088595615847
 42
0.4142135623731
 10
-1542.836530286495
 20
-333.6088595615847
 42
0.4142135623731
  0
LWPOLYLINE
  5
254
330
1F
100
AcDbEntity
  8
D-4
  6
Continuous
 62
     7
370
     9
100
AcDbPolyline
 90
        4
 70
     1
 43
1.0
 10
-1542.336530286495
 20
-258.1087612139208
 42
0.4142135623731
 10
-1542.836530286495
 20
-257.6087612139208
 42
0.4142135623731
 10
-1543.336530286495
 20
-258.1087612139208
 42
0.4142135623731
 10
-1542.836530286495
 20
-258.6087612139208
 42
0.4142135623731
  0
TEXT
  5
255
330
1F
100
AcDbEntity
  8
D-4
  6
Continuous
 62
     2
370
     9
100
AcDbText
 10
-1558.47660658044
 20
-316.8589694806633
 30
0.0
 40
30.48
  1
15
 50
90.00000250447827
 41
1.062500000000001
  7
ＭＳ ゴシック
100
AcDbText
  0
LINE
  5
256
330
1F
100
AcDbEntity
  8
D-4
  6
Continuous
 62
     7
370
     9
100
AcDbLine
 10
-1009.986563357032
 20
-429.77164751706
 30
0.0
 11
-1009.986563357032
 21
-255.6087612139208
 31
0.0
  0
TEXT
  5
257
330
1F
100
AcDbEntity
  8
D-4
  6
Continuous
 62
     2
370
     9
100
AcDbText
 10
-1020.62683038584
 20
-428.1970245040679
 30
0.0
 40
30.48
  1
25
 50
90.0000025
 41
1.062499999999999
  7
ＭＳ ゴシック
100
AcDbText
  0
LINE
  5
258
330
1F
100
AcDbEntity
  8
D-5
  6
Continuous
 62
     7
370
     9
100
AcDbLine
 10
-546.2703355049932
 20
15.62637685547315
 30
0.0
 11
225.3496107983092
 21
15.62637685547315
 31
0.0
  0
LINE
  5
259
330
1F
100
AcDbEntity
  8
D-5
  6
Continuous
 62
     7
370
     9
100
AcDbLine
 10
-452.758589419043
 20
-200.7282089220507
 30
0.0
 11
-66.05511728159186
 21
-200.7282089220507
 31
0.0
  0
LINE
  5
25A
330
1F
100
AcDbEntity
  8
D-5
  6
Continuous
 62
     7
370
     9
100
AcDbLine
 10
-546.2703355049932
 20
15.62637685547315
 30
0.0
 11
-784.5207039373365
 21
-258.1095525058527
 31
0.0
  0
LINE
  5
25B
330
1F
100
AcDbEntity
  8
D-5
  6
Continuous
 62
     7
370
     9
100
AcDbLine
 10
-541.5498189574946
 20
-54.66189780641706
 30
0.0
 11
-716.4470798098209
 21
-255.6087612139208
 31
0.0
  0
LINE
  5
25C
330
1F
100
AcDbEntity
  8
D-5
  6
Continuous
 62
     7
370
     9
100
AcDbLine
 10
-492.0544652587644
 20
-109.5241681616417
 30
0.0
 11
-739.9877914734843
 21
-394.3855976091845
 31
0.0
  0
LINE
  5
25D
330
1F
100
AcDbEntity
  8
D-5
  6
Continuous
 62
     7
370
     9
100
AcDbLine
 10
-541.5498189574946
 20
-54.66189780641706
 30
0.0
 11
-90.75945183103002
 21
-54.66189780641706
 31
0.0
  0
TEXT
  5
25E
330
1F
100
AcDbEntity
  8
D-5
  6
Continuous
 62
     7
370
     9
100
AcDbText
 10
-541.9105176574458
 20
-45.6734253637901
 30
0.0
 40
22.86
  1
ステンレス製受枠ＳＦ１５Ｂ
 41
1.153846153846153
  7
ＭＳ ゴシック
100
AcDbText
  0
TEXT
  5
25F
330
1F
100
AcDbEntity
  8
D-5
  6
Continuous
 62
     7
370
     9
100
AcDbText
 10
-482.422545398073
 20
-101.7723728888146
 30
0.0
 40
22.86
  1
クッション材
 50
0.0000000020107312
 41
1.138888888888889
  7
ＭＳ ゴシック
100
AcDbText
  0
TEXT
  5
260
330
1F
100
AcDbEntity
  8
D-5
  6
Continuous
 62
     7
370
     9
100
AcDbText
 10
-510.3959873841963
 20
-140.4018117676367
 30
0.0
 40
22.86
  1
（軟質塩化ビニル）
 50
0.0000000020106818
 41
1.148148148148146
  7
ＭＳ ゴシック
100
AcDbText
  0
LINE
  5
261
330
1F
100
AcDbEntity
  8
D-5
  6
Continuous
 62
     7
370
     9
100
AcDbLine
 10
-492.0544652587644
 20
-109.5241681616417
 30
0.0
 11
-211.7225179962931
 21
-109.5241681616417
 31
0.0
  0
LINE
  5
262
330
1F
100
AcDbEntity
  8
D-5
  6
Continuous
 62
     7
370
     9
100
AcDbLine
 10
-574.5051867090824
 20
-340.6089519487841
 30
0.0
 11
-452.758589419043
 21
-200.7282089220507
 31
0.0
  0
TEXT
  5
263
330
1F
100
AcDbEntity
  8
D-5
  6
Continuous
 62
     7
370
     9
100
AcDbText
 10
-546.2703355049932
 20
60.48847219238722
 30
0.0
 40
22.86
  1
ステンレス製　縦目タイプ　細目プレーンタイプ
 41
1.159090909090909
  7
ＭＳ ゴシック
100
AcDbText
  0
TEXT
  5
264
330
1F
100
AcDbEntity
  8
D-5
  6
Continuous
 62
     7
370
     9
100
AcDbText
 10
-546.2703382470874
 20
27.78335592041367
 30
0.0
 40
22.86
  1
グレーチング（すきま6mm）ＹＲーＨ－Ａ－１５
 50
0.0000371419447595
 41
1.15891472868217
  7
ＭＳ ゴシック
100
AcDbText
  0
LINE
  5
265
330
1F
100
AcDbEntity
  8
D-5
  6
Continuous
 62
     7
370
     9
100
AcDbLine
 10
-784.5207039373365
 20
-258.1095525058527
 30
0.0
 11
-765.7870284574476
 21
-241.555444839837
 31
0.0
  0
LINE
  5
266
330
1F
100
AcDbEntity
  8
D-5
  6
Continuous
 62
     7
370
     9
100
AcDbLine
 10
-784.5207039373365
 20
-258.1095525058527
 30
0.0
 11
-770.7100073354688
 21
-237.2711273463983
 31
0.0
  0
LINE
  5
267
330
1F
100
AcDbEntity
  8
D-5
  6
Continuous
 62
     7
370
     9
100
AcDbLine
 10
-716.4470798098209
 20
-255.6087612139208
 30
0.0
 11
-702.6363832079533
 21
-234.7703360544665
 31
0.0
  0
LINE
  5
268
330
1F
100
AcDbEntity
  8
D-5
  6
Continuous
 62
     7
370
     9
100
AcDbLine
 10
-716.4470798098209
 20
-255.6087612139208
 30
0.0
 11
-697.713404329932
 21
-239.0546535479052
 31
0.0
  0
LINE
  5
269
330
1F
100
AcDbEntity
  8
D-5
  6
Continuous
 62
     7
370
     9
100
AcDbLine
 10
-805.0362831675175
 20
-337.7685951220019
 30
0.0
 11
-788.4826714121464
 21
-356.5027641283496
 31
0.0
  0
LINE
  5
26A
330
1F
100
AcDbEntity
  8
D-5
  6
Continuous
 62
     7
370
     9
100
AcDbLine
 10
-739.9877914734843
 20
-394.3855976091845
 30
0.0
 11
-805.0362831675175
 21
-337.7685951220019
 31
0.0
  0
LINE
  5
26B
330
1F
100
AcDbEntity
  8
D-5
  6
Continuous
 62
     7
370
     9
100
AcDbLine
 10
-805.0362831675175
 20
-337.7685951220019
 30
0.0
 11
-784.1978603922489
 21
-351.5802883135302
 31
0.0
  0
LINE
  5
26C
330
1F
100
AcDbEntity
  8
D-5
  6
Continuous
 62
     7
370
     9
100
AcDbLine
 10
-574.5051867090824
 20
-340.6089519487841
 30
0.0
 11
-555.7705217920902
 21
-324.0548490511401
 31
0.0
  0
LINE
  5
26D
330
1F
100
AcDbEntity
  8
D-5
  6
Continuous
 62
     7
370
     9
100
AcDbLine
 10
-574.5051867090824
 20
-340.6089519487841
 30
0.0
 11
-560.6935030542973
 21
-319.7695373522265
 31
0.0
  0
TEXT
  5
26E
330
1F
100
AcDbEntity
  8
D-5
  6
Continuous
 62
     7
370
     9
100
AcDbText
 10
-452.316637667334
 20
-230.2579650103076
 30
0.0
 40
22.86
  1
ｔ＝２．３（ＳＰＨＣ）
 41
1.151515151515152
  7
ＭＳ ゴシック
100
AcDbText
  0
LINE
  5
26F
330
1F
100
AcDbEntity
  8
D-5
  6
Continuous
 62
     7
370
     9
100
AcDbLine
 10
-576.0024935328129
 20
-420.4655082297219
 30
0.0
 11
-562.1908098780277
 21
-441.3049228262796
 31
0.0
  0
LINE
  5
270
330
1F
100
AcDbEntity
  8
D-5
  6
Continuous
 62
     7
370
     9
100
AcDbLine
 10
-576.0024935328129
 20
-420.4655082297219
 30
0.0
 11
-454.2558962427735
 21
-560.3462512564554
 31
0.0
  0
LINE
  5
271
330
1F
100
AcDbEntity
  8
D-5
  6
Continuous
 62
     7
370
     9
100
AcDbLine
 10
-576.0024935328129
 20
-420.4655082297219
 30
0.0
 11
-557.2678286158207
 21
-437.019611127366
 31
0.0
  0
LINE
  5
272
330
1F
100
AcDbEntity
  8
D-5
  6
Continuous
 62
     7
370
     9
100
AcDbLine
 10
-454.2558962427735
 20
-560.3462512564554
 30
0.0
 11
-257.8625448384475
 21
-560.3462512564554
 31
0.0
  0
TEXT
  5
273
330
1F
100
AcDbEntity
  8
D-5
  6
Continuous
 62
     7
370
     9
100
AcDbText
 10
-453.8139444910645
 20
-548.6525099539651
 30
0.0
 40
22.86
  1
差筋φ9程度
 41
1.136363636363636
  7
ＭＳ ゴシック
100
AcDbText
  0
LINE
  5
274
330
1F
100
AcDbEntity
  8
D-2
  6
Continuous
 62
     3
370
     9
100
AcDbLine
 10
-1414.504137667334
 20
-281.1532110253487
 30
0.0
 11
-1414.504137667334
 21
-232.0179315235588
 31
0.0
  0
LINE
  5
275
330
1F
100
AcDbEntity
  8
D-2
  6
Continuous
 62
     3
370
     9
100
AcDbLine
 10
-1434.504066459652
 20
-311.1538518944892
 30
0.0
 11
-1414.504137667334
 21
-311.1538518944892
 31
0.0
  0
LINE
  5
276
330
1F
100
AcDbEntity
  8
D-2
  6
Continuous
 62
     3
370
     9
100
AcDbLine
 10
-1414.504137667334
 20
-357.0178078036485
 30
0.0
 11
-1414.504137667334
 21
-311.1538518944892
 31
0.0
  0
LINE
  5
277
330
1F
100
AcDbEntity
  8
D-2
  6
Continuous
 62
     3
370
     9
100
AcDbLine
 10
-1434.504066459652
 20
-311.1538518944892
 30
0.0
 11
-1394.503883354183
 21
-281.1532110253487
 31
0.0
  0
LINE
  5
278
330
1F
100
AcDbEntity
  8
D-2
  6
Continuous
 62
     3
370
     9
100
AcDbLine
 10
-1414.504137667334
 20
-281.1532110253487
 30
0.0
 11
-1394.503883354183
 21
-281.1532110253487
 31
0.0
  0
LINE
  5
279
330
1F
100
AcDbEntity
  8
D-2
  6
Continuous
 62
     3
370
     9
100
AcDbLine
 10
-739.5032030665043
 20
-283.6081094290754
 30
0.0
 11
-747.003598970221
 21
-273.8595990168077
 31
0.0
  0
LINE
  5
27A
330
1F
100
AcDbEntity
  8
D-2
  6
Continuous
 62
     3
370
     9
100
AcDbLine
 10
-739.5032030665043
 20
-313.6082084050046
 30
0.0
 11
-747.003598970221
 21
-323.3567188172724
 31
0.0
  0
ARC
  5
27B
330
1F
100
AcDbEntity
  8
D-2
  6
Continuous
 62
     3
370
     9
100
AcDbCircle
 10
-756.9922497303553
 20
-287.417692938366
 30
0.0
 40
15.00000019331236
100
AcDbArc
 50
311.7518768310547
 51
357.7665100097656
  0
ARC
  5
27C
330
1F
100
AcDbEntity
  8
D-2
  6
Continuous
 62
     3
370
     9
100
AcDbCircle
 10
-766.9883236851699
 20
-288.88006229014
 30
0.0
 40
25.00000322187269
100
AcDbArc
 50
2.014007568359375
 51
36.92071533203126
  0
ARC
  5
27D
330
1F
100
AcDbEntity
  8
D-2
  6
Continuous
 62
     3
370
     9
100
AcDbCircle
 10
-756.9922497303553
 20
-309.7986248957139
 30
0.0
 40
15.00000019331236
100
AcDbArc
 50
2.233489990234375
 51
48.24812316894532
  0
ARC
  5
27E
330
1F
100
AcDbEntity
  8
D-2
  6
Continuous
 62
     3
370
     9
100
AcDbCircle
 10
-766.9883236851699
 20
-308.3362555439405
 30
0.0
 40
25.00000322187269
100
AcDbArc
 50
323.0792846679688
 51
357.9859924316406
  0
LINE
  5
27F
330
1F
100
AcDbEntity
  8
D-2
  6
Continuous
 62
     3
370
     9
100
AcDbLine
 10
-739.5032030665043
 20
-283.6081094290754
 30
0.0
 11
-739.5032030665043
 21
-313.6082084050046
 31
0.0
  0
LINE
  5
280
330
1F
100
AcDbEntity
  8
D-2
  6
Continuous
 62
     3
370
     9
100
AcDbLine
 10
-747.003598970221
 20
-273.8595990168078
 30
0.0
 11
-756.0033184610966
 21
-273.8595990168078
 31
0.0
  0
LINE
  5
281
330
1F
100
AcDbEntity
  8
D-2
  6
Continuous
 62
     3
370
     9
100
AcDbLine
 10
-747.0035823027392
 20
-298.6081589170407
 30
0.0
 11
-756.0033184610966
 21
-298.6081589170407
 31
0.0
  0
LINE
  5
282
330
1F
100
AcDbEntity
  8
D-2
  6
Continuous
 62
     3
370
     9
100
AcDbLine
 10
-747.001633013329
 20
-323.3567188172724
 30
0.0
 11
-756.0033184610966
 21
-323.3567188172724
 31
0.0
  0
LINE
  5
283
330
1F
100
AcDbEntity
  8
D-2
  6
Continuous
 62
     3
370
     9
100
AcDbLine
 10
-763.0032879435184
 20
-323.3574251162036
 30
0.0
 11
-826.0041338526371
 21
-323.3574251162036
 31
0.0
  0
LINE
  5
284
330
1F
100
AcDbEntity
  8
D-2
  6
Continuous
 62
     3
370
     9
100
AcDbLine
 10
-763.0032879435184
 20
-273.8595990168078
 30
0.0
 11
-826.0041338526371
 21
-273.8595990168078
 31
0.0
  0
LINE
  5
285
330
1F
100
AcDbEntity
  8
D-2
  6
Continuous
 62
     3
370
     9
100
AcDbLine
 10
-763.0032879435184
 20
-298.6087612139208
 30
0.0
 11
-826.0041338526371
 21
-298.6087612139208
 31
0.0
  0
LINE
  5
286
330
1F
100
AcDbEntity
  8
D-2
  6
Continuous
 62
     3
370
     9
100
AcDbLine
 10
-833.004103335059
 20
-323.3574251162036
 30
0.0
 11
-896.0039621912601
 21
-323.3574251162036
 31
0.0
  0
LINE
  5
287
330
1F
100
AcDbEntity
  8
D-2
  6
Continuous
 62
     3
370
     9
100
AcDbLine
 10
-833.004103335059
 20
-273.8595990168078
 30
0.0
 11
-896.0039621912601
 21
-273.8595990168078
 31
0.0
  0
LINE
  5
288
330
1F
100
AcDbEntity
  8
D-2
  6
Continuous
 62
     3
370
     9
100
AcDbLine
 10
-833.004103335059
 20
-298.6087612139208
 30
0.0
 11
-896.0039621912601
 21
-298.6087612139208
 31
0.0
  0
LINE
  5
289
330
1F
100
AcDbEntity
  8
D-2
  6
Continuous
 62
     3
370
     9
100
AcDbLine
 10
-903.003931673682
 20
-323.3574251162036
 30
0.0
 11
-966.0037905298832
 21
-323.3574251162036
 31
0.0
  0
LINE
  5
28A
330
1F
100
AcDbEntity
  8
D-2
  6
Continuous
 62
     3
370
     9
100
AcDbLine
 10
-903.003931673682
 20
-273.8595990168078
 30
0.0
 11
-966.0037905298832
 21
-273.8595990168078
 31
0.0
  0
LINE
  5
28B
330
1F
100
AcDbEntity
  8
D-2
  6
Continuous
 62
     3
370
     9
100
AcDbLine
 10
-903.003931673682
 20
-298.6087612139208
 30
0.0
 11
-966.0037905298832
 21
-298.6087612139208
 31
0.0
  0
LINE
  5
28C
330
1F
100
AcDbEntity
  8
D-2
  6
Continuous
 62
     3
370
     9
100
AcDbLine
 10
-973.0037600123051
 20
-323.3574251162036
 30
0.0
 11
-1036.004114779151
 21
-323.3574251162036
 31
0.0
  0
LINE
  5
28D
330
1F
100
AcDbEntity
  8
D-2
  6
Continuous
 62
     3
370
     9
100
AcDbLine
 10
-973.0037600123051
 20
-273.8595990168078
 30
0.0
 11
-1036.004114779151
 21
-273.8595990168078
 31
0.0
  0
LINE
  5
28E
330
1F
100
AcDbEntity
  8
D-2
  6
Continuous
 62
     3
370
     9
100
AcDbLine
 10
-973.0037600123051
 20
-298.6087612139208
 30
0.0
 11
-1036.004114779151
 21
-298.6087612139208
 31
0.0
  0
LINE
  5
28F
330
1F
100
AcDbEntity
  8
D-2
  6
Continuous
 62
     3
370
     9
100
AcDbLine
 10
-1043.004084261573
 20
-323.3574251162036
 30
0.0
 11
-1106.003943117774
 21
-323.3574251162036
 31
0.0
  0
LINE
  5
290
330
1F
100
AcDbEntity
  8
D-2
  6
Continuous
 62
     3
370
     9
100
AcDbLine
 10
-1043.004084261573
 20
-273.8595990168078
 30
0.0
 11
-1106.003943117774
 21
-273.8595990168078
 31
0.0
  0
LINE
  5
291
330
1F
100
AcDbEntity
  8
D-2
  6
Continuous
 62
     3
370
     9
100
AcDbLine
 10
-1043.004084261573
 20
-298.6087612139208
 30
0.0
 11
-1106.003943117774
 21
-298.6087612139208
 31
0.0
  0
LINE
  5
292
330
1F
100
AcDbEntity
  8
D-2
  6
Continuous
 62
     3
370
     9
100
AcDbLine
 10
-1113.003912600196
 20
-323.3574251162036
 30
0.0
 11
-1176.003790529883
 21
-323.3574251162036
 31
0.0
  0
LINE
  5
293
330
1F
100
AcDbEntity
  8
D-2
  6
Continuous
 62
     3
370
     9
100
AcDbLine
 10
-1113.003912600196
 20
-273.8595990168078
 30
0.0
 11
-1176.003790529883
 21
-273.8595990168078
 31
0.0
  0
LINE
  5
294
330
1F
100
AcDbEntity
  8
D-2
  6
Continuous
 62
     3
370
     9
100
AcDbLine
 10
-1113.003912600196
 20
-298.6087612139208
 30
0.0
 11
-1176.003790529883
 21
-298.6087612139208
 31
0.0
  0
LINE
  5
295
330
1F
100
AcDbEntity
  8
D-2
  6
Continuous
 62
     3
370
     9
100
AcDbLine
 10
-1183.003760012305
 20
-323.3574251162036
 30
0.0
 11
-1246.004095705664
 21
-323.3574251162036
 31
0.0
  0
LINE
  5
296
330
1F
100
AcDbEntity
  8
D-2
  6
Continuous
 62
     3
370
     9
100
AcDbLine
 10
-1183.003760012305
 20
-273.8595990168078
 30
0.0
 11
-1246.004095705664
 21
-273.8595990168078
 31
0.0
  0
LINE
  5
297
330
1F
100
AcDbEntity
  8
D-2
  6
Continuous
 62
     3
370
     9
100
AcDbLine
 10
-1183.003760012305
 20
-298.6087612139208
 30
0.0
 11
-1246.004095705664
 21
-298.6087612139208
 31
0.0
  0
LINE
  5
298
330
1F
100
AcDbEntity
  8
D-2
  6
Continuous
 62
     3
370
     9
100
AcDbLine
 10
-1253.004065188086
 20
-323.3574251162036
 30
0.0
 11
-1316.003943117774
 21
-323.3574251162036
 31
0.0
  0
LINE
  5
299
330
1F
100
AcDbEntity
  8
D-2
  6
Continuous
 62
     3
370
     9
100
AcDbLine
 10
-1253.004065188086
 20
-273.8595990168078
 30
0.0
 11
-1316.003943117774
 21
-273.8595990168078
 31
0.0
  0
LINE
  5
29A
330
1F
100
AcDbEntity
  8
D-2
  6
Continuous
 62
     3
370
     9
100
AcDbLine
 10
-1253.004065188086
 20
-298.6087612139208
 30
0.0
 11
-1316.003943117774
 21
-298.6087612139208
 31
0.0
  0
LINE
  5
29B
330
1F
100
AcDbEntity
  8
D-2
  6
Continuous
 62
     3
370
     9
100
AcDbLine
 10
-1414.504137667334
 20
-323.3574251162036
 30
0.0
 11
-1393.004732760108
 21
-323.3574251162036
 31
0.0
  0
LINE
  5
29C
330
1F
100
AcDbEntity
  8
D-2
  6
Continuous
 62
     3
370
     9
100
AcDbLine
 10
-1323.003912600196
 20
-323.3574251162036
 30
0.0
 11
-1386.004763277686
 21
-323.3574251162036
 31
0.0
  0
LINE
  5
29D
330
1F
100
AcDbEntity
  8
D-2
  6
Continuous
 62
     3
370
     9
100
AcDbLine
 10
-1417.777559633139
 20
-298.6087612139208
 30
0.0
 11
-1393.004732760108
 21
-298.6087612139208
 31
0.0
  0
LINE
  5
29E
330
1F
100
AcDbEntity
  8
D-2
  6
Continuous
 62
     3
370
     9
100
AcDbLine
 10
-1323.003912600196
 20
-298.6087612139208
 30
0.0
 11
-1386.004763277686
 21
-298.6087612139208
 31
0.0
  0
LINE
  5
29F
330
1F
100
AcDbEntity
  8
D-2
  6
Continuous
 62
     3
370
     9
100
AcDbLine
 10
-1414.504137667334
 20
-273.8595990168078
 30
0.0
 11
-1393.004732760108
 21
-273.8595990168078
 31
0.0
  0
LINE
  5
2A0
330
1F
100
AcDbEntity
  8
D-2
  6
Continuous
 62
     3
370
     9
100
AcDbLine
 10
-1393.004732760108
 20
-269.1087444054108
 30
0.0
 11
-1393.004732760108
 21
-333.1088595615847
 31
0.0
  0
LINE
  5
2A1
330
1F
100
AcDbEntity
  8
D-2
  6
Continuous
 62
     3
370
     9
100
AcDbLine
 10
-1323.003912600196
 20
-273.8595990168078
 30
0.0
 11
-1386.004763277686
 21
-273.8595990168078
 31
0.0
  0
LINE
  5
2A2
330
1F
100
AcDbEntity
  8
D-2
  6
Continuous
 62
     3
370
     9
100
AcDbLine
 10
-1386.004763277686
 20
-269.1087444054108
 30
0.0
 11
-1386.004763277686
 21
-333.1088595615847
 31
0.0
  0
TEXT
  5
2A3
330
1F
100
AcDbEntity
  8
F-5ﾚｲﾔ
  6
Continuous
 62
     2
370
     9
100
AcDbText
 10
-845.3997081828237
 20
-1330.761336706767
 30
0.0
 40
30.48
  1
ステンレス製　縦目タイプ　細目プレーンタイプ　グレーチング（すきま6mm）
 41
0.7742957746478872
  7
ＭＳ ゴシック
100
AcDbText
  0
LINE
  5
2A4
330
1F
100
AcDbEntity
  8
C-4
  6
Continuous
 62
     7
370
     9
100
AcDbLine
 10
-1064.560138188193
 20
1044.891227103569
 30
0.0
 11
-1039.5602678879
 21
1044.891227103569
 31
0.0
  0
LINE
  5
2A5
330
1F
100
AcDbEntity
  8
C-4
  6
Continuous
 62
     7
370
     9
100
AcDbLine
 10
-1065.560489140342
 20
1119.891227103569
 30
0.0
 11
-1064.560138188193
 21
1119.891227103569
 31
0.0
  0
LINE
  5
2A6
330
1F
100
AcDbEntity
  8
C-4
  6
Continuous
 62
     7
370
     9
100
AcDbLine
 10
-1064.560138188193
 20
1119.891227103569
 30
0.0
 11
-664.5602678879003
 21
1119.891227103569
 31
0.0
  0
LINE
  5
2A7
330
1F
100
AcDbEntity
  8
C-4
  6
Continuous
 62
     7
370
     9
100
AcDbLine
 10
-1039.5602678879
 20
1044.891227103569
 30
0.0
 11
-689.5601153000097
 21
1044.891227103569
 31
0.0
  0
LINE
  5
2A8
330
1F
100
AcDbEntity
  8
C-5
  6
Continuous
 62
     7
370
     9
100
AcDbLine
 10
-577.059993229697
 20
371.891776419975
 30
0.0
 11
-1152.060420475791
 21
371.891776419975
 31
0.0
  0
LINE
  5
2A9
330
1F
100
AcDbEntity
  8
C-4
  6
Continuous
 62
     7
370
     9
100
AcDbLine
 10
-689.5601153000097
 20
1047.891166068413
 30
0.0
 11
-689.5601153000097
 21
982.8913491738814
 31
0.0
  0
LINE
  5
2AA
330
1F
100
AcDbEntity
  8
C-4
  6
Continuous
 62
     7
370
     9
100
AcDbLine
 10
-664.5602678879003
 20
1122.891288138725
 30
0.0
 11
-664.5602678879003
 21
982.8913491738814
 31
0.0
  0
LINE
  5
2AB
330
1F
100
AcDbEntity
  8
C-4
  6
Continuous
 62
     7
370
     9
100
AcDbLine
 10
-663.5603899582128
 20
1122.891288138725
 30
0.0
 11
-663.5603899582128
 21
982.8913491738814
 31
0.0
  0
LINE
  5
2AC
330
1F
100
AcDbEntity
  8
C-4
  6
Continuous
 62
     7
370
     9
100
AcDbLine
 10
-1064.560138188193
 20
1044.891227103569
 30
0.0
 11
-664.5602678879003
 21
1044.891227103569
 31
0.0
  0
LINE
  5
2AD
330
1F
100
AcDbEntity
  8
C-4
  6
Continuous
 62
     7
370
     9
100
AcDbLine
 10
-1064.560138188193
 20
1122.891288138725
 30
0.0
 11
-1064.560138188193
 21
982.8913491738814
 31
0.0
  0
LINE
  5
2AE
330
1F
100
AcDbEntity
  8
C-4
  6
Continuous
 62
     7
370
     9
100
AcDbLine
 10
-1065.560489140342
 20
1122.891288138725
 30
0.0
 11
-1065.560489140342
 21
982.8913491738814
 31
0.0
  0
LINE
  5
2AF
330
1F
100
AcDbEntity
  8
C-4
  6
Continuous
 62
     7
370
     9
100
AcDbLine
 10
-1039.5602678879
 20
1047.891166068413
 30
0.0
 11
-1039.5602678879
 21
982.8913491738814
 31
0.0
  0
LINE
  5
2B0
330
1F
100
AcDbEntity
  8
C-1
  6
Continuous
 62
     2
370
     9
100
AcDbLine
 10
-1065.560489140342
 20
945.8915322793501
 30
0.0
 11
-1065.560489140342
 21
543.8917916787641
 31
0.0
  0
LINE
  5
2B1
330
1F
100
AcDbEntity
  8
C-1
  6
JWW_DASHED3
 62
     2
370
     9
100
AcDbLine
 10
-1039.5602678879
 20
569.891517020561
 30
0.0
 11
-1039.5602678879
 21
919.891288138725
 31
0.0
  0
LINE
  5
2B2
330
1F
100
AcDbEntity
  8
C-2
  6
Continuous
 62
     3
370
     9
100
AcDbLine
 10
-1064.560138188193
 20
544.8916390908735
 30
0.0
 11
-1064.560138188193
 21
944.8916543496625
 31
0.0
  0
LINE
  5
2B3
330
1F
100
AcDbEntity
  8
C-2
  6
Continuous
 62
     3
370
     9
100
AcDbLine
 10
-1064.560138188193
 20
944.8916543496625
 30
0.0
 11
-664.5602678879003
 21
944.8916543496625
 31
0.0
  0
LINE
  5
2B4
330
1F
100
AcDbEntity
  8
C-1
  6
Continuous
 62
     2
370
     9
100
AcDbLine
 10
-1065.560489140342
 20
945.8915322793501
 30
0.0
 11
-663.5603899582128
 21
945.8915322793501
 31
0.0
  0
LINE
  5
2B5
330
1F
100
AcDbEntity
  8
C-1
  6
JWW_DASHED3
 62
     2
370
     9
100
AcDbLine
 10
-1039.5602678879
 20
919.891288138725
 30
0.0
 11
-689.5601153000097
 21
919.891288138725
 31
0.0
  0
LINE
  5
2B6
330
1F
100
AcDbEntity
  8
C-2
  6
Continuous
 62
     3
370
     9
100
AcDbLine
 10
-664.5602678879003
 20
544.8916390908735
 30
0.0
 11
-1064.560138188193
 21
544.8916390908735
 31
0.0
  0
LINE
  5
2B7
330
1F
100
AcDbEntity
  8
C-1
  6
Continuous
 62
     2
370
     9
100
AcDbLine
 10
-1065.560489140342
 20
543.8917916787641
 30
0.0
 11
-663.5603899582128
 21
543.8917916787641
 31
0.0
  0
LINE
  5
2B8
330
1F
100
AcDbEntity
  8
C-1
  6
JWW_DASHED3
 62
     2
370
     9
100
AcDbLine
 10
-689.5601153000097
 20
569.891517020561
 30
0.0
 11
-1039.5602678879
 21
569.891517020561
 31
0.0
  0
LINE
  5
2B9
330
1F
100
AcDbEntity
  8
C-A
  6
Continuous
 62
     3
370
     9
100
AcDbLine
 10
-667.5603289230565
 20
936.8916543496625
 30
0.0
 11
-1061.560069523642
 21
936.8916543496625
 31
0.0
  0
LINE
  5
2BA
330
1F
100
AcDbEntity
  8
C-A
  6
Continuous
 62
     3
370
     9
100
AcDbLine
 10
-667.5603289230565
 20
930.8914102090375
 30
0.0
 11
-1061.560069523642
 21
930.8914102090375
 31
0.0
  0
LINE
  5
2BB
330
1F
100
AcDbEntity
  8
C-A
  6
Continuous
 62
     3
370
     9
100
AcDbLine
 10
-667.5603289230565
 20
922.8914712441938
 30
0.0
 11
-1061.560069523642
 21
922.8914712441938
 31
0.0
  0
LINE
  5
2BC
330
1F
100
AcDbEntity
  8
C-A
  6
Continuous
 62
     3
370
     9
100
AcDbLine
 10
-667.5603289230565
 20
916.8915933145064
 30
0.0
 11
-1061.560069523642
 21
916.8915933145064
 31
0.0
  0
LINE
  5
2BD
330
1F
100
AcDbEntity
  8
C-A
  6
Continuous
 62
     3
370
     9
100
AcDbLine
 10
-667.5603289230565
 20
908.891776419975
 30
0.0
 11
-1061.560069523642
 21
908.891776419975
 31
0.0
  0
LINE
  5
2BE
330
1F
100
AcDbEntity
  8
C-A
  6
Continuous
 62
     3
370
     9
100
AcDbLine
 10
-667.5603289230565
 20
902.8914712441938
 30
0.0
 11
-1061.560069523642
 21
902.8914712441938
 31
0.0
  0
LINE
  5
2BF
330
1F
100
AcDbEntity
  8
C-A
  6
Continuous
 62
     3
370
     9
100
AcDbLine
 10
-667.5603289230565
 20
894.8916543496625
 30
0.0
 11
-1061.560069523642
 21
894.8916543496625
 31
0.0
  0
LINE
  5
2C0
330
1F
100
AcDbEntity
  8
C-A
  6
Continuous
 62
     3
370
     9
100
AcDbLine
 10
-667.5603289230565
 20
888.8916543496625
 30
0.0
 11
-1061.560069523642
 21
888.8916543496625
 31
0.0
  0
LINE
  5
2C1
330
1F
100
AcDbEntity
  8
C-A
  6
Continuous
 62
     3
370
     9
100
AcDbLine
 10
-667.5603289230565
 20
880.8918069375532
 30
0.0
 11
-1061.560069523642
 21
880.8918069375532
 31
0.0
  0
LINE
  5
2C2
330
1F
100
AcDbEntity
  8
C-A
  6
Continuous
 62
     3
370
     9
100
AcDbLine
 10
-667.5603289230565
 20
874.8915627969282
 30
0.0
 11
-1061.560069523642
 21
874.8915627969282
 31
0.0
  0
LINE
  5
2C3
330
1F
100
AcDbEntity
  8
C-A
  6
Continuous
 62
     3
370
     9
100
AcDbLine
 10
-667.5603289230565
 20
866.8917153848188
 30
0.0
 11
-1061.560069523642
 21
866.8917153848188
 31
0.0
  0
LINE
  5
2C4
330
1F
100
AcDbEntity
  8
C-A
  6
Continuous
 62
     3
370
     9
100
AcDbLine
 10
-667.5603289230565
 20
860.8918374551314
 30
0.0
 11
-1061.560069523642
 21
860.8918374551314
 31
0.0
  0
LINE
  5
2C5
330
1F
100
AcDbEntity
  8
C-A
  6
Continuous
 62
     3
370
     9
100
AcDbLine
 10
-667.5603289230565
 20
852.8918984902875
 30
0.0
 11
-1061.560069523642
 21
852.8918984902875
 31
0.0
  0
LINE
  5
2C6
330
1F
100
AcDbEntity
  8
C-A
  6
Continuous
 62
     3
370
     9
100
AcDbLine
 10
-667.5603289230565
 20
846.8916238320844
 30
0.0
 11
-1061.560069523642
 21
846.8916238320844
 31
0.0
  0
LINE
  5
2C7
330
1F
100
AcDbEntity
  8
C-A
  6
Continuous
 62
     3
370
     9
100
AcDbLine
 10
-667.5603289230565
 20
838.8918069375532
 30
0.0
 11
-1061.560069523642
 21
838.8918069375532
 31
0.0
  0
LINE
  5
2C8
330
1F
100
AcDbEntity
  8
C-A
  6
Continuous
 62
     3
370
     9
100
AcDbLine
 10
-667.5603289230565
 20
832.8911660684125
 30
0.0
 11
-1061.560069523642
 21
832.8911660684125
 31
0.0
  0
LINE
  5
2C9
330
1F
100
AcDbEntity
  8
C-A
  6
Continuous
 62
     3
370
     9
100
AcDbLine
 10
-667.5603289230565
 20
824.8913491738813
 30
0.0
 11
-1061.560069523642
 21
824.8913491738813
 31
0.0
  0
LINE
  5
2CA
330
1F
100
AcDbEntity
  8
C-A
  6
Continuous
 62
     3
370
     9
100
AcDbLine
 10
-667.5603289230565
 20
818.8914712441938
 30
0.0
 11
-1061.560069523642
 21
818.8914712441938
 31
0.0
  0
LINE
  5
2CB
330
1F
100
AcDbEntity
  8
C-A
  6
Continuous
 62
     3
370
     9
100
AcDbLine
 10
-667.5603289230565
 20
810.8916238320844
 30
0.0
 11
-1061.560069523642
 21
810.8916238320844
 31
0.0
  0
LINE
  5
2CC
330
1F
100
AcDbEntity
  8
C-A
  6
Continuous
 62
     3
370
     9
100
AcDbLine
 10
-667.5603289230565
 20
804.8913796914594
 30
0.0
 11
-1061.560069523642
 21
804.8913796914594
 31
0.0
  0
LINE
  5
2CD
330
1F
100
AcDbEntity
  8
C-A
  6
Continuous
 62
     3
370
     9
100
AcDbLine
 10
-1061.560069523642
 20
544.8916390908735
 30
0.0
 11
-1061.560069523642
 21
944.8916543496625
 31
0.0
  0
LINE
  5
2CE
330
1F
100
AcDbEntity
  8
C-A
  6
Continuous
 62
     3
370
     9
100
AcDbLine
 10
-989.5099901779395
 20
936.8916543496625
 30
0.0
 11
-989.5099901779395
 21
930.8914102090375
 31
0.0
  0
LINE
  5
2CF
330
1F
100
AcDbEntity
  8
C-A
  6
Continuous
 62
     3
370
     9
100
AcDbLine
 10
-984.5602526291111
 20
936.8916543496625
 30
0.0
 11
-984.5602526291111
 21
930.8914102090375
 31
0.0
  0
LINE
  5
2D0
330
1F
100
AcDbEntity
  8
C-A
  6
Continuous
 62
     3
370
     9
100
AcDbLine
 10
-979.610530339072
 20
936.8916543496625
 30
0.0
 11
-979.610530339072
 21
930.8914102090375
 31
0.0
  0
LINE
  5
2D1
330
1F
100
AcDbEntity
  8
C-A
  6
Continuous
 62
     3
370
     9
100
AcDbLine
 10
-909.5101122482517
 20
936.8916543496625
 30
0.0
 11
-909.5101122482517
 21
930.8914102090375
 31
0.0
  0
LINE
  5
2D2
330
1F
100
AcDbEntity
  8
C-A
  6
Continuous
 62
     3
370
     9
100
AcDbLine
 10
-904.5608782394628
 20
936.8916543496625
 30
0.0
 11
-904.5608782394628
 21
930.8914102090375
 31
0.0
  0
LINE
  5
2D3
330
1F
100
AcDbEntity
  8
C-A
  6
Continuous
 62
     3
370
     9
100
AcDbLine
 10
-899.6111406906346
 20
936.8916543496625
 30
0.0
 11
-899.6111406906346
 21
930.8914102090375
 31
0.0
  0
LINE
  5
2D4
330
1F
100
AcDbEntity
  8
C-A
  6
Continuous
 62
     3
370
     9
100
AcDbLine
 10
-829.5097307785252
 20
936.8916543496625
 30
0.0
 11
-829.5097307785252
 21
930.8914102090375
 31
0.0
  0
LINE
  5
2D5
330
1F
100
AcDbEntity
  8
C-A
  6
Continuous
 62
     3
370
     9
100
AcDbLine
 10
-824.5600237472752
 20
936.8916543496625
 30
0.0
 11
-824.5600237472752
 21
930.8914102090375
 31
0.0
  0
LINE
  5
2D6
330
1F
100
AcDbEntity
  8
C-A
  6
Continuous
 62
     3
370
     9
100
AcDbLine
 10
-819.6107744796972
 20
936.8916543496625
 30
0.0
 11
-819.6107744796972
 21
930.8914102090375
 31
0.0
  0
LINE
  5
2D7
330
1F
100
AcDbEntity
  8
C-A
  6
Continuous
 62
     3
370
     9
100
AcDbLine
 10
-749.5103716476659
 20
936.8916543496625
 30
0.0
 11
-749.5103716476659
 21
930.8914102090375
 31
0.0
  0
LINE
  5
2D8
330
1F
100
AcDbEntity
  8
C-A
  6
Continuous
 62
     3
370
     9
100
AcDbLine
 10
-744.5606340988377
 20
936.8916543496625
 30
0.0
 11
-744.5606340988377
 21
930.8914102090375
 31
0.0
  0
LINE
  5
2D9
330
1F
100
AcDbEntity
  8
C-A
  6
Continuous
 62
     3
370
     9
100
AcDbLine
 10
-739.6108965500096
 20
936.8916543496625
 30
0.0
 11
-739.6108965500096
 21
930.8914102090375
 31
0.0
  0
LINE
  5
2DA
330
1F
100
AcDbEntity
  8
C-A
  6
Continuous
 62
     3
370
     9
100
AcDbLine
 10
-989.5099901779395
 20
922.8914712441938
 30
0.0
 11
-989.5099901779395
 21
916.8915933145064
 31
0.0
  0
LINE
  5
2DB
330
1F
100
AcDbEntity
  8
C-A
  6
Continuous
 62
     3
370
     9
100
AcDbLine
 10
-984.5602526291111
 20
922.8914712441938
 30
0.0
 11
-984.5602526291111
 21
916.8915933145064
 31
0.0
  0
LINE
  5
2DC
330
1F
100
AcDbEntity
  8
C-A
  6
Continuous
 62
     3
370
     9
100
AcDbLine
 10
-979.610530339072
 20
922.8914712441938
 30
0.0
 11
-979.610530339072
 21
916.8915933145064
 31
0.0
  0
LINE
  5
2DD
330
1F
100
AcDbEntity
  8
C-A
  6
Continuous
 62
     3
370
     9
100
AcDbLine
 10
-909.5101122482517
 20
922.8914712441938
 30
0.0
 11
-909.5101122482517
 21
916.8915933145064
 31
0.0
  0
LINE
  5
2DE
330
1F
100
AcDbEntity
  8
C-A
  6
Continuous
 62
     3
370
     9
100
AcDbLine
 10
-904.5608782394628
 20
922.8914712441938
 30
0.0
 11
-904.5608782394628
 21
916.8915933145064
 31
0.0
  0
LINE
  5
2DF
330
1F
100
AcDbEntity
  8
C-A
  6
Continuous
 62
     3
370
     9
100
AcDbLine
 10
-899.6111406906346
 20
922.8914712441938
 30
0.0
 11
-899.6111406906346
 21
916.8915933145064
 31
0.0
  0
LINE
  5
2E0
330
1F
100
AcDbEntity
  8
C-A
  6
Continuous
 62
     3
370
     9
100
AcDbLine
 10
-829.5097307785252
 20
922.8914712441938
 30
0.0
 11
-829.5097307785252
 21
916.8915933145064
 31
0.0
  0
LINE
  5
2E1
330
1F
100
AcDbEntity
  8
C-A
  6
Continuous
 62
     3
370
     9
100
AcDbLine
 10
-824.5600237472752
 20
922.8914712441938
 30
0.0
 11
-824.5600237472752
 21
916.8915933145064
 31
0.0
  0
LINE
  5
2E2
330
1F
100
AcDbEntity
  8
C-A
  6
Continuous
 62
     3
370
     9
100
AcDbLine
 10
-819.6107744796972
 20
922.8914712441938
 30
0.0
 11
-819.6107744796972
 21
916.8915933145064
 31
0.0
  0
LINE
  5
2E3
330
1F
100
AcDbEntity
  8
C-A
  6
Continuous
 62
     3
370
     9
100
AcDbLine
 10
-749.5103716476659
 20
922.8914712441938
 30
0.0
 11
-749.5103716476659
 21
916.8915933145064
 31
0.0
  0
LINE
  5
2E4
330
1F
100
AcDbEntity
  8
C-A
  6
Continuous
 62
     3
370
     9
100
AcDbLine
 10
-744.5606340988377
 20
922.8914712441938
 30
0.0
 11
-744.5606340988377
 21
916.8915933145064
 31
0.0
  0
LINE
  5
2E5
330
1F
100
AcDbEntity
  8
C-A
  6
Continuous
 62
     3
370
     9
100
AcDbLine
 10
-739.6108965500096
 20
922.8914712441938
 30
0.0
 11
-739.6108965500096
 21
916.8915933145064
 31
0.0
  0
LINE
  5
2E6
330
1F
100
AcDbEntity
  8
C-A
  6
Continuous
 62
     3
370
     9
100
AcDbLine
 10
-989.5099901779395
 20
908.891776419975
 30
0.0
 11
-989.5099901779395
 21
902.8914712441938
 31
0.0
  0
LINE
  5
2E7
330
1F
100
AcDbEntity
  8
C-A
  6
Continuous
 62
     3
370
     9
100
AcDbLine
 10
-984.5602526291111
 20
908.891776419975
 30
0.0
 11
-984.5602526291111
 21
902.8914712441938
 31
0.0
  0
LINE
  5
2E8
330
1F
100
AcDbEntity
  8
C-A
  6
Continuous
 62
     3
370
     9
100
AcDbLine
 10
-979.610530339072
 20
908.891776419975
 30
0.0
 11
-979.610530339072
 21
902.8914712441938
 31
0.0
  0
LINE
  5
2E9
330
1F
100
AcDbEntity
  8
C-A
  6
Continuous
 62
     3
370
     9
100
AcDbLine
 10
-909.5101122482517
 20
908.891776419975
 30
0.0
 11
-909.5101122482517
 21
902.8914712441938
 31
0.0
  0
LINE
  5
2EA
330
1F
100
AcDbEntity
  8
C-A
  6
Continuous
 62
     3
370
     9
100
AcDbLine
 10
-904.5608782394628
 20
908.891776419975
 30
0.0
 11
-904.5608782394628
 21
902.8914712441938
 31
0.0
  0
LINE
  5
2EB
330
1F
100
AcDbEntity
  8
C-A
  6
Continuous
 62
     3
370
     9
100
AcDbLine
 10
-899.6111406906346
 20
908.891776419975
 30
0.0
 11
-899.6111406906346
 21
902.8914712441938
 31
0.0
  0
LINE
  5
2EC
330
1F
100
AcDbEntity
  8
C-A
  6
Continuous
 62
     3
370
     9
100
AcDbLine
 10
-829.5097307785252
 20
908.891776419975
 30
0.0
 11
-829.5097307785252
 21
902.8914712441938
 31
0.0
  0
LINE
  5
2ED
330
1F
100
AcDbEntity
  8
C-A
  6
Continuous
 62
     3
370
     9
100
AcDbLine
 10
-824.5600237472752
 20
908.891776419975
 30
0.0
 11
-824.5600237472752
 21
902.8914712441938
 31
0.0
  0
LINE
  5
2EE
330
1F
100
AcDbEntity
  8
C-A
  6
Continuous
 62
     3
370
     9
100
AcDbLine
 10
-819.6107744796972
 20
908.891776419975
 30
0.0
 11
-819.6107744796972
 21
902.8914712441938
 31
0.0
  0
LINE
  5
2EF
330
1F
100
AcDbEntity
  8
C-A
  6
Continuous
 62
     3
370
     9
100
AcDbLine
 10
-749.5103716476659
 20
908.891776419975
 30
0.0
 11
-749.5103716476659
 21
902.8914712441938
 31
0.0
  0
LINE
  5
2F0
330
1F
100
AcDbEntity
  8
C-A
  6
Continuous
 62
     3
370
     9
100
AcDbLine
 10
-744.5606340988377
 20
908.891776419975
 30
0.0
 11
-744.5606340988377
 21
902.8914712441938
 31
0.0
  0
LINE
  5
2F1
330
1F
100
AcDbEntity
  8
C-A
  6
Continuous
 62
     3
370
     9
100
AcDbLine
 10
-739.6108965500096
 20
908.891776419975
 30
0.0
 11
-739.6108965500096
 21
902.8914712441938
 31
0.0
  0
LINE
  5
2F2
330
1F
100
AcDbEntity
  8
C-A
  6
Continuous
 62
     3
370
     9
100
AcDbLine
 10
-989.5099901779395
 20
894.8916543496625
 30
0.0
 11
-989.5099901779395
 21
888.8916543496625
 31
0.0
  0
LINE
  5
2F3
330
1F
100
AcDbEntity
  8
C-A
  6
Continuous
 62
     3
370
     9
100
AcDbLine
 10
-984.5602526291111
 20
894.8916543496625
 30
0.0
 11
-984.5602526291111
 21
888.8916543496625
 31
0.0
  0
LINE
  5
2F4
330
1F
100
AcDbEntity
  8
C-A
  6
Continuous
 62
     3
370
     9
100
AcDbLine
 10
-979.610530339072
 20
894.8916543496625
 30
0.0
 11
-979.610530339072
 21
888.8916543496625
 31
0.0
  0
LINE
  5
2F5
330
1F
100
AcDbEntity
  8
C-A
  6
Continuous
 62
     3
370
     9
100
AcDbLine
 10
-909.5101122482517
 20
894.8916543496625
 30
0.0
 11
-909.5101122482517
 21
888.8916543496625
 31
0.0
  0
LINE
  5
2F6
330
1F
100
AcDbEntity
  8
C-A
  6
Continuous
 62
     3
370
     9
100
AcDbLine
 10
-904.5608782394628
 20
894.8916543496625
 30
0.0
 11
-904.5608782394628
 21
888.8916543496625
 31
0.0
  0
LINE
  5
2F7
330
1F
100
AcDbEntity
  8
C-A
  6
Continuous
 62
     3
370
     9
100
AcDbLine
 10
-899.6111406906346
 20
894.8916543496625
 30
0.0
 11
-899.6111406906346
 21
888.8916543496625
 31
0.0
  0
LINE
  5
2F8
330
1F
100
AcDbEntity
  8
C-A
  6
Continuous
 62
     3
370
     9
100
AcDbLine
 10
-829.5097307785252
 20
894.8916543496625
 30
0.0
 11
-829.5097307785252
 21
888.8916543496625
 31
0.0
  0
LINE
  5
2F9
330
1F
100
AcDbEntity
  8
C-A
  6
Continuous
 62
     3
370
     9
100
AcDbLine
 10
-824.5600237472752
 20
894.8916543496625
 30
0.0
 11
-824.5600237472752
 21
888.8916543496625
 31
0.0
  0
LINE
  5
2FA
330
1F
100
AcDbEntity
  8
C-A
  6
Continuous
 62
     3
370
     9
100
AcDbLine
 10
-819.6107744796972
 20
894.8916543496625
 30
0.0
 11
-819.6107744796972
 21
888.8916543496625
 31
0.0
  0
LINE
  5
2FB
330
1F
100
AcDbEntity
  8
C-A
  6
Continuous
 62
     3
370
     9
100
AcDbLine
 10
-749.5103716476659
 20
894.8916543496625
 30
0.0
 11
-749.5103716476659
 21
888.8916543496625
 31
0.0
  0
LINE
  5
2FC
330
1F
100
AcDbEntity
  8
C-A
  6
Continuous
 62
     3
370
     9
100
AcDbLine
 10
-744.5606340988377
 20
894.8916543496625
 30
0.0
 11
-744.5606340988377
 21
888.8916543496625
 31
0.0
  0
LINE
  5
2FD
330
1F
100
AcDbEntity
  8
C-A
  6
Continuous
 62
     3
370
     9
100
AcDbLine
 10
-739.6108965500096
 20
894.8916543496625
 30
0.0
 11
-739.6108965500096
 21
888.8916543496625
 31
0.0
  0
LINE
  5
2FE
330
1F
100
AcDbEntity
  8
C-A
  6
Continuous
 62
     3
370
     9
100
AcDbLine
 10
-989.5099901779395
 20
880.8918069375532
 30
0.0
 11
-989.5099901779395
 21
874.8915627969282
 31
0.0
  0
LINE
  5
2FF
330
1F
100
AcDbEntity
  8
C-A
  6
Continuous
 62
     3
370
     9
100
AcDbLine
 10
-984.5602526291111
 20
880.8918069375532
 30
0.0
 11
-984.5602526291111
 21
874.8915627969282
 31
0.0
  0
LINE
  5
300
330
1F
100
AcDbEntity
  8
C-A
  6
Continuous
 62
     3
370
     9
100
AcDbLine
 10
-979.610530339072
 20
880.8918069375532
 30
0.0
 11
-979.610530339072
 21
874.8915627969282
 31
0.0
  0
LINE
  5
301
330
1F
100
AcDbEntity
  8
C-A
  6
Continuous
 62
     3
370
     9
100
AcDbLine
 10
-909.5101122482517
 20
880.8918069375532
 30
0.0
 11
-909.5101122482517
 21
874.8915627969282
 31
0.0
  0
LINE
  5
302
330
1F
100
AcDbEntity
  8
C-A
  6
Continuous
 62
     3
370
     9
100
AcDbLine
 10
-904.5608782394628
 20
880.8918069375532
 30
0.0
 11
-904.5608782394628
 21
874.8915627969282
 31
0.0
  0
LINE
  5
303
330
1F
100
AcDbEntity
  8
C-A
  6
Continuous
 62
     3
370
     9
100
AcDbLine
 10
-899.6111406906346
 20
880.8918069375532
 30
0.0
 11
-899.6111406906346
 21
874.8915627969282
 31
0.0
  0
LINE
  5
304
330
1F
100
AcDbEntity
  8
C-A
  6
Continuous
 62
     3
370
     9
100
AcDbLine
 10
-829.5097307785252
 20
880.8918069375532
 30
0.0
 11
-829.5097307785252
 21
874.8915627969282
 31
0.0
  0
LINE
  5
305
330
1F
100
AcDbEntity
  8
C-A
  6
Continuous
 62
     3
370
     9
100
AcDbLine
 10
-824.5600237472752
 20
880.8918069375532
 30
0.0
 11
-824.5600237472752
 21
874.8915627969282
 31
0.0
  0
LINE
  5
306
330
1F
100
AcDbEntity
  8
C-A
  6
Continuous
 62
     3
370
     9
100
AcDbLine
 10
-819.6107744796972
 20
880.8918069375532
 30
0.0
 11
-819.6107744796972
 21
874.8915627969282
 31
0.0
  0
LINE
  5
307
330
1F
100
AcDbEntity
  8
C-A
  6
Continuous
 62
     3
370
     9
100
AcDbLine
 10
-749.5103716476659
 20
880.8918069375532
 30
0.0
 11
-749.5103716476659
 21
874.8915627969282
 31
0.0
  0
LINE
  5
308
330
1F
100
AcDbEntity
  8
C-A
  6
Continuous
 62
     3
370
     9
100
AcDbLine
 10
-744.5606340988377
 20
880.8918069375532
 30
0.0
 11
-744.5606340988377
 21
874.8915627969282
 31
0.0
  0
LINE
  5
309
330
1F
100
AcDbEntity
  8
C-A
  6
Continuous
 62
     3
370
     9
100
AcDbLine
 10
-739.6108965500096
 20
880.8918069375532
 30
0.0
 11
-739.6108965500096
 21
874.8915627969282
 31
0.0
  0
LINE
  5
30A
330
1F
100
AcDbEntity
  8
C-A
  6
Continuous
 62
     3
370
     9
100
AcDbLine
 10
-989.5099901779395
 20
866.8917153848188
 30
0.0
 11
-989.5099901779395
 21
860.8918374551314
 31
0.0
  0
LINE
  5
30B
330
1F
100
AcDbEntity
  8
C-A
  6
Continuous
 62
     3
370
     9
100
AcDbLine
 10
-984.5602526291111
 20
866.8917153848188
 30
0.0
 11
-984.5602526291111
 21
860.8918374551314
 31
0.0
  0
LINE
  5
30C
330
1F
100
AcDbEntity
  8
C-A
  6
Continuous
 62
     3
370
     9
100
AcDbLine
 10
-979.610530339072
 20
866.8917153848188
 30
0.0
 11
-979.610530339072
 21
860.8918374551314
 31
0.0
  0
LINE
  5
30D
330
1F
100
AcDbEntity
  8
C-A
  6
Continuous
 62
     3
370
     9
100
AcDbLine
 10
-909.5101122482517
 20
866.8917153848188
 30
0.0
 11
-909.5101122482517
 21
860.8918374551314
 31
0.0
  0
LINE
  5
30E
330
1F
100
AcDbEntity
  8
C-A
  6
Continuous
 62
     3
370
     9
100
AcDbLine
 10
-904.5608782394628
 20
866.8917153848188
 30
0.0
 11
-904.5608782394628
 21
860.8918374551314
 31
0.0
  0
LINE
  5
30F
330
1F
100
AcDbEntity
  8
C-A
  6
Continuous
 62
     3
370
     9
100
AcDbLine
 10
-899.6111406906346
 20
866.8917153848188
 30
0.0
 11
-899.6111406906346
 21
860.8918374551314
 31
0.0
  0
LINE
  5
310
330
1F
100
AcDbEntity
  8
C-A
  6
Continuous
 62
     3
370
     9
100
AcDbLine
 10
-829.5097307785252
 20
866.8917153848188
 30
0.0
 11
-829.5097307785252
 21
860.8918374551314
 31
0.0
  0
LINE
  5
311
330
1F
100
AcDbEntity
  8
C-A
  6
Continuous
 62
     3
370
     9
100
AcDbLine
 10
-824.5600237472752
 20
866.8917153848188
 30
0.0
 11
-824.5600237472752
 21
860.8918374551314
 31
0.0
  0
LINE
  5
312
330
1F
100
AcDbEntity
  8
C-A
  6
Continuous
 62
     3
370
     9
100
AcDbLine
 10
-819.6107744796972
 20
866.8917153848188
 30
0.0
 11
-819.6107744796972
 21
860.8918374551314
 31
0.0
  0
LINE
  5
313
330
1F
100
AcDbEntity
  8
C-A
  6
Continuous
 62
     3
370
     9
100
AcDbLine
 10
-749.5103716476659
 20
866.8917153848188
 30
0.0
 11
-749.5103716476659
 21
860.8918374551314
 31
0.0
  0
LINE
  5
314
330
1F
100
AcDbEntity
  8
C-A
  6
Continuous
 62
     3
370
     9
100
AcDbLine
 10
-744.5606340988377
 20
866.8917153848188
 30
0.0
 11
-744.5606340988377
 21
860.8918374551314
 31
0.0
  0
LINE
  5
315
330
1F
100
AcDbEntity
  8
C-A
  6
Continuous
 62
     3
370
     9
100
AcDbLine
 10
-739.6108965500096
 20
866.8917153848188
 30
0.0
 11
-739.6108965500096
 21
860.8918374551314
 31
0.0
  0
LINE
  5
316
330
1F
100
AcDbEntity
  8
C-A
  6
Continuous
 62
     3
370
     9
100
AcDbLine
 10
-989.5099901779395
 20
852.8918984902875
 30
0.0
 11
-989.5099901779395
 21
846.8916238320844
 31
0.0
  0
LINE
  5
317
330
1F
100
AcDbEntity
  8
C-A
  6
Continuous
 62
     3
370
     9
100
AcDbLine
 10
-984.5602526291111
 20
852.8918984902875
 30
0.0
 11
-984.5602526291111
 21
846.8916238320844
 31
0.0
  0
LINE
  5
318
330
1F
100
AcDbEntity
  8
C-A
  6
Continuous
 62
     3
370
     9
100
AcDbLine
 10
-979.610530339072
 20
852.8918984902875
 30
0.0
 11
-979.610530339072
 21
846.8916238320844
 31
0.0
  0
LINE
  5
319
330
1F
100
AcDbEntity
  8
C-A
  6
Continuous
 62
     3
370
     9
100
AcDbLine
 10
-909.5101122482517
 20
852.8918984902875
 30
0.0
 11
-909.5101122482517
 21
846.8916238320844
 31
0.0
  0
LINE
  5
31A
330
1F
100
AcDbEntity
  8
C-A
  6
Continuous
 62
     3
370
     9
100
AcDbLine
 10
-904.5608782394628
 20
852.8918984902875
 30
0.0
 11
-904.5608782394628
 21
846.8916238320844
 31
0.0
  0
LINE
  5
31B
330
1F
100
AcDbEntity
  8
C-A
  6
Continuous
 62
     3
370
     9
100
AcDbLine
 10
-899.6111406906346
 20
852.8918984902875
 30
0.0
 11
-899.6111406906346
 21
846.8916238320844
 31
0.0
  0
LINE
  5
31C
330
1F
100
AcDbEntity
  8
C-A
  6
Continuous
 62
     3
370
     9
100
AcDbLine
 10
-829.5097307785252
 20
852.8918984902875
 30
0.0
 11
-829.5097307785252
 21
846.8916238320844
 31
0.0
  0
LINE
  5
31D
330
1F
100
AcDbEntity
  8
C-A
  6
Continuous
 62
     3
370
     9
100
AcDbLine
 10
-824.5600237472752
 20
852.8918984902875
 30
0.0
 11
-824.5600237472752
 21
846.8916238320844
 31
0.0
  0
LINE
  5
31E
330
1F
100
AcDbEntity
  8
C-A
  6
Continuous
 62
     3
370
     9
100
AcDbLine
 10
-819.6107744796972
 20
852.8918984902875
 30
0.0
 11
-819.6107744796972
 21
846.8916238320844
 31
0.0
  0
LINE
  5
31F
330
1F
100
AcDbEntity
  8
C-A
  6
Continuous
 62
     3
370
     9
100
AcDbLine
 10
-749.5103716476659
 20
852.8918984902875
 30
0.0
 11
-749.5103716476659
 21
846.8916238320844
 31
0.0
  0
LINE
  5
320
330
1F
100
AcDbEntity
  8
C-A
  6
Continuous
 62
     3
370
     9
100
AcDbLine
 10
-744.5606340988377
 20
852.8918984902875
 30
0.0
 11
-744.5606340988377
 21
846.8916238320844
 31
0.0
  0
LINE
  5
321
330
1F
100
AcDbEntity
  8
C-A
  6
Continuous
 62
     3
370
     9
100
AcDbLine
 10
-739.6108965500096
 20
852.8918984902875
 30
0.0
 11
-739.6108965500096
 21
846.8916238320844
 31
0.0
  0
LINE
  5
322
330
1F
100
AcDbEntity
  8
C-A
  6
Continuous
 62
     3
370
     9
100
AcDbLine
 10
-989.5099901779395
 20
838.8918069375532
 30
0.0
 11
-989.5099901779395
 21
832.8919290078657
 31
0.0
  0
LINE
  5
323
330
1F
100
AcDbEntity
  8
C-A
  6
Continuous
 62
     3
370
     9
100
AcDbLine
 10
-984.5602526291111
 20
838.8918069375532
 30
0.0
 11
-984.5602526291111
 21
832.8919290078657
 31
0.0
  0
LINE
  5
324
330
1F
100
AcDbEntity
  8
C-A
  6
Continuous
 62
     3
370
     9
100
AcDbLine
 10
-979.610530339072
 20
838.8918069375532
 30
0.0
 11
-979.610530339072
 21
832.8919290078657
 31
0.0
  0
LINE
  5
325
330
1F
100
AcDbEntity
  8
C-A
  6
Continuous
 62
     3
370
     9
100
AcDbLine
 10
-909.5101122482517
 20
838.8918069375532
 30
0.0
 11
-909.5101122482517
 21
832.8919290078657
 31
0.0
  0
LINE
  5
326
330
1F
100
AcDbEntity
  8
C-A
  6
Continuous
 62
     3
370
     9
100
AcDbLine
 10
-904.5608782394628
 20
838.8918069375532
 30
0.0
 11
-904.5608782394628
 21
832.8919290078657
 31
0.0
  0
LINE
  5
327
330
1F
100
AcDbEntity
  8
C-A
  6
Continuous
 62
     3
370
     9
100
AcDbLine
 10
-899.6111406906346
 20
838.8918069375532
 30
0.0
 11
-899.6111406906346
 21
832.8919290078657
 31
0.0
  0
LINE
  5
328
330
1F
100
AcDbEntity
  8
C-A
  6
Continuous
 62
     3
370
     9
100
AcDbLine
 10
-829.5097307785252
 20
838.8918069375532
 30
0.0
 11
-829.5097307785252
 21
832.8919290078657
 31
0.0
  0
LINE
  5
329
330
1F
100
AcDbEntity
  8
C-A
  6
Continuous
 62
     3
370
     9
100
AcDbLine
 10
-824.5600237472752
 20
838.8918069375532
 30
0.0
 11
-824.5600237472752
 21
832.8919290078657
 31
0.0
  0
LINE
  5
32A
330
1F
100
AcDbEntity
  8
C-A
  6
Continuous
 62
     3
370
     9
100
AcDbLine
 10
-819.6107744796972
 20
838.8918069375532
 30
0.0
 11
-819.6107744796972
 21
832.8919290078657
 31
0.0
  0
LINE
  5
32B
330
1F
100
AcDbEntity
  8
C-A
  6
Continuous
 62
     3
370
     9
100
AcDbLine
 10
-749.5103716476659
 20
838.8918069375532
 30
0.0
 11
-749.5103716476659
 21
832.8919290078657
 31
0.0
  0
LINE
  5
32C
330
1F
100
AcDbEntity
  8
C-A
  6
Continuous
 62
     3
370
     9
100
AcDbLine
 10
-744.5606340988377
 20
838.8918069375532
 30
0.0
 11
-744.5606340988377
 21
832.8919290078657
 31
0.0
  0
LINE
  5
32D
330
1F
100
AcDbEntity
  8
C-A
  6
Continuous
 62
     3
370
     9
100
AcDbLine
 10
-739.6108965500096
 20
838.8918069375532
 30
0.0
 11
-739.6108965500096
 21
832.8919290078657
 31
0.0
  0
LINE
  5
32E
330
1F
100
AcDbEntity
  8
C-A
  6
Continuous
 62
     3
370
     9
100
AcDbLine
 10
-989.5099901779395
 20
824.8920815957564
 30
0.0
 11
-989.5099901779395
 21
818.8918374551313
 31
0.0
  0
LINE
  5
32F
330
1F
100
AcDbEntity
  8
C-A
  6
Continuous
 62
     3
370
     9
100
AcDbLine
 10
-984.5602526291111
 20
824.8920815957564
 30
0.0
 11
-984.5602526291111
 21
818.8918374551313
 31
0.0
  0
LINE
  5
330
330
1F
100
AcDbEntity
  8
C-A
  6
Continuous
 62
     3
370
     9
100
AcDbLine
 10
-979.610530339072
 20
824.8920815957564
 30
0.0
 11
-979.610530339072
 21
818.8918374551313
 31
0.0
  0
LINE
  5
331
330
1F
100
AcDbEntity
  8
C-A
  6
Continuous
 62
     3
370
     9
100
AcDbLine
 10
-909.5101122482517
 20
824.8920815957564
 30
0.0
 11
-909.5101122482517
 21
818.8918374551313
 31
0.0
  0
LINE
  5
332
330
1F
100
AcDbEntity
  8
C-A
  6
Continuous
 62
     3
370
     9
100
AcDbLine
 10
-904.5608782394628
 20
824.8920815957564
 30
0.0
 11
-904.5608782394628
 21
818.8918374551313
 31
0.0
  0
LINE
  5
333
330
1F
100
AcDbEntity
  8
C-A
  6
Continuous
 62
     3
370
     9
100
AcDbLine
 10
-899.6111406906346
 20
824.8920815957564
 30
0.0
 11
-899.6111406906346
 21
818.8918374551313
 31
0.0
  0
LINE
  5
334
330
1F
100
AcDbEntity
  8
C-A
  6
Continuous
 62
     3
370
     9
100
AcDbLine
 10
-829.5097307785252
 20
824.8920815957564
 30
0.0
 11
-829.5097307785252
 21
818.8918374551313
 31
0.0
  0
LINE
  5
335
330
1F
100
AcDbEntity
  8
C-A
  6
Continuous
 62
     3
370
     9
100
AcDbLine
 10
-824.5600237472752
 20
824.8920815957564
 30
0.0
 11
-824.5600237472752
 21
818.8918374551313
 31
0.0
  0
LINE
  5
336
330
1F
100
AcDbEntity
  8
C-A
  6
Continuous
 62
     3
370
     9
100
AcDbLine
 10
-819.6107744796972
 20
824.8920815957564
 30
0.0
 11
-819.6107744796972
 21
818.8918374551313
 31
0.0
  0
LINE
  5
337
330
1F
100
AcDbEntity
  8
C-A
  6
Continuous
 62
     3
370
     9
100
AcDbLine
 10
-749.5103716476659
 20
824.8920815957564
 30
0.0
 11
-749.5103716476659
 21
818.8918374551313
 31
0.0
  0
LINE
  5
338
330
1F
100
AcDbEntity
  8
C-A
  6
Continuous
 62
     3
370
     9
100
AcDbLine
 10
-744.5606340988377
 20
824.8920815957564
 30
0.0
 11
-744.5606340988377
 21
818.8918374551313
 31
0.0
  0
LINE
  5
339
330
1F
100
AcDbEntity
  8
C-A
  6
Continuous
 62
     3
370
     9
100
AcDbLine
 10
-739.6108965500096
 20
824.8920815957564
 30
0.0
 11
-739.6108965500096
 21
818.8918374551313
 31
0.0
  0
LINE
  5
33A
330
1F
100
AcDbEntity
  8
C-A
  6
Continuous
 62
     3
370
     9
100
AcDbLine
 10
-989.5099901779395
 20
810.8918679727094
 30
0.0
 11
-989.5099901779395
 21
804.8916238320845
 31
0.0
  0
LINE
  5
33B
330
1F
100
AcDbEntity
  8
C-A
  6
Continuous
 62
     3
370
     9
100
AcDbLine
 10
-984.5602526291111
 20
810.8918679727094
 30
0.0
 11
-984.5602526291111
 21
804.8916238320845
 31
0.0
  0
LINE
  5
33C
330
1F
100
AcDbEntity
  8
C-A
  6
Continuous
 62
     3
370
     9
100
AcDbLine
 10
-979.610530339072
 20
810.8918679727094
 30
0.0
 11
-979.610530339072
 21
804.8916238320845
 31
0.0
  0
LINE
  5
33D
330
1F
100
AcDbEntity
  8
C-A
  6
Continuous
 62
     3
370
     9
100
AcDbLine
 10
-909.5101122482517
 20
810.8918679727094
 30
0.0
 11
-909.5101122482517
 21
804.8916238320845
 31
0.0
  0
LINE
  5
33E
330
1F
100
AcDbEntity
  8
C-A
  6
Continuous
 62
     3
370
     9
100
AcDbLine
 10
-904.5608782394628
 20
810.8918679727094
 30
0.0
 11
-904.5608782394628
 21
804.8916238320845
 31
0.0
  0
LINE
  5
33F
330
1F
100
AcDbEntity
  8
C-A
  6
Continuous
 62
     3
370
     9
100
AcDbLine
 10
-899.6111406906346
 20
810.8918679727094
 30
0.0
 11
-899.6111406906346
 21
804.8916238320845
 31
0.0
  0
LINE
  5
340
330
1F
100
AcDbEntity
  8
C-A
  6
Continuous
 62
     3
370
     9
100
AcDbLine
 10
-829.5097307785252
 20
810.8918679727094
 30
0.0
 11
-829.5097307785252
 21
804.8916238320845
 31
0.0
  0
LINE
  5
341
330
1F
100
AcDbEntity
  8
C-A
  6
Continuous
 62
     3
370
     9
100
AcDbLine
 10
-824.5600237472752
 20
810.8918679727094
 30
0.0
 11
-824.5600237472752
 21
804.8916238320845
 31
0.0
  0
LINE
  5
342
330
1F
100
AcDbEntity
  8
C-A
  6
Continuous
 62
     3
370
     9
100
AcDbLine
 10
-819.6107744796972
 20
810.8918679727094
 30
0.0
 11
-819.6107744796972
 21
804.8916238320845
 31
0.0
  0
LINE
  5
343
330
1F
100
AcDbEntity
  8
C-A
  6
Continuous
 62
     3
370
     9
100
AcDbLine
 10
-749.5103716476659
 20
810.8918679727094
 30
0.0
 11
-749.5103716476659
 21
804.8916238320845
 31
0.0
  0
LINE
  5
344
330
1F
100
AcDbEntity
  8
C-A
  6
Continuous
 62
     3
370
     9
100
AcDbLine
 10
-744.5606340988377
 20
810.8918679727094
 30
0.0
 11
-744.5606340988377
 21
804.8916238320845
 31
0.0
  0
LINE
  5
345
330
1F
100
AcDbEntity
  8
C-A
  6
Continuous
 62
     3
370
     9
100
AcDbLine
 10
-739.6108965500096
 20
810.8918679727094
 30
0.0
 11
-739.6108965500096
 21
804.8916238320845
 31
0.0
  0
LINE
  5
346
330
1F
100
AcDbEntity
  8
C-A
  6
Continuous
 62
     3
370
     9
100
AcDbLine
 10
-989.5099901779395
 20
796.8921426309125
 30
0.0
 11
-989.5099901779395
 21
790.8918984902875
 31
0.0
  0
LINE
  5
347
330
1F
100
AcDbEntity
  8
C-A
  6
Continuous
 62
     3
370
     9
100
AcDbLine
 10
-984.5602526291111
 20
796.8921426309125
 30
0.0
 11
-984.5602526291111
 21
790.8918984902875
 31
0.0
  0
LINE
  5
348
330
1F
100
AcDbEntity
  8
C-A
  6
Continuous
 62
     3
370
     9
100
AcDbLine
 10
-979.610530339072
 20
796.8921426309125
 30
0.0
 11
-979.610530339072
 21
790.8918984902875
 31
0.0
  0
LINE
  5
349
330
1F
100
AcDbEntity
  8
C-A
  6
Continuous
 62
     3
370
     9
100
AcDbLine
 10
-909.5101122482517
 20
796.8921426309125
 30
0.0
 11
-909.5101122482517
 21
790.8918984902875
 31
0.0
  0
LINE
  5
34A
330
1F
100
AcDbEntity
  8
C-A
  6
Continuous
 62
     3
370
     9
100
AcDbLine
 10
-904.5608782394628
 20
796.8921426309125
 30
0.0
 11
-904.5608782394628
 21
790.8918984902875
 31
0.0
  0
LINE
  5
34B
330
1F
100
AcDbEntity
  8
C-A
  6
Continuous
 62
     3
370
     9
100
AcDbLine
 10
-899.6111406906346
 20
796.8921426309125
 30
0.0
 11
-899.6111406906346
 21
790.8918984902875
 31
0.0
  0
LINE
  5
34C
330
1F
100
AcDbEntity
  8
C-A
  6
Continuous
 62
     3
370
     9
100
AcDbLine
 10
-829.5097307785252
 20
796.8921426309125
 30
0.0
 11
-829.5097307785252
 21
790.8918984902875
 31
0.0
  0
LINE
  5
34D
330
1F
100
AcDbEntity
  8
C-A
  6
Continuous
 62
     3
370
     9
100
AcDbLine
 10
-824.5600237472752
 20
796.8921426309125
 30
0.0
 11
-824.5600237472752
 21
790.8918984902875
 31
0.0
  0
LINE
  5
34E
330
1F
100
AcDbEntity
  8
C-A
  6
Continuous
 62
     3
370
     9
100
AcDbLine
 10
-819.6107744796972
 20
796.8921426309125
 30
0.0
 11
-819.6107744796972
 21
790.8918984902875
 31
0.0
  0
LINE
  5
34F
330
1F
100
AcDbEntity
  8
C-A
  6
Continuous
 62
     3
370
     9
100
AcDbLine
 10
-749.5103716476659
 20
796.8921426309125
 30
0.0
 11
-749.5103716476659
 21
790.8918984902875
 31
0.0
  0
LINE
  5
350
330
1F
100
AcDbEntity
  8
C-A
  6
Continuous
 62
     3
370
     9
100
AcDbLine
 10
-744.5606340988377
 20
796.8921426309125
 30
0.0
 11
-744.5606340988377
 21
790.8918984902875
 31
0.0
  0
LINE
  5
351
330
1F
100
AcDbEntity
  8
C-A
  6
Continuous
 62
     3
370
     9
100
AcDbLine
 10
-739.6108965500096
 20
796.8921426309125
 30
0.0
 11
-739.6108965500096
 21
790.8918984902875
 31
0.0
  0
LINE
  5
352
330
1F
100
AcDbEntity
  8
C-A
  6
Continuous
 62
     3
370
     9
100
AcDbLine
 10
-989.5099901779395
 20
782.8920510781782
 30
0.0
 11
-989.5099901779395
 21
776.8918069375532
 31
0.0
  0
LINE
  5
353
330
1F
100
AcDbEntity
  8
C-A
  6
Continuous
 62
     3
370
     9
100
AcDbLine
 10
-984.5602526291111
 20
782.8920510781782
 30
0.0
 11
-984.5602526291111
 21
776.8918069375532
 31
0.0
  0
LINE
  5
354
330
1F
100
AcDbEntity
  8
C-A
  6
Continuous
 62
     3
370
     9
100
AcDbLine
 10
-979.610530339072
 20
782.8920510781782
 30
0.0
 11
-979.610530339072
 21
776.8918069375532
 31
0.0
  0
LINE
  5
355
330
1F
100
AcDbEntity
  8
C-A
  6
Continuous
 62
     3
370
     9
100
AcDbLine
 10
-909.5101122482517
 20
782.8920510781782
 30
0.0
 11
-909.5101122482517
 21
776.8918069375532
 31
0.0
  0
LINE
  5
356
330
1F
100
AcDbEntity
  8
C-A
  6
Continuous
 62
     3
370
     9
100
AcDbLine
 10
-904.5608782394628
 20
782.8920510781782
 30
0.0
 11
-904.5608782394628
 21
776.8918069375532
 31
0.0
  0
LINE
  5
357
330
1F
100
AcDbEntity
  8
C-A
  6
Continuous
 62
     3
370
     9
100
AcDbLine
 10
-899.6111406906346
 20
782.8920510781782
 30
0.0
 11
-899.6111406906346
 21
776.8918069375532
 31
0.0
  0
LINE
  5
358
330
1F
100
AcDbEntity
  8
C-A
  6
Continuous
 62
     3
370
     9
100
AcDbLine
 10
-829.5097307785252
 20
782.8920510781782
 30
0.0
 11
-829.5097307785252
 21
776.8918069375532
 31
0.0
  0
LINE
  5
359
330
1F
100
AcDbEntity
  8
C-A
  6
Continuous
 62
     3
370
     9
100
AcDbLine
 10
-824.5600237472752
 20
782.8920510781782
 30
0.0
 11
-824.5600237472752
 21
776.8918069375532
 31
0.0
  0
LINE
  5
35A
330
1F
100
AcDbEntity
  8
C-A
  6
Continuous
 62
     3
370
     9
100
AcDbLine
 10
-819.6107744796972
 20
782.8920510781782
 30
0.0
 11
-819.6107744796972
 21
776.8918069375532
 31
0.0
  0
LINE
  5
35B
330
1F
100
AcDbEntity
  8
C-A
  6
Continuous
 62
     3
370
     9
100
AcDbLine
 10
-749.5103716476659
 20
782.8920510781782
 30
0.0
 11
-749.5103716476659
 21
776.8918069375532
 31
0.0
  0
LINE
  5
35C
330
1F
100
AcDbEntity
  8
C-A
  6
Continuous
 62
     3
370
     9
100
AcDbLine
 10
-744.5606340988377
 20
782.8920510781782
 30
0.0
 11
-744.5606340988377
 21
776.8918069375532
 31
0.0
  0
LINE
  5
35D
330
1F
100
AcDbEntity
  8
C-A
  6
Continuous
 62
     3
370
     9
100
AcDbLine
 10
-739.6108965500096
 20
782.8920510781782
 30
0.0
 11
-739.6108965500096
 21
776.8918069375532
 31
0.0
  0
LINE
  5
35E
330
1F
100
AcDbEntity
  8
C-A
  6
Continuous
 62
     3
370
     9
100
AcDbLine
 10
-989.5099901779395
 20
768.8918374551313
 30
0.0
 11
-989.5099901779395
 21
762.8919595254439
 31
0.0
  0
LINE
  5
35F
330
1F
100
AcDbEntity
  8
C-A
  6
Continuous
 62
     3
370
     9
100
AcDbLine
 10
-984.5602526291111
 20
768.8918374551313
 30
0.0
 11
-984.5602526291111
 21
762.8919595254439
 31
0.0
  0
LINE
  5
360
330
1F
100
AcDbEntity
  8
C-A
  6
Continuous
 62
     3
370
     9
100
AcDbLine
 10
-979.610530339072
 20
768.8918374551313
 30
0.0
 11
-979.610530339072
 21
762.8919595254439
 31
0.0
  0
LINE
  5
361
330
1F
100
AcDbEntity
  8
C-A
  6
Continuous
 62
     3
370
     9
100
AcDbLine
 10
-909.5101122482517
 20
768.8918374551313
 30
0.0
 11
-909.5101122482517
 21
762.8919595254439
 31
0.0
  0
LINE
  5
362
330
1F
100
AcDbEntity
  8
C-A
  6
Continuous
 62
     3
370
     9
100
AcDbLine
 10
-904.5608782394628
 20
768.8918374551313
 30
0.0
 11
-904.5608782394628
 21
762.8919595254439
 31
0.0
  0
LINE
  5
363
330
1F
100
AcDbEntity
  8
C-A
  6
Continuous
 62
     3
370
     9
100
AcDbLine
 10
-899.6111406906346
 20
768.8918374551313
 30
0.0
 11
-899.6111406906346
 21
762.8919595254439
 31
0.0
  0
LINE
  5
364
330
1F
100
AcDbEntity
  8
C-A
  6
Continuous
 62
     3
370
     9
100
AcDbLine
 10
-829.5097307785252
 20
768.8918374551313
 30
0.0
 11
-829.5097307785252
 21
762.8919595254439
 31
0.0
  0
LINE
  5
365
330
1F
100
AcDbEntity
  8
C-A
  6
Continuous
 62
     3
370
     9
100
AcDbLine
 10
-824.5600237472752
 20
768.8918374551313
 30
0.0
 11
-824.5600237472752
 21
762.8919595254439
 31
0.0
  0
LINE
  5
366
330
1F
100
AcDbEntity
  8
C-A
  6
Continuous
 62
     3
370
     9
100
AcDbLine
 10
-819.6107744796972
 20
768.8918374551313
 30
0.0
 11
-819.6107744796972
 21
762.8919595254439
 31
0.0
  0
LINE
  5
367
330
1F
100
AcDbEntity
  8
C-A
  6
Continuous
 62
     3
370
     9
100
AcDbLine
 10
-749.5103716476659
 20
768.8918374551313
 30
0.0
 11
-749.5103716476659
 21
762.8919595254439
 31
0.0
  0
LINE
  5
368
330
1F
100
AcDbEntity
  8
C-A
  6
Continuous
 62
     3
370
     9
100
AcDbLine
 10
-744.5606340988377
 20
768.8918374551313
 30
0.0
 11
-744.5606340988377
 21
762.8919595254439
 31
0.0
  0
LINE
  5
369
330
1F
100
AcDbEntity
  8
C-A
  6
Continuous
 62
     3
370
     9
100
AcDbLine
 10
-739.6108965500096
 20
768.8918374551313
 30
0.0
 11
-739.6108965500096
 21
762.8919595254439
 31
0.0
  0
LINE
  5
36A
330
1F
100
AcDbEntity
  8
C-A
  6
Continuous
 62
     3
370
     9
100
AcDbLine
 10
-989.5099901779395
 20
754.8921121133344
 30
0.0
 11
-989.5099901779395
 21
748.8918679727095
 31
0.0
  0
LINE
  5
36B
330
1F
100
AcDbEntity
  8
C-A
  6
Continuous
 62
     3
370
     9
100
AcDbLine
 10
-984.5602526291111
 20
754.8921121133344
 30
0.0
 11
-984.5602526291111
 21
748.8918679727095
 31
0.0
  0
LINE
  5
36C
330
1F
100
AcDbEntity
  8
C-A
  6
Continuous
 62
     3
370
     9
100
AcDbLine
 10
-979.610530339072
 20
754.8921121133344
 30
0.0
 11
-979.610530339072
 21
748.8918679727095
 31
0.0
  0
LINE
  5
36D
330
1F
100
AcDbEntity
  8
C-A
  6
Continuous
 62
     3
370
     9
100
AcDbLine
 10
-909.5101122482517
 20
754.8921121133344
 30
0.0
 11
-909.5101122482517
 21
748.8918679727095
 31
0.0
  0
LINE
  5
36E
330
1F
100
AcDbEntity
  8
C-A
  6
Continuous
 62
     3
370
     9
100
AcDbLine
 10
-904.5608782394628
 20
754.8921121133344
 30
0.0
 11
-904.5608782394628
 21
748.8918679727095
 31
0.0
  0
LINE
  5
36F
330
1F
100
AcDbEntity
  8
C-A
  6
Continuous
 62
     3
370
     9
100
AcDbLine
 10
-899.6111406906346
 20
754.8921121133344
 30
0.0
 11
-899.6111406906346
 21
748.8918679727095
 31
0.0
  0
LINE
  5
370
330
1F
100
AcDbEntity
  8
C-A
  6
Continuous
 62
     3
370
     9
100
AcDbLine
 10
-829.5097307785252
 20
754.8921121133344
 30
0.0
 11
-829.5097307785252
 21
748.8918679727095
 31
0.0
  0
LINE
  5
371
330
1F
100
AcDbEntity
  8
C-A
  6
Continuous
 62
     3
370
     9
100
AcDbLine
 10
-824.5600237472752
 20
754.8921121133344
 30
0.0
 11
-824.5600237472752
 21
748.8918679727095
 31
0.0
  0
LINE
  5
372
330
1F
100
AcDbEntity
  8
C-A
  6
Continuous
 62
     3
370
     9
100
AcDbLine
 10
-819.6107744796972
 20
754.8921121133344
 30
0.0
 11
-819.6107744796972
 21
748.8918679727095
 31
0.0
  0
LINE
  5
373
330
1F
100
AcDbEntity
  8
C-A
  6
Continuous
 62
     3
370
     9
100
AcDbLine
 10
-749.5103716476659
 20
754.8921121133344
 30
0.0
 11
-749.5103716476659
 21
748.8918679727095
 31
0.0
  0
LINE
  5
374
330
1F
100
AcDbEntity
  8
C-A
  6
Continuous
 62
     3
370
     9
100
AcDbLine
 10
-744.5606340988377
 20
754.8921121133344
 30
0.0
 11
-744.5606340988377
 21
748.8918679727095
 31
0.0
  0
LINE
  5
375
330
1F
100
AcDbEntity
  8
C-A
  6
Continuous
 62
     3
370
     9
100
AcDbLine
 10
-739.6108965500096
 20
754.8921121133344
 30
0.0
 11
-739.6108965500096
 21
748.8918679727095
 31
0.0
  0
LINE
  5
376
330
1F
100
AcDbEntity
  8
C-A
  6
Continuous
 62
     3
370
     9
100
AcDbLine
 10
-989.5099901779395
 20
740.8920205606
 30
0.0
 11
-989.5099901779395
 21
734.8920205606
 31
0.0
  0
LINE
  5
377
330
1F
100
AcDbEntity
  8
C-A
  6
Continuous
 62
     3
370
     9
100
AcDbLine
 10
-984.5602526291111
 20
740.8920205606
 30
0.0
 11
-984.5602526291111
 21
734.8920205606
 31
0.0
  0
LINE
  5
378
330
1F
100
AcDbEntity
  8
C-A
  6
Continuous
 62
     3
370
     9
100
AcDbLine
 10
-979.610530339072
 20
740.8920205606
 30
0.0
 11
-979.610530339072
 21
734.8920205606
 31
0.0
  0
LINE
  5
379
330
1F
100
AcDbEntity
  8
C-A
  6
Continuous
 62
     3
370
     9
100
AcDbLine
 10
-909.5101122482517
 20
740.8920205606
 30
0.0
 11
-909.5101122482517
 21
734.8920205606
 31
0.0
  0
LINE
  5
37A
330
1F
100
AcDbEntity
  8
C-A
  6
Continuous
 62
     3
370
     9
100
AcDbLine
 10
-904.5608782394628
 20
740.8920205606
 30
0.0
 11
-904.5608782394628
 21
734.8920205606
 31
0.0
  0
LINE
  5
37B
330
1F
100
AcDbEntity
  8
C-A
  6
Continuous
 62
     3
370
     9
100
AcDbLine
 10
-899.6111406906346
 20
740.8920205606
 30
0.0
 11
-899.6111406906346
 21
734.8920205606
 31
0.0
  0
LINE
  5
37C
330
1F
100
AcDbEntity
  8
C-A
  6
Continuous
 62
     3
370
     9
100
AcDbLine
 10
-829.5097307785252
 20
740.8920205606
 30
0.0
 11
-829.5097307785252
 21
734.8920205606
 31
0.0
  0
LINE
  5
37D
330
1F
100
AcDbEntity
  8
C-A
  6
Continuous
 62
     3
370
     9
100
AcDbLine
 10
-824.5600237472752
 20
740.8920205606
 30
0.0
 11
-824.5600237472752
 21
734.8920205606
 31
0.0
  0
LINE
  5
37E
330
1F
100
AcDbEntity
  8
C-A
  6
Continuous
 62
     3
370
     9
100
AcDbLine
 10
-819.6107744796972
 20
740.8920205606
 30
0.0
 11
-819.6107744796972
 21
734.8920205606
 31
0.0
  0
LINE
  5
37F
330
1F
100
AcDbEntity
  8
C-A
  6
Continuous
 62
     3
370
     9
100
AcDbLine
 10
-749.5103716476659
 20
740.8920205606
 30
0.0
 11
-749.5103716476659
 21
734.8920205606
 31
0.0
  0
LINE
  5
380
330
1F
100
AcDbEntity
  8
C-A
  6
Continuous
 62
     3
370
     9
100
AcDbLine
 10
-744.5606340988377
 20
740.8920205606
 30
0.0
 11
-744.5606340988377
 21
734.8920205606
 31
0.0
  0
LINE
  5
381
330
1F
100
AcDbEntity
  8
C-A
  6
Continuous
 62
     3
370
     9
100
AcDbLine
 10
-739.6108965500096
 20
740.8920205606
 30
0.0
 11
-739.6108965500096
 21
734.8920205606
 31
0.0
  0
LINE
  5
382
330
1F
100
AcDbEntity
  8
C-A
  6
Continuous
 62
     3
370
     9
100
AcDbLine
 10
-989.5099901779395
 20
726.8922036660689
 30
0.0
 11
-989.5099901779395
 21
720.8919290078657
 31
0.0
  0
LINE
  5
383
330
1F
100
AcDbEntity
  8
C-A
  6
Continuous
 62
     3
370
     9
100
AcDbLine
 10
-984.5602526291111
 20
726.8922036660689
 30
0.0
 11
-984.5602526291111
 21
720.8919290078657
 31
0.0
  0
LINE
  5
384
330
1F
100
AcDbEntity
  8
C-A
  6
Continuous
 62
     3
370
     9
100
AcDbLine
 10
-979.610530339072
 20
726.8922036660689
 30
0.0
 11
-979.610530339072
 21
720.8919290078657
 31
0.0
  0
LINE
  5
385
330
1F
100
AcDbEntity
  8
C-A
  6
Continuous
 62
     3
370
     9
100
AcDbLine
 10
-909.5101122482517
 20
726.8922036660689
 30
0.0
 11
-909.5101122482517
 21
720.8919290078657
 31
0.0
  0
LINE
  5
386
330
1F
100
AcDbEntity
  8
C-A
  6
Continuous
 62
     3
370
     9
100
AcDbLine
 10
-904.5608782394628
 20
726.8922036660689
 30
0.0
 11
-904.5608782394628
 21
720.8919290078657
 31
0.0
  0
LINE
  5
387
330
1F
100
AcDbEntity
  8
C-A
  6
Continuous
 62
     3
370
     9
100
AcDbLine
 10
-899.6111406906346
 20
726.8922036660689
 30
0.0
 11
-899.6111406906346
 21
720.8919290078657
 31
0.0
  0
LINE
  5
388
330
1F
100
AcDbEntity
  8
C-A
  6
Continuous
 62
     3
370
     9
100
AcDbLine
 10
-829.5097307785252
 20
726.8922036660689
 30
0.0
 11
-829.5097307785252
 21
720.8919290078657
 31
0.0
  0
LINE
  5
389
330
1F
100
AcDbEntity
  8
C-A
  6
Continuous
 62
     3
370
     9
100
AcDbLine
 10
-824.5600237472752
 20
726.8922036660689
 30
0.0
 11
-824.5600237472752
 21
720.8919290078657
 31
0.0
  0
LINE
  5
38A
330
1F
100
AcDbEntity
  8
C-A
  6
Continuous
 62
     3
370
     9
100
AcDbLine
 10
-819.6107744796972
 20
726.8922036660689
 30
0.0
 11
-819.6107744796972
 21
720.8919290078657
 31
0.0
  0
LINE
  5
38B
330
1F
100
AcDbEntity
  8
C-A
  6
Continuous
 62
     3
370
     9
100
AcDbLine
 10
-749.5103716476659
 20
726.8922036660689
 30
0.0
 11
-749.5103716476659
 21
720.8919290078657
 31
0.0
  0
LINE
  5
38C
330
1F
100
AcDbEntity
  8
C-A
  6
Continuous
 62
     3
370
     9
100
AcDbLine
 10
-744.5606340988377
 20
726.8922036660689
 30
0.0
 11
-744.5606340988377
 21
720.8919290078657
 31
0.0
  0
LINE
  5
38D
330
1F
100
AcDbEntity
  8
C-A
  6
Continuous
 62
     3
370
     9
100
AcDbLine
 10
-739.6108965500096
 20
726.8922036660689
 30
0.0
 11
-739.6108965500096
 21
720.8919290078657
 31
0.0
  0
LINE
  5
38E
330
1F
100
AcDbEntity
  8
C-A
  6
Continuous
 62
     3
370
     9
100
AcDbLine
 10
-989.5099901779395
 20
712.8921121133345
 30
0.0
 11
-989.5099901779395
 21
706.8922341836469
 31
0.0
  0
LINE
  5
38F
330
1F
100
AcDbEntity
  8
C-A
  6
Continuous
 62
     3
370
     9
100
AcDbLine
 10
-984.5602526291111
 20
712.8921121133345
 30
0.0
 11
-984.5602526291111
 21
706.8922341836469
 31
0.0
  0
LINE
  5
390
330
1F
100
AcDbEntity
  8
C-A
  6
Continuous
 62
     3
370
     9
100
AcDbLine
 10
-979.610530339072
 20
712.8921121133345
 30
0.0
 11
-979.610530339072
 21
706.8922341836469
 31
0.0
  0
LINE
  5
391
330
1F
100
AcDbEntity
  8
C-A
  6
Continuous
 62
     3
370
     9
100
AcDbLine
 10
-909.5101122482517
 20
712.8921121133345
 30
0.0
 11
-909.5101122482517
 21
706.8922341836469
 31
0.0
  0
LINE
  5
392
330
1F
100
AcDbEntity
  8
C-A
  6
Continuous
 62
     3
370
     9
100
AcDbLine
 10
-904.5608782394628
 20
712.8921121133345
 30
0.0
 11
-904.5608782394628
 21
706.8922341836469
 31
0.0
  0
LINE
  5
393
330
1F
100
AcDbEntity
  8
C-A
  6
Continuous
 62
     3
370
     9
100
AcDbLine
 10
-899.6111406906346
 20
712.8921121133345
 30
0.0
 11
-899.6111406906346
 21
706.8922341836469
 31
0.0
  0
LINE
  5
394
330
1F
100
AcDbEntity
  8
C-A
  6
Continuous
 62
     3
370
     9
100
AcDbLine
 10
-829.5097307785252
 20
712.8921121133345
 30
0.0
 11
-829.5097307785252
 21
706.8922341836469
 31
0.0
  0
LINE
  5
395
330
1F
100
AcDbEntity
  8
C-A
  6
Continuous
 62
     3
370
     9
100
AcDbLine
 10
-824.5600237472752
 20
712.8921121133345
 30
0.0
 11
-824.5600237472752
 21
706.8922341836469
 31
0.0
  0
LINE
  5
396
330
1F
100
AcDbEntity
  8
C-A
  6
Continuous
 62
     3
370
     9
100
AcDbLine
 10
-819.6107744796972
 20
712.8921121133345
 30
0.0
 11
-819.6107744796972
 21
706.8922341836469
 31
0.0
  0
LINE
  5
397
330
1F
100
AcDbEntity
  8
C-A
  6
Continuous
 62
     3
370
     9
100
AcDbLine
 10
-749.5103716476659
 20
712.8921121133345
 30
0.0
 11
-749.5103716476659
 21
706.8922341836469
 31
0.0
  0
LINE
  5
398
330
1F
100
AcDbEntity
  8
C-A
  6
Continuous
 62
     3
370
     9
100
AcDbLine
 10
-744.5606340988377
 20
712.8921121133345
 30
0.0
 11
-744.5606340988377
 21
706.8922341836469
 31
0.0
  0
LINE
  5
399
330
1F
100
AcDbEntity
  8
C-A
  6
Continuous
 62
     3
370
     9
100
AcDbLine
 10
-739.6108965500096
 20
712.8921121133345
 30
0.0
 11
-739.6108965500096
 21
706.8922341836469
 31
0.0
  0
LINE
  5
39A
330
1F
100
AcDbEntity
  8
C-A
  6
Continuous
 62
     3
370
     9
100
AcDbLine
 10
-989.5099901779395
 20
698.892264701225
 30
0.0
 11
-989.5099901779395
 21
692.8920205606
 31
0.0
  0
LINE
  5
39B
330
1F
100
AcDbEntity
  8
C-A
  6
Continuous
 62
     3
370
     9
100
AcDbLine
 10
-984.5602526291111
 20
698.892264701225
 30
0.0
 11
-984.5602526291111
 21
692.8920205606
 31
0.0
  0
LINE
  5
39C
330
1F
100
AcDbEntity
  8
C-A
  6
Continuous
 62
     3
370
     9
100
AcDbLine
 10
-979.610530339072
 20
698.892264701225
 30
0.0
 11
-979.610530339072
 21
692.8920205606
 31
0.0
  0
LINE
  5
39D
330
1F
100
AcDbEntity
  8
C-A
  6
Continuous
 62
     3
370
     9
100
AcDbLine
 10
-909.5101122482517
 20
698.892264701225
 30
0.0
 11
-909.5101122482517
 21
692.8920205606
 31
0.0
  0
LINE
  5
39E
330
1F
100
AcDbEntity
  8
C-A
  6
Continuous
 62
     3
370
     9
100
AcDbLine
 10
-904.5608782394628
 20
698.892264701225
 30
0.0
 11
-904.5608782394628
 21
692.8920205606
 31
0.0
  0
LINE
  5
39F
330
1F
100
AcDbEntity
  8
C-A
  6
Continuous
 62
     3
370
     9
100
AcDbLine
 10
-899.6111406906346
 20
698.892264701225
 30
0.0
 11
-899.6111406906346
 21
692.8920205606
 31
0.0
  0
LINE
  5
3A0
330
1F
100
AcDbEntity
  8
C-A
  6
Continuous
 62
     3
370
     9
100
AcDbLine
 10
-829.5097307785252
 20
698.892264701225
 30
0.0
 11
-829.5097307785252
 21
692.8920205606
 31
0.0
  0
LINE
  5
3A1
330
1F
100
AcDbEntity
  8
C-A
  6
Continuous
 62
     3
370
     9
100
AcDbLine
 10
-824.5600237472752
 20
698.892264701225
 30
0.0
 11
-824.5600237472752
 21
692.8920205606
 31
0.0
  0
LINE
  5
3A2
330
1F
100
AcDbEntity
  8
C-A
  6
Continuous
 62
     3
370
     9
100
AcDbLine
 10
-819.6107744796972
 20
698.892264701225
 30
0.0
 11
-819.6107744796972
 21
692.8920205606
 31
0.0
  0
LINE
  5
3A3
330
1F
100
AcDbEntity
  8
C-A
  6
Continuous
 62
     3
370
     9
100
AcDbLine
 10
-749.5103716476659
 20
698.892264701225
 30
0.0
 11
-749.5103716476659
 21
692.8920205606
 31
0.0
  0
LINE
  5
3A4
330
1F
100
AcDbEntity
  8
C-A
  6
Continuous
 62
     3
370
     9
100
AcDbLine
 10
-744.5606340988377
 20
698.892264701225
 30
0.0
 11
-744.5606340988377
 21
692.8920205606
 31
0.0
  0
LINE
  5
3A5
330
1F
100
AcDbEntity
  8
C-A
  6
Continuous
 62
     3
370
     9
100
AcDbLine
 10
-739.6108965500096
 20
698.892264701225
 30
0.0
 11
-739.6108965500096
 21
692.8920205606
 31
0.0
  0
LINE
  5
3A6
330
1F
100
AcDbEntity
  8
C-A
  6
Continuous
 62
     3
370
     9
100
AcDbLine
 10
-989.5099901779395
 20
684.8921731484907
 30
0.0
 11
-989.5099901779395
 21
678.8922952188032
 31
0.0
  0
LINE
  5
3A7
330
1F
100
AcDbEntity
  8
C-A
  6
Continuous
 62
     3
370
     9
100
AcDbLine
 10
-984.5602526291111
 20
684.8921731484907
 30
0.0
 11
-984.5602526291111
 21
678.8922952188032
 31
0.0
  0
LINE
  5
3A8
330
1F
100
AcDbEntity
  8
C-A
  6
Continuous
 62
     3
370
     9
100
AcDbLine
 10
-979.610530339072
 20
684.8921731484907
 30
0.0
 11
-979.610530339072
 21
678.8922952188032
 31
0.0
  0
LINE
  5
3A9
330
1F
100
AcDbEntity
  8
C-A
  6
Continuous
 62
     3
370
     9
100
AcDbLine
 10
-909.5101122482517
 20
684.8921731484907
 30
0.0
 11
-909.5101122482517
 21
678.8922952188032
 31
0.0
  0
LINE
  5
3AA
330
1F
100
AcDbEntity
  8
C-A
  6
Continuous
 62
     3
370
     9
100
AcDbLine
 10
-904.5608782394628
 20
684.8921731484907
 30
0.0
 11
-904.5608782394628
 21
678.8922952188032
 31
0.0
  0
LINE
  5
3AB
330
1F
100
AcDbEntity
  8
C-A
  6
Continuous
 62
     3
370
     9
100
AcDbLine
 10
-899.6111406906346
 20
684.8921731484907
 30
0.0
 11
-899.6111406906346
 21
678.8922952188032
 31
0.0
  0
LINE
  5
3AC
330
1F
100
AcDbEntity
  8
C-A
  6
Continuous
 62
     3
370
     9
100
AcDbLine
 10
-829.5097307785252
 20
684.8921731484907
 30
0.0
 11
-829.5097307785252
 21
678.8922952188032
 31
0.0
  0
LINE
  5
3AD
330
1F
100
AcDbEntity
  8
C-A
  6
Continuous
 62
     3
370
     9
100
AcDbLine
 10
-824.5600237472752
 20
684.8921731484907
 30
0.0
 11
-824.5600237472752
 21
678.8922952188032
 31
0.0
  0
LINE
  5
3AE
330
1F
100
AcDbEntity
  8
C-A
  6
Continuous
 62
     3
370
     9
100
AcDbLine
 10
-819.6107744796972
 20
684.8921731484907
 30
0.0
 11
-819.6107744796972
 21
678.8922952188032
 31
0.0
  0
LINE
  5
3AF
330
1F
100
AcDbEntity
  8
C-A
  6
Continuous
 62
     3
370
     9
100
AcDbLine
 10
-749.5103716476659
 20
684.8921731484907
 30
0.0
 11
-749.5103716476659
 21
678.8922952188032
 31
0.0
  0
LINE
  5
3B0
330
1F
100
AcDbEntity
  8
C-A
  6
Continuous
 62
     3
370
     9
100
AcDbLine
 10
-744.5606340988377
 20
684.8921731484907
 30
0.0
 11
-744.5606340988377
 21
678.8922952188032
 31
0.0
  0
LINE
  5
3B1
330
1F
100
AcDbEntity
  8
C-A
  6
Continuous
 62
     3
370
     9
100
AcDbLine
 10
-739.6108965500096
 20
684.8921731484907
 30
0.0
 11
-739.6108965500096
 21
678.8922952188032
 31
0.0
  0
LINE
  5
3B2
330
1F
100
AcDbEntity
  8
C-A
  6
Continuous
 62
     3
370
     9
100
AcDbLine
 10
-989.5099901779395
 20
670.8924478066938
 30
0.0
 11
-989.5099901779395
 21
664.8922036660688
 31
0.0
  0
LINE
  5
3B3
330
1F
100
AcDbEntity
  8
C-A
  6
Continuous
 62
     3
370
     9
100
AcDbLine
 10
-984.5602526291111
 20
670.8924478066938
 30
0.0
 11
-984.5602526291111
 21
664.8922036660688
 31
0.0
  0
LINE
  5
3B4
330
1F
100
AcDbEntity
  8
C-A
  6
Continuous
 62
     3
370
     9
100
AcDbLine
 10
-979.610530339072
 20
670.8924478066938
 30
0.0
 11
-979.610530339072
 21
664.8922036660688
 31
0.0
  0
LINE
  5
3B5
330
1F
100
AcDbEntity
  8
C-A
  6
Continuous
 62
     3
370
     9
100
AcDbLine
 10
-909.5101122482517
 20
670.8924478066938
 30
0.0
 11
-909.5101122482517
 21
664.8922036660688
 31
0.0
  0
LINE
  5
3B6
330
1F
100
AcDbEntity
  8
C-A
  6
Continuous
 62
     3
370
     9
100
AcDbLine
 10
-904.5608782394628
 20
670.8924478066938
 30
0.0
 11
-904.5608782394628
 21
664.8922036660688
 31
0.0
  0
LINE
  5
3B7
330
1F
100
AcDbEntity
  8
C-A
  6
Continuous
 62
     3
370
     9
100
AcDbLine
 10
-899.6111406906346
 20
670.8924478066938
 30
0.0
 11
-899.6111406906346
 21
664.8922036660688
 31
0.0
  0
LINE
  5
3B8
330
1F
100
AcDbEntity
  8
C-A
  6
Continuous
 62
     3
370
     9
100
AcDbLine
 10
-829.5097307785252
 20
670.8924478066938
 30
0.0
 11
-829.5097307785252
 21
664.8922036660688
 31
0.0
  0
LINE
  5
3B9
330
1F
100
AcDbEntity
  8
C-A
  6
Continuous
 62
     3
370
     9
100
AcDbLine
 10
-824.5600237472752
 20
670.8924478066938
 30
0.0
 11
-824.5600237472752
 21
664.8922036660688
 31
0.0
  0
LINE
  5
3BA
330
1F
100
AcDbEntity
  8
C-A
  6
Continuous
 62
     3
370
     9
100
AcDbLine
 10
-819.6107744796972
 20
670.8924478066938
 30
0.0
 11
-819.6107744796972
 21
664.8922036660688
 31
0.0
  0
LINE
  5
3BB
330
1F
100
AcDbEntity
  8
C-A
  6
Continuous
 62
     3
370
     9
100
AcDbLine
 10
-989.5099901779395
 20
656.8922341836469
 30
0.0
 11
-989.5099901779395
 21
650.8919900430219
 31
0.0
  0
LINE
  5
3BC
330
1F
100
AcDbEntity
  8
C-A
  6
Continuous
 62
     3
370
     9
100
AcDbLine
 10
-984.5602526291111
 20
656.8922341836469
 30
0.0
 11
-984.5602526291111
 21
650.8919900430219
 31
0.0
  0
LINE
  5
3BD
330
1F
100
AcDbEntity
  8
C-A
  6
Continuous
 62
     3
370
     9
100
AcDbLine
 10
-979.610530339072
 20
656.8922341836469
 30
0.0
 11
-979.610530339072
 21
650.8919900430219
 31
0.0
  0
LINE
  5
3BE
330
1F
100
AcDbEntity
  8
C-A
  6
Continuous
 62
     3
370
     9
100
AcDbLine
 10
-909.5101122482517
 20
656.8922341836469
 30
0.0
 11
-909.5101122482517
 21
650.8919900430219
 31
0.0
  0
LINE
  5
3BF
330
1F
100
AcDbEntity
  8
C-A
  6
Continuous
 62
     3
370
     9
100
AcDbLine
 10
-904.5608782394628
 20
656.8922341836469
 30
0.0
 11
-904.5608782394628
 21
650.8919900430219
 31
0.0
  0
LINE
  5
3C0
330
1F
100
AcDbEntity
  8
C-A
  6
Continuous
 62
     3
370
     9
100
AcDbLine
 10
-899.6111406906346
 20
656.8922341836469
 30
0.0
 11
-899.6111406906346
 21
650.8919900430219
 31
0.0
  0
LINE
  5
3C1
330
1F
100
AcDbEntity
  8
C-A
  6
Continuous
 62
     3
370
     9
100
AcDbLine
 10
-829.5097307785252
 20
656.8922341836469
 30
0.0
 11
-829.5097307785252
 21
650.8919900430219
 31
0.0
  0
LINE
  5
3C2
330
1F
100
AcDbEntity
  8
C-A
  6
Continuous
 62
     3
370
     9
100
AcDbLine
 10
-824.5600237472752
 20
656.8922341836469
 30
0.0
 11
-824.5600237472752
 21
650.8919900430219
 31
0.0
  0
LINE
  5
3C3
330
1F
100
AcDbEntity
  8
C-A
  6
Continuous
 62
     3
370
     9
100
AcDbLine
 10
-819.6107744796972
 20
656.8922341836469
 30
0.0
 11
-819.6107744796972
 21
650.8919900430219
 31
0.0
  0
LINE
  5
3C4
330
1F
100
AcDbEntity
  8
C-A
  6
Continuous
 62
     3
370
     9
100
AcDbLine
 10
-989.5099901779395
 20
642.89250884185
 30
0.0
 11
-989.5099901779395
 21
636.892264701225
 31
0.0
  0
LINE
  5
3C5
330
1F
100
AcDbEntity
  8
C-A
  6
Continuous
 62
     3
370
     9
100
AcDbLine
 10
-984.5602526291111
 20
642.89250884185
 30
0.0
 11
-984.5602526291111
 21
636.892264701225
 31
0.0
  0
LINE
  5
3C6
330
1F
100
AcDbEntity
  8
C-A
  6
Continuous
 62
     3
370
     9
100
AcDbLine
 10
-979.610530339072
 20
642.89250884185
 30
0.0
 11
-979.610530339072
 21
636.892264701225
 31
0.0
  0
LINE
  5
3C7
330
1F
100
AcDbEntity
  8
C-A
  6
Continuous
 62
     3
370
     9
100
AcDbLine
 10
-909.5101122482517
 20
642.89250884185
 30
0.0
 11
-909.5101122482517
 21
636.892264701225
 31
0.0
  0
LINE
  5
3C8
330
1F
100
AcDbEntity
  8
C-A
  6
Continuous
 62
     3
370
     9
100
AcDbLine
 10
-904.5608782394628
 20
642.89250884185
 30
0.0
 11
-904.5608782394628
 21
636.892264701225
 31
0.0
  0
LINE
  5
3C9
330
1F
100
AcDbEntity
  8
C-A
  6
Continuous
 62
     3
370
     9
100
AcDbLine
 10
-899.6111406906346
 20
642.89250884185
 30
0.0
 11
-899.6111406906346
 21
636.892264701225
 31
0.0
  0
LINE
  5
3CA
330
1F
100
AcDbEntity
  8
C-A
  6
Continuous
 62
     3
370
     9
100
AcDbLine
 10
-829.5097307785252
 20
642.89250884185
 30
0.0
 11
-829.5097307785252
 21
636.892264701225
 31
0.0
  0
LINE
  5
3CB
330
1F
100
AcDbEntity
  8
C-A
  6
Continuous
 62
     3
370
     9
100
AcDbLine
 10
-824.5600237472752
 20
642.89250884185
 30
0.0
 11
-824.5600237472752
 21
636.892264701225
 31
0.0
  0
LINE
  5
3CC
330
1F
100
AcDbEntity
  8
C-A
  6
Continuous
 62
     3
370
     9
100
AcDbLine
 10
-819.6107744796972
 20
642.89250884185
 30
0.0
 11
-819.6107744796972
 21
636.892264701225
 31
0.0
  0
LINE
  5
3CD
330
1F
100
AcDbEntity
  8
C-A
  6
Continuous
 62
     3
370
     9
100
AcDbLine
 10
-989.5099901779395
 20
628.8924172891157
 30
0.0
 11
-989.5099901779395
 21
622.8921731484907
 31
0.0
  0
LINE
  5
3CE
330
1F
100
AcDbEntity
  8
C-A
  6
Continuous
 62
     3
370
     9
100
AcDbLine
 10
-984.5602526291111
 20
628.8924172891157
 30
0.0
 11
-984.5602526291111
 21
622.8921731484907
 31
0.0
  0
LINE
  5
3CF
330
1F
100
AcDbEntity
  8
C-A
  6
Continuous
 62
     3
370
     9
100
AcDbLine
 10
-979.610530339072
 20
628.8924172891157
 30
0.0
 11
-979.610530339072
 21
622.8921731484907
 31
0.0
  0
LINE
  5
3D0
330
1F
100
AcDbEntity
  8
C-A
  6
Continuous
 62
     3
370
     9
100
AcDbLine
 10
-909.5101122482517
 20
628.8924172891157
 30
0.0
 11
-909.5101122482517
 21
622.8921731484907
 31
0.0
  0
LINE
  5
3D1
330
1F
100
AcDbEntity
  8
C-A
  6
Continuous
 62
     3
370
     9
100
AcDbLine
 10
-904.5608782394628
 20
628.8924172891157
 30
0.0
 11
-904.5608782394628
 21
622.8921731484907
 31
0.0
  0
LINE
  5
3D2
330
1F
100
AcDbEntity
  8
C-A
  6
Continuous
 62
     3
370
     9
100
AcDbLine
 10
-899.6111406906346
 20
628.8924172891157
 30
0.0
 11
-899.6111406906346
 21
622.8921731484907
 31
0.0
  0
LINE
  5
3D3
330
1F
100
AcDbEntity
  8
C-A
  6
Continuous
 62
     3
370
     9
100
AcDbLine
 10
-829.5097307785252
 20
628.8924172891157
 30
0.0
 11
-829.5097307785252
 21
622.8921731484907
 31
0.0
  0
LINE
  5
3D4
330
1F
100
AcDbEntity
  8
C-A
  6
Continuous
 62
     3
370
     9
100
AcDbLine
 10
-824.5600237472752
 20
628.8924172891157
 30
0.0
 11
-824.5600237472752
 21
622.8921731484907
 31
0.0
  0
LINE
  5
3D5
330
1F
100
AcDbEntity
  8
C-A
  6
Continuous
 62
     3
370
     9
100
AcDbLine
 10
-819.6107744796972
 20
628.8924172891157
 30
0.0
 11
-819.6107744796972
 21
622.8921731484907
 31
0.0
  0
LINE
  5
3D6
330
1F
100
AcDbEntity
  8
C-A
  6
Continuous
 62
     3
370
     9
100
AcDbLine
 10
-989.5099901779395
 20
614.8922189248578
 30
0.0
 11
-989.5099901779395
 21
608.8923409951703
 31
0.0
  0
LINE
  5
3D7
330
1F
100
AcDbEntity
  8
C-A
  6
Continuous
 62
     3
370
     9
100
AcDbLine
 10
-984.5602526291111
 20
614.8922189248578
 30
0.0
 11
-984.5602526291111
 21
608.8923409951703
 31
0.0
  0
LINE
  5
3D8
330
1F
100
AcDbEntity
  8
C-A
  6
Continuous
 62
     3
370
     9
100
AcDbLine
 10
-979.610530339072
 20
614.8922189248578
 30
0.0
 11
-979.610530339072
 21
608.8923409951703
 31
0.0
  0
LINE
  5
3D9
330
1F
100
AcDbEntity
  8
C-A
  6
Continuous
 62
     3
370
     9
100
AcDbLine
 10
-909.5101122482517
 20
614.8922189248578
 30
0.0
 11
-909.5101122482517
 21
608.8923409951703
 31
0.0
  0
LINE
  5
3DA
330
1F
100
AcDbEntity
  8
C-A
  6
Continuous
 62
     3
370
     9
100
AcDbLine
 10
-904.5608782394628
 20
614.8922189248578
 30
0.0
 11
-904.5608782394628
 21
608.8923409951703
 31
0.0
  0
LINE
  5
3DB
330
1F
100
AcDbEntity
  8
C-A
  6
Continuous
 62
     3
370
     9
100
AcDbLine
 10
-899.6111406906346
 20
614.8922189248578
 30
0.0
 11
-899.6111406906346
 21
608.8923409951703
 31
0.0
  0
LINE
  5
3DC
330
1F
100
AcDbEntity
  8
C-A
  6
Continuous
 62
     3
370
     9
100
AcDbLine
 10
-829.5097307785252
 20
614.8922189248578
 30
0.0
 11
-829.5097307785252
 21
608.8923409951703
 31
0.0
  0
LINE
  5
3DD
330
1F
100
AcDbEntity
  8
C-A
  6
Continuous
 62
     3
370
     9
100
AcDbLine
 10
-824.5600237472752
 20
614.8922189248578
 30
0.0
 11
-824.5600237472752
 21
608.8923409951703
 31
0.0
  0
LINE
  5
3DE
330
1F
100
AcDbEntity
  8
C-A
  6
Continuous
 62
     3
370
     9
100
AcDbLine
 10
-819.6107744796972
 20
614.8922189248578
 30
0.0
 11
-819.6107744796972
 21
608.8923409951703
 31
0.0
  0
LINE
  5
3DF
330
1F
100
AcDbEntity
  8
C-A
  6
Continuous
 62
     3
370
     9
100
AcDbLine
 10
-989.5099901779395
 20
600.892493583061
 30
0.0
 11
-989.5099901779395
 21
594.892249442436
 31
0.0
  0
LINE
  5
3E0
330
1F
100
AcDbEntity
  8
C-A
  6
Continuous
 62
     3
370
     9
100
AcDbLine
 10
-984.5602526291111
 20
600.892493583061
 30
0.0
 11
-984.5602526291111
 21
594.892249442436
 31
0.0
  0
LINE
  5
3E1
330
1F
100
AcDbEntity
  8
C-A
  6
Continuous
 62
     3
370
     9
100
AcDbLine
 10
-979.610530339072
 20
600.892493583061
 30
0.0
 11
-979.610530339072
 21
594.892249442436
 31
0.0
  0
LINE
  5
3E2
330
1F
100
AcDbEntity
  8
C-A
  6
Continuous
 62
     3
370
     9
100
AcDbLine
 10
-909.5101122482517
 20
600.892493583061
 30
0.0
 11
-909.5101122482517
 21
594.892249442436
 31
0.0
  0
LINE
  5
3E3
330
1F
100
AcDbEntity
  8
C-A
  6
Continuous
 62
     3
370
     9
100
AcDbLine
 10
-904.5608782394628
 20
600.892493583061
 30
0.0
 11
-904.5608782394628
 21
594.892249442436
 31
0.0
  0
LINE
  5
3E4
330
1F
100
AcDbEntity
  8
C-A
  6
Continuous
 62
     3
370
     9
100
AcDbLine
 10
-899.6111406906346
 20
600.892493583061
 30
0.0
 11
-899.6111406906346
 21
594.892249442436
 31
0.0
  0
LINE
  5
3E5
330
1F
100
AcDbEntity
  8
C-A
  6
Continuous
 62
     3
370
     9
100
AcDbLine
 10
-829.5097307785252
 20
600.892493583061
 30
0.0
 11
-829.5097307785252
 21
594.892249442436
 31
0.0
  0
LINE
  5
3E6
330
1F
100
AcDbEntity
  8
C-A
  6
Continuous
 62
     3
370
     9
100
AcDbLine
 10
-824.5600237472752
 20
600.892493583061
 30
0.0
 11
-824.5600237472752
 21
594.892249442436
 31
0.0
  0
LINE
  5
3E7
330
1F
100
AcDbEntity
  8
C-A
  6
Continuous
 62
     3
370
     9
100
AcDbLine
 10
-819.6107744796972
 20
600.892493583061
 30
0.0
 11
-819.6107744796972
 21
594.892249442436
 31
0.0
  0
LINE
  5
3E8
330
1F
100
AcDbEntity
  8
C-A
  6
Continuous
 62
     3
370
     9
100
AcDbLine
 10
-989.5099901779395
 20
586.8924020303266
 30
0.0
 11
-989.5099901779395
 21
580.8925241006391
 31
0.0
  0
LINE
  5
3E9
330
1F
100
AcDbEntity
  8
C-A
  6
Continuous
 62
     3
370
     9
100
AcDbLine
 10
-984.5602526291111
 20
586.8924020303266
 30
0.0
 11
-984.5602526291111
 21
580.8925241006391
 31
0.0
  0
LINE
  5
3EA
330
1F
100
AcDbEntity
  8
C-A
  6
Continuous
 62
     3
370
     9
100
AcDbLine
 10
-979.610530339072
 20
586.8924020303266
 30
0.0
 11
-979.610530339072
 21
580.8925241006391
 31
0.0
  0
LINE
  5
3EB
330
1F
100
AcDbEntity
  8
C-A
  6
Continuous
 62
     3
370
     9
100
AcDbLine
 10
-909.5101122482517
 20
586.8924020303266
 30
0.0
 11
-909.5101122482517
 21
580.8925241006391
 31
0.0
  0
LINE
  5
3EC
330
1F
100
AcDbEntity
  8
C-A
  6
Continuous
 62
     3
370
     9
100
AcDbLine
 10
-904.5608782394628
 20
586.8924020303266
 30
0.0
 11
-904.5608782394628
 21
580.8925241006391
 31
0.0
  0
LINE
  5
3ED
330
1F
100
AcDbEntity
  8
C-A
  6
Continuous
 62
     3
370
     9
100
AcDbLine
 10
-899.6111406906346
 20
586.8924020303266
 30
0.0
 11
-899.6111406906346
 21
580.8925241006391
 31
0.0
  0
LINE
  5
3EE
330
1F
100
AcDbEntity
  8
C-A
  6
Continuous
 62
     3
370
     9
100
AcDbLine
 10
-829.5097307785252
 20
586.8924020303266
 30
0.0
 11
-829.5097307785252
 21
580.8925241006391
 31
0.0
  0
LINE
  5
3EF
330
1F
100
AcDbEntity
  8
C-A
  6
Continuous
 62
     3
370
     9
100
AcDbLine
 10
-824.5600237472752
 20
586.8924020303266
 30
0.0
 11
-824.5600237472752
 21
580.8925241006391
 31
0.0
  0
LINE
  5
3F0
330
1F
100
AcDbEntity
  8
C-A
  6
Continuous
 62
     3
370
     9
100
AcDbLine
 10
-819.6107744796972
 20
586.8924020303266
 30
0.0
 11
-819.6107744796972
 21
580.8925241006391
 31
0.0
  0
LINE
  5
3F1
330
1F
100
AcDbEntity
  8
C-A
  6
Continuous
 62
     3
370
     9
100
AcDbLine
 10
-989.5099901779395
 20
572.8925698770063
 30
0.0
 11
-989.5099901779395
 21
566.8923104775922
 31
0.0
  0
LINE
  5
3F2
330
1F
100
AcDbEntity
  8
C-A
  6
Continuous
 62
     3
370
     9
100
AcDbLine
 10
-984.5602526291111
 20
572.8925698770063
 30
0.0
 11
-984.5602526291111
 21
566.8923104775922
 31
0.0
  0
LINE
  5
3F3
330
1F
100
AcDbEntity
  8
C-A
  6
Continuous
 62
     3
370
     9
100
AcDbLine
 10
-979.610530339072
 20
572.8925698770063
 30
0.0
 11
-979.610530339072
 21
566.8923104775922
 31
0.0
  0
LINE
  5
3F4
330
1F
100
AcDbEntity
  8
C-A
  6
Continuous
 62
     3
370
     9
100
AcDbLine
 10
-909.5101122482517
 20
572.8925698770063
 30
0.0
 11
-909.5101122482517
 21
566.8923104775922
 31
0.0
  0
LINE
  5
3F5
330
1F
100
AcDbEntity
  8
C-A
  6
Continuous
 62
     3
370
     9
100
AcDbLine
 10
-904.5608782394628
 20
572.8925698770063
 30
0.0
 11
-904.5608782394628
 21
566.8923104775922
 31
0.0
  0
LINE
  5
3F6
330
1F
100
AcDbEntity
  8
C-A
  6
Continuous
 62
     3
370
     9
100
AcDbLine
 10
-899.6111406906346
 20
572.8925698770063
 30
0.0
 11
-899.6111406906346
 21
566.8923104775922
 31
0.0
  0
LINE
  5
3F7
330
1F
100
AcDbEntity
  8
C-A
  6
Continuous
 62
     3
370
     9
100
AcDbLine
 10
-829.5097307785252
 20
572.8925698770063
 30
0.0
 11
-829.5097307785252
 21
566.8923104775922
 31
0.0
  0
LINE
  5
3F8
330
1F
100
AcDbEntity
  8
C-A
  6
Continuous
 62
     3
370
     9
100
AcDbLine
 10
-824.5600237472752
 20
572.8925698770063
 30
0.0
 11
-824.5600237472752
 21
566.8923104775922
 31
0.0
  0
LINE
  5
3F9
330
1F
100
AcDbEntity
  8
C-A
  6
Continuous
 62
     3
370
     9
100
AcDbLine
 10
-819.6107744796972
 20
572.8925698770063
 30
0.0
 11
-819.6107744796972
 21
566.8923104775922
 31
0.0
  0
LINE
  5
3FA
330
1F
100
AcDbEntity
  8
C-A
  6
Continuous
 62
     3
370
     9
100
AcDbLine
 10
-989.5099901779395
 20
558.8924783242719
 30
0.0
 11
-989.5099901779395
 21
552.8926003945844
 31
0.0
  0
LINE
  5
3FB
330
1F
100
AcDbEntity
  8
C-A
  6
Continuous
 62
     3
370
     9
100
AcDbLine
 10
-984.5602526291111
 20
558.8924783242719
 30
0.0
 11
-984.5602526291111
 21
552.8926003945844
 31
0.0
  0
LINE
  5
3FC
330
1F
100
AcDbEntity
  8
C-A
  6
Continuous
 62
     3
370
     9
100
AcDbLine
 10
-979.610530339072
 20
558.8924783242719
 30
0.0
 11
-979.610530339072
 21
552.8926003945844
 31
0.0
  0
LINE
  5
3FD
330
1F
100
AcDbEntity
  8
C-A
  6
Continuous
 62
     3
370
     9
100
AcDbLine
 10
-909.5101122482517
 20
558.8924783242719
 30
0.0
 11
-909.5101122482517
 21
552.8926003945844
 31
0.0
  0
LINE
  5
3FE
330
1F
100
AcDbEntity
  8
C-A
  6
Continuous
 62
     3
370
     9
100
AcDbLine
 10
-904.5608782394628
 20
558.8924783242719
 30
0.0
 11
-904.5608782394628
 21
552.8926003945844
 31
0.0
  0
LINE
  5
3FF
330
1F
100
AcDbEntity
  8
C-A
  6
Continuous
 62
     3
370
     9
100
AcDbLine
 10
-899.6111406906346
 20
558.8924783242719
 30
0.0
 11
-899.6111406906346
 21
552.8926003945844
 31
0.0
  0
LINE
  5
400
330
1F
100
AcDbEntity
  8
C-A
  6
Continuous
 62
     3
370
     9
100
AcDbLine
 10
-829.5097307785252
 20
558.8924783242719
 30
0.0
 11
-829.5097307785252
 21
552.8926003945844
 31
0.0
  0
LINE
  5
401
330
1F
100
AcDbEntity
  8
C-A
  6
Continuous
 62
     3
370
     9
100
AcDbLine
 10
-824.5600237472752
 20
558.8924783242719
 30
0.0
 11
-824.5600237472752
 21
552.8926003945844
 31
0.0
  0
LINE
  5
402
330
1F
100
AcDbEntity
  8
C-A
  6
Continuous
 62
     3
370
     9
100
AcDbLine
 10
-819.6107744796972
 20
558.8924783242719
 30
0.0
 11
-819.6107744796972
 21
552.8926003945844
 31
0.0
  0
LWPOLYLINE
  5
403
330
1F
100
AcDbEntity
  8
C-4
  6
Continuous
 62
     7
370
     9
100
AcDbPolyline
 90
        4
 70
     1
 43
1.0
 10
-689.0601153000097
 20
1044.891227103569
 42
0.4142135623731
 10
-689.5601153000097
 20
1045.391227103569
 42
0.4142135623731
 10
-690.0601153000096
 20
1044.891227103569
 42
0.4142135623731
 10
-689.5601153000097
 20
1044.391227103569
 42
0.4142135623731
  0
LWPOLYLINE
  5
404
330
1F
100
AcDbEntity
  8
C-4
  6
Continuous
 62
     7
370
     9
100
AcDbPolyline
 90
        4
 70
     1
 43
1.0
 10
-664.0602678879003
 20
1119.891227103569
 42
0.4142135623731
 10
-664.5602678879003
 20
1120.391227103569
 42
0.4142135623731
 10
-665.0602678879002
 20
1119.891227103569
 42
0.4142135623731
 10
-664.5602678879003
 20
1119.391227103569
 42
0.4142135623731
  0
LWPOLYLINE
  5
405
330
1F
100
AcDbEntity
  8
C-4
  6
Continuous
 62
     7
370
     9
100
AcDbPolyline
 90
        4
 70
     1
 43
1.0
 10
-663.0603899582128
 20
1119.891227103569
 42
0.4142135623731
 10
-663.5603899582128
 20
1120.391227103569
 42
0.4142135623731
 10
-664.0603899582128
 20
1119.891227103569
 42
0.4142135623731
 10
-663.5603899582128
 20
1119.391227103569
 42
0.4142135623731
  0
LWPOLYLINE
  5
406
330
1F
100
AcDbEntity
  8
C-4
  6
Continuous
 62
     7
370
     9
100
AcDbPolyline
 90
        4
 70
     1
 43
1.0
 10
-664.0602678879003
 20
1044.891227103569
 42
0.4142135623731
 10
-664.5602678879003
 20
1045.391227103569
 42
0.4142135623731
 10
-665.0602678879002
 20
1044.891227103569
 42
0.4142135623731
 10
-664.5602678879003
 20
1044.391227103569
 42
0.4142135623731
  0
LWPOLYLINE
  5
407
330
1F
100
AcDbEntity
  8
C-4
  6
Continuous
 62
     7
370
     9
100
AcDbPolyline
 90
        4
 70
     1
 43
1.0
 10
-1039.0602678879
 20
1044.891227103569
 42
0.4142135623731
 10
-1039.5602678879
 20
1045.391227103569
 42
0.4142135623731
 10
-1040.0602678879
 20
1044.891227103569
 42
0.4142135623731
 10
-1039.5602678879
 20
1044.391227103569
 42
0.4142135623731
  0
LWPOLYLINE
  5
408
330
1F
100
AcDbEntity
  8
C-4
  6
Continuous
 62
     7
370
     9
100
AcDbPolyline
 90
        4
 70
     1
 43
1.0
 10
-1064.060138188193
 20
1044.891227103569
 42
0.4142135623731
 10
-1064.560138188193
 20
1045.391227103569
 42
0.4142135623731
 10
-1065.060138188193
 20
1044.891227103569
 42
0.4142135623731
 10
-1064.560138188193
 20
1044.391227103569
 42
0.4142135623731
  0
LWPOLYLINE
  5
409
330
1F
100
AcDbEntity
  8
C-4
  6
Continuous
 62
     7
370
     9
100
AcDbPolyline
 90
        4
 70
     1
 43
1.0
 10
-1064.060138188193
 20
1119.891227103569
 42
0.4142135623731
 10
-1064.560138188193
 20
1120.391227103569
 42
0.4142135623731
 10
-1065.060138188193
 20
1119.891227103569
 42
0.4142135623731
 10
-1064.560138188193
 20
1119.391227103569
 42
0.4142135623731
  0
LWPOLYLINE
  5
40A
330
1F
100
AcDbEntity
  8
C-4
  6
Continuous
 62
     7
370
     9
100
AcDbPolyline
 90
        4
 70
     1
 43
1.0
 10
-1065.060489140342
 20
1119.891227103569
 42
0.4142135623731
 10
-1065.560489140342
 20
1120.391227103569
 42
0.4142135623731
 10
-1066.060489140342
 20
1119.891227103569
 42
0.4142135623731
 10
-1065.560489140342
 20
1119.391227103569
 42
0.4142135623731
  0
TEXT
  5
40B
330
1F
100
AcDbEntity
  8
C-5
  6
Continuous
 62
     2
370
     9
100
AcDbText
 10
-1132.060327015708
 20
390.0314626611249
 30
0.0
 40
30.48
  1
平面詳細図　Ｓ＝１：１０
 41
1.114583333333333
  7
ＭＳ ゴシック
100
AcDbText
  0
TEXT
  5
40C
330
1F
100
AcDbEntity
  8
C-4
  6
Continuous
 62
     2
370
     9
100
AcDbText
 10
-698.8194536789159
 20
1130.531227103569
 30
0.0
 40
30.48
  1
1
 41
0.9999999999999998
  7
ＭＳ ゴシック
100
AcDbText
  0
TEXT
  5
40D
330
1F
100
AcDbEntity
  8
C-4
  6
Continuous
 62
     2
370
     9
100
AcDbText
 10
-724.5342669113377
 20
1055.531288138725
 30
0.0
 40
30.48
  1
25
 41
1.0625
  7
ＭＳ ゴシック
100
AcDbText
  0
TEXT
  5
40E
330
1F
100
AcDbEntity
  8
C-4
  6
Continuous
 62
     2
370
     9
100
AcDbText
 10
-1050.69097467501
 20
1055.531288138725
 30
0.0
 40
30.48
  1
25
 41
1.0625
  7
ＭＳ ゴシック
100
AcDbText
  0
TEXT
  5
40F
330
1F
100
AcDbEntity
  8
C-4
  6
Continuous
 62
     2
370
     9
100
AcDbText
 10
-1053.054362736533
 20
1130.531227103569
 30
0.0
 40
30.48
  1
1
 41
0.9999999999999998
  7
ＭＳ ゴシック
100
AcDbText
  0
TEXT
  5
410
330
1F
100
AcDbEntity
  8
C-4
  6
Continuous
 62
     2
370
     9
100
AcDbText
 10
-897.060466252158
 20
1055.531288138725
 30
0.0
 40
30.48
  1
350
 41
1.083333333333333
  7
ＭＳ ゴシック
100
AcDbText
  0
TEXT
  5
411
330
1F
100
AcDbEntity
  8
C-4
  6
Continuous
 62
     2
370
     9
100
AcDbText
 10
-897.060466252158
 20
1130.531227103569
 30
0.0
 40
30.48
  1
400
 41
1.083333333333333
  7
ＭＳ ゴシック
100
AcDbText
  0
LINE
  5
412
330
1F
100
AcDbEntity
  8
C-4
  6
Continuous
 62
     7
370
     9
100
AcDbLine
 10
-1114.172130070517
 20
1119.891227103569
 30
0.0
 11
-1065.560489140342
 21
1119.891227103569
 31
0.0
  0
LINE
  5
413
330
1F
100
AcDbEntity
  8
C-4
  6
Continuous
 62
     7
370
     9
100
AcDbLine
 10
-1070.560473881553
 20
1197.891166068413
 30
0.0
 11
-1070.560473881553
 21
982.8913491738814
 31
0.0
  0
LWPOLYLINE
  5
414
330
1F
100
AcDbEntity
  8
C-4
  6
Continuous
 62
     7
370
     9
100
AcDbPolyline
 90
        4
 70
     1
 43
1.0
 10
-1070.060473881553
 20
1194.891349173881
 42
0.4142135623731
 10
-1070.560473881553
 20
1195.391349173881
 42
0.4142135623731
 10
-1071.060473881553
 20
1194.891349173881
 42
0.4142135623731
 10
-1070.560473881553
 20
1194.391349173881
 42
0.4142135623731
  0
LWPOLYLINE
  5
415
330
1F
100
AcDbEntity
  8
C-4
  6
Continuous
 62
     7
370
     9
100
AcDbPolyline
 90
        4
 70
     1
 43
1.0
 10
-1070.060473881553
 20
1119.891227103569
 42
0.4142135623731
 10
-1070.560473881553
 20
1120.391227103569
 42
0.4142135623731
 10
-1071.060473881553
 20
1119.891227103569
 42
0.4142135623731
 10
-1070.560473881553
 20
1119.391227103569
 42
0.4142135623731
  0
LINE
  5
416
330
1F
100
AcDbEntity
  8
C-4
  6
Continuous
 62
     7
370
     9
100
AcDbLine
 10
-663.5603899582128
 20
1119.891227103569
 30
0.0
 11
-614.0851397140722
 21
1119.891227103569
 31
0.0
  0
LINE
  5
417
330
1F
100
AcDbEntity
  8
C-4
  6
Continuous
 62
     7
370
     9
100
AcDbLine
 10
-658.5604204757908
 20
1197.891166068413
 30
0.0
 11
-658.5604204757908
 21
982.8913491738814
 31
0.0
  0
LWPOLYLINE
  5
418
330
1F
100
AcDbEntity
  8
C-4
  6
Continuous
 62
     7
370
     9
100
AcDbPolyline
 90
        4
 70
     1
 43
1.0
 10
-658.0604204757908
 20
1119.891227103569
 42
0.4142135623731
 10
-658.5604204757908
 20
1120.391227103569
 42
0.4142135623731
 10
-659.0604204757908
 20
1119.891227103569
 42
0.4142135623731
 10
-658.5604204757908
 20
1119.391227103569
 42
0.4142135623731
  0
LWPOLYLINE
  5
419
330
1F
100
AcDbEntity
  8
C-4
  6
Continuous
 62
     7
370
     9
100
AcDbPolyline
 90
        4
 70
     1
 43
1.0
 10
-658.0604204757908
 20
1194.891349173881
 42
0.4142135623731
 10
-658.5604204757908
 20
1195.391349173881
 42
0.4142135623731
 10
-659.0604204757908
 20
1194.891349173881
 42
0.4142135623731
 10
-658.5604204757908
 20
1194.391349173881
 42
0.4142135623731
  0
LINE
  5
41A
330
1F
100
AcDbEntity
  8
C-4
  6
Continuous
 62
     7
370
     9
100
AcDbLine
 10
-1114.172130070517
 20
1119.891227103569
 30
0.0
 11
-614.0851397140722
 21
1119.891227103569
 31
0.0
  0
LINE
  5
41B
330
1F
100
AcDbEntity
  8
C-4
  6
Continuous
 62
     7
370
     9
100
AcDbLine
 10
-1070.560473881553
 20
1194.891349173881
 30
0.0
 11
-658.5604204757908
 21
1194.891349173881
 31
0.0
  0
LINE
  5
41C
330
1F
100
AcDbEntity
  8
C-1
  6
Continuous
 62
     2
370
     9
100
AcDbLine
 10
-1070.560473881553
 20
950.8914712441937
 30
0.0
 11
-658.5604204757908
 21
950.8914712441937
 31
0.0
  0
LINE
  5
41D
330
1F
100
AcDbEntity
  8
C-1
  6
Continuous
 62
     2
370
     9
100
AcDbLine
 10
-1070.560473881553
 20
538.8918069375532
 30
0.0
 11
-658.5604204757908
 21
538.8918069375532
 31
0.0
  0
LINE
  5
41E
330
1F
100
AcDbEntity
  8
C-1
  6
Continuous
 62
     2
370
     9
100
AcDbLine
 10
-1070.560473881553
 20
950.8914712441937
 30
0.0
 11
-1070.560473881553
 21
538.8918069375532
 31
0.0
  0
TEXT
  5
41F
330
1F
100
AcDbEntity
  8
C-4
  6
Continuous
 62
     2
370
     9
100
AcDbText
 10
-1097.990532949299
 20
1130.531227103569
 30
0.0
 40
30.48
  1
5
 41
0.9999999999999998
  7
ＭＳ ゴシック
100
AcDbText
  0
TEXT
  5
420
330
1F
100
AcDbEntity
  8
C-4
  6
Continuous
 62
     2
370
     9
100
AcDbText
 10
-897.060466252158
 20
1202.928390224136
 30
0.0
 40
30.48
  1
412
 41
1.083333333333333
  7
ＭＳ ゴシック
100
AcDbText
  0
LINE
  5
421
330
1F
100
AcDbEntity
  8
C-4
  6
Continuous
 62
     7
370
     9
100
AcDbLine
 10
-1176.564477232293
 20
544.8921426309125
 30
0.0
 11
-1176.564477232293
 21
569.8920129312056
 31
0.0
  0
LINE
  5
422
330
1F
100
AcDbEntity
  8
C-4
  6
Continuous
 62
     7
370
     9
100
AcDbLine
 10
-1251.564477232293
 20
543.8917916787642
 30
0.0
 11
-1251.564477232293
 21
544.8921426309125
 31
0.0
  0
LINE
  5
423
330
1F
100
AcDbEntity
  8
C-4
  6
Continuous
 62
     7
370
     9
100
AcDbLine
 10
-1251.564477232293
 20
544.8921426309125
 30
0.0
 11
-1251.564477232293
 21
944.8920129312055
 31
0.0
  0
LINE
  5
424
330
1F
100
AcDbEntity
  8
C-4
  6
Continuous
 62
     7
370
     9
100
AcDbLine
 10
-1176.564477232293
 20
569.8920129312056
 30
0.0
 11
-1176.564477232293
 21
919.8921655190961
 31
0.0
  0
LINE
  5
425
330
1F
100
AcDbEntity
  8
C-4
  6
Continuous
 62
     7
370
     9
100
AcDbLine
 10
-1179.564416197136
 20
919.8921655190961
 30
0.0
 11
-1114.564599302605
 21
919.8921655190961
 31
0.0
  0
LINE
  5
426
330
1F
100
AcDbEntity
  8
C-4
  6
Continuous
 62
     7
370
     9
100
AcDbLine
 10
-1254.564538267449
 20
944.8920129312055
 30
0.0
 11
-1114.564599302605
 21
944.8920129312055
 31
0.0
  0
LINE
  5
427
330
1F
100
AcDbEntity
  8
C-4
  6
Continuous
 62
     7
370
     9
100
AcDbLine
 10
-1254.564538267449
 20
945.891890860893
 30
0.0
 11
-1114.564599302605
 21
945.891890860893
 31
0.0
  0
LINE
  5
428
330
1F
100
AcDbEntity
  8
C-4
  6
Continuous
 62
     7
370
     9
100
AcDbLine
 10
-1176.564477232293
 20
544.8921426309125
 30
0.0
 11
-1176.564477232293
 21
944.8920129312055
 31
0.0
  0
LINE
  5
429
330
1F
100
AcDbEntity
  8
C-4
  6
Continuous
 62
     7
370
     9
100
AcDbLine
 10
-1254.564538267449
 20
544.8921426309125
 30
0.0
 11
-1114.564599302605
 21
544.8921426309125
 31
0.0
  0
LINE
  5
42A
330
1F
100
AcDbEntity
  8
C-4
  6
Continuous
 62
     7
370
     9
100
AcDbLine
 10
-1254.564538267449
 20
543.8917916787642
 30
0.0
 11
-1114.564599302605
 21
543.8917916787642
 31
0.0
  0
LINE
  5
42B
330
1F
100
AcDbEntity
  8
C-4
  6
Continuous
 62
     7
370
     9
100
AcDbLine
 10
-1179.564416197136
 20
569.8920129312056
 30
0.0
 11
-1114.564599302605
 21
569.8920129312056
 31
0.0
  0
LWPOLYLINE
  5
42C
330
1F
100
AcDbEntity
  8
C-4
  6
Continuous
 62
     7
370
     9
100
AcDbPolyline
 90
        4
 70
     1
 43
1.0
 10
-1176.064477232293
 20
919.8921655190961
 42
0.4142135623731
 10
-1176.564477232293
 20
920.392165519096
 42
0.4142135623731
 10
-1177.064477232293
 20
919.8921655190961
 42
0.4142135623731
 10
-1176.564477232293
 20
919.3921655190961
 42
0.4142135623731
  0
LWPOLYLINE
  5
42D
330
1F
100
AcDbEntity
  8
C-4
  6
Continuous
 62
     7
370
     9
100
AcDbPolyline
 90
        4
 70
     1
 43
1.0
 10
-1251.064477232293
 20
944.8920129312055
 42
0.4142135623731
 10
-1251.564477232293
 20
945.3920129312054
 42
0.4142135623731
 10
-1252.064477232293
 20
944.8920129312055
 42
0.4142135623731
 10
-1251.564477232293
 20
944.3920129312055
 42
0.4142135623731
  0
LWPOLYLINE
  5
42E
330
1F
100
AcDbEntity
  8
C-4
  6
Continuous
 62
     7
370
     9
100
AcDbPolyline
 90
        4
 70
     1
 43
1.0
 10
-1251.064477232293
 20
945.891890860893
 42
0.4142135623731
 10
-1251.564477232293
 20
946.391890860893
 42
0.4142135623731
 10
-1252.064477232293
 20
945.891890860893
 42
0.4142135623731
 10
-1251.564477232293
 20
945.3918908608931
 42
0.4142135623731
  0
LWPOLYLINE
  5
42F
330
1F
100
AcDbEntity
  8
C-4
  6
Continuous
 62
     7
370
     9
100
AcDbPolyline
 90
        4
 70
     1
 43
1.0
 10
-1176.064477232293
 20
944.8920129312055
 42
0.4142135623731
 10
-1176.564477232293
 20
945.3920129312054
 42
0.4142135623731
 10
-1177.064477232293
 20
944.8920129312055
 42
0.4142135623731
 10
-1176.564477232293
 20
944.3920129312055
 42
0.4142135623731
  0
LWPOLYLINE
  5
430
330
1F
100
AcDbEntity
  8
C-4
  6
Continuous
 62
     7
370
     9
100
AcDbPolyline
 90
        4
 70
     1
 43
1.0
 10
-1176.064477232293
 20
569.8920129312056
 42
0.4142135623731
 10
-1176.564477232293
 20
570.3920129312055
 42
0.4142135623731
 10
-1177.064477232293
 20
569.8920129312056
 42
0.4142135623731
 10
-1176.564477232293
 20
569.3920129312056
 42
0.4142135623731
  0
LWPOLYLINE
  5
431
330
1F
100
AcDbEntity
  8
C-4
  6
Continuous
 62
     7
370
     9
100
AcDbPolyline
 90
        4
 70
     1
 43
1.0
 10
-1176.064477232293
 20
544.8921426309125
 42
0.4142135623731
 10
-1176.564477232293
 20
545.3921426309125
 42
0.4142135623731
 10
-1177.064477232293
 20
544.8921426309125
 42
0.4142135623731
 10
-1176.564477232293
 20
544.3921426309125
 42
0.4142135623731
  0
LWPOLYLINE
  5
432
330
1F
100
AcDbEntity
  8
C-4
  6
Continuous
 62
     7
370
     9
100
AcDbPolyline
 90
        4
 70
     1
 43
1.0
 10
-1251.064477232293
 20
544.8921426309125
 42
0.4142135623731
 10
-1251.564477232293
 20
545.3921426309125
 42
0.4142135623731
 10
-1252.064477232293
 20
544.8921426309125
 42
0.4142135623731
 10
-1251.564477232293
 20
544.3921426309125
 42
0.4142135623731
  0
LWPOLYLINE
  5
433
330
1F
100
AcDbEntity
  8
C-4
  6
Continuous
 62
     7
370
     9
100
AcDbPolyline
 90
        4
 70
     1
 43
1.0
 10
-1251.064477232293
 20
543.8917916787642
 42
0.4142135623731
 10
-1251.564477232293
 20
544.3917916787642
 42
0.4142135623731
 10
-1252.064477232293
 20
543.8917916787642
 42
0.4142135623731
 10
-1251.564477232293
 20
543.3917916787642
 42
0.4142135623731
  0
TEXT
  5
434
330
1F
100
AcDbEntity
  8
C-4
  6
Continuous
 62
     2
370
     9
100
AcDbText
 10
-1262.204477232293
 20
910.63282714019
 30
0.0
 40
30.48
  1
1
 50
90.0
 41
0.9999999999999927
  7
ＭＳ ゴシック
100
AcDbText
  0
TEXT
  5
435
330
1F
100
AcDbEntity
  8
C-4
  6
Continuous
 62
     2
370
     9
100
AcDbText
 10
-1187.204538267449
 20
884.9180139077681
 30
0.0
 40
30.48
  1
25
 50
90.0
 41
1.062499999999996
  7
ＭＳ ゴシック
100
AcDbText
  0
TEXT
  5
436
330
1F
100
AcDbEntity
  8
C-4
  6
Continuous
 62
     2
370
     9
100
AcDbText
 10
-1187.204538267449
 20
558.7613061440961
 30
0.0
 40
30.48
  1
25
 50
90.0
 41
1.0625
  7
ＭＳ ゴシック
100
AcDbText
  0
TEXT
  5
437
330
1F
100
AcDbEntity
  8
C-4
  6
Continuous
 62
     2
370
     9
100
AcDbText
 10
-1262.204477232293
 20
556.3979180825727
 30
0.0
 40
30.48
  1
1
 50
90.0
 41
0.9999999999999998
  7
ＭＳ ゴシック
100
AcDbText
  0
TEXT
  5
438
330
1F
100
AcDbEntity
  8
C-4
  6
Continuous
 62
     2
370
     9
100
AcDbText
 10
-1187.204538267449
 20
712.3918145669478
 30
0.0
 40
30.48
  1
350
 50
90.0
 41
1.083333333333333
  7
ＭＳ ゴシック
100
AcDbText
  0
TEXT
  5
439
330
1F
100
AcDbEntity
  8
C-4
  6
Continuous
 62
     2
370
     9
100
AcDbText
 10
-1262.204477232293
 20
712.3918145669478
 30
0.0
 40
30.48
  1
400
 50
90.0
 41
1.083333333333333
  7
ＭＳ ゴシック
100
AcDbText
  0
LINE
  5
43A
330
1F
100
AcDbEntity
  8
C-4
  6
Continuous
 62
     7
370
     9
100
AcDbLine
 10
-1251.564477232293
 20
495.2801507485884
 30
0.0
 11
-1251.564477232293
 21
543.8917916787642
 31
0.0
  0
LINE
  5
43B
330
1F
100
AcDbEntity
  8
C-4
  6
Continuous
 62
     7
370
     9
100
AcDbLine
 10
-1329.564416197136
 20
538.8918069375532
 30
0.0
 11
-1114.564599302605
 21
538.8918069375532
 31
0.0
  0
LWPOLYLINE
  5
43C
330
1F
100
AcDbEntity
  8
C-4
  6
Continuous
 62
     7
370
     9
100
AcDbPolyline
 90
        4
 70
     1
 43
1.0
 10
-1326.064599302605
 20
538.8918069375532
 42
0.4142135623731
 10
-1326.564599302605
 20
539.3918069375532
 42
0.4142135623731
 10
-1327.064599302605
 20
538.8918069375532
 42
0.4142135623731
 10
-1326.564599302605
 20
538.3918069375533
 42
0.4142135623731
  0
LWPOLYLINE
  5
43D
330
1F
100
AcDbEntity
  8
C-4
  6
Continuous
 62
     7
370
     9
100
AcDbPolyline
 90
        4
 70
     1
 43
1.0
 10
-1251.064477232293
 20
538.8918069375532
 42
0.4142135623731
 10
-1251.564477232293
 20
539.3918069375532
 42
0.4142135623731
 10
-1252.064477232293
 20
538.8918069375532
 42
0.4142135623731
 10
-1251.564477232293
 20
538.3918069375533
 42
0.4142135623731
  0
LINE
  5
43E
330
1F
100
AcDbEntity
  8
C-4
  6
Continuous
 62
     7
370
     9
100
AcDbLine
 10
-1251.564477232293
 20
945.891890860893
 30
0.0
 11
-1251.564477232293
 21
995.3671411050336
 31
0.0
  0
LINE
  5
43F
330
1F
100
AcDbEntity
  8
C-4
  6
Continuous
 62
     7
370
     9
100
AcDbLine
 10
-1329.564416197136
 20
950.8918603433151
 30
0.0
 11
-1114.564599302605
 21
950.8918603433151
 31
0.0
  0
LWPOLYLINE
  5
440
330
1F
100
AcDbEntity
  8
C-4
  6
Continuous
 62
     7
370
     9
100
AcDbPolyline
 90
        4
 70
     1
 43
1.0
 10
-1251.064477232293
 20
950.8918603433151
 42
0.4142135623731
 10
-1251.564477232293
 20
951.391860343315
 42
0.4142135623731
 10
-1252.064477232293
 20
950.8918603433151
 42
0.4142135623731
 10
-1251.564477232293
 20
950.3918603433151
 42
0.4142135623731
  0
LWPOLYLINE
  5
441
330
1F
100
AcDbEntity
  8
C-4
  6
Continuous
 62
     7
370
     9
100
AcDbPolyline
 90
        4
 70
     1
 43
1.0
 10
-1326.064599302605
 20
950.8918603433151
 42
0.4142135623731
 10
-1326.564599302605
 20
951.391860343315
 42
0.4142135623731
 10
-1327.064599302605
 20
950.8918603433151
 42
0.4142135623731
 10
-1326.564599302605
 20
950.3918603433151
 42
0.4142135623731
  0
LINE
  5
442
330
1F
100
AcDbEntity
  8
C-4
  6
Continuous
 62
     7
370
     9
100
AcDbLine
 10
-1251.564477232293
 20
495.2801507485884
 30
0.0
 11
-1251.564477232293
 21
995.3671411050336
 31
0.0
  0
LINE
  5
443
330
1F
100
AcDbEntity
  8
C-4
  6
Continuous
 62
     7
370
     9
100
AcDbLine
 10
-1326.564599302605
 20
538.8918069375532
 30
0.0
 11
-1326.564599302605
 21
950.8918603433151
 31
0.0
  0
TEXT
  5
444
330
1F
100
AcDbEntity
  8
C-4
  6
Continuous
 62
     2
370
     9
100
AcDbText
 10
-1262.204477232293
 20
511.4617478698068
 30
0.0
 40
30.48
  1
5
 50
90.0
 41
0.9999999999999998
  7
ＭＳ ゴシック
100
AcDbText
  0
TEXT
  5
445
330
1F
100
AcDbEntity
  8
C-4
  6
Continuous
 62
     2
370
     9
100
AcDbText
 10
-1262.204477232293
 20
960.8234499974665
 30
0.0
 40
30.48
  1
5
 50
90.0
 41
0.9999999999999998
  7
ＭＳ ゴシック
100
AcDbText
  0
TEXT
  5
446
330
1F
100
AcDbEntity
  8
C-4
  6
Continuous
 62
     2
370
     9
100
AcDbText
 10
-1334.60164035286
 20
712.3918145669478
 30
0.0
 40
30.48
  1
412
 50
90.0
 41
1.083333333333333
  7
ＭＳ ゴシック
100
AcDbText
  0
TEXT
  5
447
330
1F
100
AcDbEntity
  8
C-4
  6
Continuous
 62
     2
370
     9
100
AcDbText
 10
-642.903454063067
 20
1130.531227103569
 30
0.0
 40
30.48
  1
5
 41
1.000000000000003
  7
ＭＳ ゴシック
100
AcDbText
  0
LINE
  5
448
330
1F
100
AcDbEntity
  8
C-1
  6
JWW_DASHED3
 62
     2
370
     9
100
AcDbLine
 10
-689.5601153000097
 20
569.891517020561
 30
0.0
 11
-689.5601153000097
 21
919.891288138725
 31
0.0
  0
LINE
  5
449
330
1F
100
AcDbEntity
  8
C-1
  6
Continuous
 62
     2
370
     9
100
AcDbLine
 10
-663.5603899582128
 20
543.8917916787641
 30
0.0
 11
-663.5603899582128
 21
945.8915322793501
 31
0.0
  0
LINE
  5
44A
330
1F
100
AcDbEntity
  8
C-1
  6
Continuous
 62
     2
370
     9
100
AcDbLine
 10
-658.5604204757908
 20
538.8918069375532
 30
0.0
 11
-658.5604204757908
 21
950.8914712441937
 31
0.0
  0
LINE
  5
44B
330
1F
100
AcDbEntity
  8
C-2
  6
Continuous
 62
     3
370
     9
100
AcDbLine
 10
-664.5602678879003
 20
544.8916390908735
 30
0.0
 11
-664.5602678879003
 21
944.8916543496625
 31
0.0
  0
LINE
  5
44C
330
1F
100
AcDbEntity
  8
C-2
  6
Continuous
 62
     3
370
     9
100
AcDbLine
 10
-667.5602678879002
 20
544.8916390908735
 30
0.0
 11
-667.5602678879002
 21
944.8916543496625
 31
0.0
  0
LINE
  5
44D
330
1F
100
AcDbEntity
  8
C-A
  6
Continuous
 62
     3
370
     9
100
AcDbLine
 10
-667.5602678879002
 20
552.8914865029828
 30
0.0
 11
-1061.560069523642
 21
552.8914865029828
 31
0.0
  0
LINE
  5
44E
330
1F
100
AcDbEntity
  8
C-A
  6
Continuous
 62
     3
370
     9
100
AcDbLine
 10
-1061.560069523642
 20
796.8914102090375
 30
0.0
 11
-667.5602678879002
 21
796.8914102090375
 31
0.0
  0
LINE
  5
44F
330
1F
100
AcDbEntity
  8
C-A
  6
Continuous
 62
     3
370
     9
100
AcDbLine
 10
-667.5602678879002
 20
558.8914865029828
 30
0.0
 11
-1061.560069523642
 21
558.8914865029828
 31
0.0
  0
LINE
  5
450
330
1F
100
AcDbEntity
  8
C-A
  6
Continuous
 62
     3
370
     9
100
AcDbLine
 10
-667.5602678879002
 20
720.8915627969282
 30
0.0
 11
-1061.560069523642
 21
720.8915627969282
 31
0.0
  0
LINE
  5
451
330
1F
100
AcDbEntity
  8
C-A
  6
Continuous
 62
     3
370
     9
100
AcDbLine
 10
-667.5602678879002
 20
712.8917153848188
 30
0.0
 11
-1061.560069523642
 21
712.8917153848188
 31
0.0
  0
LINE
  5
452
330
1F
100
AcDbEntity
  8
C-A
  6
Continuous
 62
     3
370
     9
100
AcDbLine
 10
-667.5602678879002
 20
706.8914712441938
 30
0.0
 11
-1061.560069523642
 21
706.8914712441938
 31
0.0
  0
LINE
  5
453
330
1F
100
AcDbEntity
  8
C-A
  6
Continuous
 62
     3
370
     9
100
AcDbLine
 10
-667.5602678879002
 20
698.8916543496625
 30
0.0
 11
-1061.560069523642
 21
698.8916543496625
 31
0.0
  0
LINE
  5
454
330
1F
100
AcDbEntity
  8
C-A
  6
Continuous
 62
     3
370
     9
100
AcDbLine
 10
-667.5602678879002
 20
692.8917459023969
 30
0.0
 11
-1061.560069523642
 21
692.8917459023969
 31
0.0
  0
LINE
  5
455
330
1F
100
AcDbEntity
  8
C-A
  6
Continuous
 62
     3
370
     9
100
AcDbLine
 10
-667.5602678879002
 20
684.8918069375532
 30
0.0
 11
-1061.560069523642
 21
684.8918069375532
 31
0.0
  0
LINE
  5
456
330
1F
100
AcDbEntity
  8
C-A
  6
Continuous
 62
     3
370
     9
100
AcDbLine
 10
-667.5602678879002
 20
678.89153227935
 30
0.0
 11
-1061.560069523642
 21
678.89153227935
 31
0.0
  0
LINE
  5
457
330
1F
100
AcDbEntity
  8
C-A
  6
Continuous
 62
     3
370
     9
100
AcDbLine
 10
-667.5602678879002
 20
670.8917153848188
 30
0.0
 11
-1061.560069523642
 21
670.8917153848188
 31
0.0
  0
LINE
  5
458
330
1F
100
AcDbEntity
  8
C-A
  6
Continuous
 62
     3
370
     9
100
AcDbLine
 10
-667.5602678879002
 20
664.8918374551313
 30
0.0
 11
-1061.560069523642
 21
664.8918374551313
 31
0.0
  0
LINE
  5
459
330
1F
100
AcDbEntity
  8
C-A
  6
Continuous
 62
     3
370
     9
100
AcDbLine
 10
-667.5602678879002
 20
656.8919900430219
 30
0.0
 11
-1061.560069523642
 21
656.8919900430219
 31
0.0
  0
LINE
  5
45A
330
1F
100
AcDbEntity
  8
C-A
  6
Continuous
 62
     3
370
     9
100
AcDbLine
 10
-667.5602678879002
 20
650.8917459023969
 30
0.0
 11
-1061.560069523642
 21
650.8917459023969
 31
0.0
  0
LINE
  5
45B
330
1F
100
AcDbEntity
  8
C-A
  6
Continuous
 62
     3
370
     9
100
AcDbLine
 10
-667.5602678879002
 20
642.891776419975
 30
0.0
 11
-1061.560069523642
 21
642.891776419975
 31
0.0
  0
LINE
  5
45C
330
1F
100
AcDbEntity
  8
C-A
  6
Continuous
 62
     3
370
     9
100
AcDbLine
 10
-667.5602678879002
 20
636.89153227935
 30
0.0
 11
-1061.560069523642
 21
636.89153227935
 31
0.0
  0
LINE
  5
45D
330
1F
100
AcDbEntity
  8
C-A
  6
Continuous
 62
     3
370
     9
100
AcDbLine
 10
-667.5602678879002
 20
628.8920510781782
 30
0.0
 11
-1061.560069523642
 21
628.8920510781782
 31
0.0
  0
LINE
  5
45E
330
1F
100
AcDbEntity
  8
C-A
  6
Continuous
 62
     3
370
     9
100
AcDbLine
 10
-667.5602678879002
 20
622.8918069375532
 30
0.0
 11
-1061.560069523642
 21
622.8918069375532
 31
0.0
  0
LINE
  5
45F
330
1F
100
AcDbEntity
  8
C-A
  6
Continuous
 62
     3
370
     9
100
AcDbLine
 10
-667.5602678879002
 20
614.8919747842328
 30
0.0
 11
-1061.560069523642
 21
614.8919747842328
 31
0.0
  0
LINE
  5
460
330
1F
100
AcDbEntity
  8
C-A
  6
Continuous
 62
     3
370
     9
100
AcDbLine
 10
-667.5602678879002
 20
608.8913491738813
 30
0.0
 11
-1061.560069523642
 21
608.8913491738813
 31
0.0
  0
LINE
  5
461
330
1F
100
AcDbEntity
  8
C-A
  6
Continuous
 62
     3
370
     9
100
AcDbLine
 10
-667.5602678879002
 20
600.8915017617719
 30
0.0
 11
-1061.560069523642
 21
600.8915017617719
 31
0.0
  0
LINE
  5
462
330
1F
100
AcDbEntity
  8
C-A
  6
Continuous
 62
     3
370
     9
100
AcDbLine
 10
-667.5602678879002
 20
594.8915017617719
 30
0.0
 11
-1061.560069523642
 21
594.8915017617719
 31
0.0
  0
LINE
  5
463
330
1F
100
AcDbEntity
  8
C-A
  6
Continuous
 62
     3
370
     9
100
AcDbLine
 10
-667.5602678879002
 20
586.8916696084516
 30
0.0
 11
-1061.560069523642
 21
586.8916696084516
 31
0.0
  0
LINE
  5
464
330
1F
100
AcDbEntity
  8
C-A
  6
Continuous
 62
     3
370
     9
100
AcDbLine
 10
-667.5602678879002
 20
580.891776419975
 30
0.0
 11
-1061.560069523642
 21
580.891776419975
 31
0.0
  0
LINE
  5
465
330
1F
100
AcDbEntity
  8
C-A
  6
Continuous
 62
     3
370
     9
100
AcDbLine
 10
-667.5602678879002
 20
572.8919442666547
 30
0.0
 11
-1061.560069523642
 21
572.8919442666547
 31
0.0
  0
LINE
  5
466
330
1F
100
AcDbEntity
  8
C-A
  6
Continuous
 62
     3
370
     9
100
AcDbLine
 10
-667.5602678879002
 20
566.8913186563032
 30
0.0
 11
-1061.560069523642
 21
566.8913186563032
 31
0.0
  0
LINE
  5
467
330
1F
100
AcDbEntity
  8
C-A
  6
Continuous
 62
     3
370
     9
100
AcDbLine
 10
-1061.560069523642
 20
790.8911660684125
 30
0.0
 11
-667.5602678879002
 21
790.8911660684125
 31
0.0
  0
LINE
  5
468
330
1F
100
AcDbEntity
  8
C-A
  6
Continuous
 62
     3
370
     9
100
AcDbLine
 10
-1061.560069523642
 20
782.8916848672407
 30
0.0
 11
-667.5602678879002
 21
782.8916848672407
 31
0.0
  0
LINE
  5
469
330
1F
100
AcDbEntity
  8
C-A
  6
Continuous
 62
     3
370
     9
100
AcDbLine
 10
-1061.560069523642
 20
776.8914407266158
 30
0.0
 11
-667.5602678879002
 21
776.8914407266158
 31
0.0
  0
LINE
  5
46A
330
1F
100
AcDbEntity
  8
C-A
  6
Continuous
 62
     3
370
     9
100
AcDbLine
 10
-1061.560069523642
 20
768.8915933145063
 30
0.0
 11
-667.5602678879002
 21
768.8915933145063
 31
0.0
  0
LINE
  5
46B
330
1F
100
AcDbEntity
  8
C-A
  6
Continuous
 62
     3
370
     9
100
AcDbLine
 10
-1061.560069523642
 20
762.8913491738814
 30
0.0
 11
-667.5602678879002
 21
762.8913491738814
 31
0.0
  0
LINE
  5
46C
330
1F
100
AcDbEntity
  8
C-A
  6
Continuous
 62
     3
370
     9
100
AcDbLine
 10
-1061.560069523642
 20
754.8913796914594
 30
0.0
 11
-667.5602678879002
 21
754.8913796914594
 31
0.0
  0
LINE
  5
46D
330
1F
100
AcDbEntity
  8
C-A
  6
Continuous
 62
     3
370
     9
100
AcDbLine
 10
-1061.560069523642
 20
748.8915017617719
 30
0.0
 11
-667.5602678879002
 21
748.8915017617719
 31
0.0
  0
LINE
  5
46E
330
1F
100
AcDbEntity
  8
C-A
  6
Continuous
 62
     3
370
     9
100
AcDbLine
 10
-1061.560069523642
 20
740.8916543496625
 30
0.0
 11
-667.5602678879002
 21
740.8916543496625
 31
0.0
  0
LINE
  5
46F
330
1F
100
AcDbEntity
  8
C-A
  6
Continuous
 62
     3
370
     9
100
AcDbLine
 10
-1061.560069523642
 20
734.8914102090375
 30
0.0
 11
-667.5602678879002
 21
734.8914102090375
 31
0.0
  0
LINE
  5
470
330
1F
100
AcDbEntity
  8
C-A
  6
Continuous
 62
     3
370
     9
100
AcDbLine
 10
-1061.560069523642
 20
726.8915627969282
 30
0.0
 11
-667.5602678879002
 21
726.8915627969282
 31
0.0
  0
LINE
  5
471
330
1F
100
AcDbEntity
  8
C-A
  6
Continuous
 62
     3
370
     9
100
AcDbLine
 10
-749.5103411300877
 20
670.8924478066938
 30
0.0
 11
-749.5103411300877
 21
664.8922036660688
 31
0.0
  0
LINE
  5
472
330
1F
100
AcDbEntity
  8
C-A
  6
Continuous
 62
     3
370
     9
100
AcDbLine
 10
-744.5606340988377
 20
670.8924478066938
 30
0.0
 11
-744.5606340988377
 21
664.8922036660688
 31
0.0
  0
LINE
  5
473
330
1F
100
AcDbEntity
  8
C-A
  6
Continuous
 62
     3
370
     9
100
AcDbLine
 10
-739.6113848312597
 20
670.8924478066938
 30
0.0
 11
-739.6113848312597
 21
664.8922036660688
 31
0.0
  0
LINE
  5
474
330
1F
100
AcDbEntity
  8
C-A
  6
Continuous
 62
     3
370
     9
100
AcDbLine
 10
-749.5103411300877
 20
656.8922341836469
 30
0.0
 11
-749.5103411300877
 21
650.8919900430219
 31
0.0
  0
LINE
  5
475
330
1F
100
AcDbEntity
  8
C-A
  6
Continuous
 62
     3
370
     9
100
AcDbLine
 10
-744.5606340988377
 20
656.8922341836469
 30
0.0
 11
-744.5606340988377
 21
650.8919900430219
 31
0.0
  0
LINE
  5
476
330
1F
100
AcDbEntity
  8
C-A
  6
Continuous
 62
     3
370
     9
100
AcDbLine
 10
-739.6113848312597
 20
656.8922341836469
 30
0.0
 11
-739.6113848312597
 21
650.8919900430219
 31
0.0
  0
LINE
  5
477
330
1F
100
AcDbEntity
  8
C-A
  6
Continuous
 62
     3
370
     9
100
AcDbLine
 10
-749.5103411300877
 20
642.89250884185
 30
0.0
 11
-749.5103411300877
 21
636.892264701225
 31
0.0
  0
LINE
  5
478
330
1F
100
AcDbEntity
  8
C-A
  6
Continuous
 62
     3
370
     9
100
AcDbLine
 10
-744.5606340988377
 20
642.89250884185
 30
0.0
 11
-744.5606340988377
 21
636.892264701225
 31
0.0
  0
LINE
  5
479
330
1F
100
AcDbEntity
  8
C-A
  6
Continuous
 62
     3
370
     9
100
AcDbLine
 10
-739.6113848312597
 20
642.89250884185
 30
0.0
 11
-739.6113848312597
 21
636.892264701225
 31
0.0
  0
LINE
  5
47A
330
1F
100
AcDbEntity
  8
C-A
  6
Continuous
 62
     3
370
     9
100
AcDbLine
 10
-749.5103411300877
 20
628.8924172891157
 30
0.0
 11
-749.5103411300877
 21
622.8921731484907
 31
0.0
  0
LINE
  5
47B
330
1F
100
AcDbEntity
  8
C-A
  6
Continuous
 62
     3
370
     9
100
AcDbLine
 10
-744.5606340988377
 20
628.8924172891157
 30
0.0
 11
-744.5606340988377
 21
622.8921731484907
 31
0.0
  0
LINE
  5
47C
330
1F
100
AcDbEntity
  8
C-A
  6
Continuous
 62
     3
370
     9
100
AcDbLine
 10
-739.6113848312597
 20
628.8924172891157
 30
0.0
 11
-739.6113848312597
 21
622.8921731484907
 31
0.0
  0
LINE
  5
47D
330
1F
100
AcDbEntity
  8
C-A
  6
Continuous
 62
     3
370
     9
100
AcDbLine
 10
-749.5103411300877
 20
614.8922189248578
 30
0.0
 11
-749.5103411300877
 21
608.8923409951703
 31
0.0
  0
LINE
  5
47E
330
1F
100
AcDbEntity
  8
C-A
  6
Continuous
 62
     3
370
     9
100
AcDbLine
 10
-744.5606340988377
 20
614.8922189248578
 30
0.0
 11
-744.5606340988377
 21
608.8923409951703
 31
0.0
  0
LINE
  5
47F
330
1F
100
AcDbEntity
  8
C-A
  6
Continuous
 62
     3
370
     9
100
AcDbLine
 10
-739.6113848312597
 20
614.8922189248578
 30
0.0
 11
-739.6113848312597
 21
608.8923409951703
 31
0.0
  0
LINE
  5
480
330
1F
100
AcDbEntity
  8
C-A
  6
Continuous
 62
     3
370
     9
100
AcDbLine
 10
-749.5103411300877
 20
600.892493583061
 30
0.0
 11
-749.5103411300877
 21
594.892249442436
 31
0.0
  0
LINE
  5
481
330
1F
100
AcDbEntity
  8
C-A
  6
Continuous
 62
     3
370
     9
100
AcDbLine
 10
-744.5606340988377
 20
600.892493583061
 30
0.0
 11
-744.5606340988377
 21
594.892249442436
 31
0.0
  0
LINE
  5
482
330
1F
100
AcDbEntity
  8
C-A
  6
Continuous
 62
     3
370
     9
100
AcDbLine
 10
-739.6113848312597
 20
600.892493583061
 30
0.0
 11
-739.6113848312597
 21
594.892249442436
 31
0.0
  0
LINE
  5
483
330
1F
100
AcDbEntity
  8
C-A
  6
Continuous
 62
     3
370
     9
100
AcDbLine
 10
-749.5103411300877
 20
586.8924020303266
 30
0.0
 11
-749.5103411300877
 21
580.8925241006391
 31
0.0
  0
LINE
  5
484
330
1F
100
AcDbEntity
  8
C-A
  6
Continuous
 62
     3
370
     9
100
AcDbLine
 10
-744.5606340988377
 20
586.8924020303266
 30
0.0
 11
-744.5606340988377
 21
580.8925241006391
 31
0.0
  0
LINE
  5
485
330
1F
100
AcDbEntity
  8
C-A
  6
Continuous
 62
     3
370
     9
100
AcDbLine
 10
-739.6113848312597
 20
586.8924020303266
 30
0.0
 11
-739.6113848312597
 21
580.8925241006391
 31
0.0
  0
LINE
  5
486
330
1F
100
AcDbEntity
  8
C-A
  6
Continuous
 62
     3
370
     9
100
AcDbLine
 10
-749.5103411300877
 20
572.8925698770063
 30
0.0
 11
-749.5103411300877
 21
566.8923104775922
 31
0.0
  0
LINE
  5
487
330
1F
100
AcDbEntity
  8
C-A
  6
Continuous
 62
     3
370
     9
100
AcDbLine
 10
-744.5606340988377
 20
572.8925698770063
 30
0.0
 11
-744.5606340988377
 21
566.8923104775922
 31
0.0
  0
LINE
  5
488
330
1F
100
AcDbEntity
  8
C-A
  6
Continuous
 62
     3
370
     9
100
AcDbLine
 10
-739.6113848312597
 20
572.8925698770063
 30
0.0
 11
-739.6113848312597
 21
566.8923104775922
 31
0.0
  0
LINE
  5
489
330
1F
100
AcDbEntity
  8
C-A
  6
Continuous
 62
     3
370
     9
100
AcDbLine
 10
-749.5103411300877
 20
558.8924783242719
 30
0.0
 11
-749.5103411300877
 21
552.8926003945844
 31
0.0
  0
LINE
  5
48A
330
1F
100
AcDbEntity
  8
C-A
  6
Continuous
 62
     3
370
     9
100
AcDbLine
 10
-744.5606340988377
 20
558.8924783242719
 30
0.0
 11
-744.5606340988377
 21
552.8926003945844
 31
0.0
  0
LINE
  5
48B
330
1F
100
AcDbEntity
  8
C-A
  6
Continuous
 62
     3
370
     9
100
AcDbLine
 10
-739.6113848312597
 20
558.8924783242719
 30
0.0
 11
-739.6113848312597
 21
552.8926003945844
 31
0.0
  0
TEXT
  5
48C
330
1F
100
AcDbEntity
  8
D-5
  6
Continuous
 62
     2
370
     9
100
AcDbText
 10
-1163.998082562553
 20
-977.2435959795409
 30
0.0
 40
30.48
  1
A断面詳細図　Ｓ＝１：２
 50
0.00002676319048
 41
1.114130434782609
  7
ＭＳ ゴシック
100
AcDbText
  0
TEXT
  5
48D
330
1F
100
AcDbEntity
  8
F-4ﾚｲﾔ
  6
Continuous
 62
     2
370
     9
100
AcDbText
 10
-845.9896769380546
 20
-1379.05859205821
 30
0.0
 40
30.48
  1
ＹＲ－Ｈ－Ａ－１５　４００×４００×１５　ステンレス製受枠ＳＦ１５Ｂ（四方枠）
 41
0.7743589743589743
  7
ＭＳ ゴシック
100
AcDbText
  0
LINE
  5
48E
330
1F
100
AcDbEntity
  8
D-5
  6
Continuous
 62
     7
370
     9
100
AcDbLine
 10
564.9211785690511
 20
335.3308847161577
 30
0.0
 11
761.8413002833802
 21
335.3308847161577
 31
0.0
  0
TEXT
  5
48F
330
1F
100
AcDbEntity
  8
D-5
  6
Continuous
 62
     2
370
     9
100
AcDbText
 10
718.0770846034926
 20
232.573648895416
 30
0.0
 40
30.48
  1
メインバー詳細図　Ｓ＝１：２
 41
1.116071428571426
  7
ＭＳ ゴシック
100
AcDbText
  0
LINE
  5
490
330
1F
100
AcDbEntity
  8
D-5
  6
Continuous
 62
     7
370
     9
100
AcDbLine
 10
718.5279438187888
 20
211.933648895416
 30
0.0
 11
1339.884495773196
 21
211.933648895416
 31
0.0
  0
LINE
  5
491
330
1F
100
AcDbEntity
  8
D-2
  6
Continuous
 62
     3
370
     9
100
AcDbLine
 10
1698.400156201125
 20
531.1454193539504
 30
0.0
 11
1429.601013992502
 21
531.1454193539504
 31
0.0
  0
LINE
  5
492
330
1F
100
AcDbEntity
  8
D-2
  6
Continuous
 62
     3
370
     9
100
AcDbLine
 10
1698.400156201125
 20
606.1452956340395
 30
0.0
 11
1429.601013992502
 21
606.1452956340395
 31
0.0
  0
LINE
  5
493
330
1F
100
AcDbEntity
  8
D-5
  6
Continuous
 62
     7
370
     9
100
AcDbLine
 10
1465.540524239648
 20
335.3308847161577
 30
0.0
 11
1662.460645953978
 21
335.3308847161577
 31
0.0
  0
TEXT
  5
494
330
1F
100
AcDbEntity
  8
D-5
  6
Continuous
 62
     2
370
     9
100
AcDbText
 10
1467.777638672539
 20
355.9708847161577
 30
0.0
 40
30.48
  1
C-C断面図
 41
1.097222222222225
  7
ＭＳ ゴシック
100
AcDbText
  0
LWPOLYLINE
  5
495
330
1F
100
AcDbEntity
  8
D-4
  6
Continuous
 62
     7
370
     9
100
AcDbPolyline
 90
        4
 70
     1
 43
1.0
 10
1466.801331375314
 20
676.1452956340395
 42
0.4142135623731
 10
1466.301331375314
 20
676.6452956340395
 42
0.4142135623731
 10
1465.801331375313
 20
676.1452956340395
 42
0.4142135623731
 10
1466.301331375314
 20
675.6452956340395
 42
0.4142135623731
  0
LWPOLYLINE
  5
496
330
1F
100
AcDbEntity
  8
D-4
  6
Continuous
 62
     7
370
     9
100
AcDbPolyline
 90
        4
 70
     1
 43
1.0
 10
1506.800473583929
 20
676.1452956340395
 42
0.4142135623731
 10
1506.300473583929
 20
676.6452956340395
 42
0.4142135623731
 10
1505.800473583929
 20
676.1452956340395
 42
0.4142135623731
 10
1506.300473583929
 20
675.6452956340395
 42
0.4142135623731
  0
LINE
  5
497
330
1F
100
AcDbEntity
  8
D-4
  6
Continuous
 62
     7
370
     9
100
AcDbLine
 10
1466.301331375314
 20
679.1452956340395
 30
0.0
 11
1466.301331375314
 21
626.1452956340395
 31
0.0
  0
LINE
  5
498
330
1F
100
AcDbEntity
  8
D-4
  6
Continuous
 62
     7
370
     9
100
AcDbLine
 10
1506.300473583929
 20
679.1452956340395
 30
0.0
 11
1506.300473583929
 21
626.1452956340395
 31
0.0
  0
LINE
  5
499
330
1F
100
AcDbEntity
  8
D-2
  6
Continuous
 62
     3
370
     9
100
AcDbLine
 10
1506.300473583928
 20
606.1452956340395
 30
0.0
 11
1506.300473583928
 21
599.145223051691
 31
0.0
  0
LINE
  5
49A
330
1F
100
AcDbEntity
  8
D-2
  6
Continuous
 62
     3
370
     9
100
AcDbLine
 10
1506.300473583928
 20
606.1452956340395
 30
0.0
 11
1466.301331375314
 21
606.1452956340395
 31
0.0
  0
LINE
  5
49B
330
1F
100
AcDbEntity
  8
D-2
  6
Continuous
 62
     3
370
     9
100
AcDbLine
 10
1466.301331375314
 20
606.1452956340395
 30
0.0
 11
1466.301331375314
 21
599.145223051691
 31
0.0
  0
LINE
  5
49C
330
1F
100
AcDbEntity
  8
D-2
  6
Continuous
 62
     3
370
     9
100
AcDbLine
 10
1506.300473583928
 20
599.145223051691
 30
0.0
 11
1466.301331375314
 21
599.145223051691
 31
0.0
  0
ARC
  5
49D
330
1F
100
AcDbEntity
  8
D-2
  6
Continuous
 62
     3
370
     9
100
AcDbCircle
 10
1494.800831546872
 20
594.1453302756145
 30
0.0
 40
5.000000064437454
100
AcDbArc
 50
90.0
 51
180.0
  0
ARC
  5
49E
330
1F
100
AcDbEntity
  8
D-2
  6
Continuous
 62
     3
370
     9
100
AcDbCircle
 10
1477.80097341237
 20
594.1453302756145
 30
0.0
 40
5.000000064437454
100
AcDbArc
 50
0.0
 51
90.0
  0
LINE
  5
49F
330
1F
100
AcDbEntity
  8
D-2
  6
Continuous
 62
     3
370
     9
100
AcDbLine
 10
1482.800866188447
 20
599.145223051691
 30
0.0
 11
1482.800866188447
 21
531.1454193539504
 31
0.0
  0
LINE
  5
4A0
330
1F
100
AcDbEntity
  8
D-2
  6
Continuous
 62
     3
370
     9
100
AcDbLine
 10
1489.800938770795
 20
599.145223051691
 30
0.0
 11
1489.800938770795
 21
531.1454193539504
 31
0.0
  0
LINE
  5
4A1
330
1F
100
AcDbEntity
  8
D-2
  6
Continuous
 62
     3
370
     9
100
AcDbLine
 10
1482.550704527764
 20
590.3938555342723
 30
0.0
 11
1429.601013992502
 21
590.3938555342723
 31
0.0
  0
LINE
  5
4A2
330
1F
100
AcDbEntity
  8
D-2
  6
Continuous
 62
     3
370
     9
100
AcDbLine
 10
1482.550704527764
 20
565.6452956340395
 30
0.0
 11
1429.601013992502
 21
565.6452956340395
 31
0.0
  0
LINE
  5
4A3
330
1F
100
AcDbEntity
  8
D-2
  6
Continuous
 62
     3
370
     9
100
AcDbLine
 10
1482.550704527764
 20
540.8967357338078
 30
0.0
 11
1429.601013992502
 21
540.8967357338078
 31
0.0
  0
LINE
  5
4A4
330
1F
100
AcDbEntity
  8
D-4
  6
Continuous
 62
     7
370
     9
100
AcDbLine
 10
1466.301331375314
 20
676.1452956340395
 30
0.0
 11
1506.300473583929
 21
676.1452956340395
 31
0.0
  0
TEXT
  5
4A5
330
1F
100
AcDbEntity
  8
D-4
  6
Continuous
 62
     2
370
   211
100
AcDbText
 10
1476.300902479621
 20
691.7852956340395
 30
0.0
 40
30.48
  1
8
 41
0.9999999999999998
  7
ＭＳ ゴシック
100
AcDbText
  0
TEXT
  5
4A6
330
1F
100
AcDbEntity
  8
D-4
  6
Continuous
 62
     2
370
   211
100
AcDbText
 10
1546.900399351979
 20
691.7852956340395
 30
0.0
 40
30.48
  1
8
 41
0.9999999999999998
  7
ＭＳ ゴシック
100
AcDbText
  0
LINE
  5
4A7
330
1F
100
AcDbEntity
  8
D-2
  6
Continuous
 62
     3
370
     9
100
AcDbLine
 10
1576.300828247674
 20
606.1452956340395
 30
0.0
 11
1576.300828247674
 21
599.145223051691
 31
0.0
  0
LINE
  5
4A8
330
1F
100
AcDbEntity
  8
D-2
  6
Continuous
 62
     3
370
     9
100
AcDbLine
 10
1576.300828247674
 20
606.1452956340395
 30
0.0
 11
1536.301686039059
 21
606.1452956340395
 31
0.0
  0
LINE
  5
4A9
330
1F
100
AcDbEntity
  8
D-2
  6
Continuous
 62
     3
370
     9
100
AcDbLine
 10
1536.301686039059
 20
606.1452956340395
 30
0.0
 11
1536.301686039059
 21
599.145223051691
 31
0.0
  0
LINE
  5
4AA
330
1F
100
AcDbEntity
  8
D-2
  6
Continuous
 62
     3
370
     9
100
AcDbLine
 10
1576.300828247674
 20
599.145223051691
 30
0.0
 11
1536.301686039059
 21
599.145223051691
 31
0.0
  0
ARC
  5
4AB
330
1F
100
AcDbEntity
  8
D-2
  6
Continuous
 62
     3
370
     9
100
AcDbCircle
 10
1564.801186210618
 20
594.1453302756145
 30
0.0
 40
5.000000064437454
100
AcDbArc
 50
90.0
 51
180.0
  0
ARC
  5
4AC
330
1F
100
AcDbEntity
  8
D-2
  6
Continuous
 62
     3
370
     9
100
AcDbCircle
 10
1547.801328076116
 20
594.1453302756145
 30
0.0
 40
5.000000064437454
100
AcDbArc
 50
0.0
 51
90.0
  0
LINE
  5
4AD
330
1F
100
AcDbEntity
  8
D-2
  6
Continuous
 62
     3
370
     9
100
AcDbLine
 10
1552.801220852193
 20
599.145223051691
 30
0.0
 11
1552.801220852193
 21
531.1454193539504
 31
0.0
  0
LINE
  5
4AE
330
1F
100
AcDbEntity
  8
D-2
  6
Continuous
 62
     3
370
     9
100
AcDbLine
 10
1559.801293434541
 20
599.145223051691
 30
0.0
 11
1559.801293434541
 21
531.1454193539504
 31
0.0
  0
LINE
  5
4AF
330
1F
100
AcDbEntity
  8
D-2
  6
Continuous
 62
     3
370
     9
100
AcDbLine
 10
1552.55105919151
 20
590.3938555342723
 30
0.0
 11
1489.800938770795
 21
590.3938555342723
 31
0.0
  0
LINE
  5
4B0
330
1F
100
AcDbEntity
  8
D-2
  6
Continuous
 62
     3
370
     9
100
AcDbLine
 10
1552.55105919151
 20
565.6452956340395
 30
0.0
 11
1489.800938770795
 21
565.6452956340395
 31
0.0
  0
LINE
  5
4B1
330
1F
100
AcDbEntity
  8
D-2
  6
Continuous
 62
     3
370
     9
100
AcDbLine
 10
1552.55105919151
 20
540.8967357338078
 30
0.0
 11
1489.800938770795
 21
540.8967357338078
 31
0.0
  0
TEXT
  5
4B2
330
1F
100
AcDbEntity
  8
D-4
  6
Continuous
 62
     2
370
   211
100
AcDbText
 10
1617.499896224336
 20
691.7852956340395
 30
0.0
 40
30.48
  1
8
 41
0.9999999999999998
  7
ＭＳ ゴシック
100
AcDbText
  0
LINE
  5
4B3
330
1F
100
AcDbEntity
  8
D-2
  6
Continuous
 62
     3
370
     9
100
AcDbLine
 10
1646.301182911421
 20
606.1452956340395
 30
0.0
 11
1646.301182911421
 21
599.145223051691
 31
0.0
  0
LINE
  5
4B4
330
1F
100
AcDbEntity
  8
D-2
  6
Continuous
 62
     3
370
     9
100
AcDbLine
 10
1646.301182911421
 20
606.1452956340395
 30
0.0
 11
1606.302040702806
 21
606.1452956340395
 31
0.0
  0
LINE
  5
4B5
330
1F
100
AcDbEntity
  8
D-2
  6
Continuous
 62
     3
370
     9
100
AcDbLine
 10
1606.302040702806
 20
606.1452956340395
 30
0.0
 11
1606.302040702806
 21
599.145223051691
 31
0.0
  0
LINE
  5
4B6
330
1F
100
AcDbEntity
  8
D-2
  6
Continuous
 62
     3
370
     9
100
AcDbLine
 10
1646.301182911421
 20
599.145223051691
 30
0.0
 11
1606.302040702806
 21
599.145223051691
 31
0.0
  0
ARC
  5
4B7
330
1F
100
AcDbEntity
  8
D-2
  6
Continuous
 62
     3
370
     9
100
AcDbCircle
 10
1634.801540874364
 20
594.1453302756145
 30
0.0
 40
5.000000064437454
100
AcDbArc
 50
90.0
 51
180.0
  0
ARC
  5
4B8
330
1F
100
AcDbEntity
  8
D-2
  6
Continuous
 62
     3
370
     9
100
AcDbCircle
 10
1617.801682739862
 20
594.1453302756145
 30
0.0
 40
5.000000064437454
100
AcDbArc
 50
0.0
 51
90.0
  0
LINE
  5
4B9
330
1F
100
AcDbEntity
  8
D-2
  6
Continuous
 62
     3
370
     9
100
AcDbLine
 10
1622.801575515939
 20
599.145223051691
 30
0.0
 11
1622.801575515939
 21
531.1454193539504
 31
0.0
  0
LINE
  5
4BA
330
1F
100
AcDbEntity
  8
D-2
  6
Continuous
 62
     3
370
     9
100
AcDbLine
 10
1629.801648098287
 20
599.145223051691
 30
0.0
 11
1629.801648098287
 21
531.1454193539504
 31
0.0
  0
LINE
  5
4BB
330
1F
100
AcDbEntity
  8
D-2
  6
Continuous
 62
     3
370
     9
100
AcDbLine
 10
1698.400156201125
 20
590.3938555342723
 30
0.0
 11
1629.801648098287
 21
590.3938555342723
 31
0.0
  0
LINE
  5
4BC
330
1F
100
AcDbEntity
  8
D-2
  6
Continuous
 62
     3
370
     9
100
AcDbLine
 10
1698.400156201125
 20
565.6452956340395
 30
0.0
 11
1629.801648098287
 21
565.6452956340395
 31
0.0
  0
LINE
  5
4BD
330
1F
100
AcDbEntity
  8
D-2
  6
Continuous
 62
     3
370
     9
100
AcDbLine
 10
1698.400156201125
 20
540.8967357338078
 30
0.0
 11
1629.801648098287
 21
540.8967357338078
 31
0.0
  0
LINE
  5
4BE
330
1F
100
AcDbEntity
  8
D-2
  6
Continuous
 62
     3
370
     9
100
AcDbLine
 10
1622.551413855255
 20
590.3938555342723
 30
0.0
 11
1559.801293434541
 21
590.3938555342723
 31
0.0
  0
LINE
  5
4BF
330
1F
100
AcDbEntity
  8
D-2
  6
Continuous
 62
     3
370
     9
100
AcDbLine
 10
1622.551413855255
 20
565.6452956340395
 30
0.0
 11
1559.801293434541
 21
565.6452956340395
 31
0.0
  0
LINE
  5
4C0
330
1F
100
AcDbEntity
  8
D-2
  6
Continuous
 62
     3
370
     9
100
AcDbLine
 10
1622.551413855255
 20
540.8967357338078
 30
0.0
 11
1559.801293434541
 21
540.8967357338078
 31
0.0
  0
LWPOLYLINE
  5
4C1
330
1F
100
AcDbEntity
  8
D-4
  6
Continuous
 62
     7
370
     9
100
AcDbPolyline
 90
        4
 70
     1
 43
1.0
 10
1576.800828247674
 20
676.1452956340395
 42
0.4142135623731
 10
1576.300828247674
 20
676.6452956340395
 42
0.4142135623731
 10
1575.800828247674
 20
676.1452956340395
 42
0.4142135623731
 10
1576.300828247674
 20
675.6452956340395
 42
0.4142135623731
  0
LINE
  5
4C2
330
1F
100
AcDbEntity
  8
D-4
  6
Continuous
 62
     7
370
     9
100
AcDbLine
 10
1576.300828247674
 20
679.1452956340395
 30
0.0
 11
1576.300828247674
 21
626.1452956340395
 31
0.0
  0
LINE
  5
4C3
330
1F
100
AcDbEntity
  8
D-4
  6
Continuous
 62
     7
370
     9
100
AcDbLine
 10
1536.301686039059
 20
676.1452956340395
 30
0.0
 11
1576.300828247674
 21
676.1452956340395
 31
0.0
  0
LWPOLYLINE
  5
4C4
330
1F
100
AcDbEntity
  8
D-4
  6
Continuous
 62
     7
370
     9
100
AcDbPolyline
 90
        4
 70
     1
 43
1.0
 10
1536.801686039059
 20
676.1452956340395
 42
0.4142135623731
 10
1536.301686039059
 20
676.6452956340395
 42
0.4142135623731
 10
1535.801686039059
 20
676.1452956340395
 42
0.4142135623731
 10
1536.301686039059
 20
675.6452956340395
 42
0.4142135623731
  0
LINE
  5
4C5
330
1F
100
AcDbEntity
  8
D-4
  6
Continuous
 62
     7
370
     9
100
AcDbLine
 10
1536.301686039059
 20
679.1452956340395
 30
0.0
 11
1536.301686039059
 21
626.1452956340395
 31
0.0
  0
LWPOLYLINE
  5
4C6
330
1F
100
AcDbEntity
  8
D-4
  6
Continuous
 62
     7
370
     9
100
AcDbPolyline
 90
        4
 70
     1
 43
1.0
 10
1606.802040702806
 20
676.1452956340395
 42
0.4142135623731
 10
1606.302040702806
 20
676.6452956340395
 42
0.4142135623731
 10
1605.802040702806
 20
676.1452956340395
 42
0.4142135623731
 10
1606.302040702806
 20
675.6452956340395
 42
0.4142135623731
  0
LINE
  5
4C7
330
1F
100
AcDbEntity
  8
D-4
  6
Continuous
 62
     7
370
     9
100
AcDbLine
 10
1606.302040702806
 20
679.1452956340395
 30
0.0
 11
1606.302040702806
 21
626.1452956340395
 31
0.0
  0
LWPOLYLINE
  5
4C8
330
1F
100
AcDbEntity
  8
D-4
  6
Continuous
 62
     7
370
     9
100
AcDbPolyline
 90
        4
 70
     1
 43
1.0
 10
1646.801182911421
 20
676.1452956340395
 42
0.4142135623731
 10
1646.301182911421
 20
676.6452956340395
 42
0.4142135623731
 10
1645.801182911421
 20
676.1452956340395
 42
0.4142135623731
 10
1646.301182911421
 20
675.6452956340395
 42
0.4142135623731
  0
LINE
  5
4C9
330
1F
100
AcDbEntity
  8
D-4
  6
Continuous
 62
     7
370
     9
100
AcDbLine
 10
1646.301182911421
 20
679.1452956340395
 30
0.0
 11
1646.301182911421
 21
626.1452956340395
 31
0.0
  0
LINE
  5
4CA
330
1F
100
AcDbEntity
  8
D-4
  6
Continuous
 62
     7
370
     9
100
AcDbLine
 10
1606.302040702806
 20
676.1452956340395
 30
0.0
 11
1646.301182911421
 21
676.1452956340395
 31
0.0
  0
LINE
  5
4CB
330
1F
100
AcDbEntity
  8
D-4
  6
Continuous
 62
     7
370
     9
100
AcDbLine
 10
1576.300828247674
 20
676.1452956340395
 30
0.0
 11
1606.302040702806
 21
676.1452956340395
 31
0.0
  0
TEXT
  5
4CC
330
1F
100
AcDbEntity
  8
D-4
  6
Continuous
 62
     2
370
   211
100
AcDbText
 10
1581.30143447524
 20
691.7852956340395
 30
0.0
 40
30.48
  1
6
 41
0.9999999999999998
  7
ＭＳ ゴシック
100
AcDbText
  0
LINE
  5
4CD
330
1F
100
AcDbEntity
  8
D-4
  6
Continuous
 62
     7
370
     9
100
AcDbLine
 10
1506.300473583929
 20
676.1452956340395
 30
0.0
 11
1536.301686039059
 21
676.1452956340395
 31
0.0
  0
TEXT
  5
4CE
330
1F
100
AcDbEntity
  8
D-4
  6
Continuous
 62
     2
370
   211
100
AcDbText
 10
1511.301079811494
 20
691.7852956340395
 30
0.0
 40
30.48
  1
6
 41
0.9999999999999998
  7
ＭＳ ゴシック
100
AcDbText
  0
LINE
  5
4CF
330
1F
100
AcDbEntity
  8
D-4
  6
Continuous
 62
     7
370
     9
100
AcDbLine
 10
18.65799346571649
 20
499.7271750036718
 30
0.0
 11
87.57617595604032
 21
568.6453574939952
 31
0.0
  0
LINE
  5
4D0
330
1F
100
AcDbEntity
  8
D-4
  6
Continuous
 62
     7
370
     9
100
AcDbLine
 10
87.57617595604032
 20
568.6453574939952
 30
0.0
 11
72.35714023082224
 21
548.8115239867143
 31
0.0
  0
LINE
  5
4D1
330
1F
100
AcDbEntity
  8
D-4
  6
Continuous
 62
     7
370
     9
100
AcDbLine
 10
87.57617595604032
 20
568.6453574939952
 30
0.0
 11
67.74234244875927
 21
553.4263217687771
 31
0.0
  0
LINE
  5
4D2
330
1F
100
AcDbEntity
  8
D-4
  6
Continuous
 62
     7
370
     9
100
AcDbLine
 10
-153.0581560600727
 20
499.7271750036718
 30
0.0
 11
18.65799346571649
 21
499.7271750036718
 31
0.0
  0
TEXT
  5
4D3
330
1F
100
AcDbEntity
  8
D-5
  6
Continuous
 62
     7
370
     9
100
AcDbText
 10
-153.0581560600727
 20
508.9571750036719
 30
0.0
 40
22.86
  1
サイドバー
 41
1.133333333333333
  7
ＭＳ ゴシック
100
AcDbText
  0
LINE
  5
4D4
330
1F
100
AcDbEntity
  8
D-0
  6
Continuous
 62
     3
370
     9
100
AcDbLine
 10
102.5762254440043
 20
531.1454193539508
 30
0.0
 11
87.57617595604032
 21
531.1454193539508
 31
0.0
  0
LINE
  5
4D5
330
1F
100
AcDbEntity
  8
D-0
  6
Continuous
 62
     3
370
     9
100
AcDbLine
 10
102.5762254440043
 20
606.1452956340395
 30
0.0
 11
87.57617595604032
 21
606.1452956340395
 31
0.0
  0
LINE
  5
4D6
330
1F
100
AcDbEntity
  8
D-0
  6
Continuous
 62
     3
370
     9
100
AcDbLine
 10
87.57617595604032
 20
606.1452956340395
 30
0.0
 11
87.57617595604032
 21
531.1454193539508
 31
0.0
  0
LINE
  5
4D7
330
1F
100
AcDbEntity
  8
D-0
  6
Continuous
 62
     3
370
     9
100
AcDbLine
 10
102.5762254440043
 20
606.1452956340395
 30
0.0
 11
102.5762254440043
 21
531.1454193539508
 31
0.0
  0
LWPOLYLINE
  5
4D8
330
1F
100
AcDbEntity
  8
D-4
  6
Continuous
 62
     7
370
     9
100
AcDbPolyline
 90
        4
 70
     1
 43
1.0
 10
-28.41023058379787
 20
1076.525228797852
 42
0.4142135623731
 10
-28.91023058379787
 20
1077.025228797852
 42
0.4142135623731
 10
-29.41023058379787
 20
1076.525228797852
 42
0.4142135623731
 10
-28.91023058379787
 20
1076.025228797852
 42
0.4142135623731
  0
LWPOLYLINE
  5
4D9
330
1F
100
AcDbEntity
  8
D-4
  6
Continuous
 62
     7
370
     9
100
AcDbPolyline
 90
        4
 70
     1
 43
1.0
 10
-28.41023058379787
 20
1006.525492047046
 42
0.4142135623731
 10
-28.91023058379787
 20
1007.025492047046
 42
0.4142135623731
 10
-29.41023058379787
 20
1006.525492047046
 42
0.4142135623731
 10
-28.91023058379787
 20
1006.025492047046
 42
0.4142135623731
  0
LWPOLYLINE
  5
4DA
330
1F
100
AcDbEntity
  8
D-4
  6
Continuous
 62
     7
370
     9
100
AcDbPolyline
 90
        4
 70
     1
 43
1.0
 10
-28.41023058379787
 20
936.5255530822021
 42
0.4142135623731
 10
-28.91023058379787
 20
937.0255530822021
 42
0.4142135623731
 10
-29.41023058379787
 20
936.5255530822021
 42
0.4142135623731
 10
-28.91023058379787
 20
936.0255530822021
 42
0.4142135623731
  0
LINE
  5
4DB
330
1F
100
AcDbEntity
  8
D-4
  6
Continuous
 62
     7
370
     9
100
AcDbLine
 10
-28.91023058379787
 20
1006.525492047046
 30
0.0
 11
-28.91023058379787
 21
1076.525228797852
 31
0.0
  0
TEXT
  5
4DC
330
1F
100
AcDbEntity
  8
D-4
  6
Continuous
 62
     2
370
   211
100
AcDbText
 10
-44.55023058379787
 20
1020.275360422449
 30
0.0
 40
30.48
  1
14
 50
90.0
 41
1.0625
  7
ＭＳ ゴシック
100
AcDbText
  0
LINE
  5
4DD
330
1F
100
AcDbEntity
  8
D-4
  6
Continuous
 62
     7
370
     9
100
AcDbLine
 10
-28.91023058379787
 20
936.5255530822021
 30
0.0
 11
-28.91023058379787
 21
1006.525492047046
 31
0.0
  0
TEXT
  5
4DE
330
1F
100
AcDbEntity
  8
D-4
  6
Continuous
 62
     2
370
   211
100
AcDbText
 10
-44.55023058379787
 20
950.2755225646241
 30
0.0
 40
30.48
  1
14
 50
90.0
 41
1.0625
  7
ＭＳ ゴシック
100
AcDbText
  0
LINE
  5
4DF
330
1F
100
AcDbEntity
  8
D-4
  6
Continuous
 62
     7
370
     9
100
AcDbLine
 10
-31.91023058379741
 20
1076.525228797852
 30
0.0
 11
72.57617595604032
 21
1076.525228797852
 31
0.0
  0
LINE
  5
4E0
330
1F
100
AcDbEntity
  8
D-4
  6
Continuous
 62
     7
370
     9
100
AcDbLine
 10
-31.91023058379741
 20
1006.525492047046
 30
0.0
 11
72.57617595604032
 21
1006.525492047046
 31
0.0
  0
LINE
  5
4E1
330
1F
100
AcDbEntity
  8
D-A
  6
Continuous
 62
     3
370
     9
100
AcDbLine
 10
102.5761759560403
 20
879.8028063901462
 30
0.0
 11
102.5761759560403
 21
1133.699614747489
 31
0.0
  0
LINE
  5
4E2
330
1F
100
AcDbEntity
  8
D-A
  6
Continuous
 62
     3
370
     9
100
AcDbLine
 10
87.57617595604032
 20
879.8028063901462
 30
0.0
 11
87.57617595604032
 21
1133.699614747489
 31
0.0
  0
LINE
  5
4E3
330
1F
100
AcDbEntity
  8
D-5
  6
Continuous
 62
     4
370
     9
100
AcDbLine
 10
-216.4133920719438
 20
961.8594327669122
 30
0.0
 11
-216.4133920719438
 21
912.6100400839705
 31
0.0
  0
LINE
  5
4E4
330
1F
100
AcDbEntity
  8
D-5
  6
Continuous
 62
     4
370
     9
100
AcDbLine
 10
-216.4133920719438
 20
961.8594327669122
 30
0.0
 11
-213.1502372664424
 21
937.0733112325671
 31
0.0
  0
LINE
  5
4E5
330
1F
100
AcDbEntity
  8
D-5
  6
JWW_CENTER1
 62
     4
370
     9
100
AcDbLine
 10
-195.4323951984701
 20
971.5255225646241
 30
0.0
 11
-95.43239519847006
 21
971.5255225646241
 31
0.0
  0
LINE
  5
4E6
330
1F
100
AcDbEntity
  8
D-4
  6
Continuous
 62
     7
370
     9
100
AcDbLine
 10
-31.91023058379741
 20
936.5255530822021
 30
0.0
 11
72.57617595604032
 21
936.5255530822021
 31
0.0
  0
TEXT
  5
4E7
330
1F
100
AcDbEntity
  8
D-5
  6
Continuous
 62
     7
370
     9
100
AcDbText
 10
169.8883299282251
 20
433.7879226217761
 30
0.0
 40
22.86
  1
クロスバー
 41
1.13333333333333
  7
ＭＳ ゴシック
100
AcDbText
  0
LINE
  5
4E8
330
1F
100
AcDbEntity
  8
D-4
  6
Continuous
 62
     7
370
     9
100
AcDbLine
 10
169.8883299282251
 20
424.5579226217761
 30
0.0
 11
346.5269234551688
 21
424.5579226217761
 31
0.0
  0
LINE
  5
4E9
330
1F
100
AcDbEntity
  8
D-4
  6
Continuous
 62
     7
370
     9
100
AcDbLine
 10
475.3652416875555
 20
553.3962408541623
 30
0.0
 11
346.5269234551688
 21
424.5579226217761
 31
0.0
  0
TEXT
  5
4EA
330
1F
100
AcDbEntity
  8
D-5
  6
Continuous
 62
     7
370
     9
100
AcDbText
 10
1000.863806666389
 20
670.547518126777
 30
0.0
 40
22.86
  1
メインバー
 41
1.133333333333327
  7
ＭＳ ゴシック
100
AcDbText
  0
LINE
  5
4EB
330
1F
100
AcDbEntity
  8
D-4
  6
Continuous
 62
     7
370
     9
100
AcDbLine
 10
1000.863806666388
 20
661.317518126777
 30
0.0
 11
1170.161475428298
 21
661.317518126777
 31
0.0
  0
LINE
  5
4EC
330
1F
100
AcDbEntity
  8
D-0
  6
JWW_CENTER1
 62
     3
370
     9
100
AcDbLine
 10
887.5761347160694
 20
535.4651841871434
 30
0.0
 11
887.5761347160694
 21
595.8257782406696
 31
0.0
  0
LINE
  5
4ED
330
1F
100
AcDbEntity
  8
D-0
  6
Continuous
 62
     3
370
     9
100
AcDbLine
 10
870.0761388400663
 20
572.894045238136
 30
0.0
 11
870.0761388400663
 21
583.1454770899095
 31
0.0
  0
LINE
  5
4EE
330
1F
100
AcDbEntity
  8
D-0
  6
Continuous
 62
     3
370
     9
100
AcDbLine
 10
870.0761388400663
 20
548.1451141781696
 30
0.0
 11
870.0761388400663
 21
558.3965460299435
 31
0.0
  0
LINE
  5
4EF
330
1F
100
AcDbEntity
  8
D-0
  6
Continuous
 62
     3
370
     9
100
AcDbLine
 10
880.3273851119736
 20
548.1451141781696
 30
0.0
 11
870.0761388400663
 21
548.1451141781696
 31
0.0
  0
LINE
  5
4F0
330
1F
100
AcDbEntity
  8
D-0
  6
Continuous
 62
     3
370
     9
100
AcDbLine
 10
905.0761305920726
 20
548.1451141781696
 30
0.0
 11
894.8248843201663
 21
548.1451141781696
 31
0.0
  0
LINE
  5
4F1
330
1F
100
AcDbEntity
  8
D-0
  6
Continuous
 62
     3
370
     9
100
AcDbLine
 10
905.0761305920726
 20
558.3965460299435
 30
0.0
 11
905.0761305920726
 21
548.1451141781696
 31
0.0
  0
LINE
  5
4F2
330
1F
100
AcDbEntity
  8
D-0
  6
Continuous
 62
     3
370
     9
100
AcDbLine
 10
905.0761305920726
 20
583.1454770899095
 30
0.0
 11
905.0761305920726
 21
572.894045238136
 31
0.0
  0
LINE
  5
4F3
330
1F
100
AcDbEntity
  8
D-0
  6
Continuous
 62
     3
370
     9
100
AcDbLine
 10
894.8248843201663
 20
583.1454770899095
 30
0.0
 11
905.0761305920726
 21
583.1454770899095
 31
0.0
  0
LINE
  5
4F4
330
1F
100
AcDbEntity
  8
D-0
  6
Continuous
 62
     3
370
     9
100
AcDbLine
 10
870.0761388400663
 20
583.1454770899095
 30
0.0
 11
880.3273851119736
 21
583.1454770899095
 31
0.0
  0
LINE
  5
4F5
330
1F
100
AcDbEntity
  8
D-0
  6
Continuous
 62
     3
370
     9
100
AcDbLine
 10
912.3248801961684
 20
565.6452956340395
 30
0.0
 11
887.5761347160694
 21
540.8963645740735
 31
0.0
  0
LINE
  5
4F6
330
1F
100
AcDbEntity
  8
D-0
  6
Continuous
 62
     3
370
     9
100
AcDbLine
 10
887.5761347160694
 20
590.394226694006
 30
0.0
 11
912.3248801961684
 21
565.6452956340395
 31
0.0
  0
LINE
  5
4F7
330
1F
100
AcDbEntity
  8
D-0
  6
Continuous
 62
     3
370
     9
100
AcDbLine
 10
862.8273892359705
 20
565.6452956340395
 30
0.0
 11
887.5761347160694
 21
590.394226694006
 31
0.0
  0
LINE
  5
4F8
330
1F
100
AcDbEntity
  8
D-0
  6
Continuous
 62
     3
370
     9
100
AcDbLine
 10
887.5761347160694
 20
540.8963645740735
 30
0.0
 11
862.8273892359705
 21
565.6452956340395
 31
0.0
  0
LINE
  5
4F9
330
1F
100
AcDbEntity
  8
D-0
  6
JWW_CENTER1
 62
     3
370
     9
100
AcDbLine
 10
487.5761759560403
 20
535.4651841871434
 30
0.0
 11
487.5761759560403
 21
595.8257782406696
 31
0.0
  0
LINE
  5
4FA
330
1F
100
AcDbEntity
  8
D-0
  6
JWW_CENTER1
 62
     3
370
     9
100
AcDbLine
 10
457.3960645091433
 20
565.6452956340395
 30
0.0
 11
517.7564729828027
 21
565.6452956340395
 31
0.0
  0
LINE
  5
4FB
330
1F
100
AcDbEntity
  8
D-0
  6
Continuous
 62
     3
370
     9
100
AcDbLine
 10
470.0761800800371
 20
572.894045238136
 30
0.0
 11
470.0761800800371
 21
583.1454770899095
 31
0.0
  0
LINE
  5
4FC
330
1F
100
AcDbEntity
  8
D-0
  6
Continuous
 62
     3
370
     9
100
AcDbLine
 10
470.0761800800371
 20
548.1451141781696
 30
0.0
 11
470.0761800800371
 21
558.3965460299435
 31
0.0
  0
LINE
  5
4FD
330
1F
100
AcDbEntity
  8
D-0
  6
Continuous
 62
     3
370
     9
100
AcDbLine
 10
480.3274263519434
 20
548.1451141781696
 30
0.0
 11
470.0761800800371
 21
548.1451141781696
 31
0.0
  0
LINE
  5
4FE
330
1F
100
AcDbEntity
  8
D-0
  6
Continuous
 62
     3
370
     9
100
AcDbLine
 10
505.0761718320434
 20
548.1451141781696
 30
0.0
 11
494.8249255601361
 21
548.1451141781696
 31
0.0
  0
LINE
  5
4FF
330
1F
100
AcDbEntity
  8
D-0
  6
Continuous
 62
     3
370
     9
100
AcDbLine
 10
505.0761718320434
 20
558.3965460299435
 30
0.0
 11
505.0761718320434
 21
548.1451141781696
 31
0.0
  0
LINE
  5
500
330
1F
100
AcDbEntity
  8
D-0
  6
Continuous
 62
     3
370
     9
100
AcDbLine
 10
505.0761718320434
 20
583.1454770899095
 30
0.0
 11
505.0761718320434
 21
572.894045238136
 31
0.0
  0
LINE
  5
501
330
1F
100
AcDbEntity
  8
D-0
  6
Continuous
 62
     3
370
     9
100
AcDbLine
 10
494.8249255601361
 20
583.1454770899095
 30
0.0
 11
505.0761718320434
 21
583.1454770899095
 31
0.0
  0
LINE
  5
502
330
1F
100
AcDbEntity
  8
D-0
  6
Continuous
 62
     3
370
     9
100
AcDbLine
 10
470.0761800800371
 20
583.1454770899095
 30
0.0
 11
480.3274263519434
 21
583.1454770899095
 31
0.0
  0
LINE
  5
503
330
1F
100
AcDbEntity
  8
D-0
  6
Continuous
 62
     3
370
     9
100
AcDbLine
 10
512.3249214361392
 20
565.6452956340395
 30
0.0
 11
487.5761759560403
 21
540.8963645740735
 31
0.0
  0
LINE
  5
504
330
1F
100
AcDbEntity
  8
D-0
  6
Continuous
 62
     3
370
     9
100
AcDbLine
 10
487.5761759560403
 20
590.394226694006
 30
0.0
 11
512.3249214361392
 21
565.6452956340395
 31
0.0
  0
LINE
  5
505
330
1F
100
AcDbEntity
  8
D-0
  6
Continuous
 62
     3
370
     9
100
AcDbLine
 10
462.8274304759402
 20
565.6452956340395
 30
0.0
 11
487.5761759560403
 21
590.394226694006
 31
0.0
  0
LINE
  5
506
330
1F
100
AcDbEntity
  8
D-0
  6
Continuous
 62
     3
370
     9
100
AcDbLine
 10
487.5761759560403
 20
540.8963645740735
 30
0.0
 11
462.8274304759402
 21
565.6452956340395
 31
0.0
  0
LINE
  5
507
330
1F
100
AcDbEntity
  8
D-0
  6
Continuous
 62
     7
370
     9
100
AcDbLine
 10
475.3652416875555
 20
553.3962408541623
 30
0.0
 11
460.1462059623368
 21
533.5624073468814
 31
0.0
  0
LINE
  5
508
330
1F
100
AcDbEntity
  8
D-0
  6
Continuous
 62
     7
370
     9
100
AcDbLine
 10
475.3652416875555
 20
553.3962408541623
 30
0.0
 11
455.5314081802744
 21
538.1772051289443
 31
0.0
  0
TEXT
  5
509
330
1F
100
AcDbEntity
  8
D-4
  6
Continuous
 62
     2
370
   211
100
AcDbText
 10
671.3261553360549
 20
691.7852956340395
 30
0.0
 40
30.48
  1
80
 41
1.0625
  7
ＭＳ ゴシック
100
AcDbText
  0
LINE
  5
50A
330
1F
100
AcDbEntity
  8
D-4
  6
Continuous
 62
     7
370
     9
100
AcDbLine
 10
487.5761759560403
 20
676.1452956340395
 30
0.0
 11
887.5761347160694
 21
676.1452956340395
 31
0.0
  0
LWPOLYLINE
  5
50B
330
1F
100
AcDbEntity
  8
D-4
  6
Continuous
 62
     7
370
     9
100
AcDbPolyline
 90
        4
 70
     1
 43
1.0
 10
488.0761759560403
 20
676.1452956340395
 42
0.4142135623731
 10
487.5761759560403
 20
676.6452956340395
 42
0.4142135623731
 10
487.0761759560403
 20
676.1452956340395
 42
0.4142135623731
 10
487.5761759560403
 20
675.6452956340395
 42
0.4142135623731
  0
LWPOLYLINE
  5
50C
330
1F
100
AcDbEntity
  8
D-4
  6
Continuous
 62
     7
370
     9
100
AcDbPolyline
 90
        4
 70
     1
 43
1.0
 10
888.0761347160694
 20
676.1452956340395
 42
0.4142135623731
 10
887.5761347160694
 20
676.6452956340395
 42
0.4142135623731
 10
887.0761347160694
 20
676.1452956340395
 42
0.4142135623731
 10
887.5761347160694
 20
675.6452956340395
 42
0.4142135623731
  0
LINE
  5
50D
330
1F
100
AcDbEntity
  8
D-4
  6
Continuous
 62
     7
370
     9
100
AcDbLine
 10
487.5761759560403
 20
679.1452956340395
 30
0.0
 11
487.5761759560403
 21
631.1452956340395
 31
0.0
  0
LINE
  5
50E
330
1F
100
AcDbEntity
  8
D-4
  6
Continuous
 62
     7
370
     9
100
AcDbLine
 10
887.5761347160694
 20
679.1452956340395
 30
0.0
 11
887.5761347160694
 21
631.1452956340395
 31
0.0
  0
LINE
  5
50F
330
1F
100
AcDbEntity
  8
D-4
  6
Continuous
 62
     7
370
     9
100
AcDbLine
 10
945.6915841736504
 20
606.1452956340395
 30
0.0
 11
965.5254176809315
 21
621.3643313592576
 31
0.0
  0
LINE
  5
510
330
1F
100
AcDbEntity
  8
D-4
  6
Continuous
 62
     7
370
     9
100
AcDbLine
 10
945.6915841736504
 20
606.1452956340395
 30
0.0
 11
960.9106198988691
 21
625.9791291413204
 31
0.0
  0
LINE
  5
511
330
1F
100
AcDbEntity
  8
D-4
  6
Continuous
 62
     7
370
     9
100
AcDbLine
 10
945.6915841736504
 20
606.1452956340395
 30
0.0
 11
1000.863806666388
 21
661.317518126777
 31
0.0
  0
LINE
  5
512
330
1F
100
AcDbEntity
  8
D-0
  6
JWW_CENTER1
 62
     3
370
     9
100
AcDbLine
 10
857.3960232691736
 20
565.6452956340395
 30
0.0
 11
917.756431742833
 21
565.6452956340395
 31
0.0
  0
LINE
  5
513
330
1F
100
AcDbEntity
  8
D-0
  6
Continuous
 62
     3
370
     9
100
AcDbLine
 10
1228.858524025372
 20
576.1459362969805
 30
0.0
 11
1213.857669533184
 21
576.1459362969805
 31
0.0
  0
LINE
  5
514
330
1F
100
AcDbEntity
  8
D-0
  6
Continuous
 62
     3
370
     9
100
AcDbLine
 10
1228.858524025372
 20
576.1459362969805
 30
0.0
 11
1198.857547462871
 21
556.1448529229567
 31
0.0
  0
LINE
  5
515
330
1F
100
AcDbEntity
  8
D-0
  6
Continuous
 62
     3
370
     9
100
AcDbLine
 10
1213.857669533184
 20
556.1448529229567
 30
0.0
 11
1198.857547462871
 21
556.1448529229567
 31
0.0
  0
LINE
  5
516
330
1F
100
AcDbEntity
  8
D-0
  6
Continuous
 62
     3
370
     9
100
AcDbLine
 10
1213.857669533184
 20
576.1459362969805
 30
0.0
 11
1213.857669533184
 21
638.2370086488222
 31
0.0
  0
LINE
  5
517
330
1F
100
AcDbEntity
  8
D-0
  6
Continuous
 62
     3
370
     9
100
AcDbLine
 10
1213.857669533184
 20
499.0533351794343
 30
0.0
 11
1213.857669533184
 21
556.1448529229567
 31
0.0
  0
LINE
  5
518
330
1F
100
AcDbEntity
  8
D-0
  6
Continuous
 62
     3
370
     9
100
AcDbLine
 10
102.5762254440043
 20
606.1452956340395
 30
0.0
 11
1213.857669533184
 21
606.1452956340395
 31
0.0
  0
LINE
  5
519
330
1F
100
AcDbEntity
  8
D-0
  6
Continuous
 62
     3
370
     9
100
AcDbLine
 10
102.5762254440043
 20
599.1452230516918
 30
0.0
 11
1213.857669533184
 21
599.1452230516918
 31
0.0
  0
LINE
  5
51A
330
1F
100
AcDbEntity
  8
D-0
  6
Continuous
 62
     3
370
     9
100
AcDbLine
 10
102.5762254440043
 20
531.1454193539508
 30
0.0
 11
1213.857669533184
 21
531.1454193539508
 31
0.0
  0
LINE
  5
51B
330
1F
100
AcDbEntity
  8
D-5
  6
JWW_CENTER1
 62
     4
370
     9
100
AcDbLine
 10
656.8377817483771
 20
1161.525198280274
 30
0.0
 11
656.8377817483771
 21
1111.525198280274
 31
0.0
  0
TEXT
  5
51C
330
1F
100
AcDbEntity
  8
D-5
  6
Continuous
 62
     2
370
     9
100
AcDbText
 10
723.4640353629812
 20
1170.301013133544
 30
0.0
 40
30.48
  1
C
 41
0.9999999999999998
  7
ＭＳ ゴシック
100
AcDbText
  0
SOLID
  5
51D
330
1F
100
AcDbEntity
  8
D-5
  6
Continuous
 62
     4
370
     9
100
AcDbTrace
 10
658.837781748377
 20
851.5255835997801
 30
0.0
 11
658.837781748377
 21
811.5255835997801
 31
0.0
 12
654.8377817483772
 22
851.5255835997801
 32
0.0
 13
654.8377817483772
 23
811.5255835997801
 33
0.0
  0
LINE
  5
51E
330
1F
100
AcDbEntity
  8
D-5
  6
Continuous
 62
     4
370
     9
100
AcDbLine
 10
666.503871546089
 20
830.5445867263064
 30
0.0
 11
715.7532642290307
 21
830.5445867263064
 31
0.0
  0
LINE
  5
51F
330
1F
100
AcDbEntity
  8
D-5
  6
Continuous
 62
     4
370
     9
100
AcDbLine
 10
666.503871546089
 20
830.5445867263064
 30
0.0
 11
691.2899930804344
 21
833.8077415318078
 31
0.0
  0
LINE
  5
520
330
1F
100
AcDbEntity
  8
D-5
  6
Continuous
 62
     4
370
     9
100
AcDbLine
 10
666.503871546089
 20
830.5445867263064
 30
0.0
 11
691.2899930804344
 21
827.2814319208051
 31
0.0
  0
LINE
  5
521
330
1F
100
AcDbEntity
  8
D-5
  6
JWW_CENTER1
 62
     4
370
     9
100
AcDbLine
 10
656.8377817483771
 20
851.5255835997801
 30
0.0
 11
656.8377817483771
 21
901.5255835997801
 31
0.0
  0
TEXT
  5
522
330
1F
100
AcDbEntity
  8
D-5
  6
Continuous
 62
     2
370
     9
100
AcDbText
 10
723.4640353629812
 20
818.3394047061028
 30
0.0
 40
30.48
  1
C
 41
0.9999999999999998
  7
ＭＳ ゴシック
100
AcDbText
  0
LINE
  5
523
330
1F
100
AcDbEntity
  8
D-A
  6
Continuous
 62
     3
370
     9
100
AcDbLine
 10
487.5761759560403
 20
1096.525198280274
 30
0.0
 11
487.5761759560403
 21
1133.699614747489
 31
0.0
  0
LINE
  5
524
330
1F
100
AcDbEntity
  8
D-A
  6
Continuous
 62
     3
370
     9
100
AcDbLine
 10
512.3251070160059
 20
1096.525198280274
 30
0.0
 11
512.3251070160059
 21
1133.699614747489
 31
0.0
  0
LINE
  5
525
330
1F
100
AcDbEntity
  8
D-A
  6
Continuous
 62
     3
370
     9
100
AcDbLine
 10
462.8272448960736
 20
1096.525198280274
 30
0.0
 11
462.8272448960736
 21
1133.699614747489
 31
0.0
  0
LINE
  5
526
330
1F
100
AcDbEntity
  8
D-A
  6
Continuous
 62
     3
370
     9
100
AcDbLine
 10
887.5761759560403
 20
1096.525198280274
 30
0.0
 11
887.5761759560403
 21
1133.699614747489
 31
0.0
  0
LINE
  5
527
330
1F
100
AcDbEntity
  8
D-A
  6
Continuous
 62
     3
370
     9
100
AcDbLine
 10
912.3251070160059
 20
1096.525198280274
 30
0.0
 11
912.3251070160059
 21
1133.699614747489
 31
0.0
  0
LINE
  5
528
330
1F
100
AcDbEntity
  8
D-A
  6
Continuous
 62
     3
370
     9
100
AcDbLine
 10
862.8272448960736
 20
1096.525198280274
 30
0.0
 11
862.8272448960736
 21
1133.699614747489
 31
0.0
  0
LINE
  5
529
330
1F
100
AcDbEntity
  8
D-A
  6
Continuous
 62
     3
370
     9
100
AcDbLine
 10
487.5761759560403
 20
1026.525461529468
 30
0.0
 11
487.5761759560403
 21
1056.52525931543
 31
0.0
  0
LINE
  5
52A
330
1F
100
AcDbEntity
  8
D-A
  6
Continuous
 62
     3
370
     9
100
AcDbLine
 10
512.3251070160059
 20
1026.525461529468
 30
0.0
 11
512.3251070160059
 21
1056.52525931543
 31
0.0
  0
LINE
  5
52B
330
1F
100
AcDbEntity
  8
D-A
  6
Continuous
 62
     3
370
     9
100
AcDbLine
 10
462.8272448960736
 20
1026.525461529468
 30
0.0
 11
462.8272448960736
 21
1056.52525931543
 31
0.0
  0
LINE
  5
52C
330
1F
100
AcDbEntity
  8
D-A
  6
Continuous
 62
     3
370
     9
100
AcDbLine
 10
887.5761759560403
 20
1026.525461529468
 30
0.0
 11
887.5761759560403
 21
1056.52525931543
 31
0.0
  0
LINE
  5
52D
330
1F
100
AcDbEntity
  8
D-A
  6
Continuous
 62
     3
370
     9
100
AcDbLine
 10
912.3251070160059
 20
1026.525461529468
 30
0.0
 11
912.3251070160059
 21
1056.52525931543
 31
0.0
  0
LINE
  5
52E
330
1F
100
AcDbEntity
  8
D-A
  6
Continuous
 62
     3
370
     9
100
AcDbLine
 10
862.8272448960736
 20
1026.525461529468
 30
0.0
 11
862.8272448960736
 21
1056.52525931543
 31
0.0
  0
LINE
  5
52F
330
1F
100
AcDbEntity
  8
D-A
  6
Continuous
 62
     3
370
     9
100
AcDbLine
 10
487.5761759560403
 20
956.5255225646241
 30
0.0
 11
487.5761759560403
 21
986.5255225646241
 31
0.0
  0
LINE
  5
530
330
1F
100
AcDbEntity
  8
D-A
  6
Continuous
 62
     3
370
     9
100
AcDbLine
 10
487.5761759560403
 20
879.8028063901462
 30
0.0
 11
487.5761759560403
 21
916.5255835997801
 31
0.0
  0
LINE
  5
531
330
1F
100
AcDbEntity
  8
D-A
  6
Continuous
 62
     3
370
     9
100
AcDbLine
 10
512.3251070160059
 20
956.5255225646241
 30
0.0
 11
512.3251070160059
 21
986.5255225646241
 31
0.0
  0
LINE
  5
532
330
1F
100
AcDbEntity
  8
D-A
  6
Continuous
 62
     3
370
     9
100
AcDbLine
 10
512.3251070160059
 20
879.8028063901462
 30
0.0
 11
512.3251070160059
 21
916.5255835997801
 31
0.0
  0
LINE
  5
533
330
1F
100
AcDbEntity
  8
D-A
  6
Continuous
 62
     3
370
     9
100
AcDbLine
 10
462.8272448960736
 20
956.5255225646241
 30
0.0
 11
462.8272448960736
 21
986.5255225646241
 31
0.0
  0
LINE
  5
534
330
1F
100
AcDbEntity
  8
D-A
  6
Continuous
 62
     3
370
     9
100
AcDbLine
 10
462.8272448960736
 20
879.8028063901462
 30
0.0
 11
462.8272448960736
 21
916.5255835997801
 31
0.0
  0
LINE
  5
535
330
1F
100
AcDbEntity
  8
D-A
  6
Continuous
 62
     3
370
     9
100
AcDbLine
 10
887.5761759560403
 20
956.5255225646241
 30
0.0
 11
887.5761759560403
 21
986.5255225646241
 31
0.0
  0
LINE
  5
536
330
1F
100
AcDbEntity
  8
D-A
  6
Continuous
 62
     3
370
     9
100
AcDbLine
 10
887.5761759560403
 20
879.8028063901462
 30
0.0
 11
887.5761759560403
 21
916.5255835997801
 31
0.0
  0
LINE
  5
537
330
1F
100
AcDbEntity
  8
D-A
  6
Continuous
 62
     3
370
     9
100
AcDbLine
 10
912.3251070160059
 20
956.5255225646241
 30
0.0
 11
912.3251070160059
 21
986.5255225646241
 31
0.0
  0
LINE
  5
538
330
1F
100
AcDbEntity
  8
D-A
  6
Continuous
 62
     3
370
     9
100
AcDbLine
 10
912.3251070160059
 20
879.8028063901462
 30
0.0
 11
912.3251070160059
 21
916.5255835997801
 31
0.0
  0
LINE
  5
539
330
1F
100
AcDbEntity
  8
D-A
  6
Continuous
 62
     3
370
     9
100
AcDbLine
 10
862.8272448960736
 20
956.5255225646241
 30
0.0
 11
862.8272448960736
 21
986.5255225646241
 31
0.0
  0
LINE
  5
53A
330
1F
100
AcDbEntity
  8
D-A
  6
Continuous
 62
     3
370
     9
100
AcDbLine
 10
862.8272448960736
 20
879.8028063901462
 30
0.0
 11
862.8272448960736
 21
916.5255835997801
 31
0.0
  0
SOLID
  5
53B
330
1F
100
AcDbEntity
  8
D-5
  6
Continuous
 62
     4
370
     9
100
AcDbTrace
 10
658.837781748377
 20
1161.525198280274
 30
0.0
 11
658.837781748377
 21
1201.525198280274
 31
0.0
 12
654.8377817483772
 22
1161.525198280274
 32
0.0
 13
654.8377817483772
 23
1201.525198280274
 33
0.0
  0
LINE
  5
53C
330
1F
100
AcDbEntity
  8
D-5
  6
Continuous
 62
     4
370
     9
100
AcDbLine
 10
666.503871546089
 20
1182.506195153748
 30
0.0
 11
715.7532642290307
 21
1182.506195153748
 31
0.0
  0
LINE
  5
53D
330
1F
100
AcDbEntity
  8
D-5
  6
Continuous
 62
     4
370
     9
100
AcDbLine
 10
666.503871546089
 20
1182.506195153748
 30
0.0
 11
691.2899930804344
 21
1179.243040348246
 31
0.0
  0
LINE
  5
53E
330
1F
100
AcDbEntity
  8
D-5
  6
Continuous
 62
     4
370
     9
100
AcDbLine
 10
666.503871546089
 20
1182.506195153748
 30
0.0
 11
691.2899930804344
 21
1185.769349959249
 31
0.0
  0
LINE
  5
53F
330
1F
100
AcDbEntity
  8
D-A
  6
Continuous
 62
     3
370
     9
100
AcDbLine
 10
1213.857669533184
 20
1096.525198280274
 30
0.0
 11
102.5761759560403
 21
1096.525198280274
 31
0.0
  0
LINE
  5
540
330
1F
100
AcDbEntity
  8
D-A
  6
Continuous
 62
     3
370
     9
100
AcDbLine
 10
1213.857669533184
 20
1056.52525931543
 30
0.0
 11
102.5761759560403
 21
1056.52525931543
 31
0.0
  0
LINE
  5
541
330
1F
100
AcDbEntity
  8
D-A
  6
Continuous
 62
     3
370
     9
100
AcDbLine
 10
1213.857669533184
 20
1026.525461529468
 30
0.0
 11
102.5761759560403
 21
1026.525461529468
 31
0.0
  0
LINE
  5
542
330
1F
100
AcDbEntity
  8
D-A
  6
Continuous
 62
     3
370
     9
100
AcDbLine
 10
1213.857669533184
 20
986.5255225646241
 30
0.0
 11
102.5761759560403
 21
986.5255225646241
 31
0.0
  0
LINE
  5
543
330
1F
100
AcDbEntity
  8
D-A
  6
Continuous
 62
     3
370
     9
100
AcDbLine
 10
1213.857669533184
 20
956.5255225646241
 30
0.0
 11
102.5761759560403
 21
956.5255225646241
 31
0.0
  0
LINE
  5
544
330
1F
100
AcDbEntity
  8
D-A
  6
Continuous
 62
     3
370
     9
100
AcDbLine
 10
1213.857669533184
 20
916.5255835997801
 30
0.0
 11
102.5761759560403
 21
916.5255835997801
 31
0.0
  0
SOLID
  5
545
330
1F
100
AcDbEntity
  8
D-5
  6
Continuous
 62
     4
370
     9
100
AcDbTrace
 10
1256.598156850048
 20
973.525522564624
 30
0.0
 11
1296.598156850048
 21
973.525522564624
 31
0.0
 12
1256.598156850048
 22
969.5255225646242
 32
0.0
 13
1296.598156850048
 23
969.5255225646242
 33
0.0
  0
LINE
  5
546
330
1F
100
AcDbEntity
  8
D-5
  6
Continuous
 62
     4
370
     9
100
AcDbLine
 10
1274.642302673267
 20
964.8682047255137
 30
0.0
 11
1274.642302673267
 21
915.6188120425718
 31
0.0
  0
LINE
  5
547
330
1F
100
AcDbEntity
  8
D-5
  6
Continuous
 62
     4
370
     9
100
AcDbLine
 10
1274.642302673267
 20
964.8682047255137
 30
0.0
 11
1277.905457478769
 21
940.0820831911683
 31
0.0
  0
LINE
  5
548
330
1F
100
AcDbEntity
  8
D-5
  6
Continuous
 62
     4
370
     9
100
AcDbLine
 10
1274.642302673267
 20
964.8682047255137
 30
0.0
 11
1271.379147867766
 21
940.0820831911683
 31
0.0
  0
TEXT
  5
549
330
1F
100
AcDbEntity
  8
D-5
  6
Continuous
 62
     2
370
     9
100
AcDbText
 10
1264.642302673267
 20
874.573504991271
 30
0.0
 40
30.48
  1
B
 41
1.000000000000007
  7
ＭＳ ゴシック
100
AcDbText
  0
LINE
  5
54A
330
1F
100
AcDbEntity
  8
D-5
  6
JWW_CENTER1
 62
     4
370
     9
100
AcDbLine
 10
1256.598156850048
 20
971.5255225646241
 30
0.0
 11
1106.214709248178
 21
971.5255225646241
 31
0.0
  0
TEXT
  5
54B
330
1F
100
AcDbEntity
  8
D-5
  6
Continuous
 62
     2
370
     9
100
AcDbText
 10
567.2690848057879
 20
355.9708847161577
 30
0.0
 40
30.48
  1
B-B断面図
 41
1.097222222222222
  7
ＭＳ ゴシック
100
AcDbText
  0
TEXT
  5
54C
330
1F
100
AcDbEntity
  8
D-5
  6
Continuous
 62
     2
370
     9
100
AcDbText
 10
-226.4133920719438
 20
872.283940246558
 30
0.0
 40
30.48
  1
B
 41
0.9999999999999998
  7
ＭＳ ゴシック
100
AcDbText
  0
LINE
  5
54D
330
1F
100
AcDbEntity
  8
D-5
  6
Continuous
 62
     4
370
     9
100
AcDbLine
 10
-216.4133920719438
 20
961.8594327669122
 30
0.0
 11
-219.6765468774451
 21
937.0733112325671
 31
0.0
  0
SOLID
  5
54E
330
1F
100
AcDbEntity
  8
D-5
  6
Continuous
 62
     4
370
     9
100
AcDbTrace
 10
-195.4323951984701
 20
969.5255225646242
 30
0.0
 11
-235.4323951984701
 21
969.5255225646242
 31
0.0
 12
-195.4323951984701
 22
973.525522564624
 32
0.0
 13
-235.4323951984701
 23
973.525522564624
 33
0.0
  0
LINE
  5
54F
330
1F
100
AcDbEntity
  8
D-4
  6
Continuous
 62
     7
370
     9
100
AcDbLine
 10
1821.400156201125
 20
606.1452956340395
 30
0.0
 11
1718.400156201125
 21
606.1452956340395
 31
0.0
  0
LWPOLYLINE
  5
550
330
1F
100
AcDbEntity
  8
D-4
  6
Continuous
 62
     7
370
     9
100
AcDbPolyline
 90
        4
 70
     1
 43
1.0
 10
1818.900156201125
 20
606.1452956340395
 42
0.4142135623731
 10
1818.400156201125
 20
606.6452956340395
 42
0.4142135623731
 10
1817.900156201124
 20
606.1452956340395
 42
0.4142135623731
 10
1818.400156201125
 20
605.6452956340395
 42
0.4142135623731
  0
LINE
  5
551
330
1F
100
AcDbEntity
  8
D-4
  6
Continuous
 62
     7
370
     9
100
AcDbLine
 10
1818.400156201125
 20
606.1452956340395
 30
0.0
 11
1818.400156201125
 21
531.1454193539504
 31
0.0
  0
TEXT
  5
552
330
1F
100
AcDbEntity
  8
D-4
  6
Continuous
 62
     2
370
   211
100
AcDbText
 10
1802.760156201125
 20
547.3953574939949
 30
0.0
 40
30.48
  1
15
 50
90.0
 41
1.0625
  7
ＭＳ ゴシック
100
AcDbText
  0
LINE
  5
553
330
1F
100
AcDbEntity
  8
D-4
  6
Continuous
 62
     7
370
     9
100
AcDbLine
 10
1821.400156201125
 20
531.1454193539504
 30
0.0
 11
1718.400156201125
 21
531.1454193539504
 31
0.0
  0
LWPOLYLINE
  5
554
330
1F
100
AcDbEntity
  8
D-4
  6
Continuous
 62
     7
370
     9
100
AcDbPolyline
 90
        4
 70
     1
 43
1.0
 10
1818.900156201125
 20
531.1454193539504
 42
0.4142135623731
 10
1818.400156201125
 20
531.6454193539504
 42
0.4142135623731
 10
1817.900156201124
 20
531.1454193539504
 42
0.4142135623731
 10
1818.400156201125
 20
530.6454193539504
 42
0.4142135623731
  0
SOLID
  5
555
330
1F
100
AcDbEntity
  8
C-5
  6
Continuous
 62
     4
370
     9
100
AcDbTrace
 10
-864.4935177259097
 20
984.5272490683021
 30
0.0
 11
-864.4935177259097
 21
1024.527249068302
 31
0.0
 12
-868.4935177259098
 22
984.5272490683021
 32
0.0
 13
-868.4935177259098
 23
1024.527249068302
 33
0.0
  0
LINE
  5
556
330
1F
100
AcDbEntity
  8
C-5
  6
Continuous
 62
     4
370
     9
100
AcDbLine
 10
-856.8274279281977
 20
1005.508245941776
 30
0.0
 11
-807.5780352452559
 21
1005.508245941776
 31
0.0
  0
LINE
  5
557
330
1F
100
AcDbEntity
  8
C-5
  6
Continuous
 62
     4
370
     9
100
AcDbLine
 10
-856.8274279281977
 20
1005.508245941776
 30
0.0
 11
-832.0413063938526
 21
1002.245091136274
 31
0.0
  0
LINE
  5
558
330
1F
100
AcDbEntity
  8
C-5
  6
Continuous
 62
     4
370
     9
100
AcDbLine
 10
-856.8274279281977
 20
1005.508245941776
 30
0.0
 11
-832.0413063938526
 21
1008.771400747277
 31
0.0
  0
TEXT
  5
559
330
1F
100
AcDbEntity
  8
C-5
  6
Continuous
 62
     2
370
     9
100
AcDbText
 10
-799.8672641113055
 20
993.3030639215722
 30
0.0
 40
30.48
  1
A
 41
0.9999999999999998
  7
ＭＳ ゴシック
100
AcDbText
  0
LINE
  5
55A
330
1F
100
AcDbEntity
  8
C-5
  6
JWW_CENTER1
 62
     4
370
     9
100
AcDbLine
 10
-866.4935177259097
 20
984.5272490683021
 30
0.0
 11
-866.4935177259097
 21
859.9887677958907
 31
0.0
  0
LINE
  5
55B
330
1F
100
AcDbEntity
  8
D-5
  6
Continuous
 62
     7
370
     9
100
AcDbLine
 10
-632.1670715660623
 20
-998.0131516927661
 30
0.0
 11
-1207.167498812156
 21
-998.0131516927661
 31
0.0
  0
LINE
  5
55C
330
1F
100
AcDbEntity
  8
D-5
  6
Continuous
 62
     2
370
     9
100
AcDbLine
 10
432.3551033832077
 20
-453.1422014160593
 30
0.0
 11
207.3557900287155
 21
-453.1422014160593
 31
0.0
  0
LINE
  5
55D
330
1F
100
AcDbEntity
  8
D-5
  6
Continuous
 62
     2
370
     9
100
AcDbLine
 10
432.3551033832077
 20
-403.1419677658517
 30
0.0
 11
432.3551033832077
 21
-453.1422014160593
 31
0.0
  0
LINE
  5
55E
330
1F
100
AcDbEntity
  8
D-5
  6
Continuous
 62
     2
370
     9
100
AcDbLine
 10
207.3557900287155
 20
-403.1419677658517
 30
0.0
 11
432.3551033832077
 21
-403.1419677658517
 31
0.0
  0
LINE
  5
55F
330
1F
100
AcDbEntity
  8
D-5
  6
Continuous
 62
     2
370
     9
100
AcDbLine
 10
207.3557900287155
 20
-453.1422014160593
 30
0.0
 11
207.3557900287155
 21
-403.1419677658517
 31
0.0
  0
TEXT
  5
560
330
1F
100
AcDbEntity
  8
D-5
  6
Continuous
 62
     2
370
     9
100
AcDbText
 10
369.1570137835984
 20
-765.4222234268625
 30
0.0
 40
30.48
  1
　　　サイドバー　ＳＵＳ３０４
 41
1.116666666666666
  7
ＭＳ ゴシック
100
AcDbText
  0
TEXT
  5
561
330
1F
100
AcDbEntity
  8
D-5
  6
Continuous
 62
     2
370
     9
100
AcDbText
 10
369.1570137835984
 20
-700.422662117048
 30
0.0
 40
30.48
  1
　　　クロスバー　ＳＵＳ３０４　＠８０
 41
1.118421052631579
  7
ＭＳ ゴシック
100
AcDbText
  0
TEXT
  5
562
330
1F
100
AcDbEntity
  8
D-5
  6
Continuous
 62
     2
370
     9
100
AcDbText
 10
369.1570137835984
 20
-635.4226048965891
 30
0.0
 40
30.48
  1
材質：メインバー　ＳＵＳ３０４　＠１４
 41
1.118421052631579
  7
ＭＳ ゴシック
100
AcDbText
  0
TEXT
  5
563
330
1F
100
AcDbEntity
  8
D-5
  6
Continuous
 62
     2
370
     9
100
AcDbText
 10
254.8553322650437
 20
-442.5019296188791
 30
0.0
 40
30.48
  1
仕　様
 41
1.083333333333333
  7
ＭＳ ゴシック
100
AcDbText
  0
TEXT
  5
564
330
1F
100
AcDbEntity
  8
D-5
  6
Continuous
 62
     2
370
     9
100
AcDbText
 10
369.1570137835984
 20
-899.5258297954955
 30
0.0
 40
30.48
  1
材質：冷間圧延ステンレス鋼板（ＳＵＳ３０４－２Ｂ）
 41
1.12
  7
ＭＳ ゴシック
100
AcDbText
  0
TEXT
  5
565
330
1F
100
AcDbEntity
  8
D-5
  6
Continuous
 62
     2
370
     9
100
AcDbText
 10
309.4450997210984
 20
-834.5262875591674
 30
0.0
 40
30.48
  1
ステンレス製受枠　ＳＦ１５Ｂ（四方枠）
 41
1.118421052631579
  7
ＭＳ ゴシック
100
AcDbText
  0
TEXT
  5
566
330
1F
100
AcDbEntity
  8
D-5
  6
Continuous
 62
     2
370
     9
100
AcDbText
 10
309.4450997210984
 20
-505.4224999924143
 30
0.0
 40
30.48
  1
ステンレス製　縦目タイプ　細目プレーンタイプ
 41
1.119318181818182
  7
ＭＳ ゴシック
100
AcDbText
  0
TEXT
  5
567
330
1F
100
AcDbEntity
  8
D-5
  6
Continuous
 62
     2
370
     9
100
AcDbText
 10
309.4450997210984
 20
-570.4225572128732
 30
0.0
 40
30.48
  1
グレーチング（すきま６mm）　ＹＲ－Ｈ－Ａ－１５　４００×４００×１５
 41
1.121323529411765
  7
ＭＳ ゴシック
100
AcDbText
  0
TEXT
  5
568
330
1F
100
AcDbEntity
  8
D-5
  6
Continuous
 62
     7
370
     9
100
AcDbText
 10
-452.316637667334
 20
-189.0344676195605
 30
0.0
 40
22.86
  1
溶接用アンカー
 41
1.142857142857143
  7
ＭＳ ゴシック
100
AcDbText
  0
ENDSEC
  0
SECTION
  2
OBJECTS
  0
DICTIONARY
  5
C
330
0
100
AcDbDictionary
281
     1
  3
ACAD_GROUP
350
D
  3
ACAD_LAYOUT
350
1A
  3
ACAD_MLEADERSTYLE
350
56A
  3
ACAD_MLINESTYLE
350
17
  3
ACAD_PLOTSETTINGS
350
19
  3
ACAD_PLOTSTYLENAME
350
E
  3
ACAD_TABLESTYLE
350
569
  3
ACAD_VISUALSTYLE
350
2A
  0
DICTIONARY
  5
D
102
{ACAD_REACTORS
330
C
102
}
330
C
100
AcDbDictionary
281
     1
  0
DICTIONARY
  5
1A
102
{ACAD_REACTORS
330
C
102
}
330
C
100
AcDbDictionary
281
     1
  3
Layout1
350
1E
  3
Layout2
350
26
  3
Model
350
22
  0
DICTIONARY
  5
56A
102
{ACAD_REACTORS
330
C
102
}
330
C
100
AcDbDictionary
281
     1
  0
DICTIONARY
  5
17
102
{ACAD_REACTORS
330
C
102
}
330
C
100
AcDbDictionary
281
     1
  3
Standard
350
18
  0
DICTIONARY
  5
19
102
{ACAD_REACTORS
330
C
102
}
330
C
100
AcDbDictionary
281
     1
  0
ACDBDICTIONARYWDFLT
  5
E
102
{ACAD_REACTORS
330
C
102
}
330
C
100
AcDbDictionary
281
     1
  3
Normal
350
F
100
AcDbDictionaryWithDefault
340
F
  0
DICTIONARY
  5
569
102
{ACAD_REACTORS
330
C
102
}
330
C
100
AcDbDictionary
281
     1
  0
DICTIONARY
  5
2A
102
{ACAD_REACTORS
330
C
102
}
330
C
100
AcDbDictionary
281
     1
  3
2dWireframe
350
2F
  3
3D Hidden
350
31
  3
3dWireframe
350
30
  3
Basic
350
32
  3
Brighten
350
36
  3
ColorChange
350
3A
  3
Conceptual
350
34
  3
Dim
350
35
  3
Facepattern
350
39
  3
Flat
350
2B
  3
FlatWithEdges
350
2C
  3
Gouraud
350
2D
  3
GouraudWithEdges
350
2E
  3
Linepattern
350
38
  3
Realistic
350
33
  3
Thicken
350
37
  0
LAYOUT
  5
1E
102
{ACAD_REACTORS
330
1A
102
}
330
1A
100
AcDbPlotSettings
  1

  2
none_device
  4

  6

 40
0.0
 41
0.0
 42
0.0
 43
0.0
 44
0.0
 45
0.0
 46
0.0
 47
0.0
 48
0.0
 49
0.0
140
0.0
141
0.0
142
1.0
143
1.0
 70
   688
 72
     0
 73
     0
 74
     5
  7

 75
    16
 76
     0
 77
     5
 78
   300
147
1.0
148
0.0
149
0.0
100
AcDbLayout
  1
Layout1
 70
     1
 71
     1
 10
0.0
 20
0.0
 11
420.0
 21
297.0
 12
0.0
 22
0.0
 32
0.0
 14
1.000000000000000E+20
 24
1.000000000000000E+20
 34
1.000000000000000E+20
 15
-1.000000000000000E+20
 25
-1.000000000000000E+20
 35
-1.000000000000000E+20
146
0.0
 13
0.0
 23
0.0
 33
0.0
 16
1.0
 26
0.0
 36
0.0
 17
0.0
 27
1.0
 37
0.0
 76
     0
330
1B
  0
LAYOUT
  5
26
102
{ACAD_REACTORS
330
1A
102
}
330
1A
100
AcDbPlotSettings
  1

  2
none_device
  4

  6

 40
0.0
 41
0.0
 42
0.0
 43
0.0
 44
0.0
 45
0.0
 46
0.0
 47
0.0
 48
0.0
 49
0.0
140
0.0
141
0.0
142
1.0
143
1.0
 70
   688
 72
     0
 73
     0
 74
     5
  7

 75
    16
 76
     0
 77
     5
 78
   300
147
1.0
148
0.0
149
0.0
100
AcDbLayout
  1
Layout2
 70
     1
 71
     2
 10
0.0
 20
0.0
 11
0.0
 21
0.0
 12
0.0
 22
0.0
 32
0.0
 14
0.0
 24
0.0
 34
0.0
 15
0.0
 25
0.0
 35
0.0
146
0.0
 13
0.0
 23
0.0
 33
0.0
 16
1.0
 26
0.0
 36
0.0
 17
0.0
 27
1.0
 37
0.0
 76
     0
330
23
  0
LAYOUT
  5
22
102
{ACAD_REACTORS
330
1A
102
}
330
1A
100
AcDbPlotSettings
  1

  2
none_device
  4

  6

 40
0.0
 41
0.0
 42
0.0
 43
0.0
 44
0.0
 45
0.0
 46
0.0
 47
0.0
 48
0.0
 49
0.0
140
0.0
141
0.0
142
1.0
143
1.0
 70
  1712
 72
     0
 73
     0
 74
     0
  7

 75
     0
 76
     0
 77
     5
 78
   300
147
1.0
148
0.0
149
0.0
100
AcDbLayout
  1
Model
 70
     1
 71
     0
 10
-2100.0
 20
-1485.0
 11
2100.0
 21
1485.0
 12
0.0
 22
0.0
 32
0.0
 14
-2100.0
 24
-1485.0
 34
0.0
 15
2100.0
 25
1485.0
 35
0.0
146
0.0
 13
0.0
 23
0.0
 33
0.0
 16
1.0
 26
0.0
 36
0.0
 17
0.0
 27
1.0
 37
0.0
 76
     0
330
1F
331
29
  0
MLINESTYLE
  5
18
102
{ACAD_REACTORS
330
17
102
}
330
17
100
AcDbMlineStyle
  2
Standard
 70
     0
  3

 62
   256
 51
90.0
 52
90.0
 71
     2
 49
0.5
 62
   256
  6
BYLAYER
 49
-0.5
 62
   256
  6
BYLAYER
  0
ACDBPLACEHOLDER
  5
F
102
{ACAD_REACTORS
330
E
102
}
330
E
  0
VISUALSTYLE
  5
2F
102
{ACAD_REACTORS
330
2A
102
}
330
2A
100
AcDbVisualStyle
  2
2dWireframe
 70
     4
 71
     0
 72
     2
 73
     0
 90
        0
 40
-0.6
 41
-30.0
 62
     5
 63
     7
421
 16777215
 74
     1
 91
        4
 64
     7
 65
   257
 75
     1
175
     1
 42
1.0
 92
        0
 66
   257
 43
1.0
 76
     1
 77
     6
 78
     2
 67
     7
 79
     5
170
     0
171
     0
290
     0
174
     0
 93
        1
 44
0.0
173
     0
291
     0
 45
0.0
1001
ACAD
1000
AcDbSavedByObjectVersion
1070
     0
  0
VISUALSTYLE
  5
31
102
{ACAD_REACTORS
330
2A
102
}
330
2A
100
AcDbVisualStyle
  2
3D Hidden
 70
     6
 71
     1
 72
     2
 73
     2
 90
        0
 40
-0.6
 41
-30.0
 62
     5
 63
     7
421
 16777215
 74
     2
 91
        2
 64
     7
 65
   257
 75
     2
175
     1
 42
40.0
 92
        0
 66
   257
 43
1.0
 76
     1
 77
     6
 78
     2
 67
     7
 79
     3
170
     0
171
     0
290
     0
174
     0
 93
        1
 44
0.0
173
     0
291
     0
 45
0.0
1001
ACAD
1000
AcDbSavedByObjectVersion
1070
     0
  0
VISUALSTYLE
  5
30
102
{ACAD_REACTORS
330
2A
102
}
330
2A
100
AcDbVisualStyle
  2
3dWireframe
 70
     5
 71
     0
 72
     2
 73
     0
 90
        0
 40
-0.6
 41
-30.0
 62
     5
 63
     7
421
 16777215
 74
     1
 91
        4
 64
     7
 65
   257
 75
     1
175
     1
 42
1.0
 92
        0
 66
   257
 43
1.0
 76
     1
 77
     6
 78
     2
 67
     7
 79
     5
170
     0
171
     0
290
     0
174
     0
 93
        1
 44
0.0
173
     0
291
     0
 45
0.0
1001
ACAD
1000
AcDbSavedByObjectVersion
1070
     0
  0
VISUALSTYLE
  5
32
102
{ACAD_REACTORS
330
2A
102
}
330
2A
100
AcDbVisualStyle
  2
Basic
 70
     7
 71
     1
 72
     0
 73
     1
 90
        0
 40
-0.6
 41
-30.0
 62
     5
 63
     7
421
 16777215
 74
     0
 91
        4
 64
     7
 65
   257
 75
     1
175
     1
 42
1.0
 92
        8
 66
     7
 43
1.0
 76
     1
 77
     6
 78
     2
 67
     7
 79
     5
170
     0
171
     0
290
     0
174
     0
 93
        1
 44
0.0
173
     0
291
     1
 45
0.0
1001
ACAD
1000
AcDbSavedByObjectVersion
1070
     0
  0
VISUALSTYLE
  5
36
102
{ACAD_REACTORS
330
2A
102
}
330
2A
100
AcDbVisualStyle
  2
Brighten
 70
    12
 71
     2
 72
     2
 73
     0
 90
        0
 40
-0.6
 41
-30.0
 62
     5
 63
     7
421
 16777215
 74
     1
 91
        4
 64
     7
 65
   257
 75
     1
175
     1
 42
1.0
 92
        8
 66
     7
 43
1.0
 76
     1
 77
     6
 78
     2
 67
     7
 79
     5
170
     0
171
     0
290
     0
174
     0
 93
        1
 44
50.0
173
     0
291
     1
 45
0.0
1001
ACAD
1000
AcDbSavedByObjectVersion
1070
     0
  0
VISUALSTYLE
  5
3A
102
{ACAD_REACTORS
330
2A
102
}
330
2A
100
AcDbVisualStyle
  2
ColorChange
 70
    16
 71
     2
 72
     2
 73
     3
 90
        0
 40
-0.6
 41
-30.0
 62
     5
 63
     8
421
  8421504
 74
     1
 91
        4
 64
     7
 65
   257
 75
     1
175
     1
 42
1.0
 92
        8
 66
     8
424
  8421504
 43
1.0
 76
     1
 77
     6
 78
     2
 67
     7
 79
     5
170
     0
171
     0
290
     0
174
     0
 93
        1
 44
0.0
173
     0
291
     1
 45
0.0
1001
ACAD
1000
AcDbSavedByObjectVersion
1070
     0
  0
VISUALSTYLE
  5
34
102
{ACAD_REACTORS
330
2A
102
}
330
2A
100
AcDbVisualStyle
  2
Conceptual
 70
     9
 71
     3
 72
     2
 73
     0
 90
        0
 40
-0.6
 41
-30.0
 62
     5
 63
     7
421
 16777215
 74
     2
 91
        2
 64
     7
 65
   257
 75
     1
175
     1
 42
40.0
 92
        8
 66
     7
 43
1.0
 76
     1
 77
     6
 78
     2
 67
     7
 79
     3
170
     0
171
     0
290
     0
174
     0
 93
        1
 44
0.0
173
     0
291
     0
 45
0.0
1001
ACAD
1000
AcDbSavedByObjectVersion
1070
     0
  0
VISUALSTYLE
  5
35
102
{ACAD_REACTORS
330
2A
102
}
330
2A
100
AcDbVisualStyle
  2
Dim
 70
    11
 71
     2
 72
     2
 73
     0
 90
        0
 40
-0.6
 41
-30.0
 62
     5
 63
     7
421
 16777215
 74
     1
 91
        4
 64
     7
 65
   257
 75
     1
175
     1
 42
1.0
 92
        8
 66
     7
 43
1.0
 76
     1
 77
     6
 78
     2
 67
     7
 79
     5
170
     0
171
     0
290
     0
174
     0
 93
        1
 44
-50.0
173
     0
291
     1
 45
0.0
1001
ACAD
1000
AcDbSavedByObjectVersion
1070
     0
  0
VISUALSTYLE
  5
39
102
{ACAD_REACTORS
330
2A
102
}
330
2A
100
AcDbVisualStyle
  2
Facepattern
 70
    15
 71
     2
 72
     2
 73
     0
 90
        0
 40
-0.6
 41
-30.0
 62
     5
 63
     7
421
 16777215
 74
     1
 91
        4
 64
     7
 65
   257
 75
     1
175
     1
 42
1.0
 92
        8
 66
     7
 43
1.0
 76
     1
 77
     6
 78
     2
 67
     7
 79
     5
170
     0
171
     0
290
     0
174
     0
 93
        1
 44
0.0
173
     0
291
     1
 45
0.0
1001
ACAD
1000
AcDbSavedByObjectVersion
1070
     0
  0
VISUALSTYLE
  5
2B
102
{ACAD_REACTORS
330
2A
102
}
330
2A
100
AcDbVisualStyle
  2
Flat
 70
     0
 71
     2
 72
     1
 73
     1
 90
        2
 40
-0.6
 41
30.0
 62
     5
 63
     7
421
 16777215
 74
     0
 91
        4
 64
     7
 65
   257
 75
     1
175
     1
 42
1.0
 92
        8
 66
     7
 43
1.0
 76
     1
 77
     6
 78
     2
 67
     7
 79
     5
170
     0
171
     0
290
     0
174
     0
 93
       13
 44
0.0
173
     0
291
     1
 45
0.0
1001
ACAD
1000
AcDbSavedByObjectVersion
1070
     0
  0
VISUALSTYLE
  5
2C
102
{ACAD_REACTORS
330
2A
102
}
330
2A
100
AcDbVisualStyle
  2
FlatWithEdges
 70
     1
 71
     2
 72
     1
 73
     1
 90
        2
 40
-0.6
 41
30.0
 62
     5
 63
     7
421
 16777215
 74
     1
 91
        4
 64
     7
 65
   257
 75
     1
175
     1
 42
1.0
 92
        0
 66
   257
 43
1.0
 76
     1
 77
     6
 78
     2
 67
     7
 79
     5
170
     0
171
     0
290
     0
174
     0
 93
       13
 44
0.0
173
     0
291
     1
 45
0.0
1001
ACAD
1000
AcDbSavedByObjectVersion
1070
     0
  0
VISUALSTYLE
  5
2D
102
{ACAD_REACTORS
330
2A
102
}
330
2A
100
AcDbVisualStyle
  2
Gouraud
 70
     2
 71
     2
 72
     2
 73
     1
 90
        2
 40
-0.6
 41
30.0
 62
     5
 63
     7
421
 16777215
 74
     0
 91
        4
 64
     7
 65
   257
 75
     1
175
     1
 42
1.0
 92
        0
 66
     7
 43
1.0
 76
     1
 77
     6
 78
     2
 67
     7
 79
     5
170
     0
171
     0
290
     0
174
     0
 93
       13
 44
0.0
173
     0
291
     1
 45
0.0
1001
ACAD
1000
AcDbSavedByObjectVersion
1070
     0
  0
VISUALSTYLE
  5
2E
102
{ACAD_REACTORS
330
2A
102
}
330
2A
100
AcDbVisualStyle
  2
GouraudWithEdges
 70
     3
 71
     2
 72
     2
 73
     1
 90
        2
 40
-0.6
 41
30.0
 62
     5
 63
     7
421
 16777215
 74
     1
 91
        4
 64
     7
 65
   257
 75
     1
175
     1
 42
1.0
 92
        0
 66
   257
 43
1.0
 76
     1
 77
     6
 78
     2
 67
     7
 79
     5
170
     0
171
     0
290
     0
174
     0
 93
       13
 44
0.0
173
     0
291
     1
 45
0.0
1001
ACAD
1000
AcDbSavedByObjectVersion
1070
     0
  0
VISUALSTYLE
  5
38
102
{ACAD_REACTORS
330
2A
102
}
330
2A
100
AcDbVisualStyle
  2
Linepattern
 70
    14
 71
     2
 72
     2
 73
     0
 90
        0
 40
-0.6
 41
-30.0
 62
     5
 63
     7
421
 16777215
 74
     1
 91
        4
 64
     7
 65
   257
 75
     7
175
     7
 42
1.0
 92
        8
 66
     7
 43
1.0
 76
     1
 77
     6
 78
     2
 67
     7
 79
     5
170
     0
171
     0
290
     0
174
     0
 93
        1
 44
0.0
173
     0
291
     1
 45
0.0
1001
ACAD
1000
AcDbSavedByObjectVersion
1070
     0
  0
VISUALSTYLE
  5
33
102
{ACAD_REACTORS
330
2A
102
}
330
2A
100
AcDbVisualStyle
  2
Realistic
 70
     8
 71
     2
 72
     2
 73
     0
 90
        0
 40
-0.6
 41
-30.0
 62
     5
 63
     7
421
 16777215
 74
     1
 91
        0
 64
     7
 65
   257
 75
     1
175
     1
 42
1.0
 92
        8
 66
     8
424
  7895160
 43
1.0
 76
     1
 77
     6
 78
     2
 67
     7
 79
     5
170
     0
171
     0
290
     0
174
     0
 93
       13
 44
0.0
173
     0
291
     0
 45
0.0
1001
ACAD
1000
AcDbSavedByObjectVersion
1070
     0
  0
VISUALSTYLE
  5
37
102
{ACAD_REACTORS
330
2A
102
}
330
2A
100
AcDbVisualStyle
  2
Thicken
 70
    13
 71
     2
 72
     2
 73
     0
 90
        0
 40
-0.6
 41
-30.0
 62
     5
 63
     7
421
 16777215
 74
     1
 91
        4
 64
     7
 65
   257
 75
     1
175
     1
 42
1.0
 92
       12
 66
     7
 43
1.0
 76
     1
 77
     6
 78
     2
 67
     7
 79
     5
170
     0
171
     0
290
     0
174
     0
 93
        1
 44
0.0
173
     0
291
     1
 45
0.0
1001
ACAD
1000
AcDbSavedByObjectVersion
1070
     0
  0
ENDSEC
  0
EOF
