  0
SECTION
  2
HEADER
  9
$ACADVER
  1
AC1018
  9
$ACADMAINTVER
 70
     0
  9
$DWGCODEPAGE
  3
ANSI_932
  9
$INSBASE
 10
0.0
 20
0.0
 30
0.0
  9
$EXTMIN
 10
-2100.0
 20
-1485.0
 30
0.0
  9
$EXTMAX
 10
2100.0
 20
1485.0
 30
0.0
  9
$LIMMIN
 10
-2100.0
 20
-1485.0
  9
$LIMMAX
 10
2100.0
 20
1485.0
  9
$ORTHOMODE
 70
     0
  9
$REGENMODE
 70
     1
  9
$FILLMODE
 70
     1
  9
$QTEXTMODE
 70
     0
  9
$MIRRTEXT
 70
     1
  9
$LTSCALE
 40
10.0
  9
$ATTMODE
 70
     1
  9
$TEXTSIZE
 40
2.5
  9
$TRACEWID
 40
1.0
  9
$TEXTSTYLE
  7
Standard
  9
$CLAYER
  8
0
  9
$CELTYPE
  6
ByLayer
  9
$CECOLOR
 62
   256
  9
$CELTSCALE
 40
1.0
  9
$DISPSILH
 70
     0
  9
$DIMSCALE
 40
1.0
  9
$DIMASZ
 40
2.5
  9
$DIMEXO
 40
0.625
  9
$DIMDLI
 40
3.75
  9
$DIMRND
 40
0.0
  9
$DIMDLE
 40
0.0
  9
$DIMEXE
 40
1.25
  9
$DIMTP
 40
0.0
  9
$DIMTM
 40
0.0
  9
$DIMTXT
 40
2.5
  9
$DIMCEN
 40
2.5
  9
$DIMTSZ
 40
0.0
  9
$DIMTOL
 70
     0
  9
$DIMLIM
 70
     0
  9
$DIMTIH
 70
     0
  9
$DIMTOH
 70
     0
  9
$DIMSE1
 70
     0
  9
$DIMSE2
 70
     0
  9
$DIMTAD
 70
     1
  9
$DIMZIN
 70
     8
  9
$DIMBLK
  1

  9
$DIMASO
 70
     1
  9
$DIMSHO
 70
     1
  9
$DIMPOST
  1

  9
$DIMAPOST
  1

  9
$DIMALT
 70
     0
  9
$DIMALTD
 70
     3
  9
$DIMALTF
 40
0.03937007874016
  9
$DIMLFAC
 40
1.0
  9
$DIMTOFL
 70
     1
  9
$DIMTVP
 40
0.0
  9
$DIMTIX
 70
     0
  9
$DIMSOXD
 70
     0
  9
$DIMSAH
 70
     0
  9
$DIMBLK1
  1

  9
$DIMBLK2
  1

  9
$DIMSTYLE
  2
ISO-25
  9
$DIMCLRD
 70
     0
  9
$DIMCLRE
 70
     0
  9
$DIMCLRT
 70
     0
  9
$DIMTFAC
 40
1.0
  9
$DIMGAP
 40
0.625
  9
$DIMJUST
 70
     0
  9
$DIMSD1
 70
     0
  9
$DIMSD2
 70
     0
  9
$DIMTOLJ
 70
     0
  9
$DIMTZIN
 70
     8
  9
$DIMALTZ
 70
     0
  9
$DIMALTTZ
 70
     0
  9
$DIMUPT
 70
     0
  9
$DIMDEC
 70
     2
  9
$DIMTDEC
 70
     2
  9
$DIMALTU
 70
     2
  9
$DIMALTTD
 70
     3
  9
$DIMTXSTY
  7
Standard
  9
$DIMAUNIT
 70
     0
  9
$DIMADEC
 70
     0
  9
$DIMALTRND
 40
0.0
  9
$DIMAZIN
 70
     0
  9
$DIMDSEP
 70
    44
  9
$DIMATFIT
 70
     3
  9
$DIMFRAC
 70
     0
  9
$DIMLDRBLK
  1

  9
$DIMLUNIT
 70
     2
  9
$DIMLWD
 70
    -2
  9
$DIMLWE
 70
    -2
  9
$DIMTMOVE
 70
     0
  9
$LUNITS
 70
     2
  9
$LUPREC
 70
     4
  9
$SKETCHINC
 40
1.0
  9
$FILLETRAD
 40
10.0
  9
$AUNITS
 70
     0
  9
$AUPREC
 70
     0
  9
$MENU
  1
.
  9
$ELEVATION
 40
0.0
  9
$PELEVATION
 40
0.0
  9
$THICKNESS
 40
0.0
  9
$LIMCHECK
 70
     0
  9
$CHAMFERA
 40
10.0
  9
$CHAMFERB
 40
10.0
  9
$CHAMFERC
 40
20.0
  9
$CHAMFERD
 40
0.0
  9
$SKPOLY
 70
     0
  9
$TDCREATE
 40
2458442.395139398
  9
$TDUCREATE
 40
2458442.020139398
  9
$TDUPDATE
 40
2458442.39513941
  9
$TDUUPDATE
 40
2458442.02013941
  9
$TDINDWG
 40
0.0000000116
  9
$TDUSRTIMER
 40
0.0000000116
  9
$USRTIMER
 70
     1
  9
$ANGBASE
 50
0.0
  9
$ANGDIR
 70
     0
  9
$PDMODE
 70
     0
  9
$PDSIZE
 40
0.0
  9
$PLINEWID
 40
0.0
  9
$SPLFRAME
 70
     0
  9
$SPLINETYPE
 70
     6
  9
$SPLINESEGS
 70
     8
  9
$HANDSEED
  5
538
  9
$SURFTAB1
 70
     6
  9
$SURFTAB2
 70
     6
  9
$SURFTYPE
 70
     6
  9
$SURFU
 70
     6
  9
$SURFV
 70
     6
  9
$UCSBASE
  2

  9
$UCSNAME
  2

  9
$UCSORG
 10
0.0
 20
0.0
 30
0.0
  9
$UCSXDIR
 10
1.0
 20
0.0
 30
0.0
  9
$UCSYDIR
 10
0.0
 20
1.0
 30
0.0
  9
$UCSORTHOREF
  2

  9
$UCSORTHOVIEW
 70
     0
  9
$UCSORGTOP
 10
0.0
 20
0.0
 30
0.0
  9
$UCSORGBOTTOM
 10
0.0
 20
0.0
 30
0.0
  9
$UCSORGLEFT
 10
0.0
 20
0.0
 30
0.0
  9
$UCSORGRIGHT
 10
0.0
 20
0.0
 30
0.0
  9
$UCSORGFRONT
 10
0.0
 20
0.0
 30
0.0
  9
$UCSORGBACK
 10
0.0
 20
0.0
 30
0.0
  9
$PUCSBASE
  2

  9
$PUCSNAME
  2

  9
$PUCSORG
 10
0.0
 20
0.0
 30
0.0
  9
$PUCSXDIR
 10
1.0
 20
0.0
 30
0.0
  9
$PUCSYDIR
 10
0.0
 20
1.0
 30
0.0
  9
$PUCSORTHOREF
  2

  9
$PUCSORTHOVIEW
 70
     0
  9
$PUCSORGTOP
 10
0.0
 20
0.0
 30
0.0
  9
$PUCSORGBOTTOM
 10
0.0
 20
0.0
 30
0.0
  9
$PUCSORGLEFT
 10
0.0
 20
0.0
 30
0.0
  9
$PUCSORGRIGHT
 10
0.0
 20
0.0
 30
0.0
  9
$PUCSORGFRONT
 10
0.0
 20
0.0
 30
0.0
  9
$PUCSORGBACK
 10
0.0
 20
0.0
 30
0.0
  9
$USERI1
 70
     0
  9
$USERI2
 70
     0
  9
$USERI3
 70
     0
  9
$USERI4
 70
     0
  9
$USERI5
 70
     0
  9
$USERR1
 40
0.0
  9
$USERR2
 40
0.0
  9
$USERR3
 40
0.0
  9
$USERR4
 40
0.0
  9
$USERR5
 40
0.0
  9
$WORLDVIEW
 70
     1
  9
$SHADEDGE
 70
     3
  9
$SHADEDIF
 70
    70
  9
$TILEMODE
 70
     1
  9
$MAXACTVP
 70
    64
  9
$PINSBASE
 10
0.0
 20
0.0
 30
0.0
  9
$PLIMCHECK
 70
     0
  9
$PEXTMIN
 10
1.000000000000000E+20
 20
1.000000000000000E+20
 30
1.000000000000000E+20
  9
$PEXTMAX
 10
-1.000000000000000E+20
 20
-1.000000000000000E+20
 30
-1.000000000000000E+20
  9
$PLIMMIN
 10
0.0
 20
0.0
  9
$PLIMMAX
 10
420.0
 20
297.0
  9
$UNITMODE
 70
     0
  9
$VISRETAIN
 70
     1
  9
$PLINEGEN
 70
     0
  9
$PSLTSCALE
 70
     1
  9
$TREEDEPTH
 70
  3020
  9
$CMLSTYLE
  2
Standard
  9
$CMLJUST
 70
     0
  9
$CMLSCALE
 40
20.0
  9
$PROXYGRAPHICS
 70
     1
  9
$MEASUREMENT
 70
     1
  9
$CELWEIGHT
370
    -1
  9
$ENDCAPS
280
     0
  9
$JOINSTYLE
280
     0
  9
$LWDISPLAY
290
     0
  9
$INSUNITS
 70
     4
  9
$HYPERLINKBASE
  1

  9
$STYLESHEET
  1

  9
$XEDIT
290
     1
  9
$CEPSNTYPE
380
     0
  9
$PSTYLEMODE
290
     1
  9
$FINGERPRINTGUID
  2
{095B68D4-22ED-41D3-BD14-3AE4749ACC18}
  9
$VERSIONGUID
  2
{FAEB1C32-E019-11D5-929B-00C0DF256EC4}
  9
$EXTNAMES
290
     1
  9
$PSVPSCALE
 40
0.0
  9
$OLESTARTUP
290
     0
  9
$SORTENTS
280
   127
  9
$INDEXCTL
280
     0
  9
$HIDETEXT
280
     1
  9
$XCLIPFRAME
290
     0
  9
$HALOGAP
280
     0
  9
$OBSCOLOR
 70
   257
  9
$OBSLTYPE
280
     0
  9
$INTERSECTIONDISPLAY
280
     0
  9
$INTERSECTIONCOLOR
 70
   257
  9
$DIMASSOC
280
     2
  9
$PROJECTNAME
  1

  0
ENDSEC
  0
SECTION
  2
CLASSES
  0
CLASS
  1
ACDBDICTIONARYWDFLT
  2
AcDbDictionaryWithDefault
  3
ObjectDBX Classes
 90
        0
 91
        4
280
     0
281
     0
  0
CLASS
  1
VISUALSTYLE
  2
AcDbVisualStyle
  3
ObjectDBX Classes
 90
     4095
 91
        4
280
     0
281
     0
  0
ENDSEC
  0
SECTION
  2
TABLES
  0
TABLE
  2
VPORT
  5
8
330
0
100
AcDbSymbolTable
 70
     1
  0
VPORT
  5
29
330
8
100
AcDbSymbolTableRecord
100
AcDbViewportTableRecord
  2
*Active
 70
     0
 10
0.0
 20
0.0
 11
1.0
 21
1.0
 12
0.0
 22
0.0
 13
0.0
 23
0.0
 14
10.0
 24
10.0
 15
10.0
 25
10.0
 16
0.0
 26
0.0
 36
1.0
 17
0.0
 27
0.0
 37
0.0
 40
3267.0
 41
1.414141414141414
 42
50.0
 43
0.0
 44
0.0
 50
0.0
 51
0.0
 71
     0
 72
 10000
 73
     1
 74
     3
 75
     0
 76
     0
 77
     0
 78
     0
281
     0
 65
     1
110
0.0
120
0.0
130
0.0
111
1.0
121
0.0
131
0.0
112
0.0
122
1.0
132
0.0
 79
     0
146
0.0
  0
ENDTAB
  0
TABLE
  2
LTYPE
  5
5
330
0
100
AcDbSymbolTable
 70
     5
  0
LTYPE
  5
14
330
5
100
AcDbSymbolTableRecord
100
AcDbLinetypeTableRecord
  2
ByBlock
 70
     0
  3

 72
    65
 73
     0
 40
0.0
  0
LTYPE
  5
15
330
5
100
AcDbSymbolTableRecord
100
AcDbLinetypeTableRecord
  2
ByLayer
 70
     0
  3

 72
    65
 73
     0
 40
0.0
  0
LTYPE
  5
16
330
5
100
AcDbSymbolTableRecord
100
AcDbLinetypeTableRecord
  2
Continuous
 70
     0
  3
Solid line
 72
    65
 73
     0
 40
0.0
  0
LTYPE
  5
3C
330
5
100
AcDbSymbolTableRecord
100
AcDbLinetypeTableRecord
  2
JWW_CENTER1
 70
     0
  3
-----  --  ----------  --  -----
 72
    65
 73
     4
 40
6.773333333333333
 49
4.233333333333333
 74
     0
 49
-0.8466666666666667
 74
     0
 49
0.8466666666666667
 74
     0
 49
-0.8466666666666667
 74
     0
  0
LTYPE
  5
3D
330
5
100
AcDbSymbolTableRecord
100
AcDbLinetypeTableRecord
  2
JWW_DASHED2
 70
     0
  3
--    ----    ----    ----    --
 72
    65
 73
     2
 40
3.386666666666667
 49
1.693333333333333
 74
     0
 49
-1.693333333333333
 74
     0
  0
LTYPE
  5
3E
330
5
100
AcDbSymbolTableRecord
100
AcDbLinetypeTableRecord
  2
JWW_DASHED3
 70
     0
  3
---  ------  ------  ------  ---
 72
    65
 73
     2
 40
3.386666666666667
 49
2.54
 74
     0
 49
-0.8466666666666667
 74
     0
  0
LTYPE
  5
3F
330
5
100
AcDbSymbolTableRecord
100
AcDbLinetypeTableRecord
  2
JWW_CENTER2
 70
     0
  3
-------------  --  -------------
 72
    65
 73
     4
 40
13.54666666666667
 49
11.00666666666667
 74
     0
 49
-0.8466666666666667
 74
     0
 49
0.8466666666666667
 74
     0
 49
-0.8466666666666667
 74
     0
  0
ENDTAB
  0
TABLE
  2
LAYER
  5
2
330
0
100
AcDbSymbolTable
 70
    17
  0
LAYER
  5
10
330
2
100
AcDbSymbolTableRecord
100
AcDbLayerTableRecord
  2
0
 70
     0
 62
     7
  6
Continuous
370
    -3
390
F
  0
LAYER
  5
40
330
2
100
AcDbSymbolTableRecord
100
AcDbLayerTableRecord
  2
F-5ﾚｲﾔ
 70
     0
 62
     7
  6
Continuous
370
    -1
390
F
  0
LAYER
  5
41
330
2
100
AcDbSymbolTableRecord
100
AcDbLayerTableRecord
  2
D-5
 70
     0
 62
     7
  6
Continuous
370
    -1
390
F
  0
LAYER
  5
42
330
2
100
AcDbSymbolTableRecord
100
AcDbLayerTableRecord
  2
D-4
 70
     0
 62
     7
  6
Continuous
370
    -1
390
F
  0
LAYER
  5
43
330
2
100
AcDbSymbolTableRecord
100
AcDbLayerTableRecord
  2
D-2
 70
     0
 62
     7
  6
Continuous
370
    -1
390
F
  0
LAYER
  5
44
330
2
100
AcDbSymbolTableRecord
100
AcDbLayerTableRecord
  2
D-A
 70
     0
 62
     7
  6
Continuous
370
    -1
390
F
  0
LAYER
  5
45
330
2
100
AcDbSymbolTableRecord
100
AcDbLayerTableRecord
  2
D-0
 70
     0
 62
     7
  6
Continuous
370
    -1
390
F
  0
LAYER
  5
46
330
2
100
AcDbSymbolTableRecord
100
AcDbLayerTableRecord
  2
D-1
 70
     0
 62
     7
  6
Continuous
370
    -1
390
F
  0
LAYER
  5
47
330
2
100
AcDbSymbolTableRecord
100
AcDbLayerTableRecord
  2
D-6
 70
     0
 62
     7
  6
Continuous
370
    -1
390
F
  0
LAYER
  5
48
330
2
100
AcDbSymbolTableRecord
100
AcDbLayerTableRecord
  2
D-9
 70
     0
 62
     7
  6
Continuous
370
    -1
390
F
  0
LAYER
  5
49
330
2
100
AcDbSymbolTableRecord
100
AcDbLayerTableRecord
  2
C-A
 70
     0
 62
     7
  6
Continuous
370
    -1
390
F
  0
LAYER
  5
4A
330
2
100
AcDbSymbolTableRecord
100
AcDbLayerTableRecord
  2
C-2
 70
     0
 62
     7
  6
Continuous
370
    -1
390
F
  0
LAYER
  5
4B
330
2
100
AcDbSymbolTableRecord
100
AcDbLayerTableRecord
  2
C-1
 70
     0
 62
     7
  6
Continuous
370
    -1
390
F
  0
LAYER
  5
4C
330
2
100
AcDbSymbolTableRecord
100
AcDbLayerTableRecord
  2
C-9
 70
     0
 62
     7
  6
Continuous
370
    -1
390
F
  0
LAYER
  5
4D
330
2
100
AcDbSymbolTableRecord
100
AcDbLayerTableRecord
  2
C-4
 70
     0
 62
     7
  6
Continuous
370
    -1
390
F
  0
LAYER
  5
4E
330
2
100
AcDbSymbolTableRecord
100
AcDbLayerTableRecord
  2
C-5
 70
     0
 62
     7
  6
Continuous
370
    -1
390
F
  0
LAYER
  5
4F
330
2
100
AcDbSymbolTableRecord
100
AcDbLayerTableRecord
  2
F-4ﾚｲﾔ
 70
     0
 62
     7
  6
Continuous
370
    -1
390
F
  0
ENDTAB
  0
TABLE
  2
STYLE
  5
3
330
0
100
AcDbSymbolTable
 70
     2
  0
STYLE
  5
11
330
3
100
AcDbSymbolTableRecord
100
AcDbTextStyleTableRecord
  2
Standard
 70
     0
 40
0.0
 41
1.0
 50
0.0
 71
     0
 42
2.5
  3
txt
  4

1001
ACAD
1000

1071
        0
  0
STYLE
  5
3B
330
3
100
AcDbSymbolTableRecord
100
AcDbTextStyleTableRecord
  2
ＭＳ ゴシック
 70
     0
 40
1.0
 41
1.0
 50
0.0
 71
     0
 42
10.0
  3

  4

1001
ACAD
1000
MS Gothic
1071
    32817
  0
ENDTAB
  0
TABLE
  2
VIEW
  5
6
330
0
100
AcDbSymbolTable
 70
     0
  0
ENDTAB
  0
TABLE
  2
UCS
  5
7
330
0
100
AcDbSymbolTable
 70
     0
  0
ENDTAB
  0
TABLE
  2
APPID
  5
9
330
0
100
AcDbSymbolTable
 70
     1
  0
APPID
  5
12
330
9
100
AcDbSymbolTableRecord
100
AcDbRegAppTableRecord
  2
ACAD
 70
     0
  0
ENDTAB
  0
TABLE
  2
DIMSTYLE
  5
A
330
0
100
AcDbSymbolTable
 70
     1
100
AcDbDimStyleTable
  0
DIMSTYLE
105
27
330
A
100
AcDbSymbolTableRecord
100
AcDbDimStyleTableRecord
  2
ISO-25
 70
     0
 41
2.5
 42
0.625
 43
3.75
 44
1.25
 73
     0
 74
     0
 77
     1
 78
     8
140
2.5
141
2.5
143
0.03937007874016
147
0.625
171
     3
172
     1
271
     2
272
     2
274
     3
278
    44
283
     0
284
     8
340
11
  0
ENDTAB
  0
TABLE
  2
BLOCK_RECORD
  5
1
330
0
100
AcDbSymbolTable
 70
     1
  0
BLOCK_RECORD
  5
1F
330
1
100
AcDbSymbolTableRecord
100
AcDbBlockTableRecord
  2
*Model_Space
340
22
  0
BLOCK_RECORD
  5
1B
330
1
100
AcDbSymbolTableRecord
100
AcDbBlockTableRecord
  2
*Paper_Space
340
1E
  0
BLOCK_RECORD
  5
23
330
1
100
AcDbSymbolTableRecord
100
AcDbBlockTableRecord
  2
*Paper_Space0
340
26
  0
ENDTAB
  0
ENDSEC
  0
SECTION
  2
BLOCKS
  0
BLOCK
  5
20
330
1F
100
AcDbEntity
  8
0
100
AcDbBlockBegin
  2
*Model_Space
 70
     0
 10
0.0
 20
0.0
 30
0.0
  3
*Model_Space
  1

  0
ENDBLK
  5
21
330
1F
100
AcDbEntity
  8
0
100
AcDbBlockEnd
  0
BLOCK
  5
1C
330
1B
100
AcDbEntity
 67
     1
  8
0
100
AcDbBlockBegin
  2
*Paper_Space
 70
     0
 10
0.0
 20
0.0
 30
0.0
  3
*Paper_Space
  1

  0
ENDBLK
  5
1D
330
1B
100
AcDbEntity
 67
     1
  8
0
100
AcDbBlockEnd
  0
BLOCK
  5
24
330
23
100
AcDbEntity
  8
0
100
AcDbBlockBegin
  2
*Paper_Space0
 70
     0
 10
0.0
 20
0.0
 30
0.0
  3
*Paper_Space0
  1

  0
ENDBLK
  5
25
330
23
100
AcDbEntity
  8
0
100
AcDbBlockEnd
  0
ENDSEC
  0
SECTION
  2
ENTITIES
  0
TEXT
  5
50
330
1F
100
AcDbEntity
  8
F-5ﾚｲﾔ
  6
Continuous
 62
     2
370
     9
100
AcDbText
 10
-833.1653373972165
 20
-1325.085615606012
 30
0.0
 40
30.48
  1
ステンレス製　細目滑り止め模様付（ローレット模様）グレーチング（すきま9mm）
 41
0.7743333333333332
  7
ＭＳ ゴシック
100
AcDbText
  0
LINE
  5
51
330
1F
100
AcDbEntity
  8
D-5
  6
Continuous
 62
     7
370
     9
100
AcDbLine
 10
452.3892631202808
 20
66.47175814954274
 30
0.0
 11
670.3276834683395
 21
66.47175814954274
 31
0.0
  0
TEXT
  5
52
330
1F
100
AcDbEntity
  8
D-5
  6
Continuous
 62
     2
370
     9
100
AcDbText
 10
462.6084732943103
 20
87.11175814954274
 30
0.0
 40
30.48
  1
B-B断面図
 41
1.097222222222222
  7
ＭＳ ゴシック
100
AcDbText
  0
LINE
  5
53
330
1F
100
AcDbEntity
  8
D-4
  6
Continuous
 62
     7
370
     9
100
AcDbLine
 10
821.0242654778539
 20
355.2245626599881
 30
0.0
 11
821.0242654778539
 21
280.2246863798994
 31
0.0
  0
LWPOLYLINE
  5
54
330
1F
100
AcDbEntity
  8
D-4
  6
Continuous
 62
     7
370
     9
100
AcDbPolyline
 90
        4
 70
     1
 43
1.0
 10
821.5242654778538
 20
355.2245626599881
 42
0.4142135623731
 10
821.0242654778539
 20
355.724562659988
 42
0.4142135623731
 10
820.5242654778539
 20
355.2245626599881
 42
0.4142135623731
 10
821.0242654778539
 20
354.7245626599881
 42
0.4142135623731
  0
LWPOLYLINE
  5
55
330
1F
100
AcDbEntity
  8
D-4
  6
Continuous
 62
     7
370
     9
100
AcDbPolyline
 90
        4
 70
     1
 43
1.0
 10
821.5242654778538
 20
280.2246863798994
 42
0.4142135623731
 10
821.0242654778539
 20
280.7246863798994
 42
0.4142135623731
 10
820.5242654778539
 20
280.2246863798994
 42
0.4142135623731
 10
821.0242654778539
 20
279.7246863798994
 42
0.4142135623731
  0
LINE
  5
56
330
1F
100
AcDbEntity
  8
D-4
  6
Continuous
 62
     7
370
     9
100
AcDbLine
 10
824.024265477854
 20
355.2245626599881
 30
0.0
 11
736.9149633091876
 21
355.2245626599881
 31
0.0
  0
LINE
  5
57
330
1F
100
AcDbEntity
  8
D-4
  6
Continuous
 62
     7
370
     9
100
AcDbLine
 10
824.024265477854
 20
280.2246863798994
 30
0.0
 11
736.9149633091876
 21
280.2246863798994
 31
0.0
  0
TEXT
  5
58
330
1F
100
AcDbEntity
  8
D-4
  6
Continuous
 62
     2
370
   211
100
AcDbText
 10
809.3842654778542
 20
296.4746245199438
 30
0.0
 40
30.48
  1
15
 50
90.0
 41
1.0625
  7
ＭＳ ゴシック
100
AcDbText
  0
LINE
  5
59
330
1F
100
AcDbEntity
  8
D-2
  6
Continuous
 62
     3
370
     9
100
AcDbLine
 10
439.9816053565444
 20
355.2245626599881
 30
0.0
 11
709.7413881373693
 21
355.2245626599881
 31
0.0
  0
LINE
  5
5A
330
1F
100
AcDbEntity
  8
D-2
  6
Continuous
 62
     3
370
     9
100
AcDbLine
 10
439.9816053565444
 20
280.2246863798994
 30
0.0
 11
709.7413881373693
 21
280.2246863798994
 31
0.0
  0
LINE
  5
5B
330
1F
100
AcDbEntity
  8
D-2
  6
Continuous
 62
     3
370
     9
100
AcDbLine
 10
469.9410334736244
 20
355.2245626599881
 30
0.0
 11
469.9410334736244
 21
348.2244900776404
 31
0.0
  0
LINE
  5
5C
330
1F
100
AcDbEntity
  8
D-2
  6
Continuous
 62
     3
370
     9
100
AcDbLine
 10
509.9405468419734
 20
348.2244900776404
 30
0.0
 11
469.9410334736244
 21
348.2244900776404
 31
0.0
  0
LINE
  5
5D
330
1F
100
AcDbEntity
  8
D-2
  6
Continuous
 62
     3
370
     9
100
AcDbLine
 10
509.9405468419734
 20
348.2244900776404
 30
0.0
 11
509.9405468419734
 21
355.2245626599881
 31
0.0
  0
LINE
  5
5E
330
1F
100
AcDbEntity
  8
D-2
  6
Continuous
 62
     3
370
     9
100
AcDbLine
 10
486.4409394464916
 20
348.2244900776404
 30
0.0
 11
486.4409394464916
 21
280.2246863798994
 31
0.0
  0
LINE
  5
5F
330
1F
100
AcDbEntity
  8
D-2
  6
Continuous
 62
     3
370
     9
100
AcDbLine
 10
493.4410120288395
 20
348.2244900776404
 30
0.0
 11
493.4410120288395
 21
280.2246863798994
 31
0.0
  0
ARC
  5
60
330
1F
100
AcDbEntity
  8
D-2
  6
Continuous
 62
     3
370
     9
100
AcDbCircle
 10
498.4410120288395
 20
343.2244900776404
 30
0.0
 40
5.0
100
AcDbArc
 50
90.0
 51
180.0
  0
ARC
  5
61
330
1F
100
AcDbEntity
  8
D-2
  6
Continuous
 62
     3
370
     9
100
AcDbCircle
 10
481.4409394464916
 20
343.2244900776404
 30
0.0
 40
5.0
100
AcDbArc
 50
0.0
 51
90.0
  0
LINE
  5
62
330
1F
100
AcDbEntity
  8
D-2
  6
Continuous
 62
     3
370
     9
100
AcDbLine
 10
594.8405468419735
 20
348.2244900776404
 30
0.0
 11
554.8410334736245
 21
348.2244900776404
 31
0.0
  0
LINE
  5
63
330
1F
100
AcDbEntity
  8
D-2
  6
Continuous
 62
     3
370
     9
100
AcDbLine
 10
554.8410334736245
 20
355.2245626599881
 30
0.0
 11
554.8410334736245
 21
348.2244900776404
 31
0.0
  0
LINE
  5
64
330
1F
100
AcDbEntity
  8
D-2
  6
Continuous
 62
     3
370
     9
100
AcDbLine
 10
594.8405468419735
 20
348.2244900776404
 30
0.0
 11
594.8405468419735
 21
355.2245626599881
 31
0.0
  0
LINE
  5
65
330
1F
100
AcDbEntity
  8
D-2
  6
Continuous
 62
     3
370
     9
100
AcDbLine
 10
571.3409394464917
 20
348.2244900776404
 30
0.0
 11
571.3409394464917
 21
280.2246863798994
 31
0.0
  0
LINE
  5
66
330
1F
100
AcDbEntity
  8
D-2
  6
Continuous
 62
     3
370
     9
100
AcDbLine
 10
578.3410120288396
 20
348.2244900776404
 30
0.0
 11
578.3410120288396
 21
280.2246863798994
 31
0.0
  0
ARC
  5
67
330
1F
100
AcDbEntity
  8
D-2
  6
Continuous
 62
     3
370
     9
100
AcDbCircle
 10
566.3409394464917
 20
343.2244900776404
 30
0.0
 40
5.0
100
AcDbArc
 50
0.0
 51
90.0
  0
ARC
  5
68
330
1F
100
AcDbEntity
  8
D-2
  6
Continuous
 62
     3
370
     9
100
AcDbCircle
 10
583.3410120288396
 20
343.2244900776404
 30
0.0
 40
5.0
100
AcDbArc
 50
90.0
 51
180.0
  0
LINE
  5
69
330
1F
100
AcDbEntity
  8
D-2
  6
Continuous
 62
     3
370
     9
100
AcDbLine
 10
639.7410334736246
 20
355.2245626599881
 30
0.0
 11
639.7410334736246
 21
348.2244900776404
 31
0.0
  0
LINE
  5
6A
330
1F
100
AcDbEntity
  8
D-2
  6
Continuous
 62
     3
370
     9
100
AcDbLine
 10
679.7405468419736
 20
348.2244900776404
 30
0.0
 11
639.7410334736246
 21
348.2244900776404
 31
0.0
  0
LINE
  5
6B
330
1F
100
AcDbEntity
  8
D-2
  6
Continuous
 62
     3
370
     9
100
AcDbLine
 10
679.7405468419736
 20
348.2244900776404
 30
0.0
 11
679.7405468419736
 21
355.2245626599881
 31
0.0
  0
LINE
  5
6C
330
1F
100
AcDbEntity
  8
D-2
  6
Continuous
 62
     3
370
     9
100
AcDbLine
 10
656.2409394464918
 20
348.2244900776404
 30
0.0
 11
656.2409394464918
 21
280.2246863798994
 31
0.0
  0
LINE
  5
6D
330
1F
100
AcDbEntity
  8
D-2
  6
Continuous
 62
     3
370
     9
100
AcDbLine
 10
663.2410120288397
 20
348.2244900776404
 30
0.0
 11
663.2410120288397
 21
280.2246863798994
 31
0.0
  0
ARC
  5
6E
330
1F
100
AcDbEntity
  8
D-2
  6
Continuous
 62
     3
370
     9
100
AcDbCircle
 10
651.2409394464918
 20
343.2244900776404
 30
0.0
 40
5.0
100
AcDbArc
 50
0.0
 51
90.0
  0
ARC
  5
6F
330
1F
100
AcDbEntity
  8
D-2
  6
Continuous
 62
     3
370
     9
100
AcDbCircle
 10
668.2410120288397
 20
343.2244900776404
 30
0.0
 40
5.0
100
AcDbArc
 50
90.0
 51
180.0
  0
LINE
  5
70
330
1F
100
AcDbEntity
  8
D-4
  6
Continuous
 62
     7
370
     9
100
AcDbLine
 10
469.9410334736244
 20
451.1916208146883
 30
0.0
 11
509.9405468419734
 21
451.1916208146883
 31
0.0
  0
LWPOLYLINE
  5
71
330
1F
100
AcDbEntity
  8
D-4
  6
Continuous
 62
     7
370
     9
100
AcDbPolyline
 90
        4
 70
     1
 43
1.0
 10
470.4410334736244
 20
451.1916208146883
 42
0.4142135623731
 10
469.9410334736244
 20
451.6916208146883
 42
0.4142135623731
 10
469.4410334736244
 20
451.1916208146883
 42
0.4142135623731
 10
469.9410334736244
 20
450.6916208146884
 42
0.4142135623731
  0
LWPOLYLINE
  5
72
330
1F
100
AcDbEntity
  8
D-4
  6
Continuous
 62
     7
370
     9
100
AcDbPolyline
 90
        4
 70
     1
 43
1.0
 10
510.4405468419733
 20
451.1916208146883
 42
0.4142135623731
 10
509.9405468419734
 20
451.6916208146883
 42
0.4142135623731
 10
509.4405468419734
 20
451.1916208146883
 42
0.4142135623731
 10
509.9405468419734
 20
450.6916208146884
 42
0.4142135623731
  0
LINE
  5
73
330
1F
100
AcDbEntity
  8
D-4
  6
Continuous
 62
     7
370
     9
100
AcDbLine
 10
469.9410334736244
 20
454.1916208146883
 30
0.0
 11
469.9410334736244
 21
375.2245626599881
 31
0.0
  0
LINE
  5
74
330
1F
100
AcDbEntity
  8
D-4
  6
Continuous
 62
     7
370
     9
100
AcDbLine
 10
509.9405468419734
 20
454.1916208146883
 30
0.0
 11
509.9405468419734
 21
375.2245626599881
 31
0.0
  0
TEXT
  5
75
330
1F
100
AcDbEntity
  8
D-4
  6
Continuous
 62
     2
370
   211
100
AcDbText
 10
479.9407901577989
 20
462.8316208146883
 30
0.0
 40
30.48
  1
8
 41
0.9999999999999998
  7
ＭＳ ゴシック
100
AcDbText
  0
LINE
  5
76
330
1F
100
AcDbEntity
  8
D-4
  6
Continuous
 62
     7
370
     9
100
AcDbLine
 10
509.9405468419734
 20
451.1916208146883
 30
0.0
 11
554.8410334736245
 21
451.1916208146883
 31
0.0
  0
LWPOLYLINE
  5
77
330
1F
100
AcDbEntity
  8
D-4
  6
Continuous
 62
     7
370
     9
100
AcDbPolyline
 90
        4
 70
     1
 43
1.0
 10
555.3410334736245
 20
451.1916208146883
 42
0.4142135623731
 10
554.8410334736245
 20
451.6916208146883
 42
0.4142135623731
 10
554.3410334736245
 20
451.1916208146883
 42
0.4142135623731
 10
554.8410334736245
 20
450.6916208146884
 42
0.4142135623731
  0
LINE
  5
78
330
1F
100
AcDbEntity
  8
D-4
  6
Continuous
 62
     7
370
     9
100
AcDbLine
 10
554.8410334736245
 20
454.1916208146883
 30
0.0
 11
554.8410334736245
 21
375.2245626599881
 31
0.0
  0
LINE
  5
79
330
1F
100
AcDbEntity
  8
D-4
  6
Continuous
 62
     7
370
     9
100
AcDbLine
 10
554.8410334736245
 20
451.1916208146883
 30
0.0
 11
594.8405468419735
 21
451.1916208146883
 31
0.0
  0
LWPOLYLINE
  5
7A
330
1F
100
AcDbEntity
  8
D-4
  6
Continuous
 62
     7
370
     9
100
AcDbPolyline
 90
        4
 70
     1
 43
1.0
 10
595.3405468419735
 20
451.1916208146883
 42
0.4142135623731
 10
594.8405468419735
 20
451.6916208146883
 42
0.4142135623731
 10
594.3405468419735
 20
451.1916208146883
 42
0.4142135623731
 10
594.8405468419735
 20
450.6916208146884
 42
0.4142135623731
  0
LINE
  5
7B
330
1F
100
AcDbEntity
  8
D-4
  6
Continuous
 62
     7
370
     9
100
AcDbLine
 10
594.8405468419735
 20
454.1916208146883
 30
0.0
 11
594.8405468419735
 21
375.2245626599881
 31
0.0
  0
TEXT
  5
7C
330
1F
100
AcDbEntity
  8
D-4
  6
Continuous
 62
     2
370
   211
100
AcDbText
 10
564.840790157799
 20
462.8316208146883
 30
0.0
 40
30.48
  1
8
 41
0.9999999999999998
  7
ＭＳ ゴシック
100
AcDbText
  0
LINE
  5
7D
330
1F
100
AcDbEntity
  8
D-4
  6
Continuous
 62
     7
370
     9
100
AcDbLine
 10
594.8405468419735
 20
451.1916208146883
 30
0.0
 11
639.7410334736246
 21
451.1916208146883
 31
0.0
  0
LWPOLYLINE
  5
7E
330
1F
100
AcDbEntity
  8
D-4
  6
Continuous
 62
     7
370
     9
100
AcDbPolyline
 90
        4
 70
     1
 43
1.0
 10
640.2410334736246
 20
451.1916208146883
 42
0.4142135623731
 10
639.7410334736246
 20
451.6916208146883
 42
0.4142135623731
 10
639.2410334736246
 20
451.1916208146883
 42
0.4142135623731
 10
639.7410334736246
 20
450.6916208146884
 42
0.4142135623731
  0
LINE
  5
7F
330
1F
100
AcDbEntity
  8
D-4
  6
Continuous
 62
     7
370
     9
100
AcDbLine
 10
639.7410334736246
 20
454.1916208146883
 30
0.0
 11
639.7410334736246
 21
375.2245626599881
 31
0.0
  0
LINE
  5
80
330
1F
100
AcDbEntity
  8
D-4
  6
Continuous
 62
     7
370
     9
100
AcDbLine
 10
639.7410334736246
 20
451.1916208146883
 30
0.0
 11
679.7405468419736
 21
451.1916208146883
 31
0.0
  0
LWPOLYLINE
  5
81
330
1F
100
AcDbEntity
  8
D-4
  6
Continuous
 62
     7
370
     9
100
AcDbPolyline
 90
        4
 70
     1
 43
1.0
 10
680.2405468419736
 20
451.1916208146883
 42
0.4142135623731
 10
679.7405468419736
 20
451.6916208146883
 42
0.4142135623731
 10
679.2405468419736
 20
451.1916208146883
 42
0.4142135623731
 10
679.7405468419736
 20
450.6916208146884
 42
0.4142135623731
  0
LINE
  5
82
330
1F
100
AcDbEntity
  8
D-4
  6
Continuous
 62
     7
370
     9
100
AcDbLine
 10
679.7405468419736
 20
454.1916208146883
 30
0.0
 11
679.7405468419736
 21
375.2245626599881
 31
0.0
  0
TEXT
  5
83
330
1F
100
AcDbEntity
  8
D-4
  6
Continuous
 62
     2
370
   211
100
AcDbText
 10
649.7407901577991
 20
462.8316208146883
 30
0.0
 40
30.48
  1
8
 41
0.9999999999999998
  7
ＭＳ ゴシック
100
AcDbText
  0
TEXT
  5
84
330
1F
100
AcDbEntity
  8
D-4
  6
Continuous
 62
     2
370
   211
100
AcDbText
 10
607.6710350917859
 20
462.8316208146883
 30
0.0
 40
30.48
  1
9
 41
0.9999999999999998
  7
ＭＳ ゴシック
100
AcDbText
  0
TEXT
  5
85
330
1F
100
AcDbEntity
  8
D-4
  6
Continuous
 62
     2
370
   211
100
AcDbText
 10
522.9917898087671
 20
462.8316208146883
 30
0.0
 40
30.48
  1
9
 41
0.9999999999999998
  7
ＭＳ ゴシック
100
AcDbText
  0
LINE
  5
86
330
1F
100
AcDbEntity
  8
D-2
  6
Continuous
 62
     3
370
     9
100
AcDbLine
 10
564.7448898075027
 20
899.6888253296544
 30
0.0
 11
564.7448898075027
 21
884.6879708374667
 31
0.0
  0
LINE
  5
87
330
1F
100
AcDbEntity
  8
D-2
  6
Continuous
 62
     3
370
     9
100
AcDbLine
 10
564.7448898075027
 20
899.6888253296544
 30
0.0
 11
584.7459731815263
 21
869.6878487671535
 31
0.0
  0
LINE
  5
88
330
1F
100
AcDbEntity
  8
D-2
  6
Continuous
 62
     3
370
     9
100
AcDbLine
 10
584.7459731815263
 20
884.6879708374667
 30
0.0
 11
584.7459731815263
 21
869.6878487671535
 31
0.0
  0
LINE
  5
89
330
1F
100
AcDbEntity
  8
D-A
  6
Continuous
 62
     3
370
     9
100
AcDbLine
 10
594.8405468419735
 20
884.6879708374667
 30
0.0
 11
594.8405468419735
 21
1019.688168789324
 31
0.0
  0
LINE
  5
8A
330
1F
100
AcDbEntity
  8
D-A
  6
Continuous
 62
     3
370
     9
100
AcDbLine
 10
554.8412809134475
 20
884.6879708374667
 30
0.0
 11
554.8412809134475
 21
1019.688168789324
 31
0.0
  0
LINE
  5
8B
330
1F
100
AcDbEntity
  8
D-2
  6
Continuous
 62
     3
370
     9
100
AcDbLine
 10
554.8381334789035
 20
935.6939456020393
 30
0.0
 11
594.8380724437475
 21
902.1304690395391
 31
0.0
  0
LINE
  5
8C
330
1F
100
AcDbEntity
  8
D-2
  6
Continuous
 62
     3
370
     9
100
AcDbLine
 10
554.8381334789035
 20
945.9477964439748
 30
0.0
 11
594.8380724437475
 21
912.3843198814745
 31
0.0
  0
LINE
  5
8D
330
1F
100
AcDbEntity
  8
D-2
  6
Continuous
 62
     3
370
     9
100
AcDbLine
 10
554.8381334789035
 20
910.0513120689749
 30
0.0
 11
594.8380724437475
 21
943.6151853599904
 31
0.0
  0
LINE
  5
8E
330
1F
100
AcDbEntity
  8
D-2
  6
Continuous
 62
     3
370
     9
100
AcDbLine
 10
554.8381334789035
 20
956.2016472859096
 30
0.0
 11
594.8380724437475
 21
922.63817072341
 31
0.0
  0
LINE
  5
8F
330
1F
100
AcDbEntity
  8
D-2
  6
Continuous
 62
     3
370
     9
100
AcDbLine
 10
554.8381334789035
 20
920.3051629109098
 30
0.0
 11
594.8380724437475
 21
953.8690362019253
 31
0.0
  0
LINE
  5
90
330
1F
100
AcDbEntity
  8
D-2
  6
Continuous
 62
     3
370
     9
100
AcDbLine
 10
554.8381334789035
 20
966.4554981278451
 30
0.0
 11
594.8380724437475
 21
932.8920215653454
 31
0.0
  0
LINE
  5
91
330
1F
100
AcDbEntity
  8
D-2
  6
Continuous
 62
     3
370
     9
100
AcDbLine
 10
554.8381334789035
 20
930.5590137528452
 30
0.0
 11
594.8380724437475
 21
964.1228870438607
 31
0.0
  0
LINE
  5
92
330
1F
100
AcDbEntity
  8
D-2
  6
Continuous
 62
     3
370
     9
100
AcDbLine
 10
554.8381334789035
 20
976.7093489697805
 30
0.0
 11
594.8380724437475
 21
943.1458724072803
 31
0.0
  0
LINE
  5
93
330
1F
100
AcDbEntity
  8
D-2
  6
Continuous
 62
     3
370
     9
100
AcDbLine
 10
554.8381334789035
 20
940.8128645947806
 30
0.0
 11
594.8380724437475
 21
974.3767378857962
 31
0.0
  0
LINE
  5
94
330
1F
100
AcDbEntity
  8
D-2
  6
Continuous
 62
     3
370
     9
100
AcDbLine
 10
554.8381334789035
 20
986.963199811716
 30
0.0
 11
594.8380724437475
 21
953.3997232492158
 31
0.0
  0
LINE
  5
95
330
1F
100
AcDbEntity
  8
D-2
  6
Continuous
 62
     3
370
     9
100
AcDbLine
 10
554.8381334789035
 20
951.0667154367161
 30
0.0
 11
594.8380724437475
 21
984.6305887277316
 31
0.0
  0
LINE
  5
96
330
1F
100
AcDbEntity
  8
D-2
  6
Continuous
 62
     3
370
     9
100
AcDbLine
 10
554.8381334789035
 20
997.2170506536509
 30
0.0
 11
594.8380724437475
 21
963.6535740911512
 31
0.0
  0
LINE
  5
97
330
1F
100
AcDbEntity
  8
D-2
  6
Continuous
 62
     3
370
     9
100
AcDbLine
 10
554.8381334789035
 20
961.320566278651
 30
0.0
 11
594.8380724437475
 21
994.8844395696665
 31
0.0
  0
LINE
  5
98
330
1F
100
AcDbEntity
  8
D-2
  6
Continuous
 62
     3
370
     9
100
AcDbLine
 10
554.8381334789035
 20
1007.470901495586
 30
0.0
 11
594.8380724437475
 21
973.9074249330866
 31
0.0
  0
LINE
  5
99
330
1F
100
AcDbEntity
  8
D-2
  6
Continuous
 62
     3
370
     9
100
AcDbLine
 10
554.8381334789035
 20
971.5744171205864
 30
0.0
 11
594.8380724437475
 21
1005.138290411602
 31
0.0
  0
LINE
  5
9A
330
1F
100
AcDbEntity
  8
D-2
  6
Continuous
 62
     3
370
     9
100
AcDbLine
 10
554.8381334789035
 20
1017.724752337522
 30
0.0
 11
594.8380724437475
 21
984.1612757750215
 31
0.0
  0
LINE
  5
9B
330
1F
100
AcDbEntity
  8
D-2
  6
Continuous
 62
     3
370
     9
100
AcDbLine
 10
554.8381334789035
 20
981.8282679625219
 30
0.0
 11
594.8380724437475
 21
1015.392141253537
 31
0.0
  0
LINE
  5
9C
330
1F
100
AcDbEntity
  8
D-2
  6
Continuous
 62
     3
370
     9
100
AcDbLine
 10
589.1588833903841
 20
1019.688168789324
 30
0.0
 11
594.8380724437475
 21
1014.922828300828
 31
0.0
  0
LINE
  5
9D
330
1F
100
AcDbEntity
  8
D-2
  6
Continuous
 62
     3
370
     9
100
AcDbLine
 10
554.8381334789035
 20
992.0821188044573
 30
0.0
 11
587.7378022650662
 21
1019.688168789324
 31
0.0
  0
LINE
  5
9E
330
1F
100
AcDbEntity
  8
D-2
  6
Continuous
 62
     3
370
     9
100
AcDbLine
 10
576.938653252178
 20
1019.688168789324
 30
0.0
 11
594.8380724437475
 21
1004.668977458892
 31
0.0
  0
LINE
  5
9F
330
1F
100
AcDbEntity
  8
D-2
  6
Continuous
 62
     3
370
     9
100
AcDbLine
 10
554.8381334789035
 20
1002.335969646392
 30
0.0
 11
575.5177165712671
 21
1019.688168789324
 31
0.0
  0
LINE
  5
A0
330
1F
100
AcDbEntity
  8
D-2
  6
Continuous
 62
     3
370
     9
100
AcDbLine
 10
564.7184231139726
 20
1019.688168789324
 30
0.0
 11
594.8380724437475
 21
994.415126616957
 31
0.0
  0
LINE
  5
A1
330
1F
100
AcDbEntity
  8
D-2
  6
Continuous
 62
     3
370
     9
100
AcDbLine
 10
554.8381334789035
 20
1012.589820488328
 30
0.0
 11
563.2976308774674
 21
1019.688168789324
 31
0.0
  0
LINE
  5
A2
330
1F
100
AcDbEntity
  8
D-2
  6
Continuous
 62
     3
370
     9
100
AcDbLine
 10
554.8381334789035
 20
915.1862439181684
 30
0.0
 11
591.1850553923573
 21
884.6879708374667
 31
0.0
  0
LINE
  5
A3
330
1F
100
AcDbEntity
  8
D-2
  6
Continuous
 62
     3
370
     9
100
AcDbLine
 10
554.8412809134475
 20
899.800102233425
 30
0.0
 11
594.8380724437475
 21
933.361334518055
 31
0.0
  0
LINE
  5
A4
330
1F
100
AcDbEntity
  8
D-2
  6
Continuous
 62
     3
370
     9
100
AcDbLine
 10
554.8381334789035
 20
925.4400947601039
 30
0.0
 11
594.8380724437475
 21
891.8766181976046
 31
0.0
  0
LINE
  5
A5
330
1F
100
AcDbEntity
  8
D-2
  6
Continuous
 62
     3
370
     9
100
AcDbLine
 10
554.8381334789032
 20
894.6785422342984
 30
0.0
 11
564.7448898075027
 21
886.3658999540792
 31
0.0
  0
LINE
  5
A6
330
1F
100
AcDbEntity
  8
D-2
  6
Continuous
 62
     3
370
     9
100
AcDbLine
 10
561.2714828250607
 20
884.6879708374667
 30
0.0
 11
564.7448898075027
 21
887.6025000808556
 31
0.0
  0
LINE
  5
A7
330
1F
100
AcDbEntity
  8
D-2
  6
Continuous
 62
     3
370
     9
100
AcDbLine
 10
554.8381334789035
 20
904.9323930762336
 30
0.0
 11
564.7448898075027
 21
896.6197507960146
 31
0.0
  0
LINE
  5
A8
330
1F
100
AcDbEntity
  8
D-2
  6
Continuous
 62
     3
370
     9
100
AcDbLine
 10
554.8412809134475
 20
889.5462513914896
 30
0.0
 11
564.7448898075027
 21
897.8563509227911
 31
0.0
  0
LINE
  5
A9
330
1F
100
AcDbEntity
  8
D-2
  6
Continuous
 62
     3
370
     9
100
AcDbLine
 10
565.528311331368
 20
898.5137184448661
 30
0.0
 11
594.8380724437475
 21
923.1074836761195
 31
0.0
  0
LINE
  5
AA
330
1F
100
AcDbEntity
  8
D-2
  6
Continuous
 62
     3
370
     9
100
AcDbLine
 10
574.2957870701714
 20
885.3627891060207
 30
0.0
 11
594.8380724437475
 21
902.5997819922492
 31
0.0
  0
LINE
  5
AB
330
1F
100
AcDbEntity
  8
D-2
  6
Continuous
 62
     3
370
     9
100
AcDbLine
 10
569.9120492007698
 20
891.9382537754433
 30
0.0
 11
594.8380724437475
 21
912.853632834184
 31
0.0
  0
LINE
  5
AC
330
1F
100
AcDbEntity
  8
D-2
  6
Continuous
 62
     3
370
     9
100
AcDbLine
 10
569.388815182207
 20
892.7230878383816
 30
0.0
 11
584.7459731815263
 21
879.8370778614717
 31
0.0
  0
LINE
  5
AD
330
1F
100
AcDbEntity
  8
D-2
  6
Continuous
 62
     3
370
     9
100
AcDbLine
 10
585.7116542126583
 20
884.6879708374667
 30
0.0
 11
594.8380724437471
 21
892.3459311503141
 31
0.0
  0
LINE
  5
AE
330
1F
100
AcDbEntity
  8
D-2
  6
Continuous
 62
     3
370
     9
100
AcDbLine
 10
578.6795249395732
 20
878.7873244365983
 30
0.0
 11
584.7459731815263
 21
883.877669706834
 31
0.0
  0
LINE
  5
AF
330
1F
100
AcDbEntity
  8
D-2
  6
Continuous
 62
     3
370
     9
100
AcDbLine
 10
554.825600263171
 20
634.0071329604335
 30
0.0
 11
589.7654197379437
 21
604.6878471175551
 31
0.0
  0
LINE
  5
B0
330
1F
100
AcDbEntity
  8
D-2
  6
Continuous
 62
     3
370
     9
100
AcDbLine
 10
554.825242171293
 20
623.7530350854273
 30
0.0
 11
577.5452439278114
 21
604.6878471175551
 31
0.0
  0
LINE
  5
B1
330
1F
100
AcDbEntity
  8
D-2
  6
Continuous
 62
     3
370
     9
100
AcDbLine
 10
554.8248840794149
 20
613.4989372104217
 30
0.0
 11
565.3250681176796
 21
604.6878471175551
 31
0.0
  0
LINE
  5
B2
330
1F
100
AcDbEntity
  8
D-2
  6
Continuous
 62
     3
370
     9
100
AcDbLine
 10
587.1039139456313
 20
604.6878471175551
 30
0.0
 11
594.8380724437475
 21
611.1775695826519
 31
0.0
  0
LINE
  5
B3
330
1F
100
AcDbEntity
  8
D-2
  6
Continuous
 62
     3
370
     9
100
AcDbLine
 10
554.8362676271545
 20
813.4494467365647
 30
0.0
 11
594.8380724437475
 21
847.0149097957841
 31
0.0
  0
LINE
  5
B4
330
1F
100
AcDbEntity
  8
D-2
  6
Continuous
 62
     3
370
     9
100
AcDbLine
 10
554.8327621007325
 20
839.089090460555
 30
0.0
 11
594.8380724437475
 21
805.5191651772602
 31
0.0
  0
LINE
  5
B5
330
1F
100
AcDbEntity
  8
D-2
  6
Continuous
 62
     3
370
     9
100
AcDbLine
 10
554.8359095352764
 20
803.1953488615585
 30
0.0
 11
594.8380724437475
 21
836.7611123952133
 31
0.0
  0
LINE
  5
B6
330
1F
100
AcDbEntity
  8
D-2
  6
Continuous
 62
     3
370
     9
100
AcDbLine
 10
554.8324040088544
 20
828.8349925855491
 30
0.0
 11
594.8380724437475
 21
795.2647668142066
 31
0.0
  0
LINE
  5
B7
330
1F
100
AcDbEntity
  8
D-2
  6
Continuous
 62
     3
370
     9
100
AcDbLine
 10
554.8355514433983
 20
792.9412509865526
 30
0.0
 11
594.8380724437475
 21
826.5073149946426
 31
0.0
  0
LINE
  5
B8
330
1F
100
AcDbEntity
  8
D-2
  6
Continuous
 62
     3
370
     9
100
AcDbLine
 10
554.8320459169763
 20
818.5808947105431
 30
0.0
 11
594.8380724437475
 21
785.0103684511532
 31
0.0
  0
LINE
  5
B9
330
1F
100
AcDbEntity
  8
D-2
  6
Continuous
 62
     3
370
     9
100
AcDbLine
 10
554.8351933515203
 20
782.6871531115466
 30
0.0
 11
594.8380724437475
 21
816.2535175940712
 31
0.0
  0
LINE
  5
BA
330
1F
100
AcDbEntity
  8
D-2
  6
Continuous
 62
     3
370
     9
100
AcDbLine
 10
554.8316878250982
 20
808.3267968355369
 30
0.0
 11
594.8380724437475
 21
774.7559700880998
 31
0.0
  0
LINE
  5
BB
330
1F
100
AcDbEntity
  8
D-2
  6
Continuous
 62
     3
370
     9
100
AcDbLine
 10
554.8348352596422
 20
772.4330552365404
 30
0.0
 11
594.8380724437475
 21
805.9997201935005
 31
0.0
  0
LINE
  5
BC
330
1F
100
AcDbEntity
  8
D-2
  6
Continuous
 62
     3
370
     9
100
AcDbLine
 10
554.8313297332202
 20
798.0726989605307
 30
0.0
 11
594.8380724437475
 21
764.5015717250465
 31
0.0
  0
LINE
  5
BD
330
1F
100
AcDbEntity
  8
D-2
  6
Continuous
 62
     3
370
     9
100
AcDbLine
 10
554.8344771677641
 20
762.1789573615342
 30
0.0
 11
594.8380724437475
 21
795.7459227929294
 31
0.0
  0
LINE
  5
BE
330
1F
100
AcDbEntity
  8
D-2
  6
Continuous
 62
     3
370
     9
100
AcDbLine
 10
554.8309716413421
 20
787.8186010855247
 30
0.0
 11
594.8380724437475
 21
754.2471733619927
 31
0.0
  0
LINE
  5
BF
330
1F
100
AcDbEntity
  8
D-2
  6
Continuous
 62
     3
370
     9
100
AcDbLine
 10
554.8341190758861
 20
751.9248594865282
 30
0.0
 11
594.8380724437475
 21
785.4921253923584
 31
0.0
  0
LINE
  5
C0
330
1F
100
AcDbEntity
  8
D-2
  6
Continuous
 62
     3
370
     9
100
AcDbLine
 10
554.830613549464
 20
777.5645032105189
 30
0.0
 11
594.8380724437475
 21
743.9927749989391
 31
0.0
  0
LINE
  5
C1
330
1F
100
AcDbEntity
  8
D-2
  6
Continuous
 62
     3
370
     9
100
AcDbLine
 10
554.833760984008
 20
741.6707616115224
 30
0.0
 11
594.8380724437475
 21
775.2383279917876
 31
0.0
  0
LINE
  5
C2
330
1F
100
AcDbEntity
  8
D-2
  6
Continuous
 62
     3
370
     9
100
AcDbLine
 10
554.830255457586
 20
767.3104053355127
 30
0.0
 11
594.8380724437475
 21
733.7383766358857
 31
0.0
  0
LINE
  5
C3
330
1F
100
AcDbEntity
  8
D-2
  6
Continuous
 62
     3
370
     9
100
AcDbLine
 10
554.8334028921299
 20
731.4166637365162
 30
0.0
 11
594.8380724437475
 21
764.9845305912165
 31
0.0
  0
LINE
  5
C4
330
1F
100
AcDbEntity
  8
D-2
  6
Continuous
 62
     3
370
     9
100
AcDbLine
 10
554.8298973657079
 20
757.0563074605064
 30
0.0
 11
594.8380724437475
 21
723.4839782728324
 31
0.0
  0
LINE
  5
C5
330
1F
100
AcDbEntity
  8
D-2
  6
Continuous
 62
     3
370
     9
100
AcDbLine
 10
554.8330448002519
 20
721.16256586151
 30
0.0
 11
594.8380724437475
 21
754.7307331906455
 31
0.0
  0
LINE
  5
C6
330
1F
100
AcDbEntity
  8
D-2
  6
Continuous
 62
     3
370
     9
100
AcDbLine
 10
554.8295392738298
 20
746.8022095855006
 30
0.0
 11
594.8380724437475
 21
713.229579909779
 31
0.0
  0
LINE
  5
C7
330
1F
100
AcDbEntity
  8
D-2
  6
Continuous
 62
     3
370
     9
100
AcDbLine
 10
554.8326867083738
 20
710.9084679865038
 30
0.0
 11
594.8380724437475
 21
744.4769357900748
 31
0.0
  0
LINE
  5
C8
330
1F
100
AcDbEntity
  8
D-2
  6
Continuous
 62
     3
370
     9
100
AcDbLine
 10
554.8291811819518
 20
736.5481117104946
 30
0.0
 11
594.8380724437475
 21
702.9751815467256
 31
0.0
  0
LINE
  5
C9
330
1F
100
AcDbEntity
  8
D-2
  6
Continuous
 62
     3
370
     9
100
AcDbLine
 10
554.8323286164957
 20
700.6543701114981
 30
0.0
 11
594.8380724437475
 21
734.2231383895034
 31
0.0
  0
LINE
  5
CA
330
1F
100
AcDbEntity
  8
D-2
  6
Continuous
 62
     3
370
     9
100
AcDbLine
 10
554.8288230900737
 20
726.2940138354884
 30
0.0
 11
594.8380724437475
 21
692.7207831836716
 31
0.0
  0
LINE
  5
CB
330
1F
100
AcDbEntity
  8
D-2
  6
Continuous
 62
     3
370
     9
100
AcDbLine
 10
554.8319705246176
 20
690.4002722364919
 30
0.0
 11
594.8380724437475
 21
723.9693409889327
 31
0.0
  0
LINE
  5
CC
330
1F
100
AcDbEntity
  8
D-2
  6
Continuous
 62
     3
370
     9
100
AcDbLine
 10
554.8284649981956
 20
716.0399159604822
 30
0.0
 11
594.8380724437475
 21
682.4663848206183
 31
0.0
  0
LINE
  5
CD
330
1F
100
AcDbEntity
  8
D-2
  6
Continuous
 62
     3
370
     9
100
AcDbLine
 10
554.8316124327396
 20
680.1461743614857
 30
0.0
 11
594.8380724437475
 21
713.7155435883614
 31
0.0
  0
LINE
  5
CE
330
1F
100
AcDbEntity
  8
D-2
  6
Continuous
 62
     3
370
     9
100
AcDbLine
 10
554.8281069063175
 20
705.785818085476
 30
0.0
 11
594.8380724437475
 21
672.2119864575649
 31
0.0
  0
LINE
  5
CF
330
1F
100
AcDbEntity
  8
D-2
  6
Continuous
 62
     3
370
     9
100
AcDbLine
 10
554.8312543408615
 20
669.8920764864795
 30
0.0
 11
594.8380724437475
 21
703.4617461877906
 31
0.0
  0
LINE
  5
D0
330
1F
100
AcDbEntity
  8
D-2
  6
Continuous
 62
     3
370
     9
100
AcDbLine
 10
554.8277488144395
 20
695.5317202104703
 30
0.0
 11
594.8380724437475
 21
661.9575880945115
 31
0.0
  0
LINE
  5
D1
330
1F
100
AcDbEntity
  8
D-2
  6
Continuous
 62
     3
370
     9
100
AcDbLine
 10
554.8308962489834
 20
659.6379786114738
 30
0.0
 11
594.8380724437475
 21
693.2079487872198
 31
0.0
  0
LINE
  5
D2
330
1F
100
AcDbEntity
  8
D-2
  6
Continuous
 62
     3
370
     9
100
AcDbLine
 10
554.8273907225614
 20
685.2776223354641
 30
0.0
 11
594.8380724437475
 21
651.7031897314581
 31
0.0
  0
LINE
  5
D3
330
1F
100
AcDbEntity
  8
D-2
  6
Continuous
 62
     3
370
     9
100
AcDbLine
 10
554.8305381571054
 20
649.3838807364676
 30
0.0
 11
594.8380724437475
 21
682.9541513866485
 31
0.0
  0
LINE
  5
D4
330
1F
100
AcDbEntity
  8
D-2
  6
Continuous
 62
     3
370
     9
100
AcDbLine
 10
554.8301800652273
 20
639.1297828614613
 30
0.0
 11
594.8380724437475
 21
672.7003539860777
 31
0.0
  0
LINE
  5
D5
330
1F
100
AcDbEntity
  8
D-2
  6
Continuous
 62
     3
370
     9
100
AcDbLine
 10
554.8298219733492
 20
628.8756849864551
 30
0.0
 11
594.8380724437475
 21
662.446556585507
 31
0.0
  0
LINE
  5
D6
330
1F
100
AcDbEntity
  8
D-2
  6
Continuous
 62
     3
370
     9
100
AcDbLine
 10
554.8294638814712
 20
618.6215871114495
 30
0.0
 11
594.8380724437475
 21
652.1927591849357
 31
0.0
  0
LINE
  5
D7
330
1F
100
AcDbEntity
  8
D-2
  6
Continuous
 62
     3
370
     9
100
AcDbLine
 10
554.8291057895931
 20
608.3674892364432
 30
0.0
 11
594.8380724437475
 21
641.9389617843649
 31
0.0
  0
LINE
  5
D8
330
1F
100
AcDbEntity
  8
D-2
  6
Continuous
 62
     3
370
     9
100
AcDbLine
 10
574.8839007277933
 20
604.6878471175551
 30
0.0
 11
594.8380724437475
 21
621.4313669832227
 31
0.0
  0
LINE
  5
D9
330
1F
100
AcDbEntity
  8
D-2
  6
Continuous
 62
     3
370
     9
100
AcDbLine
 10
562.6638875099546
 20
604.6878471175551
 30
0.0
 11
594.8380724437475
 21
631.685164383794
 31
0.0
  0
LINE
  5
DA
330
1F
100
AcDbEntity
  8
D-2
  6
Continuous
 62
     3
370
     9
100
AcDbLine
 10
554.8259583550491
 20
644.2612308354398
 30
0.0
 11
594.8380724437475
 21
610.6855962792439
 31
0.0
  0
LINE
  5
DB
330
1F
100
AcDbEntity
  8
D-2
  6
Continuous
 62
     3
370
     9
100
AcDbLine
 10
554.8263164469272
 20
654.515328710446
 30
0.0
 11
594.8380724437475
 21
620.9399946422973
 31
0.0
  0
LINE
  5
DC
330
1F
100
AcDbEntity
  8
D-2
  6
Continuous
 62
     3
370
     9
100
AcDbLine
 10
554.8266745388053
 20
664.7694265854517
 30
0.0
 11
594.8380724437475
 21
631.1943930053507
 31
0.0
  0
LINE
  5
DD
330
1F
100
AcDbEntity
  8
D-2
  6
Continuous
 62
     3
370
     9
100
AcDbLine
 10
554.8270326306833
 20
675.0235244604579
 30
0.0
 11
594.8380724437475
 21
641.4487913684042
 31
0.0
  0
LINE
  5
DE
330
1F
100
AcDbEntity
  8
D-2
  6
Continuous
 62
     3
370
     9
100
AcDbLine
 10
554.8412809134475
 20
849.336340374968
 30
0.0
 11
594.8380724437475
 21
815.773563540314
 31
0.0
  0
LINE
  5
DF
330
1F
100
AcDbEntity
  8
D-2
  6
Continuous
 62
     3
370
     9
100
AcDbLine
 10
564.7448898075027
 20
869.6888253296544
 30
0.0
 11
564.7448898075027
 21
854.6879708374667
 31
0.0
  0
LINE
  5
E0
330
1F
100
AcDbEntity
  8
D-2
  6
Continuous
 62
     3
370
     9
100
AcDbLine
 10
564.7448898075027
 20
869.6888253296544
 30
0.0
 11
584.7351688745182
 21
839.7040548773557
 31
0.0
  0
LINE
  5
E1
330
1F
100
AcDbEntity
  8
D-2
  6
Continuous
 62
     3
370
     9
100
AcDbLine
 10
584.7459731815263
 20
854.6879708374667
 30
0.0
 11
584.7459731815263
 21
839.7040548773557
 31
0.0
  0
LINE
  5
E2
330
1F
100
AcDbEntity
  8
D-A
  6
Continuous
 62
     3
370
     9
100
AcDbLine
 10
594.8405468419735
 20
604.6878471175551
 30
0.0
 11
594.8405468419735
 21
854.6879708374667
 31
0.0
  0
LINE
  5
E3
330
1F
100
AcDbEntity
  8
D-2
  6
Continuous
 62
     3
370
     9
100
AcDbLine
 10
585.1242654781184
 20
854.6879708374667
 30
0.0
 11
594.8380724437475
 21
846.5367586294741
 31
0.0
  0
LINE
  5
E4
330
1F
100
AcDbEntity
  8
D-2
  6
Continuous
 62
     3
370
     9
100
AcDbLine
 10
560.6839138578546
 20
854.6879708374667
 30
0.0
 11
594.8380724437475
 21
826.0279619033673
 31
0.0
  0
LINE
  5
E5
330
1F
100
AcDbEntity
  8
D-2
  6
Continuous
 62
     3
370
     9
100
AcDbLine
 10
554.8376999946665
 20
854.4658382365888
 30
0.0
 11
555.1024276085251
 21
854.6879708374667
 31
0.0
  0
LINE
  5
E6
330
1F
100
AcDbEntity
  8
D-A
  6
Continuous
 62
     3
370
     9
100
AcDbLine
 10
554.8412809134475
 20
604.6878471175551
 30
0.0
 11
554.8412809134475
 21
854.6879708374667
 31
0.0
  0
LINE
  5
E7
330
1F
100
AcDbEntity
  8
D-2
  6
Continuous
 62
     3
370
     9
100
AcDbLine
 10
584.7459731815263
 20
844.7510114349652
 30
0.0
 11
594.8380724437475
 21
836.2823602664207
 31
0.0
  0
LINE
  5
E8
330
1F
100
AcDbEntity
  8
D-2
  6
Continuous
 62
     3
370
     9
100
AcDbLine
 10
584.7459731815263
 20
848.8004396636978
 30
0.0
 11
591.7624672620399
 21
854.6879708374667
 31
0.0
  0
LINE
  5
E9
330
1F
100
AcDbEntity
  8
D-2
  6
Continuous
 62
     3
370
     9
100
AcDbLine
 10
554.8366257190326
 20
823.7035446115709
 30
0.0
 11
580.8501490552562
 21
845.5314586415892
 31
0.0
  0
LINE
  5
EA
330
1F
100
AcDbEntity
  8
D-2
  6
Continuous
 62
     3
370
     9
100
AcDbLine
 10
554.8369838109106
 20
833.9576424865768
 30
0.0
 11
576.4664351639436
 21
852.1068873446554
 31
0.0
  0
LINE
  5
EB
330
1F
100
AcDbEntity
  8
D-2
  6
Continuous
 62
     3
370
     9
100
AcDbLine
 10
554.8373419027887
 20
844.2117403615828
 30
0.0
 11
572.082721272631
 21
858.682316047722
 31
0.0
  0
LINE
  5
EC
330
1F
100
AcDbEntity
  8
D-2
  6
Continuous
 62
     3
370
     9
100
AcDbLine
 10
564.7448898075027
 20
861.5346551236127
 30
0.0
 11
577.0841597414279
 21
851.1803205070182
 31
0.0
  0
LINE
  5
ED
330
1F
100
AcDbEntity
  8
D-A
  6
Continuous
 62
     3
370
     9
100
AcDbLine
 10
439.9816053565444
 20
686.9379708374674
 30
0.0
 11
469.940546841974
 21
686.9379708374674
 31
0.0
  0
LINE
  5
EE
330
1F
100
AcDbEntity
  8
D-A
  6
Continuous
 62
     3
370
     9
100
AcDbLine
 10
509.9405468419734
 20
884.6879708374667
 30
0.0
 11
509.9405468419734
 21
1019.688168789324
 31
0.0
  0
LINE
  5
EF
330
1F
100
AcDbEntity
  8
D-A
  6
Continuous
 62
     3
370
     9
100
AcDbLine
 10
469.940546841974
 20
884.6879708374667
 30
0.0
 11
469.940546841974
 21
1019.688168789324
 31
0.0
  0
LINE
  5
F0
330
1F
100
AcDbEntity
  8
D-2
  6
Continuous
 62
     3
370
     9
100
AcDbLine
 10
469.93739940743
 20
935.6939456020393
 30
0.0
 11
509.937338372274
 21
902.1304690395391
 31
0.0
  0
LINE
  5
F1
330
1F
100
AcDbEntity
  8
D-2
  6
Continuous
 62
     3
370
     9
100
AcDbLine
 10
469.93739940743
 20
945.9477964439748
 30
0.0
 11
509.937338372274
 21
912.3843198814745
 31
0.0
  0
LINE
  5
F2
330
1F
100
AcDbEntity
  8
D-2
  6
Continuous
 62
     3
370
     9
100
AcDbLine
 10
469.93739940743
 20
910.0513120689749
 30
0.0
 11
509.937338372274
 21
943.6151853599904
 31
0.0
  0
LINE
  5
F3
330
1F
100
AcDbEntity
  8
D-2
  6
Continuous
 62
     3
370
     9
100
AcDbLine
 10
469.93739940743
 20
956.2016472859096
 30
0.0
 11
509.937338372274
 21
922.63817072341
 31
0.0
  0
LINE
  5
F4
330
1F
100
AcDbEntity
  8
D-2
  6
Continuous
 62
     3
370
     9
100
AcDbLine
 10
469.93739940743
 20
920.3051629109098
 30
0.0
 11
509.937338372274
 21
953.8690362019253
 31
0.0
  0
LINE
  5
F5
330
1F
100
AcDbEntity
  8
D-2
  6
Continuous
 62
     3
370
     9
100
AcDbLine
 10
469.93739940743
 20
966.4554981278451
 30
0.0
 11
509.937338372274
 21
932.8920215653454
 31
0.0
  0
LINE
  5
F6
330
1F
100
AcDbEntity
  8
D-2
  6
Continuous
 62
     3
370
     9
100
AcDbLine
 10
469.93739940743
 20
930.5590137528452
 30
0.0
 11
509.937338372274
 21
964.1228870438607
 31
0.0
  0
LINE
  5
F7
330
1F
100
AcDbEntity
  8
D-2
  6
Continuous
 62
     3
370
     9
100
AcDbLine
 10
469.93739940743
 20
976.7093489697805
 30
0.0
 11
509.937338372274
 21
943.1458724072803
 31
0.0
  0
LINE
  5
F8
330
1F
100
AcDbEntity
  8
D-2
  6
Continuous
 62
     3
370
     9
100
AcDbLine
 10
469.93739940743
 20
940.8128645947806
 30
0.0
 11
509.937338372274
 21
974.3767378857962
 31
0.0
  0
LINE
  5
F9
330
1F
100
AcDbEntity
  8
D-2
  6
Continuous
 62
     3
370
     9
100
AcDbLine
 10
469.93739940743
 20
986.963199811716
 30
0.0
 11
509.937338372274
 21
953.3997232492158
 31
0.0
  0
LINE
  5
FA
330
1F
100
AcDbEntity
  8
D-2
  6
Continuous
 62
     3
370
     9
100
AcDbLine
 10
469.93739940743
 20
951.0667154367161
 30
0.0
 11
509.937338372274
 21
984.6305887277316
 31
0.0
  0
LINE
  5
FB
330
1F
100
AcDbEntity
  8
D-2
  6
Continuous
 62
     3
370
     9
100
AcDbLine
 10
469.93739940743
 20
997.2170506536509
 30
0.0
 11
509.937338372274
 21
963.6535740911512
 31
0.0
  0
LINE
  5
FC
330
1F
100
AcDbEntity
  8
D-2
  6
Continuous
 62
     3
370
     9
100
AcDbLine
 10
469.93739940743
 20
961.320566278651
 30
0.0
 11
509.937338372274
 21
994.8844395696665
 31
0.0
  0
LINE
  5
FD
330
1F
100
AcDbEntity
  8
D-2
  6
Continuous
 62
     3
370
     9
100
AcDbLine
 10
469.93739940743
 20
1007.470901495586
 30
0.0
 11
509.937338372274
 21
973.9074249330866
 31
0.0
  0
LINE
  5
FE
330
1F
100
AcDbEntity
  8
D-2
  6
Continuous
 62
     3
370
     9
100
AcDbLine
 10
469.93739940743
 20
971.5744171205864
 30
0.0
 11
509.937338372274
 21
1005.138290411602
 31
0.0
  0
LINE
  5
FF
330
1F
100
AcDbEntity
  8
D-2
  6
Continuous
 62
     3
370
     9
100
AcDbLine
 10
469.93739940743
 20
1017.724752337522
 30
0.0
 11
509.937338372274
 21
984.1612757750215
 31
0.0
  0
LINE
  5
100
330
1F
100
AcDbEntity
  8
D-2
  6
Continuous
 62
     3
370
     9
100
AcDbLine
 10
469.93739940743
 20
981.8282679625219
 30
0.0
 11
509.937338372274
 21
1015.392141253537
 31
0.0
  0
LINE
  5
101
330
1F
100
AcDbEntity
  8
D-2
  6
Continuous
 62
     3
370
     9
100
AcDbLine
 10
504.2581493189106
 20
1019.688168789324
 30
0.0
 11
509.937338372274
 21
1014.922828300828
 31
0.0
  0
LINE
  5
102
330
1F
100
AcDbEntity
  8
D-2
  6
Continuous
 62
     3
370
     9
100
AcDbLine
 10
469.93739940743
 20
992.0821188044573
 30
0.0
 11
502.8370681935927
 21
1019.688168789324
 31
0.0
  0
LINE
  5
103
330
1F
100
AcDbEntity
  8
D-2
  6
Continuous
 62
     3
370
     9
100
AcDbLine
 10
492.0379191807045
 20
1019.688168789324
 30
0.0
 11
509.937338372274
 21
1004.668977458892
 31
0.0
  0
LINE
  5
104
330
1F
100
AcDbEntity
  8
D-2
  6
Continuous
 62
     3
370
     9
100
AcDbLine
 10
469.93739940743
 20
1002.335969646392
 30
0.0
 11
490.6169824997936
 21
1019.688168789324
 31
0.0
  0
LINE
  5
105
330
1F
100
AcDbEntity
  8
D-2
  6
Continuous
 62
     3
370
     9
100
AcDbLine
 10
479.8176890424991
 20
1019.688168789324
 30
0.0
 11
509.937338372274
 21
994.415126616957
 31
0.0
  0
LINE
  5
106
330
1F
100
AcDbEntity
  8
D-2
  6
Continuous
 62
     3
370
     9
100
AcDbLine
 10
469.93739940743
 20
1012.589820488328
 30
0.0
 11
478.3968968059939
 21
1019.688168789324
 31
0.0
  0
LINE
  5
107
330
1F
100
AcDbEntity
  8
D-2
  6
Continuous
 62
     3
370
     9
100
AcDbLine
 10
476.3707487535871
 20
884.6879708374667
 30
0.0
 11
509.937338372274
 21
912.853632834184
 31
0.0
  0
LINE
  5
108
330
1F
100
AcDbEntity
  8
D-2
  6
Continuous
 62
     3
370
     9
100
AcDbLine
 10
469.93739940743
 20
915.1862439181684
 30
0.0
 11
506.2843213208838
 21
884.6879708374667
 31
0.0
  0
LINE
  5
109
330
1F
100
AcDbEntity
  8
D-2
  6
Continuous
 62
     3
370
     9
100
AcDbLine
 10
469.93739940743
 20
904.9323930762336
 30
0.0
 11
494.064091182678
 21
884.6879708374667
 31
0.0
  0
LINE
  5
10A
330
1F
100
AcDbEntity
  8
D-2
  6
Continuous
 62
     3
370
     9
100
AcDbLine
 10
469.940546841974
 20
899.800102233425
 30
0.0
 11
509.937338372274
 21
933.361334518055
 31
0.0
  0
LINE
  5
10B
330
1F
100
AcDbEntity
  8
D-2
  6
Continuous
 62
     3
370
     9
100
AcDbLine
 10
469.940546841974
 20
889.5462513914896
 30
0.0
 11
509.937338372274
 21
923.1074836761195
 31
0.0
  0
LINE
  5
10C
330
1F
100
AcDbEntity
  8
D-2
  6
Continuous
 62
     3
370
     9
100
AcDbLine
 10
469.93739940743
 20
925.4400947601039
 30
0.0
 11
509.937338372274
 21
891.8766181976046
 31
0.0
  0
LINE
  5
10D
330
1F
100
AcDbEntity
  8
D-2
  6
Continuous
 62
     3
370
     9
100
AcDbLine
 10
488.590834447386
 20
884.6879708374667
 30
0.0
 11
509.937338372274
 21
902.5997819922492
 31
0.0
  0
LINE
  5
10E
330
1F
100
AcDbEntity
  8
D-2
  6
Continuous
 62
     3
370
     9
100
AcDbLine
 10
500.8109201411847
 20
884.6879708374667
 30
0.0
 11
509.9373383722736
 21
892.3459311503141
 31
0.0
  0
LINE
  5
10F
330
1F
100
AcDbEntity
  8
D-2
  6
Continuous
 62
     3
370
     9
100
AcDbLine
 10
469.9373994074297
 20
894.6785422342984
 30
0.0
 11
481.8438610444721
 21
884.6879708374667
 31
0.0
  0
LINE
  5
110
330
1F
100
AcDbEntity
  8
D-A
  6
Continuous
 62
     3
370
     9
100
AcDbLine
 10
439.9816053565444
 20
722.4379708374693
 30
0.0
 11
469.940546841974
 21
722.4379708374693
 31
0.0
  0
LINE
  5
111
330
1F
100
AcDbEntity
  8
D-A
  6
Continuous
 62
     3
370
     9
100
AcDbLine
 10
439.9816053565444
 20
704.6879708374667
 30
0.0
 11
469.940546841974
 21
704.6879708374667
 31
0.0
  0
LINE
  5
112
330
1F
100
AcDbEntity
  8
D-2
  6
Continuous
 62
     3
370
     9
100
AcDbLine
 10
469.9248661916976
 20
634.0071329604335
 30
0.0
 11
504.8646856664702
 21
604.6878471175551
 31
0.0
  0
LINE
  5
113
330
1F
100
AcDbEntity
  8
D-2
  6
Continuous
 62
     3
370
     9
100
AcDbLine
 10
469.9245080998195
 20
623.7530350854273
 30
0.0
 11
492.6445098563379
 21
604.6878471175551
 31
0.0
  0
LINE
  5
114
330
1F
100
AcDbEntity
  8
D-2
  6
Continuous
 62
     3
370
     9
100
AcDbLine
 10
469.9241500079414
 20
613.4989372104217
 30
0.0
 11
480.4243340462061
 21
604.6878471175551
 31
0.0
  0
LINE
  5
115
330
1F
100
AcDbEntity
  8
D-2
  6
Continuous
 62
     3
370
     9
100
AcDbLine
 10
502.2031798741579
 20
604.6878471175551
 30
0.0
 11
509.937338372274
 21
611.1775695826519
 31
0.0
  0
LINE
  5
116
330
1F
100
AcDbEntity
  8
D-2
  6
Continuous
 62
     3
370
     9
100
AcDbLine
 10
469.935533555681
 20
813.4494467365647
 30
0.0
 11
509.937338372274
 21
847.0149097957841
 31
0.0
  0
LINE
  5
117
330
1F
100
AcDbEntity
  8
D-2
  6
Continuous
 62
     3
370
     9
100
AcDbLine
 10
469.932028029259
 20
839.089090460555
 30
0.0
 11
509.937338372274
 21
805.5191651772602
 31
0.0
  0
LINE
  5
118
330
1F
100
AcDbEntity
  8
D-2
  6
Continuous
 62
     3
370
     9
100
AcDbLine
 10
469.9351754638029
 20
803.1953488615585
 30
0.0
 11
509.937338372274
 21
836.7611123952133
 31
0.0
  0
LINE
  5
119
330
1F
100
AcDbEntity
  8
D-2
  6
Continuous
 62
     3
370
     9
100
AcDbLine
 10
469.9316699373809
 20
828.8349925855491
 30
0.0
 11
509.937338372274
 21
795.2647668142066
 31
0.0
  0
LINE
  5
11A
330
1F
100
AcDbEntity
  8
D-2
  6
Continuous
 62
     3
370
     9
100
AcDbLine
 10
469.9348173719249
 20
792.9412509865526
 30
0.0
 11
509.937338372274
 21
826.5073149946426
 31
0.0
  0
LINE
  5
11B
330
1F
100
AcDbEntity
  8
D-2
  6
Continuous
 62
     3
370
     9
100
AcDbLine
 10
469.9313118455028
 20
818.5808947105431
 30
0.0
 11
509.937338372274
 21
785.0103684511532
 31
0.0
  0
LINE
  5
11C
330
1F
100
AcDbEntity
  8
D-2
  6
Continuous
 62
     3
370
     9
100
AcDbLine
 10
469.9344592800468
 20
782.6871531115466
 30
0.0
 11
509.937338372274
 21
816.2535175940712
 31
0.0
  0
LINE
  5
11D
330
1F
100
AcDbEntity
  8
D-2
  6
Continuous
 62
     3
370
     9
100
AcDbLine
 10
469.9309537536247
 20
808.3267968355369
 30
0.0
 11
509.937338372274
 21
774.7559700880998
 31
0.0
  0
LINE
  5
11E
330
1F
100
AcDbEntity
  8
D-2
  6
Continuous
 62
     3
370
     9
100
AcDbLine
 10
469.9341011881687
 20
772.4330552365404
 30
0.0
 11
509.937338372274
 21
805.9997201935005
 31
0.0
  0
LINE
  5
11F
330
1F
100
AcDbEntity
  8
D-2
  6
Continuous
 62
     3
370
     9
100
AcDbLine
 10
469.9305956617467
 20
798.0726989605307
 30
0.0
 11
509.937338372274
 21
764.5015717250465
 31
0.0
  0
LINE
  5
120
330
1F
100
AcDbEntity
  8
D-2
  6
Continuous
 62
     3
370
     9
100
AcDbLine
 10
469.9337430962906
 20
762.1789573615342
 30
0.0
 11
509.937338372274
 21
795.7459227929294
 31
0.0
  0
LINE
  5
121
330
1F
100
AcDbEntity
  8
D-2
  6
Continuous
 62
     3
370
     9
100
AcDbLine
 10
469.9302375698686
 20
787.8186010855247
 30
0.0
 11
509.937338372274
 21
754.2471733619927
 31
0.0
  0
LINE
  5
122
330
1F
100
AcDbEntity
  8
D-2
  6
Continuous
 62
     3
370
     9
100
AcDbLine
 10
469.9333850044126
 20
751.9248594865282
 30
0.0
 11
509.937338372274
 21
785.4921253923584
 31
0.0
  0
LINE
  5
123
330
1F
100
AcDbEntity
  8
D-2
  6
Continuous
 62
     3
370
     9
100
AcDbLine
 10
469.9298794779905
 20
777.5645032105189
 30
0.0
 11
509.937338372274
 21
743.9927749989391
 31
0.0
  0
LINE
  5
124
330
1F
100
AcDbEntity
  8
D-2
  6
Continuous
 62
     3
370
     9
100
AcDbLine
 10
469.9330269125345
 20
741.6707616115224
 30
0.0
 11
509.937338372274
 21
775.2383279917876
 31
0.0
  0
LINE
  5
125
330
1F
100
AcDbEntity
  8
D-2
  6
Continuous
 62
     3
370
     9
100
AcDbLine
 10
469.9295213861125
 20
767.3104053355127
 30
0.0
 11
509.937338372274
 21
733.7383766358857
 31
0.0
  0
LINE
  5
126
330
1F
100
AcDbEntity
  8
D-2
  6
Continuous
 62
     3
370
     9
100
AcDbLine
 10
469.9326688206564
 20
731.4166637365162
 30
0.0
 11
509.937338372274
 21
764.9845305912165
 31
0.0
  0
LINE
  5
127
330
1F
100
AcDbEntity
  8
D-2
  6
Continuous
 62
     3
370
     9
100
AcDbLine
 10
469.9291632942344
 20
757.0563074605064
 30
0.0
 11
509.937338372274
 21
723.4839782728324
 31
0.0
  0
LINE
  5
128
330
1F
100
AcDbEntity
  8
D-2
  6
Continuous
 62
     3
370
     9
100
AcDbLine
 10
469.9323107287784
 20
721.16256586151
 30
0.0
 11
509.937338372274
 21
754.7307331906455
 31
0.0
  0
LINE
  5
129
330
1F
100
AcDbEntity
  8
D-2
  6
Continuous
 62
     3
370
     9
100
AcDbLine
 10
469.9288052023563
 20
746.8022095855006
 30
0.0
 11
509.937338372274
 21
713.229579909779
 31
0.0
  0
LINE
  5
12A
330
1F
100
AcDbEntity
  8
D-2
  6
Continuous
 62
     3
370
     9
100
AcDbLine
 10
469.9319526369003
 20
710.9084679865038
 30
0.0
 11
509.937338372274
 21
744.4769357900748
 31
0.0
  0
LINE
  5
12B
330
1F
100
AcDbEntity
  8
D-2
  6
Continuous
 62
     3
370
     9
100
AcDbLine
 10
469.9284471104783
 20
736.5481117104946
 30
0.0
 11
509.937338372274
 21
702.9751815467256
 31
0.0
  0
LINE
  5
12C
330
1F
100
AcDbEntity
  8
D-2
  6
Continuous
 62
     3
370
     9
100
AcDbLine
 10
469.9315945450222
 20
700.6543701114981
 30
0.0
 11
509.937338372274
 21
734.2231383895034
 31
0.0
  0
LINE
  5
12D
330
1F
100
AcDbEntity
  8
D-2
  6
Continuous
 62
     3
370
     9
100
AcDbLine
 10
469.9280890186002
 20
726.2940138354884
 30
0.0
 11
509.937338372274
 21
692.7207831836716
 31
0.0
  0
LINE
  5
12E
330
1F
100
AcDbEntity
  8
D-2
  6
Continuous
 62
     3
370
     9
100
AcDbLine
 10
469.9312364531442
 20
690.4002722364919
 30
0.0
 11
509.937338372274
 21
723.9693409889327
 31
0.0
  0
LINE
  5
12F
330
1F
100
AcDbEntity
  8
D-2
  6
Continuous
 62
     3
370
     9
100
AcDbLine
 10
469.9277309267221
 20
716.0399159604822
 30
0.0
 11
509.937338372274
 21
682.4663848206183
 31
0.0
  0
LINE
  5
130
330
1F
100
AcDbEntity
  8
D-2
  6
Continuous
 62
     3
370
     9
100
AcDbLine
 10
469.9308783612661
 20
680.1461743614857
 30
0.0
 11
509.937338372274
 21
713.7155435883614
 31
0.0
  0
LINE
  5
131
330
1F
100
AcDbEntity
  8
D-2
  6
Continuous
 62
     3
370
     9
100
AcDbLine
 10
469.927372834844
 20
705.785818085476
 30
0.0
 11
509.937338372274
 21
672.2119864575649
 31
0.0
  0
LINE
  5
132
330
1F
100
AcDbEntity
  8
D-2
  6
Continuous
 62
     3
370
     9
100
AcDbLine
 10
469.930520269388
 20
669.8920764864795
 30
0.0
 11
509.937338372274
 21
703.4617461877906
 31
0.0
  0
LINE
  5
133
330
1F
100
AcDbEntity
  8
D-2
  6
Continuous
 62
     3
370
     9
100
AcDbLine
 10
469.927014742966
 20
695.5317202104703
 30
0.0
 11
509.937338372274
 21
661.9575880945115
 31
0.0
  0
LINE
  5
134
330
1F
100
AcDbEntity
  8
D-2
  6
Continuous
 62
     3
370
     9
100
AcDbLine
 10
469.9301621775099
 20
659.6379786114738
 30
0.0
 11
509.937338372274
 21
693.2079487872198
 31
0.0
  0
LINE
  5
135
330
1F
100
AcDbEntity
  8
D-2
  6
Continuous
 62
     3
370
     9
100
AcDbLine
 10
469.9266566510879
 20
685.2776223354641
 30
0.0
 11
509.937338372274
 21
651.7031897314581
 31
0.0
  0
LINE
  5
136
330
1F
100
AcDbEntity
  8
D-2
  6
Continuous
 62
     3
370
     9
100
AcDbLine
 10
469.9298040856319
 20
649.3838807364676
 30
0.0
 11
509.937338372274
 21
682.9541513866485
 31
0.0
  0
LINE
  5
137
330
1F
100
AcDbEntity
  8
D-2
  6
Continuous
 62
     3
370
     9
100
AcDbLine
 10
469.9294459937538
 20
639.1297828614613
 30
0.0
 11
509.937338372274
 21
672.7003539860777
 31
0.0
  0
LINE
  5
138
330
1F
100
AcDbEntity
  8
D-2
  6
Continuous
 62
     3
370
     9
100
AcDbLine
 10
469.9290879018757
 20
628.8756849864551
 30
0.0
 11
509.937338372274
 21
662.446556585507
 31
0.0
  0
LINE
  5
139
330
1F
100
AcDbEntity
  8
D-2
  6
Continuous
 62
     3
370
     9
100
AcDbLine
 10
469.9287298099977
 20
618.6215871114495
 30
0.0
 11
509.937338372274
 21
652.1927591849357
 31
0.0
  0
LINE
  5
13A
330
1F
100
AcDbEntity
  8
D-2
  6
Continuous
 62
     3
370
     9
100
AcDbLine
 10
469.9283717181196
 20
608.3674892364432
 30
0.0
 11
509.937338372274
 21
641.9389617843649
 31
0.0
  0
LINE
  5
13B
330
1F
100
AcDbEntity
  8
D-2
  6
Continuous
 62
     3
370
     9
100
AcDbLine
 10
489.9831666563198
 20
604.6878471175551
 30
0.0
 11
509.937338372274
 21
621.4313669832227
 31
0.0
  0
LINE
  5
13C
330
1F
100
AcDbEntity
  8
D-2
  6
Continuous
 62
     3
370
     9
100
AcDbLine
 10
477.7631534384811
 20
604.6878471175551
 30
0.0
 11
509.937338372274
 21
631.685164383794
 31
0.0
  0
LINE
  5
13D
330
1F
100
AcDbEntity
  8
D-2
  6
Continuous
 62
     3
370
     9
100
AcDbLine
 10
469.9252242835756
 20
644.2612308354398
 30
0.0
 11
509.937338372274
 21
610.6855962792439
 31
0.0
  0
LINE
  5
13E
330
1F
100
AcDbEntity
  8
D-2
  6
Continuous
 62
     3
370
     9
100
AcDbLine
 10
469.9255823754537
 20
654.515328710446
 30
0.0
 11
509.937338372274
 21
620.9399946422973
 31
0.0
  0
LINE
  5
13F
330
1F
100
AcDbEntity
  8
D-2
  6
Continuous
 62
     3
370
     9
100
AcDbLine
 10
469.9259404673318
 20
664.7694265854517
 30
0.0
 11
509.937338372274
 21
631.1943930053507
 31
0.0
  0
LINE
  5
140
330
1F
100
AcDbEntity
  8
D-2
  6
Continuous
 62
     3
370
     9
100
AcDbLine
 10
469.9262985592098
 20
675.0235244604579
 30
0.0
 11
509.937338372274
 21
641.4487913684042
 31
0.0
  0
LINE
  5
141
330
1F
100
AcDbEntity
  8
D-2
  6
Continuous
 62
     3
370
     9
100
AcDbLine
 10
469.940546841974
 20
849.336340374968
 30
0.0
 11
509.937338372274
 21
815.773563540314
 31
0.0
  0
LINE
  5
142
330
1F
100
AcDbEntity
  8
D-A
  6
Continuous
 62
     3
370
     9
100
AcDbLine
 10
509.9405468419734
 20
604.6878471175551
 30
0.0
 11
509.9405468419734
 21
854.6879708374667
 31
0.0
  0
LINE
  5
143
330
1F
100
AcDbEntity
  8
D-2
  6
Continuous
 62
     3
370
     9
100
AcDbLine
 10
469.9358916475591
 20
823.7035446115709
 30
0.0
 11
506.8617331905664
 21
854.6879708374667
 31
0.0
  0
LINE
  5
144
330
1F
100
AcDbEntity
  8
D-2
  6
Continuous
 62
     3
370
     9
100
AcDbLine
 10
500.223531406645
 20
854.6879708374667
 30
0.0
 11
509.937338372274
 21
846.5367586294741
 31
0.0
  0
LINE
  5
145
330
1F
100
AcDbEntity
  8
D-2
  6
Continuous
 62
     3
370
     9
100
AcDbLine
 10
469.9362497394371
 20
833.9576424865768
 30
0.0
 11
494.6417199727281
 21
854.6879708374667
 31
0.0
  0
LINE
  5
146
330
1F
100
AcDbEntity
  8
D-2
  6
Continuous
 62
     3
370
     9
100
AcDbLine
 10
488.003355596513
 20
854.6879708374667
 30
0.0
 11
509.937338372274
 21
836.2823602664207
 31
0.0
  0
LINE
  5
147
330
1F
100
AcDbEntity
  8
D-2
  6
Continuous
 62
     3
370
     9
100
AcDbLine
 10
469.9366078313152
 20
844.2117403615828
 30
0.0
 11
482.4217067548898
 21
854.6879708374667
 31
0.0
  0
LINE
  5
148
330
1F
100
AcDbEntity
  8
D-2
  6
Continuous
 62
     3
370
     9
100
AcDbLine
 10
475.7831797863811
 20
854.6879708374667
 30
0.0
 11
509.937338372274
 21
826.0279619033673
 31
0.0
  0
LINE
  5
149
330
1F
100
AcDbEntity
  8
D-2
  6
Continuous
 62
     3
370
     9
100
AcDbLine
 10
469.9369659231931
 20
854.4658382365888
 30
0.0
 11
470.2016935370516
 21
854.6879708374667
 31
0.0
  0
LINE
  5
14A
330
1F
100
AcDbEntity
  8
D-A
  6
Continuous
 62
     3
370
     9
100
AcDbLine
 10
469.940546841974
 20
604.6878471175551
 30
0.0
 11
469.940546841974
 21
854.6879708374667
 31
0.0
  0
LINE
  5
14B
330
1F
100
AcDbEntity
  8
D-2
  6
Continuous
 62
     3
370
     9
100
AcDbLine
 10
564.7448898075027
 20
884.6879708374667
 30
0.0
 11
439.9816053565444
 21
884.6879708374667
 31
0.0
  0
LINE
  5
14C
330
1F
100
AcDbEntity
  8
D-A
  6
Continuous
 62
     3
370
     9
100
AcDbLine
 10
509.9405468419734
 20
686.9379708374674
 30
0.0
 11
554.8412809134475
 21
686.9379708374674
 31
0.0
  0
LINE
  5
14D
330
1F
100
AcDbEntity
  8
D-A
  6
Continuous
 62
     3
370
     9
100
AcDbLine
 10
509.9405468419734
 20
722.4379708374693
 30
0.0
 11
554.8412809134475
 21
722.4379708374693
 31
0.0
  0
LINE
  5
14E
330
1F
100
AcDbEntity
  8
D-A
  6
Continuous
 62
     3
370
     9
100
AcDbLine
 10
509.9405468419734
 20
704.6879708374667
 30
0.0
 11
554.8412809134475
 21
704.6879708374667
 31
0.0
  0
LINE
  5
14F
330
1F
100
AcDbEntity
  8
D-2
  6
Continuous
 62
     3
370
     9
100
AcDbLine
 10
564.7448898075027
 20
854.6879708374667
 30
0.0
 11
439.9816053565444
 21
854.6879708374667
 31
0.0
  0
LINE
  5
150
330
1F
100
AcDbEntity
  8
D-2
  6
Continuous
 62
     3
370
     9
100
AcDbLine
 10
639.7406078771296
 20
935.6939456020393
 30
0.0
 11
679.7405468419736
 21
902.1304690395391
 31
0.0
  0
LINE
  5
151
330
1F
100
AcDbEntity
  8
D-2
  6
Continuous
 62
     3
370
     9
100
AcDbLine
 10
639.7406078771296
 20
945.9477964439748
 30
0.0
 11
679.7405468419736
 21
912.3843198814745
 31
0.0
  0
LINE
  5
152
330
1F
100
AcDbEntity
  8
D-2
  6
Continuous
 62
     3
370
     9
100
AcDbLine
 10
639.7406078771296
 20
910.0513120689749
 30
0.0
 11
679.7405468419736
 21
943.6151853599904
 31
0.0
  0
LINE
  5
153
330
1F
100
AcDbEntity
  8
D-2
  6
Continuous
 62
     3
370
     9
100
AcDbLine
 10
639.7406078771296
 20
956.2016472859096
 30
0.0
 11
679.7405468419736
 21
922.63817072341
 31
0.0
  0
LINE
  5
154
330
1F
100
AcDbEntity
  8
D-2
  6
Continuous
 62
     3
370
     9
100
AcDbLine
 10
639.7406078771296
 20
920.3051629109098
 30
0.0
 11
679.7405468419736
 21
953.8690362019253
 31
0.0
  0
LINE
  5
155
330
1F
100
AcDbEntity
  8
D-2
  6
Continuous
 62
     3
370
     9
100
AcDbLine
 10
639.7406078771296
 20
966.4554981278451
 30
0.0
 11
679.7405468419736
 21
932.8920215653454
 31
0.0
  0
LINE
  5
156
330
1F
100
AcDbEntity
  8
D-2
  6
Continuous
 62
     3
370
     9
100
AcDbLine
 10
639.7406078771296
 20
930.5590137528452
 30
0.0
 11
679.7405468419736
 21
964.1228870438607
 31
0.0
  0
LINE
  5
157
330
1F
100
AcDbEntity
  8
D-2
  6
Continuous
 62
     3
370
     9
100
AcDbLine
 10
639.7406078771296
 20
976.7093489697805
 30
0.0
 11
679.7405468419736
 21
943.1458724072803
 31
0.0
  0
LINE
  5
158
330
1F
100
AcDbEntity
  8
D-2
  6
Continuous
 62
     3
370
     9
100
AcDbLine
 10
639.7406078771296
 20
940.8128645947806
 30
0.0
 11
679.7405468419736
 21
974.3767378857962
 31
0.0
  0
LINE
  5
159
330
1F
100
AcDbEntity
  8
D-2
  6
Continuous
 62
     3
370
     9
100
AcDbLine
 10
639.7406078771296
 20
986.963199811716
 30
0.0
 11
679.7405468419736
 21
953.3997232492158
 31
0.0
  0
LINE
  5
15A
330
1F
100
AcDbEntity
  8
D-2
  6
Continuous
 62
     3
370
     9
100
AcDbLine
 10
639.7406078771296
 20
951.0667154367161
 30
0.0
 11
679.7405468419736
 21
984.6305887277316
 31
0.0
  0
LINE
  5
15B
330
1F
100
AcDbEntity
  8
D-2
  6
Continuous
 62
     3
370
     9
100
AcDbLine
 10
639.7406078771296
 20
997.2170506536509
 30
0.0
 11
679.7405468419736
 21
963.6535740911512
 31
0.0
  0
LINE
  5
15C
330
1F
100
AcDbEntity
  8
D-2
  6
Continuous
 62
     3
370
     9
100
AcDbLine
 10
639.7406078771296
 20
961.320566278651
 30
0.0
 11
679.7405468419736
 21
994.8844395696665
 31
0.0
  0
LINE
  5
15D
330
1F
100
AcDbEntity
  8
D-2
  6
Continuous
 62
     3
370
     9
100
AcDbLine
 10
639.7406078771296
 20
1007.470901495586
 30
0.0
 11
679.7405468419736
 21
973.9074249330866
 31
0.0
  0
LINE
  5
15E
330
1F
100
AcDbEntity
  8
D-2
  6
Continuous
 62
     3
370
     9
100
AcDbLine
 10
639.7406078771296
 20
971.5744171205864
 30
0.0
 11
679.7405468419736
 21
1005.138290411602
 31
0.0
  0
LINE
  5
15F
330
1F
100
AcDbEntity
  8
D-2
  6
Continuous
 62
     3
370
     9
100
AcDbLine
 10
639.7406078771296
 20
1017.724752337522
 30
0.0
 11
679.7405468419736
 21
984.1612757750215
 31
0.0
  0
LINE
  5
160
330
1F
100
AcDbEntity
  8
D-2
  6
Continuous
 62
     3
370
     9
100
AcDbLine
 10
639.7406078771296
 20
981.8282679625219
 30
0.0
 11
679.7405468419736
 21
1015.392141253537
 31
0.0
  0
LINE
  5
161
330
1F
100
AcDbEntity
  8
D-2
  6
Continuous
 62
     3
370
     9
100
AcDbLine
 10
674.0613577886102
 20
1019.688168789324
 30
0.0
 11
679.7405468419736
 21
1014.922828300828
 31
0.0
  0
LINE
  5
162
330
1F
100
AcDbEntity
  8
D-2
  6
Continuous
 62
     3
370
     9
100
AcDbLine
 10
639.7406078771296
 20
992.0821188044573
 30
0.0
 11
672.6402766632923
 21
1019.688168789324
 31
0.0
  0
LINE
  5
163
330
1F
100
AcDbEntity
  8
D-2
  6
Continuous
 62
     3
370
     9
100
AcDbLine
 10
661.8411276504041
 20
1019.688168789324
 30
0.0
 11
679.7405468419736
 21
1004.668977458892
 31
0.0
  0
LINE
  5
164
330
1F
100
AcDbEntity
  8
D-2
  6
Continuous
 62
     3
370
     9
100
AcDbLine
 10
639.7406078771296
 20
1002.335969646392
 30
0.0
 11
660.4201909694932
 21
1019.688168789324
 31
0.0
  0
LINE
  5
165
330
1F
100
AcDbEntity
  8
D-2
  6
Continuous
 62
     3
370
     9
100
AcDbLine
 10
649.6208975121987
 20
1019.688168789324
 30
0.0
 11
679.7405468419736
 21
994.415126616957
 31
0.0
  0
LINE
  5
166
330
1F
100
AcDbEntity
  8
D-2
  6
Continuous
 62
     3
370
     9
100
AcDbLine
 10
639.7406078771296
 20
1012.589820488328
 30
0.0
 11
648.2001052756935
 21
1019.688168789324
 31
0.0
  0
LINE
  5
167
330
1F
100
AcDbEntity
  8
D-2
  6
Continuous
 62
     3
370
     9
100
AcDbLine
 10
709.7413881373693
 20
884.6879708374667
 30
0.0
 11
584.7459731815263
 21
884.6879708374667
 31
0.0
  0
LINE
  5
168
330
1F
100
AcDbEntity
  8
D-A
  6
Continuous
 62
     3
370
     9
100
AcDbLine
 10
679.7405468419736
 20
884.6879708374667
 30
0.0
 11
679.7405468419736
 21
1019.688168789324
 31
0.0
  0
LINE
  5
169
330
1F
100
AcDbEntity
  8
D-A
  6
Continuous
 62
     3
370
     9
100
AcDbLine
 10
639.7437553116736
 20
884.6879708374667
 30
0.0
 11
639.7437553116736
 21
1019.688168789324
 31
0.0
  0
LINE
  5
16A
330
1F
100
AcDbEntity
  8
D-2
  6
Continuous
 62
     3
370
     9
100
AcDbLine
 10
646.1739572232868
 20
884.6879708374667
 30
0.0
 11
679.7405468419736
 21
912.853632834184
 31
0.0
  0
LINE
  5
16B
330
1F
100
AcDbEntity
  8
D-2
  6
Continuous
 62
     3
370
     9
100
AcDbLine
 10
639.7406078771296
 20
915.1862439181684
 30
0.0
 11
676.0875297905834
 21
884.6879708374667
 31
0.0
  0
LINE
  5
16C
330
1F
100
AcDbEntity
  8
D-2
  6
Continuous
 62
     3
370
     9
100
AcDbLine
 10
639.7406078771296
 20
904.9323930762336
 30
0.0
 11
663.8672996523776
 21
884.6879708374667
 31
0.0
  0
LINE
  5
16D
330
1F
100
AcDbEntity
  8
D-2
  6
Continuous
 62
     3
370
     9
100
AcDbLine
 10
639.7437553116736
 20
899.800102233425
 30
0.0
 11
679.7405468419736
 21
933.361334518055
 31
0.0
  0
LINE
  5
16E
330
1F
100
AcDbEntity
  8
D-2
  6
Continuous
 62
     3
370
     9
100
AcDbLine
 10
639.7437553116736
 20
889.5462513914896
 30
0.0
 11
679.7405468419736
 21
923.1074836761195
 31
0.0
  0
LINE
  5
16F
330
1F
100
AcDbEntity
  8
D-2
  6
Continuous
 62
     3
370
     9
100
AcDbLine
 10
639.7406078771296
 20
925.4400947601039
 30
0.0
 11
679.7405468419736
 21
891.8766181976046
 31
0.0
  0
LINE
  5
170
330
1F
100
AcDbEntity
  8
D-2
  6
Continuous
 62
     3
370
     9
100
AcDbLine
 10
658.3940429170856
 20
884.6879708374667
 30
0.0
 11
679.7405468419736
 21
902.5997819922492
 31
0.0
  0
LINE
  5
171
330
1F
100
AcDbEntity
  8
D-2
  6
Continuous
 62
     3
370
     9
100
AcDbLine
 10
670.6141286108843
 20
884.6879708374667
 30
0.0
 11
679.7405468419732
 21
892.3459311503141
 31
0.0
  0
LINE
  5
172
330
1F
100
AcDbEntity
  8
D-2
  6
Continuous
 62
     3
370
     9
100
AcDbLine
 10
639.7406078771293
 20
894.6785422342984
 30
0.0
 11
651.6470695141716
 21
884.6879708374667
 31
0.0
  0
LINE
  5
173
330
1F
100
AcDbEntity
  8
D-5
  6
Continuous
 62
     7
370
     9
100
AcDbLine
 10
679.7405468419736
 20
914.6879708374667
 30
0.0
 11
699.5743803492546
 21
929.9070065626847
 31
0.0
  0
LINE
  5
174
330
1F
100
AcDbEntity
  8
D-5
  6
Continuous
 62
     7
370
     9
100
AcDbLine
 10
679.7405468419736
 20
914.6879708374667
 30
0.0
 11
694.9595825671917
 21
934.5218043447471
 31
0.0
  0
LINE
  5
175
330
1F
100
AcDbEntity
  8
D-5
  6
Continuous
 62
     7
370
     9
100
AcDbLine
 10
679.7405468419736
 20
914.6879708374667
 30
0.0
 11
734.9127693347116
 21
969.8601933302043
 31
0.0
  0
LINE
  5
176
330
1F
100
AcDbEntity
  8
D-5
  6
Continuous
 62
     7
370
     9
100
AcDbLine
 10
734.9127693347116
 20
969.8601933302043
 30
0.0
 11
973.8299976510864
 21
969.8601933302043
 31
0.0
  0
TEXT
  5
177
330
1F
100
AcDbEntity
  8
D-5
  6
Continuous
 62
     7
370
     9
100
AcDbText
 10
734.9127693347116
 20
979.0901933302043
 30
0.0
 40
22.86
  1
ローレット模様
 41
1.142857142857143
  7
ＭＳ ゴシック
100
AcDbText
  0
LINE
  5
178
330
1F
100
AcDbEntity
  8
D-A
  6
Continuous
 62
     3
370
     9
100
AcDbLine
 10
679.7380724437464
 20
686.9379708374674
 30
0.0
 11
709.7413881373693
 21
686.9379708374674
 31
0.0
  0
LINE
  5
179
330
1F
100
AcDbEntity
  8
D-A
  6
Continuous
 62
     3
370
     9
100
AcDbLine
 10
594.8380724437463
 20
686.9379708374674
 30
0.0
 11
639.7388065152204
 21
686.9379708374674
 31
0.0
  0
LINE
  5
17A
330
1F
100
AcDbEntity
  8
D-A
  6
Continuous
 62
     3
370
     9
100
AcDbLine
 10
679.7380724437464
 20
722.4379708374693
 30
0.0
 11
709.7413881373693
 21
722.4379708374693
 31
0.0
  0
LINE
  5
17B
330
1F
100
AcDbEntity
  8
D-A
  6
Continuous
 62
     3
370
     9
100
AcDbLine
 10
594.8380724437463
 20
722.4379708374693
 30
0.0
 11
639.7388065152204
 21
722.4379708374693
 31
0.0
  0
LINE
  5
17C
330
1F
100
AcDbEntity
  8
D-A
  6
Continuous
 62
     3
370
     9
100
AcDbLine
 10
594.8380724437463
 20
704.6879708374667
 30
0.0
 11
639.7388065152204
 21
704.6879708374667
 31
0.0
  0
LINE
  5
17D
330
1F
100
AcDbEntity
  8
D-A
  6
Continuous
 62
     3
370
     9
100
AcDbLine
 10
679.7380724437464
 20
704.6879708374667
 30
0.0
 11
709.7413881373693
 21
704.6879708374667
 31
0.0
  0
LINE
  5
17E
330
1F
100
AcDbEntity
  8
D-2
  6
Continuous
 62
     3
370
     9
100
AcDbLine
 10
639.7280746613972
 20
634.0071329604335
 30
0.0
 11
674.6678941361698
 21
604.6878471175551
 31
0.0
  0
LINE
  5
17F
330
1F
100
AcDbEntity
  8
D-2
  6
Continuous
 62
     3
370
     9
100
AcDbLine
 10
639.7277165695191
 20
623.7530350854273
 30
0.0
 11
662.4477183260375
 21
604.6878471175551
 31
0.0
  0
LINE
  5
180
330
1F
100
AcDbEntity
  8
D-2
  6
Continuous
 62
     3
370
     9
100
AcDbLine
 10
639.727358477641
 20
613.4989372104217
 30
0.0
 11
650.2275425159057
 21
604.6878471175551
 31
0.0
  0
LINE
  5
181
330
1F
100
AcDbEntity
  8
D-2
  6
Continuous
 62
     3
370
     9
100
AcDbLine
 10
672.0063883438575
 20
604.6878471175551
 30
0.0
 11
679.7405468419736
 21
611.1775695826519
 31
0.0
  0
LINE
  5
182
330
1F
100
AcDbEntity
  8
D-2
  6
Continuous
 62
     3
370
     9
100
AcDbLine
 10
639.7387420253806
 20
813.4494467365647
 30
0.0
 11
679.7405468419736
 21
847.0149097957841
 31
0.0
  0
LINE
  5
183
330
1F
100
AcDbEntity
  8
D-2
  6
Continuous
 62
     3
370
     9
100
AcDbLine
 10
639.7352364989586
 20
839.089090460555
 30
0.0
 11
679.7405468419736
 21
805.5191651772602
 31
0.0
  0
LINE
  5
184
330
1F
100
AcDbEntity
  8
D-2
  6
Continuous
 62
     3
370
     9
100
AcDbLine
 10
639.7383839335025
 20
803.1953488615585
 30
0.0
 11
679.7405468419736
 21
836.7611123952133
 31
0.0
  0
LINE
  5
185
330
1F
100
AcDbEntity
  8
D-2
  6
Continuous
 62
     3
370
     9
100
AcDbLine
 10
639.7348784070805
 20
828.8349925855491
 30
0.0
 11
679.7405468419736
 21
795.2647668142066
 31
0.0
  0
LINE
  5
186
330
1F
100
AcDbEntity
  8
D-2
  6
Continuous
 62
     3
370
     9
100
AcDbLine
 10
639.7380258416244
 20
792.9412509865526
 30
0.0
 11
679.7405468419736
 21
826.5073149946426
 31
0.0
  0
LINE
  5
187
330
1F
100
AcDbEntity
  8
D-2
  6
Continuous
 62
     3
370
     9
100
AcDbLine
 10
639.7345203152024
 20
818.5808947105431
 30
0.0
 11
679.7405468419736
 21
785.0103684511532
 31
0.0
  0
LINE
  5
188
330
1F
100
AcDbEntity
  8
D-2
  6
Continuous
 62
     3
370
     9
100
AcDbLine
 10
639.7376677497464
 20
782.6871531115466
 30
0.0
 11
679.7405468419736
 21
816.2535175940712
 31
0.0
  0
LINE
  5
189
330
1F
100
AcDbEntity
  8
D-2
  6
Continuous
 62
     3
370
     9
100
AcDbLine
 10
639.7341622233243
 20
808.3267968355369
 30
0.0
 11
679.7405468419736
 21
774.7559700880998
 31
0.0
  0
LINE
  5
18A
330
1F
100
AcDbEntity
  8
D-2
  6
Continuous
 62
     3
370
     9
100
AcDbLine
 10
639.7373096578683
 20
772.4330552365404
 30
0.0
 11
679.7405468419736
 21
805.9997201935005
 31
0.0
  0
LINE
  5
18B
330
1F
100
AcDbEntity
  8
D-2
  6
Continuous
 62
     3
370
     9
100
AcDbLine
 10
639.7338041314463
 20
798.0726989605307
 30
0.0
 11
679.7405468419736
 21
764.5015717250465
 31
0.0
  0
LINE
  5
18C
330
1F
100
AcDbEntity
  8
D-2
  6
Continuous
 62
     3
370
     9
100
AcDbLine
 10
639.7369515659902
 20
762.1789573615342
 30
0.0
 11
679.7405468419736
 21
795.7459227929294
 31
0.0
  0
LINE
  5
18D
330
1F
100
AcDbEntity
  8
D-2
  6
Continuous
 62
     3
370
     9
100
AcDbLine
 10
639.7334460395682
 20
787.8186010855247
 30
0.0
 11
679.7405468419736
 21
754.2471733619927
 31
0.0
  0
LINE
  5
18E
330
1F
100
AcDbEntity
  8
D-2
  6
Continuous
 62
     3
370
     9
100
AcDbLine
 10
639.7365934741122
 20
751.9248594865282
 30
0.0
 11
679.7405468419736
 21
785.4921253923584
 31
0.0
  0
LINE
  5
18F
330
1F
100
AcDbEntity
  8
D-2
  6
Continuous
 62
     3
370
     9
100
AcDbLine
 10
639.7330879476901
 20
777.5645032105189
 30
0.0
 11
679.7405468419736
 21
743.9927749989391
 31
0.0
  0
LINE
  5
190
330
1F
100
AcDbEntity
  8
D-2
  6
Continuous
 62
     3
370
     9
100
AcDbLine
 10
639.7362353822341
 20
741.6707616115224
 30
0.0
 11
679.7405468419736
 21
775.2383279917876
 31
0.0
  0
LINE
  5
191
330
1F
100
AcDbEntity
  8
D-2
  6
Continuous
 62
     3
370
     9
100
AcDbLine
 10
639.7327298558121
 20
767.3104053355127
 30
0.0
 11
679.7405468419736
 21
733.7383766358857
 31
0.0
  0
LINE
  5
192
330
1F
100
AcDbEntity
  8
D-2
  6
Continuous
 62
     3
370
     9
100
AcDbLine
 10
639.735877290356
 20
731.4166637365162
 30
0.0
 11
679.7405468419736
 21
764.9845305912165
 31
0.0
  0
LINE
  5
193
330
1F
100
AcDbEntity
  8
D-2
  6
Continuous
 62
     3
370
     9
100
AcDbLine
 10
639.732371763934
 20
757.0563074605064
 30
0.0
 11
679.7405468419736
 21
723.4839782728324
 31
0.0
  0
LINE
  5
194
330
1F
100
AcDbEntity
  8
D-2
  6
Continuous
 62
     3
370
     9
100
AcDbLine
 10
639.735519198478
 20
721.16256586151
 30
0.0
 11
679.7405468419736
 21
754.7307331906455
 31
0.0
  0
LINE
  5
195
330
1F
100
AcDbEntity
  8
D-2
  6
Continuous
 62
     3
370
     9
100
AcDbLine
 10
639.7320136720559
 20
746.8022095855006
 30
0.0
 11
679.7405468419736
 21
713.229579909779
 31
0.0
  0
LINE
  5
196
330
1F
100
AcDbEntity
  8
D-2
  6
Continuous
 62
     3
370
     9
100
AcDbLine
 10
639.7351611065999
 20
710.9084679865038
 30
0.0
 11
679.7405468419736
 21
744.4769357900748
 31
0.0
  0
LINE
  5
197
330
1F
100
AcDbEntity
  8
D-2
  6
Continuous
 62
     3
370
     9
100
AcDbLine
 10
639.7316555801779
 20
736.5481117104946
 30
0.0
 11
679.7405468419736
 21
702.9751815467256
 31
0.0
  0
LINE
  5
198
330
1F
100
AcDbEntity
  8
D-2
  6
Continuous
 62
     3
370
     9
100
AcDbLine
 10
639.7348030147218
 20
700.6543701114981
 30
0.0
 11
679.7405468419736
 21
734.2231383895034
 31
0.0
  0
LINE
  5
199
330
1F
100
AcDbEntity
  8
D-2
  6
Continuous
 62
     3
370
     9
100
AcDbLine
 10
639.7312974882998
 20
726.2940138354884
 30
0.0
 11
679.7405468419736
 21
692.7207831836716
 31
0.0
  0
LINE
  5
19A
330
1F
100
AcDbEntity
  8
D-2
  6
Continuous
 62
     3
370
     9
100
AcDbLine
 10
639.7344449228437
 20
690.4002722364919
 30
0.0
 11
679.7405468419736
 21
723.9693409889327
 31
0.0
  0
LINE
  5
19B
330
1F
100
AcDbEntity
  8
D-2
  6
Continuous
 62
     3
370
     9
100
AcDbLine
 10
639.7309393964217
 20
716.0399159604822
 30
0.0
 11
679.7405468419736
 21
682.4663848206183
 31
0.0
  0
LINE
  5
19C
330
1F
100
AcDbEntity
  8
D-2
  6
Continuous
 62
     3
370
     9
100
AcDbLine
 10
639.7340868309657
 20
680.1461743614857
 30
0.0
 11
679.7405468419736
 21
713.7155435883614
 31
0.0
  0
LINE
  5
19D
330
1F
100
AcDbEntity
  8
D-2
  6
Continuous
 62
     3
370
     9
100
AcDbLine
 10
639.7305813045436
 20
705.785818085476
 30
0.0
 11
679.7405468419736
 21
672.2119864575649
 31
0.0
  0
LINE
  5
19E
330
1F
100
AcDbEntity
  8
D-2
  6
Continuous
 62
     3
370
     9
100
AcDbLine
 10
639.7337287390876
 20
669.8920764864795
 30
0.0
 11
679.7405468419736
 21
703.4617461877906
 31
0.0
  0
LINE
  5
19F
330
1F
100
AcDbEntity
  8
D-2
  6
Continuous
 62
     3
370
     9
100
AcDbLine
 10
639.7302232126656
 20
695.5317202104703
 30
0.0
 11
679.7405468419736
 21
661.9575880945115
 31
0.0
  0
LINE
  5
1A0
330
1F
100
AcDbEntity
  8
D-2
  6
Continuous
 62
     3
370
     9
100
AcDbLine
 10
639.7333706472095
 20
659.6379786114738
 30
0.0
 11
679.7405468419736
 21
693.2079487872198
 31
0.0
  0
LINE
  5
1A1
330
1F
100
AcDbEntity
  8
D-2
  6
Continuous
 62
     3
370
     9
100
AcDbLine
 10
639.7298651207875
 20
685.2776223354641
 30
0.0
 11
679.7405468419736
 21
651.7031897314581
 31
0.0
  0
LINE
  5
1A2
330
1F
100
AcDbEntity
  8
D-2
  6
Continuous
 62
     3
370
     9
100
AcDbLine
 10
639.7330125553315
 20
649.3838807364676
 30
0.0
 11
679.7405468419736
 21
682.9541513866485
 31
0.0
  0
LINE
  5
1A3
330
1F
100
AcDbEntity
  8
D-2
  6
Continuous
 62
     3
370
     9
100
AcDbLine
 10
639.7326544634534
 20
639.1297828614613
 30
0.0
 11
679.7405468419736
 21
672.7003539860777
 31
0.0
  0
LINE
  5
1A4
330
1F
100
AcDbEntity
  8
D-2
  6
Continuous
 62
     3
370
     9
100
AcDbLine
 10
639.7322963715753
 20
628.8756849864551
 30
0.0
 11
679.7405468419736
 21
662.446556585507
 31
0.0
  0
LINE
  5
1A5
330
1F
100
AcDbEntity
  8
D-2
  6
Continuous
 62
     3
370
     9
100
AcDbLine
 10
639.7319382796973
 20
618.6215871114495
 30
0.0
 11
679.7405468419736
 21
652.1927591849357
 31
0.0
  0
LINE
  5
1A6
330
1F
100
AcDbEntity
  8
D-2
  6
Continuous
 62
     3
370
     9
100
AcDbLine
 10
639.7315801878192
 20
608.3674892364432
 30
0.0
 11
679.7405468419736
 21
641.9389617843649
 31
0.0
  0
LINE
  5
1A7
330
1F
100
AcDbEntity
  8
D-2
  6
Continuous
 62
     3
370
     9
100
AcDbLine
 10
659.7863751260194
 20
604.6878471175551
 30
0.0
 11
679.7405468419736
 21
621.4313669832227
 31
0.0
  0
LINE
  5
1A8
330
1F
100
AcDbEntity
  8
D-2
  6
Continuous
 62
     3
370
     9
100
AcDbLine
 10
647.5663619081807
 20
604.6878471175551
 30
0.0
 11
679.7405468419736
 21
631.685164383794
 31
0.0
  0
LINE
  5
1A9
330
1F
100
AcDbEntity
  8
D-2
  6
Continuous
 62
     3
370
     9
100
AcDbLine
 10
639.7284327532752
 20
644.2612308354398
 30
0.0
 11
679.7405468419736
 21
610.6855962792439
 31
0.0
  0
LINE
  5
1AA
330
1F
100
AcDbEntity
  8
D-2
  6
Continuous
 62
     3
370
     9
100
AcDbLine
 10
639.7287908451533
 20
654.515328710446
 30
0.0
 11
679.7405468419736
 21
620.9399946422973
 31
0.0
  0
LINE
  5
1AB
330
1F
100
AcDbEntity
  8
D-2
  6
Continuous
 62
     3
370
     9
100
AcDbLine
 10
639.7291489370314
 20
664.7694265854517
 30
0.0
 11
679.7405468419736
 21
631.1943930053507
 31
0.0
  0
LINE
  5
1AC
330
1F
100
AcDbEntity
  8
D-2
  6
Continuous
 62
     3
370
     9
100
AcDbLine
 10
639.7295070289094
 20
675.0235244604579
 30
0.0
 11
679.7405468419736
 21
641.4487913684042
 31
0.0
  0
LINE
  5
1AD
330
1F
100
AcDbEntity
  8
D-2
  6
Continuous
 62
     3
370
     9
100
AcDbLine
 10
639.7437553116736
 20
849.336340374968
 30
0.0
 11
679.7405468419736
 21
815.773563540314
 31
0.0
  0
LINE
  5
1AE
330
1F
100
AcDbEntity
  8
D-2
  6
Continuous
 62
     3
370
     9
100
AcDbLine
 10
709.7413881373693
 20
854.6879708374667
 30
0.0
 11
584.7459731815263
 21
854.6879708374667
 31
0.0
  0
LINE
  5
1AF
330
1F
100
AcDbEntity
  8
D-A
  6
Continuous
 62
     3
370
     9
100
AcDbLine
 10
679.7405468419736
 20
604.6878471175551
 30
0.0
 11
679.7405468419736
 21
854.6879708374667
 31
0.0
  0
LINE
  5
1B0
330
1F
100
AcDbEntity
  8
D-2
  6
Continuous
 62
     3
370
     9
100
AcDbLine
 10
639.7391001172587
 20
823.7035446115709
 30
0.0
 11
676.6649416602661
 21
854.6879708374667
 31
0.0
  0
LINE
  5
1B1
330
1F
100
AcDbEntity
  8
D-2
  6
Continuous
 62
     3
370
     9
100
AcDbLine
 10
670.0267398763445
 20
854.6879708374667
 30
0.0
 11
679.7405468419736
 21
846.5367586294741
 31
0.0
  0
LINE
  5
1B2
330
1F
100
AcDbEntity
  8
D-2
  6
Continuous
 62
     3
370
     9
100
AcDbLine
 10
639.7394582091367
 20
833.9576424865768
 30
0.0
 11
664.4449284424277
 21
854.6879708374667
 31
0.0
  0
LINE
  5
1B3
330
1F
100
AcDbEntity
  8
D-2
  6
Continuous
 62
     3
370
     9
100
AcDbLine
 10
657.8065640662126
 20
854.6879708374667
 30
0.0
 11
679.7405468419736
 21
836.2823602664207
 31
0.0
  0
LINE
  5
1B4
330
1F
100
AcDbEntity
  8
D-2
  6
Continuous
 62
     3
370
     9
100
AcDbLine
 10
639.7398163010148
 20
844.2117403615828
 30
0.0
 11
652.2249152245895
 21
854.6879708374667
 31
0.0
  0
LINE
  5
1B5
330
1F
100
AcDbEntity
  8
D-2
  6
Continuous
 62
     3
370
     9
100
AcDbLine
 10
645.5863882560807
 20
854.6879708374667
 30
0.0
 11
679.7405468419736
 21
826.0279619033673
 31
0.0
  0
LINE
  5
1B6
330
1F
100
AcDbEntity
  8
D-A
  6
Continuous
 62
     3
370
     9
100
AcDbLine
 10
639.7437553116736
 20
604.6878471175551
 30
0.0
 11
639.7437553116736
 21
854.6879708374667
 31
0.0
  0
LINE
  5
1B7
330
1F
100
AcDbEntity
  8
D-2
  6
Continuous
 62
     3
370
     9
100
AcDbLine
 10
639.7401743928926
 20
854.4658382365888
 30
0.0
 11
640.0049020067512
 21
854.6879708374667
 31
0.0
  0
LINE
  5
1B8
330
1F
100
AcDbEntity
  8
D-5
  6
JWW_CENTER1
 62
     4
370
     9
100
AcDbLine
 10
766.8780167821926
 20
664.8134649745037
 30
0.0
 11
729.7613132808117
 21
664.8134649745037
 31
0.0
  0
SOLID
  5
1B9
330
1F
100
AcDbEntity
  8
D-5
  6
Continuous
 62
     4
370
     9
100
AcDbTrace
 10
766.8780167821926
 20
666.8134649745036
 30
0.0
 11
806.8780167821926
 21
666.8134649745036
 31
0.0
 12
766.8780167821926
 22
662.8134649745039
 32
0.0
 13
806.8780167821926
 23
662.8134649745039
 33
0.0
  0
LINE
  5
1BA
330
1F
100
AcDbEntity
  8
D-2
  6
Continuous
 62
     3
370
     9
100
AcDbLine
 10
709.7413881373693
 20
1034.687970837467
 30
0.0
 11
439.9816053565444
 21
1034.687970837467
 31
0.0
  0
LINE
  5
1BB
330
1F
100
AcDbEntity
  8
D-A
  6
Continuous
 62
     3
370
     9
100
AcDbLine
 10
709.7413881373693
 20
1019.688168789324
 30
0.0
 11
439.9816053565444
 21
1019.688168789324
 31
0.0
  0
LINE
  5
1BC
330
1F
100
AcDbEntity
  8
D-4
  6
Continuous
 62
     7
370
     9
100
AcDbLine
 10
489.9405468419736
 20
1098.606351279648
 30
0.0
 11
574.8409138777105
 21
1098.606351279648
 31
0.0
  0
LWPOLYLINE
  5
1BD
330
1F
100
AcDbEntity
  8
D-4
  6
Continuous
 62
     7
370
     9
100
AcDbPolyline
 90
        4
 70
     1
 43
1.0
 10
490.4405468419736
 20
1098.606351279648
 42
0.4142135623731
 10
489.9405468419736
 20
1099.106351279648
 42
0.4142135623731
 10
489.4405468419737
 20
1098.606351279648
 42
0.4142135623731
 10
489.9405468419736
 20
1098.106351279648
 42
0.4142135623731
  0
LWPOLYLINE
  5
1BE
330
1F
100
AcDbEntity
  8
D-4
  6
Continuous
 62
     7
370
     9
100
AcDbPolyline
 90
        4
 70
     1
 43
1.0
 10
575.3409138777104
 20
1098.606351279648
 42
0.4142135623731
 10
574.8409138777105
 20
1099.106351279648
 42
0.4142135623731
 10
574.3409138777105
 20
1098.606351279648
 42
0.4142135623731
 10
574.8409138777105
 20
1098.106351279648
 42
0.4142135623731
  0
TEXT
  5
1BF
330
1F
100
AcDbEntity
  8
D-4
  6
Continuous
 62
     2
370
   211
100
AcDbText
 10
511.1407303598421
 20
1110.246351279648
 30
0.0
 40
30.48
  1
17
 41
1.0625
  7
ＭＳ ゴシック
100
AcDbText
  0
LINE
  5
1C0
330
1F
100
AcDbEntity
  8
D-4
  6
Continuous
 62
     7
370
     9
100
AcDbLine
 10
574.8409138777105
 20
1098.606351279648
 30
0.0
 11
659.7421510768236
 21
1098.606351279648
 31
0.0
  0
LWPOLYLINE
  5
1C1
330
1F
100
AcDbEntity
  8
D-4
  6
Continuous
 62
     7
370
     9
100
AcDbPolyline
 90
        4
 70
     1
 43
1.0
 10
660.2421510768236
 20
1098.606351279648
 42
0.4142135623731
 10
659.7421510768236
 20
1099.106351279648
 42
0.4142135623731
 10
659.2421510768236
 20
1098.606351279648
 42
0.4142135623731
 10
659.7421510768236
 20
1098.106351279648
 42
0.4142135623731
  0
TEXT
  5
1C2
330
1F
100
AcDbEntity
  8
D-4
  6
Continuous
 62
     2
370
   211
100
AcDbText
 10
596.041532477267
 20
1110.246351279648
 30
0.0
 40
30.48
  1
17
 41
1.0625
  7
ＭＳ ゴシック
100
AcDbText
  0
LINE
  5
1C3
330
1F
100
AcDbEntity
  8
D-5
  6
JWW_CENTER1
 62
     4
370
     9
100
AcDbLine
 10
382.6421241895762
 20
664.8134649745037
 30
0.0
 11
419.7588276909577
 21
664.8134649745037
 31
0.0
  0
SOLID
  5
1C4
330
1F
100
AcDbEntity
  8
D-5
  6
Continuous
 62
     4
370
     9
100
AcDbTrace
 10
382.6421241895762
 20
662.8134649745039
 30
0.0
 11
342.6421241895762
 21
662.8134649745039
 31
0.0
 12
382.6421241895762
 22
666.8134649745036
 32
0.0
 13
342.6421241895762
 23
666.8134649745036
 33
0.0
  0
LINE
  5
1C5
330
1F
100
AcDbEntity
  8
D-5
  6
Continuous
 62
     4
370
     9
100
AcDbLine
 10
361.6611273161025
 20
655.1473751767918
 30
0.0
 11
361.6611273161025
 21
605.8979824938498
 31
0.0
  0
LINE
  5
1C6
330
1F
100
AcDbEntity
  8
D-5
  6
Continuous
 62
     4
370
     9
100
AcDbLine
 10
361.6611273161025
 20
655.1473751767918
 30
0.0
 11
364.9242821216038
 21
630.3612536424463
 31
0.0
  0
LINE
  5
1C7
330
1F
100
AcDbEntity
  8
D-5
  6
Continuous
 62
     4
370
     9
100
AcDbLine
 10
361.6611273161025
 20
655.1473751767918
 30
0.0
 11
358.3979725106011
 21
630.3612536424463
 31
0.0
  0
TEXT
  5
1C8
330
1F
100
AcDbEntity
  8
D-5
  6
Continuous
 62
     2
370
     9
100
AcDbText
 10
351.6611273161025
 20
565.5718826564375
 30
0.0
 40
30.48
  1
B
 41
0.9999999999999998
  7
ＭＳ ゴシック
100
AcDbText
  0
SOLID
  5
1C9
330
1F
100
AcDbEntity
  8
D-5
  6
Continuous
 62
     4
370
     9
100
AcDbTrace
 10
534.3909138777103
 20
574.0416599694698
 30
0.0
 11
534.3909138777103
 21
534.0416599694697
 31
0.0
 12
530.3909138777105
 22
574.0416599694698
 32
0.0
 13
530.3909138777105
 23
534.0416599694697
 33
0.0
  0
LINE
  5
1CA
330
1F
100
AcDbEntity
  8
D-5
  6
JWW_CENTER1
 62
     4
370
     9
100
AcDbLine
 10
532.3909138777104
 20
574.0416599694698
 30
0.0
 11
532.3909138777104
 21
654.8451086962115
 31
0.0
  0
LINE
  5
1CB
330
1F
100
AcDbEntity
  8
D-5
  6
Continuous
 62
     4
370
     9
100
AcDbLine
 10
542.0570036754224
 20
553.0606630959961
 30
0.0
 11
591.306396358364
 21
553.0606630959961
 31
0.0
  0
LINE
  5
1CC
330
1F
100
AcDbEntity
  8
D-5
  6
Continuous
 62
     4
370
     9
100
AcDbLine
 10
542.0570036754224
 20
553.0606630959961
 30
0.0
 11
566.8431252097678
 21
556.3238179014975
 31
0.0
  0
LINE
  5
1CD
330
1F
100
AcDbEntity
  8
D-5
  6
Continuous
 62
     4
370
     9
100
AcDbLine
 10
542.0570036754224
 20
553.0606630959961
 30
0.0
 11
566.8431252097678
 21
549.7975082904946
 31
0.0
  0
TEXT
  5
1CE
330
1F
100
AcDbEntity
  8
D-5
  6
Continuous
 62
     2
370
     9
100
AcDbText
 10
599.0171674923142
 20
540.8554810757923
 30
0.0
 40
30.48
  1
C
 41
0.9999999999999998
  7
ＭＳ ゴシック
100
AcDbText
  0
LINE
  5
1CF
330
1F
100
AcDbEntity
  8
D-5
  6
JWW_CENTER1
 62
     4
370
     9
100
AcDbLine
 10
532.3909138777104
 20
1206.001034818369
 30
0.0
 11
532.3909138777104
 21
1168.697709996884
 31
0.0
  0
SOLID
  5
1D0
330
1F
100
AcDbEntity
  8
D-5
  6
Continuous
 62
     4
370
     9
100
AcDbTrace
 10
534.3909138777103
 20
1206.001034818369
 30
0.0
 11
534.3909138777103
 21
1246.001034818368
 31
0.0
 12
530.3909138777105
 22
1206.001034818369
 32
0.0
 13
530.3909138777105
 23
1246.001034818368
 33
0.0
  0
LINE
  5
1D1
330
1F
100
AcDbEntity
  8
D-5
  6
Continuous
 62
     4
370
     9
100
AcDbLine
 10
542.0570036754224
 20
1226.982031691842
 30
0.0
 11
566.8431252097678
 21
1230.245186497344
 31
0.0
  0
LINE
  5
1D2
330
1F
100
AcDbEntity
  8
D-5
  6
Continuous
 62
     4
370
     9
100
AcDbLine
 10
542.0570036754224
 20
1226.982031691842
 30
0.0
 11
591.306396358364
 21
1226.982031691842
 31
0.0
  0
LINE
  5
1D3
330
1F
100
AcDbEntity
  8
D-5
  6
Continuous
 62
     4
370
     9
100
AcDbLine
 10
542.0570036754224
 20
1226.982031691842
 30
0.0
 11
566.8431252097678
 21
1223.718876886341
 31
0.0
  0
TEXT
  5
1D4
330
1F
100
AcDbEntity
  8
D-5
  6
Continuous
 62
     2
370
     9
100
AcDbText
 10
599.0171674923142
 20
1214.776849671639
 30
0.0
 40
30.48
  1
C
 41
0.9999999999999998
  7
ＭＳ ゴシック
100
AcDbText
  0
LINE
  5
1D5
330
1F
100
AcDbEntity
  8
D-4
  6
Continuous
 62
     7
370
     9
100
AcDbLine
 10
659.7421510768236
 20
1101.606351279647
 30
0.0
 11
659.7421510768236
 21
1048.688168789324
 31
0.0
  0
LINE
  5
1D6
330
1F
100
AcDbEntity
  8
D-4
  6
Continuous
 62
     7
370
     9
100
AcDbLine
 10
574.8409138777105
 20
1101.606351279647
 30
0.0
 11
574.8409138777105
 21
1048.688168789324
 31
0.0
  0
LINE
  5
1D7
330
1F
100
AcDbEntity
  8
D-4
  6
Continuous
 62
     7
370
     9
100
AcDbLine
 10
489.9405468419736
 20
1101.606351279647
 30
0.0
 11
489.9405468419736
 21
1048.688168789324
 31
0.0
  0
TEXT
  5
1D8
330
1F
100
AcDbEntity
  8
D-5
  6
Continuous
 62
     2
370
     9
100
AcDbText
 10
-1228.777236934821
 20
-1042.433151206542
 30
0.0
 40
30.48
  1
A断面詳細図　Ｓ＝１：２
 50
0.00002676319048
 41
1.114130434782608
  7
ＭＳ ゴシック
100
AcDbText
  0
LINE
  5
1D9
330
1F
100
AcDbEntity
  8
D-5
  6
Continuous
 62
     7
370
     9
100
AcDbLine
 10
-718.4362348618363
 20
-1060.572846030761
 30
0.0
 11
-1235.658091060746
 21
-1060.572846030761
 31
0.0
  0
LINE
  5
1DA
330
1F
100
AcDbEntity
  8
D-0
  6
Continuous
 62
     3
370
     9
100
AcDbLine
 10
1562.231288953238
 20
280.3785423336316
 30
0.0
 11
1547.231239465275
 21
280.3785423336316
 31
0.0
  0
LINE
  5
1DB
330
1F
100
AcDbEntity
  8
D-0
  6
Continuous
 62
     3
370
     9
100
AcDbLine
 10
1382.231288953239
 20
280.3785423336316
 30
0.0
 11
1041.483625335386
 21
280.3785423336316
 31
0.0
  0
LINE
  5
1DC
330
1F
100
AcDbEntity
  8
D-0
  6
Continuous
 62
     3
370
     9
100
AcDbLine
 10
1547.231239465275
 20
280.3785423336316
 30
0.0
 11
1412.231288953238
 21
280.3785423336316
 31
0.0
  0
LINE
  5
1DD
330
1F
100
AcDbEntity
  8
D-5
  6
Continuous
 62
     7
370
     9
100
AcDbLine
 10
1221.995918392801
 20
66.47175814954274
 30
0.0
 11
1418.916040107129
 21
66.47175814954274
 31
0.0
  0
TEXT
  5
1DE
330
1F
100
AcDbEntity
  8
D-5
  6
Continuous
 62
     2
370
     9
100
AcDbText
 10
1224.233032825691
 20
87.11175814954274
 30
0.0
 40
30.48
  1
C-C断面図
 41
1.097222222222218
  7
ＭＳ ゴシック
100
AcDbText
  0
LINE
  5
1DF
330
1F
100
AcDbEntity
  8
D-4
  6
Continuous
 62
     7
370
     9
100
AcDbLine
 10
1041.483478851012
 20
451.1916208146883
 30
0.0
 11
1232.231288953239
 21
451.1916208146883
 31
0.0
  0
LWPOLYLINE
  5
1E0
330
1F
100
AcDbEntity
  8
D-4
  6
Continuous
 62
     7
370
     9
100
AcDbPolyline
 90
        4
 70
     1
 43
1.0
 10
1232.731288953239
 20
451.1916208146883
 42
0.4142135623731
 10
1232.231288953239
 20
451.6916208146883
 42
0.4142135623731
 10
1231.731288953239
 20
451.1916208146883
 42
0.4142135623731
 10
1232.231288953239
 20
450.6916208146884
 42
0.4142135623731
  0
LINE
  5
1E1
330
1F
100
AcDbEntity
  8
D-4
  6
Continuous
 62
     7
370
     9
100
AcDbLine
 10
1232.231288953239
 20
454.1916208146883
 30
0.0
 11
1232.231288953239
 21
368.386222865726
 31
0.0
  0
TEXT
  5
1E2
330
1F
100
AcDbEntity
  8
D-4
  6
Continuous
 62
     2
370
   211
100
AcDbText
 10
1041.483478851012
 20
462.8316208146883
 30
0.0
 40
30.48
  1
100
 41
1.083333333333333
  7
ＭＳ ゴシック
100
AcDbText
  0
LINE
  5
1E3
330
1F
100
AcDbEntity
  8
D-0
  6
Continuous
 62
     3
370
     9
100
AcDbLine
 10
1562.231288953238
 20
355.2245626599881
 30
0.0
 11
1562.231288953238
 21
280.3785423336316
 31
0.0
  0
LINE
  5
1E4
330
1F
100
AcDbEntity
  8
D-0
  6
Continuous
 62
     3
370
     9
100
AcDbLine
 10
1547.231239465275
 20
355.2245626599881
 30
0.0
 11
1547.231239465275
 21
280.3785423336316
 31
0.0
  0
LINE
  5
1E5
330
1F
100
AcDbEntity
  8
D-0
  6
Continuous
 62
     3
370
     9
100
AcDbLine
 10
1547.231239465275
 20
355.2245626599881
 30
0.0
 11
1562.231288953238
 21
355.2245626599881
 31
0.0
  0
LINE
  5
1E6
330
1F
100
AcDbEntity
  8
D-0
  6
Continuous
 62
     3
370
     9
100
AcDbLine
 10
1041.483625335386
 20
348.22449007764
 30
0.0
 11
1382.231288953239
 21
348.22449007764
 31
0.0
  0
LINE
  5
1E7
330
1F
100
AcDbEntity
  8
D-0
  6
Continuous
 62
     3
370
     9
100
AcDbLine
 10
1382.231288953239
 20
355.2245626599881
 30
0.0
 11
1041.483625335386
 21
355.2245626599881
 31
0.0
  0
LINE
  5
1E8
330
1F
100
AcDbEntity
  8
D-0
  6
Continuous
 62
     3
370
     9
100
AcDbLine
 10
1412.231288953238
 20
348.22449007764
 30
0.0
 11
1547.231239465275
 21
348.22449007764
 31
0.0
  0
LINE
  5
1E9
330
1F
100
AcDbEntity
  8
D-0
  6
Continuous
 62
     3
370
     9
100
AcDbLine
 10
1547.231239465275
 20
355.2245626599881
 30
0.0
 11
1412.231288953238
 21
355.2245626599881
 31
0.0
  0
LINE
  5
1EA
330
1F
100
AcDbEntity
  8
D-2
  6
Continuous
 62
     3
370
     9
100
AcDbLine
 10
1237.408967241879
 20
302.2246451399288
 30
0.0
 11
1244.730835313565
 21
302.2246451399288
 31
0.0
  0
LINE
  5
1EB
330
1F
100
AcDbEntity
  8
D-2
  6
Continuous
 62
     3
370
     9
100
AcDbLine
 10
1244.730835313565
 20
309.5472555310818
 30
0.0
 11
1244.730835313565
 21
302.2246451399288
 31
0.0
  0
LINE
  5
1EC
330
1F
100
AcDbEntity
  8
D-2
  6
Continuous
 62
     3
370
     9
100
AcDbLine
 10
1249.908884761938
 20
314.7245626599881
 30
0.0
 11
1232.230917793505
 21
297.0473380110226
 31
0.0
  0
LINE
  5
1ED
330
1F
100
AcDbEntity
  8
D-2
  6
Continuous
 62
     3
370
     9
100
AcDbLine
 10
1232.231288953239
 20
332.4025296284212
 30
0.0
 11
1249.908884761938
 21
314.7245626599881
 31
0.0
  0
LINE
  5
1EE
330
1F
100
AcDbEntity
  8
D-2
  6
Continuous
 62
     3
370
     9
100
AcDbLine
 10
1244.730835313565
 20
327.225222499515
 30
0.0
 11
1244.730835313565
 21
319.902983268096
 31
0.0
  0
LINE
  5
1EF
330
1F
100
AcDbEntity
  8
D-2
  6
Continuous
 62
     3
370
     9
100
AcDbLine
 10
1237.408967241879
 20
327.225222499515
 30
0.0
 11
1244.730835313565
 21
327.225222499515
 31
0.0
  0
LINE
  5
1F0
330
1F
100
AcDbEntity
  8
D-2
  6
Continuous
 62
     3
370
     9
100
AcDbLine
 10
1214.553321984806
 20
314.7245626599881
 30
0.0
 11
1232.231288953239
 21
332.4025296284212
 31
0.0
  0
LINE
  5
1F1
330
1F
100
AcDbEntity
  8
D-2
  6
Continuous
 62
     3
370
     9
100
AcDbLine
 10
1219.731000273446
 20
327.225222499515
 30
0.0
 11
1227.053981824333
 21
327.225222499515
 31
0.0
  0
LINE
  5
1F2
330
1F
100
AcDbEntity
  8
D-2
  6
Continuous
 62
     3
370
     9
100
AcDbLine
 10
1219.731000273446
 20
327.225222499515
 30
0.0
 11
1219.731000273446
 21
319.9026121083621
 31
0.0
  0
LINE
  5
1F3
330
1F
100
AcDbEntity
  8
D-2
  6
Continuous
 62
     3
370
     9
100
AcDbLine
 10
1232.230917793505
 20
297.0473380110226
 30
0.0
 11
1214.553321984806
 21
314.7245626599881
 31
0.0
  0
LINE
  5
1F4
330
1F
100
AcDbEntity
  8
D-2
  6
Continuous
 62
     3
370
     9
100
AcDbLine
 10
1219.731000273446
 20
309.5472555310818
 30
0.0
 11
1219.731000273446
 21
302.2246451399288
 31
0.0
  0
LINE
  5
1F5
330
1F
100
AcDbEntity
  8
D-2
  6
Continuous
 62
     3
370
     9
100
AcDbLine
 10
1219.731000273446
 20
302.2246451399288
 30
0.0
 11
1227.053239504865
 21
302.2246451399288
 31
0.0
  0
LINE
  5
1F6
330
1F
100
AcDbEntity
  8
D-2
  6
JWW_CENTER1
 62
     3
370
     9
100
AcDbLine
 10
1258.738774832673
 20
314.7245626599881
 30
0.0
 11
1205.723431914071
 21
314.7245626599881
 31
0.0
  0
LINE
  5
1F7
330
1F
100
AcDbEntity
  8
D-4
  6
Continuous
 62
     7
370
     9
100
AcDbLine
 10
1223.392119889156
 20
305.8859503355053
 30
0.0
 11
1203.558286381874
 21
290.6669146102872
 31
0.0
  0
LINE
  5
1F8
330
1F
100
AcDbEntity
  8
D-2
  6
JWW_CENTER1
 62
     3
370
     9
100
AcDbLine
 10
1232.231288953239
 20
288.2174479402879
 30
0.0
 11
1232.231288953239
 21
341.23279085889
 31
0.0
  0
LINE
  5
1F9
330
1F
100
AcDbEntity
  8
D-4
  6
Continuous
 62
     7
370
     9
100
AcDbLine
 10
1223.392119889156
 20
305.8859503355053
 30
0.0
 11
1208.173084163938
 21
286.0521168282245
 31
0.0
  0
LINE
  5
1FA
330
1F
100
AcDbEntity
  8
D-4
  6
Continuous
 62
     7
370
     9
100
AcDbLine
 10
1223.392119889156
 20
305.8859503355053
 30
0.0
 11
1104.686302626609
 21
187.1801330729587
 31
0.0
  0
LINE
  5
1FB
330
1F
100
AcDbEntity
  8
D-4
  6
Continuous
 62
     7
370
     9
100
AcDbLine
 10
1562.231288953238
 20
355.2245626599881
 30
0.0
 11
1577.450324678457
 21
375.0583961672691
 31
0.0
  0
LINE
  5
1FC
330
1F
100
AcDbEntity
  8
D-4
  6
Continuous
 62
     7
370
     9
100
AcDbLine
 10
1562.231288953238
 20
355.2245626599881
 30
0.0
 11
1582.065122460521
 21
370.4435983852061
 31
0.0
  0
LINE
  5
1FD
330
1F
100
AcDbEntity
  8
D-4
  6
Continuous
 62
     7
370
     9
100
AcDbLine
 10
1562.231288953238
 20
355.2245626599881
 30
0.0
 11
1631.149471443563
 21
424.1427451503113
 31
0.0
  0
LINE
  5
1FE
330
1F
100
AcDbEntity
  8
D-4
  6
Continuous
 62
     7
370
     9
100
AcDbLine
 10
1631.149471443563
 20
424.1427451503113
 30
0.0
 11
1801.195113386037
 21
424.1427451503113
 31
0.0
  0
TEXT
  5
1FF
330
1F
100
AcDbEntity
  8
D-5
  6
Continuous
 62
     7
370
     9
100
AcDbText
 10
1631.149471443563
 20
433.3727451503113
 30
0.0
 40
22.86
  1
サイドバー
 41
1.133333333333333
  7
ＭＳ ゴシック
100
AcDbText
  0
LINE
  5
200
330
1F
100
AcDbEntity
  8
D-4
  6
Continuous
 62
     7
370
     9
100
AcDbLine
 10
1298.073684343699
 20
355.2245626599881
 30
0.0
 11
1313.292720068918
 21
375.0583961672691
 31
0.0
  0
LINE
  5
201
330
1F
100
AcDbEntity
  8
D-4
  6
Continuous
 62
     7
370
     9
100
AcDbLine
 10
1298.073684343699
 20
355.2245626599881
 30
0.0
 11
1317.90751785098
 21
370.4435983852061
 31
0.0
  0
LINE
  5
202
330
1F
100
AcDbEntity
  8
D-4
  6
Continuous
 62
     7
370
     9
100
AcDbLine
 10
1298.073684343699
 20
355.2245626599881
 30
0.0
 11
1366.991866834022
 21
424.1427451503113
 31
0.0
  0
LINE
  5
203
330
1F
100
AcDbEntity
  8
D-4
  6
Continuous
 62
     7
370
     9
100
AcDbLine
 10
1535.543302048541
 20
424.1427451503113
 30
0.0
 11
1366.991866834022
 21
424.1427451503113
 31
0.0
  0
TEXT
  5
204
330
1F
100
AcDbEntity
  8
D-5
  6
Continuous
 62
     7
370
     9
100
AcDbText
 10
1366.245633286632
 20
433.3727451503113
 30
0.0
 40
22.86
  1
メインバー
 41
1.133333333333332
  7
ＭＳ ゴシック
100
AcDbText
  0
LINE
  5
205
330
1F
100
AcDbEntity
  8
D-4
  6
Continuous
 62
     7
370
     9
100
AcDbLine
 10
933.3785120057775
 20
187.1801330729587
 30
0.0
 11
1104.686302626609
 21
187.1801330729587
 31
0.0
  0
TEXT
  5
206
330
1F
100
AcDbEntity
  8
D-5
  6
Continuous
 62
     7
370
     9
100
AcDbText
 10
935.3701339109512
 20
196.4101330729587
 30
0.0
 40
22.86
  1
クロスバー
 41
1.133333333333333
  7
ＭＳ ゴシック
100
AcDbText
  0
LINE
  5
207
330
1F
100
AcDbEntity
  8
D-5
  6
Continuous
 62
     7
370
     9
100
AcDbLine
 10
610.4948556085701
 20
-106.224944598471
 30
0.0
 11
1256.12506306661
 21
-106.224944598471
 31
0.0
  0
TEXT
  5
208
330
1F
100
AcDbEntity
  8
D-5
  6
Continuous
 62
     2
370
     9
100
AcDbText
 10
625.4953438898201
 20
-85.58494459847097
 30
0.0
 40
30.48
  1
メインバー詳細図　Ｓ＝１：２
 41
1.116071428571428
  7
ＭＳ ゴシック
100
AcDbText
  0
LINE
  5
209
330
1F
100
AcDbEntity
  8
D-2
  6
Continuous
 62
     3
370
     9
100
AcDbLine
 10
571.3409394464917
 20
332.4025296284212
 30
0.0
 11
493.4410120288395
 21
332.4025296284212
 31
0.0
  0
LINE
  5
20A
330
1F
100
AcDbEntity
  8
D-2
  6
Continuous
 62
     3
370
     9
100
AcDbLine
 10
571.3409394464917
 20
314.7245626599881
 30
0.0
 11
493.4410120288395
 21
314.7245626599881
 31
0.0
  0
LINE
  5
20B
330
1F
100
AcDbEntity
  8
D-2
  6
Continuous
 62
     3
370
     9
100
AcDbLine
 10
571.3409394464917
 20
297.0469668512884
 30
0.0
 11
493.4410120288395
 21
297.0469668512884
 31
0.0
  0
LINE
  5
20C
330
1F
100
AcDbEntity
  8
D-2
  6
Continuous
 62
     3
370
     9
100
AcDbLine
 10
656.2409394464918
 20
297.0469668512884
 30
0.0
 11
578.3410120288396
 21
297.0469668512884
 31
0.0
  0
LINE
  5
20D
330
1F
100
AcDbEntity
  8
D-2
  6
Continuous
 62
     3
370
     9
100
AcDbLine
 10
656.2409394464918
 20
314.7245626599881
 30
0.0
 11
578.3410120288396
 21
314.7245626599881
 31
0.0
  0
LINE
  5
20E
330
1F
100
AcDbEntity
  8
D-2
  6
Continuous
 62
     3
370
     9
100
AcDbLine
 10
656.2409394464918
 20
332.4025296284212
 30
0.0
 11
578.3410120288396
 21
332.4025296284212
 31
0.0
  0
LINE
  5
20F
330
1F
100
AcDbEntity
  8
D-2
  6
Continuous
 62
     3
370
     9
100
AcDbLine
 10
663.2410120288397
 20
332.4025296284212
 30
0.0
 11
709.7413881373693
 21
332.4025296284212
 31
0.0
  0
LINE
  5
210
330
1F
100
AcDbEntity
  8
D-2
  6
Continuous
 62
     3
370
     9
100
AcDbLine
 10
663.2410120288397
 20
314.7245626599881
 30
0.0
 11
709.7413881373693
 21
314.7245626599881
 31
0.0
  0
LINE
  5
211
330
1F
100
AcDbEntity
  8
D-2
  6
Continuous
 62
     3
370
     9
100
AcDbLine
 10
663.2410120288397
 20
297.0469668512884
 30
0.0
 11
709.7413881373693
 21
297.0469668512884
 31
0.0
  0
LINE
  5
212
330
1F
100
AcDbEntity
  8
D-2
  6
Continuous
 62
     3
370
     9
100
AcDbLine
 10
486.4409394464916
 20
297.0469668512884
 30
0.0
 11
439.9816053565444
 21
297.0469668512884
 31
0.0
  0
LINE
  5
213
330
1F
100
AcDbEntity
  8
D-2
  6
Continuous
 62
     3
370
     9
100
AcDbLine
 10
486.4409394464916
 20
314.7245626599881
 30
0.0
 11
439.9816053565444
 21
314.7245626599881
 31
0.0
  0
LINE
  5
214
330
1F
100
AcDbEntity
  8
D-2
  6
Continuous
 62
     3
370
     9
100
AcDbLine
 10
486.4409394464916
 20
332.4025296284212
 30
0.0
 11
439.9816053565444
 21
332.4025296284212
 31
0.0
  0
LINE
  5
215
330
1F
100
AcDbEntity
  8
D-5
  6
Continuous
 62
     4
370
     9
100
AcDbLine
 10
784.9221626054122
 20
655.1473751767918
 30
0.0
 11
784.9221626054122
 21
605.8979824938498
 31
0.0
  0
LINE
  5
216
330
1F
100
AcDbEntity
  8
D-5
  6
Continuous
 62
     4
370
     9
100
AcDbLine
 10
784.9221626054122
 20
655.1473751767918
 30
0.0
 11
788.1853174109141
 21
630.3612536424466
 31
0.0
  0
LINE
  5
217
330
1F
100
AcDbEntity
  8
D-5
  6
Continuous
 62
     4
370
     9
100
AcDbLine
 10
784.9221626054122
 20
655.1473751767918
 30
0.0
 11
781.6590077999114
 21
630.3612536424466
 31
0.0
  0
TEXT
  5
218
330
1F
100
AcDbEntity
  8
D-5
  6
Continuous
 62
     2
370
     9
100
AcDbText
 10
774.9221626054122
 20
564.852675442549
 30
0.0
 40
30.48
  1
B
 41
0.9999999999999998
  7
ＭＳ ゴシック
100
AcDbText
  0
LINE
  5
219
330
1F
100
AcDbEntity
  8
D-2
  6
Continuous
 62
     3
370
     9
100
AcDbLine
 10
1041.483478851012
 20
254.8114310479432
 30
0.0
 11
1041.483478851012
 21
304.9198150135568
 31
0.0
  0
LINE
  5
21A
330
1F
100
AcDbEntity
  8
D-2
  6
Continuous
 62
     3
370
     9
100
AcDbLine
 10
1056.484333343199
 20
324.9208983875805
 30
0.0
 11
1041.483478851012
 21
324.9208983875805
 31
0.0
  0
LINE
  5
21B
330
1F
100
AcDbEntity
  8
D-2
  6
Continuous
 62
     3
370
     9
100
AcDbLine
 10
1056.484333343199
 20
324.9208983875805
 30
0.0
 11
1026.483356780698
 21
304.9198150135568
 31
0.0
  0
LINE
  5
21C
330
1F
100
AcDbEntity
  8
D-2
  6
Continuous
 62
     3
370
     9
100
AcDbLine
 10
1041.483478851012
 20
304.9198150135568
 30
0.0
 11
1026.483356780698
 21
304.9198150135568
 31
0.0
  0
LINE
  5
21D
330
1F
100
AcDbEntity
  8
D-2
  6
Continuous
 62
     3
370
     9
100
AcDbLine
 10
1041.483478851012
 20
324.9208983875805
 30
0.0
 11
1041.483478851012
 21
368.8408774038652
 31
0.0
  0
LINE
  5
21E
330
1F
100
AcDbEntity
  8
D-2
  6
Continuous
 62
     3
370
     9
100
AcDbLine
 10
1382.231288953239
 20
253.7160734608
 30
0.0
 11
1382.231288953239
 21
303.8244574264136
 31
0.0
  0
LINE
  5
21F
330
1F
100
AcDbEntity
  8
D-2
  6
Continuous
 62
     3
370
     9
100
AcDbLine
 10
1412.231288953238
 20
253.7160734608
 30
0.0
 11
1412.231288953238
 21
303.8244574264136
 31
0.0
  0
LINE
  5
220
330
1F
100
AcDbEntity
  8
D-2
  6
Continuous
 62
     3
370
     9
100
AcDbLine
 10
1427.232143445426
 20
323.8255408004372
 30
0.0
 11
1412.231288953238
 21
323.8255408004372
 31
0.0
  0
LINE
  5
221
330
1F
100
AcDbEntity
  8
D-2
  6
Continuous
 62
     3
370
     9
100
AcDbLine
 10
1427.232143445426
 20
323.8255408004372
 30
0.0
 11
1397.231166882925
 21
303.8244574264136
 31
0.0
  0
LINE
  5
222
330
1F
100
AcDbEntity
  8
D-2
  6
Continuous
 62
     3
370
     9
100
AcDbLine
 10
1412.231288953238
 20
303.8244574264136
 30
0.0
 11
1397.231166882925
 21
303.8244574264136
 31
0.0
  0
LINE
  5
223
330
1F
100
AcDbEntity
  8
D-2
  6
Continuous
 62
     3
370
     9
100
AcDbLine
 10
1397.232143445426
 20
323.8255408004372
 30
0.0
 11
1382.231288953239
 21
323.8255408004372
 31
0.0
  0
LINE
  5
224
330
1F
100
AcDbEntity
  8
D-2
  6
Continuous
 62
     3
370
     9
100
AcDbLine
 10
1382.231288953239
 20
323.8255408004372
 30
0.0
 11
1382.231288953239
 21
367.7455198167219
 31
0.0
  0
LINE
  5
225
330
1F
100
AcDbEntity
  8
D-2
  6
Continuous
 62
     3
370
     9
100
AcDbLine
 10
1412.231288953238
 20
323.8255408004372
 30
0.0
 11
1412.231288953238
 21
367.7455198167219
 31
0.0
  0
LINE
  5
226
330
1F
100
AcDbEntity
  8
D-2
  6
Continuous
 62
     3
370
     9
100
AcDbLine
 10
1382.231288953239
 20
303.8244574264136
 30
0.0
 11
1367.231166882925
 21
303.8244574264136
 31
0.0
  0
LINE
  5
227
330
1F
100
AcDbEntity
  8
D-2
  6
Continuous
 62
     3
370
     9
100
AcDbLine
 10
1397.232143445426
 20
323.8255408004372
 30
0.0
 11
1367.231166882925
 21
303.8244574264136
 31
0.0
  0
LINE
  5
228
330
1F
100
AcDbEntity
  8
D-5
  6
Continuous
 62
     2
370
     9
100
AcDbLine
 10
122.7584680917757
 20
-453.1043527502805
 30
0.0
 11
-102.2413030263884
 21
-453.1043527502805
 31
0.0
  0
LINE
  5
229
330
1F
100
AcDbEntity
  8
D-5
  6
Continuous
 62
     2
370
     9
100
AcDbLine
 10
122.7584680917757
 20
-403.1041894335538
 30
0.0
 11
122.7584680917757
 21
-453.1043527502805
 31
0.0
  0
LINE
  5
22A
330
1F
100
AcDbEntity
  8
D-5
  6
Continuous
 62
     2
370
     9
100
AcDbLine
 10
-102.2413030263884
 20
-403.1041894335538
 30
0.0
 11
122.7584680917757
 21
-403.1041894335538
 31
0.0
  0
LINE
  5
22B
330
1F
100
AcDbEntity
  8
D-5
  6
Continuous
 62
     2
370
     9
100
AcDbLine
 10
-102.2413030263884
 20
-453.1043527502805
 30
0.0
 11
-102.2413030263884
 21
-403.1041894335538
 31
0.0
  0
TEXT
  5
22C
330
1F
100
AcDbEntity
  8
D-5
  6
Continuous
 62
     2
370
     9
100
AcDbText
 10
59.56045478611145
 20
-765.384440326193
 30
0.0
 40
30.48
  1
　　　サイドバー　ＳＵＳ３０４
 41
1.116666666666667
  7
ＭＳ ゴシック
100
AcDbText
  0
TEXT
  5
22D
330
1F
100
AcDbEntity
  8
D-5
  6
Continuous
 62
     2
370
     9
100
AcDbText
 10
-54.74176079006028
 20
-442.4640881056577
 30
0.0
 40
30.48
  1
仕　様
 41
1.083333333333333
  7
ＭＳ ゴシック
100
AcDbText
  0
TEXT
  5
22E
330
1F
100
AcDbEntity
  8
D-5
  6
Continuous
 62
     2
370
     9
100
AcDbText
 10
59.56045478611145
 20
-700.3842305178434
 30
0.0
 40
30.48
  1
　　　クロスバー　ＳＵＳ３０４　＠１００
 41
1.11875
  7
ＭＳ ゴシック
100
AcDbText
  0
TEXT
  5
22F
330
1F
100
AcDbEntity
  8
D-5
  6
Continuous
 62
     2
370
     9
100
AcDbText
 10
59.56045478611145
 20
-635.3844975466517
 30
0.0
 40
30.48
  1
材質：メインバー　ＳＵＳ３０４　＠１７
 41
1.118421052631579
  7
ＭＳ ゴシック
100
AcDbText
  0
TEXT
  5
230
330
1F
100
AcDbEntity
  8
D-5
  6
Continuous
 62
     2
370
     9
100
AcDbText
 10
-0.1514592763885503
 20
-505.3845690722257
 30
0.0
 40
30.48
  1
ステンレス製　細目滑り止め模様付（ローレット模様）
 41
1.12
  7
ＭＳ ゴシック
100
AcDbText
  0
TEXT
  5
231
330
1F
100
AcDbEntity
  8
D-5
  6
Continuous
 62
     2
370
     9
100
AcDbText
 10
-0.1514592763886213
 20
-570.3845356936246
 30
0.0
 40
30.48
  1
グレーチング（すきま9mm）　ＺＱ－１５　４００×４００×１５
 41
1.120762711864407
  7
ＭＳ ゴシック
100
AcDbText
  0
TEXT
  5
232
330
1F
100
AcDbEntity
  8
D-5
  6
Continuous
 62
     2
370
     9
100
AcDbText
 10
-0.1514592763885503
 20
-825.0326424665003
 30
0.0
 40
30.48
  1
ステンレス製受枠　ＲＬ－１５（四方枠）
 41
1.118421052631579
  7
ＭＳ ゴシック
100
AcDbText
  0
TEXT
  5
233
330
1F
100
AcDbEntity
  8
D-5
  6
Continuous
 62
     2
370
     9
100
AcDbText
 10
59.56045478611145
 20
-880.032680613473
 30
0.0
 40
30.48
  1
材質：ステンレス鋼板ｔ＝３．０（ＳＵＳ３０４）
 41
1.119565217391304
  7
ＭＳ ゴシック
100
AcDbText
  0
TEXT
  5
234
330
1F
100
AcDbEntity
  8
D-5
  6
Continuous
 62
     2
370
     9
100
AcDbText
 10
59.56045478611145
 20
-990.0327187604456
 30
0.0
 40
30.48
  1
施工場所の状況に合わせて、アンカーをプライヤー等で折り曲げてご使用ください。
 41
1.121710526315789
  7
ＭＳ ゴシック
100
AcDbText
  0
LINE
  5
235
330
1F
100
AcDbEntity
  8
D-2
  6
Continuous
 62
     3
370
     9
100
AcDbLine
 10
-1020.282636448096
 20
-280.6047716903861
 30
0.0
 11
-1020.282636448096
 21
-355.6050191302091
 31
0.0
  0
LINE
  5
236
330
1F
100
AcDbEntity
  8
D-2
  6
Continuous
 62
     3
370
     9
100
AcDbLine
 10
-1005.282586960132
 20
-280.6047716903861
 30
0.0
 11
-1005.282586960132
 21
-355.6050191302091
 31
0.0
  0
LINE
  5
237
330
1F
100
AcDbEntity
  8
D-2
  6
Continuous
 62
     3
370
     9
100
AcDbLine
 10
-1020.282636448096
 20
-280.6047716903861
 30
0.0
 11
-1005.282586960132
 21
-280.6047716903861
 31
0.0
  0
LINE
  5
238
330
1F
100
AcDbEntity
  8
D-2
  6
Continuous
 62
     3
370
     9
100
AcDbLine
 10
-1005.282586960132
 20
-355.6050191302091
 30
0.0
 11
-1020.282636448096
 21
-355.6050191302091
 31
0.0
  0
LINE
  5
239
330
1F
100
AcDbEntity
  8
D-2
  6
Continuous
 62
     3
370
     9
100
AcDbLine
 10
-1020.282636448096
 20
-355.6050191302091
 30
0.0
 11
-1702.744035068013
 21
-355.6050191302091
 31
0.0
  0
LINE
  5
23A
330
1F
100
AcDbEntity
  8
D-2
  6
Continuous
 62
     3
370
     9
100
AcDbLine
 10
-1702.744035068013
 20
-287.6048442727343
 30
0.0
 11
-1020.282636448096
 21
-287.6048442727343
 31
0.0
  0
LINE
  5
23B
330
1F
100
AcDbEntity
  8
D-2
  6
Continuous
 62
     3
370
     9
100
AcDbLine
 10
-1020.282636448096
 20
-280.6047716903861
 30
0.0
 11
-1702.744035068013
 21
-280.6047716903861
 31
0.0
  0
LINE
  5
23C
330
1F
100
AcDbEntity
  8
D-4
  6
Continuous
 62
     7
370
     9
100
AcDbLine
 10
-1603.202362088477
 20
-280.6047716903861
 30
0.0
 11
-1603.202362088477
 21
-355.6050191302091
 31
0.0
  0
LWPOLYLINE
  5
23D
330
1F
100
AcDbEntity
  8
D-4
  6
Continuous
 62
     7
370
     9
100
AcDbPolyline
 90
        4
 70
     1
 43
1.0
 10
-1602.702362088477
 20
-280.6047716903861
 42
0.4142135623731
 10
-1603.202362088477
 20
-280.1047716903861
 42
0.4142135623731
 10
-1603.702362088477
 20
-280.6047716903861
 42
0.4142135623731
 10
-1603.202362088477
 20
-281.1047716903861
 42
0.4142135623731
  0
LWPOLYLINE
  5
23E
330
1F
100
AcDbEntity
  8
D-4
  6
Continuous
 62
     7
370
     9
100
AcDbPolyline
 90
        4
 70
     1
 43
1.0
 10
-1602.702362088477
 20
-355.6050191302091
 42
0.4142135623731
 10
-1603.202362088477
 20
-355.1050191302091
 42
0.4142135623731
 10
-1603.702362088477
 20
-355.6050191302091
 42
0.4142135623731
 10
-1603.202362088477
 20
-356.105019130209
 42
0.4142135623731
  0
TEXT
  5
23F
330
1F
100
AcDbEntity
  8
D-4
  6
Continuous
 62
     2
370
   211
100
AcDbText
 10
-1614.100223723696
 20
-342.8549317014717
 30
0.0
 40
30.48
  1
15
 50
90.0
 41
1.0625
  7
ＭＳ ゴシック
100
AcDbText
  0
TEXT
  5
240
330
1F
100
AcDbEntity
  8
D-4
  6
Continuous
 62
     2
370
   211
100
AcDbText
 10
-1702.744035068013
 20
-36.79277791927157
 30
0.0
 40
30.48
  1
□400
 41
1.1
  7
ＭＳ ゴシック
100
AcDbText
  0
TEXT
  5
241
330
1F
100
AcDbEntity
  8
D-4
  6
Continuous
 62
     2
370
   211
100
AcDbText
 10
-1702.744035068013
 20
-145.5452002520353
 30
0.0
 40
30.48
  1
□350
 41
1.1
  7
ＭＳ ゴシック
100
AcDbText
  0
LINE
  5
242
330
1F
100
AcDbEntity
  8
D-2
  6
Continuous
 62
     3
370
     9
100
AcDbLine
 10
-1517.781709477794
 20
-326.2823786021544
 30
0.0
 11
-1517.781709477794
 21
-333.6049889933073
 31
0.0
  0
LINE
  5
243
330
1F
100
AcDbEntity
  8
D-2
  6
Continuous
 62
     3
370
     9
100
AcDbLine
 10
-1517.781709477794
 20
-333.6049889933073
 30
0.0
 11
-1510.459470246375
 21
-333.6049889933073
 31
0.0
  0
LINE
  5
244
330
1F
100
AcDbEntity
  8
D-2
  6
Continuous
 62
     3
370
     9
100
AcDbLine
 10
-1492.781874437675
 20
-326.2823786021544
 30
0.0
 11
-1492.781874437675
 21
-333.6049889933073
 31
0.0
  0
LINE
  5
245
330
1F
100
AcDbEntity
  8
D-2
  6
Continuous
 62
     3
370
     9
100
AcDbLine
 10
-1500.103742509361
 20
-333.6049889933073
 30
0.0
 11
-1492.781874437675
 21
-333.6049889933073
 31
0.0
  0
LINE
  5
246
330
1F
100
AcDbEntity
  8
D-2
  6
Continuous
 62
     3
370
     9
100
AcDbLine
 10
-1492.781874437675
 20
-308.6044116337211
 30
0.0
 11
-1492.781874437675
 21
-315.9266508651401
 31
0.0
  0
LINE
  5
247
330
1F
100
AcDbEntity
  8
D-2
  6
Continuous
 62
     3
370
     9
100
AcDbLine
 10
-1500.103742509361
 20
-308.6044116337211
 30
0.0
 11
-1492.781874437675
 21
-308.6044116337211
 31
0.0
  0
LINE
  5
248
330
1F
100
AcDbEntity
  8
D-2
  6
Continuous
 62
     3
370
     9
100
AcDbLine
 10
-1517.781709477794
 20
-308.6044116337211
 30
0.0
 11
-1510.458727926907
 21
-308.6044116337211
 31
0.0
  0
LINE
  5
249
330
1F
100
AcDbEntity
  8
D-2
  6
Continuous
 62
     3
370
     9
100
AcDbLine
 10
-1517.781709477794
 20
-308.6044116337211
 30
0.0
 11
-1517.781709477794
 21
-315.9270220248742
 31
0.0
  0
LINE
  5
24A
330
1F
100
AcDbEntity
  8
D-2
  6
Continuous
 62
     3
370
     9
100
AcDbLine
 10
-1487.603824989301
 20
-321.1050714732482
 30
0.0
 11
-1505.281791957735
 21
-338.7822961222136
 31
0.0
  0
LINE
  5
24B
330
1F
100
AcDbEntity
  8
D-2
  6
Continuous
 62
     3
370
     9
100
AcDbLine
 10
-1505.281791957735
 20
-338.7822961222136
 30
0.0
 11
-1522.959387766434
 21
-321.1050714732482
 31
0.0
  0
LINE
  5
24C
330
1F
100
AcDbEntity
  8
D-2
  6
Continuous
 62
     3
370
     9
100
AcDbLine
 10
-1522.959387766434
 20
-321.1050714732482
 30
0.0
 11
-1505.281420798001
 21
-303.4271045048148
 31
0.0
  0
LINE
  5
24D
330
1F
100
AcDbEntity
  8
D-2
  6
Continuous
 62
     3
370
     9
100
AcDbLine
 10
-1505.281420798001
 20
-303.4271045048148
 30
0.0
 11
-1487.603824989301
 21
-321.1050714732482
 31
0.0
  0
LINE
  5
24E
330
1F
100
AcDbEntity
  8
D-2
  6
JWW_CENTER1
 62
     3
370
     9
100
AcDbLine
 10
-1478.773934918567
 20
-321.1050714732482
 30
0.0
 11
-1531.789277837169
 21
-321.1050714732482
 31
0.0
  0
LINE
  5
24F
330
1F
100
AcDbEntity
  8
D-2
  6
JWW_CENTER1
 62
     3
370
     9
100
AcDbLine
 10
-1505.281420798001
 20
-347.6121861929485
 30
0.0
 11
-1505.281420798001
 21
-294.5968432743461
 31
0.0
  0
LINE
  5
250
330
1F
100
AcDbEntity
  8
D-2
  6
Continuous
 62
     3
370
     9
100
AcDbLine
 10
-1722.743833651996
 20
-336.0516269727792
 30
0.0
 11
-1682.743650546528
 21
-306.0509861036387
 31
0.0
  0
LINE
  5
251
330
1F
100
AcDbEntity
  8
D-2
  6
Continuous
 62
     3
370
     9
100
AcDbLine
 10
-1722.743833651996
 20
-336.0516269727792
 30
0.0
 11
-1702.744230380512
 21
-336.0516269727792
 31
0.0
  0
LINE
  5
252
330
1F
100
AcDbEntity
  8
D-2
  6
Continuous
 62
     3
370
     9
100
AcDbLine
 10
-1702.744230380512
 20
-306.0509861036387
 30
0.0
 11
-1682.743650546528
 21
-306.0509861036387
 31
0.0
  0
LINE
  5
253
330
1F
100
AcDbEntity
  8
D-2
  6
Continuous
 62
     3
370
     9
100
AcDbLine
 10
-1702.744230380512
 20
-306.0509861036387
 30
0.0
 11
-1702.744230380512
 21
-268.3858461578843
 31
0.0
  0
LINE
  5
254
330
1F
100
AcDbEntity
  8
D-2
  6
Continuous
 62
     3
370
     9
100
AcDbLine
 10
-1702.744230380512
 20
-379.2530185511612
 30
0.0
 11
-1702.744230380512
 21
-336.0516269727792
 31
0.0
  0
LINE
  5
255
330
1F
100
AcDbEntity
  8
D-1
  6
Continuous
 62
     2
370
     9
100
AcDbLine
 10
-1000.282942799861
 20
-370.6034556198295
 30
0.0
 11
-1130.291971115405
 21
-370.6044474411186
 31
0.0
  0
LINE
  5
256
330
1F
100
AcDbEntity
  8
D-1
  6
Continuous
 62
     2
370
     9
100
AcDbLine
 10
-1130.290979294116
 20
-355.603632049578
 30
0.0
 11
-1000.282942799861
 21
-355.6046238708671
 31
0.0
  0
LINE
  5
257
330
1F
100
AcDbEntity
  8
D-1
  6
Continuous
 62
     2
370
     9
100
AcDbLine
 10
-995.2826721947738
 20
-280.6045237350639
 30
0.0
 11
-980.2828516047546
 21
-280.6045237350639
 31
0.0
  0
LINE
  5
258
330
1F
100
AcDbEntity
  8
D-1
  6
Continuous
 62
     2
370
     9
100
AcDbLine
 10
-1130.283054260547
 20
-370.6044474411186
 30
0.0
 11
-1130.283054260547
 21
-355.6046238708671
 31
0.0
  0
LINE
  5
259
330
1F
100
AcDbEntity
  8
D-1
  6
Continuous
 62
     2
370
     9
100
AcDbLine
 10
-995.28366282397
 20
-350.6043520736869
 30
0.0
 11
-995.2826721947738
 21
-280.6045237350639
 31
0.0
  0
LINE
  5
25A
330
1F
100
AcDbEntity
  8
D-1
  6
Continuous
 62
     2
370
     9
100
AcDbLine
 10
-980.2828516047546
 20
-280.6045237350639
 30
0.0
 11
-980.2838410418578
 21
-350.6033650207694
 31
0.0
  0
LINE
  5
25B
330
1F
100
AcDbEntity
  8
D-4
  6
Continuous
 62
     7
370
     9
100
AcDbLine
 10
-1702.950815109546
 20
-162.1855059433158
 30
0.0
 11
-1130.283054260547
 21
-162.1855059433158
 31
0.0
  0
LINE
  5
25C
330
1F
100
AcDbEntity
  8
D-4
  6
Continuous
 62
     7
370
     9
100
AcDbLine
 10
-1130.283054260547
 20
-162.1855059433158
 30
0.0
 11
-1005.283213404948
 21
-162.1855059433158
 31
0.0
  0
LINE
  5
25D
330
1F
100
AcDbEntity
  8
D-4
  6
Continuous
 62
     7
370
     9
100
AcDbLine
 10
-1005.283213404948
 20
-267.649005966204
 30
0.0
 11
-1005.283213404948
 21
-50.4335108566459
 31
0.0
  0
LINE
  5
25E
330
1F
100
AcDbEntity
  8
D-4
  6
Continuous
 62
     7
370
     9
100
AcDbLine
 10
-995.2826721947738
 20
-267.649005966204
 30
0.0
 11
-995.2826721947738
 21
-50.4335108566459
 31
0.0
  0
LINE
  5
25F
330
1F
100
AcDbEntity
  8
D-4
  6
Continuous
 62
     7
370
     9
100
AcDbLine
 10
-980.2838410418578
 20
-267.649005966204
 30
0.0
 11
-980.2838410418578
 21
60.26311008451621
 31
0.0
  0
LINE
  5
260
330
1F
100
AcDbEntity
  8
D-4
  6
Continuous
 62
     7
370
     9
100
AcDbLine
 10
-1130.283054260547
 20
-815.6875124740776
 30
0.0
 11
-730.2821864169189
 21
-815.6875124740776
 31
0.0
  0
LINE
  5
261
330
1F
100
AcDbEntity
  8
D-4
  6
Continuous
 62
     7
370
     9
100
AcDbLine
 10
-1130.283054260547
 20
-661.2226382064995
 30
0.0
 11
-980.2828516047546
 21
-661.2226382064995
 31
0.0
  0
LINE
  5
262
330
1F
100
AcDbEntity
  8
D-4
  6
Continuous
 62
     7
370
     9
100
AcDbLine
 10
-554.2530001681396
 20
-280.6045237350639
 30
0.0
 11
-455.5982531588623
 21
-280.6045237350639
 31
0.0
  0
LINE
  5
263
330
1F
100
AcDbEntity
  8
D-6
  6
Continuous
 62
     6
370
     9
100
AcDbLine
 10
-730.2831782382079
 20
-405.6043616104301
 30
0.0
 11
-565.2821673434325
 21
-405.6043616104301
 31
0.0
  0
LINE
  5
264
330
1F
100
AcDbEntity
  8
D-6
  6
Continuous
 62
     6
370
     9
100
AcDbLine
 10
-1130.283054260547
 20
-370.6044474411186
 30
0.0
 11
-1130.283054260547
 21
-755.6035128402885
 31
0.0
  0
LINE
  5
265
330
1F
100
AcDbEntity
  8
D-6
  6
Continuous
 62
     6
370
     9
100
AcDbLine
 10
-980.2828516047546
 20
-580.6039324569876
 30
0.0
 11
-980.2828516047546
 21
-755.6035128402885
 31
0.0
  0
LINE
  5
266
330
1F
100
AcDbEntity
  8
D-6
  6
Continuous
 62
     6
370
     9
100
AcDbLine
 10
-730.2831782382079
 20
-405.6043616104301
 30
0.0
 11
-730.2831782382079
 21
-580.6039324569876
 31
0.0
  0
LINE
  5
267
330
1F
100
AcDbEntity
  8
D-6
  6
Continuous
 62
     6
370
     9
100
AcDbLine
 10
-980.2828516047546
 20
-580.6039324569876
 30
0.0
 11
-730.2831782382079
 21
-580.6039324569876
 31
0.0
  0
LINE
  5
268
330
1F
100
AcDbEntity
  8
D-4
  6
Continuous
 62
     7
370
     9
100
AcDbLine
 10
-458.5978259127685
 20
-580.6044283676322
 30
0.0
 11
-458.5978259127685
 21
-280.6045237350639
 31
0.0
  0
LINE
  5
269
330
1F
100
AcDbEntity
  8
D-4
  6
Continuous
 62
     7
370
     9
100
AcDbLine
 10
-708.0465449374267
 20
-580.6044283676322
 30
0.0
 11
-455.5982531588623
 21
-580.6044283676322
 31
0.0
  0
LINE
  5
26A
330
1F
100
AcDbEntity
  8
D-4
  6
Continuous
 62
     7
370
     9
100
AcDbLine
 10
-1130.283054260547
 20
-267.649005966204
 30
0.0
 11
-1130.283054260547
 21
-159.1849509048637
 31
0.0
  0
LINE
  5
26B
330
1F
100
AcDbEntity
  8
D-4
  6
Continuous
 62
     7
370
     9
100
AcDbLine
 10
-1702.950815109546
 20
57.26258365629356
 30
0.0
 11
-980.2838410418578
 21
57.26258365629356
 31
0.0
  0
LINE
  5
26C
330
1F
100
AcDbEntity
  8
D-6
  6
Continuous
 62
     6
370
     9
100
AcDbLine
 10
-980.2828516047546
 20
-280.6045237350639
 30
0.0
 11
-565.2821673434325
 21
-280.6045237350639
 31
0.0
  0
LINE
  5
26D
330
1F
100
AcDbEntity
  8
D-4
  6
Continuous
 62
     7
370
     9
100
AcDbLine
 10
-1702.950815109546
 20
-53.43308361055215
 30
0.0
 11
-934.5976532977172
 21
-53.43308361055215
 31
0.0
  0
LINE
  5
26E
330
1F
100
AcDbEntity
  8
D-4
  6
Continuous
 62
     7
370
     9
100
AcDbLine
 10
-1130.283054260547
 20
-780.6038561630425
 30
0.0
 11
-1130.283054260547
 21
-818.6870852279839
 31
0.0
  0
LINE
  5
26F
330
1F
100
AcDbEntity
  8
D-0
  6
Continuous
 62
     7
370
     9
100
AcDbLine
 10
-818.5871066134521
 20
-529.3164721298392
 30
0.0
 11
-818.5871066134521
 21
-527.8161898422416
 31
0.0
  0
LINE
  5
270
330
1F
100
AcDbEntity
  8
D-0
  6
Continuous
 62
     7
370
     9
100
AcDbLine
 10
-818.5871066134521
 20
-527.8161898422416
 30
0.0
 11
-817.0868433993408
 21
-527.8161898422416
 31
0.0
  0
LINE
  5
271
330
1F
100
AcDbEntity
  8
D-0
  6
Continuous
 62
     7
370
     9
100
AcDbLine
 10
-817.0868433993408
 20
-527.8161898422416
 30
0.0
 11
-817.0868433993408
 21
-529.3164721298392
 31
0.0
  0
LINE
  5
272
330
1F
100
AcDbEntity
  8
D-0
  6
Continuous
 62
     7
370
     9
100
AcDbLine
 10
-817.0868433993408
 20
-529.3164721298392
 30
0.0
 11
-818.5871066134521
 21
-529.3164721298392
 31
0.0
  0
LINE
  5
273
330
1F
100
AcDbEntity
  8
D-0
  6
Continuous
 62
     7
370
     9
100
AcDbLine
 10
-785.4139842074462
 20
-513.6209574508841
 30
0.0
 11
-785.4139842074462
 21
-512.1206751632865
 31
0.0
  0
LINE
  5
274
330
1F
100
AcDbEntity
  8
D-0
  6
Continuous
 62
     7
370
     9
100
AcDbLine
 10
-785.4139842074462
 20
-512.1206751632865
 30
0.0
 11
-783.9137209933349
 21
-512.1206751632865
 31
0.0
  0
LINE
  5
275
330
1F
100
AcDbEntity
  8
D-0
  6
Continuous
 62
     7
370
     9
100
AcDbLine
 10
-783.9137209933349
 20
-512.1206751632865
 30
0.0
 11
-783.9137209933349
 21
-513.6209574508841
 31
0.0
  0
LINE
  5
276
330
1F
100
AcDbEntity
  8
D-0
  6
Continuous
 62
     7
370
     9
100
AcDbLine
 10
-783.9137209933349
 20
-513.6209574508841
 30
0.0
 11
-785.4139842074462
 21
-513.6209574508841
 31
0.0
  0
LINE
  5
277
330
1F
100
AcDbEntity
  8
D-0
  6
Continuous
 62
     7
370
     9
100
AcDbLine
 10
-750.1722849886962
 20
-498.6558047104057
 30
0.0
 11
-750.1722849886962
 21
-497.1555414962943
 31
0.0
  0
LINE
  5
278
330
1F
100
AcDbEntity
  8
D-0
  6
Continuous
 62
     7
370
     9
100
AcDbLine
 10
-750.1722849886962
 20
-497.1555414962943
 30
0.0
 11
-748.6729945223876
 21
-497.1555414962943
 31
0.0
  0
LINE
  5
279
330
1F
100
AcDbEntity
  8
D-0
  6
Continuous
 62
     7
370
     9
100
AcDbLine
 10
-748.6729945223876
 20
-497.1555414962943
 30
0.0
 11
-748.6729945223876
 21
-498.6558047104057
 31
0.0
  0
LINE
  5
27A
330
1F
100
AcDbEntity
  8
D-0
  6
Continuous
 62
     7
370
     9
100
AcDbLine
 10
-748.6729945223876
 20
-498.6558047104057
 30
0.0
 11
-750.1722849886962
 21
-498.6558047104057
 31
0.0
  0
LINE
  5
27B
330
1F
100
AcDbEntity
  8
D-0
  6
Continuous
 62
     7
370
     9
100
AcDbLine
 10
-788.7970484774658
 20
-549.4884386825736
 30
0.0
 11
-788.7970484774658
 21
-547.9881563949759
 31
0.0
  0
LINE
  5
27C
330
1F
100
AcDbEntity
  8
D-0
  6
Continuous
 62
     7
370
     9
100
AcDbLine
 10
-788.7970484774658
 20
-547.9881563949759
 30
0.0
 11
-787.2977580111572
 21
-547.9881563949759
 31
0.0
  0
LINE
  5
27D
330
1F
100
AcDbEntity
  8
D-0
  6
Continuous
 62
     7
370
     9
100
AcDbLine
 10
-787.2977580111572
 20
-547.9881563949759
 30
0.0
 11
-787.2977580111572
 21
-549.4884386825736
 31
0.0
  0
LINE
  5
27E
330
1F
100
AcDbEntity
  8
D-0
  6
Continuous
 62
     7
370
     9
100
AcDbLine
 10
-787.2977580111572
 20
-549.4884386825736
 30
0.0
 11
-788.7970484774658
 21
-549.4884386825736
 31
0.0
  0
LINE
  5
27F
330
1F
100
AcDbEntity
  8
D-0
  6
Continuous
 62
     7
370
     9
100
AcDbLine
 10
-835.5841769259521
 20
-565.521992759722
 30
0.0
 11
-835.5841769259521
 21
-564.0217104721244
 31
0.0
  0
LINE
  5
280
330
1F
100
AcDbEntity
  8
D-0
  6
Continuous
 62
     7
370
     9
100
AcDbLine
 10
-835.5841769259521
 20
-564.0217104721244
 30
0.0
 11
-834.0838946383544
 21
-564.0217104721244
 31
0.0
  0
LINE
  5
281
330
1F
100
AcDbEntity
  8
D-0
  6
Continuous
 62
     7
370
     9
100
AcDbLine
 10
-834.0838946383544
 20
-564.0217104721244
 30
0.0
 11
-834.0838946383544
 21
-565.521992759722
 31
0.0
  0
LINE
  5
282
330
1F
100
AcDbEntity
  8
D-0
  6
Continuous
 62
     7
370
     9
100
AcDbLine
 10
-834.0838946383544
 20
-565.521992759722
 30
0.0
 11
-835.5841769259521
 21
-565.521992759722
 31
0.0
  0
LINE
  5
283
330
1F
100
AcDbEntity
  8
D-0
  6
Continuous
 62
     7
370
     9
100
AcDbLine
 10
-756.9403971713134
 20
-560.2396097946341
 30
0.0
 11
-756.9403971713134
 21
-558.7393275070365
 31
0.0
  0
LINE
  5
284
330
1F
100
AcDbEntity
  8
D-0
  6
Continuous
 62
     7
370
     9
100
AcDbLine
 10
-756.9403971713134
 20
-558.7393275070365
 30
0.0
 11
-755.4401148837158
 21
-558.7393275070365
 31
0.0
  0
LINE
  5
285
330
1F
100
AcDbEntity
  8
D-0
  6
Continuous
 62
     7
370
     9
100
AcDbLine
 10
-755.4401148837158
 20
-558.7393275070365
 30
0.0
 11
-755.4401148837158
 21
-560.2396097946341
 31
0.0
  0
LINE
  5
286
330
1F
100
AcDbEntity
  8
D-0
  6
Continuous
 62
     7
370
     9
100
AcDbLine
 10
-755.4401148837158
 20
-560.2396097946341
 30
0.0
 11
-756.9403971713134
 21
-560.2396097946341
 31
0.0
  0
LINE
  5
287
330
1F
100
AcDbEntity
  8
D-0
  6
Continuous
 62
     7
370
     9
100
AcDbLine
 10
-953.1569232028075
 20
-301.5534392166313
 30
0.0
 11
-953.1569232028075
 21
-300.0531593132194
 31
0.0
  0
LINE
  5
288
330
1F
100
AcDbEntity
  8
D-0
  6
Continuous
 62
     7
370
     9
100
AcDbLine
 10
-953.1569232028075
 20
-300.0531593132194
 30
0.0
 11
-951.657632736499
 21
-300.0531593132194
 31
0.0
  0
LINE
  5
289
330
1F
100
AcDbEntity
  8
D-0
  6
Continuous
 62
     7
370
     9
100
AcDbLine
 10
-951.657632736499
 20
-300.0531593132194
 30
0.0
 11
-951.657632736499
 21
-301.5534392166313
 31
0.0
  0
LINE
  5
28A
330
1F
100
AcDbEntity
  8
D-0
  6
Continuous
 62
     7
370
     9
100
AcDbLine
 10
-951.657632736499
 20
-301.5534392166313
 30
0.0
 11
-953.1569232028075
 21
-301.5534392166313
 31
0.0
  0
LINE
  5
28B
330
1F
100
AcDbEntity
  8
D-0
  6
Continuous
 62
     7
370
     9
100
AcDbLine
 10
-914.7684992831298
 20
-294.3135872650321
 30
0.0
 11
-914.7684992831298
 21
-292.8133073616203
 31
0.0
  0
LINE
  5
28C
330
1F
100
AcDbEntity
  8
D-0
  6
Continuous
 62
     7
370
     9
100
AcDbLine
 10
-914.7684992831298
 20
-292.8133073616203
 30
0.0
 11
-913.2692183535644
 21
-292.8133073616203
 31
0.0
  0
LINE
  5
28D
330
1F
100
AcDbEntity
  8
D-0
  6
Continuous
 62
     7
370
     9
100
AcDbLine
 10
-913.2692183535644
 20
-292.8133073616203
 30
0.0
 11
-913.2692183535644
 21
-294.3135872650321
 31
0.0
  0
LINE
  5
28E
330
1F
100
AcDbEntity
  8
D-0
  6
Continuous
 62
     7
370
     9
100
AcDbLine
 10
-913.2692183535644
 20
-294.3135872650321
 30
0.0
 11
-914.7684992831298
 21
-294.3135872650321
 31
0.0
  0
LINE
  5
28F
330
1F
100
AcDbEntity
  8
D-0
  6
Continuous
 62
     7
370
     9
100
AcDbLine
 10
-856.3829554598876
 20
-324.563011245745
 30
0.0
 11
-856.3829554598876
 21
-323.062733726519
 31
0.0
  0
LINE
  5
290
330
1F
100
AcDbEntity
  8
D-0
  6
Continuous
 62
     7
370
     9
100
AcDbLine
 10
-856.3829554598876
 20
-323.062733726519
 30
0.0
 11
-854.8826827090331
 21
-323.062733726519
 31
0.0
  0
LINE
  5
291
330
1F
100
AcDbEntity
  8
D-0
  6
Continuous
 62
     7
370
     9
100
AcDbLine
 10
-854.8826827090331
 20
-323.062733726519
 30
0.0
 11
-854.8826827090331
 21
-324.563011245745
 31
0.0
  0
LINE
  5
292
330
1F
100
AcDbEntity
  8
D-0
  6
Continuous
 62
     7
370
     9
100
AcDbLine
 10
-854.8826827090331
 20
-324.563011245745
 30
0.0
 11
-856.3829554598876
 21
-324.563011245745
 31
0.0
  0
LINE
  5
293
330
1F
100
AcDbEntity
  8
D-0
  6
Continuous
 62
     7
370
     9
100
AcDbLine
 10
-832.6965846102783
 20
-303.5838690567192
 30
0.0
 11
-832.6965846102783
 21
-302.0835891533073
 31
0.0
  0
LINE
  5
294
330
1F
100
AcDbEntity
  8
D-0
  6
Continuous
 62
     7
370
     9
100
AcDbLine
 10
-832.6965846102783
 20
-302.0835891533073
 30
0.0
 11
-831.1963023226806
 21
-302.0835891533073
 31
0.0
  0
LINE
  5
295
330
1F
100
AcDbEntity
  8
D-0
  6
Continuous
 62
     7
370
     9
100
AcDbLine
 10
-831.1963023226806
 20
-302.0835891533073
 30
0.0
 11
-831.1963023226806
 21
-303.5838690567192
 31
0.0
  0
LINE
  5
296
330
1F
100
AcDbEntity
  8
D-0
  6
Continuous
 62
     7
370
     9
100
AcDbLine
 10
-831.1963023226806
 20
-303.5838690567192
 30
0.0
 11
-832.6965846102783
 21
-303.5838690567192
 31
0.0
  0
LINE
  5
297
330
1F
100
AcDbEntity
  8
D-0
  6
Continuous
 62
     7
370
     9
100
AcDbLine
 10
-825.0782527010986
 20
-456.500119285601
 30
0.0
 11
-825.0782527010986
 21
-454.9998369980033
 31
0.0
  0
LINE
  5
298
330
1F
100
AcDbEntity
  8
D-0
  6
Continuous
 62
     7
370
     9
100
AcDbLine
 10
-825.0782527010986
 20
-454.9998369980033
 30
0.0
 11
-823.5779704135009
 21
-454.9998369980033
 31
0.0
  0
LINE
  5
299
330
1F
100
AcDbEntity
  8
D-0
  6
Continuous
 62
     7
370
     9
100
AcDbLine
 10
-823.5779704135009
 20
-454.9998369980033
 30
0.0
 11
-823.5779704135009
 21
-456.500119285601
 31
0.0
  0
LINE
  5
29A
330
1F
100
AcDbEntity
  8
D-0
  6
Continuous
 62
     7
370
     9
100
AcDbLine
 10
-823.5779704135009
 20
-456.500119285601
 30
0.0
 11
-825.0782527010986
 21
-456.500119285601
 31
0.0
  0
LINE
  5
29B
330
1F
100
AcDbEntity
  8
D-0
  6
Continuous
 62
     7
370
     9
100
AcDbLine
 10
-703.4376849215575
 20
-301.5534392166313
 30
0.0
 11
-703.4376849215575
 21
-300.0531593132194
 31
0.0
  0
LINE
  5
29C
330
1F
100
AcDbEntity
  8
D-0
  6
Continuous
 62
     7
370
     9
100
AcDbLine
 10
-703.4376849215575
 20
-300.0531593132194
 30
0.0
 11
-701.9374217074462
 21
-300.0531593132194
 31
0.0
  0
LINE
  5
29D
330
1F
100
AcDbEntity
  8
D-0
  6
Continuous
 62
     7
370
     9
100
AcDbLine
 10
-701.9374217074462
 20
-300.0531593132194
 30
0.0
 11
-701.9374217074462
 21
-301.5534392166313
 31
0.0
  0
LINE
  5
29E
330
1F
100
AcDbEntity
  8
D-0
  6
Continuous
 62
     7
370
     9
100
AcDbLine
 10
-701.9374217074462
 20
-301.5534392166313
 30
0.0
 11
-703.4376849215575
 21
-301.5534392166313
 31
0.0
  0
LINE
  5
29F
330
1F
100
AcDbEntity
  8
D-0
  6
Continuous
 62
     7
370
     9
100
AcDbLine
 10
-652.6818408053466
 20
-304.2606797981437
 30
0.0
 11
-652.6818408053466
 21
-302.7603998947318
 31
0.0
  0
LINE
  5
2A0
330
1F
100
AcDbEntity
  8
D-0
  6
Continuous
 62
     7
370
     9
100
AcDbLine
 10
-652.6818408053466
 20
-302.7603998947318
 30
0.0
 11
-651.181558517749
 21
-302.7603998947318
 31
0.0
  0
LINE
  5
2A1
330
1F
100
AcDbEntity
  8
D-0
  6
Continuous
 62
     7
370
     9
100
AcDbLine
 10
-651.181558517749
 20
-302.7603998947318
 30
0.0
 11
-651.181558517749
 21
-304.2606797981437
 31
0.0
  0
LINE
  5
2A2
330
1F
100
AcDbEntity
  8
D-0
  6
Continuous
 62
     7
370
     9
100
AcDbLine
 10
-651.181558517749
 20
-304.2606797981437
 30
0.0
 11
-652.6818408053466
 21
-304.2606797981437
 31
0.0
  0
LINE
  5
2A3
330
1F
100
AcDbEntity
  8
D-0
  6
Continuous
 62
     7
370
     9
100
AcDbLine
 10
-587.7139987032958
 20
-302.2302499580558
 30
0.0
 11
-587.7139987032958
 21
-300.729970054644
 31
0.0
  0
LINE
  5
2A4
330
1F
100
AcDbEntity
  8
D-0
  6
Continuous
 62
     7
370
     9
100
AcDbLine
 10
-587.7139987032958
 20
-300.729970054644
 30
0.0
 11
-586.2137164156982
 21
-300.729970054644
 31
0.0
  0
LINE
  5
2A5
330
1F
100
AcDbEntity
  8
D-0
  6
Continuous
 62
     7
370
     9
100
AcDbLine
 10
-586.2137164156982
 20
-300.729970054644
 30
0.0
 11
-586.2137164156982
 21
-302.2302499580558
 31
0.0
  0
LINE
  5
2A6
330
1F
100
AcDbEntity
  8
D-0
  6
Continuous
 62
     7
370
     9
100
AcDbLine
 10
-586.2137164156982
 20
-302.2302499580558
 30
0.0
 11
-587.7139987032958
 21
-302.2302499580558
 31
0.0
  0
LINE
  5
2A7
330
1F
100
AcDbEntity
  8
D-0
  6
Continuous
 62
     7
370
     9
100
AcDbLine
 10
-622.4879778903075
 20
-332.9790726471122
 30
0.0
 11
-622.4879778903075
 21
-331.4787951278861
 31
0.0
  0
LINE
  5
2A8
330
1F
100
AcDbEntity
  8
D-0
  6
Continuous
 62
     7
370
     9
100
AcDbLine
 10
-622.4879778903075
 20
-331.4787951278861
 30
0.0
 11
-620.9876956027099
 21
-331.4787951278861
 31
0.0
  0
LINE
  5
2A9
330
1F
100
AcDbEntity
  8
D-0
  6
Continuous
 62
     7
370
     9
100
AcDbLine
 10
-620.9876956027099
 20
-331.4787951278861
 30
0.0
 11
-620.9876956027099
 21
-332.9790726471122
 31
0.0
  0
LINE
  5
2AA
330
1F
100
AcDbEntity
  8
D-0
  6
Continuous
 62
     7
370
     9
100
AcDbLine
 10
-620.9876956027099
 20
-332.9790726471122
 30
0.0
 11
-622.4879778903075
 21
-332.9790726471122
 31
0.0
  0
LINE
  5
2AB
330
1F
100
AcDbEntity
  8
D-0
  6
Continuous
 62
     7
370
     9
100
AcDbLine
 10
-652.0050372164794
 20
-358.400057868975
 30
0.0
 11
-652.0050372164794
 21
-356.8997803497489
 31
0.0
  0
LINE
  5
2AC
330
1F
100
AcDbEntity
  8
D-0
  6
Continuous
 62
     7
370
     9
100
AcDbLine
 10
-652.0050372164794
 20
-356.8997803497489
 30
0.0
 11
-650.5047549288818
 21
-356.8997803497489
 31
0.0
  0
LINE
  5
2AD
330
1F
100
AcDbEntity
  8
D-0
  6
Continuous
 62
     7
370
     9
100
AcDbLine
 10
-650.5047549288818
 20
-356.8997803497489
 30
0.0
 11
-650.5047549288818
 21
-358.400057868975
 31
0.0
  0
LINE
  5
2AE
330
1F
100
AcDbEntity
  8
D-0
  6
Continuous
 62
     7
370
     9
100
AcDbLine
 10
-650.5047549288818
 20
-358.400057868975
 30
0.0
 11
-652.0050372164794
 21
-358.400057868975
 31
0.0
  0
LINE
  5
2AF
330
1F
100
AcDbEntity
  8
D-0
  6
Continuous
 62
     7
370
     9
100
AcDbLine
 10
-689.837564377124
 20
-379.8166838455375
 30
0.0
 11
-689.837564377124
 21
-378.3164015579399
 31
0.0
  0
LINE
  5
2B0
330
1F
100
AcDbEntity
  8
D-0
  6
Continuous
 62
     7
370
     9
100
AcDbLine
 10
-689.837564377124
 20
-378.3164015579399
 30
0.0
 11
-688.3382739108154
 21
-378.3164015579399
 31
0.0
  0
LINE
  5
2B1
330
1F
100
AcDbEntity
  8
D-0
  6
Continuous
 62
     7
370
     9
100
AcDbLine
 10
-688.3382739108154
 20
-378.3164015579399
 30
0.0
 11
-688.3382739108154
 21
-379.8166838455375
 31
0.0
  0
LINE
  5
2B2
330
1F
100
AcDbEntity
  8
D-0
  6
Continuous
 62
     7
370
     9
100
AcDbLine
 10
-688.3382739108154
 20
-379.8166838455375
 30
0.0
 11
-689.837564377124
 21
-379.8166838455375
 31
0.0
  0
LINE
  5
2B3
330
1F
100
AcDbEntity
  8
D-0
  6
Continuous
 62
     7
370
     9
100
AcDbLine
 10
-704.7913111727783
 20
-343.5117188263114
 30
0.0
 11
-704.7913111727783
 21
-342.0114413070854
 31
0.0
  0
LINE
  5
2B4
330
1F
100
AcDbEntity
  8
D-0
  6
Continuous
 62
     7
370
     9
100
AcDbLine
 10
-704.7913111727783
 20
-342.0114413070854
 30
0.0
 11
-703.2910288851806
 21
-342.0114413070854
 31
0.0
  0
LINE
  5
2B5
330
1F
100
AcDbEntity
  8
D-0
  6
Continuous
 62
     7
370
     9
100
AcDbLine
 10
-703.2910288851806
 20
-342.0114413070854
 30
0.0
 11
-703.2910288851806
 21
-343.5117188263114
 31
0.0
  0
LINE
  5
2B6
330
1F
100
AcDbEntity
  8
D-0
  6
Continuous
 62
     7
370
     9
100
AcDbLine
 10
-703.2910288851806
 20
-343.5117188263114
 30
0.0
 11
-704.7913111727783
 21
-343.5117188263114
 31
0.0
  0
LINE
  5
2B7
330
1F
100
AcDbEntity
  8
D-0
  6
Continuous
 62
     7
370
     9
100
AcDbLine
 10
-621.2012423556396
 20
-389.1581240463432
 30
0.0
 11
-621.2012423556396
 21
-387.6578512954887
 31
0.0
  0
LINE
  5
2B8
330
1F
100
AcDbEntity
  8
D-0
  6
Continuous
 62
     7
370
     9
100
AcDbLine
 10
-621.2012423556396
 20
-387.6578512954887
 30
0.0
 11
-619.701951889331
 21
-387.6578512954887
 31
0.0
  0
LINE
  5
2B9
330
1F
100
AcDbEntity
  8
D-0
  6
Continuous
 62
     7
370
     9
100
AcDbLine
 10
-619.701951889331
 20
-387.6578512954887
 30
0.0
 11
-619.701951889331
 21
-389.1581240463432
 31
0.0
  0
LINE
  5
2BA
330
1F
100
AcDbEntity
  8
D-0
  6
Continuous
 62
     7
370
     9
100
AcDbLine
 10
-619.701951889331
 20
-389.1581240463432
 30
0.0
 11
-621.2012423556396
 21
-389.1581240463432
 31
0.0
  0
LINE
  5
2BB
330
1F
100
AcDbEntity
  8
D-0
  6
Continuous
 62
     7
370
     9
100
AcDbLine
 10
-578.283265976245
 20
-390.6426897812065
 30
0.0
 11
-578.283265976245
 21
-389.1424074936088
 31
0.0
  0
LINE
  5
2BC
330
1F
100
AcDbEntity
  8
D-0
  6
Continuous
 62
     7
370
     9
100
AcDbLine
 10
-578.283265976245
 20
-389.1424074936088
 30
0.0
 11
-576.7829836886474
 21
-389.1424074936088
 31
0.0
  0
LINE
  5
2BD
330
1F
100
AcDbEntity
  8
D-0
  6
Continuous
 62
     7
370
     9
100
AcDbLine
 10
-576.7829836886474
 20
-389.1424074936088
 30
0.0
 11
-576.7829836886474
 21
-390.6426897812065
 31
0.0
  0
LINE
  5
2BE
330
1F
100
AcDbEntity
  8
D-0
  6
Continuous
 62
     7
370
     9
100
AcDbLine
 10
-576.7829836886474
 20
-390.6426897812065
 30
0.0
 11
-578.283265976245
 21
-390.6426897812065
 31
0.0
  0
LINE
  5
2BF
330
1F
100
AcDbEntity
  8
D-0
  6
Continuous
 62
     7
370
     9
100
AcDbLine
 10
-578.9377535861083
 20
-352.1557608413871
 30
0.0
 11
-578.9377535861083
 21
-350.6554785537895
 31
0.0
  0
LINE
  5
2C0
330
1F
100
AcDbEntity
  8
D-0
  6
Continuous
 62
     7
370
     9
100
AcDbLine
 10
-578.9377535861083
 20
-350.6554785537895
 30
0.0
 11
-577.4374712985107
 21
-350.6554785537895
 31
0.0
  0
LINE
  5
2C1
330
1F
100
AcDbEntity
  8
D-0
  6
Continuous
 62
     7
370
     9
100
AcDbLine
 10
-577.4374712985107
 20
-350.6554785537895
 30
0.0
 11
-577.4374712985107
 21
-352.1557608413871
 31
0.0
  0
LINE
  5
2C2
330
1F
100
AcDbEntity
  8
D-0
  6
Continuous
 62
     7
370
     9
100
AcDbLine
 10
-577.4374712985107
 20
-352.1557608413871
 30
0.0
 11
-578.9377535861083
 21
-352.1557608413871
 31
0.0
  0
LINE
  5
2C3
330
1F
100
AcDbEntity
  8
D-0
  6
Continuous
 62
     7
370
     9
100
AcDbLine
 10
-1107.497438339526
 20
-412.1541968155082
 30
0.0
 11
-1107.497438339526
 21
-410.6539145279106
 31
0.0
  0
LINE
  5
2C4
330
1F
100
AcDbEntity
  8
D-0
  6
Continuous
 62
     7
370
     9
100
AcDbLine
 10
-1107.497438339526
 20
-410.6539145279106
 30
0.0
 11
-1105.998147873218
 21
-410.6539145279106
 31
0.0
  0
LINE
  5
2C5
330
1F
100
AcDbEntity
  8
D-0
  6
Continuous
 62
     7
370
     9
100
AcDbLine
 10
-1105.998147873218
 20
-410.6539145279106
 30
0.0
 11
-1105.998147873218
 21
-412.1541968155082
 31
0.0
  0
LINE
  5
2C6
330
1F
100
AcDbEntity
  8
D-0
  6
Continuous
 62
     7
370
     9
100
AcDbLine
 10
-1105.998147873218
 20
-412.1541968155082
 30
0.0
 11
-1107.497438339526
 21
-412.1541968155082
 31
0.0
  0
LINE
  5
2C7
330
1F
100
AcDbEntity
  8
D-0
  6
Continuous
 62
     7
370
     9
100
AcDbLine
 10
-1067.146452812488
 20
-428.5229960251029
 30
0.0
 11
-1067.146452812488
 21
-427.0227137375053
 31
0.0
  0
LINE
  5
2C8
330
1F
100
AcDbEntity
  8
D-0
  6
Continuous
 62
     7
370
     9
100
AcDbLine
 10
-1067.146452812488
 20
-427.0227137375053
 30
0.0
 11
-1065.647162346179
 21
-427.0227137375053
 31
0.0
  0
LINE
  5
2C9
330
1F
100
AcDbEntity
  8
D-0
  6
Continuous
 62
     7
370
     9
100
AcDbLine
 10
-1065.647162346179
 20
-427.0227137375053
 30
0.0
 11
-1065.647162346179
 21
-428.5229960251029
 31
0.0
  0
LINE
  5
2CA
330
1F
100
AcDbEntity
  8
D-0
  6
Continuous
 62
     7
370
     9
100
AcDbLine
 10
-1065.647162346179
 20
-428.5229960251029
 30
0.0
 11
-1067.146452812488
 21
-428.5229960251029
 31
0.0
  0
LINE
  5
2CB
330
1F
100
AcDbEntity
  8
D-0
  6
Continuous
 62
     7
370
     9
100
AcDbLine
 10
-1013.852841405208
 20
-435.7553568649467
 30
0.0
 11
-1013.852841405208
 21
-434.255074577349
 31
0.0
  0
LINE
  5
2CC
330
1F
100
AcDbEntity
  8
D-0
  6
Continuous
 62
     7
370
     9
100
AcDbLine
 10
-1013.852841405208
 20
-434.255074577349
 30
0.0
 11
-1012.352562097842
 21
-434.255074577349
 31
0.0
  0
LINE
  5
2CD
330
1F
100
AcDbEntity
  8
D-0
  6
Continuous
 62
     7
370
     9
100
AcDbLine
 10
-1012.352562097842
 20
-434.255074577349
 30
0.0
 11
-1012.352562097842
 21
-435.7553568649467
 31
0.0
  0
LINE
  5
2CE
330
1F
100
AcDbEntity
  8
D-0
  6
Continuous
 62
     7
370
     9
100
AcDbLine
 10
-1012.352562097842
 20
-435.7553568649467
 30
0.0
 11
-1013.852841405208
 21
-435.7553568649467
 31
0.0
  0
LINE
  5
2CF
330
1F
100
AcDbEntity
  8
D-0
  6
Continuous
 62
     7
370
     9
100
AcDbLine
 10
-1012.710290102298
 20
-574.1994181442435
 30
0.0
 11
-1012.710290102298
 21
-572.6991358566459
 31
0.0
  0
LINE
  5
2D0
330
1F
100
AcDbEntity
  8
D-0
  6
Continuous
 62
     7
370
     9
100
AcDbLine
 10
-1012.710290102298
 20
-572.6991358566459
 30
0.0
 11
-1011.210010794932
 21
-572.6991358566459
 31
0.0
  0
LINE
  5
2D1
330
1F
100
AcDbEntity
  8
D-0
  6
Continuous
 62
     7
370
     9
100
AcDbLine
 10
-1011.210010794932
 20
-572.6991358566459
 30
0.0
 11
-1011.210010794932
 21
-574.1994181442435
 31
0.0
  0
LINE
  5
2D2
330
1F
100
AcDbEntity
  8
D-0
  6
Continuous
 62
     7
370
     9
100
AcDbLine
 10
-1011.210010794932
 20
-574.1994181442435
 30
0.0
 11
-1012.710290102298
 21
-574.1994181442435
 31
0.0
  0
LINE
  5
2D3
330
1F
100
AcDbEntity
  8
D-0
  6
Continuous
 62
     7
370
     9
100
AcDbLine
 10
-1009.153815357024
 20
-527.4648943710501
 30
0.0
 11
-1009.153815357024
 21
-525.9646120834525
 31
0.0
  0
LINE
  5
2D4
330
1F
100
AcDbEntity
  8
D-0
  6
Continuous
 62
     7
370
     9
100
AcDbLine
 10
-1009.153815357024
 20
-525.9646120834525
 30
0.0
 11
-1007.653536049659
 21
-525.9646120834525
 31
0.0
  0
LINE
  5
2D5
330
1F
100
AcDbEntity
  8
D-0
  6
Continuous
 62
     7
370
     9
100
AcDbLine
 10
-1007.653536049659
 20
-525.9646120834525
 30
0.0
 11
-1007.653536049659
 21
-527.4648943710501
 31
0.0
  0
LINE
  5
2D6
330
1F
100
AcDbEntity
  8
D-0
  6
Continuous
 62
     7
370
     9
100
AcDbLine
 10
-1007.653536049659
 20
-527.4648943710501
 30
0.0
 11
-1009.153815357024
 21
-527.4648943710501
 31
0.0
  0
LINE
  5
2D7
330
1F
100
AcDbEntity
  8
D-0
  6
Continuous
 62
     7
370
     9
100
AcDbLine
 10
-1109.020503906543
 20
-577.7458277511771
 30
0.0
 11
-1109.020503906543
 21
-576.2455454635794
 31
0.0
  0
LINE
  5
2D8
330
1F
100
AcDbEntity
  8
D-0
  6
Continuous
 62
     7
370
     9
100
AcDbLine
 10
-1109.020503906543
 20
-576.2455454635794
 30
0.0
 11
-1107.520221618945
 21
-576.2455454635794
 31
0.0
  0
LINE
  5
2D9
330
1F
100
AcDbEntity
  8
D-0
  6
Continuous
 62
     7
370
     9
100
AcDbLine
 10
-1107.520221618945
 20
-576.2455454635794
 30
0.0
 11
-1107.520221618945
 21
-577.7458277511771
 31
0.0
  0
LINE
  5
2DA
330
1F
100
AcDbEntity
  8
D-0
  6
Continuous
 62
     7
370
     9
100
AcDbLine
 10
-1107.520221618945
 20
-577.7458277511771
 30
0.0
 11
-1109.020503906543
 21
-577.7458277511771
 31
0.0
  0
LINE
  5
2DB
330
1F
100
AcDbEntity
  8
D-0
  6
Continuous
 62
     7
370
     9
100
AcDbLine
 10
-1061.496127991016
 20
-581.6324892807181
 30
0.0
 11
-1061.496127991016
 21
-580.1322069931205
 31
0.0
  0
LINE
  5
2DC
330
1F
100
AcDbEntity
  8
D-0
  6
Continuous
 62
     7
370
     9
100
AcDbLine
 10
-1061.496127991016
 20
-580.1322069931205
 30
0.0
 11
-1059.996837524707
 21
-580.1322069931205
 31
0.0
  0
LINE
  5
2DD
330
1F
100
AcDbEntity
  8
D-0
  6
Continuous
 62
     7
370
     9
100
AcDbLine
 10
-1059.996837524707
 20
-580.1322069931205
 30
0.0
 11
-1059.996837524707
 21
-581.6324892807181
 31
0.0
  0
LINE
  5
2DE
330
1F
100
AcDbEntity
  8
D-0
  6
Continuous
 62
     7
370
     9
100
AcDbLine
 10
-1059.996837524707
 20
-581.6324892807181
 30
0.0
 11
-1061.496127991016
 21
-581.6324892807181
 31
0.0
  0
LINE
  5
2DF
330
1F
100
AcDbEntity
  8
D-0
  6
Continuous
 62
     7
370
     9
100
AcDbLine
 10
-1111.436408905322
 20
-523.3195582199271
 30
0.0
 11
-1111.436408905322
 21
-521.8192759323294
 31
0.0
  0
LINE
  5
2E0
330
1F
100
AcDbEntity
  8
D-0
  6
Continuous
 62
     7
370
     9
100
AcDbLine
 10
-1111.436408905322
 20
-521.8192759323294
 30
0.0
 11
-1109.936126617725
 21
-521.8192759323294
 31
0.0
  0
LINE
  5
2E1
330
1F
100
AcDbEntity
  8
D-0
  6
Continuous
 62
     7
370
     9
100
AcDbLine
 10
-1109.936126617725
 20
-521.8192759323294
 30
0.0
 11
-1109.936126617725
 21
-523.3195582199271
 31
0.0
  0
LINE
  5
2E2
330
1F
100
AcDbEntity
  8
D-0
  6
Continuous
 62
     7
370
     9
100
AcDbLine
 10
-1109.936126617725
 20
-523.3195582199271
 30
0.0
 11
-1111.436408905322
 21
-523.3195582199271
 31
0.0
  0
LINE
  5
2E3
330
1F
100
AcDbEntity
  8
D-0
  6
Continuous
 62
     7
370
     9
100
AcDbLine
 10
-1102.547696976001
 20
-686.7222109604057
 30
0.0
 11
-1102.547696976001
 21
-685.2219668197807
 31
0.0
  0
LINE
  5
2E4
330
1F
100
AcDbEntity
  8
D-0
  6
Continuous
 62
     7
370
     9
100
AcDbLine
 10
-1102.547696976001
 20
-685.2219668197807
 30
0.0
 11
-1101.047424225146
 21
-685.2219668197807
 31
0.0
  0
LINE
  5
2E5
330
1F
100
AcDbEntity
  8
D-0
  6
Continuous
 62
     7
370
     9
100
AcDbLine
 10
-1101.047424225146
 20
-685.2219668197807
 30
0.0
 11
-1101.047424225146
 21
-686.7222109604057
 31
0.0
  0
LINE
  5
2E6
330
1F
100
AcDbEntity
  8
D-0
  6
Continuous
 62
     7
370
     9
100
AcDbLine
 10
-1101.047424225146
 20
-686.7222109604057
 30
0.0
 11
-1102.547696976001
 21
-686.7222109604057
 31
0.0
  0
LINE
  5
2E7
330
1F
100
AcDbEntity
  8
D-0
  6
Continuous
 62
     7
370
     9
100
AcDbLine
 10
-1050.776165870959
 20
-682.915028648394
 30
0.0
 11
-1050.776165870959
 21
-681.414784507769
 31
0.0
  0
LINE
  5
2E8
330
1F
100
AcDbEntity
  8
D-0
  6
Continuous
 62
     7
370
     9
100
AcDbLine
 10
-1050.776165870959
 20
-681.414784507769
 30
0.0
 11
-1049.276875404651
 21
-681.414784507769
 31
0.0
  0
LINE
  5
2E9
330
1F
100
AcDbEntity
  8
D-0
  6
Continuous
 62
     7
370
     9
100
AcDbLine
 10
-1049.276875404651
 20
-681.414784507769
 30
0.0
 11
-1049.276875404651
 21
-682.915028648394
 31
0.0
  0
LINE
  5
2EA
330
1F
100
AcDbEntity
  8
D-0
  6
Continuous
 62
     7
370
     9
100
AcDbLine
 10
-1049.276875404651
 20
-682.915028648394
 30
0.0
 11
-1050.776165870959
 21
-682.915028648394
 31
0.0
  0
LINE
  5
2EB
330
1F
100
AcDbEntity
  8
D-0
  6
Continuous
 62
     7
370
     9
100
AcDbLine
 10
-1000.908224133784
 20
-684.8186388778862
 30
0.0
 11
-1000.908224133784
 21
-683.3183565902885
 31
0.0
  0
LINE
  5
2EC
330
1F
100
AcDbEntity
  8
D-0
  6
Continuous
 62
     7
370
     9
100
AcDbLine
 10
-1000.908224133784
 20
-683.3183565902885
 30
0.0
 11
-999.4089354556152
 21
-683.3183565902885
 31
0.0
  0
LINE
  5
2ED
330
1F
100
AcDbEntity
  8
D-0
  6
Continuous
 62
     7
370
     9
100
AcDbLine
 10
-999.4089354556152
 20
-683.3183565902885
 30
0.0
 11
-999.4089354556152
 21
-684.8186388778862
 31
0.0
  0
LINE
  5
2EE
330
1F
100
AcDbEntity
  8
D-0
  6
Continuous
 62
     7
370
     9
100
AcDbLine
 10
-999.4089354556152
 20
-684.8186388778862
 30
0.0
 11
-1000.908224133784
 21
-684.8186388778862
 31
0.0
  0
LINE
  5
2EF
330
1F
100
AcDbEntity
  8
D-0
  6
Continuous
 62
     7
370
     9
100
AcDbLine
 10
-1025.651935486133
 20
-710.7039156723198
 30
0.0
 11
-1025.651935486133
 21
-709.2036333847221
 31
0.0
  0
LINE
  5
2F0
330
1F
100
AcDbEntity
  8
D-0
  6
Continuous
 62
     7
370
     9
100
AcDbLine
 10
-1025.651935486133
 20
-709.2036333847221
 30
0.0
 11
-1024.151655582721
 21
-709.2036333847221
 31
0.0
  0
LINE
  5
2F1
330
1F
100
AcDbEntity
  8
D-0
  6
Continuous
 62
     7
370
     9
100
AcDbLine
 10
-1024.151655582721
 20
-709.2036333847221
 30
0.0
 11
-1024.151655582721
 21
-710.7039156723198
 31
0.0
  0
LINE
  5
2F2
330
1F
100
AcDbEntity
  8
D-0
  6
Continuous
 62
     7
370
     9
100
AcDbLine
 10
-1024.151655582721
 20
-710.7039156723198
 30
0.0
 11
-1025.651935486133
 21
-710.7039156723198
 31
0.0
  0
LINE
  5
2F3
330
1F
100
AcDbEntity
  8
D-0
  6
Continuous
 62
     7
370
     9
100
AcDbLine
 10
-1066.002911476428
 20
-722.504986839312
 30
0.0
 11
-1066.002911476428
 21
-721.0047045517143
 31
0.0
  0
LINE
  5
2F4
330
1F
100
AcDbEntity
  8
D-0
  6
Continuous
 62
     7
370
     9
100
AcDbLine
 10
-1066.002911476428
 20
-721.0047045517143
 30
0.0
 11
-1064.50362101012
 21
-721.0047045517143
 31
0.0
  0
LINE
  5
2F5
330
1F
100
AcDbEntity
  8
D-0
  6
Continuous
 62
     7
370
     9
100
AcDbLine
 10
-1064.50362101012
 20
-721.0047045517143
 30
0.0
 11
-1064.50362101012
 21
-722.504986839312
 31
0.0
  0
LINE
  5
2F6
330
1F
100
AcDbEntity
  8
D-0
  6
Continuous
 62
     7
370
     9
100
AcDbLine
 10
-1064.50362101012
 20
-722.504986839312
 30
0.0
 11
-1066.002911476428
 21
-722.504986839312
 31
0.0
  0
LINE
  5
2F7
330
1F
100
AcDbEntity
  8
D-0
  6
Continuous
 62
     7
370
     9
100
AcDbLine
 10
-1113.206228164966
 20
-720.2208605575737
 30
0.0
 11
-1113.206228164966
 21
-718.720578269976
 31
0.0
  0
LINE
  5
2F8
330
1F
100
AcDbEntity
  8
D-0
  6
Continuous
 62
     7
370
     9
100
AcDbLine
 10
-1113.206228164966
 20
-718.720578269976
 30
0.0
 11
-1111.705945877368
 21
-718.720578269976
 31
0.0
  0
LINE
  5
2F9
330
1F
100
AcDbEntity
  8
D-0
  6
Continuous
 62
     7
370
     9
100
AcDbLine
 10
-1111.705945877368
 20
-718.720578269976
 30
0.0
 11
-1111.705945877368
 21
-720.2208605575737
 31
0.0
  0
LINE
  5
2FA
330
1F
100
AcDbEntity
  8
D-0
  6
Continuous
 62
     7
370
     9
100
AcDbLine
 10
-1111.705945877368
 20
-720.2208605575737
 30
0.0
 11
-1113.206228164966
 21
-720.2208605575737
 31
0.0
  0
LINE
  5
2FB
330
1F
100
AcDbEntity
  8
D-0
  6
Continuous
 62
     7
370
     9
100
AcDbLine
 10
-1096.837915329272
 20
-748.7712755966362
 30
0.0
 11
-1096.837915329272
 21
-747.2709933090385
 31
0.0
  0
LINE
  5
2FC
330
1F
100
AcDbEntity
  8
D-0
  6
Continuous
 62
     7
370
     9
100
AcDbLine
 10
-1096.837915329272
 20
-747.2709933090385
 30
0.0
 11
-1095.337642578418
 21
-747.2709933090385
 31
0.0
  0
LINE
  5
2FD
330
1F
100
AcDbEntity
  8
D-0
  6
Continuous
 62
     7
370
     9
100
AcDbLine
 10
-1095.337642578418
 20
-747.2709933090385
 30
0.0
 11
-1095.337642578418
 21
-748.7712755966362
 31
0.0
  0
LINE
  5
2FE
330
1F
100
AcDbEntity
  8
D-0
  6
Continuous
 62
     7
370
     9
100
AcDbLine
 10
-1095.337642578418
 20
-748.7712755966362
 30
0.0
 11
-1096.837915329272
 21
-748.7712755966362
 31
0.0
  0
LINE
  5
2FF
330
1F
100
AcDbEntity
  8
D-0
  6
Continuous
 62
     7
370
     9
100
AcDbLine
 10
-1045.066384224231
 20
-747.2486773300346
 30
0.0
 11
-1045.066384224231
 21
-745.748395042437
 31
0.0
  0
LINE
  5
300
330
1F
100
AcDbEntity
  8
D-0
  6
Continuous
 62
     7
370
     9
100
AcDbLine
 10
-1045.066384224231
 20
-745.748395042437
 30
0.0
 11
-1043.566104320819
 21
-745.748395042437
 31
0.0
  0
LINE
  5
301
330
1F
100
AcDbEntity
  8
D-0
  6
Continuous
 62
     7
370
     9
100
AcDbLine
 10
-1043.566104320819
 20
-745.748395042437
 30
0.0
 11
-1043.566104320819
 21
-747.2486773300346
 31
0.0
  0
LINE
  5
302
330
1F
100
AcDbEntity
  8
D-0
  6
Continuous
 62
     7
370
     9
100
AcDbLine
 10
-1043.566104320819
 20
-747.2486773300346
 30
0.0
 11
-1045.066384224231
 21
-747.2486773300346
 31
0.0
  0
LINE
  5
303
330
1F
100
AcDbEntity
  8
D-0
  6
Continuous
 62
     7
370
     9
100
AcDbLine
 10
-1006.999517230327
 20
-747.2486773300346
 30
0.0
 11
-1006.999517230327
 21
-745.748395042437
 31
0.0
  0
LINE
  5
304
330
1F
100
AcDbEntity
  8
D-0
  6
Continuous
 62
     7
370
     9
100
AcDbLine
 10
-1006.999517230327
 20
-745.748395042437
 30
0.0
 11
-1005.499237792576
 21
-745.748395042437
 31
0.0
  0
LINE
  5
305
330
1F
100
AcDbEntity
  8
D-0
  6
Continuous
 62
     7
370
     9
100
AcDbLine
 10
-1005.499237792576
 20
-745.748395042437
 30
0.0
 11
-1005.499237792576
 21
-747.2486773300346
 31
0.0
  0
LINE
  5
306
330
1F
100
AcDbEntity
  8
D-0
  6
Continuous
 62
     7
370
     9
100
AcDbLine
 10
-1005.499237792576
 20
-747.2486773300346
 30
0.0
 11
-1006.999517230327
 21
-747.2486773300346
 31
0.0
  0
LINE
  5
307
330
1F
100
AcDbEntity
  8
D-0
  6
Continuous
 62
     7
370
     9
100
AcDbLine
 10
-947.499164490039
 20
-504.365052299517
 30
0.0
 11
-947.499164490039
 21
-502.8642741012748
 31
0.0
  0
LINE
  5
308
330
1F
100
AcDbEntity
  8
D-0
  6
Continuous
 62
     7
370
     9
100
AcDbLine
 10
-947.499164490039
 20
-502.8642741012748
 30
0.0
 11
-945.9988869708129
 21
-502.8642741012748
 31
0.0
  0
LINE
  5
309
330
1F
100
AcDbEntity
  8
D-0
  6
Continuous
 62
     7
370
     9
100
AcDbLine
 10
-945.9988869708129
 20
-502.8642741012748
 30
0.0
 11
-945.9988869708129
 21
-504.365052299517
 31
0.0
  0
LINE
  5
30A
330
1F
100
AcDbEntity
  8
D-0
  6
Continuous
 62
     7
370
     9
100
AcDbLine
 10
-945.9988869708129
 20
-504.365052299517
 30
0.0
 11
-947.499164490039
 21
-504.365052299517
 31
0.0
  0
LINE
  5
30B
330
1F
100
AcDbEntity
  8
D-0
  6
Continuous
 62
     7
370
     9
100
AcDbLine
 10
-941.2537802737304
 20
-434.5835867691215
 30
0.0
 11
-941.2537802737304
 21
-433.0833044815238
 31
0.0
  0
LINE
  5
30C
330
1F
100
AcDbEntity
  8
D-0
  6
Continuous
 62
     7
370
     9
100
AcDbLine
 10
-941.2537802737304
 20
-433.0833044815238
 30
0.0
 11
-939.7544945757934
 21
-433.0833044815238
 31
0.0
  0
LINE
  5
30D
330
1F
100
AcDbEntity
  8
D-0
  6
Continuous
 62
     7
370
     9
100
AcDbLine
 10
-939.7544945757934
 20
-433.0833044815238
 30
0.0
 11
-939.7544945757934
 21
-434.5835867691215
 31
0.0
  0
LINE
  5
30E
330
1F
100
AcDbEntity
  8
D-0
  6
Continuous
 62
     7
370
     9
100
AcDbLine
 10
-939.7544945757934
 20
-434.5835867691215
 30
0.0
 11
-941.2537802737304
 21
-434.5835867691215
 31
0.0
  0
LINE
  5
30F
330
1F
100
AcDbEntity
  8
D-0
  6
Continuous
 62
     7
370
     9
100
AcDbLine
 10
-1087.585538772876
 20
-604.3253603744681
 30
0.0
 11
-1087.585538772876
 21
-602.8250780868705
 31
0.0
  0
LINE
  5
310
330
1F
100
AcDbEntity
  8
D-0
  6
Continuous
 62
     7
370
     9
100
AcDbLine
 10
-1087.585538772876
 20
-602.8250780868705
 30
0.0
 11
-1086.085256485278
 21
-602.8250780868705
 31
0.0
  0
LINE
  5
311
330
1F
100
AcDbEntity
  8
D-0
  6
Continuous
 62
     7
370
     9
100
AcDbLine
 10
-1086.085256485278
 20
-602.8250780868705
 30
0.0
 11
-1086.085256485278
 21
-604.3253603744681
 31
0.0
  0
LINE
  5
312
330
1F
100
AcDbEntity
  8
D-0
  6
Continuous
 62
     7
370
     9
100
AcDbLine
 10
-1086.085256485278
 20
-604.3253603744681
 30
0.0
 11
-1087.585538772876
 21
-604.3253603744681
 31
0.0
  0
LINE
  5
313
330
1F
100
AcDbEntity
  8
D-0
  6
Continuous
 62
     7
370
     9
100
AcDbLine
 10
-1030.567976383502
 20
-606.897610740679
 30
0.0
 11
-1030.567976383502
 21
-605.3973284530814
 31
0.0
  0
LINE
  5
314
330
1F
100
AcDbEntity
  8
D-0
  6
Continuous
 62
     7
370
     9
100
AcDbLine
 10
-1030.567976383502
 20
-605.3973284530814
 30
0.0
 11
-1029.06769648009
 21
-605.3973284530814
 31
0.0
  0
LINE
  5
315
330
1F
100
AcDbEntity
  8
D-0
  6
Continuous
 62
     7
370
     9
100
AcDbLine
 10
-1029.06769648009
 20
-605.3973284530814
 30
0.0
 11
-1029.06769648009
 21
-606.897610740679
 31
0.0
  0
LINE
  5
316
330
1F
100
AcDbEntity
  8
D-0
  6
Continuous
 62
     7
370
     9
100
AcDbLine
 10
-1029.06769648009
 20
-606.897610740679
 30
0.0
 11
-1030.567976383502
 21
-606.897610740679
 31
0.0
  0
LINE
  5
317
330
1F
100
AcDbEntity
  8
D-4
  6
Continuous
 62
     7
370
     9
100
AcDbLine
 10
-730.2821864169189
 20
-599.74818141939
 30
0.0
 11
-730.2821864169189
 21
-818.6870852279839
 31
0.0
  0
LINE
  5
318
330
1F
100
AcDbEntity
  8
D-0
  6
Continuous
 62
     7
370
     9
100
AcDbLine
 10
-952.9978789370605
 20
-334.2214337158378
 30
0.0
 11
-952.9978789370605
 21
-332.7211514282401
 31
0.0
  0
LINE
  5
319
330
1F
100
AcDbEntity
  8
D-0
  6
Continuous
 62
     7
370
     9
100
AcDbLine
 10
-952.9978789370605
 20
-332.7211514282401
 30
0.0
 11
-951.4975966494628
 21
-332.7211514282401
 31
0.0
  0
LINE
  5
31A
330
1F
100
AcDbEntity
  8
D-0
  6
Continuous
 62
     7
370
     9
100
AcDbLine
 10
-951.4975966494628
 20
-332.7211514282401
 30
0.0
 11
-951.4975966494628
 21
-334.2214337158378
 31
0.0
  0
LINE
  5
31B
330
1F
100
AcDbEntity
  8
D-0
  6
Continuous
 62
     7
370
     9
100
AcDbLine
 10
-951.4975966494628
 20
-334.2214337158378
 30
0.0
 11
-952.9978789370605
 21
-334.2214337158378
 31
0.0
  0
LINE
  5
31C
330
1F
100
AcDbEntity
  8
D-0
  6
Continuous
 62
     7
370
     9
100
AcDbLine
 10
-832.756036667163
 20
-349.5025387573417
 30
0.0
 11
-832.756036667163
 21
-348.0022612381156
 31
0.0
  0
LINE
  5
31D
330
1F
100
AcDbEntity
  8
D-0
  6
Continuous
 62
     7
370
     9
100
AcDbLine
 10
-832.756036667163
 20
-348.0022612381156
 30
0.0
 11
-831.2557543795654
 21
-348.0022612381156
 31
0.0
  0
LINE
  5
31E
330
1F
100
AcDbEntity
  8
D-0
  6
Continuous
 62
     7
370
     9
100
AcDbLine
 10
-831.2557543795654
 20
-348.0022612381156
 30
0.0
 11
-831.2557543795654
 21
-349.5025387573417
 31
0.0
  0
LINE
  5
31F
330
1F
100
AcDbEntity
  8
D-0
  6
Continuous
 62
     7
370
     9
100
AcDbLine
 10
-831.2557543795654
 20
-349.5025387573417
 30
0.0
 11
-832.756036667163
 21
-349.5025387573417
 31
0.0
  0
LINE
  5
320
330
1F
100
AcDbEntity
  8
D-0
  6
Continuous
 62
     7
370
     9
100
AcDbLine
 10
-882.6353682559081
 20
-302.9049840736564
 30
0.0
 11
-882.6353682559081
 21
-301.4047041702445
 31
0.0
  0
LINE
  5
321
330
1F
100
AcDbEntity
  8
D-0
  6
Continuous
 62
     7
370
     9
100
AcDbLine
 10
-882.6353682559081
 20
-301.4047041702445
 30
0.0
 11
-881.1350955050536
 21
-301.4047041702445
 31
0.0
  0
LINE
  5
322
330
1F
100
AcDbEntity
  8
D-0
  6
Continuous
 62
     7
370
     9
100
AcDbLine
 10
-881.1350955050536
 20
-301.4047041702445
 30
0.0
 11
-881.1350955050536
 21
-302.9049840736564
 31
0.0
  0
LINE
  5
323
330
1F
100
AcDbEntity
  8
D-0
  6
Continuous
 62
     7
370
     9
100
AcDbLine
 10
-881.1350955050536
 20
-302.9049840736564
 30
0.0
 11
-882.6353682559081
 21
-302.9049840736564
 31
0.0
  0
LINE
  5
324
330
1F
100
AcDbEntity
  8
D-6
  6
Continuous
 62
     6
370
     9
100
AcDbLine
 10
-730.2831782382079
 20
-501.6133204269584
 30
0.0
 11
-634.2722262423583
 21
-405.603369789141
 31
0.0
  0
LINE
  5
325
330
1F
100
AcDbEntity
  8
D-6
  6
Continuous
 62
     6
370
     9
100
AcDbLine
 10
-730.2831782382079
 20
-515.7549944687064
 30
0.0
 11
-620.131524948413
 21
-405.603369789141
 31
0.0
  0
LINE
  5
326
330
1F
100
AcDbEntity
  8
D-6
  6
Continuous
 62
     6
370
     9
100
AcDbLine
 10
-980.2828516047546
 20
-751.6120043564018
 30
0.0
 11
-809.2737902682372
 21
-580.6039324569876
 31
0.0
  0
LINE
  5
327
330
1F
100
AcDbEntity
  8
D-6
  6
Continuous
 62
     6
370
     9
100
AcDbLine
 10
-970.1326765101501
 20
-755.6035128402885
 30
0.0
 11
-795.1331080477783
 21
-580.6039324569876
 31
0.0
  0
LINE
  5
328
330
1F
100
AcDbEntity
  8
D-6
  6
Continuous
 62
     6
370
     9
100
AcDbLine
 10
-730.2831782382079
 20
-529.8956766891654
 30
0.0
 11
-605.9908618014404
 21
-405.603369789141
 31
0.0
  0
LINE
  5
329
330
1F
100
AcDbEntity
  8
D-6
  6
Continuous
 62
     6
370
     9
100
AcDbLine
 10
-955.992988495166
 20
-755.6035128402885
 30
0.0
 11
-780.9924258273193
 21
-580.6039324569876
 31
0.0
  0
LINE
  5
32A
330
1F
100
AcDbEntity
  8
D-4
  6
Continuous
 62
     7
370
     9
100
AcDbLine
 10
-1130.283054260547
 20
-488.7067309189018
 30
0.0
 11
-980.2829422038146
 21
-488.7067309189018
 31
0.0
  0
LINE
  5
32B
330
1F
100
AcDbEntity
  8
D-4
  6
Continuous
 62
     7
370
     9
100
AcDbLine
 10
-980.2829422038146
 20
-488.7067309189018
 30
0.0
 11
-810.2827204745361
 21
-488.7067309189018
 31
0.0
  0
LINE
  5
32C
330
1F
100
AcDbEntity
  8
D-4
  6
Continuous
 62
     7
370
     9
100
AcDbLine
 10
-810.2827204745361
 20
-491.7067423629936
 30
0.0
 11
-810.2827204745361
 21
-407.1030607986625
 31
0.0
  0
LINE
  5
32D
330
1F
100
AcDbEntity
  8
D-4
  6
Continuous
 62
     7
370
     9
100
AcDbLine
 10
-946.2808074038574
 20
-370.603951530474
 30
0.0
 11
-747.3261775057861
 21
-370.603951530474
 31
0.0
  0
LINE
  5
32E
330
1F
100
AcDbEntity
  8
D-4
  6
Continuous
 62
     7
370
     9
100
AcDbLine
 10
-750.3267420809814
 20
-280.6045237350639
 30
0.0
 11
-750.3267420809814
 21
-370.603951530474
 31
0.0
  0
LINE
  5
32F
330
1F
100
AcDbEntity
  8
D-4
  6
Continuous
 62
     7
370
     9
100
AcDbLine
 10
-747.3267497103759
 20
-402.1031275558647
 30
0.0
 11
-805.2827204745361
 21
-402.1031275558647
 31
0.0
  0
LINE
  5
330
330
1F
100
AcDbEntity
  8
D-4
  6
Continuous
 62
     7
370
     9
100
AcDbLine
 10
-750.3267420809814
 20
-370.603951530474
 30
0.0
 11
-750.3267420809814
 21
-487.3540774154838
 31
0.0
  0
LINE
  5
331
330
1F
100
AcDbEntity
  8
D-4
  6
Continuous
 62
     7
370
     9
100
AcDbLine
 10
-980.2829422038146
 20
-491.7067423629936
 30
0.0
 11
-980.2829422038146
 21
-407.1030607986625
 31
0.0
  0
LINE
  5
332
330
1F
100
AcDbEntity
  8
D-5
  6
Continuous
 62
     7
370
     9
100
AcDbLine
 10
-962.1640051882812
 20
-373.1030932235893
 30
0.0
 11
-948.3523167651244
 21
-352.2646704483207
 31
0.0
  0
LINE
  5
333
330
1F
100
AcDbEntity
  8
D-5
  6
Continuous
 62
     7
370
     9
100
AcDbLine
 10
-962.1640051882812
 20
-373.1030932235893
 30
0.0
 11
-943.4303273242065
 21
-356.5489855575736
 31
0.0
  0
LINE
  5
334
330
1F
100
AcDbEntity
  8
D-5
  6
Continuous
 62
     7
370
     9
100
AcDbLine
 10
-787.6148737948486
 20
-172.5556650924858
 30
0.0
 11
-962.1640051882812
 21
-373.1030932235893
 31
0.0
  0
LINE
  5
335
330
1F
100
AcDbEntity
  8
D-9
  6
Continuous
 62
     4
370
     9
100
AcDbLine
 10
-940.2827633898803
 20
-402.1031275558647
 30
0.0
 11
-825.2827204745361
 21
-402.1031275558647
 31
0.0
  0
LINE
  5
336
330
1F
100
AcDbEntity
  8
D-9
  6
Continuous
 62
     4
370
     9
100
AcDbLine
 10
-955.282834915454
 20
-387.1030607986625
 30
0.0
 11
-955.282834915454
 21
-373.1030932235893
 31
0.0
  0
LINE
  5
337
330
1F
100
AcDbEntity
  8
D-9
  6
Continuous
 62
     4
370
     9
100
AcDbLine
 10
-810.2829112093993
 20
-387.1030607986625
 30
0.0
 11
-810.2829112093993
 21
-373.1030932235893
 31
0.0
  0
LINE
  5
338
330
1F
100
AcDbEntity
  8
D-9
  6
Continuous
 62
     4
370
     9
100
AcDbLine
 10
-975.2829278986999
 20
-383.1031409073051
 30
0.0
 11
-975.2829278986999
 21
-373.1030932235893
 31
0.0
  0
LINE
  5
339
330
1F
100
AcDbEntity
  8
D-9
  6
Continuous
 62
     4
370
     9
100
AcDbLine
 10
-955.2578105013915
 20
-383.1031409073051
 30
0.0
 11
-1005.28263888061
 21
-383.1031409073051
 31
0.0
  0
LINE
  5
33A
330
1F
100
AcDbEntity
  8
D-9
  6
Continuous
 62
     4
370
     9
100
AcDbLine
 10
-810.2829112093993
 20
-373.1030932235893
 30
0.0
 11
-1005.28263888061
 21
-373.1030932235893
 31
0.0
  0
LINE
  5
33B
330
1F
100
AcDbEntity
  8
D-9
  6
Continuous
 62
     3
370
     9
100
AcDbLine
 10
-1105.282968429858
 20
-370.6044474411186
 30
0.0
 11
-1105.282968429858
 21
-393.1044283676322
 31
0.0
  0
LINE
  5
33C
330
1F
100
AcDbEntity
  8
D-9
  6
Continuous
 62
     3
370
     9
100
AcDbLine
 10
-1005.28263888061
 20
-393.1044283676322
 30
0.0
 11
-1105.282968429858
 21
-393.1044283676322
 31
0.0
  0
LINE
  5
33D
330
1F
100
AcDbEntity
  8
D-9
  6
Continuous
 62
     3
370
     9
100
AcDbLine
 10
-1005.28263888061
 20
-370.6044474411186
 30
0.0
 11
-1105.282968429858
 21
-370.6044474411186
 31
0.0
  0
LINE
  5
33E
330
1F
100
AcDbEntity
  8
D-9
  6
Continuous
 62
     2
370
     9
100
AcDbLine
 10
-1041.533068565662
 20
-395.6030741501029
 30
0.0
 11
-1041.533068565662
 21
-393.1044283676322
 31
0.0
  0
LINE
  5
33F
330
1F
100
AcDbEntity
  8
D-9
  6
Continuous
 62
     2
370
     9
100
AcDbLine
 10
-1050.283779053027
 20
-403.1024828720268
 30
0.0
 11
-1041.533068565662
 21
-395.6030741501029
 31
0.0
  0
LINE
  5
340
330
1F
100
AcDbEntity
  8
D-9
  6
Continuous
 62
     2
370
     9
100
AcDbLine
 10
-1060.282696632678
 20
-403.1024828720268
 30
0.0
 11
-1050.283779053027
 21
-403.1024828720268
 31
0.0
  0
LINE
  5
341
330
1F
100
AcDbEntity
  8
D-9
  6
Continuous
 62
     2
370
     9
100
AcDbLine
 10
-1069.033159164722
 20
-395.6030741501029
 30
0.0
 11
-1060.282696632678
 21
-403.1024828720268
 31
0.0
  0
LINE
  5
342
330
1F
100
AcDbEntity
  8
D-9
  6
Continuous
 62
     2
370
     9
100
AcDbLine
 10
-1069.033159164722
 20
-395.6030741501029
 30
0.0
 11
-1069.033159164722
 21
-393.1044283676322
 31
0.0
  0
LINE
  5
343
330
1F
100
AcDbEntity
  8
D-9
  6
Continuous
 62
     2
370
     9
100
AcDbLine
 10
-1069.033159164722
 20
-395.6030741501029
 30
0.0
 11
-1041.533068565662
 21
-395.6030741501029
 31
0.0
  0
LINE
  5
344
330
1F
100
AcDbEntity
  8
D-9
  6
Continuous
 62
     3
370
     9
100
AcDbLine
 10
-1005.28263888061
 20
-370.6044474411186
 30
0.0
 11
-1005.28263888061
 21
-393.1044283676322
 31
0.0
  0
LINE
  5
345
330
1F
100
AcDbEntity
  8
D-9
  6
Continuous
 62
     3
370
     9
100
AcDbLine
 10
-1005.28263888061
 20
-380.6044474411186
 30
0.0
 11
-1105.282968429858
 21
-380.6044474411186
 31
0.0
  0
LINE
  5
346
330
1F
100
AcDbEntity
  8
D-9
  6
JWW_DASHED2
 62
     3
370
     9
100
AcDbLine
 10
-1005.28263888061
 20
-383.1044283676322
 30
0.0
 11
-1105.282968429858
 21
-383.1044283676322
 31
0.0
  0
LINE
  5
347
330
1F
100
AcDbEntity
  8
D-9
  6
JWW_CENTER1
 62
     4
370
     9
100
AcDbLine
 10
-1055.282801536853
 20
-410.8434477615531
 30
0.0
 11
-1055.282801536853
 21
-370.6044474411186
 31
0.0
  0
ARC
  5
348
330
1F
100
AcDbEntity
  8
D-1
  6
Continuous
 62
     2
370
     9
100
AcDbCircle
 10
-1000.284924356277
 20
-350.605343894976
 30
0.0
 40
5.0
100
AcDbArc
 50
270.0244750976562
 51
0.0107421875000158
  0
ARC
  5
349
330
1F
100
AcDbEntity
  8
D-1
  6
Continuous
 62
     2
370
     9
100
AcDbCircle
 10
-1000.282942799861
 20
-350.6033650207694
 30
0.0
 40
20.0
100
AcDbArc
 50
270.0
 51
0.0002441406249917
  0
ARC
  5
34A
330
1F
100
AcDbEntity
  8
D-1
  6
Continuous
 62
     2
370
     9
100
AcDbCircle
 10
-1000.282942799861
 20
-350.6043520736869
 30
0.0
 40
5.0
100
AcDbArc
 50
270.0
 51
0.0001983642578153
  0
ARC
  5
34B
330
1F
100
AcDbEntity
  8
D-9
  6
Continuous
 62
     4
370
     9
100
AcDbCircle
 10
-940.2827633898803
 20
-387.1030607986625
 30
0.0
 40
15.00000238418579
100
AcDbArc
 50
180.0
 51
270.0
  0
ARC
  5
34C
330
1F
100
AcDbEntity
  8
D-9
  6
Continuous
 62
     4
370
     9
100
AcDbCircle
 10
-825.2827204745361
 20
-387.1030607986625
 30
0.0
 40
15.00000238418579
100
AcDbArc
 50
270.0
 51
0.0
  0
LWPOLYLINE
  5
34D
330
1F
100
AcDbEntity
  8
D-4
  6
Continuous
 62
     7
370
     9
100
AcDbPolyline
 90
        4
 70
     1
 43
1.0
 10
-979.783841041858
 20
57.26258365629356
 42
0.4142135623731
 10
-980.2838410418578
 20
57.76258365629356
 42
0.4142135623731
 10
-980.7838410418578
 20
57.26258365629356
 42
0.4142135623731
 10
-980.2838410418578
 20
56.76258365629356
 42
0.4142135623731
  0
LWPOLYLINE
  5
34E
330
1F
100
AcDbEntity
  8
D-4
  6
Continuous
 62
     7
370
     9
100
AcDbPolyline
 90
        4
 70
     1
 43
1.0
 10
-1129.783054260547
 20
-162.1855059433158
 42
0.4142135623731
 10
-1130.283054260547
 20
-161.6855059433158
 42
0.4142135623731
 10
-1130.783054260547
 20
-162.1855059433158
 42
0.4142135623731
 10
-1130.283054260547
 20
-162.6855059433158
 42
0.4142135623731
  0
LWPOLYLINE
  5
34F
330
1F
100
AcDbEntity
  8
D-4
  6
Continuous
 62
     7
370
     9
100
AcDbPolyline
 90
        4
 70
     1
 43
1.0
 10
-1004.783213404948
 20
-162.1855059433158
 42
0.4142135623731
 10
-1005.283213404948
 20
-161.6855059433158
 42
0.4142135623731
 10
-1005.783213404948
 20
-162.1855059433158
 42
0.4142135623731
 10
-1005.283213404948
 20
-162.6855059433158
 42
0.4142135623731
  0
LWPOLYLINE
  5
350
330
1F
100
AcDbEntity
  8
D-4
  6
Continuous
 62
     7
370
     9
100
AcDbPolyline
 90
        4
 70
     1
 43
1.0
 10
-1004.783213404948
 20
-53.43308361055215
 42
0.4142135623731
 10
-1005.283213404948
 20
-52.93308361055215
 42
0.4142135623731
 10
-1005.783213404948
 20
-53.43308361055215
 42
0.4142135623731
 10
-1005.283213404948
 20
-53.93308361055215
 42
0.4142135623731
  0
LWPOLYLINE
  5
351
330
1F
100
AcDbEntity
  8
D-4
  6
Continuous
 62
     7
370
     9
100
AcDbPolyline
 90
        4
 70
     1
 43
1.0
 10
-994.7826721947739
 20
-53.43308361055215
 42
0.4142135623731
 10
-995.2826721947738
 20
-52.93308361055215
 42
0.4142135623731
 10
-995.7826721947738
 20
-53.43308361055215
 42
0.4142135623731
 10
-995.2826721947738
 20
-53.93308361055215
 42
0.4142135623731
  0
LWPOLYLINE
  5
352
330
1F
100
AcDbEntity
  8
D-4
  6
Continuous
 62
     7
370
     9
100
AcDbPolyline
 90
        4
 70
     1
 43
1.0
 10
-979.783841041858
 20
-53.43308361055215
 42
0.4142135623731
 10
-980.2838410418578
 20
-52.93308361055215
 42
0.4142135623731
 10
-980.7838410418578
 20
-53.43308361055215
 42
0.4142135623731
 10
-980.2838410418578
 20
-53.93308361055215
 42
0.4142135623731
  0
LWPOLYLINE
  5
353
330
1F
100
AcDbEntity
  8
D-4
  6
Continuous
 62
     7
370
     9
100
AcDbPolyline
 90
        4
 70
     1
 43
1.0
 10
-1129.783054260547
 20
-661.2226382064995
 42
0.4142135623731
 10
-1130.283054260547
 20
-660.7226382064995
 42
0.4142135623731
 10
-1130.783054260547
 20
-661.2226382064995
 42
0.4142135623731
 10
-1130.283054260547
 20
-661.7226382064995
 42
0.4142135623731
  0
LWPOLYLINE
  5
354
330
1F
100
AcDbEntity
  8
D-4
  6
Continuous
 62
     7
370
     9
100
AcDbPolyline
 90
        4
 70
     1
 43
1.0
 10
-979.7828516047547
 20
-661.2226382064995
 42
0.4142135623731
 10
-980.2828516047546
 20
-660.7226382064995
 42
0.4142135623731
 10
-980.7828516047546
 20
-661.2226382064995
 42
0.4142135623731
 10
-980.2828516047546
 20
-661.7226382064995
 42
0.4142135623731
  0
LWPOLYLINE
  5
355
330
1F
100
AcDbEntity
  8
D-4
  6
Continuous
 62
     7
370
     9
100
AcDbPolyline
 90
        4
 70
     1
 43
1.0
 10
-1129.783054260547
 20
-815.6875124740776
 42
0.4142135623731
 10
-1130.283054260547
 20
-815.1875124740776
 42
0.4142135623731
 10
-1130.783054260547
 20
-815.6875124740776
 42
0.4142135623731
 10
-1130.283054260547
 20
-816.1875124740776
 42
0.4142135623731
  0
LWPOLYLINE
  5
356
330
1F
100
AcDbEntity
  8
D-4
  6
Continuous
 62
     7
370
     9
100
AcDbPolyline
 90
        4
 70
     1
 43
1.0
 10
-729.782186416919
 20
-815.6875124740776
 42
0.4142135623731
 10
-730.2821864169189
 20
-815.1875124740776
 42
0.4142135623731
 10
-730.7821864169189
 20
-815.6875124740776
 42
0.4142135623731
 10
-730.2821864169189
 20
-816.1875124740776
 42
0.4142135623731
  0
LWPOLYLINE
  5
357
330
1F
100
AcDbEntity
  8
D-4
  6
Continuous
 62
     7
370
     9
100
AcDbPolyline
 90
        4
 70
     1
 43
1.0
 10
-458.0978259127686
 20
-580.6044283676322
 42
0.4142135623731
 10
-458.5978259127685
 20
-580.1044283676323
 42
0.4142135623731
 10
-459.0978259127685
 20
-580.6044283676322
 42
0.4142135623731
 10
-458.5978259127685
 20
-581.1044283676322
 42
0.4142135623731
  0
LWPOLYLINE
  5
358
330
1F
100
AcDbEntity
  8
D-4
  6
Continuous
 62
     7
370
     9
100
AcDbPolyline
 90
        4
 70
     1
 43
1.0
 10
-458.0978259127686
 20
-280.6045237350639
 42
0.4142135623731
 10
-458.5978259127685
 20
-280.1045237350639
 42
0.4142135623731
 10
-459.0978259127685
 20
-280.6045237350639
 42
0.4142135623731
 10
-458.5978259127685
 20
-281.1045237350639
 42
0.4142135623731
  0
LWPOLYLINE
  5
359
330
1F
100
AcDbEntity
  8
D-4
  6
Continuous
 62
     7
370
     9
100
AcDbPolyline
 90
        4
 70
     1
 43
1.0
 10
-1129.783054260547
 20
-488.7067309189018
 42
0.4142135623731
 10
-1130.283054260547
 20
-488.2067309189018
 42
0.4142135623731
 10
-1130.783054260547
 20
-488.7067309189018
 42
0.4142135623731
 10
-1130.283054260547
 20
-489.2067309189017
 42
0.4142135623731
  0
LWPOLYLINE
  5
35A
330
1F
100
AcDbEntity
  8
D-4
  6
Continuous
 62
     7
370
     9
100
AcDbPolyline
 90
        4
 70
     1
 43
1.0
 10
-979.7829422038147
 20
-488.7067309189018
 42
0.4142135623731
 10
-980.2829422038146
 20
-488.2067309189018
 42
0.4142135623731
 10
-980.7829422038146
 20
-488.7067309189018
 42
0.4142135623731
 10
-980.2829422038146
 20
-489.2067309189017
 42
0.4142135623731
  0
LWPOLYLINE
  5
35B
330
1F
100
AcDbEntity
  8
D-4
  6
Continuous
 62
     7
370
     9
100
AcDbPolyline
 90
        4
 70
     1
 43
1.0
 10
-809.7827204745362
 20
-488.7067309189018
 42
0.4142135623731
 10
-810.2827204745361
 20
-488.2067309189018
 42
0.4142135623731
 10
-810.7827204745361
 20
-488.7067309189018
 42
0.4142135623731
 10
-810.2827204745361
 20
-489.2067309189017
 42
0.4142135623731
  0
LWPOLYLINE
  5
35C
330
1F
100
AcDbEntity
  8
D-4
  6
Continuous
 62
     7
370
     9
100
AcDbPolyline
 90
        4
 70
     1
 43
1.0
 10
-749.8267420809815
 20
-280.6040284204658
 42
0.4142135623731
 10
-750.3267420809814
 20
-280.1040284204658
 42
0.4142135623731
 10
-750.8267420809814
 20
-280.6040284204658
 42
0.4142135623731
 10
-750.3267420809814
 20
-281.1040284204658
 42
0.4142135623731
  0
LWPOLYLINE
  5
35D
330
1F
100
AcDbEntity
  8
D-4
  6
Continuous
 62
     7
370
     9
100
AcDbPolyline
 90
        4
 70
     1
 43
1.0
 10
-749.8267420809815
 20
-370.603951530474
 42
0.4142135623731
 10
-750.3267420809814
 20
-370.103951530474
 42
0.4142135623731
 10
-750.8267420809814
 20
-370.603951530474
 42
0.4142135623731
 10
-750.3267420809814
 20
-371.103951530474
 42
0.4142135623731
  0
LWPOLYLINE
  5
35E
330
1F
100
AcDbEntity
  8
D-4
  6
Continuous
 62
     7
370
     9
100
AcDbPolyline
 90
        4
 70
     1
 43
1.0
 10
-749.8267420809815
 20
-402.1031275558647
 42
0.4142135623731
 10
-750.3267420809814
 20
-401.6031275558647
 42
0.4142135623731
 10
-750.8267420809814
 20
-402.1031275558647
 42
0.4142135623731
 10
-750.3267420809814
 20
-402.6031275558646
 42
0.4142135623731
  0
TEXT
  5
35F
330
1F
100
AcDbEntity
  8
D-4
  6
Continuous
 62
     2
370
     9
100
AcDbText
 10
-1089.032300857837
 20
-151.5452389145073
 30
0.0
 40
30.48
  1
25
 41
1.0625
  7
ＭＳ ゴシック
100
AcDbText
  0
TEXT
  5
360
330
1F
100
AcDbEntity
  8
D-4
  6
Continuous
 62
     2
370
     9
100
AcDbText
 10
-1121.533073334033
 20
-650.58336299898
 30
0.0
 40
30.48
  1
25～30
 41
1.104166666666667
  7
ＭＳ ゴシック
100
AcDbText
  0
TEXT
  5
361
330
1F
100
AcDbEntity
  8
D-4
  6
Continuous
 62
     2
370
     9
100
AcDbText
 10
-998.151457108161
 20
-805.0472454453085
 30
0.0
 40
30.48
  1
75～80
 50
0.0002144421685898
 41
1.104166666666669
  7
ＭＳ ゴシック
100
AcDbText
  0
TEXT
  5
362
330
1F
100
AcDbEntity
  8
D-4
  6
Continuous
 62
     2
370
     9
100
AcDbText
 10
-474.7685265963623
 20
-496.8543523202193
 30
0.0
 40
30.48
  1
55～65
 50
90.00000250447953
 41
1.104166666666667
  7
ＭＳ ゴシック
100
AcDbText
  0
TEXT
  5
363
330
1F
100
AcDbEntity
  8
D-4
  6
Continuous
 62
     2
370
     9
100
AcDbText
 10
-1038.227924255664
 20
-42.79380840303261
 30
0.0
 40
30.48
  1
2
 41
0.9999999999999998
  7
ＭＳ ゴシック
100
AcDbText
  0
TEXT
  5
364
330
1F
100
AcDbEntity
  8
D-4
  6
Continuous
 62
     2
370
     9
100
AcDbText
 10
-966.9814903872558
 20
-42.79380840303518
 30
0.0
 40
30.48
  1
3
 50
359.9999453584866
 41
0.9999999999999998
  7
ＭＳ ゴシック
100
AcDbText
  0
TEXT
  5
365
330
1F
100
AcDbEntity
  8
D-4
  6
Continuous
 62
     2
370
     9
100
AcDbText
 10
-1076.532997040088
 20
-477.0667271042045
 30
0.0
 40
30.48
  1
30
 41
1.0625
  7
ＭＳ ゴシック
100
AcDbText
  0
TEXT
  5
366
330
1F
100
AcDbEntity
  8
D-4
  6
Continuous
 62
     2
370
     9
100
AcDbText
 10
-969.916750339801
 20
-477.0667271042045
 30
0.0
 40
30.48
  1
34
 41
1.0625
  7
ＭＳ ゴシック
100
AcDbText
  0
TEXT
  5
367
330
1F
100
AcDbEntity
  8
D-4
  6
Continuous
 62
     2
370
     9
100
AcDbText
 10
-760.96700910979
 20
-346.8536561379682
 30
0.0
 40
30.48
  1
18
 50
90.00000250447789
 41
1.062500000000001
  7
ＭＳ ゴシック
100
AcDbText
  0
TEXT
  5
368
330
1F
100
AcDbEntity
  8
D-4
  6
Continuous
 62
     2
370
     9
100
AcDbText
 10
-761.9667458956786
 20
-473.7983411202683
 30
0.0
 40
30.48
  1
6.5
 50
90.00000250448076
 41
1.083333333333334
  7
ＭＳ ゴシック
100
AcDbText
  0
LINE
  5
369
330
1F
100
AcDbEntity
  8
D-5
  6
Continuous
 62
     7
370
     9
100
AcDbLine
 10
-1039.519095314138
 20
-279.4715500744581
 30
0.0
 11
-1025.70839871227
 21
-258.6336190375089
 31
0.0
  0
LINE
  5
36A
330
1F
100
AcDbEntity
  8
D-5
  6
Continuous
 62
     7
370
     9
100
AcDbLine
 10
-1039.519095314138
 20
-279.4715500744581
 30
0.0
 11
-1020.785419834249
 21
-262.917938319087
 31
0.0
  0
LINE
  5
36B
330
1F
100
AcDbEntity
  8
D-5
  6
Continuous
 62
     7
370
     9
100
AcDbLine
 10
-797.0201590821105
 20
-0.8542353988439544
 30
0.0
 11
-1039.519095314138
 21
-279.4715500744581
 31
0.0
  0
TEXT
  5
36C
330
1F
100
AcDbEntity
  8
D-5
  6
Continuous
 62
     7
370
     9
100
AcDbText
 10
-785.8060472320067
 20
-82.3767854381364
 30
0.0
 40
22.86
  1
ステンレス製受枠ＲＬ－１５
 50
359.9999368586928
 41
1.153846153846155
  7
ＭＳ ゴシック
100
AcDbText
  0
LINE
  5
36D
330
1F
100
AcDbEntity
  8
D-5
  6
Continuous
 62
     7
370
     9
100
AcDbLine
 10
-980.2828516047546
 20
-309.7675415337579
 30
0.0
 11
-966.4721550028869
 21
-288.9296104968087
 31
0.0
  0
LINE
  5
36E
330
1F
100
AcDbEntity
  8
D-5
  6
Continuous
 62
     7
370
     9
100
AcDbLine
 10
-980.2828516047546
 20
-309.7675415337579
 30
0.0
 11
-961.5491761248657
 21
-293.2139297783868
 31
0.0
  0
LINE
  5
36F
330
1F
100
AcDbEntity
  8
D-5
  6
Continuous
 62
     7
370
     9
100
AcDbLine
 10
-790.1934407569231
 20
-91.36575379140531
 30
0.0
 11
-980.2828516047546
 21
-309.7675415337579
 31
0.0
  0
LINE
  5
370
330
1F
100
AcDbEntity
  8
D-5
  6
Continuous
 62
     7
370
     9
100
AcDbLine
 10
-790.1934407569231
 20
-91.36575379140531
 30
0.0
 11
-335.596377058362
 21
-91.36575379140531
 31
0.0
  0
LINE
  5
371
330
1F
100
AcDbEntity
  8
D-5
  6
Continuous
 62
     7
370
     9
100
AcDbLine
 10
-787.6148737948486
 20
-172.5556650924858
 30
0.0
 11
-169.8764937758804
 21
-172.5556650924858
 31
0.0
  0
LINE
  5
372
330
1F
100
AcDbEntity
  8
D-6
  6
JWW_DASHED3
 62
     6
370
     9
100
AcDbLine
 10
-882.7831400912353
 20
-693.9364519882378
 30
0.0
 11
-882.7831400912353
 21
-580.6039324569876
 31
0.0
  0
LINE
  5
373
330
1F
100
AcDbEntity
  8
D-6
  6
JWW_DASHED3
 62
     6
370
     9
100
AcDbLine
 10
-837.7826823275634
 20
-580.6039324569876
 30
0.0
 11
-837.7826823275634
 21
-693.9364519882378
 31
0.0
  0
LINE
  5
374
330
1F
100
AcDbEntity
  8
D-6
  6
Continuous
 62
     6
370
     9
100
AcDbLine
 10
-882.7831400912353
 20
-580.6039324569876
 30
0.0
 11
-882.7831400912353
 21
-402.1031275558647
 31
0.0
  0
LINE
  5
375
330
1F
100
AcDbEntity
  8
D-6
  6
Continuous
 62
     6
370
     9
100
AcDbLine
 10
-837.7826823275634
 20
-580.6039324569876
 30
0.0
 11
-837.7826823275634
 21
-402.1031275558647
 31
0.0
  0
LINE
  5
376
330
1F
100
AcDbEntity
  8
D-6
  6
Continuous
 62
     6
370
     9
100
AcDbLine
 10
-882.7831400912353
 20
-338.1030932235893
 30
0.0
 11
-837.7826823275634
 21
-338.1030932235893
 31
0.0
  0
LINE
  5
377
330
1F
100
AcDbEntity
  8
D-6
  6
JWW_CENTER2
 62
     6
370
     9
100
AcDbLine
 10
-860.2829112093993
 20
-329.6394911575492
 30
0.0
 11
-860.2829112093993
 21
-693.9364519882378
 31
0.0
  0
LINE
  5
378
330
1F
100
AcDbEntity
  8
D-6
  6
Continuous
 62
     6
370
     9
100
AcDbLine
 10
-837.7826823275634
 20
-373.1030932235893
 30
0.0
 11
-837.7826823275634
 21
-338.1030932235893
 31
0.0
  0
LINE
  5
379
330
1F
100
AcDbEntity
  8
D-6
  6
Continuous
 62
     6
370
     9
100
AcDbLine
 10
-882.7831400912353
 20
-373.1030932235893
 30
0.0
 11
-882.7831400912353
 21
-338.1030932235893
 31
0.0
  0
TEXT
  5
37A
330
1F
100
AcDbEntity
  8
D-5
  6
Continuous
 62
     7
370
     9
100
AcDbText
 10
-773.970636276538
 20
-163.666775321978
 30
0.0
 40
22.86
  1
アンカー
 41
1.125
  7
ＭＳ ゴシック
100
AcDbText
  0
TEXT
  5
37B
330
1F
100
AcDbEntity
  8
D-5
  6
Continuous
 62
     7
370
     9
100
AcDbText
 10
-677.4971023836704
 20
-671.6421385984762
 30
0.0
 40
22.86
  1
差筋φ9程度
 41
1.136363636363636
  7
ＭＳ ゴシック
100
AcDbText
  0
LINE
  5
37C
330
1F
100
AcDbEntity
  8
D-5
  6
Continuous
 62
     7
370
     9
100
AcDbLine
 10
-677.9390541353794
 20
-683.3358799009665
 30
0.0
 11
-489.6148437725586
 21
-683.3358799009665
 31
0.0
  0
LINE
  5
37D
330
1F
100
AcDbEntity
  8
D-5
  6
Continuous
 62
     7
370
     9
100
AcDbLine
 10
-837.7826823275634
 20
-523.49225170878
 30
0.0
 11
-677.9390541353794
 21
-683.3358799009665
 31
0.0
  0
LINE
  5
37E
330
1F
100
AcDbEntity
  8
D-5
  6
Continuous
 62
     7
370
     9
100
AcDbLine
 10
-837.7826823275634
 20
-523.49225170878
 30
0.0
 11
-822.5636466023459
 21
-543.3260852160622
 31
0.0
  0
LINE
  5
37F
330
1F
100
AcDbEntity
  8
D-5
  6
Continuous
 62
     7
370
     9
100
AcDbLine
 10
-837.7826823275634
 20
-523.49225170878
 30
0.0
 11
-817.9488488202812
 21
-538.7112874339975
 31
0.0
  0
TEXT
  5
380
330
1F
100
AcDbEntity
  8
D-4
  6
Continuous
 62
     2
370
   211
100
AcDbText
 10
-1702.744035068013
 20
73.90288934757415
 30
0.0
 40
30.48
  1
□410
 41
1.1
  7
ＭＳ ゴシック
100
AcDbText
  0
LINE
  5
381
330
1F
100
AcDbEntity
  8
D-5
  6
Continuous
 62
     7
370
     9
100
AcDbLine
 10
-797.0201590821105
 20
-0.8542353988439544
 30
0.0
 11
59.48324836023318
 21
-0.8542353988439544
 31
0.0
  0
TEXT
  5
382
330
1F
100
AcDbEntity
  8
D-5
  6
Continuous
 62
     7
370
     9
100
AcDbText
 10
-773.970636276538
 20
-202.984697914141
 30
0.0
 40
22.86
  1
ｔ＝２．０（ＳＥＣＣまたはＳＧＨＣ）
 41
1.157407407407407
  7
ＭＳ ゴシック
100
AcDbText
  0
TEXT
  5
383
330
1F
100
AcDbEntity
  8
D-5
  6
Continuous
 62
     7
370
     9
100
AcDbText
 10
-792.8063498618033
 20
49.44220916002348
 30
0.0
 40
22.86
  1
ステンレス製　細目滑り止め模様付（ローレット模様）
 41
1.16
  7
ＭＳ ゴシック
100
AcDbText
  0
TEXT
  5
384
330
1F
100
AcDbEntity
  8
D-5
  6
Continuous
 62
     7
370
     9
100
AcDbText
 10
-792.806353476306
 20
11.66702657488905
 30
0.0
 40
22.86
  1
グレーチング（すきま9mm）ＺＱー１５
 50
0.00004895879748
 41
1.157142857142857
  7
ＭＳ ゴシック
100
AcDbText
  0
LINE
  5
385
330
1F
100
AcDbEntity
  8
C-A
  6
Continuous
 62
     3
370
     9
100
AcDbLine
 10
-1043.582773238947
 20
916.7526197130725
 30
0.0
 11
-643.5827732389471
 21
916.7526197130725
 31
0.0
  0
LINE
  5
386
330
1F
100
AcDbEntity
  8
C-2
  6
Continuous
 62
     3
370
     9
100
AcDbLine
 10
-1043.582773238947
 20
919.752619713072
 30
0.0
 11
-643.5827732389471
 21
919.752619713072
 31
0.0
  0
LINE
  5
387
330
1F
100
AcDbEntity
  8
C-1
  6
JWW_DASHED3
 62
     2
370
     9
100
AcDbLine
 10
-1018.582773238947
 20
894.752619713072
 30
0.0
 11
-668.5827732389473
 21
894.752619713072
 31
0.0
  0
LINE
  5
388
330
1F
100
AcDbEntity
  8
C-A
  6
Continuous
 62
     3
370
     9
100
AcDbLine
 10
-1043.582773238947
 20
519.752619713072
 30
0.0
 11
-1043.582773238947
 21
919.752619713072
 31
0.0
  0
LINE
  5
389
330
1F
100
AcDbEntity
  8
C-1
  6
JWW_DASHED3
 62
     2
370
     9
100
AcDbLine
 10
-1018.582773238947
 20
544.752619713072
 30
0.0
 11
-668.5827732389473
 21
544.752619713072
 31
0.0
  0
LINE
  5
38A
330
1F
100
AcDbEntity
  8
C-2
  6
Continuous
 62
     3
370
     9
100
AcDbLine
 10
-1043.582773238947
 20
519.752619713072
 30
0.0
 11
-643.5827732389471
 21
519.752619713072
 31
0.0
  0
LINE
  5
38B
330
1F
100
AcDbEntity
  8
C-2
  6
Continuous
 62
     3
370
     9
100
AcDbLine
 10
-643.5827732389471
 20
919.752619713072
 30
0.0
 11
-643.5827732389471
 21
519.752619713072
 31
0.0
  0
LINE
  5
38C
330
1F
100
AcDbEntity
  8
C-A
  6
Continuous
 62
     3
370
     9
100
AcDbLine
 10
-1035.582773238947
 20
823.352619713072
 30
0.0
 11
-1033.262773238947
 21
823.352619713072
 31
0.0
  0
LINE
  5
38D
330
1F
100
AcDbEntity
  8
C-A
  6
Continuous
 62
     3
370
     9
100
AcDbLine
 10
-1035.582773238947
 20
819.8026197130719
 30
0.0
 11
-1033.262773238947
 21
819.8026197130719
 31
0.0
  0
LINE
  5
38E
330
1F
100
AcDbEntity
  8
C-A
  6
Continuous
 62
     3
370
     9
100
AcDbLine
 10
-1035.582773238947
 20
816.2526197130717
 30
0.0
 11
-1033.262773238947
 21
816.2526197130717
 31
0.0
  0
LINE
  5
38F
330
1F
100
AcDbEntity
  8
C-A
  6
Continuous
 62
     3
370
     9
100
AcDbLine
 10
-1025.262773238947
 20
823.352619713072
 30
0.0
 11
-1016.382773238947
 21
823.352619713072
 31
0.0
  0
LINE
  5
390
330
1F
100
AcDbEntity
  8
C-A
  6
Continuous
 62
     3
370
     9
100
AcDbLine
 10
-1025.262773238947
 20
819.8026197130719
 30
0.0
 11
-1016.382773238947
 21
819.8026197130719
 31
0.0
  0
LINE
  5
391
330
1F
100
AcDbEntity
  8
C-A
  6
Continuous
 62
     3
370
     9
100
AcDbLine
 10
-1025.262773238947
 20
816.2526197130717
 30
0.0
 11
-1016.382773238947
 21
816.2526197130717
 31
0.0
  0
LINE
  5
392
330
1F
100
AcDbEntity
  8
C-A
  6
Continuous
 62
     3
370
     9
100
AcDbLine
 10
-1008.382773238947
 20
823.352619713072
 30
0.0
 11
-999.5027732389472
 21
823.352619713072
 31
0.0
  0
LINE
  5
393
330
1F
100
AcDbEntity
  8
C-A
  6
Continuous
 62
     3
370
     9
100
AcDbLine
 10
-1008.382773238947
 20
819.8026197130719
 30
0.0
 11
-999.5027732389472
 21
819.8026197130719
 31
0.0
  0
LINE
  5
394
330
1F
100
AcDbEntity
  8
C-A
  6
Continuous
 62
     3
370
     9
100
AcDbLine
 10
-1008.382773238947
 20
816.2526197130717
 30
0.0
 11
-999.5027732389472
 21
816.2526197130717
 31
0.0
  0
LINE
  5
395
330
1F
100
AcDbEntity
  8
C-A
  6
Continuous
 62
     3
370
     9
100
AcDbLine
 10
-991.5027732389469
 20
823.352619713072
 30
0.0
 11
-982.6227732389469
 21
823.352619713072
 31
0.0
  0
LINE
  5
396
330
1F
100
AcDbEntity
  8
C-A
  6
Continuous
 62
     3
370
     9
100
AcDbLine
 10
-991.5027732389469
 20
819.8026197130719
 30
0.0
 11
-982.6227732389469
 21
819.8026197130719
 31
0.0
  0
LINE
  5
397
330
1F
100
AcDbEntity
  8
C-A
  6
Continuous
 62
     3
370
     9
100
AcDbLine
 10
-991.5027732389469
 20
816.2526197130717
 30
0.0
 11
-982.6227732389469
 21
816.2526197130717
 31
0.0
  0
LINE
  5
398
330
1F
100
AcDbEntity
  8
C-A
  6
Continuous
 62
     3
370
     9
100
AcDbLine
 10
-974.622773238947
 20
823.352619713072
 30
0.0
 11
-965.742773238947
 21
823.352619713072
 31
0.0
  0
LINE
  5
399
330
1F
100
AcDbEntity
  8
C-A
  6
Continuous
 62
     3
370
     9
100
AcDbLine
 10
-974.622773238947
 20
819.8026197130719
 30
0.0
 11
-965.742773238947
 21
819.8026197130719
 31
0.0
  0
LINE
  5
39A
330
1F
100
AcDbEntity
  8
C-A
  6
Continuous
 62
     3
370
     9
100
AcDbLine
 10
-974.622773238947
 20
816.2526197130717
 30
0.0
 11
-965.742773238947
 21
816.2526197130717
 31
0.0
  0
LINE
  5
39B
330
1F
100
AcDbEntity
  8
C-A
  6
Continuous
 62
     3
370
     9
100
AcDbLine
 10
-957.7427732389469
 20
823.352619713072
 30
0.0
 11
-948.8627732389468
 21
823.352619713072
 31
0.0
  0
LINE
  5
39C
330
1F
100
AcDbEntity
  8
C-A
  6
Continuous
 62
     3
370
     9
100
AcDbLine
 10
-957.7427732389469
 20
819.8026197130719
 30
0.0
 11
-948.8627732389468
 21
819.8026197130719
 31
0.0
  0
LINE
  5
39D
330
1F
100
AcDbEntity
  8
C-A
  6
Continuous
 62
     3
370
     9
100
AcDbLine
 10
-957.7427732389469
 20
816.2526197130717
 30
0.0
 11
-948.8627732389468
 21
816.2526197130717
 31
0.0
  0
LINE
  5
39E
330
1F
100
AcDbEntity
  8
C-A
  6
Continuous
 62
     3
370
     9
100
AcDbLine
 10
-940.862773238947
 20
823.352619713072
 30
0.0
 11
-931.982773238947
 21
823.352619713072
 31
0.0
  0
LINE
  5
39F
330
1F
100
AcDbEntity
  8
C-A
  6
Continuous
 62
     3
370
     9
100
AcDbLine
 10
-940.862773238947
 20
819.8026197130719
 30
0.0
 11
-931.982773238947
 21
819.8026197130719
 31
0.0
  0
LINE
  5
3A0
330
1F
100
AcDbEntity
  8
C-A
  6
Continuous
 62
     3
370
     9
100
AcDbLine
 10
-940.862773238947
 20
816.2526197130717
 30
0.0
 11
-931.982773238947
 21
816.2526197130717
 31
0.0
  0
LINE
  5
3A1
330
1F
100
AcDbEntity
  8
C-A
  6
Continuous
 62
     3
370
     9
100
AcDbLine
 10
-923.982773238947
 20
823.352619713072
 30
0.0
 11
-915.1027732389468
 21
823.352619713072
 31
0.0
  0
LINE
  5
3A2
330
1F
100
AcDbEntity
  8
C-A
  6
Continuous
 62
     3
370
     9
100
AcDbLine
 10
-923.982773238947
 20
819.8026197130719
 30
0.0
 11
-915.1027732389468
 21
819.8026197130719
 31
0.0
  0
LINE
  5
3A3
330
1F
100
AcDbEntity
  8
C-A
  6
Continuous
 62
     3
370
     9
100
AcDbLine
 10
-923.982773238947
 20
816.2526197130717
 30
0.0
 11
-915.1027732389468
 21
816.2526197130717
 31
0.0
  0
LINE
  5
3A4
330
1F
100
AcDbEntity
  8
C-A
  6
Continuous
 62
     3
370
     9
100
AcDbLine
 10
-907.1027732389471
 20
823.352619713072
 30
0.0
 11
-898.222773238947
 21
823.352619713072
 31
0.0
  0
LINE
  5
3A5
330
1F
100
AcDbEntity
  8
C-A
  6
Continuous
 62
     3
370
     9
100
AcDbLine
 10
-907.1027732389471
 20
819.8026197130719
 30
0.0
 11
-898.222773238947
 21
819.8026197130719
 31
0.0
  0
LINE
  5
3A6
330
1F
100
AcDbEntity
  8
C-A
  6
Continuous
 62
     3
370
     9
100
AcDbLine
 10
-907.1027732389471
 20
816.2526197130717
 30
0.0
 11
-898.222773238947
 21
816.2526197130717
 31
0.0
  0
LINE
  5
3A7
330
1F
100
AcDbEntity
  8
C-A
  6
Continuous
 62
     3
370
     9
100
AcDbLine
 10
-890.2227732389468
 20
823.352619713072
 30
0.0
 11
-881.3427732389468
 21
823.352619713072
 31
0.0
  0
LINE
  5
3A8
330
1F
100
AcDbEntity
  8
C-A
  6
Continuous
 62
     3
370
     9
100
AcDbLine
 10
-890.2227732389468
 20
819.8026197130719
 30
0.0
 11
-881.3427732389468
 21
819.8026197130719
 31
0.0
  0
LINE
  5
3A9
330
1F
100
AcDbEntity
  8
C-A
  6
Continuous
 62
     3
370
     9
100
AcDbLine
 10
-890.2227732389468
 20
816.2526197130717
 30
0.0
 11
-881.3427732389468
 21
816.2526197130717
 31
0.0
  0
LINE
  5
3AA
330
1F
100
AcDbEntity
  8
C-A
  6
Continuous
 62
     3
370
     9
100
AcDbLine
 10
-873.342773238947
 20
823.352619713072
 30
0.0
 11
-864.462773238947
 21
823.352619713072
 31
0.0
  0
LINE
  5
3AB
330
1F
100
AcDbEntity
  8
C-A
  6
Continuous
 62
     3
370
     9
100
AcDbLine
 10
-873.342773238947
 20
819.8026197130719
 30
0.0
 11
-864.462773238947
 21
819.8026197130719
 31
0.0
  0
LINE
  5
3AC
330
1F
100
AcDbEntity
  8
C-A
  6
Continuous
 62
     3
370
     9
100
AcDbLine
 10
-873.342773238947
 20
816.2526197130717
 30
0.0
 11
-864.462773238947
 21
816.2526197130717
 31
0.0
  0
LINE
  5
3AD
330
1F
100
AcDbEntity
  8
C-A
  6
Continuous
 62
     3
370
     9
100
AcDbLine
 10
-856.4627732389467
 20
823.352619713072
 30
0.0
 11
-847.5827732389467
 21
823.352619713072
 31
0.0
  0
LINE
  5
3AE
330
1F
100
AcDbEntity
  8
C-A
  6
Continuous
 62
     3
370
     9
100
AcDbLine
 10
-856.4627732389467
 20
819.8026197130719
 30
0.0
 11
-847.5827732389467
 21
819.8026197130719
 31
0.0
  0
LINE
  5
3AF
330
1F
100
AcDbEntity
  8
C-A
  6
Continuous
 62
     3
370
     9
100
AcDbLine
 10
-856.4627732389467
 20
816.2526197130717
 30
0.0
 11
-847.5827732389467
 21
816.2526197130717
 31
0.0
  0
LINE
  5
3B0
330
1F
100
AcDbEntity
  8
C-A
  6
Continuous
 62
     3
370
     9
100
AcDbLine
 10
-839.5827732389469
 20
823.352619713072
 30
0.0
 11
-830.7027732389469
 21
823.352619713072
 31
0.0
  0
LINE
  5
3B1
330
1F
100
AcDbEntity
  8
C-A
  6
Continuous
 62
     3
370
     9
100
AcDbLine
 10
-839.5827732389469
 20
819.8026197130719
 30
0.0
 11
-830.7027732389469
 21
819.8026197130719
 31
0.0
  0
LINE
  5
3B2
330
1F
100
AcDbEntity
  8
C-A
  6
Continuous
 62
     3
370
     9
100
AcDbLine
 10
-839.5827732389469
 20
816.2526197130717
 30
0.0
 11
-830.7027732389469
 21
816.2526197130717
 31
0.0
  0
LINE
  5
3B3
330
1F
100
AcDbEntity
  8
C-A
  6
Continuous
 62
     3
370
     9
100
AcDbLine
 10
-822.7027732389467
 20
823.352619713072
 30
0.0
 11
-813.8227732389466
 21
823.352619713072
 31
0.0
  0
LINE
  5
3B4
330
1F
100
AcDbEntity
  8
C-A
  6
Continuous
 62
     3
370
     9
100
AcDbLine
 10
-822.7027732389467
 20
819.8026197130719
 30
0.0
 11
-813.8227732389466
 21
819.8026197130719
 31
0.0
  0
LINE
  5
3B5
330
1F
100
AcDbEntity
  8
C-A
  6
Continuous
 62
     3
370
     9
100
AcDbLine
 10
-822.7027732389467
 20
816.2526197130717
 30
0.0
 11
-813.8227732389466
 21
816.2526197130717
 31
0.0
  0
LINE
  5
3B6
330
1F
100
AcDbEntity
  8
C-A
  6
Continuous
 62
     3
370
     9
100
AcDbLine
 10
-805.8227732389469
 20
823.352619713072
 30
0.0
 11
-796.9427732389468
 21
823.352619713072
 31
0.0
  0
LINE
  5
3B7
330
1F
100
AcDbEntity
  8
C-A
  6
Continuous
 62
     3
370
     9
100
AcDbLine
 10
-805.8227732389469
 20
819.8026197130719
 30
0.0
 11
-796.9427732389468
 21
819.8026197130719
 31
0.0
  0
LINE
  5
3B8
330
1F
100
AcDbEntity
  8
C-A
  6
Continuous
 62
     3
370
     9
100
AcDbLine
 10
-805.8227732389469
 20
816.2526197130717
 30
0.0
 11
-796.9427732389468
 21
816.2526197130717
 31
0.0
  0
LINE
  5
3B9
330
1F
100
AcDbEntity
  8
C-A
  6
Continuous
 62
     3
370
     9
100
AcDbLine
 10
-788.9427732389468
 20
823.352619713072
 30
0.0
 11
-780.0627732389466
 21
823.352619713072
 31
0.0
  0
LINE
  5
3BA
330
1F
100
AcDbEntity
  8
C-A
  6
Continuous
 62
     3
370
     9
100
AcDbLine
 10
-788.9427732389468
 20
819.8026197130719
 30
0.0
 11
-780.0627732389466
 21
819.8026197130719
 31
0.0
  0
LINE
  5
3BB
330
1F
100
AcDbEntity
  8
C-A
  6
Continuous
 62
     3
370
     9
100
AcDbLine
 10
-788.9427732389468
 20
816.2526197130717
 30
0.0
 11
-780.0627732389466
 21
816.2526197130717
 31
0.0
  0
LINE
  5
3BC
330
1F
100
AcDbEntity
  8
C-A
  6
Continuous
 62
     3
370
     9
100
AcDbLine
 10
-772.0627732389469
 20
823.352619713072
 30
0.0
 11
-763.1827732389468
 21
823.352619713072
 31
0.0
  0
LINE
  5
3BD
330
1F
100
AcDbEntity
  8
C-A
  6
Continuous
 62
     3
370
     9
100
AcDbLine
 10
-772.0627732389469
 20
819.8026197130719
 30
0.0
 11
-763.1827732389468
 21
819.8026197130719
 31
0.0
  0
LINE
  5
3BE
330
1F
100
AcDbEntity
  8
C-A
  6
Continuous
 62
     3
370
     9
100
AcDbLine
 10
-772.0627732389469
 20
816.2526197130717
 30
0.0
 11
-763.1827732389468
 21
816.2526197130717
 31
0.0
  0
LINE
  5
3BF
330
1F
100
AcDbEntity
  8
C-A
  6
Continuous
 62
     3
370
     9
100
AcDbLine
 10
-755.1827732389467
 20
823.352619713072
 30
0.0
 11
-746.3027732389467
 21
823.352619713072
 31
0.0
  0
LINE
  5
3C0
330
1F
100
AcDbEntity
  8
C-A
  6
Continuous
 62
     3
370
     9
100
AcDbLine
 10
-755.1827732389467
 20
819.8026197130719
 30
0.0
 11
-746.3027732389467
 21
819.8026197130719
 31
0.0
  0
LINE
  5
3C1
330
1F
100
AcDbEntity
  8
C-A
  6
Continuous
 62
     3
370
     9
100
AcDbLine
 10
-755.1827732389467
 20
816.2526197130717
 30
0.0
 11
-746.3027732389467
 21
816.2526197130717
 31
0.0
  0
LINE
  5
3C2
330
1F
100
AcDbEntity
  8
C-A
  6
Continuous
 62
     3
370
     9
100
AcDbLine
 10
-738.3027732389468
 20
823.352619713072
 30
0.0
 11
-729.4227732389468
 21
823.352619713072
 31
0.0
  0
LINE
  5
3C3
330
1F
100
AcDbEntity
  8
C-A
  6
Continuous
 62
     3
370
     9
100
AcDbLine
 10
-738.3027732389468
 20
819.8026197130719
 30
0.0
 11
-729.4227732389468
 21
819.8026197130719
 31
0.0
  0
LINE
  5
3C4
330
1F
100
AcDbEntity
  8
C-A
  6
Continuous
 62
     3
370
     9
100
AcDbLine
 10
-738.3027732389468
 20
816.2526197130717
 30
0.0
 11
-729.4227732389468
 21
816.2526197130717
 31
0.0
  0
LINE
  5
3C5
330
1F
100
AcDbEntity
  8
C-A
  6
Continuous
 62
     3
370
     9
100
AcDbLine
 10
-721.4227732389465
 20
823.352619713072
 30
0.0
 11
-712.5427732389466
 21
823.352619713072
 31
0.0
  0
LINE
  5
3C6
330
1F
100
AcDbEntity
  8
C-A
  6
Continuous
 62
     3
370
     9
100
AcDbLine
 10
-721.4227732389465
 20
819.8026197130719
 30
0.0
 11
-712.5427732389466
 21
819.8026197130719
 31
0.0
  0
LINE
  5
3C7
330
1F
100
AcDbEntity
  8
C-A
  6
Continuous
 62
     3
370
     9
100
AcDbLine
 10
-721.4227732389465
 20
816.2526197130717
 30
0.0
 11
-712.5427732389466
 21
816.2526197130717
 31
0.0
  0
LINE
  5
3C8
330
1F
100
AcDbEntity
  8
C-A
  6
Continuous
 62
     3
370
     9
100
AcDbLine
 10
-704.5427732389467
 20
823.352619713072
 30
0.0
 11
-695.6627732389467
 21
823.352619713072
 31
0.0
  0
LINE
  5
3C9
330
1F
100
AcDbEntity
  8
C-A
  6
Continuous
 62
     3
370
     9
100
AcDbLine
 10
-704.5427732389467
 20
819.8026197130719
 30
0.0
 11
-695.6627732389467
 21
819.8026197130719
 31
0.0
  0
LINE
  5
3CA
330
1F
100
AcDbEntity
  8
C-A
  6
Continuous
 62
     3
370
     9
100
AcDbLine
 10
-704.5427732389467
 20
816.2526197130717
 30
0.0
 11
-695.6627732389467
 21
816.2526197130717
 31
0.0
  0
LINE
  5
3CB
330
1F
100
AcDbEntity
  8
C-A
  6
Continuous
 62
     3
370
     9
100
AcDbLine
 10
-687.6627732389466
 20
823.352619713072
 30
0.0
 11
-678.7827732389464
 21
823.352619713072
 31
0.0
  0
LINE
  5
3CC
330
1F
100
AcDbEntity
  8
C-A
  6
Continuous
 62
     3
370
     9
100
AcDbLine
 10
-687.6627732389466
 20
819.8026197130719
 30
0.0
 11
-678.7827732389464
 21
819.8026197130719
 31
0.0
  0
LINE
  5
3CD
330
1F
100
AcDbEntity
  8
C-A
  6
Continuous
 62
     3
370
     9
100
AcDbLine
 10
-687.6627732389466
 20
816.2526197130717
 30
0.0
 11
-678.7827732389464
 21
816.2526197130717
 31
0.0
  0
LINE
  5
3CE
330
1F
100
AcDbEntity
  8
C-A
  6
Continuous
 62
     3
370
     9
100
AcDbLine
 10
-670.7827732389467
 20
823.352619713072
 30
0.0
 11
-661.9027732389466
 21
823.352619713072
 31
0.0
  0
LINE
  5
3CF
330
1F
100
AcDbEntity
  8
C-A
  6
Continuous
 62
     3
370
     9
100
AcDbLine
 10
-670.7827732389467
 20
819.8026197130719
 30
0.0
 11
-661.9027732389466
 21
819.8026197130719
 31
0.0
  0
LINE
  5
3D0
330
1F
100
AcDbEntity
  8
C-A
  6
Continuous
 62
     3
370
     9
100
AcDbLine
 10
-670.7827732389467
 20
816.2526197130717
 30
0.0
 11
-661.9027732389466
 21
816.2526197130717
 31
0.0
  0
LINE
  5
3D1
330
1F
100
AcDbEntity
  8
C-A
  6
Continuous
 62
     3
370
     9
100
AcDbLine
 10
-651.5827732389471
 20
816.2526197130717
 30
0.0
 11
-653.9027732389466
 21
816.2526197130717
 31
0.0
  0
LINE
  5
3D2
330
1F
100
AcDbEntity
  8
C-A
  6
Continuous
 62
     3
370
     9
100
AcDbLine
 10
-651.5827732389471
 20
819.8026197130719
 30
0.0
 11
-653.9027732389466
 21
819.8026197130719
 31
0.0
  0
LINE
  5
3D3
330
1F
100
AcDbEntity
  8
C-A
  6
Continuous
 62
     3
370
     9
100
AcDbLine
 10
-651.5827732389471
 20
823.352619713072
 30
0.0
 11
-653.9027732389466
 21
823.352619713072
 31
0.0
  0
LINE
  5
3D4
330
1F
100
AcDbEntity
  8
C-A
  6
Continuous
 62
     3
370
     9
100
AcDbLine
 10
-1035.582773238947
 20
723.3526197130709
 30
0.0
 11
-1033.262773238947
 21
723.3526197130709
 31
0.0
  0
LINE
  5
3D5
330
1F
100
AcDbEntity
  8
C-A
  6
Continuous
 62
     3
370
     9
100
AcDbLine
 10
-1035.582773238947
 20
719.8026197130707
 30
0.0
 11
-1033.262773238947
 21
719.8026197130707
 31
0.0
  0
LINE
  5
3D6
330
1F
100
AcDbEntity
  8
C-A
  6
Continuous
 62
     3
370
     9
100
AcDbLine
 10
-1035.582773238947
 20
716.2526197130705
 30
0.0
 11
-1033.262773238947
 21
716.2526197130705
 31
0.0
  0
LINE
  5
3D7
330
1F
100
AcDbEntity
  8
C-A
  6
Continuous
 62
     3
370
     9
100
AcDbLine
 10
-1025.262773238947
 20
723.3526197130709
 30
0.0
 11
-1016.382773238947
 21
723.3526197130709
 31
0.0
  0
LINE
  5
3D8
330
1F
100
AcDbEntity
  8
C-A
  6
Continuous
 62
     3
370
     9
100
AcDbLine
 10
-1025.262773238947
 20
719.8026197130707
 30
0.0
 11
-1016.382773238947
 21
719.8026197130707
 31
0.0
  0
LINE
  5
3D9
330
1F
100
AcDbEntity
  8
C-A
  6
Continuous
 62
     3
370
     9
100
AcDbLine
 10
-1025.262773238947
 20
716.2526197130705
 30
0.0
 11
-1016.382773238947
 21
716.2526197130705
 31
0.0
  0
LINE
  5
3DA
330
1F
100
AcDbEntity
  8
C-A
  6
Continuous
 62
     3
370
     9
100
AcDbLine
 10
-1008.382773238947
 20
723.3526197130709
 30
0.0
 11
-999.5027732389472
 21
723.3526197130709
 31
0.0
  0
LINE
  5
3DB
330
1F
100
AcDbEntity
  8
C-A
  6
Continuous
 62
     3
370
     9
100
AcDbLine
 10
-1008.382773238947
 20
719.8026197130707
 30
0.0
 11
-999.5027732389472
 21
719.8026197130707
 31
0.0
  0
LINE
  5
3DC
330
1F
100
AcDbEntity
  8
C-A
  6
Continuous
 62
     3
370
     9
100
AcDbLine
 10
-1008.382773238947
 20
716.2526197130705
 30
0.0
 11
-999.5027732389472
 21
716.2526197130705
 31
0.0
  0
LINE
  5
3DD
330
1F
100
AcDbEntity
  8
C-A
  6
Continuous
 62
     3
370
     9
100
AcDbLine
 10
-991.5027732389469
 20
723.3526197130709
 30
0.0
 11
-982.6227732389469
 21
723.3526197130709
 31
0.0
  0
LINE
  5
3DE
330
1F
100
AcDbEntity
  8
C-A
  6
Continuous
 62
     3
370
     9
100
AcDbLine
 10
-991.5027732389469
 20
719.8026197130707
 30
0.0
 11
-982.6227732389469
 21
719.8026197130707
 31
0.0
  0
LINE
  5
3DF
330
1F
100
AcDbEntity
  8
C-A
  6
Continuous
 62
     3
370
     9
100
AcDbLine
 10
-991.5027732389469
 20
716.2526197130705
 30
0.0
 11
-982.6227732389469
 21
716.2526197130705
 31
0.0
  0
LINE
  5
3E0
330
1F
100
AcDbEntity
  8
C-A
  6
Continuous
 62
     3
370
     9
100
AcDbLine
 10
-974.622773238947
 20
723.3526197130709
 30
0.0
 11
-965.742773238947
 21
723.3526197130709
 31
0.0
  0
LINE
  5
3E1
330
1F
100
AcDbEntity
  8
C-A
  6
Continuous
 62
     3
370
     9
100
AcDbLine
 10
-974.622773238947
 20
719.8026197130707
 30
0.0
 11
-965.742773238947
 21
719.8026197130707
 31
0.0
  0
LINE
  5
3E2
330
1F
100
AcDbEntity
  8
C-A
  6
Continuous
 62
     3
370
     9
100
AcDbLine
 10
-974.622773238947
 20
716.2526197130705
 30
0.0
 11
-965.742773238947
 21
716.2526197130705
 31
0.0
  0
LINE
  5
3E3
330
1F
100
AcDbEntity
  8
C-A
  6
Continuous
 62
     3
370
     9
100
AcDbLine
 10
-957.7427732389469
 20
723.3526197130709
 30
0.0
 11
-948.8627732389468
 21
723.3526197130709
 31
0.0
  0
LINE
  5
3E4
330
1F
100
AcDbEntity
  8
C-A
  6
Continuous
 62
     3
370
     9
100
AcDbLine
 10
-957.7427732389469
 20
719.8026197130707
 30
0.0
 11
-948.8627732389468
 21
719.8026197130707
 31
0.0
  0
LINE
  5
3E5
330
1F
100
AcDbEntity
  8
C-A
  6
Continuous
 62
     3
370
     9
100
AcDbLine
 10
-957.7427732389469
 20
716.2526197130705
 30
0.0
 11
-948.8627732389468
 21
716.2526197130705
 31
0.0
  0
LINE
  5
3E6
330
1F
100
AcDbEntity
  8
C-A
  6
Continuous
 62
     3
370
     9
100
AcDbLine
 10
-940.862773238947
 20
723.3526197130709
 30
0.0
 11
-931.982773238947
 21
723.3526197130709
 31
0.0
  0
LINE
  5
3E7
330
1F
100
AcDbEntity
  8
C-A
  6
Continuous
 62
     3
370
     9
100
AcDbLine
 10
-940.862773238947
 20
719.8026197130707
 30
0.0
 11
-931.982773238947
 21
719.8026197130707
 31
0.0
  0
LINE
  5
3E8
330
1F
100
AcDbEntity
  8
C-A
  6
Continuous
 62
     3
370
     9
100
AcDbLine
 10
-940.862773238947
 20
716.2526197130705
 30
0.0
 11
-931.982773238947
 21
716.2526197130705
 31
0.0
  0
LINE
  5
3E9
330
1F
100
AcDbEntity
  8
C-A
  6
Continuous
 62
     3
370
     9
100
AcDbLine
 10
-923.982773238947
 20
723.3526197130709
 30
0.0
 11
-915.1027732389468
 21
723.3526197130709
 31
0.0
  0
LINE
  5
3EA
330
1F
100
AcDbEntity
  8
C-A
  6
Continuous
 62
     3
370
     9
100
AcDbLine
 10
-923.982773238947
 20
719.8026197130707
 30
0.0
 11
-915.1027732389468
 21
719.8026197130707
 31
0.0
  0
LINE
  5
3EB
330
1F
100
AcDbEntity
  8
C-A
  6
Continuous
 62
     3
370
     9
100
AcDbLine
 10
-923.982773238947
 20
716.2526197130705
 30
0.0
 11
-915.1027732389468
 21
716.2526197130705
 31
0.0
  0
LINE
  5
3EC
330
1F
100
AcDbEntity
  8
C-A
  6
Continuous
 62
     3
370
     9
100
AcDbLine
 10
-907.1027732389471
 20
723.3526197130709
 30
0.0
 11
-898.222773238947
 21
723.3526197130709
 31
0.0
  0
LINE
  5
3ED
330
1F
100
AcDbEntity
  8
C-A
  6
Continuous
 62
     3
370
     9
100
AcDbLine
 10
-907.1027732389471
 20
719.8026197130707
 30
0.0
 11
-898.222773238947
 21
719.8026197130707
 31
0.0
  0
LINE
  5
3EE
330
1F
100
AcDbEntity
  8
C-A
  6
Continuous
 62
     3
370
     9
100
AcDbLine
 10
-907.1027732389471
 20
716.2526197130705
 30
0.0
 11
-898.222773238947
 21
716.2526197130705
 31
0.0
  0
LINE
  5
3EF
330
1F
100
AcDbEntity
  8
C-A
  6
Continuous
 62
     3
370
     9
100
AcDbLine
 10
-890.2227732389468
 20
723.3526197130709
 30
0.0
 11
-881.3427732389468
 21
723.3526197130709
 31
0.0
  0
LINE
  5
3F0
330
1F
100
AcDbEntity
  8
C-A
  6
Continuous
 62
     3
370
     9
100
AcDbLine
 10
-890.2227732389468
 20
719.8026197130707
 30
0.0
 11
-881.3427732389468
 21
719.8026197130707
 31
0.0
  0
LINE
  5
3F1
330
1F
100
AcDbEntity
  8
C-A
  6
Continuous
 62
     3
370
     9
100
AcDbLine
 10
-890.2227732389468
 20
716.2526197130705
 30
0.0
 11
-881.3427732389468
 21
716.2526197130705
 31
0.0
  0
LINE
  5
3F2
330
1F
100
AcDbEntity
  8
C-A
  6
Continuous
 62
     3
370
     9
100
AcDbLine
 10
-873.342773238947
 20
723.3526197130709
 30
0.0
 11
-864.462773238947
 21
723.3526197130709
 31
0.0
  0
LINE
  5
3F3
330
1F
100
AcDbEntity
  8
C-A
  6
Continuous
 62
     3
370
     9
100
AcDbLine
 10
-873.342773238947
 20
719.8026197130707
 30
0.0
 11
-864.462773238947
 21
719.8026197130707
 31
0.0
  0
LINE
  5
3F4
330
1F
100
AcDbEntity
  8
C-A
  6
Continuous
 62
     3
370
     9
100
AcDbLine
 10
-873.342773238947
 20
716.2526197130705
 30
0.0
 11
-864.462773238947
 21
716.2526197130705
 31
0.0
  0
LINE
  5
3F5
330
1F
100
AcDbEntity
  8
C-A
  6
Continuous
 62
     3
370
     9
100
AcDbLine
 10
-856.4627732389467
 20
723.3526197130709
 30
0.0
 11
-847.5827732389467
 21
723.3526197130709
 31
0.0
  0
LINE
  5
3F6
330
1F
100
AcDbEntity
  8
C-A
  6
Continuous
 62
     3
370
     9
100
AcDbLine
 10
-856.4627732389467
 20
719.8026197130707
 30
0.0
 11
-847.5827732389467
 21
719.8026197130707
 31
0.0
  0
LINE
  5
3F7
330
1F
100
AcDbEntity
  8
C-A
  6
Continuous
 62
     3
370
     9
100
AcDbLine
 10
-856.4627732389467
 20
716.2526197130705
 30
0.0
 11
-847.5827732389467
 21
716.2526197130705
 31
0.0
  0
LINE
  5
3F8
330
1F
100
AcDbEntity
  8
C-A
  6
Continuous
 62
     3
370
     9
100
AcDbLine
 10
-839.5827732389469
 20
723.3526197130709
 30
0.0
 11
-830.7027732389469
 21
723.3526197130709
 31
0.0
  0
LINE
  5
3F9
330
1F
100
AcDbEntity
  8
C-A
  6
Continuous
 62
     3
370
     9
100
AcDbLine
 10
-839.5827732389469
 20
719.8026197130707
 30
0.0
 11
-830.7027732389469
 21
719.8026197130707
 31
0.0
  0
LINE
  5
3FA
330
1F
100
AcDbEntity
  8
C-A
  6
Continuous
 62
     3
370
     9
100
AcDbLine
 10
-839.5827732389469
 20
716.2526197130705
 30
0.0
 11
-830.7027732389469
 21
716.2526197130705
 31
0.0
  0
LINE
  5
3FB
330
1F
100
AcDbEntity
  8
C-A
  6
Continuous
 62
     3
370
     9
100
AcDbLine
 10
-822.7027732389467
 20
723.3526197130709
 30
0.0
 11
-813.8227732389466
 21
723.3526197130709
 31
0.0
  0
LINE
  5
3FC
330
1F
100
AcDbEntity
  8
C-A
  6
Continuous
 62
     3
370
     9
100
AcDbLine
 10
-822.7027732389467
 20
719.8026197130707
 30
0.0
 11
-813.8227732389466
 21
719.8026197130707
 31
0.0
  0
LINE
  5
3FD
330
1F
100
AcDbEntity
  8
C-A
  6
Continuous
 62
     3
370
     9
100
AcDbLine
 10
-822.7027732389467
 20
716.2526197130705
 30
0.0
 11
-813.8227732389466
 21
716.2526197130705
 31
0.0
  0
LINE
  5
3FE
330
1F
100
AcDbEntity
  8
C-A
  6
Continuous
 62
     3
370
     9
100
AcDbLine
 10
-805.8227732389469
 20
723.3526197130709
 30
0.0
 11
-796.9427732389468
 21
723.3526197130709
 31
0.0
  0
LINE
  5
3FF
330
1F
100
AcDbEntity
  8
C-A
  6
Continuous
 62
     3
370
     9
100
AcDbLine
 10
-805.8227732389469
 20
719.8026197130707
 30
0.0
 11
-796.9427732389468
 21
719.8026197130707
 31
0.0
  0
LINE
  5
400
330
1F
100
AcDbEntity
  8
C-A
  6
Continuous
 62
     3
370
     9
100
AcDbLine
 10
-805.8227732389469
 20
716.2526197130705
 30
0.0
 11
-796.9427732389468
 21
716.2526197130705
 31
0.0
  0
LINE
  5
401
330
1F
100
AcDbEntity
  8
C-A
  6
Continuous
 62
     3
370
     9
100
AcDbLine
 10
-788.9427732389468
 20
723.3526197130709
 30
0.0
 11
-780.0627732389466
 21
723.3526197130709
 31
0.0
  0
LINE
  5
402
330
1F
100
AcDbEntity
  8
C-A
  6
Continuous
 62
     3
370
     9
100
AcDbLine
 10
-788.9427732389468
 20
719.8026197130707
 30
0.0
 11
-780.0627732389466
 21
719.8026197130707
 31
0.0
  0
LINE
  5
403
330
1F
100
AcDbEntity
  8
C-A
  6
Continuous
 62
     3
370
     9
100
AcDbLine
 10
-788.9427732389468
 20
716.2526197130705
 30
0.0
 11
-780.0627732389466
 21
716.2526197130705
 31
0.0
  0
LINE
  5
404
330
1F
100
AcDbEntity
  8
C-A
  6
Continuous
 62
     3
370
     9
100
AcDbLine
 10
-772.0627732389469
 20
723.3526197130709
 30
0.0
 11
-763.1827732389468
 21
723.3526197130709
 31
0.0
  0
LINE
  5
405
330
1F
100
AcDbEntity
  8
C-A
  6
Continuous
 62
     3
370
     9
100
AcDbLine
 10
-772.0627732389469
 20
719.8026197130707
 30
0.0
 11
-763.1827732389468
 21
719.8026197130707
 31
0.0
  0
LINE
  5
406
330
1F
100
AcDbEntity
  8
C-A
  6
Continuous
 62
     3
370
     9
100
AcDbLine
 10
-772.0627732389469
 20
716.2526197130705
 30
0.0
 11
-763.1827732389468
 21
716.2526197130705
 31
0.0
  0
LINE
  5
407
330
1F
100
AcDbEntity
  8
C-A
  6
Continuous
 62
     3
370
     9
100
AcDbLine
 10
-755.1827732389467
 20
723.3526197130709
 30
0.0
 11
-746.3027732389467
 21
723.3526197130709
 31
0.0
  0
LINE
  5
408
330
1F
100
AcDbEntity
  8
C-A
  6
Continuous
 62
     3
370
     9
100
AcDbLine
 10
-755.1827732389467
 20
719.8026197130707
 30
0.0
 11
-746.3027732389467
 21
719.8026197130707
 31
0.0
  0
LINE
  5
409
330
1F
100
AcDbEntity
  8
C-A
  6
Continuous
 62
     3
370
     9
100
AcDbLine
 10
-1035.582773238947
 20
623.3426197130709
 30
0.0
 11
-1033.262773238947
 21
623.3426197130709
 31
0.0
  0
LINE
  5
40A
330
1F
100
AcDbEntity
  8
C-A
  6
Continuous
 62
     3
370
     9
100
AcDbLine
 10
-1035.582773238947
 20
619.7926197130707
 30
0.0
 11
-1033.262773238947
 21
619.7926197130707
 31
0.0
  0
LINE
  5
40B
330
1F
100
AcDbEntity
  8
C-A
  6
Continuous
 62
     3
370
     9
100
AcDbLine
 10
-1035.582773238947
 20
616.2426197130706
 30
0.0
 11
-1033.262773238947
 21
616.2426197130706
 31
0.0
  0
LINE
  5
40C
330
1F
100
AcDbEntity
  8
C-A
  6
Continuous
 62
     3
370
     9
100
AcDbLine
 10
-1025.262773238947
 20
623.3426197130709
 30
0.0
 11
-1016.382773238947
 21
623.3426197130709
 31
0.0
  0
LINE
  5
40D
330
1F
100
AcDbEntity
  8
C-A
  6
Continuous
 62
     3
370
     9
100
AcDbLine
 10
-1025.262773238947
 20
619.7926197130707
 30
0.0
 11
-1016.382773238947
 21
619.7926197130707
 31
0.0
  0
LINE
  5
40E
330
1F
100
AcDbEntity
  8
C-A
  6
Continuous
 62
     3
370
     9
100
AcDbLine
 10
-1025.262773238947
 20
616.2426197130706
 30
0.0
 11
-1016.382773238947
 21
616.2426197130706
 31
0.0
  0
LINE
  5
40F
330
1F
100
AcDbEntity
  8
C-A
  6
Continuous
 62
     3
370
     9
100
AcDbLine
 10
-1008.382773238947
 20
623.3426197130709
 30
0.0
 11
-999.5027732389472
 21
623.3426197130709
 31
0.0
  0
LINE
  5
410
330
1F
100
AcDbEntity
  8
C-A
  6
Continuous
 62
     3
370
     9
100
AcDbLine
 10
-1008.382773238947
 20
619.7926197130707
 30
0.0
 11
-999.5027732389472
 21
619.7926197130707
 31
0.0
  0
LINE
  5
411
330
1F
100
AcDbEntity
  8
C-A
  6
Continuous
 62
     3
370
     9
100
AcDbLine
 10
-1008.382773238947
 20
616.2426197130706
 30
0.0
 11
-999.5027732389472
 21
616.2426197130706
 31
0.0
  0
LINE
  5
412
330
1F
100
AcDbEntity
  8
C-A
  6
Continuous
 62
     3
370
     9
100
AcDbLine
 10
-991.5027732389469
 20
623.3426197130709
 30
0.0
 11
-982.6227732389469
 21
623.3426197130709
 31
0.0
  0
LINE
  5
413
330
1F
100
AcDbEntity
  8
C-A
  6
Continuous
 62
     3
370
     9
100
AcDbLine
 10
-991.5027732389469
 20
619.7926197130707
 30
0.0
 11
-982.6227732389469
 21
619.7926197130707
 31
0.0
  0
LINE
  5
414
330
1F
100
AcDbEntity
  8
C-A
  6
Continuous
 62
     3
370
     9
100
AcDbLine
 10
-991.5027732389469
 20
616.2426197130706
 30
0.0
 11
-982.6227732389469
 21
616.2426197130706
 31
0.0
  0
LINE
  5
415
330
1F
100
AcDbEntity
  8
C-A
  6
Continuous
 62
     3
370
     9
100
AcDbLine
 10
-974.622773238947
 20
623.3426197130709
 30
0.0
 11
-965.742773238947
 21
623.3426197130709
 31
0.0
  0
LINE
  5
416
330
1F
100
AcDbEntity
  8
C-A
  6
Continuous
 62
     3
370
     9
100
AcDbLine
 10
-974.622773238947
 20
619.7926197130707
 30
0.0
 11
-965.742773238947
 21
619.7926197130707
 31
0.0
  0
LINE
  5
417
330
1F
100
AcDbEntity
  8
C-A
  6
Continuous
 62
     3
370
     9
100
AcDbLine
 10
-974.622773238947
 20
616.2426197130706
 30
0.0
 11
-965.742773238947
 21
616.2426197130706
 31
0.0
  0
LINE
  5
418
330
1F
100
AcDbEntity
  8
C-A
  6
Continuous
 62
     3
370
     9
100
AcDbLine
 10
-957.7427732389469
 20
623.3426197130709
 30
0.0
 11
-948.8627732389468
 21
623.3426197130709
 31
0.0
  0
LINE
  5
419
330
1F
100
AcDbEntity
  8
C-A
  6
Continuous
 62
     3
370
     9
100
AcDbLine
 10
-957.7427732389469
 20
619.7926197130707
 30
0.0
 11
-948.8627732389468
 21
619.7926197130707
 31
0.0
  0
LINE
  5
41A
330
1F
100
AcDbEntity
  8
C-A
  6
Continuous
 62
     3
370
     9
100
AcDbLine
 10
-957.7427732389469
 20
616.2426197130706
 30
0.0
 11
-948.8627732389468
 21
616.2426197130706
 31
0.0
  0
LINE
  5
41B
330
1F
100
AcDbEntity
  8
C-A
  6
Continuous
 62
     3
370
     9
100
AcDbLine
 10
-940.862773238947
 20
623.3426197130709
 30
0.0
 11
-931.982773238947
 21
623.3426197130709
 31
0.0
  0
LINE
  5
41C
330
1F
100
AcDbEntity
  8
C-A
  6
Continuous
 62
     3
370
     9
100
AcDbLine
 10
-940.862773238947
 20
619.7926197130707
 30
0.0
 11
-931.982773238947
 21
619.7926197130707
 31
0.0
  0
LINE
  5
41D
330
1F
100
AcDbEntity
  8
C-A
  6
Continuous
 62
     3
370
     9
100
AcDbLine
 10
-940.862773238947
 20
616.2426197130706
 30
0.0
 11
-931.982773238947
 21
616.2426197130706
 31
0.0
  0
LINE
  5
41E
330
1F
100
AcDbEntity
  8
C-A
  6
Continuous
 62
     3
370
     9
100
AcDbLine
 10
-923.982773238947
 20
623.3426197130709
 30
0.0
 11
-915.1027732389468
 21
623.3426197130709
 31
0.0
  0
LINE
  5
41F
330
1F
100
AcDbEntity
  8
C-A
  6
Continuous
 62
     3
370
     9
100
AcDbLine
 10
-923.982773238947
 20
619.7926197130707
 30
0.0
 11
-915.1027732389468
 21
619.7926197130707
 31
0.0
  0
LINE
  5
420
330
1F
100
AcDbEntity
  8
C-A
  6
Continuous
 62
     3
370
     9
100
AcDbLine
 10
-923.982773238947
 20
616.2426197130706
 30
0.0
 11
-915.1027732389468
 21
616.2426197130706
 31
0.0
  0
LINE
  5
421
330
1F
100
AcDbEntity
  8
C-A
  6
Continuous
 62
     3
370
     9
100
AcDbLine
 10
-907.1027732389471
 20
623.3426197130709
 30
0.0
 11
-898.222773238947
 21
623.3426197130709
 31
0.0
  0
LINE
  5
422
330
1F
100
AcDbEntity
  8
C-A
  6
Continuous
 62
     3
370
     9
100
AcDbLine
 10
-907.1027732389471
 20
619.7926197130707
 30
0.0
 11
-898.222773238947
 21
619.7926197130707
 31
0.0
  0
LINE
  5
423
330
1F
100
AcDbEntity
  8
C-A
  6
Continuous
 62
     3
370
     9
100
AcDbLine
 10
-907.1027732389471
 20
616.2426197130706
 30
0.0
 11
-898.222773238947
 21
616.2426197130706
 31
0.0
  0
LINE
  5
424
330
1F
100
AcDbEntity
  8
C-A
  6
Continuous
 62
     3
370
     9
100
AcDbLine
 10
-890.2227732389468
 20
623.3426197130709
 30
0.0
 11
-881.3427732389468
 21
623.3426197130709
 31
0.0
  0
LINE
  5
425
330
1F
100
AcDbEntity
  8
C-A
  6
Continuous
 62
     3
370
     9
100
AcDbLine
 10
-890.2227732389468
 20
619.7926197130707
 30
0.0
 11
-881.3427732389468
 21
619.7926197130707
 31
0.0
  0
LINE
  5
426
330
1F
100
AcDbEntity
  8
C-A
  6
Continuous
 62
     3
370
     9
100
AcDbLine
 10
-890.2227732389468
 20
616.2426197130706
 30
0.0
 11
-881.3427732389468
 21
616.2426197130706
 31
0.0
  0
LINE
  5
427
330
1F
100
AcDbEntity
  8
C-A
  6
Continuous
 62
     3
370
     9
100
AcDbLine
 10
-873.342773238947
 20
623.3426197130709
 30
0.0
 11
-864.462773238947
 21
623.3426197130709
 31
0.0
  0
LINE
  5
428
330
1F
100
AcDbEntity
  8
C-A
  6
Continuous
 62
     3
370
     9
100
AcDbLine
 10
-873.342773238947
 20
619.7926197130707
 30
0.0
 11
-864.462773238947
 21
619.7926197130707
 31
0.0
  0
LINE
  5
429
330
1F
100
AcDbEntity
  8
C-A
  6
Continuous
 62
     3
370
     9
100
AcDbLine
 10
-873.342773238947
 20
616.2426197130706
 30
0.0
 11
-864.462773238947
 21
616.2426197130706
 31
0.0
  0
LINE
  5
42A
330
1F
100
AcDbEntity
  8
C-A
  6
Continuous
 62
     3
370
     9
100
AcDbLine
 10
-856.4627732389467
 20
623.3426197130709
 30
0.0
 11
-847.5827732389467
 21
623.3426197130709
 31
0.0
  0
LINE
  5
42B
330
1F
100
AcDbEntity
  8
C-A
  6
Continuous
 62
     3
370
     9
100
AcDbLine
 10
-856.4627732389467
 20
619.7926197130707
 30
0.0
 11
-847.5827732389467
 21
619.7926197130707
 31
0.0
  0
LINE
  5
42C
330
1F
100
AcDbEntity
  8
C-A
  6
Continuous
 62
     3
370
     9
100
AcDbLine
 10
-856.4627732389467
 20
616.2426197130706
 30
0.0
 11
-847.5827732389467
 21
616.2426197130706
 31
0.0
  0
LINE
  5
42D
330
1F
100
AcDbEntity
  8
C-A
  6
Continuous
 62
     3
370
     9
100
AcDbLine
 10
-1035.582773238947
 20
522.752619713072
 30
0.0
 11
-1035.582773238947
 21
916.7526197130725
 31
0.0
  0
LINE
  5
42E
330
1F
100
AcDbEntity
  8
C-A
  6
Continuous
 62
     3
370
     9
100
AcDbLine
 10
-940.862773238947
 20
522.752619713072
 30
0.0
 11
-940.862773238947
 21
916.7526197130725
 31
0.0
  0
LINE
  5
42F
330
1F
100
AcDbEntity
  8
C-A
  6
Continuous
 62
     3
370
     9
100
AcDbLine
 10
-1008.382773238947
 20
522.752619713072
 30
0.0
 11
-1008.382773238947
 21
916.7526197130725
 31
0.0
  0
LINE
  5
430
330
1F
100
AcDbEntity
  8
C-A
  6
Continuous
 62
     3
370
     9
100
AcDbLine
 10
-999.5027732389472
 20
522.752619713072
 30
0.0
 11
-999.5027732389472
 21
916.7526197130725
 31
0.0
  0
LINE
  5
431
330
1F
100
AcDbEntity
  8
C-A
  6
Continuous
 62
     3
370
     9
100
AcDbLine
 10
-991.5027732389469
 20
522.752619713072
 30
0.0
 11
-991.5027732389469
 21
916.7526197130725
 31
0.0
  0
LINE
  5
432
330
1F
100
AcDbEntity
  8
C-A
  6
Continuous
 62
     3
370
     9
100
AcDbLine
 10
-982.6227732389469
 20
522.752619713072
 30
0.0
 11
-982.6227732389469
 21
916.7526197130725
 31
0.0
  0
LINE
  5
433
330
1F
100
AcDbEntity
  8
C-A
  6
Continuous
 62
     3
370
     9
100
AcDbLine
 10
-974.622773238947
 20
522.752619713072
 30
0.0
 11
-974.622773238947
 21
916.7526197130725
 31
0.0
  0
LINE
  5
434
330
1F
100
AcDbEntity
  8
C-A
  6
Continuous
 62
     3
370
     9
100
AcDbLine
 10
-965.742773238947
 20
522.752619713072
 30
0.0
 11
-965.742773238947
 21
916.7526197130725
 31
0.0
  0
LINE
  5
435
330
1F
100
AcDbEntity
  8
C-A
  6
Continuous
 62
     3
370
     9
100
AcDbLine
 10
-957.7427732389469
 20
522.752619713072
 30
0.0
 11
-957.7427732389469
 21
916.7526197130725
 31
0.0
  0
LINE
  5
436
330
1F
100
AcDbEntity
  8
C-A
  6
Continuous
 62
     3
370
     9
100
AcDbLine
 10
-948.8627732389468
 20
522.752619713072
 30
0.0
 11
-948.8627732389468
 21
916.7526197130725
 31
0.0
  0
LINE
  5
437
330
1F
100
AcDbEntity
  8
C-A
  6
Continuous
 62
     3
370
     9
100
AcDbLine
 10
-1033.262773238947
 20
522.752619713072
 30
0.0
 11
-1033.262773238947
 21
916.7526197130725
 31
0.0
  0
LINE
  5
438
330
1F
100
AcDbEntity
  8
C-A
  6
Continuous
 62
     3
370
     9
100
AcDbLine
 10
-1025.262773238947
 20
522.752619713072
 30
0.0
 11
-1025.262773238947
 21
916.7526197130725
 31
0.0
  0
LINE
  5
439
330
1F
100
AcDbEntity
  8
C-A
  6
Continuous
 62
     3
370
     9
100
AcDbLine
 10
-1016.382773238947
 20
522.752619713072
 30
0.0
 11
-1016.382773238947
 21
916.7526197130725
 31
0.0
  0
LINE
  5
43A
330
1F
100
AcDbEntity
  8
C-1
  6
JWW_DASHED3
 62
     2
370
     9
100
AcDbLine
 10
-1018.582773238947
 20
894.752619713072
 30
0.0
 11
-1018.582773238947
 21
544.752619713072
 31
0.0
  0
LINE
  5
43B
330
1F
100
AcDbEntity
  8
C-A
  6
Continuous
 62
     3
370
     9
100
AcDbLine
 10
-931.982773238947
 20
522.752619713072
 30
0.0
 11
-931.982773238947
 21
916.7526197130725
 31
0.0
  0
LINE
  5
43C
330
1F
100
AcDbEntity
  8
C-A
  6
Continuous
 62
     3
370
     9
100
AcDbLine
 10
-923.982773238947
 20
522.752619713072
 30
0.0
 11
-923.982773238947
 21
916.7526197130725
 31
0.0
  0
LINE
  5
43D
330
1F
100
AcDbEntity
  8
C-A
  6
Continuous
 62
     3
370
     9
100
AcDbLine
 10
-915.1027732389468
 20
522.752619713072
 30
0.0
 11
-915.1027732389468
 21
916.7526197130725
 31
0.0
  0
LINE
  5
43E
330
1F
100
AcDbEntity
  8
C-A
  6
Continuous
 62
     3
370
     9
100
AcDbLine
 10
-907.1027732389471
 20
522.752619713072
 30
0.0
 11
-907.1027732389471
 21
916.7526197130725
 31
0.0
  0
LINE
  5
43F
330
1F
100
AcDbEntity
  8
C-A
  6
Continuous
 62
     3
370
     9
100
AcDbLine
 10
-898.222773238947
 20
522.752619713072
 30
0.0
 11
-898.222773238947
 21
916.7526197130725
 31
0.0
  0
LINE
  5
440
330
1F
100
AcDbEntity
  8
C-A
  6
Continuous
 62
     3
370
     9
100
AcDbLine
 10
-890.2227732389468
 20
522.752619713072
 30
0.0
 11
-890.2227732389468
 21
916.7526197130725
 31
0.0
  0
LINE
  5
441
330
1F
100
AcDbEntity
  8
C-A
  6
Continuous
 62
     3
370
     9
100
AcDbLine
 10
-881.3427732389468
 20
522.752619713072
 30
0.0
 11
-881.3427732389468
 21
916.7526197130725
 31
0.0
  0
LINE
  5
442
330
1F
100
AcDbEntity
  8
C-A
  6
Continuous
 62
     3
370
     9
100
AcDbLine
 10
-873.342773238947
 20
522.752619713072
 30
0.0
 11
-873.342773238947
 21
916.7526197130725
 31
0.0
  0
LINE
  5
443
330
1F
100
AcDbEntity
  8
C-A
  6
Continuous
 62
     3
370
     9
100
AcDbLine
 10
-864.462773238947
 20
522.752619713072
 30
0.0
 11
-864.462773238947
 21
916.7526197130725
 31
0.0
  0
LINE
  5
444
330
1F
100
AcDbEntity
  8
C-A
  6
Continuous
 62
     3
370
     9
100
AcDbLine
 10
-856.4627732389467
 20
522.752619713072
 30
0.0
 11
-856.4627732389467
 21
916.7526197130725
 31
0.0
  0
LINE
  5
445
330
1F
100
AcDbEntity
  8
C-A
  6
Continuous
 62
     3
370
     9
100
AcDbLine
 10
-847.5827732389467
 20
522.752619713072
 30
0.0
 11
-847.5827732389467
 21
916.7526197130725
 31
0.0
  0
LINE
  5
446
330
1F
100
AcDbEntity
  8
C-A
  6
Continuous
 62
     3
370
     9
100
AcDbLine
 10
-839.5827732389469
 20
522.752619713072
 30
0.0
 11
-839.5827732389469
 21
916.7526197130725
 31
0.0
  0
LINE
  5
447
330
1F
100
AcDbEntity
  8
C-A
  6
Continuous
 62
     3
370
     9
100
AcDbLine
 10
-830.7027732389469
 20
522.752619713072
 30
0.0
 11
-830.7027732389469
 21
916.7526197130725
 31
0.0
  0
LINE
  5
448
330
1F
100
AcDbEntity
  8
C-A
  6
Continuous
 62
     3
370
     9
100
AcDbLine
 10
-822.7027732389467
 20
522.752619713072
 30
0.0
 11
-822.7027732389467
 21
916.7526197130725
 31
0.0
  0
LINE
  5
449
330
1F
100
AcDbEntity
  8
C-A
  6
Continuous
 62
     3
370
     9
100
AcDbLine
 10
-813.8227732389466
 20
522.752619713072
 30
0.0
 11
-813.8227732389466
 21
916.7526197130725
 31
0.0
  0
LINE
  5
44A
330
1F
100
AcDbEntity
  8
C-A
  6
Continuous
 62
     3
370
     9
100
AcDbLine
 10
-805.8227732389469
 20
522.752619713072
 30
0.0
 11
-805.8227732389469
 21
916.7526197130725
 31
0.0
  0
LINE
  5
44B
330
1F
100
AcDbEntity
  8
C-A
  6
Continuous
 62
     3
370
     9
100
AcDbLine
 10
-796.9427732389468
 20
522.752619713072
 30
0.0
 11
-796.9427732389468
 21
916.7526197130725
 31
0.0
  0
LINE
  5
44C
330
1F
100
AcDbEntity
  8
C-A
  6
Continuous
 62
     3
370
     9
100
AcDbLine
 10
-788.9427732389468
 20
522.752619713072
 30
0.0
 11
-788.9427732389468
 21
916.7526197130725
 31
0.0
  0
LINE
  5
44D
330
1F
100
AcDbEntity
  8
C-A
  6
Continuous
 62
     3
370
     9
100
AcDbLine
 10
-780.0627732389466
 20
522.752619713072
 30
0.0
 11
-780.0627732389466
 21
916.7526197130725
 31
0.0
  0
LINE
  5
44E
330
1F
100
AcDbEntity
  8
C-A
  6
Continuous
 62
     3
370
     9
100
AcDbLine
 10
-772.0627732389469
 20
522.752619713072
 30
0.0
 11
-772.0627732389469
 21
916.7526197130725
 31
0.0
  0
LINE
  5
44F
330
1F
100
AcDbEntity
  8
C-A
  6
Continuous
 62
     3
370
     9
100
AcDbLine
 10
-763.1827732389468
 20
522.752619713072
 30
0.0
 11
-763.1827732389468
 21
916.7526197130725
 31
0.0
  0
LINE
  5
450
330
1F
100
AcDbEntity
  8
C-A
  6
Continuous
 62
     3
370
     9
100
AcDbLine
 10
-755.1827732389467
 20
522.752619713072
 30
0.0
 11
-755.1827732389467
 21
916.7526197130725
 31
0.0
  0
LINE
  5
451
330
1F
100
AcDbEntity
  8
C-A
  6
Continuous
 62
     3
370
     9
100
AcDbLine
 10
-738.3027732389468
 20
522.752619713072
 30
0.0
 11
-738.3027732389468
 21
916.7526197130725
 31
0.0
  0
LINE
  5
452
330
1F
100
AcDbEntity
  8
C-A
  6
Continuous
 62
     3
370
     9
100
AcDbLine
 10
-729.4227732389468
 20
522.752619713072
 30
0.0
 11
-729.4227732389468
 21
916.7526197130725
 31
0.0
  0
LINE
  5
453
330
1F
100
AcDbEntity
  8
C-A
  6
Continuous
 62
     3
370
     9
100
AcDbLine
 10
-721.4227732389465
 20
522.752619713072
 30
0.0
 11
-721.4227732389465
 21
916.7526197130725
 31
0.0
  0
LINE
  5
454
330
1F
100
AcDbEntity
  8
C-A
  6
Continuous
 62
     3
370
     9
100
AcDbLine
 10
-712.5427732389466
 20
522.752619713072
 30
0.0
 11
-712.5427732389466
 21
916.7526197130725
 31
0.0
  0
LINE
  5
455
330
1F
100
AcDbEntity
  8
C-A
  6
Continuous
 62
     3
370
     9
100
AcDbLine
 10
-704.5427732389467
 20
522.752619713072
 30
0.0
 11
-704.5427732389467
 21
916.7526197130725
 31
0.0
  0
LINE
  5
456
330
1F
100
AcDbEntity
  8
C-A
  6
Continuous
 62
     3
370
     9
100
AcDbLine
 10
-695.6627732389467
 20
522.752619713072
 30
0.0
 11
-695.6627732389467
 21
916.7526197130725
 31
0.0
  0
LINE
  5
457
330
1F
100
AcDbEntity
  8
C-A
  6
Continuous
 62
     3
370
     9
100
AcDbLine
 10
-687.6627732389466
 20
522.752619713072
 30
0.0
 11
-687.6627732389466
 21
916.7526197130725
 31
0.0
  0
LINE
  5
458
330
1F
100
AcDbEntity
  8
C-A
  6
Continuous
 62
     3
370
     9
100
AcDbLine
 10
-678.7827732389464
 20
522.752619713072
 30
0.0
 11
-678.7827732389464
 21
916.7526197130725
 31
0.0
  0
LINE
  5
459
330
1F
100
AcDbEntity
  8
C-A
  6
Continuous
 62
     3
370
     9
100
AcDbLine
 10
-670.7827732389467
 20
522.752619713072
 30
0.0
 11
-670.7827732389467
 21
916.7526197130725
 31
0.0
  0
LINE
  5
45A
330
1F
100
AcDbEntity
  8
C-A
  6
Continuous
 62
     3
370
     9
100
AcDbLine
 10
-661.9027732389466
 20
522.752619713072
 30
0.0
 11
-661.9027732389466
 21
916.7526197130725
 31
0.0
  0
LINE
  5
45B
330
1F
100
AcDbEntity
  8
C-A
  6
Continuous
 62
     3
370
     9
100
AcDbLine
 10
-653.9027732389466
 20
522.752619713072
 30
0.0
 11
-653.9027732389466
 21
916.7526197130725
 31
0.0
  0
LINE
  5
45C
330
1F
100
AcDbEntity
  8
C-2
  6
Continuous
 62
     3
370
     9
100
AcDbLine
 10
-1043.582773238947
 20
522.752619713072
 30
0.0
 11
-643.5827732389471
 21
522.752619713072
 31
0.0
  0
LINE
  5
45D
330
1F
100
AcDbEntity
  8
C-1
  6
JWW_DASHED3
 62
     2
370
     9
100
AcDbLine
 10
-668.5827732389473
 20
894.752619713072
 30
0.0
 11
-668.5827732389473
 21
544.752619713072
 31
0.0
  0
LINE
  5
45E
330
1F
100
AcDbEntity
  8
C-A
  6
Continuous
 62
     3
370
     9
100
AcDbLine
 10
-755.1827732389467
 20
716.2526197130705
 30
0.0
 11
-746.3027732389467
 21
716.2526197130705
 31
0.0
  0
LINE
  5
45F
330
1F
100
AcDbEntity
  8
C-A
  6
Continuous
 62
     3
370
     9
100
AcDbLine
 10
-746.3027732389467
 20
522.752619713072
 30
0.0
 11
-746.3027732389467
 21
916.7526197130725
 31
0.0
  0
LINE
  5
460
330
1F
100
AcDbEntity
  8
C-A
  6
Continuous
 62
     3
370
     9
100
AcDbLine
 10
-738.3027732389468
 20
723.3526197130709
 30
0.0
 11
-729.4227732389468
 21
723.3526197130709
 31
0.0
  0
LINE
  5
461
330
1F
100
AcDbEntity
  8
C-A
  6
Continuous
 62
     3
370
     9
100
AcDbLine
 10
-738.3027732389468
 20
719.8026197130707
 30
0.0
 11
-729.4227732389468
 21
719.8026197130707
 31
0.0
  0
LINE
  5
462
330
1F
100
AcDbEntity
  8
C-A
  6
Continuous
 62
     3
370
     9
100
AcDbLine
 10
-738.3027732389468
 20
716.2526197130705
 30
0.0
 11
-729.4227732389468
 21
716.2526197130705
 31
0.0
  0
LINE
  5
463
330
1F
100
AcDbEntity
  8
C-A
  6
Continuous
 62
     3
370
     9
100
AcDbLine
 10
-721.4227732389465
 20
723.3526197130709
 30
0.0
 11
-712.5427732389466
 21
723.3526197130709
 31
0.0
  0
LINE
  5
464
330
1F
100
AcDbEntity
  8
C-A
  6
Continuous
 62
     3
370
     9
100
AcDbLine
 10
-721.4227732389465
 20
719.8026197130707
 30
0.0
 11
-712.5427732389466
 21
719.8026197130707
 31
0.0
  0
LINE
  5
465
330
1F
100
AcDbEntity
  8
C-A
  6
Continuous
 62
     3
370
     9
100
AcDbLine
 10
-721.4227732389465
 20
716.2526197130705
 30
0.0
 11
-712.5427732389466
 21
716.2526197130705
 31
0.0
  0
LINE
  5
466
330
1F
100
AcDbEntity
  8
C-A
  6
Continuous
 62
     3
370
     9
100
AcDbLine
 10
-704.5427732389467
 20
723.3526197130709
 30
0.0
 11
-695.6627732389467
 21
723.3526197130709
 31
0.0
  0
LINE
  5
467
330
1F
100
AcDbEntity
  8
C-A
  6
Continuous
 62
     3
370
     9
100
AcDbLine
 10
-704.5427732389467
 20
719.8026197130707
 30
0.0
 11
-695.6627732389467
 21
719.8026197130707
 31
0.0
  0
LINE
  5
468
330
1F
100
AcDbEntity
  8
C-A
  6
Continuous
 62
     3
370
     9
100
AcDbLine
 10
-704.5427732389467
 20
716.2526197130705
 30
0.0
 11
-695.6627732389467
 21
716.2526197130705
 31
0.0
  0
LINE
  5
469
330
1F
100
AcDbEntity
  8
C-A
  6
Continuous
 62
     3
370
     9
100
AcDbLine
 10
-687.6627732389466
 20
723.3526197130709
 30
0.0
 11
-678.7827732389464
 21
723.3526197130709
 31
0.0
  0
LINE
  5
46A
330
1F
100
AcDbEntity
  8
C-A
  6
Continuous
 62
     3
370
     9
100
AcDbLine
 10
-687.6627732389466
 20
719.8026197130707
 30
0.0
 11
-678.7827732389464
 21
719.8026197130707
 31
0.0
  0
LINE
  5
46B
330
1F
100
AcDbEntity
  8
C-A
  6
Continuous
 62
     3
370
     9
100
AcDbLine
 10
-687.6627732389466
 20
716.2526197130705
 30
0.0
 11
-678.7827732389464
 21
716.2526197130705
 31
0.0
  0
LINE
  5
46C
330
1F
100
AcDbEntity
  8
C-A
  6
Continuous
 62
     3
370
     9
100
AcDbLine
 10
-670.7827732389467
 20
723.3526197130709
 30
0.0
 11
-661.9027732389466
 21
723.3526197130709
 31
0.0
  0
LINE
  5
46D
330
1F
100
AcDbEntity
  8
C-A
  6
Continuous
 62
     3
370
     9
100
AcDbLine
 10
-670.7827732389467
 20
719.8026197130707
 30
0.0
 11
-661.9027732389466
 21
719.8026197130707
 31
0.0
  0
LINE
  5
46E
330
1F
100
AcDbEntity
  8
C-A
  6
Continuous
 62
     3
370
     9
100
AcDbLine
 10
-670.7827732389467
 20
716.2526197130705
 30
0.0
 11
-661.9027732389466
 21
716.2526197130705
 31
0.0
  0
LINE
  5
46F
330
1F
100
AcDbEntity
  8
C-2
  6
Continuous
 62
     3
370
     9
100
AcDbLine
 10
-651.5827732389471
 20
522.752619713072
 30
0.0
 11
-651.5827732389471
 21
916.7526197130725
 31
0.0
  0
LINE
  5
470
330
1F
100
AcDbEntity
  8
C-A
  6
Continuous
 62
     3
370
     9
100
AcDbLine
 10
-653.9027732389466
 20
723.3526197130709
 30
0.0
 11
-651.5827732389471
 21
723.3526197130709
 31
0.0
  0
LINE
  5
471
330
1F
100
AcDbEntity
  8
C-A
  6
Continuous
 62
     3
370
     9
100
AcDbLine
 10
-653.9027732389466
 20
719.8026197130707
 30
0.0
 11
-651.5827732389471
 21
719.8026197130707
 31
0.0
  0
LINE
  5
472
330
1F
100
AcDbEntity
  8
C-A
  6
Continuous
 62
     3
370
     9
100
AcDbLine
 10
-653.9027732389466
 20
716.2526197130705
 30
0.0
 11
-651.5827732389471
 21
716.2526197130705
 31
0.0
  0
LINE
  5
473
330
1F
100
AcDbEntity
  8
C-A
  6
Continuous
 62
     3
370
     9
100
AcDbLine
 10
-839.5827732389469
 20
623.3426197130709
 30
0.0
 11
-830.7027732389469
 21
623.3426197130709
 31
0.0
  0
LINE
  5
474
330
1F
100
AcDbEntity
  8
C-A
  6
Continuous
 62
     3
370
     9
100
AcDbLine
 10
-839.5827732389469
 20
619.7926197130707
 30
0.0
 11
-830.7027732389469
 21
619.7926197130707
 31
0.0
  0
LINE
  5
475
330
1F
100
AcDbEntity
  8
C-A
  6
Continuous
 62
     3
370
     9
100
AcDbLine
 10
-839.5827732389469
 20
616.2426197130706
 30
0.0
 11
-830.7027732389469
 21
616.2426197130706
 31
0.0
  0
LINE
  5
476
330
1F
100
AcDbEntity
  8
C-A
  6
Continuous
 62
     3
370
     9
100
AcDbLine
 10
-822.7027732389467
 20
623.3426197130709
 30
0.0
 11
-813.8227732389466
 21
623.3426197130709
 31
0.0
  0
LINE
  5
477
330
1F
100
AcDbEntity
  8
C-A
  6
Continuous
 62
     3
370
     9
100
AcDbLine
 10
-822.7027732389467
 20
619.7926197130707
 30
0.0
 11
-813.8227732389466
 21
619.7926197130707
 31
0.0
  0
LINE
  5
478
330
1F
100
AcDbEntity
  8
C-A
  6
Continuous
 62
     3
370
     9
100
AcDbLine
 10
-822.7027732389467
 20
616.2426197130706
 30
0.0
 11
-813.8227732389466
 21
616.2426197130706
 31
0.0
  0
LINE
  5
479
330
1F
100
AcDbEntity
  8
C-A
  6
Continuous
 62
     3
370
     9
100
AcDbLine
 10
-805.8227732389469
 20
623.3426197130709
 30
0.0
 11
-796.9427732389468
 21
623.3426197130709
 31
0.0
  0
LINE
  5
47A
330
1F
100
AcDbEntity
  8
C-A
  6
Continuous
 62
     3
370
     9
100
AcDbLine
 10
-805.8227732389469
 20
619.7926197130707
 30
0.0
 11
-796.9427732389468
 21
619.7926197130707
 31
0.0
  0
LINE
  5
47B
330
1F
100
AcDbEntity
  8
C-A
  6
Continuous
 62
     3
370
     9
100
AcDbLine
 10
-805.8227732389469
 20
616.2426197130706
 30
0.0
 11
-796.9427732389468
 21
616.2426197130706
 31
0.0
  0
LINE
  5
47C
330
1F
100
AcDbEntity
  8
C-A
  6
Continuous
 62
     3
370
     9
100
AcDbLine
 10
-788.9427732389468
 20
623.3426197130709
 30
0.0
 11
-780.0627732389466
 21
623.3426197130709
 31
0.0
  0
LINE
  5
47D
330
1F
100
AcDbEntity
  8
C-A
  6
Continuous
 62
     3
370
     9
100
AcDbLine
 10
-788.9427732389468
 20
619.7926197130707
 30
0.0
 11
-780.0627732389466
 21
619.7926197130707
 31
0.0
  0
LINE
  5
47E
330
1F
100
AcDbEntity
  8
C-A
  6
Continuous
 62
     3
370
     9
100
AcDbLine
 10
-788.9427732389468
 20
616.2426197130706
 30
0.0
 11
-780.0627732389466
 21
616.2426197130706
 31
0.0
  0
LINE
  5
47F
330
1F
100
AcDbEntity
  8
C-A
  6
Continuous
 62
     3
370
     9
100
AcDbLine
 10
-772.0627732389469
 20
623.3426197130709
 30
0.0
 11
-763.1827732389468
 21
623.3426197130709
 31
0.0
  0
LINE
  5
480
330
1F
100
AcDbEntity
  8
C-A
  6
Continuous
 62
     3
370
     9
100
AcDbLine
 10
-772.0627732389469
 20
619.7926197130707
 30
0.0
 11
-763.1827732389468
 21
619.7926197130707
 31
0.0
  0
LINE
  5
481
330
1F
100
AcDbEntity
  8
C-A
  6
Continuous
 62
     3
370
     9
100
AcDbLine
 10
-772.0627732389469
 20
616.2426197130706
 30
0.0
 11
-763.1827732389468
 21
616.2426197130706
 31
0.0
  0
LINE
  5
482
330
1F
100
AcDbEntity
  8
C-A
  6
Continuous
 62
     3
370
     9
100
AcDbLine
 10
-755.1827732389467
 20
623.3426197130709
 30
0.0
 11
-746.3027732389467
 21
623.3426197130709
 31
0.0
  0
LINE
  5
483
330
1F
100
AcDbEntity
  8
C-A
  6
Continuous
 62
     3
370
     9
100
AcDbLine
 10
-755.1827732389467
 20
619.7926197130707
 30
0.0
 11
-746.3027732389467
 21
619.7926197130707
 31
0.0
  0
LINE
  5
484
330
1F
100
AcDbEntity
  8
C-A
  6
Continuous
 62
     3
370
     9
100
AcDbLine
 10
-755.1827732389467
 20
616.2426197130706
 30
0.0
 11
-746.3027732389467
 21
616.2426197130706
 31
0.0
  0
LINE
  5
485
330
1F
100
AcDbEntity
  8
C-A
  6
Continuous
 62
     3
370
     9
100
AcDbLine
 10
-738.3027732389468
 20
623.3426197130709
 30
0.0
 11
-729.4227732389468
 21
623.3426197130709
 31
0.0
  0
LINE
  5
486
330
1F
100
AcDbEntity
  8
C-A
  6
Continuous
 62
     3
370
     9
100
AcDbLine
 10
-738.3027732389468
 20
619.7926197130707
 30
0.0
 11
-729.4227732389468
 21
619.7926197130707
 31
0.0
  0
LINE
  5
487
330
1F
100
AcDbEntity
  8
C-A
  6
Continuous
 62
     3
370
     9
100
AcDbLine
 10
-738.3027732389468
 20
616.2426197130706
 30
0.0
 11
-729.4227732389468
 21
616.2426197130706
 31
0.0
  0
LINE
  5
488
330
1F
100
AcDbEntity
  8
C-A
  6
Continuous
 62
     3
370
     9
100
AcDbLine
 10
-721.4227732389465
 20
623.3426197130709
 30
0.0
 11
-712.5427732389466
 21
623.3426197130709
 31
0.0
  0
LINE
  5
489
330
1F
100
AcDbEntity
  8
C-A
  6
Continuous
 62
     3
370
     9
100
AcDbLine
 10
-721.4227732389465
 20
619.7926197130707
 30
0.0
 11
-712.5427732389466
 21
619.7926197130707
 31
0.0
  0
LINE
  5
48A
330
1F
100
AcDbEntity
  8
C-A
  6
Continuous
 62
     3
370
     9
100
AcDbLine
 10
-721.4227732389465
 20
616.2426197130706
 30
0.0
 11
-712.5427732389466
 21
616.2426197130706
 31
0.0
  0
LINE
  5
48B
330
1F
100
AcDbEntity
  8
C-A
  6
Continuous
 62
     3
370
     9
100
AcDbLine
 10
-704.5427732389467
 20
623.3426197130709
 30
0.0
 11
-695.6627732389467
 21
623.3426197130709
 31
0.0
  0
LINE
  5
48C
330
1F
100
AcDbEntity
  8
C-A
  6
Continuous
 62
     3
370
     9
100
AcDbLine
 10
-704.5427732389467
 20
619.7926197130707
 30
0.0
 11
-695.6627732389467
 21
619.7926197130707
 31
0.0
  0
LINE
  5
48D
330
1F
100
AcDbEntity
  8
C-A
  6
Continuous
 62
     3
370
     9
100
AcDbLine
 10
-704.5427732389467
 20
616.2426197130706
 30
0.0
 11
-695.6627732389467
 21
616.2426197130706
 31
0.0
  0
LINE
  5
48E
330
1F
100
AcDbEntity
  8
C-A
  6
Continuous
 62
     3
370
     9
100
AcDbLine
 10
-687.6627732389466
 20
623.3426197130709
 30
0.0
 11
-678.7827732389464
 21
623.3426197130709
 31
0.0
  0
LINE
  5
48F
330
1F
100
AcDbEntity
  8
C-A
  6
Continuous
 62
     3
370
     9
100
AcDbLine
 10
-687.6627732389466
 20
619.7926197130707
 30
0.0
 11
-678.7827732389464
 21
619.7926197130707
 31
0.0
  0
LINE
  5
490
330
1F
100
AcDbEntity
  8
C-A
  6
Continuous
 62
     3
370
     9
100
AcDbLine
 10
-687.6627732389466
 20
616.2426197130706
 30
0.0
 11
-678.7827732389464
 21
616.2426197130706
 31
0.0
  0
LINE
  5
491
330
1F
100
AcDbEntity
  8
C-A
  6
Continuous
 62
     3
370
     9
100
AcDbLine
 10
-670.7827732389467
 20
623.3426197130709
 30
0.0
 11
-661.9027732389466
 21
623.3426197130709
 31
0.0
  0
LINE
  5
492
330
1F
100
AcDbEntity
  8
C-A
  6
Continuous
 62
     3
370
     9
100
AcDbLine
 10
-670.7827732389467
 20
619.7926197130707
 30
0.0
 11
-661.9027732389466
 21
619.7926197130707
 31
0.0
  0
LINE
  5
493
330
1F
100
AcDbEntity
  8
C-A
  6
Continuous
 62
     3
370
     9
100
AcDbLine
 10
-670.7827732389467
 20
616.2426197130706
 30
0.0
 11
-661.9027732389466
 21
616.2426197130706
 31
0.0
  0
LINE
  5
494
330
1F
100
AcDbEntity
  8
C-A
  6
Continuous
 62
     3
370
     9
100
AcDbLine
 10
-653.9027732389466
 20
623.3426197130709
 30
0.0
 11
-651.5827732389471
 21
623.3426197130709
 31
0.0
  0
LINE
  5
495
330
1F
100
AcDbEntity
  8
C-A
  6
Continuous
 62
     3
370
     9
100
AcDbLine
 10
-653.9027732389466
 20
619.7926197130707
 30
0.0
 11
-651.5827732389471
 21
619.7926197130707
 31
0.0
  0
LINE
  5
496
330
1F
100
AcDbEntity
  8
C-A
  6
Continuous
 62
     3
370
     9
100
AcDbLine
 10
-653.9027732389466
 20
616.2426197130706
 30
0.0
 11
-651.5827732389471
 21
616.2426197130706
 31
0.0
  0
LINE
  5
497
330
1F
100
AcDbEntity
  8
C-1
  6
Continuous
 62
     2
370
     9
100
AcDbLine
 10
-1048.582773238947
 20
924.7526197130724
 30
0.0
 11
-638.5827732389472
 21
924.7526197130724
 31
0.0
  0
LINE
  5
498
330
1F
100
AcDbEntity
  8
C-1
  6
Continuous
 62
     2
370
     9
100
AcDbLine
 10
-1045.582773238947
 20
921.7526197130722
 30
0.0
 11
-641.5827732389471
 21
921.7526197130722
 31
0.0
  0
LINE
  5
499
330
1F
100
AcDbEntity
  8
C-1
  6
Continuous
 62
     2
370
     9
100
AcDbLine
 10
-1048.582773238947
 20
514.7526197130718
 30
0.0
 11
-1048.582773238947
 21
924.7526197130724
 31
0.0
  0
LINE
  5
49A
330
1F
100
AcDbEntity
  8
C-1
  6
Continuous
 62
     2
370
     9
100
AcDbLine
 10
-1045.582773238947
 20
517.7526197130718
 30
0.0
 11
-1045.582773238947
 21
921.7526197130722
 31
0.0
  0
LINE
  5
49B
330
1F
100
AcDbEntity
  8
C-1
  6
Continuous
 62
     2
370
     9
100
AcDbLine
 10
-641.5827732389471
 20
517.7526197130718
 30
0.0
 11
-1045.582773238947
 21
517.7526197130718
 31
0.0
  0
LINE
  5
49C
330
1F
100
AcDbEntity
  8
C-1
  6
Continuous
 62
     2
370
     9
100
AcDbLine
 10
-641.5827732389471
 20
517.7526197130718
 30
0.0
 11
-641.5827732389471
 21
921.7526197130722
 31
0.0
  0
LINE
  5
49D
330
1F
100
AcDbEntity
  8
C-1
  6
Continuous
 62
     2
370
     9
100
AcDbLine
 10
-638.5827732389472
 20
514.7526197130718
 30
0.0
 11
-1048.582773238947
 21
514.7526197130718
 31
0.0
  0
LINE
  5
49E
330
1F
100
AcDbEntity
  8
C-1
  6
Continuous
 62
     2
370
     9
100
AcDbLine
 10
-638.5827732389472
 20
514.7526197130718
 30
0.0
 11
-638.5827732389472
 21
924.7526197130724
 31
0.0
  0
LINE
  5
49F
330
1F
100
AcDbEntity
  8
C-9
  6
Continuous
 62
     3
370
     9
100
AcDbLine
 10
-939.8335518495907
 20
509.7523985441968
 30
0.0
 11
-941.0835518495907
 21
509.7523985441968
 31
0.0
  0
LINE
  5
4A0
330
1F
100
AcDbEntity
  8
C-9
  6
Continuous
 62
     3
370
     9
100
AcDbLine
 10
-939.8335518495907
 20
509.7523985441968
 30
0.0
 11
-939.8335518495907
 21
480.7524138029886
 31
0.0
  0
LINE
  5
4A1
330
1F
100
AcDbEntity
  8
C-9
  6
Continuous
 62
     3
370
     9
100
AcDbLine
 10
-941.0881905214643
 20
513.7524138029859
 30
0.0
 11
-940.5750069277138
 21
513.7524138029859
 31
0.0
  0
LINE
  5
4A2
330
1F
100
AcDbEntity
  8
C-9
  6
Continuous
 62
     3
370
     9
100
AcDbLine
 10
-956.5834297792782
 20
513.7524138029859
 30
0.0
 11
-956.0834908144335
 21
513.7524138029859
 31
0.0
  0
LINE
  5
4A3
330
1F
100
AcDbEntity
  8
C-9
  6
Continuous
 62
     3
370
     9
100
AcDbLine
 10
-957.3336128847455
 20
509.7523985441968
 30
0.0
 11
-956.0836128847455
 21
509.7523985441968
 31
0.0
  0
LINE
  5
4A4
330
1F
100
AcDbEntity
  8
C-9
  6
Continuous
 62
     3
370
     9
100
AcDbLine
 10
-957.3336128847455
 20
509.7523985441968
 30
0.0
 11
-957.3336128847455
 21
480.7524138029886
 31
0.0
  0
LINE
  5
4A5
330
1F
100
AcDbEntity
  8
C-9
  6
Continuous
 62
     3
370
     9
100
AcDbLine
 10
-939.8335518495907
 20
480.7524138029886
 30
0.0
 11
-957.3336128847455
 21
480.7524138029886
 31
0.0
  0
LINE
  5
4A6
330
1F
100
AcDbEntity
  8
C-9
  6
JWW_DASHED2
 62
     3
370
     9
100
AcDbLine
 10
-941.8335518495888
 20
509.8983030852152
 30
0.0
 11
-941.8335518495888
 21
480.7524138029886
 31
0.0
  0
LINE
  5
4A7
330
1F
100
AcDbEntity
  8
C-9
  6
JWW_DASHED2
 62
     3
370
     9
100
AcDbLine
 10
-955.3335518495902
 20
509.8983030852152
 30
0.0
 11
-955.3335518495902
 21
480.7524138029886
 31
0.0
  0
LINE
  5
4A8
330
1F
100
AcDbEntity
  8
C-9
  6
JWW_CENTER2
 62
     7
370
     9
100
AcDbLine
 10
-954.3595528261523
 20
490.7524595793531
 30
0.0
 11
-942.8074898378719
 21
490.7524595793531
 31
0.0
  0
LINE
  5
4A9
330
1F
100
AcDbEntity
  8
C-9
  6
JWW_CENTER2
 62
     7
370
     9
100
AcDbLine
 10
-948.5834908144335
 20
523.2205839690051
 30
0.0
 11
-948.5834908144335
 21
475.8201933440024
 31
0.0
  0
ARC
  5
4AA
330
1F
100
AcDbEntity
  8
C-9
  6
Continuous
 62
     3
370
     9
100
AcDbCircle
 10
-940.583490814434
 20
515.7523832854077
 30
0.0
 40
1.999999642372131
100
AcDbArc
 50
270.2416229248047
 51
330.0007171630859
  0
ARC
  5
4AB
330
1F
100
AcDbEntity
  8
C-9
  6
Continuous
 62
     3
370
     9
100
AcDbCircle
 10
-941.0835518495907
 20
511.7524138029877
 30
0.0
 40
1.999999642372131
100
AcDbArc
 50
90.13328552246094
 51
270.0
  0
ARC
  5
4AC
330
1F
100
AcDbEntity
  8
C-9
  6
Continuous
 62
     3
370
     9
100
AcDbCircle
 10
-956.5834297792782
 20
515.7523832854077
 30
0.0
 40
1.999999642372131
100
AcDbArc
 50
209.99951171875
 51
269.7240295410156
  0
ARC
  5
4AD
330
1F
100
AcDbEntity
  8
C-9
  6
Continuous
 62
     3
370
     9
100
AcDbCircle
 10
-956.0836128847455
 20
511.7524138029877
 30
0.0
 40
1.999999642372131
100
AcDbArc
 50
270.0
 51
90.0
  0
CIRCLE
  5
4AE
330
1F
100
AcDbEntity
  8
C-9
  6
Continuous
 62
     3
370
     9
100
AcDbCircle
 10
-948.5834908144335
 20
490.7524595793531
 30
0.0
 40
4.249999523162842
  0
LINE
  5
4AF
330
1F
100
AcDbEntity
  8
C-9
  6
Continuous
 62
     3
370
     9
100
AcDbLine
 10
-939.8335518495907
 20
929.7528499418514
 30
0.0
 11
-941.0835518495907
 21
929.7528499418514
 31
0.0
  0
LINE
  5
4B0
330
1F
100
AcDbEntity
  8
C-9
  6
Continuous
 62
     3
370
     9
100
AcDbLine
 10
-939.8335518495907
 20
929.7528499418514
 30
0.0
 11
-939.8335518495907
 21
958.7528342062252
 31
0.0
  0
LINE
  5
4B1
330
1F
100
AcDbEntity
  8
C-9
  6
Continuous
 62
     3
370
     9
100
AcDbLine
 10
-941.0881905214643
 20
925.7528365904092
 30
0.0
 11
-940.5750069277138
 21
925.7528365904092
 31
0.0
  0
LINE
  5
4B2
330
1F
100
AcDbEntity
  8
C-9
  6
Continuous
 62
     3
370
     9
100
AcDbLine
 10
-956.5834297792782
 20
925.7528365904092
 30
0.0
 11
-956.0834908144335
 21
925.7528365904092
 31
0.0
  0
LINE
  5
4B3
330
1F
100
AcDbEntity
  8
C-9
  6
Continuous
 62
     3
370
     9
100
AcDbLine
 10
-957.3336128847455
 20
929.7528499418514
 30
0.0
 11
-956.0836128847455
 21
929.7528499418514
 31
0.0
  0
LINE
  5
4B4
330
1F
100
AcDbEntity
  8
C-9
  6
Continuous
 62
     3
370
     9
100
AcDbLine
 10
-957.3336128847455
 20
929.7528499418514
 30
0.0
 11
-957.3336128847455
 21
958.7528342062252
 31
0.0
  0
LINE
  5
4B5
330
1F
100
AcDbEntity
  8
C-9
  6
Continuous
 62
     3
370
     9
100
AcDbLine
 10
-939.8335518495907
 20
958.7528342062252
 30
0.0
 11
-957.3336128847455
 21
958.7528342062252
 31
0.0
  0
LINE
  5
4B6
330
1F
100
AcDbEntity
  8
C-9
  6
JWW_DASHED2
 62
     3
370
     9
100
AcDbLine
 10
-941.8335518495888
 20
929.6069344335798
 30
0.0
 11
-941.8335518495888
 21
958.7528342062252
 31
0.0
  0
LINE
  5
4B7
330
1F
100
AcDbEntity
  8
C-9
  6
JWW_DASHED2
 62
     3
370
     9
100
AcDbLine
 10
-955.3335518495902
 20
929.6069344335798
 30
0.0
 11
-955.3335518495902
 21
958.7528342062252
 31
0.0
  0
LINE
  5
4B8
330
1F
100
AcDbEntity
  8
C-9
  6
JWW_CENTER2
 62
     7
370
     9
100
AcDbLine
 10
-954.3595528261523
 20
948.7527884298562
 30
0.0
 11
-942.8074898378719
 21
948.7527884298562
 31
0.0
  0
LINE
  5
4B9
330
1F
100
AcDbEntity
  8
C-9
  6
JWW_CENTER2
 62
     7
370
     9
100
AcDbLine
 10
-948.5834908144335
 20
916.2846554571389
 30
0.0
 11
-948.5834908144335
 21
963.6850546652091
 31
0.0
  0
ARC
  5
4BA
330
1F
100
AcDbEntity
  8
C-9
  6
Continuous
 62
     3
370
     9
100
AcDbCircle
 10
-940.583490814434
 20
923.7528547102216
 30
0.0
 40
1.999999642372131
100
AcDbArc
 50
29.99926757812499
 51
89.75836181640622
  0
ARC
  5
4BB
330
1F
100
AcDbEntity
  8
C-9
  6
Continuous
 62
     3
370
     9
100
AcDbCircle
 10
-941.0835518495907
 20
927.7528308683646
 30
0.0
 40
1.999999642372131
100
AcDbArc
 50
90.0
 51
269.86669921875
  0
ARC
  5
4BC
330
1F
100
AcDbEntity
  8
C-9
  6
Continuous
 62
     3
370
     9
100
AcDbCircle
 10
-956.5834297792782
 20
923.7528547102216
 30
0.0
 40
1.999999642372131
100
AcDbArc
 50
90.27595520019531
 51
150.0004730224609
  0
ARC
  5
4BD
330
1F
100
AcDbEntity
  8
C-9
  6
Continuous
 62
     3
370
     9
100
AcDbCircle
 10
-956.0836128847455
 20
927.7528308683646
 30
0.0
 40
1.999999642372131
100
AcDbArc
 50
270.0
 51
90.0
  0
CIRCLE
  5
4BE
330
1F
100
AcDbEntity
  8
C-9
  6
Continuous
 62
     3
370
     9
100
AcDbCircle
 10
-948.5834908144335
 20
948.7527884298562
 30
0.0
 40
4.249999523162842
  0
LINE
  5
4BF
330
1F
100
AcDbEntity
  8
C-9
  6
Continuous
 62
     3
370
     9
100
AcDbLine
 10
-729.8321166986187
 20
509.7523985441968
 30
0.0
 11
-731.0821166986187
 21
509.7523985441968
 31
0.0
  0
LINE
  5
4C0
330
1F
100
AcDbEntity
  8
C-9
  6
Continuous
 62
     3
370
     9
100
AcDbLine
 10
-729.8321166986187
 20
509.7523985441968
 30
0.0
 11
-729.8321166986187
 21
480.7524138029886
 31
0.0
  0
LINE
  5
4C1
330
1F
100
AcDbEntity
  8
C-9
  6
Continuous
 62
     3
370
     9
100
AcDbLine
 10
-731.0867553704924
 20
513.7524138029859
 30
0.0
 11
-730.5735717767419
 21
513.7524138029859
 31
0.0
  0
LINE
  5
4C2
330
1F
100
AcDbEntity
  8
C-9
  6
Continuous
 62
     3
370
     9
100
AcDbLine
 10
-746.5819946283062
 20
513.7524138029859
 30
0.0
 11
-746.0820556634616
 21
513.7524138029859
 31
0.0
  0
LINE
  5
4C3
330
1F
100
AcDbEntity
  8
C-9
  6
Continuous
 62
     3
370
     9
100
AcDbLine
 10
-747.3321777337736
 20
509.7523985441968
 30
0.0
 11
-746.0821777337736
 21
509.7523985441968
 31
0.0
  0
LINE
  5
4C4
330
1F
100
AcDbEntity
  8
C-9
  6
Continuous
 62
     3
370
     9
100
AcDbLine
 10
-747.3321777337736
 20
509.7523985441968
 30
0.0
 11
-747.3321777337736
 21
480.7524138029886
 31
0.0
  0
LINE
  5
4C5
330
1F
100
AcDbEntity
  8
C-9
  6
Continuous
 62
     3
370
     9
100
AcDbLine
 10
-729.8321166986187
 20
480.7524138029886
 30
0.0
 11
-747.3321777337736
 21
480.7524138029886
 31
0.0
  0
LINE
  5
4C6
330
1F
100
AcDbEntity
  8
C-9
  6
JWW_DASHED2
 62
     3
370
     9
100
AcDbLine
 10
-731.8321166986169
 20
509.8983030852152
 30
0.0
 11
-731.8321166986169
 21
480.7524138029886
 31
0.0
  0
LINE
  5
4C7
330
1F
100
AcDbEntity
  8
C-9
  6
JWW_DASHED2
 62
     3
370
     9
100
AcDbLine
 10
-745.3321166986183
 20
509.8983030852152
 30
0.0
 11
-745.3321166986183
 21
480.7524138029886
 31
0.0
  0
LINE
  5
4C8
330
1F
100
AcDbEntity
  8
C-9
  6
JWW_CENTER2
 62
     7
370
     9
100
AcDbLine
 10
-744.3581176751803
 20
490.7524595793531
 30
0.0
 11
-732.8060546869
 21
490.7524595793531
 31
0.0
  0
LINE
  5
4C9
330
1F
100
AcDbEntity
  8
C-9
  6
JWW_CENTER2
 62
     7
370
     9
100
AcDbLine
 10
-738.5820556634616
 20
523.2205839690051
 30
0.0
 11
-738.5820556634616
 21
475.8201933440024
 31
0.0
  0
ARC
  5
4CA
330
1F
100
AcDbEntity
  8
C-9
  6
Continuous
 62
     3
370
     9
100
AcDbCircle
 10
-730.582055663462
 20
515.7523832854077
 30
0.0
 40
1.999999642372131
100
AcDbArc
 50
270.2416229248047
 51
330.0007171630859
  0
ARC
  5
4CB
330
1F
100
AcDbEntity
  8
C-9
  6
Continuous
 62
     3
370
     9
100
AcDbCircle
 10
-731.0821166986187
 20
511.7524138029877
 30
0.0
 40
1.999999642372131
100
AcDbArc
 50
90.13328552246094
 51
270.0
  0
ARC
  5
4CC
330
1F
100
AcDbEntity
  8
C-9
  6
Continuous
 62
     3
370
     9
100
AcDbCircle
 10
-746.5819946283062
 20
515.7523832854077
 30
0.0
 40
1.999999642372131
100
AcDbArc
 50
209.99951171875
 51
269.7240295410156
  0
ARC
  5
4CD
330
1F
100
AcDbEntity
  8
C-9
  6
Continuous
 62
     3
370
     9
100
AcDbCircle
 10
-746.0821777337736
 20
511.7524138029877
 30
0.0
 40
1.999999642372131
100
AcDbArc
 50
270.0
 51
90.0
  0
CIRCLE
  5
4CE
330
1F
100
AcDbEntity
  8
C-9
  6
Continuous
 62
     3
370
     9
100
AcDbCircle
 10
-738.5820556634616
 20
490.7524595793531
 30
0.0
 40
4.249999523162842
  0
LINE
  5
4CF
330
1F
100
AcDbEntity
  8
C-9
  6
Continuous
 62
     3
370
     9
100
AcDbLine
 10
-729.8321166986187
 20
929.7528499418514
 30
0.0
 11
-731.0821166986187
 21
929.7528499418514
 31
0.0
  0
LINE
  5
4D0
330
1F
100
AcDbEntity
  8
C-9
  6
Continuous
 62
     3
370
     9
100
AcDbLine
 10
-729.8321166986187
 20
929.7528499418514
 30
0.0
 11
-729.8321166986187
 21
958.7528342062252
 31
0.0
  0
LINE
  5
4D1
330
1F
100
AcDbEntity
  8
C-9
  6
Continuous
 62
     3
370
     9
100
AcDbLine
 10
-731.0867553704924
 20
925.7528365904092
 30
0.0
 11
-730.5735717767419
 21
925.7528365904092
 31
0.0
  0
LINE
  5
4D2
330
1F
100
AcDbEntity
  8
C-9
  6
Continuous
 62
     3
370
     9
100
AcDbLine
 10
-746.5819946283062
 20
925.7528365904092
 30
0.0
 11
-746.0820556634616
 21
925.7528365904092
 31
0.0
  0
LINE
  5
4D3
330
1F
100
AcDbEntity
  8
C-9
  6
Continuous
 62
     3
370
     9
100
AcDbLine
 10
-747.3321777337736
 20
929.7528499418514
 30
0.0
 11
-746.0821777337736
 21
929.7528499418514
 31
0.0
  0
LINE
  5
4D4
330
1F
100
AcDbEntity
  8
C-9
  6
Continuous
 62
     3
370
     9
100
AcDbLine
 10
-747.3321777337736
 20
929.7528499418514
 30
0.0
 11
-747.3321777337736
 21
958.7528342062252
 31
0.0
  0
LINE
  5
4D5
330
1F
100
AcDbEntity
  8
C-9
  6
Continuous
 62
     3
370
     9
100
AcDbLine
 10
-729.8321166986187
 20
958.7528342062252
 30
0.0
 11
-747.3321777337736
 21
958.7528342062252
 31
0.0
  0
LINE
  5
4D6
330
1F
100
AcDbEntity
  8
C-9
  6
JWW_DASHED2
 62
     3
370
     9
100
AcDbLine
 10
-731.8321166986169
 20
929.6069344335798
 30
0.0
 11
-731.8321166986169
 21
958.7528342062252
 31
0.0
  0
LINE
  5
4D7
330
1F
100
AcDbEntity
  8
C-9
  6
JWW_DASHED2
 62
     3
370
     9
100
AcDbLine
 10
-745.3321166986183
 20
929.6069344335798
 30
0.0
 11
-745.3321166986183
 21
958.7528342062252
 31
0.0
  0
LINE
  5
4D8
330
1F
100
AcDbEntity
  8
C-9
  6
JWW_CENTER2
 62
     7
370
     9
100
AcDbLine
 10
-744.3581176751803
 20
948.7527884298562
 30
0.0
 11
-732.8060546869
 21
948.7527884298562
 31
0.0
  0
LINE
  5
4D9
330
1F
100
AcDbEntity
  8
C-9
  6
JWW_CENTER2
 62
     7
370
     9
100
AcDbLine
 10
-738.5820556634616
 20
916.2846554571389
 30
0.0
 11
-738.5820556634616
 21
963.6850546652091
 31
0.0
  0
ARC
  5
4DA
330
1F
100
AcDbEntity
  8
C-9
  6
Continuous
 62
     3
370
     9
100
AcDbCircle
 10
-730.582055663462
 20
923.7528547102216
 30
0.0
 40
1.999999642372131
100
AcDbArc
 50
29.99926757812499
 51
89.75836181640622
  0
ARC
  5
4DB
330
1F
100
AcDbEntity
  8
C-9
  6
Continuous
 62
     3
370
     9
100
AcDbCircle
 10
-731.0821166986187
 20
927.7528308683646
 30
0.0
 40
1.999999642372131
100
AcDbArc
 50
90.0
 51
269.86669921875
  0
ARC
  5
4DC
330
1F
100
AcDbEntity
  8
C-9
  6
Continuous
 62
     3
370
     9
100
AcDbCircle
 10
-746.5819946283062
 20
923.7528547102216
 30
0.0
 40
1.999999642372131
100
AcDbArc
 50
90.27595520019531
 51
150.0004730224609
  0
ARC
  5
4DD
330
1F
100
AcDbEntity
  8
C-9
  6
Continuous
 62
     3
370
     9
100
AcDbCircle
 10
-746.0821777337736
 20
927.7528308683646
 30
0.0
 40
1.999999642372131
100
AcDbArc
 50
270.0
 51
90.0
  0
CIRCLE
  5
4DE
330
1F
100
AcDbEntity
  8
C-9
  6
Continuous
 62
     3
370
     9
100
AcDbCircle
 10
-738.5820556634616
 20
948.7527884298562
 30
0.0
 40
4.249999523162842
  0
TEXT
  5
4DF
330
1F
100
AcDbEntity
  8
C-4
  6
Continuous
 62
     2
370
   211
100
AcDbText
 10
-1218.83064087898
 20
898.8322891723128
 30
0.0
 40
30.48
  1
2
 50
90.0
 41
0.9999999999999998
  7
ＭＳ ゴシック
100
AcDbText
  0
LINE
  5
4E0
330
1F
100
AcDbEntity
  8
C-4
  6
Continuous
 62
     7
370
     9
100
AcDbLine
 10
-1048.582773238947
 20
1173.211890546271
 30
0.0
 11
-638.5834330784741
 21
1173.211890546271
 31
0.0
  0
LWPOLYLINE
  5
4E1
330
1F
100
AcDbEntity
  8
C-4
  6
Continuous
 62
     7
370
     9
100
AcDbPolyline
 90
        4
 70
     1
 43
1.0
 10
-1048.082773238947
 20
1173.211890546271
 42
0.4142135623731
 10
-1048.582773238947
 20
1173.711890546271
 42
0.4142135623731
 10
-1049.082773238947
 20
1173.211890546271
 42
0.4142135623731
 10
-1048.582773238947
 20
1172.711890546271
 42
0.4142135623731
  0
LWPOLYLINE
  5
4E2
330
1F
100
AcDbEntity
  8
C-4
  6
Continuous
 62
     7
370
     9
100
AcDbPolyline
 90
        4
 70
     1
 43
1.0
 10
-638.0834330784741
 20
1173.211890546271
 42
0.4142135623731
 10
-638.5834330784741
 20
1173.711890546271
 42
0.4142135623731
 10
-639.0834330784741
 20
1173.211890546271
 42
0.4142135623731
 10
-638.5834330784741
 20
1172.711890546271
 42
0.4142135623731
  0
TEXT
  5
4E3
330
1F
100
AcDbEntity
  8
C-4
  6
Continuous
 62
     2
370
   211
100
AcDbText
 10
-876.0831031587105
 20
1184.851890546272
 30
0.0
 40
30.48
  1
410
 41
1.083333333333333
  7
ＭＳ ゴシック
100
AcDbText
  0
LINE
  5
4E4
330
1F
100
AcDbEntity
  8
C-4
  6
Continuous
 62
     7
370
     9
100
AcDbLine
 10
-1018.583433078474
 20
1028.647466217667
 30
0.0
 11
-668.582773238947
 21
1028.647466217667
 31
0.0
  0
LWPOLYLINE
  5
4E5
330
1F
100
AcDbEntity
  8
C-4
  6
Continuous
 62
     7
370
     9
100
AcDbPolyline
 90
        4
 70
     1
 43
1.0
 10
-1018.083433078474
 20
1028.647466217667
 42
0.4142135623731
 10
-1018.583433078474
 20
1029.147466217667
 42
0.4142135623731
 10
-1019.083433078474
 20
1028.647466217667
 42
0.4142135623731
 10
-1018.583433078474
 20
1028.147466217667
 42
0.4142135623731
  0
LWPOLYLINE
  5
4E6
330
1F
100
AcDbEntity
  8
C-4
  6
Continuous
 62
     7
370
     9
100
AcDbPolyline
 90
        4
 70
     1
 43
1.0
 10
-668.082773238947
 20
1028.647466217667
 42
0.4142135623731
 10
-668.582773238947
 20
1029.147466217667
 42
0.4142135623731
 10
-669.082773238947
 20
1028.647466217667
 42
0.4142135623731
 10
-668.582773238947
 20
1028.147466217667
 42
0.4142135623731
  0
TEXT
  5
4E7
330
1F
100
AcDbEntity
  8
C-4
  6
Continuous
 62
     2
370
   211
100
AcDbText
 10
-876.0831031587105
 20
1040.287466217668
 30
0.0
 40
30.48
  1
350
 41
1.083333333333333
  7
ＭＳ ゴシック
100
AcDbText
  0
LWPOLYLINE
  5
4E8
330
1F
100
AcDbEntity
  8
C-4
  6
Continuous
 62
     7
370
     9
100
AcDbPolyline
 90
        4
 70
     1
 43
1.0
 10
-1048.082773238947
 20
1100.92967838197
 42
0.4142135623731
 10
-1048.582773238947
 20
1101.42967838197
 42
0.4142135623731
 10
-1049.082773238947
 20
1100.92967838197
 42
0.4142135623731
 10
-1048.582773238947
 20
1100.42967838197
 42
0.4142135623731
  0
LWPOLYLINE
  5
4E9
330
1F
100
AcDbEntity
  8
C-4
  6
Continuous
 62
     7
370
     9
100
AcDbPolyline
 90
        4
 70
     1
 43
1.0
 10
-1045.082773238948
 20
1100.92967838197
 42
0.4142135623731
 10
-1045.582773238948
 20
1101.42967838197
 42
0.4142135623731
 10
-1046.082773238947
 20
1100.92967838197
 42
0.4142135623731
 10
-1045.582773238948
 20
1100.42967838197
 42
0.4142135623731
  0
LINE
  5
4EA
330
1F
100
AcDbEntity
  8
C-4
  6
Continuous
 62
     7
370
     9
100
AcDbLine
 10
-1045.582773238948
 20
1100.92967838197
 30
0.0
 11
-1043.582773238947
 21
1100.92967838197
 31
0.0
  0
LWPOLYLINE
  5
4EB
330
1F
100
AcDbEntity
  8
C-4
  6
Continuous
 62
     7
370
     9
100
AcDbPolyline
 90
        4
 70
     1
 43
1.0
 10
-1043.082773238947
 20
1100.92967838197
 42
0.4142135623731
 10
-1043.582773238947
 20
1101.42967838197
 42
0.4142135623731
 10
-1044.082773238947
 20
1100.92967838197
 42
0.4142135623731
 10
-1043.582773238947
 20
1100.42967838197
 42
0.4142135623731
  0
LINE
  5
4EC
330
1F
100
AcDbEntity
  8
C-4
  6
Continuous
 62
     7
370
     9
100
AcDbLine
 10
-1043.582773238947
 20
1100.92967838197
 30
0.0
 11
-643.5834330784741
 21
1100.92967838197
 31
0.0
  0
LWPOLYLINE
  5
4ED
330
1F
100
AcDbEntity
  8
C-4
  6
Continuous
 62
     7
370
     9
100
AcDbPolyline
 90
        4
 70
     1
 43
1.0
 10
-643.0834330784741
 20
1100.92967838197
 42
0.4142135623731
 10
-643.5834330784741
 20
1101.42967838197
 42
0.4142135623731
 10
-644.0834330784741
 20
1100.92967838197
 42
0.4142135623731
 10
-643.5834330784741
 20
1100.42967838197
 42
0.4142135623731
  0
TEXT
  5
4EE
330
1F
100
AcDbEntity
  8
C-4
  6
Continuous
 62
     2
370
   211
100
AcDbText
 10
-876.0831031587105
 20
1112.569678381969
 30
0.0
 40
30.48
  1
400
 41
1.083333333333333
  7
ＭＳ ゴシック
100
AcDbText
  0
LINE
  5
4EF
330
1F
100
AcDbEntity
  8
C-4
  6
Continuous
 62
     7
370
     9
100
AcDbLine
 10
-643.5834330784741
 20
1100.92967838197
 30
0.0
 11
-641.5834330784747
 21
1100.92967838197
 31
0.0
  0
LWPOLYLINE
  5
4F0
330
1F
100
AcDbEntity
  8
C-4
  6
Continuous
 62
     7
370
     9
100
AcDbPolyline
 90
        4
 70
     1
 43
1.0
 10
-641.0834330784747
 20
1100.92967838197
 42
0.4142135623731
 10
-641.5834330784747
 20
1101.42967838197
 42
0.4142135623731
 10
-642.0834330784747
 20
1100.92967838197
 42
0.4142135623731
 10
-641.5834330784747
 20
1100.42967838197
 42
0.4142135623731
  0
LWPOLYLINE
  5
4F1
330
1F
100
AcDbEntity
  8
C-4
  6
Continuous
 62
     7
370
     9
100
AcDbPolyline
 90
        4
 70
     1
 43
1.0
 10
-638.0834330784741
 20
1100.92967838197
 42
0.4142135623731
 10
-638.5834330784741
 20
1101.42967838197
 42
0.4142135623731
 10
-639.0834330784741
 20
1100.92967838197
 42
0.4142135623731
 10
-638.5834330784741
 20
1100.42967838197
 42
0.4142135623731
  0
TEXT
  5
4F2
330
1F
100
AcDbEntity
  8
C-4
  6
Continuous
 62
     2
370
   211
100
AcDbText
 10
-1084.730887566007
 20
1112.569678381969
 30
0.0
 40
30.48
  1
3
 41
0.9999999999999998
  7
ＭＳ ゴシック
100
AcDbText
  0
TEXT
  5
4F3
330
1F
100
AcDbEntity
  8
C-4
  6
Continuous
 62
     2
370
   211
100
AcDbText
 10
-1039.177180781019
 20
1112.569678381969
 30
0.0
 40
30.48
  1
2
 41
0.9999999999999998
  7
ＭＳ ゴシック
100
AcDbText
  0
TEXT
  5
4F4
330
1F
100
AcDbEntity
  8
C-4
  6
Continuous
 62
     2
370
   211
100
AcDbText
 10
-626.8931274542587
 20
1112.569678381969
 30
0.0
 40
30.48
  1
3
 41
0.9999999999999998
  7
ＭＳ ゴシック
100
AcDbText
  0
TEXT
  5
4F5
330
1F
100
AcDbEntity
  8
C-4
  6
Continuous
 62
     2
370
   211
100
AcDbText
 10
-668.7657266202581
 20
1112.569678381969
 30
0.0
 40
30.48
  1
2
 41
0.9999999999999998
  7
ＭＳ ゴシック
100
AcDbText
  0
LINE
  5
4F6
330
1F
100
AcDbEntity
  8
C-4
  6
Continuous
 62
     7
370
     9
100
AcDbLine
 10
-1087.732165812909
 20
1100.92967838197
 30
0.0
 11
-1045.582773238948
 21
1100.92967838197
 31
0.0
  0
LINE
  5
4F7
330
1F
100
AcDbEntity
  8
C-4
  6
Continuous
 62
     7
370
     9
100
AcDbLine
 10
-641.5834330784747
 20
1100.92967838197
 30
0.0
 11
-603.1950140202235
 21
1100.92967838197
 31
0.0
  0
LINE
  5
4F8
330
1F
100
AcDbEntity
  8
C-4
  6
Continuous
 62
     7
370
     9
100
AcDbLine
 10
-1048.582773238947
 20
1176.211890546271
 30
0.0
 11
-1048.582773238947
 21
939.7526197130724
 31
0.0
  0
LINE
  5
4F9
330
1F
100
AcDbEntity
  8
C-4
  6
Continuous
 62
     7
370
     9
100
AcDbLine
 10
-638.5834330784741
 20
1176.211890546271
 30
0.0
 11
-638.5834330784741
 21
939.7526197130724
 31
0.0
  0
LINE
  5
4FA
330
1F
100
AcDbEntity
  8
C-4
  6
Continuous
 62
     7
370
     9
100
AcDbLine
 10
-1018.583433078474
 20
1031.647466217668
 30
0.0
 11
-1018.583433078474
 21
939.7526197130724
 31
0.0
  0
LINE
  5
4FB
330
1F
100
AcDbEntity
  8
C-4
  6
Continuous
 62
     7
370
     9
100
AcDbLine
 10
-668.582773238947
 20
1031.647466217668
 30
0.0
 11
-668.582773238947
 21
939.7526197130724
 31
0.0
  0
LINE
  5
4FC
330
1F
100
AcDbEntity
  8
C-4
  6
Continuous
 62
     7
370
     9
100
AcDbLine
 10
-1045.582773238948
 20
1103.92967838197
 30
0.0
 11
-1045.582773238948
 21
939.7526197130724
 31
0.0
  0
LINE
  5
4FD
330
1F
100
AcDbEntity
  8
C-4
  6
Continuous
 62
     7
370
     9
100
AcDbLine
 10
-1043.582773238947
 20
1103.92967838197
 30
0.0
 11
-1043.582773238947
 21
939.7526197130724
 31
0.0
  0
LINE
  5
4FE
330
1F
100
AcDbEntity
  8
C-4
  6
Continuous
 62
     7
370
     9
100
AcDbLine
 10
-643.5834330784741
 20
1103.92967838197
 30
0.0
 11
-643.5834330784741
 21
939.7526197130724
 31
0.0
  0
LINE
  5
4FF
330
1F
100
AcDbEntity
  8
C-4
  6
Continuous
 62
     7
370
     9
100
AcDbLine
 10
-641.5834330784747
 20
1103.92967838197
 30
0.0
 11
-641.5834330784747
 21
939.7526197130724
 31
0.0
  0
LWPOLYLINE
  5
500
330
1F
100
AcDbEntity
  8
C-4
  6
Continuous
 62
     7
370
     9
100
AcDbPolyline
 90
        4
 70
     1
 43
1.0
 10
-1286.458623976804
 20
924.7526197130724
 42
0.4142135623731
 10
-1286.958623976804
 20
925.2526197130724
 42
0.4142135623731
 10
-1287.458623976804
 20
924.7526197130724
 42
0.4142135623731
 10
-1286.958623976804
 20
924.2526197130724
 42
0.4142135623731
  0
LWPOLYLINE
  5
501
330
1F
100
AcDbEntity
  8
C-4
  6
Continuous
 62
     7
370
     9
100
AcDbPolyline
 90
        4
 70
     1
 43
1.0
 10
-1286.458623976804
 20
514.7526609530432
 42
0.4142135623731
 10
-1286.958623976804
 20
515.2526609530432
 42
0.4142135623731
 10
-1287.458623976804
 20
514.7526609530432
 42
0.4142135623731
 10
-1286.958623976804
 20
514.2526609530432
 42
0.4142135623731
  0
TEXT
  5
502
330
1F
100
AcDbEntity
  8
C-4
  6
Continuous
 62
     2
370
   211
100
AcDbText
 10
-1298.598623976803
 20
687.2526403330578
 30
0.0
 40
30.48
  1
410
 50
90.0
 41
1.083333333333333
  7
ＭＳ ゴシック
100
AcDbText
  0
LINE
  5
503
330
1F
100
AcDbEntity
  8
C-4
  6
Continuous
 62
     7
370
     9
100
AcDbLine
 10
-1127.422657781155
 20
894.752042353487
 30
0.0
 11
-1127.422657781155
 21
544.752495993162
 31
0.0
  0
LWPOLYLINE
  5
504
330
1F
100
AcDbEntity
  8
C-4
  6
Continuous
 62
     7
370
     9
100
AcDbPolyline
 90
        4
 70
     1
 43
1.0
 10
-1126.922657781155
 20
894.752042353487
 42
0.4142135623731
 10
-1127.422657781155
 20
895.252042353487
 42
0.4142135623731
 10
-1127.922657781155
 20
894.752042353487
 42
0.4142135623731
 10
-1127.422657781155
 20
894.252042353487
 42
0.4142135623731
  0
LWPOLYLINE
  5
505
330
1F
100
AcDbEntity
  8
C-4
  6
Continuous
 62
     7
370
     9
100
AcDbPolyline
 90
        4
 70
     1
 43
1.0
 10
-1126.922657781155
 20
544.752495993162
 42
0.4142135623731
 10
-1127.422657781155
 20
545.252495993162
 42
0.4142135623731
 10
-1127.922657781155
 20
544.752495993162
 42
0.4142135623731
 10
-1127.422657781155
 20
544.252495993162
 42
0.4142135623731
  0
TEXT
  5
506
330
1F
100
AcDbEntity
  8
C-4
  6
Continuous
 62
     2
370
   211
100
AcDbText
 10
-1139.062657781155
 20
687.2522691733245
 30
0.0
 40
30.48
  1
350
 50
90.0
 41
1.083333333333333
  7
ＭＳ ゴシック
100
AcDbText
  0
LWPOLYLINE
  5
507
330
1F
100
AcDbEntity
  8
C-4
  6
Continuous
 62
     7
370
     9
100
AcDbPolyline
 90
        4
 70
     1
 43
1.0
 10
-1206.69064087898
 20
924.7526197130724
 42
0.4142135623731
 10
-1207.19064087898
 20
925.2526197130724
 42
0.4142135623731
 10
-1207.690640878979
 20
924.7526197130724
 42
0.4142135623731
 10
-1207.19064087898
 20
924.2526197130724
 42
0.4142135623731
  0
LWPOLYLINE
  5
508
330
1F
100
AcDbEntity
  8
C-4
  6
Continuous
 62
     7
370
     9
100
AcDbPolyline
 90
        4
 70
     1
 43
1.0
 10
-1206.69064087898
 20
921.7526197130728
 42
0.4142135623731
 10
-1207.19064087898
 20
922.2526197130728
 42
0.4142135623731
 10
-1207.690640878979
 20
921.7526197130728
 42
0.4142135623731
 10
-1207.19064087898
 20
921.2526197130728
 42
0.4142135623731
  0
LWPOLYLINE
  5
509
330
1F
100
AcDbEntity
  8
C-4
  6
Continuous
 62
     7
370
     9
100
AcDbPolyline
 90
        4
 70
     1
 43
1.0
 10
-1206.69064087898
 20
919.7526197130724
 42
0.4142135623731
 10
-1207.19064087898
 20
920.2526197130724
 42
0.4142135623731
 10
-1207.690640878979
 20
919.7526197130724
 42
0.4142135623731
 10
-1207.19064087898
 20
919.2526197130724
 42
0.4142135623731
  0
LINE
  5
50A
330
1F
100
AcDbEntity
  8
C-4
  6
Continuous
 62
     7
370
     9
100
AcDbLine
 10
-1207.19064087898
 20
919.7526197130724
 30
0.0
 11
-1207.19064087898
 21
519.7526609530432
 31
0.0
  0
LWPOLYLINE
  5
50B
330
1F
100
AcDbEntity
  8
C-4
  6
Continuous
 62
     7
370
     9
100
AcDbPolyline
 90
        4
 70
     1
 43
1.0
 10
-1206.69064087898
 20
519.7526609530432
 42
0.4142135623731
 10
-1207.19064087898
 20
520.2526609530432
 42
0.4142135623731
 10
-1207.690640878979
 20
519.7526609530432
 42
0.4142135623731
 10
-1207.19064087898
 20
519.2526609530432
 42
0.4142135623731
  0
TEXT
  5
50C
330
1F
100
AcDbEntity
  8
C-4
  6
Continuous
 62
     2
370
   211
100
AcDbText
 10
-1218.83064087898
 20
687.2526403330578
 30
0.0
 40
30.48
  1
400
 50
90.0
 41
1.083333333333333
  7
ＭＳ ゴシック
100
AcDbText
  0
LINE
  5
50D
330
1F
100
AcDbEntity
  8
C-4
  6
Continuous
 62
     7
370
     9
100
AcDbLine
 10
-1207.19064087898
 20
519.7526609530432
 30
0.0
 11
-1207.19064087898
 21
517.7526609530439
 31
0.0
  0
LWPOLYLINE
  5
50E
330
1F
100
AcDbEntity
  8
C-4
  6
Continuous
 62
     7
370
     9
100
AcDbPolyline
 90
        4
 70
     1
 43
1.0
 10
-1206.69064087898
 20
517.7526609530439
 42
0.4142135623731
 10
-1207.19064087898
 20
518.2526609530439
 42
0.4142135623731
 10
-1207.690640878979
 20
517.7526609530439
 42
0.4142135623731
 10
-1207.19064087898
 20
517.2526609530439
 42
0.4142135623731
  0
LWPOLYLINE
  5
50F
330
1F
100
AcDbEntity
  8
C-4
  6
Continuous
 62
     7
370
     9
100
AcDbPolyline
 90
        4
 70
     1
 43
1.0
 10
-1206.69064087898
 20
514.7526609530432
 42
0.4142135623731
 10
-1207.19064087898
 20
515.2526609530432
 42
0.4142135623731
 10
-1207.690640878979
 20
514.7526609530432
 42
0.4142135623731
 10
-1207.19064087898
 20
514.2526609530432
 42
0.4142135623731
  0
LINE
  5
510
330
1F
100
AcDbEntity
  8
C-4
  6
Continuous
 62
     7
370
     9
100
AcDbLine
 10
-1286.958623976804
 20
514.7526609530432
 30
0.0
 11
-1286.958623976804
 21
924.7526197130724
 31
0.0
  0
LINE
  5
511
330
1F
100
AcDbEntity
  8
C-4
  6
Continuous
 62
     7
370
     9
100
AcDbLine
 10
-1207.19064087898
 20
919.7526197130724
 30
0.0
 11
-1207.19064087898
 21
921.7526197130728
 31
0.0
  0
TEXT
  5
512
330
1F
100
AcDbEntity
  8
C-4
  6
Continuous
 62
     2
370
   211
100
AcDbText
 10
-1218.83064087898
 20
938.4041960764448
 30
0.0
 40
30.48
  1
3
 50
90.0
 41
0.9999999999999998
  7
ＭＳ ゴシック
100
AcDbText
  0
LINE
  5
513
330
1F
100
AcDbEntity
  8
C-4
  6
Continuous
 62
     7
370
     9
100
AcDbLine
 10
-1207.19064087898
 20
921.7526197130728
 30
0.0
 11
-1207.19064087898
 21
960.1059215840557
 31
0.0
  0
TEXT
  5
514
330
1F
100
AcDbEntity
  8
C-4
  6
Continuous
 62
     2
370
   211
100
AcDbText
 10
-1218.83064087898
 20
520.206660559716
 30
0.0
 40
30.48
  1
2
 50
90.0
 41
0.9999999999999998
  7
ＭＳ ゴシック
100
AcDbText
  0
TEXT
  5
515
330
1F
100
AcDbEntity
  8
C-4
  6
Continuous
 62
     2
370
   211
100
AcDbText
 10
-1218.83064087898
 20
480.2079894428123
 30
0.0
 40
30.48
  1
3
 50
90.0
 41
0.9999999999999998
  7
ＭＳ ゴシック
100
AcDbText
  0
LINE
  5
516
330
1F
100
AcDbEntity
  8
C-4
  6
Continuous
 62
     7
370
     9
100
AcDbLine
 10
-1207.19064087898
 20
517.7526609530439
 30
0.0
 11
-1207.19064087898
 21
481.6225254795943
 31
0.0
  0
LINE
  5
517
330
1F
100
AcDbEntity
  8
C-4
  6
Continuous
 62
     7
370
     9
100
AcDbLine
 10
-1289.958623976804
 20
514.7526609530432
 30
0.0
 11
-1063.582773238947
 21
514.7526609530432
 31
0.0
  0
LINE
  5
518
330
1F
100
AcDbEntity
  8
C-4
  6
Continuous
 62
     7
370
     9
100
AcDbLine
 10
-1063.582773238947
 20
924.7526197130724
 30
0.0
 11
-1286.958623976804
 21
924.7526197130724
 31
0.0
  0
LINE
  5
519
330
1F
100
AcDbEntity
  8
C-4
  6
Continuous
 62
     7
370
     9
100
AcDbLine
 10
-1130.422657781155
 20
894.752042353487
 30
0.0
 11
-1063.582773238947
 21
894.752042353487
 31
0.0
  0
LINE
  5
51A
330
1F
100
AcDbEntity
  8
C-4
  6
Continuous
 62
     7
370
     9
100
AcDbLine
 10
-1130.422657781155
 20
544.752495993162
 30
0.0
 11
-1063.582773238947
 21
544.752495993162
 31
0.0
  0
LINE
  5
51B
330
1F
100
AcDbEntity
  8
C-4
  6
Continuous
 62
     7
370
     9
100
AcDbLine
 10
-1210.190640878979
 20
919.7526197130724
 30
0.0
 11
-1063.582773238947
 21
919.7526197130724
 31
0.0
  0
LINE
  5
51C
330
1F
100
AcDbEntity
  8
C-4
  6
Continuous
 62
     7
370
     9
100
AcDbLine
 10
-1210.190640878979
 20
519.7526609530432
 30
0.0
 11
-1063.582773238947
 21
519.7526609530432
 31
0.0
  0
LINE
  5
51D
330
1F
100
AcDbEntity
  8
C-4
  6
Continuous
 62
     7
370
     9
100
AcDbLine
 10
-1210.190640878979
 20
517.7526609530439
 30
0.0
 11
-1063.582773238947
 21
517.7526609530439
 31
0.0
  0
LINE
  5
51E
330
1F
100
AcDbEntity
  8
C-4
  6
Continuous
 62
     7
370
     9
100
AcDbLine
 10
-1063.582773238947
 20
921.7526197130728
 30
0.0
 11
-1210.190640878979
 21
921.7526197130728
 31
0.0
  0
LINE
  5
51F
330
1F
100
AcDbEntity
  8
C-4
  6
Continuous
 62
     7
370
     9
100
AcDbLine
 10
-1048.582773238947
 20
379.7881342386579
 30
0.0
 11
-948.583895120791
 21
379.7881342386579
 31
0.0
  0
LWPOLYLINE
  5
520
330
1F
100
AcDbEntity
  8
C-4
  6
Continuous
 62
     7
370
     9
100
AcDbPolyline
 90
        4
 70
     1
 43
1.0
 10
-1048.082773238947
 20
379.7881342386579
 42
0.4142135623731
 10
-1048.582773238947
 20
380.2881342386578
 42
0.4142135623731
 10
-1049.082773238947
 20
379.7881342386579
 42
0.4142135623731
 10
-1048.582773238947
 20
379.2881342386579
 42
0.4142135623731
  0
LWPOLYLINE
  5
521
330
1F
100
AcDbEntity
  8
C-4
  6
Continuous
 62
     7
370
     9
100
AcDbPolyline
 90
        4
 70
     1
 43
1.0
 10
-948.083895120791
 20
379.7881342386579
 42
0.4142135623731
 10
-948.583895120791
 20
380.2881342386578
 42
0.4142135623731
 10
-949.083895120791
 20
379.7881342386579
 42
0.4142135623731
 10
-948.583895120791
 20
379.2881342386579
 42
0.4142135623731
  0
LINE
  5
522
330
1F
100
AcDbEntity
  8
C-4
  6
Continuous
 62
     7
370
     9
100
AcDbLine
 10
-1048.582773238947
 20
376.7881342386584
 30
0.0
 11
-1048.582773238947
 21
494.7526609530432
 31
0.0
  0
LINE
  5
523
330
1F
100
AcDbEntity
  8
C-4
  6
Continuous
 62
     7
370
     9
100
AcDbLine
 10
-948.583895120791
 20
376.7881342386584
 30
0.0
 11
-948.583895120791
 21
455.8202107751372
 31
0.0
  0
TEXT
  5
524
330
1F
100
AcDbEntity
  8
C-4
  6
Continuous
 62
     2
370
   211
100
AcDbText
 10
-1031.083334179869
 20
391.4281342386581
 30
0.0
 40
30.48
  1
100
 41
1.083333333333333
  7
ＭＳ ゴシック
100
AcDbText
  0
LINE
  5
525
330
1F
100
AcDbEntity
  8
C-4
  6
Continuous
 62
     7
370
     9
100
AcDbLine
 10
-948.583895120791
 20
379.7881342386579
 30
0.0
 11
-738.5824599698191
 21
379.7881342386579
 31
0.0
  0
LWPOLYLINE
  5
526
330
1F
100
AcDbEntity
  8
C-4
  6
Continuous
 62
     7
370
     9
100
AcDbPolyline
 90
        4
 70
     1
 43
1.0
 10
-738.0824599698191
 20
379.7881342386579
 42
0.4142135623731
 10
-738.5824599698191
 20
380.2881342386578
 42
0.4142135623731
 10
-739.0824599698191
 20
379.7881342386579
 42
0.4142135623731
 10
-738.5824599698191
 20
379.2881342386579
 42
0.4142135623731
  0
LINE
  5
527
330
1F
100
AcDbEntity
  8
C-4
  6
Continuous
 62
     7
370
     9
100
AcDbLine
 10
-738.5824599698191
 20
376.7881342386584
 30
0.0
 11
-738.5824599698191
 21
455.8202107751372
 31
0.0
  0
TEXT
  5
528
330
1F
100
AcDbEntity
  8
C-4
  6
Continuous
 62
     2
370
   211
100
AcDbText
 10
-876.0831775453056
 20
391.4281342386581
 30
0.0
 40
30.48
  1
210
 41
1.083333333333333
  7
ＭＳ ゴシック
100
AcDbText
  0
LINE
  5
529
330
1F
100
AcDbEntity
  8
C-4
  6
Continuous
 62
     7
370
     9
100
AcDbLine
 10
-738.5824599698191
 20
379.7881342386579
 30
0.0
 11
-638.5834330784741
 21
379.7881342386579
 31
0.0
  0
LWPOLYLINE
  5
52A
330
1F
100
AcDbEntity
  8
C-4
  6
Continuous
 62
     7
370
     9
100
AcDbPolyline
 90
        4
 70
     1
 43
1.0
 10
-638.0834330784741
 20
379.7881342386579
 42
0.4142135623731
 10
-638.5834330784741
 20
380.2881342386578
 42
0.4142135623731
 10
-639.0834330784741
 20
379.7881342386579
 42
0.4142135623731
 10
-638.5834330784741
 20
379.2881342386579
 42
0.4142135623731
  0
LINE
  5
52B
330
1F
100
AcDbEntity
  8
C-4
  6
Continuous
 62
     7
370
     9
100
AcDbLine
 10
-638.5834330784741
 20
376.7881342386584
 30
0.0
 11
-638.5834330784741
 21
494.7526609530432
 31
0.0
  0
TEXT
  5
52C
330
1F
100
AcDbEntity
  8
C-4
  6
Continuous
 62
     2
370
   211
100
AcDbText
 10
-721.0829465241471
 20
391.4281342386581
 30
0.0
 40
30.48
  1
100
 41
1.083333333333333
  7
ＭＳ ゴシック
100
AcDbText
  0
LINE
  5
52D
330
1F
100
AcDbEntity
  8
C-5
  6
Continuous
 62
     7
370
     9
100
AcDbLine
 10
-556.0825596159002
 20
277.5585178999423
 30
0.0
 11
-1131.082986861994
 21
277.5585178999423
 31
0.0
  0
TEXT
  5
52E
330
1F
100
AcDbEntity
  8
C-5
  6
Continuous
 62
     2
370
     9
100
AcDbText
 10
-1111.082904846003
 20
295.6981879286288
 30
0.0
 40
30.48
  1
平面詳細図　Ｓ＝１：１０
 41
1.114583333333333
  7
ＭＳ ゴシック
100
AcDbText
  0
TEXT
  5
52F
330
1F
100
AcDbEntity
  8
F-4ﾚｲﾔ
  6
Continuous
 62
     2
370
     9
100
AcDbText
 10
-833.6433937254914
 20
-1371.783728813559
 30
0.0
 40
30.48
  1
ＺＱ－１５　４００×４００×１５　ステンレス製受枠ＲＬ－１５（四方枠）
 41
0.7742857142857141
  7
ＭＳ ゴシック
100
AcDbText
  0
SOLID
  5
530
330
1F
100
AcDbEntity
  8
C-5
  6
Continuous
 62
     4
370
     9
100
AcDbTrace
 10
-883.7827732389469
 20
963.8642224723371
 30
0.0
 11
-883.7827732389469
 21
1003.864222472337
 31
0.0
 12
-887.782773238947
 22
963.8642224723371
 32
0.0
 13
-887.782773238947
 23
1003.864222472337
 33
0.0
  0
LINE
  5
531
330
1F
100
AcDbEntity
  8
C-5
  6
Continuous
 62
     4
370
     9
100
AcDbLine
 10
-876.1166834412348
 20
984.8452193458108
 30
0.0
 11
-826.8672907582932
 21
984.8452193458108
 31
0.0
  0
LINE
  5
532
330
1F
100
AcDbEntity
  8
C-5
  6
Continuous
 62
     4
370
     9
100
AcDbLine
 10
-876.1166834412348
 20
984.8452193458108
 30
0.0
 11
-851.3305619068898
 21
981.5820645403095
 31
0.0
  0
LINE
  5
533
330
1F
100
AcDbEntity
  8
C-5
  6
Continuous
 62
     4
370
     9
100
AcDbLine
 10
-876.1166834412348
 20
984.8452193458108
 30
0.0
 11
-851.3305619068898
 21
988.1083741513122
 31
0.0
  0
TEXT
  5
534
330
1F
100
AcDbEntity
  8
C-5
  6
Continuous
 62
     2
370
     9
100
AcDbText
 10
-819.1565196243426
 20
972.6400373256072
 30
0.0
 40
30.48
  1
A
 41
0.9999999999999998
  7
ＭＳ ゴシック
100
AcDbText
  0
LINE
  5
535
330
1F
100
AcDbEntity
  8
C-5
  6
JWW_CENTER1
 62
     4
370
     9
100
AcDbLine
 10
-885.7827732389468
 20
963.8642224723371
 30
0.0
 11
-885.7827732389468
 21
793.4569566402934
 31
0.0
  0
ENDSEC
  0
SECTION
  2
OBJECTS
  0
DICTIONARY
  5
C
330
0
100
AcDbDictionary
281
     1
  3
ACAD_GROUP
350
D
  3
ACAD_LAYOUT
350
1A
  3
ACAD_MLEADERSTYLE
350
537
  3
ACAD_MLINESTYLE
350
17
  3
ACAD_PLOTSETTINGS
350
19
  3
ACAD_PLOTSTYLENAME
350
E
  3
ACAD_TABLESTYLE
350
536
  3
ACAD_VISUALSTYLE
350
2A
  0
DICTIONARY
  5
D
102
{ACAD_REACTORS
330
C
102
}
330
C
100
AcDbDictionary
281
     1
  0
DICTIONARY
  5
1A
102
{ACAD_REACTORS
330
C
102
}
330
C
100
AcDbDictionary
281
     1
  3
Layout1
350
1E
  3
Layout2
350
26
  3
Model
350
22
  0
DICTIONARY
  5
537
102
{ACAD_REACTORS
330
C
102
}
330
C
100
AcDbDictionary
281
     1
  0
DICTIONARY
  5
17
102
{ACAD_REACTORS
330
C
102
}
330
C
100
AcDbDictionary
281
     1
  3
Standard
350
18
  0
DICTIONARY
  5
19
102
{ACAD_REACTORS
330
C
102
}
330
C
100
AcDbDictionary
281
     1
  0
ACDBDICTIONARYWDFLT
  5
E
102
{ACAD_REACTORS
330
C
102
}
330
C
100
AcDbDictionary
281
     1
  3
Normal
350
F
100
AcDbDictionaryWithDefault
340
F
  0
DICTIONARY
  5
536
102
{ACAD_REACTORS
330
C
102
}
330
C
100
AcDbDictionary
281
     1
  0
DICTIONARY
  5
2A
102
{ACAD_REACTORS
330
C
102
}
330
C
100
AcDbDictionary
281
     1
  3
2dWireframe
350
2F
  3
3D Hidden
350
31
  3
3dWireframe
350
30
  3
Basic
350
32
  3
Brighten
350
36
  3
ColorChange
350
3A
  3
Conceptual
350
34
  3
Dim
350
35
  3
Facepattern
350
39
  3
Flat
350
2B
  3
FlatWithEdges
350
2C
  3
Gouraud
350
2D
  3
GouraudWithEdges
350
2E
  3
Linepattern
350
38
  3
Realistic
350
33
  3
Thicken
350
37
  0
LAYOUT
  5
1E
102
{ACAD_REACTORS
330
1A
102
}
330
1A
100
AcDbPlotSettings
  1

  2
none_device
  4

  6

 40
0.0
 41
0.0
 42
0.0
 43
0.0
 44
0.0
 45
0.0
 46
0.0
 47
0.0
 48
0.0
 49
0.0
140
0.0
141
0.0
142
1.0
143
1.0
 70
   688
 72
     0
 73
     0
 74
     5
  7

 75
    16
 76
     0
 77
     5
 78
   300
147
1.0
148
0.0
149
0.0
100
AcDbLayout
  1
Layout1
 70
     1
 71
     1
 10
0.0
 20
0.0
 11
420.0
 21
297.0
 12
0.0
 22
0.0
 32
0.0
 14
1.000000000000000E+20
 24
1.000000000000000E+20
 34
1.000000000000000E+20
 15
-1.000000000000000E+20
 25
-1.000000000000000E+20
 35
-1.000000000000000E+20
146
0.0
 13
0.0
 23
0.0
 33
0.0
 16
1.0
 26
0.0
 36
0.0
 17
0.0
 27
1.0
 37
0.0
 76
     0
330
1B
  0
LAYOUT
  5
26
102
{ACAD_REACTORS
330
1A
102
}
330
1A
100
AcDbPlotSettings
  1

  2
none_device
  4

  6

 40
0.0
 41
0.0
 42
0.0
 43
0.0
 44
0.0
 45
0.0
 46
0.0
 47
0.0
 48
0.0
 49
0.0
140
0.0
141
0.0
142
1.0
143
1.0
 70
   688
 72
     0
 73
     0
 74
     5
  7

 75
    16
 76
     0
 77
     5
 78
   300
147
1.0
148
0.0
149
0.0
100
AcDbLayout
  1
Layout2
 70
     1
 71
     2
 10
0.0
 20
0.0
 11
0.0
 21
0.0
 12
0.0
 22
0.0
 32
0.0
 14
0.0
 24
0.0
 34
0.0
 15
0.0
 25
0.0
 35
0.0
146
0.0
 13
0.0
 23
0.0
 33
0.0
 16
1.0
 26
0.0
 36
0.0
 17
0.0
 27
1.0
 37
0.0
 76
     0
330
23
  0
LAYOUT
  5
22
102
{ACAD_REACTORS
330
1A
102
}
330
1A
100
AcDbPlotSettings
  1

  2
none_device
  4

  6

 40
0.0
 41
0.0
 42
0.0
 43
0.0
 44
0.0
 45
0.0
 46
0.0
 47
0.0
 48
0.0
 49
0.0
140
0.0
141
0.0
142
1.0
143
1.0
 70
  1712
 72
     0
 73
     0
 74
     0
  7

 75
     0
 76
     0
 77
     5
 78
   300
147
1.0
148
0.0
149
0.0
100
AcDbLayout
  1
Model
 70
     1
 71
     0
 10
-2100.0
 20
-1485.0
 11
2100.0
 21
1485.0
 12
0.0
 22
0.0
 32
0.0
 14
-2100.0
 24
-1485.0
 34
0.0
 15
2100.0
 25
1485.0
 35
0.0
146
0.0
 13
0.0
 23
0.0
 33
0.0
 16
1.0
 26
0.0
 36
0.0
 17
0.0
 27
1.0
 37
0.0
 76
     0
330
1F
331
29
  0
MLINESTYLE
  5
18
102
{ACAD_REACTORS
330
17
102
}
330
17
100
AcDbMlineStyle
  2
Standard
 70
     0
  3

 62
   256
 51
90.0
 52
90.0
 71
     2
 49
0.5
 62
   256
  6
BYLAYER
 49
-0.5
 62
   256
  6
BYLAYER
  0
ACDBPLACEHOLDER
  5
F
102
{ACAD_REACTORS
330
E
102
}
330
E
  0
VISUALSTYLE
  5
2F
102
{ACAD_REACTORS
330
2A
102
}
330
2A
100
AcDbVisualStyle
  2
2dWireframe
 70
     4
 71
     0
 72
     2
 73
     0
 90
        0
 40
-0.6
 41
-30.0
 62
     5
 63
     7
421
 16777215
 74
     1
 91
        4
 64
     7
 65
   257
 75
     1
175
     1
 42
1.0
 92
        0
 66
   257
 43
1.0
 76
     1
 77
     6
 78
     2
 67
     7
 79
     5
170
     0
171
     0
290
     0
174
     0
 93
        1
 44
0.0
173
     0
291
     0
 45
0.0
1001
ACAD
1000
AcDbSavedByObjectVersion
1070
     0
  0
VISUALSTYLE
  5
31
102
{ACAD_REACTORS
330
2A
102
}
330
2A
100
AcDbVisualStyle
  2
3D Hidden
 70
     6
 71
     1
 72
     2
 73
     2
 90
        0
 40
-0.6
 41
-30.0
 62
     5
 63
     7
421
 16777215
 74
     2
 91
        2
 64
     7
 65
   257
 75
     2
175
     1
 42
40.0
 92
        0
 66
   257
 43
1.0
 76
     1
 77
     6
 78
     2
 67
     7
 79
     3
170
     0
171
     0
290
     0
174
     0
 93
        1
 44
0.0
173
     0
291
     0
 45
0.0
1001
ACAD
1000
AcDbSavedByObjectVersion
1070
     0
  0
VISUALSTYLE
  5
30
102
{ACAD_REACTORS
330
2A
102
}
330
2A
100
AcDbVisualStyle
  2
3dWireframe
 70
     5
 71
     0
 72
     2
 73
     0
 90
        0
 40
-0.6
 41
-30.0
 62
     5
 63
     7
421
 16777215
 74
     1
 91
        4
 64
     7
 65
   257
 75
     1
175
     1
 42
1.0
 92
        0
 66
   257
 43
1.0
 76
     1
 77
     6
 78
     2
 67
     7
 79
     5
170
     0
171
     0
290
     0
174
     0
 93
        1
 44
0.0
173
     0
291
     0
 45
0.0
1001
ACAD
1000
AcDbSavedByObjectVersion
1070
     0
  0
VISUALSTYLE
  5
32
102
{ACAD_REACTORS
330
2A
102
}
330
2A
100
AcDbVisualStyle
  2
Basic
 70
     7
 71
     1
 72
     0
 73
     1
 90
        0
 40
-0.6
 41
-30.0
 62
     5
 63
     7
421
 16777215
 74
     0
 91
        4
 64
     7
 65
   257
 75
     1
175
     1
 42
1.0
 92
        8
 66
     7
 43
1.0
 76
     1
 77
     6
 78
     2
 67
     7
 79
     5
170
     0
171
     0
290
     0
174
     0
 93
        1
 44
0.0
173
     0
291
     1
 45
0.0
1001
ACAD
1000
AcDbSavedByObjectVersion
1070
     0
  0
VISUALSTYLE
  5
36
102
{ACAD_REACTORS
330
2A
102
}
330
2A
100
AcDbVisualStyle
  2
Brighten
 70
    12
 71
     2
 72
     2
 73
     0
 90
        0
 40
-0.6
 41
-30.0
 62
     5
 63
     7
421
 16777215
 74
     1
 91
        4
 64
     7
 65
   257
 75
     1
175
     1
 42
1.0
 92
        8
 66
     7
 43
1.0
 76
     1
 77
     6
 78
     2
 67
     7
 79
     5
170
     0
171
     0
290
     0
174
     0
 93
        1
 44
50.0
173
     0
291
     1
 45
0.0
1001
ACAD
1000
AcDbSavedByObjectVersion
1070
     0
  0
VISUALSTYLE
  5
3A
102
{ACAD_REACTORS
330
2A
102
}
330
2A
100
AcDbVisualStyle
  2
ColorChange
 70
    16
 71
     2
 72
     2
 73
     3
 90
        0
 40
-0.6
 41
-30.0
 62
     5
 63
     8
421
  8421504
 74
     1
 91
        4
 64
     7
 65
   257
 75
     1
175
     1
 42
1.0
 92
        8
 66
     8
424
  8421504
 43
1.0
 76
     1
 77
     6
 78
     2
 67
     7
 79
     5
170
     0
171
     0
290
     0
174
     0
 93
        1
 44
0.0
173
     0
291
     1
 45
0.0
1001
ACAD
1000
AcDbSavedByObjectVersion
1070
     0
  0
VISUALSTYLE
  5
34
102
{ACAD_REACTORS
330
2A
102
}
330
2A
100
AcDbVisualStyle
  2
Conceptual
 70
     9
 71
     3
 72
     2
 73
     0
 90
        0
 40
-0.6
 41
-30.0
 62
     5
 63
     7
421
 16777215
 74
     2
 91
        2
 64
     7
 65
   257
 75
     1
175
     1
 42
40.0
 92
        8
 66
     7
 43
1.0
 76
     1
 77
     6
 78
     2
 67
     7
 79
     3
170
     0
171
     0
290
     0
174
     0
 93
        1
 44
0.0
173
     0
291
     0
 45
0.0
1001
ACAD
1000
AcDbSavedByObjectVersion
1070
     0
  0
VISUALSTYLE
  5
35
102
{ACAD_REACTORS
330
2A
102
}
330
2A
100
AcDbVisualStyle
  2
Dim
 70
    11
 71
     2
 72
     2
 73
     0
 90
        0
 40
-0.6
 41
-30.0
 62
     5
 63
     7
421
 16777215
 74
     1
 91
        4
 64
     7
 65
   257
 75
     1
175
     1
 42
1.0
 92
        8
 66
     7
 43
1.0
 76
     1
 77
     6
 78
     2
 67
     7
 79
     5
170
     0
171
     0
290
     0
174
     0
 93
        1
 44
-50.0
173
     0
291
     1
 45
0.0
1001
ACAD
1000
AcDbSavedByObjectVersion
1070
     0
  0
VISUALSTYLE
  5
39
102
{ACAD_REACTORS
330
2A
102
}
330
2A
100
AcDbVisualStyle
  2
Facepattern
 70
    15
 71
     2
 72
     2
 73
     0
 90
        0
 40
-0.6
 41
-30.0
 62
     5
 63
     7
421
 16777215
 74
     1
 91
        4
 64
     7
 65
   257
 75
     1
175
     1
 42
1.0
 92
        8
 66
     7
 43
1.0
 76
     1
 77
     6
 78
     2
 67
     7
 79
     5
170
     0
171
     0
290
     0
174
     0
 93
        1
 44
0.0
173
     0
291
     1
 45
0.0
1001
ACAD
1000
AcDbSavedByObjectVersion
1070
     0
  0
VISUALSTYLE
  5
2B
102
{ACAD_REACTORS
330
2A
102
}
330
2A
100
AcDbVisualStyle
  2
Flat
 70
     0
 71
     2
 72
     1
 73
     1
 90
        2
 40
-0.6
 41
30.0
 62
     5
 63
     7
421
 16777215
 74
     0
 91
        4
 64
     7
 65
   257
 75
     1
175
     1
 42
1.0
 92
        8
 66
     7
 43
1.0
 76
     1
 77
     6
 78
     2
 67
     7
 79
     5
170
     0
171
     0
290
     0
174
     0
 93
       13
 44
0.0
173
     0
291
     1
 45
0.0
1001
ACAD
1000
AcDbSavedByObjectVersion
1070
     0
  0
VISUALSTYLE
  5
2C
102
{ACAD_REACTORS
330
2A
102
}
330
2A
100
AcDbVisualStyle
  2
FlatWithEdges
 70
     1
 71
     2
 72
     1
 73
     1
 90
        2
 40
-0.6
 41
30.0
 62
     5
 63
     7
421
 16777215
 74
     1
 91
        4
 64
     7
 65
   257
 75
     1
175
     1
 42
1.0
 92
        0
 66
   257
 43
1.0
 76
     1
 77
     6
 78
     2
 67
     7
 79
     5
170
     0
171
     0
290
     0
174
     0
 93
       13
 44
0.0
173
     0
291
     1
 45
0.0
1001
ACAD
1000
AcDbSavedByObjectVersion
1070
     0
  0
VISUALSTYLE
  5
2D
102
{ACAD_REACTORS
330
2A
102
}
330
2A
100
AcDbVisualStyle
  2
Gouraud
 70
     2
 71
     2
 72
     2
 73
     1
 90
        2
 40
-0.6
 41
30.0
 62
     5
 63
     7
421
 16777215
 74
     0
 91
        4
 64
     7
 65
   257
 75
     1
175
     1
 42
1.0
 92
        0
 66
     7
 43
1.0
 76
     1
 77
     6
 78
     2
 67
     7
 79
     5
170
     0
171
     0
290
     0
174
     0
 93
       13
 44
0.0
173
     0
291
     1
 45
0.0
1001
ACAD
1000
AcDbSavedByObjectVersion
1070
     0
  0
VISUALSTYLE
  5
2E
102
{ACAD_REACTORS
330
2A
102
}
330
2A
100
AcDbVisualStyle
  2
GouraudWithEdges
 70
     3
 71
     2
 72
     2
 73
     1
 90
        2
 40
-0.6
 41
30.0
 62
     5
 63
     7
421
 16777215
 74
     1
 91
        4
 64
     7
 65
   257
 75
     1
175
     1
 42
1.0
 92
        0
 66
   257
 43
1.0
 76
     1
 77
     6
 78
     2
 67
     7
 79
     5
170
     0
171
     0
290
     0
174
     0
 93
       13
 44
0.0
173
     0
291
     1
 45
0.0
1001
ACAD
1000
AcDbSavedByObjectVersion
1070
     0
  0
VISUALSTYLE
  5
38
102
{ACAD_REACTORS
330
2A
102
}
330
2A
100
AcDbVisualStyle
  2
Linepattern
 70
    14
 71
     2
 72
     2
 73
     0
 90
        0
 40
-0.6
 41
-30.0
 62
     5
 63
     7
421
 16777215
 74
     1
 91
        4
 64
     7
 65
   257
 75
     7
175
     7
 42
1.0
 92
        8
 66
     7
 43
1.0
 76
     1
 77
     6
 78
     2
 67
     7
 79
     5
170
     0
171
     0
290
     0
174
     0
 93
        1
 44
0.0
173
     0
291
     1
 45
0.0
1001
ACAD
1000
AcDbSavedByObjectVersion
1070
     0
  0
VISUALSTYLE
  5
33
102
{ACAD_REACTORS
330
2A
102
}
330
2A
100
AcDbVisualStyle
  2
Realistic
 70
     8
 71
     2
 72
     2
 73
     0
 90
        0
 40
-0.6
 41
-30.0
 62
     5
 63
     7
421
 16777215
 74
     1
 91
        0
 64
     7
 65
   257
 75
     1
175
     1
 42
1.0
 92
        8
 66
     8
424
  7895160
 43
1.0
 76
     1
 77
     6
 78
     2
 67
     7
 79
     5
170
     0
171
     0
290
     0
174
     0
 93
       13
 44
0.0
173
     0
291
     0
 45
0.0
1001
ACAD
1000
AcDbSavedByObjectVersion
1070
     0
  0
VISUALSTYLE
  5
37
102
{ACAD_REACTORS
330
2A
102
}
330
2A
100
AcDbVisualStyle
  2
Thicken
 70
    13
 71
     2
 72
     2
 73
     0
 90
        0
 40
-0.6
 41
-30.0
 62
     5
 63
     7
421
 16777215
 74
     1
 91
        4
 64
     7
 65
   257
 75
     1
175
     1
 42
1.0
 92
       12
 66
     7
 43
1.0
 76
     1
 77
     6
 78
     2
 67
     7
 79
     5
170
     0
171
     0
290
     0
174
     0
 93
        1
 44
0.0
173
     0
291
     1
 45
0.0
1001
ACAD
1000
AcDbSavedByObjectVersion
1070
     0
  0
ENDSEC
  0
EOF
