  0
SECTION
  2
HEADER
  9
$ACADVER
  1
AC1018
  9
$ACADMAINTVER
 70
     0
  9
$DWGCODEPAGE
  3
ANSI_932
  9
$INSBASE
 10
0.0
 20
0.0
 30
0.0
  9
$EXTMIN
 10
-2100.0
 20
-1485.0
 30
0.0
  9
$EXTMAX
 10
2100.0
 20
1485.0
 30
0.0
  9
$LIMMIN
 10
-2100.0
 20
-1485.0
  9
$LIMMAX
 10
2100.0
 20
1485.0
  9
$ORTHOMODE
 70
     0
  9
$REGENMODE
 70
     1
  9
$FILLMODE
 70
     1
  9
$QTEXTMODE
 70
     0
  9
$MIRRTEXT
 70
     1
  9
$LTSCALE
 40
10.0
  9
$ATTMODE
 70
     1
  9
$TEXTSIZE
 40
2.5
  9
$TRACEWID
 40
1.0
  9
$TEXTSTYLE
  7
Standard
  9
$CLAYER
  8
0
  9
$CELTYPE
  6
ByLayer
  9
$CECOLOR
 62
   256
  9
$CELTSCALE
 40
1.0
  9
$DISPSILH
 70
     0
  9
$DIMSCALE
 40
1.0
  9
$DIMASZ
 40
2.5
  9
$DIMEXO
 40
0.625
  9
$DIMDLI
 40
3.75
  9
$DIMRND
 40
0.0
  9
$DIMDLE
 40
0.0
  9
$DIMEXE
 40
1.25
  9
$DIMTP
 40
0.0
  9
$DIMTM
 40
0.0
  9
$DIMTXT
 40
2.5
  9
$DIMCEN
 40
2.5
  9
$DIMTSZ
 40
0.0
  9
$DIMTOL
 70
     0
  9
$DIMLIM
 70
     0
  9
$DIMTIH
 70
     0
  9
$DIMTOH
 70
     0
  9
$DIMSE1
 70
     0
  9
$DIMSE2
 70
     0
  9
$DIMTAD
 70
     1
  9
$DIMZIN
 70
     8
  9
$DIMBLK
  1

  9
$DIMASO
 70
     1
  9
$DIMSHO
 70
     1
  9
$DIMPOST
  1

  9
$DIMAPOST
  1

  9
$DIMALT
 70
     0
  9
$DIMALTD
 70
     3
  9
$DIMALTF
 40
0.03937007874016
  9
$DIMLFAC
 40
1.0
  9
$DIMTOFL
 70
     1
  9
$DIMTVP
 40
0.0
  9
$DIMTIX
 70
     0
  9
$DIMSOXD
 70
     0
  9
$DIMSAH
 70
     0
  9
$DIMBLK1
  1

  9
$DIMBLK2
  1

  9
$DIMSTYLE
  2
ISO-25
  9
$DIMCLRD
 70
     0
  9
$DIMCLRE
 70
     0
  9
$DIMCLRT
 70
     0
  9
$DIMTFAC
 40
1.0
  9
$DIMGAP
 40
0.625
  9
$DIMJUST
 70
     0
  9
$DIMSD1
 70
     0
  9
$DIMSD2
 70
     0
  9
$DIMTOLJ
 70
     0
  9
$DIMTZIN
 70
     8
  9
$DIMALTZ
 70
     0
  9
$DIMALTTZ
 70
     0
  9
$DIMUPT
 70
     0
  9
$DIMDEC
 70
     2
  9
$DIMTDEC
 70
     2
  9
$DIMALTU
 70
     2
  9
$DIMALTTD
 70
     3
  9
$DIMTXSTY
  7
Standard
  9
$DIMAUNIT
 70
     0
  9
$DIMADEC
 70
     0
  9
$DIMALTRND
 40
0.0
  9
$DIMAZIN
 70
     0
  9
$DIMDSEP
 70
    44
  9
$DIMATFIT
 70
     3
  9
$DIMFRAC
 70
     0
  9
$DIMLDRBLK
  1

  9
$DIMLUNIT
 70
     2
  9
$DIMLWD
 70
    -2
  9
$DIMLWE
 70
    -2
  9
$DIMTMOVE
 70
     0
  9
$LUNITS
 70
     2
  9
$LUPREC
 70
     4
  9
$SKETCHINC
 40
1.0
  9
$FILLETRAD
 40
10.0
  9
$AUNITS
 70
     0
  9
$AUPREC
 70
     0
  9
$MENU
  1
.
  9
$ELEVATION
 40
0.0
  9
$PELEVATION
 40
0.0
  9
$THICKNESS
 40
0.0
  9
$LIMCHECK
 70
     0
  9
$CHAMFERA
 40
10.0
  9
$CHAMFERB
 40
10.0
  9
$CHAMFERC
 40
20.0
  9
$CHAMFERD
 40
0.0
  9
$SKPOLY
 70
     0
  9
$TDCREATE
 40
2458442.445556863
  9
$TDUCREATE
 40
2458442.070556863
  9
$TDUPDATE
 40
2458442.445556875
  9
$TDUUPDATE
 40
2458442.070556875
  9
$TDINDWG
 40
0.0000000116
  9
$TDUSRTIMER
 40
0.0000000116
  9
$USRTIMER
 70
     1
  9
$ANGBASE
 50
0.0
  9
$ANGDIR
 70
     0
  9
$PDMODE
 70
     0
  9
$PDSIZE
 40
0.0
  9
$PLINEWID
 40
0.0
  9
$SPLFRAME
 70
     0
  9
$SPLINETYPE
 70
     6
  9
$SPLINESEGS
 70
     8
  9
$HANDSEED
  5
502
  9
$SURFTAB1
 70
     6
  9
$SURFTAB2
 70
     6
  9
$SURFTYPE
 70
     6
  9
$SURFU
 70
     6
  9
$SURFV
 70
     6
  9
$UCSBASE
  2

  9
$UCSNAME
  2

  9
$UCSORG
 10
0.0
 20
0.0
 30
0.0
  9
$UCSXDIR
 10
1.0
 20
0.0
 30
0.0
  9
$UCSYDIR
 10
0.0
 20
1.0
 30
0.0
  9
$UCSORTHOREF
  2

  9
$UCSORTHOVIEW
 70
     0
  9
$UCSORGTOP
 10
0.0
 20
0.0
 30
0.0
  9
$UCSORGBOTTOM
 10
0.0
 20
0.0
 30
0.0
  9
$UCSORGLEFT
 10
0.0
 20
0.0
 30
0.0
  9
$UCSORGRIGHT
 10
0.0
 20
0.0
 30
0.0
  9
$UCSORGFRONT
 10
0.0
 20
0.0
 30
0.0
  9
$UCSORGBACK
 10
0.0
 20
0.0
 30
0.0
  9
$PUCSBASE
  2

  9
$PUCSNAME
  2

  9
$PUCSORG
 10
0.0
 20
0.0
 30
0.0
  9
$PUCSXDIR
 10
1.0
 20
0.0
 30
0.0
  9
$PUCSYDIR
 10
0.0
 20
1.0
 30
0.0
  9
$PUCSORTHOREF
  2

  9
$PUCSORTHOVIEW
 70
     0
  9
$PUCSORGTOP
 10
0.0
 20
0.0
 30
0.0
  9
$PUCSORGBOTTOM
 10
0.0
 20
0.0
 30
0.0
  9
$PUCSORGLEFT
 10
0.0
 20
0.0
 30
0.0
  9
$PUCSORGRIGHT
 10
0.0
 20
0.0
 30
0.0
  9
$PUCSORGFRONT
 10
0.0
 20
0.0
 30
0.0
  9
$PUCSORGBACK
 10
0.0
 20
0.0
 30
0.0
  9
$USERI1
 70
     0
  9
$USERI2
 70
     0
  9
$USERI3
 70
     0
  9
$USERI4
 70
     0
  9
$USERI5
 70
     0
  9
$USERR1
 40
0.0
  9
$USERR2
 40
0.0
  9
$USERR3
 40
0.0
  9
$USERR4
 40
0.0
  9
$USERR5
 40
0.0
  9
$WORLDVIEW
 70
     1
  9
$SHADEDGE
 70
     3
  9
$SHADEDIF
 70
    70
  9
$TILEMODE
 70
     1
  9
$MAXACTVP
 70
    64
  9
$PINSBASE
 10
0.0
 20
0.0
 30
0.0
  9
$PLIMCHECK
 70
     0
  9
$PEXTMIN
 10
1.000000000000000E+20
 20
1.000000000000000E+20
 30
1.000000000000000E+20
  9
$PEXTMAX
 10
-1.000000000000000E+20
 20
-1.000000000000000E+20
 30
-1.000000000000000E+20
  9
$PLIMMIN
 10
0.0
 20
0.0
  9
$PLIMMAX
 10
420.0
 20
297.0
  9
$UNITMODE
 70
     0
  9
$VISRETAIN
 70
     1
  9
$PLINEGEN
 70
     0
  9
$PSLTSCALE
 70
     1
  9
$TREEDEPTH
 70
  3020
  9
$CMLSTYLE
  2
Standard
  9
$CMLJUST
 70
     0
  9
$CMLSCALE
 40
20.0
  9
$PROXYGRAPHICS
 70
     1
  9
$MEASUREMENT
 70
     1
  9
$CELWEIGHT
370
    -1
  9
$ENDCAPS
280
     0
  9
$JOINSTYLE
280
     0
  9
$LWDISPLAY
290
     0
  9
$INSUNITS
 70
     4
  9
$HYPERLINKBASE
  1

  9
$STYLESHEET
  1

  9
$XEDIT
290
     1
  9
$CEPSNTYPE
380
     0
  9
$PSTYLEMODE
290
     1
  9
$FINGERPRINTGUID
  2
{C0F72664-F8D7-43B7-9F36-1B73321FD750}
  9
$VERSIONGUID
  2
{FAEB1C32-E019-11D5-929B-00C0DF256EC4}
  9
$EXTNAMES
290
     1
  9
$PSVPSCALE
 40
0.0
  9
$OLESTARTUP
290
     0
  9
$SORTENTS
280
   127
  9
$INDEXCTL
280
     0
  9
$HIDETEXT
280
     1
  9
$XCLIPFRAME
290
     0
  9
$HALOGAP
280
     0
  9
$OBSCOLOR
 70
   257
  9
$OBSLTYPE
280
     0
  9
$INTERSECTIONDISPLAY
280
     0
  9
$INTERSECTIONCOLOR
 70
   257
  9
$DIMASSOC
280
     2
  9
$PROJECTNAME
  1

  0
ENDSEC
  0
SECTION
  2
CLASSES
  0
CLASS
  1
ACDBDICTIONARYWDFLT
  2
AcDbDictionaryWithDefault
  3
ObjectDBX Classes
 90
        0
 91
        4
280
     0
281
     0
  0
CLASS
  1
VISUALSTYLE
  2
AcDbVisualStyle
  3
ObjectDBX Classes
 90
     4095
 91
        4
280
     0
281
     0
  0
ENDSEC
  0
SECTION
  2
TABLES
  0
TABLE
  2
VPORT
  5
8
330
0
100
AcDbSymbolTable
 70
     1
  0
VPORT
  5
29
330
8
100
AcDbSymbolTableRecord
100
AcDbViewportTableRecord
  2
*Active
 70
     0
 10
0.0
 20
0.0
 11
1.0
 21
1.0
 12
0.0
 22
0.0
 13
0.0
 23
0.0
 14
10.0
 24
10.0
 15
10.0
 25
10.0
 16
0.0
 26
0.0
 36
1.0
 17
0.0
 27
0.0
 37
0.0
 40
3267.0
 41
1.414141414141414
 42
50.0
 43
0.0
 44
0.0
 50
0.0
 51
0.0
 71
     0
 72
 10000
 73
     1
 74
     3
 75
     0
 76
     0
 77
     0
 78
     0
281
     0
 65
     1
110
0.0
120
0.0
130
0.0
111
1.0
121
0.0
131
0.0
112
0.0
122
1.0
132
0.0
 79
     0
146
0.0
  0
ENDTAB
  0
TABLE
  2
LTYPE
  5
5
330
0
100
AcDbSymbolTable
 70
     5
  0
LTYPE
  5
14
330
5
100
AcDbSymbolTableRecord
100
AcDbLinetypeTableRecord
  2
ByBlock
 70
     0
  3

 72
    65
 73
     0
 40
0.0
  0
LTYPE
  5
15
330
5
100
AcDbSymbolTableRecord
100
AcDbLinetypeTableRecord
  2
ByLayer
 70
     0
  3

 72
    65
 73
     0
 40
0.0
  0
LTYPE
  5
16
330
5
100
AcDbSymbolTableRecord
100
AcDbLinetypeTableRecord
  2
Continuous
 70
     0
  3
Solid line
 72
    65
 73
     0
 40
0.0
  0
LTYPE
  5
3C
330
5
100
AcDbSymbolTableRecord
100
AcDbLinetypeTableRecord
  2
JWW_CENTER1
 70
     0
  3
-----  --  ----------  --  -----
 72
    65
 73
     4
 40
6.773333333333333
 49
4.233333333333333
 74
     0
 49
-0.8466666666666667
 74
     0
 49
0.8466666666666667
 74
     0
 49
-0.8466666666666667
 74
     0
  0
LTYPE
  5
3D
330
5
100
AcDbSymbolTableRecord
100
AcDbLinetypeTableRecord
  2
JWW_DASHED3
 70
     0
  3
---  ------  ------  ------  ---
 72
    65
 73
     2
 40
3.386666666666667
 49
2.54
 74
     0
 49
-0.8466666666666667
 74
     0
  0
LTYPE
  5
3E
330
5
100
AcDbSymbolTableRecord
100
AcDbLinetypeTableRecord
  2
JWW_DASHED2
 70
     0
  3
--    ----    ----    ----    --
 72
    65
 73
     2
 40
3.386666666666667
 49
1.693333333333333
 74
     0
 49
-1.693333333333333
 74
     0
  0
LTYPE
  5
3F
330
5
100
AcDbSymbolTableRecord
100
AcDbLinetypeTableRecord
  2
JWW_CENTER2
 70
     0
  3
-------------  --  -------------
 72
    65
 73
     4
 40
13.54666666666667
 49
11.00666666666667
 74
     0
 49
-0.8466666666666667
 74
     0
 49
0.8466666666666667
 74
     0
 49
-0.8466666666666667
 74
     0
  0
ENDTAB
  0
TABLE
  2
LAYER
  5
2
330
0
100
AcDbSymbolTable
 70
    16
  0
LAYER
  5
10
330
2
100
AcDbSymbolTableRecord
100
AcDbLayerTableRecord
  2
0
 70
     0
 62
     7
  6
Continuous
370
    -3
390
F
  0
LAYER
  5
40
330
2
100
AcDbSymbolTableRecord
100
AcDbLayerTableRecord
  2
0218_
 70
     0
 62
     7
  6
Continuous
370
    -1
390
F
  0
LAYER
  5
41
330
2
100
AcDbSymbolTableRecord
100
AcDbLayerTableRecord
  2
0216_
 70
     0
 62
     7
  6
Continuous
370
    -1
390
F
  0
LAYER
  5
42
330
2
100
AcDbSymbolTableRecord
100
AcDbLayerTableRecord
  2
0255_
 70
     0
 62
     7
  6
Continuous
370
    -1
390
F
  0
LAYER
  5
43
330
2
100
AcDbSymbolTableRecord
100
AcDbLayerTableRecord
  2
0243_
 70
     0
 62
     7
  6
Continuous
370
    -1
390
F
  0
LAYER
  5
44
330
2
100
AcDbSymbolTableRecord
100
AcDbLayerTableRecord
  2
0242_
 70
     0
 62
     7
  6
Continuous
370
    -1
390
F
  0
LAYER
  5
45
330
2
100
AcDbSymbolTableRecord
100
AcDbLayerTableRecord
  2
0226_下
 70
     0
 62
     7
  6
Continuous
370
    -1
390
F
  0
LAYER
  5
46
330
2
100
AcDbSymbolTableRecord
100
AcDbLayerTableRecord
  2
0239_詳
 70
     0
 62
     7
  6
Continuous
370
    -1
390
F
  0
LAYER
  5
47
330
2
100
AcDbSymbolTableRecord
100
AcDbLayerTableRecord
  2
0192_区
 70
     0
 62
     7
  6
Continuous
370
    -1
390
F
  0
LAYER
  5
48
330
2
100
AcDbSymbolTableRecord
100
AcDbLayerTableRecord
  2
0191_区
 70
     0
 62
     7
  6
Continuous
370
    -1
390
F
  0
LAYER
  5
49
330
2
100
AcDbSymbolTableRecord
100
AcDbLayerTableRecord
  2
0235_床
 70
     0
 62
     7
  6
Continuous
370
    -1
390
F
  0
LAYER
  5
4A
330
2
100
AcDbSymbolTableRecord
100
AcDbLayerTableRecord
  2
0193_区
 70
     0
 62
     7
  6
Continuous
370
    -1
390
F
  0
LAYER
  5
4B
330
2
100
AcDbSymbolTableRecord
100
AcDbLayerTableRecord
  2
0227_下
 70
     0
 62
     7
  6
Continuous
370
    -1
390
F
  0
LAYER
  5
4C
330
2
100
AcDbSymbolTableRecord
100
AcDbLayerTableRecord
  2
0220_
 70
     0
 62
     7
  6
Continuous
370
    -1
390
F
  0
LAYER
  5
4D
330
2
100
AcDbSymbolTableRecord
100
AcDbLayerTableRecord
  2
0234_
 70
     0
 62
     7
  6
Continuous
370
    -1
390
F
  0
LAYER
  5
4E
330
2
100
AcDbSymbolTableRecord
100
AcDbLayerTableRecord
  2
F-5ﾚｲﾔ
 70
     0
 62
     7
  6
Continuous
370
    -1
390
F
  0
ENDTAB
  0
TABLE
  2
STYLE
  5
3
330
0
100
AcDbSymbolTable
 70
     2
  0
STYLE
  5
11
330
3
100
AcDbSymbolTableRecord
100
AcDbTextStyleTableRecord
  2
Standard
 70
     0
 40
0.0
 41
1.0
 50
0.0
 71
     0
 42
2.5
  3
txt
  4

1001
ACAD
1000

1071
        0
  0
STYLE
  5
3B
330
3
100
AcDbSymbolTableRecord
100
AcDbTextStyleTableRecord
  2
ＭＳ ゴシック
 70
     0
 40
1.0
 41
1.0
 50
0.0
 71
     0
 42
10.0
  3

  4

1001
ACAD
1000
MS Gothic
1071
    32817
  0
ENDTAB
  0
TABLE
  2
VIEW
  5
6
330
0
100
AcDbSymbolTable
 70
     0
  0
ENDTAB
  0
TABLE
  2
UCS
  5
7
330
0
100
AcDbSymbolTable
 70
     0
  0
ENDTAB
  0
TABLE
  2
APPID
  5
9
330
0
100
AcDbSymbolTable
 70
     1
  0
APPID
  5
12
330
9
100
AcDbSymbolTableRecord
100
AcDbRegAppTableRecord
  2
ACAD
 70
     0
  0
ENDTAB
  0
TABLE
  2
DIMSTYLE
  5
A
330
0
100
AcDbSymbolTable
 70
     1
100
AcDbDimStyleTable
  0
DIMSTYLE
105
27
330
A
100
AcDbSymbolTableRecord
100
AcDbDimStyleTableRecord
  2
ISO-25
 70
     0
 41
2.5
 42
0.625
 43
3.75
 44
1.25
 73
     0
 74
     0
 77
     1
 78
     8
140
2.5
141
2.5
143
0.03937007874016
147
0.625
171
     3
172
     1
271
     2
272
     2
274
     3
278
    44
283
     0
284
     8
340
11
  0
ENDTAB
  0
TABLE
  2
BLOCK_RECORD
  5
1
330
0
100
AcDbSymbolTable
 70
     1
  0
BLOCK_RECORD
  5
1F
330
1
100
AcDbSymbolTableRecord
100
AcDbBlockTableRecord
  2
*Model_Space
340
22
  0
BLOCK_RECORD
  5
1B
330
1
100
AcDbSymbolTableRecord
100
AcDbBlockTableRecord
  2
*Paper_Space
340
1E
  0
BLOCK_RECORD
  5
23
330
1
100
AcDbSymbolTableRecord
100
AcDbBlockTableRecord
  2
*Paper_Space0
340
26
  0
ENDTAB
  0
ENDSEC
  0
SECTION
  2
BLOCKS
  0
BLOCK
  5
20
330
1F
100
AcDbEntity
  8
0
100
AcDbBlockBegin
  2
*Model_Space
 70
     0
 10
0.0
 20
0.0
 30
0.0
  3
*Model_Space
  1

  0
ENDBLK
  5
21
330
1F
100
AcDbEntity
  8
0
100
AcDbBlockEnd
  0
BLOCK
  5
1C
330
1B
100
AcDbEntity
 67
     1
  8
0
100
AcDbBlockBegin
  2
*Paper_Space
 70
     0
 10
0.0
 20
0.0
 30
0.0
  3
*Paper_Space
  1

  0
ENDBLK
  5
1D
330
1B
100
AcDbEntity
 67
     1
  8
0
100
AcDbBlockEnd
  0
BLOCK
  5
24
330
23
100
AcDbEntity
  8
0
100
AcDbBlockBegin
  2
*Paper_Space0
 70
     0
 10
0.0
 20
0.0
 30
0.0
  3
*Paper_Space0
  1

  0
ENDBLK
  5
25
330
23
100
AcDbEntity
  8
0
100
AcDbBlockEnd
  0
ENDSEC
  0
SECTION
  2
ENTITIES
  0
LINE
  5
4F
330
1F
100
AcDbEntity
  8
0218_
  6
JWW_CENTER1
 62
     3
370
     9
100
AcDbLine
 10
1201.989168734164
 20
242.5237624709672
 30
0.0
 11
1148.97370209565
 21
242.5237624709672
 31
0.0
  0
LINE
  5
50
330
1F
100
AcDbEntity
  8
0218_
  6
Continuous
 62
     3
370
     9
100
AcDbLine
 10
390.4783506651185
 20
195.5235579207138
 30
0.0
 11
673.8776129645271
 21
195.5235579207138
 31
0.0
  0
LINE
  5
51
330
1F
100
AcDbEntity
  8
0218_
  6
Continuous
 62
     3
370
     9
100
AcDbLine
 10
597.1779488228464
 20
295.6776716902451
 30
0.0
 11
673.8776129645271
 21
295.6776716902451
 31
0.0
  0
LINE
  5
52
330
1F
100
AcDbEntity
  8
0216_
  6
Continuous
 62
     7
370
     9
100
AcDbLine
 10
984.7337877428214
 20
366.3365874419341
 30
0.0
 11
1175.48168285473
 21
366.3365874419341
 31
0.0
  0
LINE
  5
53
330
1F
100
AcDbEntity
  8
0255_
  6
Continuous
 62
     7
370
     9
100
AcDbLine
 10
-764.3263945708404
 20
-1036.464070500554
 30
0.0
 11
-1339.326806970545
 21
-1036.464070500554
 31
0.0
  0
LINE
  5
54
330
1F
100
AcDbEntity
  8
0243_
  6
Continuous
 62
     3
370
     9
100
AcDbLine
 10
637.1753589527026
 20
640.4222148173565
 30
0.0
 11
667.178674646326
 21
640.4222148173565
 31
0.0
  0
LINE
  5
55
330
1F
100
AcDbEntity
  8
0243_
  6
Continuous
 62
     3
370
     9
100
AcDbLine
 10
637.1753589527026
 20
675.9221587309967
 30
0.0
 11
667.178674646326
 21
675.9221587309967
 31
0.0
  0
LINE
  5
56
330
1F
100
AcDbEntity
  8
0243_
  6
Continuous
 62
     3
370
     9
100
AcDbLine
 10
637.1753589527026
 20
658.1720630542654
 30
0.0
 11
667.178674646326
 21
658.1720630542654
 31
0.0
  0
LINE
  5
57
330
1F
100
AcDbEntity
  8
0218_
  6
Continuous
 62
     3
370
     9
100
AcDbLine
 10
597.1653293918922
 20
587.4912488782729
 30
0.0
 11
632.1050695470865
 21
558.1719805743245
 31
0.0
  0
LINE
  5
58
330
1F
100
AcDbEntity
  8
0218_
  6
Continuous
 62
     3
370
     9
100
AcDbLine
 10
597.1648345122469
 20
577.2372189083617
 30
0.0
 11
619.8850064664276
 21
558.1719805743245
 31
0.0
  0
LINE
  5
59
330
1F
100
AcDbEntity
  8
0218_
  6
Continuous
 62
     3
370
     9
100
AcDbLine
 10
597.164587072424
 20
566.9830652185391
 30
0.0
 11
607.6646959459458
 21
558.1719805743245
 31
0.0
  0
LINE
  5
5A
330
1F
100
AcDbEntity
  8
0218_
  6
Continuous
 62
     3
370
     9
100
AcDbLine
 10
629.4436068148229
 20
558.1719805743245
 30
0.0
 11
637.1778333509292
 21
564.6617085224875
 31
0.0
  0
LINE
  5
5B
330
1F
100
AcDbEntity
  8
0218_
  6
Continuous
 62
     3
370
     9
100
AcDbLine
 10
597.1759693042651
 20
766.933494774071
 30
0.0
 11
637.1778333509292
 21
800.4989541543498
 31
0.0
  0
LINE
  5
5C
330
1F
100
AcDbEntity
  8
0218_
  6
Continuous
 62
     3
370
     9
100
AcDbLine
 10
597.1725051467484
 20
792.5732091955238
 30
0.0
 11
637.1778333509292
 21
759.0032958984375
 31
0.0
  0
LINE
  5
5D
330
1F
100
AcDbEntity
  8
0218_
  6
Continuous
 62
     3
370
     9
100
AcDbLine
 10
597.1754744246203
 20
756.679588524071
 30
0.0
 11
637.1778333509292
 21
790.2452953441724
 31
0.0
  0
LINE
  5
5E
330
1F
100
AcDbEntity
  8
0218_
  6
Continuous
 62
     3
370
     9
100
AcDbLine
 10
597.1720102671031
 20
782.319055505701
 30
0.0
 11
637.1778333509292
 21
748.7488947687925
 31
0.0
  0
LINE
  5
5F
330
1F
100
AcDbEntity
  8
0218_
  6
Continuous
 62
     3
370
     9
100
AcDbLine
 10
597.1752269847974
 20
746.4254348342484
 30
0.0
 11
637.1778333509292
 21
779.9913890941724
 31
0.0
  0
LINE
  5
60
330
1F
100
AcDbEntity
  8
0218_
  6
Continuous
 62
     3
370
     9
100
AcDbLine
 10
597.1717628272808
 20
772.065149255701
 30
0.0
 11
637.1778333509292
 21
738.4944936391471
 31
0.0
  0
LINE
  5
61
330
1F
100
AcDbEntity
  8
0218_
  6
Continuous
 62
     3
370
     9
100
AcDbLine
 10
597.174979544975
 20
736.1712811444258
 30
0.0
 11
637.1778333509292
 21
769.737730283995
 31
0.0
  0
LINE
  5
62
330
1F
100
AcDbEntity
  8
0218_
  6
Continuous
 62
     3
370
     9
100
AcDbLine
 10
597.1712679476354
 20
761.8109955658783
 30
0.0
 11
637.1778333509292
 21
728.2400925095019
 31
0.0
  0
LINE
  5
63
330
1F
100
AcDbEntity
  8
0218_
  6
Continuous
 62
     3
370
     9
100
AcDbLine
 10
597.1744846653297
 20
725.9171274546031
 30
0.0
 11
637.1778333509292
 21
759.483824033995
 31
0.0
  0
LINE
  5
64
330
1F
100
AcDbEntity
  8
0218_
  6
Continuous
 62
     3
370
     9
100
AcDbLine
 10
597.1710205078125
 20
751.5568418760557
 30
0.0
 11
637.1778333509292
 21
717.9856913798565
 31
0.0
  0
LINE
  5
65
330
1F
100
AcDbEntity
  8
0218_
  6
Continuous
 62
     3
370
     9
100
AcDbLine
 10
597.1742372255068
 20
715.6632212046031
 30
0.0
 11
637.1778333509292
 21
749.2301652238177
 31
0.0
  0
LINE
  5
66
330
1F
100
AcDbEntity
  8
0218_
  6
Continuous
 62
     3
370
     9
100
AcDbLine
 10
597.1707730679901
 20
741.3026881862334
 30
0.0
 11
637.1778333509292
 21
707.7312902502113
 31
0.0
  0
LINE
  5
67
330
1F
100
AcDbEntity
  8
0218_
  6
Continuous
 62
     3
370
     9
100
AcDbLine
 10
597.1737423458615
 20
705.4090675147804
 30
0.0
 11
637.1778333509292
 21
738.9762589738177
 31
0.0
  0
LINE
  5
68
330
1F
100
AcDbEntity
  8
0218_
  6
Continuous
 62
     3
370
     9
100
AcDbLine
 10
597.1702781883448
 20
731.0487819362334
 30
0.0
 11
637.1778333509292
 21
697.4768891205658
 31
0.0
  0
LINE
  5
69
330
1F
100
AcDbEntity
  8
0218_
  6
Continuous
 62
     3
370
     9
100
AcDbLine
 10
597.1734949060391
 20
695.1549138249578
 30
0.0
 11
637.1778333509292
 21
728.7226001636404
 31
0.0
  0
LINE
  5
6A
330
1F
100
AcDbEntity
  8
0218_
  6
Continuous
 62
     3
370
     9
100
AcDbLine
 10
597.1700307485219
 20
720.7946282464106
 30
0.0
 11
637.1778333509292
 21
687.2224879909209
 31
0.0
  0
LINE
  5
6B
330
1F
100
AcDbEntity
  8
0218_
  6
Continuous
 62
     3
370
     9
100
AcDbLine
 10
597.1730000263938
 20
684.9007601351352
 30
0.0
 11
637.1778333509292
 21
718.4686939136404
 31
0.0
  0
LINE
  5
6C
330
1F
100
AcDbEntity
  8
0218_
  6
Continuous
 62
     3
370
     9
100
AcDbLine
 10
597.1695358688771
 20
710.540474556588
 30
0.0
 11
637.1778333509292
 21
676.9680868612755
 31
0.0
  0
LINE
  5
6D
330
1F
100
AcDbEntity
  8
0218_
  6
Continuous
 62
     3
370
     9
100
AcDbLine
 10
597.1727525865708
 20
674.6466064453125
 30
0.0
 11
637.1778333509292
 21
708.2147876636404
 31
0.0
  0
LINE
  5
6E
330
1F
100
AcDbEntity
  8
0218_
  6
Continuous
 62
     3
370
     9
100
AcDbLine
 10
597.1692884290542
 20
700.2863208667654
 30
0.0
 11
637.1778333509292
 21
666.7136857316302
 31
0.0
  0
LINE
  5
6F
330
1F
100
AcDbEntity
  8
0218_
  6
Continuous
 62
     3
370
     9
100
AcDbLine
 10
597.1722577069261
 20
664.3927001953125
 30
0.0
 11
637.1778333509292
 21
697.961128853463
 31
0.0
  0
LINE
  5
70
330
1F
100
AcDbEntity
  8
0218_
  6
Continuous
 62
     3
370
     9
100
AcDbLine
 10
597.1687935494089
 20
690.0321671769427
 30
0.0
 11
637.1778333509292
 21
656.4592846019849
 31
0.0
  0
LINE
  5
71
330
1F
100
AcDbEntity
  8
0218_
  6
Continuous
 62
     3
370
     9
100
AcDbLine
 10
597.1720102671031
 20
654.1385465054898
 30
0.0
 11
637.1778333509292
 21
687.707222603463
 31
0.0
  0
LINE
  5
72
330
1F
100
AcDbEntity
  8
0218_
  6
Continuous
 62
     3
370
     9
100
AcDbLine
 10
597.1685461095865
 20
679.7782609269427
 30
0.0
 11
637.1778333509292
 21
646.2048834723396
 31
0.0
  0
LINE
  5
73
330
1F
100
AcDbEntity
  8
0218_
  6
Continuous
 62
     3
370
     9
100
AcDbLine
 10
597.1717628272808
 20
643.8843928156675
 30
0.0
 11
637.1778333509292
 21
677.4535637932856
 31
0.0
  0
LINE
  5
74
330
1F
100
AcDbEntity
  8
0218_
  6
Continuous
 62
     3
370
     9
100
AcDbLine
 10
597.1680512299412
 20
669.52410723712
 30
0.0
 11
637.1778333509292
 21
635.9504823426943
 31
0.0
  0
LINE
  5
75
330
1F
100
AcDbEntity
  8
0218_
  6
Continuous
 62
     3
370
     9
100
AcDbLine
 10
597.1712679476354
 20
633.6302391258448
 30
0.0
 11
637.1778333509292
 21
667.1996575432856
 31
0.0
  0
LINE
  5
76
330
1F
100
AcDbEntity
  8
0218_
  6
Continuous
 62
     3
370
     9
100
AcDbLine
 10
597.1678037901182
 20
659.2699535472974
 30
0.0
 11
637.1778333509292
 21
625.6960812130492
 31
0.0
  0
LINE
  5
77
330
1F
100
AcDbEntity
  8
0218_
  6
Continuous
 62
     3
370
     9
100
AcDbLine
 10
597.1710205078125
 20
623.3763328758448
 30
0.0
 11
637.1778333509292
 21
656.9459987331084
 31
0.0
  0
LINE
  5
78
330
1F
100
AcDbEntity
  8
0218_
  6
Continuous
 62
     3
370
     9
100
AcDbLine
 10
597.1673089104729
 20
649.0157998574748
 30
0.0
 11
637.1778333509292
 21
615.441680083404
 31
0.0
  0
LINE
  5
79
330
1F
100
AcDbEntity
  8
0218_
  6
Continuous
 62
     3
370
     9
100
AcDbLine
 10
597.1705256281672
 20
613.1221791860221
 30
0.0
 11
637.1778333509292
 21
646.6920924831084
 31
0.0
  0
LINE
  5
7A
330
1F
100
AcDbEntity
  8
0218_
  6
Continuous
 62
     3
370
     9
100
AcDbLine
 10
597.1670614706505
 20
638.7618936074748
 30
0.0
 11
637.1778333509292
 21
605.1872789537586
 31
0.0
  0
LINE
  5
7B
330
1F
100
AcDbEntity
  8
0218_
  6
Continuous
 62
     3
370
     9
100
AcDbLine
 10
597.1702781883448
 20
602.8680254961995
 30
0.0
 11
637.1778333509292
 21
636.4384336729307
 31
0.0
  0
LINE
  5
7C
330
1F
100
AcDbEntity
  8
0218_
  6
Continuous
 62
     3
370
     9
100
AcDbLine
 10
597.1697833086995
 20
592.6138718063769
 30
0.0
 11
637.1778333509292
 21
626.1845274229307
 31
0.0
  0
LINE
  5
7D
330
1F
100
AcDbEntity
  8
0218_
  6
Continuous
 62
     3
370
     9
100
AcDbLine
 10
597.1695358688771
 20
582.3598418364654
 30
0.0
 11
637.1778333509292
 21
615.9306211729307
 31
0.0
  0
LINE
  5
7E
330
1F
100
AcDbEntity
  8
0218_
  6
Continuous
 62
     3
370
     9
100
AcDbLine
 10
597.1690409892318
 20
572.1056881466429
 30
0.0
 11
637.1778333509292
 21
605.6769623627533
 31
0.0
  0
LINE
  5
7F
330
1F
100
AcDbEntity
  8
0218_
  6
Continuous
 62
     3
370
     9
100
AcDbLine
 10
597.1687935494089
 20
561.8516581767315
 30
0.0
 11
637.1778333509292
 21
595.4230561127533
 31
0.0
  0
LINE
  5
80
330
1F
100
AcDbEntity
  8
0218_
  6
Continuous
 62
     3
370
     9
100
AcDbLine
 10
617.2235437341641
 20
558.1719805743245
 30
0.0
 11
637.1778333509292
 21
574.915491052576
 31
0.0
  0
LINE
  5
81
330
1F
100
AcDbEntity
  8
0218_
  6
Continuous
 62
     3
370
     9
100
AcDbLine
 10
605.0034806535052
 20
558.1719805743245
 30
0.0
 11
637.1778333509292
 21
585.1692735826648
 31
0.0
  0
LINE
  5
82
330
1F
100
AcDbEntity
  8
0218_
  6
Continuous
 62
     3
370
     9
100
AcDbLine
 10
597.1655768317146
 20
597.7452788481842
 30
0.0
 11
637.1778333509292
 21
564.1697981550888
 31
0.0
  0
LINE
  5
83
330
1F
100
AcDbEntity
  8
0218_
  6
Continuous
 62
     3
370
     9
100
AcDbLine
 10
597.1660717113599
 20
607.9994325380068
 30
0.0
 11
637.1778333509292
 21
574.4241992847342
 31
0.0
  0
LINE
  5
84
330
1F
100
AcDbEntity
  8
0218_
  6
Continuous
 62
     3
370
     9
100
AcDbLine
 10
597.1663191511828
 20
618.2535862278294
 30
0.0
 11
637.1778333509292
 21
584.6786004143794
 31
0.0
  0
LINE
  5
85
330
1F
100
AcDbEntity
  8
0218_
  6
Continuous
 62
     3
370
     9
100
AcDbLine
 10
597.1668140308276
 20
628.5077399176521
 30
0.0
 11
637.1778333509292
 21
594.9328778241133
 31
0.0
  0
LINE
  5
86
330
1F
100
AcDbEntity
  8
0218_
  6
Continuous
 62
     3
370
     9
100
AcDbLine
 10
597.1809181007183
 20
802.8204345703125
 30
0.0
 11
637.1778333509292
 21
769.2576970280828
 31
0.0
  0
LINE
  5
87
330
1F
100
AcDbEntity
  8
0242_
  6
JWW_CENTER1
 62
     4
370
     9
100
AcDbLine
 10
724.3152515308276
 20
618.2976305162586
 30
0.0
 11
687.1985358160896
 21
618.2976305162586
 31
0.0
  0
LINE
  5
88
330
1F
100
AcDbEntity
  8
0242_
  6
Continuous
 62
     4
370
     9
100
AcDbLine
 10
724.3152515308276
 20
620.2976866026182
 30
0.0
 11
724.3152515308276
 21
616.2975744298988
 31
0.0
  0
LINE
  5
89
330
1F
100
AcDbEntity
  8
0242_
  6
Continuous
 62
     4
370
     9
100
AcDbLine
 10
724.3152515308276
 20
616.2975744298988
 30
0.0
 11
764.3151360589104
 21
616.2975744298988
 31
0.0
  0
LINE
  5
8A
330
1F
100
AcDbEntity
  8
0242_
  6
Continuous
 62
     4
370
     9
100
AcDbLine
 10
764.3151360589104
 20
616.2975744298988
 30
0.0
 11
764.3151360589104
 21
620.2976866026182
 31
0.0
  0
LINE
  5
8B
330
1F
100
AcDbEntity
  8
0242_
  6
Continuous
 62
     4
370
     9
100
AcDbLine
 10
764.3151360589104
 20
620.2976866026182
 30
0.0
 11
724.3152515308276
 21
620.2976866026182
 31
0.0
  0
LINE
  5
8C
330
1F
100
AcDbEntity
  8
0242_
  6
Continuous
 62
     4
370
     9
100
AcDbLine
 10
742.35930571685
 20
611.6402620882602
 30
0.0
 11
742.35930571685
 21
562.3909532701648
 31
0.0
  0
LINE
  5
8D
330
1F
100
AcDbEntity
  8
0242_
  6
Continuous
 62
     4
370
     9
100
AcDbLine
 10
742.35930571685
 20
611.6402620882602
 30
0.0
 11
745.622542097762
 21
586.8542150548988
 31
0.0
  0
LINE
  5
8E
330
1F
100
AcDbEntity
  8
0242_
  6
Continuous
 62
     4
370
     9
100
AcDbLine
 10
742.35930571685
 20
611.6402620882602
 30
0.0
 11
739.0963167757604
 21
586.8542150548988
 31
0.0
  0
LINE
  5
8F
330
1F
100
AcDbEntity
  8
0243_
  6
Continuous
 62
     3
370
     9
100
AcDbLine
 10
552.1753259607266
 20
640.4222148173565
 30
0.0
 11
597.1759693042651
 21
640.4222148173565
 31
0.0
  0
LINE
  5
90
330
1F
100
AcDbEntity
  8
0243_
  6
Continuous
 62
     3
370
     9
100
AcDbLine
 10
552.1753259607266
 20
675.9221587309967
 30
0.0
 11
597.1759693042651
 21
675.9221587309967
 31
0.0
  0
LINE
  5
91
330
1F
100
AcDbEntity
  8
0243_
  6
Continuous
 62
     3
370
     9
100
AcDbLine
 10
552.1753259607266
 20
658.1720630542654
 30
0.0
 11
597.1759693042651
 21
658.1720630542654
 31
0.0
  0
LINE
  5
92
330
1F
100
AcDbEntity
  8
0218_
  6
Continuous
 62
     3
370
     9
100
AcDbLine
 10
512.162822001689
 20
587.4912488782729
 30
0.0
 11
547.1025621568833
 21
558.1719805743245
 31
0.0
  0
LINE
  5
93
330
1F
100
AcDbEntity
  8
0218_
  6
Continuous
 62
     3
370
     9
100
AcDbLine
 10
512.1625745618667
 20
577.2372189083617
 30
0.0
 11
534.882499076225
 21
558.1719805743245
 31
0.0
  0
LINE
  5
94
330
1F
100
AcDbEntity
  8
0218_
  6
Continuous
 62
     3
370
     9
100
AcDbLine
 10
512.1620796822214
 20
566.9830652185391
 30
0.0
 11
522.6624359955662
 21
558.1719805743245
 31
0.0
  0
LINE
  5
95
330
1F
100
AcDbEntity
  8
0218_
  6
Continuous
 62
     3
370
     9
100
AcDbLine
 10
544.4410994246203
 20
558.1719805743245
 30
0.0
 11
552.1753259607266
 21
564.6617085224875
 31
0.0
  0
LINE
  5
96
330
1F
100
AcDbEntity
  8
0218_
  6
Continuous
 62
     3
370
     9
100
AcDbLine
 10
512.1734619140625
 20
766.933494774071
 30
0.0
 11
552.1753259607266
 21
800.4989541543498
 31
0.0
  0
LINE
  5
97
330
1F
100
AcDbEntity
  8
0218_
  6
Continuous
 62
     3
370
     9
100
AcDbLine
 10
512.1699977565459
 20
792.5732091955238
 30
0.0
 11
552.1753259607266
 21
759.0032958984375
 31
0.0
  0
LINE
  5
98
330
1F
100
AcDbEntity
  8
0218_
  6
Continuous
 62
     3
370
     9
100
AcDbLine
 10
512.1732144742401
 20
756.679588524071
 30
0.0
 11
552.1753259607266
 21
790.2452953441724
 31
0.0
  0
LINE
  5
99
330
1F
100
AcDbEntity
  8
0218_
  6
Continuous
 62
     3
370
     9
100
AcDbLine
 10
512.1697503167229
 20
782.319055505701
 30
0.0
 11
552.1753259607266
 21
748.7488947687925
 31
0.0
  0
LINE
  5
9A
330
1F
100
AcDbEntity
  8
0218_
  6
Continuous
 62
     3
370
     9
100
AcDbLine
 10
512.1727195945948
 20
746.4254348342484
 30
0.0
 11
552.1753259607266
 21
779.9913890941724
 31
0.0
  0
LINE
  5
9B
330
1F
100
AcDbEntity
  8
0218_
  6
Continuous
 62
     3
370
     9
100
AcDbLine
 10
512.1692554370776
 20
772.065149255701
 30
0.0
 11
552.1753259607266
 21
738.4944936391471
 31
0.0
  0
LINE
  5
9C
330
1F
100
AcDbEntity
  8
0218_
  6
Continuous
 62
     3
370
     9
100
AcDbLine
 10
512.1724721547719
 20
736.1712811444258
 30
0.0
 11
552.1753259607266
 21
769.737730283995
 31
0.0
  0
LINE
  5
9D
330
1F
100
AcDbEntity
  8
0218_
  6
Continuous
 62
     3
370
     9
100
AcDbLine
 10
512.1690079972552
 20
761.8109955658783
 30
0.0
 11
552.1753259607266
 21
728.2400925095019
 31
0.0
  0
LINE
  5
9E
330
1F
100
AcDbEntity
  8
0218_
  6
Continuous
 62
     3
370
     9
100
AcDbLine
 10
512.1719772751266
 20
725.9171274546031
 30
0.0
 11
552.1753259607266
 21
759.483824033995
 31
0.0
  0
LINE
  5
9F
330
1F
100
AcDbEntity
  8
0218_
  6
Continuous
 62
     3
370
     9
100
AcDbLine
 10
512.1685131176099
 20
751.5568418760557
 30
0.0
 11
552.1753259607266
 21
717.9856913798565
 31
0.0
  0
LINE
  5
A0
330
1F
100
AcDbEntity
  8
0218_
  6
Continuous
 62
     3
370
     9
100
AcDbLine
 10
512.1717298353042
 20
715.6632212046031
 30
0.0
 11
552.1753259607266
 21
749.2301652238177
 31
0.0
  0
LINE
  5
A1
330
1F
100
AcDbEntity
  8
0218_
  6
Continuous
 62
     3
370
     9
100
AcDbLine
 10
512.1682656777875
 20
741.3026881862334
 30
0.0
 11
552.1753259607266
 21
707.7312902502113
 31
0.0
  0
LINE
  5
A2
330
1F
100
AcDbEntity
  8
0218_
  6
Continuous
 62
     3
370
     9
100
AcDbLine
 10
512.1714823954818
 20
705.4090675147804
 30
0.0
 11
552.1753259607266
 21
738.9762589738177
 31
0.0
  0
LINE
  5
A3
330
1F
100
AcDbEntity
  8
0218_
  6
Continuous
 62
     3
370
     9
100
AcDbLine
 10
512.1677707981422
 20
731.0487819362334
 30
0.0
 11
552.1753259607266
 21
697.4768891205658
 31
0.0
  0
LINE
  5
A4
330
1F
100
AcDbEntity
  8
0218_
  6
Continuous
 62
     3
370
     9
100
AcDbLine
 10
512.1709875158365
 20
695.1549138249578
 30
0.0
 11
552.1753259607266
 21
728.7226001636404
 31
0.0
  0
LINE
  5
A5
330
1F
100
AcDbEntity
  8
0218_
  6
Continuous
 62
     3
370
     9
100
AcDbLine
 10
512.1675233583193
 20
720.7946282464106
 30
0.0
 11
552.1753259607266
 21
687.2224879909209
 31
0.0
  0
LINE
  5
A6
330
1F
100
AcDbEntity
  8
0218_
  6
Continuous
 62
     3
370
     9
100
AcDbLine
 10
512.1707400760135
 20
684.9007601351352
 30
0.0
 11
552.1753259607266
 21
718.4686939136404
 31
0.0
  0
LINE
  5
A7
330
1F
100
AcDbEntity
  8
0218_
  6
Continuous
 62
     3
370
     9
100
AcDbLine
 10
512.1672759184969
 20
710.540474556588
 30
0.0
 11
552.1753259607266
 21
676.9680868612755
 31
0.0
  0
LINE
  5
A8
330
1F
100
AcDbEntity
  8
0218_
  6
Continuous
 62
     3
370
     9
100
AcDbLine
 10
512.1702451963682
 20
674.6466064453125
 30
0.0
 11
552.1753259607266
 21
708.2147876636404
 31
0.0
  0
LINE
  5
A9
330
1F
100
AcDbEntity
  8
0218_
  6
Continuous
 62
     3
370
     9
100
AcDbLine
 10
512.1667810388516
 20
700.2863208667654
 30
0.0
 11
552.1753259607266
 21
666.7136857316302
 31
0.0
  0
LINE
  5
AA
330
1F
100
AcDbEntity
  8
0218_
  6
Continuous
 62
     3
370
     9
100
AcDbLine
 10
512.1699977565459
 20
664.3927001953125
 30
0.0
 11
552.1753259607266
 21
697.961128853463
 31
0.0
  0
LINE
  5
AB
330
1F
100
AcDbEntity
  8
0218_
  6
Continuous
 62
     3
370
     9
100
AcDbLine
 10
512.1665335990286
 20
690.0321671769427
 30
0.0
 11
552.1753259607266
 21
656.4592846019849
 31
0.0
  0
LINE
  5
AC
330
1F
100
AcDbEntity
  8
0218_
  6
Continuous
 62
     3
370
     9
100
AcDbLine
 10
512.1695028769005
 20
654.1385465054898
 30
0.0
 11
552.1753259607266
 21
687.707222603463
 31
0.0
  0
LINE
  5
AD
330
1F
100
AcDbEntity
  8
0218_
  6
Continuous
 62
     3
370
     9
100
AcDbLine
 10
512.1660387193833
 20
679.7782609269427
 30
0.0
 11
552.1753259607266
 21
646.2048834723396
 31
0.0
  0
LINE
  5
AE
330
1F
100
AcDbEntity
  8
0218_
  6
Continuous
 62
     3
370
     9
100
AcDbLine
 10
512.1692554370776
 20
643.8843928156675
 30
0.0
 11
552.1753259607266
 21
677.4535637932856
 31
0.0
  0
LINE
  5
AF
330
1F
100
AcDbEntity
  8
0218_
  6
Continuous
 62
     3
370
     9
100
AcDbLine
 10
512.165791279561
 20
669.52410723712
 30
0.0
 11
552.1753259607266
 21
635.9504823426943
 31
0.0
  0
LINE
  5
B0
330
1F
100
AcDbEntity
  8
0218_
  6
Continuous
 62
     3
370
     9
100
AcDbLine
 10
512.1687605574328
 20
633.6302391258448
 30
0.0
 11
552.1753259607266
 21
667.1996575432856
 31
0.0
  0
LINE
  5
B1
330
1F
100
AcDbEntity
  8
0218_
  6
Continuous
 62
     3
370
     9
100
AcDbLine
 10
512.1652963999156
 20
659.2699535472974
 30
0.0
 11
552.1753259607266
 21
625.6960812130492
 31
0.0
  0
LINE
  5
B2
330
1F
100
AcDbEntity
  8
0218_
  6
Continuous
 62
     3
370
     9
100
AcDbLine
 10
512.1685131176099
 20
623.3763328758448
 30
0.0
 11
552.1753259607266
 21
656.9459987331084
 31
0.0
  0
LINE
  5
B3
330
1F
100
AcDbEntity
  8
0218_
  6
Continuous
 62
     3
370
     9
100
AcDbLine
 10
512.1650489600933
 20
649.0157998574748
 30
0.0
 11
552.1753259607266
 21
615.441680083404
 31
0.0
  0
LINE
  5
B4
330
1F
100
AcDbEntity
  8
0218_
  6
Continuous
 62
     3
370
     9
100
AcDbLine
 10
512.1682656777875
 20
613.1221791860221
 30
0.0
 11
552.1753259607266
 21
646.6920924831084
 31
0.0
  0
LINE
  5
B5
330
1F
100
AcDbEntity
  8
0218_
  6
Continuous
 62
     3
370
     9
100
AcDbLine
 10
512.1645540804479
 20
638.7618936074748
 30
0.0
 11
552.1753259607266
 21
605.1872789537586
 31
0.0
  0
LINE
  5
B6
330
1F
100
AcDbEntity
  8
0218_
  6
Continuous
 62
     3
370
     9
100
AcDbLine
 10
512.1677707981422
 20
602.8680254961995
 30
0.0
 11
552.1753259607266
 21
636.4384336729307
 31
0.0
  0
LINE
  5
B7
330
1F
100
AcDbEntity
  8
0218_
  6
Continuous
 62
     3
370
     9
100
AcDbLine
 10
512.1675233583193
 20
592.6138718063769
 30
0.0
 11
552.1753259607266
 21
626.1845274229307
 31
0.0
  0
LINE
  5
B8
330
1F
100
AcDbEntity
  8
0218_
  6
Continuous
 62
     3
370
     9
100
AcDbLine
 10
512.167028478674
 20
582.3598418364654
 30
0.0
 11
552.1753259607266
 21
615.9306211729307
 31
0.0
  0
LINE
  5
B9
330
1F
100
AcDbEntity
  8
0218_
  6
Continuous
 62
     3
370
     9
100
AcDbLine
 10
512.1667810388516
 20
572.1056881466429
 30
0.0
 11
552.1753259607266
 21
605.6769623627533
 31
0.0
  0
LINE
  5
BA
330
1F
100
AcDbEntity
  8
0218_
  6
Continuous
 62
     3
370
     9
100
AcDbLine
 10
512.1662861592063
 20
561.8516581767315
 30
0.0
 11
552.1753259607266
 21
595.4230561127533
 31
0.0
  0
LINE
  5
BB
330
1F
100
AcDbEntity
  8
0218_
  6
Continuous
 62
     3
370
     9
100
AcDbLine
 10
532.2212837837839
 20
558.1719805743245
 30
0.0
 11
552.1753259607266
 21
574.915491052576
 31
0.0
  0
LINE
  5
BC
330
1F
100
AcDbEntity
  8
0218_
  6
Continuous
 62
     3
370
     9
100
AcDbLine
 10
520.001220703125
 20
558.1719805743245
 30
0.0
 11
552.1753259607266
 21
585.1692735826648
 31
0.0
  0
LINE
  5
BD
330
1F
100
AcDbEntity
  8
0218_
  6
Continuous
 62
     3
370
     9
100
AcDbLine
 10
512.1633168813344
 20
597.7452788481842
 30
0.0
 11
552.1753259607266
 21
564.1697981550888
 31
0.0
  0
LINE
  5
BE
330
1F
100
AcDbEntity
  8
0218_
  6
Continuous
 62
     3
370
     9
100
AcDbLine
 10
512.1635643211573
 20
607.9994325380068
 30
0.0
 11
552.1753259607266
 21
574.4241992847342
 31
0.0
  0
LINE
  5
BF
330
1F
100
AcDbEntity
  8
0218_
  6
Continuous
 62
     3
370
     9
100
AcDbLine
 10
512.1640592008026
 20
618.2535862278294
 30
0.0
 11
552.1753259607266
 21
584.6786004143794
 31
0.0
  0
LINE
  5
C0
330
1F
100
AcDbEntity
  8
0218_
  6
Continuous
 62
     3
370
     9
100
AcDbLine
 10
512.164306640625
 20
628.5077399176521
 30
0.0
 11
552.1753259607266
 21
594.9328778241133
 31
0.0
  0
LINE
  5
C1
330
1F
100
AcDbEntity
  8
0218_
  6
Continuous
 62
     3
370
     9
100
AcDbLine
 10
512.178658150338
 20
802.8204345703125
 30
0.0
 11
552.1753259607266
 21
769.2576970280828
 31
0.0
  0
LINE
  5
C2
330
1F
100
AcDbEntity
  8
0243_
  6
Continuous
 62
     3
370
     9
100
AcDbLine
 10
397.2196011929901
 20
640.4222148173565
 30
0.0
 11
427.1786251583617
 21
640.4222148173565
 31
0.0
  0
LINE
  5
C3
330
1F
100
AcDbEntity
  8
0243_
  6
Continuous
 62
     3
370
     9
100
AcDbLine
 10
467.1785096864443
 20
640.4222148173565
 30
0.0
 11
512.178658150338
 21
640.4222148173565
 31
0.0
  0
LINE
  5
C4
330
1F
100
AcDbEntity
  8
0243_
  6
Continuous
 62
     3
370
     9
100
AcDbLine
 10
397.2196011929901
 20
675.9221587309967
 30
0.0
 11
427.1786251583617
 21
675.9221587309967
 31
0.0
  0
LINE
  5
C5
330
1F
100
AcDbEntity
  8
0243_
  6
Continuous
 62
     3
370
     9
100
AcDbLine
 10
467.1785096864443
 20
675.9221587309967
 30
0.0
 11
512.178658150338
 21
675.9221587309967
 31
0.0
  0
LINE
  5
C6
330
1F
100
AcDbEntity
  8
0243_
  6
Continuous
 62
     3
370
     9
100
AcDbLine
 10
467.1785096864443
 20
658.1720630542654
 30
0.0
 11
512.178658150338
 21
658.1720630542654
 31
0.0
  0
LINE
  5
C7
330
1F
100
AcDbEntity
  8
0243_
  6
Continuous
 62
     3
370
     9
100
AcDbLine
 10
397.2196011929901
 20
658.1720630542654
 30
0.0
 11
427.1786251583617
 21
658.1720630542654
 31
0.0
  0
LINE
  5
C8
330
1F
100
AcDbEntity
  8
0218_
  6
Continuous
 62
     3
370
     9
100
AcDbLine
 10
427.162789009713
 20
587.4912488782729
 30
0.0
 11
462.1027766047297
 21
558.1719805743245
 31
0.0
  0
LINE
  5
C9
330
1F
100
AcDbEntity
  8
0218_
  6
Continuous
 62
     3
370
     9
100
AcDbLine
 10
427.1625415698904
 20
577.2372189083617
 30
0.0
 11
449.8824660842484
 21
558.1719805743245
 31
0.0
  0
LINE
  5
CA
330
1F
100
AcDbEntity
  8
0218_
  6
Continuous
 62
     3
370
     9
100
AcDbLine
 10
427.1620466902451
 20
566.9830652185391
 30
0.0
 11
437.6624030035896
 21
558.1719805743245
 31
0.0
  0
LINE
  5
CB
330
1F
100
AcDbEntity
  8
0218_
  6
Continuous
 62
     3
370
     9
100
AcDbLine
 10
459.4410664326438
 20
558.1719805743245
 30
0.0
 11
467.17529296875
 21
564.6617085224875
 31
0.0
  0
LINE
  5
CC
330
1F
100
AcDbEntity
  8
0218_
  6
Continuous
 62
     3
370
     9
100
AcDbLine
 10
427.1734289220862
 20
766.933494774071
 30
0.0
 11
467.17529296875
 21
800.4989541543498
 31
0.0
  0
LINE
  5
CD
330
1F
100
AcDbEntity
  8
0218_
  6
Continuous
 62
     3
370
     9
100
AcDbLine
 10
427.1699647645693
 20
792.5732091955238
 30
0.0
 11
467.17529296875
 21
759.0032958984375
 31
0.0
  0
LINE
  5
CE
330
1F
100
AcDbEntity
  8
0218_
  6
Continuous
 62
     3
370
     9
100
AcDbLine
 10
427.1731814822635
 20
756.679588524071
 30
0.0
 11
467.17529296875
 21
790.2452953441724
 31
0.0
  0
LINE
  5
CF
330
1F
100
AcDbEntity
  8
0218_
  6
Continuous
 62
     3
370
     9
100
AcDbLine
 10
427.1697173247469
 20
782.319055505701
 30
0.0
 11
467.17529296875
 21
748.7488947687925
 31
0.0
  0
LINE
  5
D0
330
1F
100
AcDbEntity
  8
0218_
  6
Continuous
 62
     3
370
     9
100
AcDbLine
 10
427.1729340424409
 20
746.4254348342484
 30
0.0
 11
467.17529296875
 21
779.9913890941724
 31
0.0
  0
LINE
  5
D1
330
1F
100
AcDbEntity
  8
0218_
  6
Continuous
 62
     3
370
     9
100
AcDbLine
 10
427.1692224451016
 20
772.065149255701
 30
0.0
 11
467.17529296875
 21
738.4944936391471
 31
0.0
  0
LINE
  5
D2
330
1F
100
AcDbEntity
  8
0218_
  6
Continuous
 62
     3
370
     9
100
AcDbLine
 10
427.1724391627959
 20
736.1712811444258
 30
0.0
 11
467.17529296875
 21
769.737730283995
 31
0.0
  0
LINE
  5
D3
330
1F
100
AcDbEntity
  8
0218_
  6
Continuous
 62
     3
370
     9
100
AcDbLine
 10
427.1689750052789
 20
761.8109955658783
 30
0.0
 11
467.17529296875
 21
728.2400925095019
 31
0.0
  0
LINE
  5
D4
330
1F
100
AcDbEntity
  8
0218_
  6
Continuous
 62
     3
370
     9
100
AcDbLine
 10
427.1721917229732
 20
725.9171274546031
 30
0.0
 11
467.17529296875
 21
759.483824033995
 31
0.0
  0
LINE
  5
D5
330
1F
100
AcDbEntity
  8
0218_
  6
Continuous
 62
     3
370
     9
100
AcDbLine
 10
427.1684801256336
 20
751.5568418760557
 30
0.0
 11
467.17529296875
 21
717.9856913798565
 31
0.0
  0
LINE
  5
D6
330
1F
100
AcDbEntity
  8
0218_
  6
Continuous
 62
     3
370
     9
100
AcDbLine
 10
427.1716968433279
 20
715.6632212046031
 30
0.0
 11
467.17529296875
 21
749.2301652238177
 31
0.0
  0
LINE
  5
D7
330
1F
100
AcDbEntity
  8
0218_
  6
Continuous
 62
     3
370
     9
100
AcDbLine
 10
427.1682326858109
 20
741.3026881862334
 30
0.0
 11
467.17529296875
 21
707.7312902502113
 31
0.0
  0
LINE
  5
D8
330
1F
100
AcDbEntity
  8
0218_
  6
Continuous
 62
     3
370
     9
100
AcDbLine
 10
427.1714494035052
 20
705.4090675147804
 30
0.0
 11
467.17529296875
 21
738.9762589738177
 31
0.0
  0
LINE
  5
D9
330
1F
100
AcDbEntity
  8
0218_
  6
Continuous
 62
     3
370
     9
100
AcDbLine
 10
427.1679852459883
 20
731.0487819362334
 30
0.0
 11
467.17529296875
 21
697.4768891205658
 31
0.0
  0
LINE
  5
DA
330
1F
100
AcDbEntity
  8
0218_
  6
Continuous
 62
     3
370
     9
100
AcDbLine
 10
427.1709545238599
 20
695.1549138249578
 30
0.0
 11
467.17529296875
 21
728.7226001636404
 31
0.0
  0
LINE
  5
DB
330
1F
100
AcDbEntity
  8
0218_
  6
Continuous
 62
     3
370
     9
100
AcDbLine
 10
427.167490366343
 20
720.7946282464106
 30
0.0
 11
467.17529296875
 21
687.2224879909209
 31
0.0
  0
LINE
  5
DC
330
1F
100
AcDbEntity
  8
0218_
  6
Continuous
 62
     3
370
     9
100
AcDbLine
 10
427.1707070840372
 20
684.9007601351352
 30
0.0
 11
467.17529296875
 21
718.4686939136404
 31
0.0
  0
LINE
  5
DD
330
1F
100
AcDbEntity
  8
0218_
  6
Continuous
 62
     3
370
     9
100
AcDbLine
 10
427.1672429265203
 20
710.540474556588
 30
0.0
 11
467.17529296875
 21
676.9680868612755
 31
0.0
  0
LINE
  5
DE
330
1F
100
AcDbEntity
  8
0218_
  6
Continuous
 62
     3
370
     9
100
AcDbLine
 10
427.1702122043919
 20
674.6466064453125
 30
0.0
 11
467.17529296875
 21
708.2147876636404
 31
0.0
  0
LINE
  5
DF
330
1F
100
AcDbEntity
  8
0218_
  6
Continuous
 62
     3
370
     9
100
AcDbLine
 10
427.166748046875
 20
700.2863208667654
 30
0.0
 11
467.17529296875
 21
666.7136857316302
 31
0.0
  0
LINE
  5
E0
330
1F
100
AcDbEntity
  8
0218_
  6
Continuous
 62
     3
370
     9
100
AcDbLine
 10
427.1699647645693
 20
664.3927001953125
 30
0.0
 11
467.17529296875
 21
697.961128853463
 31
0.0
  0
LINE
  5
E1
330
1F
100
AcDbEntity
  8
0218_
  6
Continuous
 62
     3
370
     9
100
AcDbLine
 10
427.1665006070526
 20
690.0321671769427
 30
0.0
 11
467.17529296875
 21
656.4592846019849
 31
0.0
  0
LINE
  5
E2
330
1F
100
AcDbEntity
  8
0218_
  6
Continuous
 62
     3
370
     9
100
AcDbLine
 10
427.1697173247469
 20
654.1385465054898
 30
0.0
 11
467.17529296875
 21
687.707222603463
 31
0.0
  0
LINE
  5
E3
330
1F
100
AcDbEntity
  8
0218_
  6
Continuous
 62
     3
370
     9
100
AcDbLine
 10
427.1660057274073
 20
679.7782609269427
 30
0.0
 11
467.17529296875
 21
646.2048834723396
 31
0.0
  0
LINE
  5
E4
330
1F
100
AcDbEntity
  8
0218_
  6
Continuous
 62
     3
370
     9
100
AcDbLine
 10
427.1692224451016
 20
643.8843928156675
 30
0.0
 11
467.17529296875
 21
677.4535637932856
 31
0.0
  0
LINE
  5
E5
330
1F
100
AcDbEntity
  8
0218_
  6
Continuous
 62
     3
370
     9
100
AcDbLine
 10
427.1657582875847
 20
669.52410723712
 30
0.0
 11
467.17529296875
 21
635.9504823426943
 31
0.0
  0
LINE
  5
E6
330
1F
100
AcDbEntity
  8
0218_
  6
Continuous
 62
     3
370
     9
100
AcDbLine
 10
427.1689750052789
 20
633.6302391258448
 30
0.0
 11
467.17529296875
 21
667.1996575432856
 31
0.0
  0
LINE
  5
E7
330
1F
100
AcDbEntity
  8
0218_
  6
Continuous
 62
     3
370
     9
100
AcDbLine
 10
427.1652634079393
 20
659.2699535472974
 30
0.0
 11
467.17529296875
 21
625.6960812130492
 31
0.0
  0
LINE
  5
E8
330
1F
100
AcDbEntity
  8
0218_
  6
Continuous
 62
     3
370
     9
100
AcDbLine
 10
427.1684801256336
 20
623.3763328758448
 30
0.0
 11
467.17529296875
 21
656.9459987331084
 31
0.0
  0
LINE
  5
E9
330
1F
100
AcDbEntity
  8
0218_
  6
Continuous
 62
     3
370
     9
100
AcDbLine
 10
427.1650159681167
 20
649.0157998574748
 30
0.0
 11
467.17529296875
 21
615.441680083404
 31
0.0
  0
LINE
  5
EA
330
1F
100
AcDbEntity
  8
0218_
  6
Continuous
 62
     3
370
     9
100
AcDbLine
 10
427.1682326858109
 20
613.1221791860221
 30
0.0
 11
467.17529296875
 21
646.6920924831084
 31
0.0
  0
LINE
  5
EB
330
1F
100
AcDbEntity
  8
0218_
  6
Continuous
 62
     3
370
     9
100
AcDbLine
 10
427.164768528294
 20
638.7618936074748
 30
0.0
 11
467.17529296875
 21
605.1872789537586
 31
0.0
  0
LINE
  5
EC
330
1F
100
AcDbEntity
  8
0218_
  6
Continuous
 62
     3
370
     9
100
AcDbLine
 10
427.1677378061656
 20
602.8680254961995
 30
0.0
 11
467.17529296875
 21
636.4384336729307
 31
0.0
  0
LINE
  5
ED
330
1F
100
AcDbEntity
  8
0218_
  6
Continuous
 62
     3
370
     9
100
AcDbLine
 10
427.167490366343
 20
592.6138718063769
 30
0.0
 11
467.17529296875
 21
626.1845274229307
 31
0.0
  0
LINE
  5
EE
330
1F
100
AcDbEntity
  8
0218_
  6
Continuous
 62
     3
370
     9
100
AcDbLine
 10
427.1669954866977
 20
582.3598418364654
 30
0.0
 11
467.17529296875
 21
615.9306211729307
 31
0.0
  0
LINE
  5
EF
330
1F
100
AcDbEntity
  8
0218_
  6
Continuous
 62
     3
370
     9
100
AcDbLine
 10
427.166748046875
 20
572.1056881466429
 30
0.0
 11
467.17529296875
 21
605.6769623627533
 31
0.0
  0
LINE
  5
F0
330
1F
100
AcDbEntity
  8
0218_
  6
Continuous
 62
     3
370
     9
100
AcDbLine
 10
427.16625316723
 20
561.8516581767315
 30
0.0
 11
467.17529296875
 21
595.4230561127533
 31
0.0
  0
LINE
  5
F1
330
1F
100
AcDbEntity
  8
0218_
  6
Continuous
 62
     3
370
     9
100
AcDbLine
 10
447.2212507918076
 20
558.1719805743245
 30
0.0
 11
467.17529296875
 21
574.915491052576
 31
0.0
  0
LINE
  5
F2
330
1F
100
AcDbEntity
  8
0218_
  6
Continuous
 62
     3
370
     9
100
AcDbLine
 10
435.0011877111487
 20
558.1719805743245
 30
0.0
 11
467.17529296875
 21
585.1692735826648
 31
0.0
  0
LINE
  5
F3
330
1F
100
AcDbEntity
  8
0218_
  6
Continuous
 62
     3
370
     9
100
AcDbLine
 10
427.1632838893584
 20
597.7452788481842
 30
0.0
 11
467.17529296875
 21
564.1697981550888
 31
0.0
  0
LINE
  5
F4
330
1F
100
AcDbEntity
  8
0218_
  6
Continuous
 62
     3
370
     9
100
AcDbLine
 10
427.163531329181
 20
607.9994325380068
 30
0.0
 11
467.17529296875
 21
574.4241992847342
 31
0.0
  0
LINE
  5
F5
330
1F
100
AcDbEntity
  8
0218_
  6
Continuous
 62
     3
370
     9
100
AcDbLine
 10
427.164026208826
 20
618.2535862278294
 30
0.0
 11
467.17529296875
 21
584.6786004143794
 31
0.0
  0
LINE
  5
F6
330
1F
100
AcDbEntity
  8
0218_
  6
Continuous
 62
     3
370
     9
100
AcDbLine
 10
427.1642736486487
 20
628.5077399176521
 30
0.0
 11
467.17529296875
 21
594.9328778241133
 31
0.0
  0
LINE
  5
F7
330
1F
100
AcDbEntity
  8
0218_
  6
Continuous
 62
     3
370
     9
100
AcDbLine
 10
427.1786251583617
 20
802.8204345703125
 30
0.0
 11
467.17529296875
 21
769.2576970280828
 31
0.0
  0
LINE
  5
F8
330
1F
100
AcDbEntity
  8
0242_
  6
JWW_CENTER1
 62
     4
370
     9
100
AcDbLine
 10
345.8800444731844
 20
618.2976305162586
 30
0.0
 11
382.9967601879224
 21
618.2976305162586
 31
0.0
  0
LINE
  5
F9
330
1F
100
AcDbEntity
  8
0242_
  6
Continuous
 62
     4
370
     9
100
AcDbLine
 10
345.8800444731844
 20
616.2975744298988
 30
0.0
 11
345.8800444731844
 21
620.2976866026182
 31
0.0
  0
LINE
  5
FA
330
1F
100
AcDbEntity
  8
0242_
  6
Continuous
 62
     4
370
     9
100
AcDbLine
 10
345.8800444731844
 20
620.2976866026182
 30
0.0
 11
305.8801599451016
 21
620.2976866026182
 31
0.0
  0
LINE
  5
FB
330
1F
100
AcDbEntity
  8
0242_
  6
Continuous
 62
     4
370
     9
100
AcDbLine
 10
305.8801599451016
 20
620.2976866026182
 30
0.0
 11
305.8801599451016
 21
616.2975744298988
 31
0.0
  0
LINE
  5
FC
330
1F
100
AcDbEntity
  8
0242_
  6
Continuous
 62
     4
370
     9
100
AcDbLine
 10
305.8801599451016
 20
616.2975744298988
 30
0.0
 11
345.8800444731844
 21
616.2975744298988
 31
0.0
  0
LINE
  5
FD
330
1F
100
AcDbEntity
  8
0242_
  6
Continuous
 62
     4
370
     9
100
AcDbLine
 10
324.899127032306
 20
608.6316412848396
 30
0.0
 11
324.899127032306
 21
559.3820850269217
 31
0.0
  0
LINE
  5
FE
330
1F
100
AcDbEntity
  8
0242_
  6
Continuous
 62
     4
370
     9
100
AcDbLine
 10
324.899127032306
 20
608.6316412848396
 30
0.0
 11
328.162363413218
 21
583.8454705315669
 31
0.0
  0
LINE
  5
FF
330
1F
100
AcDbEntity
  8
0242_
  6
Continuous
 62
     4
370
     9
100
AcDbLine
 10
324.899127032306
 20
608.6316412848396
 30
0.0
 11
321.6358906513938
 21
583.8454705315669
 31
0.0
  0
LINE
  5
100
330
1F
100
AcDbEntity
  8
0216_
  6
Continuous
 62
     7
370
     9
100
AcDbLine
 10
427.1786251583617
 20
346.3023747624578
 30
0.0
 11
427.1786251583617
 21
310.8760441960516
 31
0.0
  0
LINE
  5
101
330
1F
100
AcDbEntity
  8
0216_
  6
Continuous
 62
     7
370
     9
100
AcDbLine
 10
467.178014806799
 20
346.3023747624578
 30
0.0
 11
467.178014806799
 21
310.8760441960516
 31
0.0
  0
LINE
  5
102
330
1F
100
AcDbEntity
  8
0216_
  6
Continuous
 62
     7
370
     9
100
AcDbLine
 10
467.178014806799
 20
343.3022906329182
 30
0.0
 11
512.0784450221709
 21
343.3022906329182
 31
0.0
  0
LINE
  5
103
330
1F
100
AcDbEntity
  8
0216_
  6
Continuous
 62
     7
370
     9
100
AcDbLine
 10
512.0784450221709
 20
346.3023747624578
 30
0.0
 11
512.0784450221709
 21
310.8760441960516
 31
0.0
  0
LINE
  5
104
330
1F
100
AcDbEntity
  8
0216_
  6
Continuous
 62
     7
370
     9
100
AcDbLine
 10
512.0784450221709
 20
343.3022906329182
 30
0.0
 11
552.0780821104307
 21
343.3022906329182
 31
0.0
  0
LINE
  5
105
330
1F
100
AcDbEntity
  8
0216_
  6
Continuous
 62
     7
370
     9
100
AcDbLine
 10
552.0780821104307
 20
346.3023747624578
 30
0.0
 11
552.0780821104307
 21
310.8760441960516
 31
0.0
  0
LINE
  5
106
330
1F
100
AcDbEntity
  8
0216_
  6
Continuous
 62
     7
370
     9
100
AcDbLine
 10
552.0780821104307
 20
343.3022906329182
 30
0.0
 11
596.9785123258026
 21
343.3022906329182
 31
0.0
  0
LINE
  5
107
330
1F
100
AcDbEntity
  8
0216_
  6
Continuous
 62
     7
370
     9
100
AcDbLine
 10
596.9785123258026
 20
346.3023747624578
 30
0.0
 11
596.9785123258026
 21
310.8760441960516
 31
0.0
  0
LINE
  5
108
330
1F
100
AcDbEntity
  8
0216_
  6
Continuous
 62
     7
370
     9
100
AcDbLine
 10
636.9781494140625
 20
346.3023747624578
 30
0.0
 11
636.9781494140625
 21
310.8760441960516
 31
0.0
  0
LINE
  5
109
330
1F
100
AcDbEntity
  8
0218_
  6
Continuous
 62
     3
370
     9
100
AcDbLine
 10
427.1786251583617
 20
295.6776716902451
 30
0.0
 11
427.1786251583617
 21
288.6775991078972
 31
0.0
  0
LINE
  5
10A
330
1F
100
AcDbEntity
  8
0218_
  6
Continuous
 62
     3
370
     9
100
AcDbLine
 10
443.6781599714951
 20
288.6775991078972
 30
0.0
 11
443.6781599714951
 21
195.6826617266682
 31
0.0
  0
LINE
  5
10B
330
1F
100
AcDbEntity
  8
0218_
  6
Continuous
 62
     3
370
     9
100
AcDbLine
 10
390.4783506651185
 20
295.6776716902451
 30
0.0
 11
512.1779158308703
 21
295.6776716902451
 31
0.0
  0
LINE
  5
10C
330
1F
100
AcDbEntity
  8
0218_
  6
Continuous
 62
     3
370
     9
100
AcDbLine
 10
450.6784799936656
 20
288.6775991078972
 30
0.0
 11
450.6784799936656
 21
195.6826617266682
 31
0.0
  0
LINE
  5
10D
330
1F
100
AcDbEntity
  8
0218_
  6
Continuous
 62
     3
370
     9
100
AcDbLine
 10
427.1786251583617
 20
288.6775991078972
 30
0.0
 11
467.178014806799
 21
288.6775991078972
 31
0.0
  0
LINE
  5
10E
330
1F
100
AcDbEntity
  8
0218_
  6
Continuous
 62
     3
370
     9
100
AcDbLine
 10
467.178014806799
 20
288.6775991078972
 30
0.0
 11
467.178014806799
 21
295.6776716902451
 31
0.0
  0
LINE
  5
10F
330
1F
100
AcDbEntity
  8
0218_
  6
Continuous
 62
     3
370
     9
100
AcDbLine
 10
552.1780477987755
 20
295.6776716902451
 30
0.0
 11
512.178658150338
 21
295.6776716902451
 31
0.0
  0
LINE
  5
110
330
1F
100
AcDbEntity
  8
0218_
  6
Continuous
 62
     3
370
     9
100
AcDbLine
 10
512.178658150338
 20
295.6776716902451
 30
0.0
 11
512.178658150338
 21
288.6775991078972
 31
0.0
  0
LINE
  5
111
330
1F
100
AcDbEntity
  8
0218_
  6
Continuous
 62
     3
370
     9
100
AcDbLine
 10
552.1780477987755
 20
295.6776716902451
 30
0.0
 11
552.1780477987755
 21
288.6775991078972
 31
0.0
  0
LINE
  5
112
330
1F
100
AcDbEntity
  8
0218_
  6
Continuous
 62
     3
370
     9
100
AcDbLine
 10
512.178658150338
 20
288.6775991078972
 30
0.0
 11
552.1780477987755
 21
288.6775991078972
 31
0.0
  0
LINE
  5
113
330
1F
100
AcDbEntity
  8
0218_
  6
Continuous
 62
     3
370
     9
100
AcDbLine
 10
528.6781929634714
 20
288.6775991078972
 30
0.0
 11
528.6781929634714
 21
195.6826617266682
 31
0.0
  0
LINE
  5
114
330
1F
100
AcDbEntity
  8
0218_
  6
Continuous
 62
     3
370
     9
100
AcDbLine
 10
535.6785129856422
 20
288.6775991078972
 30
0.0
 11
535.6785129856422
 21
195.6826617266682
 31
0.0
  0
LINE
  5
115
330
1F
100
AcDbEntity
  8
0218_
  6
Continuous
 62
     3
370
     9
100
AcDbLine
 10
597.1779488228464
 20
288.6775991078972
 30
0.0
 11
597.1779488228464
 21
295.6776716902451
 31
0.0
  0
LINE
  5
116
330
1F
100
AcDbEntity
  8
0218_
  6
Continuous
 62
     3
370
     9
100
AcDbLine
 10
637.1773384712839
 20
295.6776716902451
 30
0.0
 11
637.1773384712839
 21
288.6775991078972
 31
0.0
  0
LINE
  5
117
330
1F
100
AcDbEntity
  8
0218_
  6
Continuous
 62
     3
370
     9
100
AcDbLine
 10
637.1773384712839
 20
288.6775991078972
 30
0.0
 11
597.1779488228464
 21
288.6775991078972
 31
0.0
  0
LINE
  5
118
330
1F
100
AcDbEntity
  8
0218_
  6
Continuous
 62
     3
370
     9
100
AcDbLine
 10
552.1780477987755
 20
295.6776716902451
 30
0.0
 11
597.1779488228464
 21
295.6776716902451
 31
0.0
  0
LINE
  5
119
330
1F
100
AcDbEntity
  8
0218_
  6
Continuous
 62
     3
370
     9
100
AcDbLine
 10
613.6774836359797
 20
288.6775991078972
 30
0.0
 11
613.6774836359797
 21
195.6826617266682
 31
0.0
  0
LINE
  5
11A
330
1F
100
AcDbEntity
  8
0218_
  6
Continuous
 62
     3
370
     9
100
AcDbLine
 10
620.6780510979729
 20
288.6775991078972
 30
0.0
 11
620.6780510979729
 21
195.6826617266682
 31
0.0
  0
LINE
  5
11B
330
1F
100
AcDbEntity
  8
0216_
  6
Continuous
 62
     7
370
     9
100
AcDbLine
 10
778.7589408255911
 20
295.6776716902451
 30
0.0
 11
778.7589408255911
 21
195.5235579207138
 31
0.0
  0
LINE
  5
11C
330
1F
100
AcDbEntity
  8
0216_
  6
Continuous
 62
     7
370
     9
100
AcDbLine
 10
781.7591486750422
 20
295.6776716902451
 30
0.0
 11
693.8774315086573
 21
295.6776716902451
 31
0.0
  0
LINE
  5
11D
330
1F
100
AcDbEntity
  8
0216_
  6
Continuous
 62
     7
370
     9
100
AcDbLine
 10
781.7591486750422
 20
195.5235579207138
 30
0.0
 11
693.8774315086573
 21
195.5235579207138
 31
0.0
  0
LINE
  5
11E
330
1F
100
AcDbEntity
  8
0216_
  6
Continuous
 62
     7
370
     9
100
AcDbLine
 10
467.178014806799
 20
343.3022906329182
 30
0.0
 11
427.1786251583617
 21
343.3022906329182
 31
0.0
  0
LINE
  5
11F
330
1F
100
AcDbEntity
  8
0216_
  6
Continuous
 62
     7
370
     9
100
AcDbLine
 10
596.9785123258026
 20
343.3022906329182
 30
0.0
 11
636.9781494140625
 21
343.3022906329182
 31
0.0
  0
LINE
  5
120
330
1F
100
AcDbEntity
  8
0242_
  6
Continuous
 62
     7
370
     9
100
AcDbLine
 10
421.6822443781675
 20
13.37926916173984
 30
0.0
 11
642.6734718116558
 21
13.37926916173984
 31
0.0
  0
LINE
  5
121
330
1F
100
AcDbEntity
  8
0242_
  6
Continuous
 62
     7
370
     9
100
AcDbLine
 10
577.7987093538854
 20
-147.8043922218114
 30
0.0
 11
1214.606620169975
 21
-147.8043922218114
 31
0.0
  0
LINE
  5
122
330
1F
100
AcDbEntity
  8
0242_
  6
Continuous
 62
     4
370
     9
100
AcDbLine
 10
491.6785162848396
 20
527.525816221495
 30
0.0
 11
487.6786515519427
 21
527.525816221495
 31
0.0
  0
LINE
  5
123
330
1F
100
AcDbEntity
  8
0242_
  6
Continuous
 62
     4
370
     9
100
AcDbLine
 10
487.6786515519427
 20
527.525816221495
 30
0.0
 11
487.6786515519427
 21
487.5258079735011
 31
0.0
  0
LINE
  5
124
330
1F
100
AcDbEntity
  8
0242_
  6
Continuous
 62
     4
370
     9
100
AcDbLine
 10
487.6786515519427
 20
487.5258079735011
 30
0.0
 11
491.6785162848396
 21
487.5258079735011
 31
0.0
  0
LINE
  5
125
330
1F
100
AcDbEntity
  8
0242_
  6
Continuous
 62
     4
370
     9
100
AcDbLine
 10
491.6785162848396
 20
487.5258079735011
 30
0.0
 11
491.6785162848396
 21
527.525816221495
 31
0.0
  0
LINE
  5
126
330
1F
100
AcDbEntity
  8
0242_
  6
Continuous
 62
     4
370
     9
100
AcDbLine
 10
499.3446968697214
 20
506.5447750607052
 30
0.0
 11
563.5956635346287
 21
506.5447750607052
 31
0.0
  0
LINE
  5
127
330
1F
100
AcDbEntity
  8
0242_
  6
Continuous
 62
     4
370
     9
100
AcDbLine
 10
499.3446968697214
 20
506.5447750607052
 30
0.0
 11
539.1322780299834
 21
509.8080114416175
 31
0.0
  0
LINE
  5
128
330
1F
100
AcDbEntity
  8
0242_
  6
Continuous
 62
     4
370
     9
100
AcDbLine
 10
499.3446968697214
 20
506.5447750607052
 30
0.0
 11
539.1322780299834
 21
503.2816623997044
 31
0.0
  0
LINE
  5
129
330
1F
100
AcDbEntity
  8
0242_
  6
JWW_CENTER1
 62
     4
370
     9
100
AcDbLine
 10
489.6784601984797
 20
527.525816221495
 30
0.0
 11
489.6784601984797
 21
608.3292698215794
 31
0.0
  0
LINE
  5
12A
330
1F
100
AcDbEntity
  8
0226_下
  6
Continuous
 62
     3
370
     9
100
AcDbLine
 10
1550.48168285473
 20
295.5237641205659
 30
0.0
 11
1550.48168285473
 21
195.5235579207138
 31
0.0
  0
LINE
  5
12B
330
1F
100
AcDbEntity
  8
0226_下
  6
Continuous
 62
     3
370
     9
100
AcDbLine
 10
1535.481633366766
 20
295.5237641205659
 30
0.0
 11
1535.481633366766
 21
195.5235579207138
 31
0.0
  0
LINE
  5
12C
330
1F
100
AcDbEntity
  8
0226_下
  6
Continuous
 62
     3
370
     9
100
AcDbLine
 10
1550.48168285473
 20
195.5235579207138
 30
0.0
 11
1535.481633366766
 21
195.5235579207138
 31
0.0
  0
LINE
  5
12D
330
1F
100
AcDbEntity
  8
0226_下
  6
Continuous
 62
     3
370
     9
100
AcDbLine
 10
1535.481633366766
 20
295.5237641205659
 30
0.0
 11
1550.48168285473
 21
295.5237641205659
 31
0.0
  0
LINE
  5
12E
330
1F
100
AcDbEntity
  8
0216_
  6
Continuous
 62
     7
370
     9
100
AcDbLine
 10
1550.48168285473
 20
295.5237641205659
 30
0.0
 11
1565.700716585727
 21
315.3576742636193
 31
0.0
  0
LINE
  5
12F
330
1F
100
AcDbEntity
  8
0216_
  6
Continuous
 62
     7
370
     9
100
AcDbLine
 10
1550.48168285473
 20
295.5237641205659
 30
0.0
 11
1570.315469277872
 21
310.7427978515625
 31
0.0
  0
LINE
  5
130
330
1F
100
AcDbEntity
  8
0216_
  6
Continuous
 62
     7
370
     9
100
AcDbLine
 10
1550.48168285473
 20
295.5237641205659
 30
0.0
 11
1619.399859454181
 21
364.4419407200169
 31
0.0
  0
LINE
  5
131
330
1F
100
AcDbEntity
  8
0216_
  6
Continuous
 62
     7
370
     9
100
AcDbLine
 10
1619.399859454181
 20
364.4419407200169
 30
0.0
 11
1789.445454365498
 21
364.4419407200169
 31
0.0
  0
LINE
  5
132
330
1F
100
AcDbEntity
  8
0216_
  6
Continuous
 62
     7
370
     9
100
AcDbLine
 10
1286.324083482897
 20
295.5237641205659
 30
0.0
 11
1301.543117213894
 21
315.3576742636193
 31
0.0
  0
LINE
  5
133
330
1F
100
AcDbEntity
  8
0216_
  6
Continuous
 62
     7
370
     9
100
AcDbLine
 10
1286.324083482897
 20
295.5237641205659
 30
0.0
 11
1306.157869906039
 21
310.7427978515625
 31
0.0
  0
LINE
  5
134
330
1F
100
AcDbEntity
  8
0216_
  6
Continuous
 62
     7
370
     9
100
AcDbLine
 10
1286.324083482897
 20
295.5237641205659
 30
0.0
 11
1355.242260082348
 21
364.4419407200169
 31
0.0
  0
LINE
  5
135
330
1F
100
AcDbEntity
  8
0216_
  6
Continuous
 62
     7
370
     9
100
AcDbLine
 10
1523.793565904773
 20
364.4419407200169
 30
0.0
 11
1355.242260082348
 21
364.4419407200169
 31
0.0
  0
LINE
  5
136
330
1F
100
AcDbEntity
  8
0218_
  6
Continuous
 62
     3
370
     9
100
AcDbLine
 10
984.7337877428214
 20
255.639928869299
 30
0.0
 11
984.7337877428214
 21
314.6524707691091
 31
0.0
  0
LINE
  5
137
330
1F
100
AcDbEntity
  8
0218_
  6
Continuous
 62
     3
370
     9
100
AcDbLine
 10
984.7337877428214
 20
175.4688077359586
 30
0.0
 11
984.7337877428214
 21
235.6388731260557
 31
0.0
  0
LINE
  5
138
330
1F
100
AcDbEntity
  8
0218_
  6
Continuous
 62
     3
370
     9
100
AcDbLine
 10
999.7345795502537
 20
255.639928869299
 30
0.0
 11
984.7337877428214
 21
255.639928869299
 31
0.0
  0
LINE
  5
139
330
1F
100
AcDbEntity
  8
0218_
  6
Continuous
 62
     3
370
     9
100
AcDbLine
 10
999.7345795502537
 20
255.639928869299
 30
0.0
 11
969.7334908150339
 21
235.6388731260557
 31
0.0
  0
LINE
  5
13A
330
1F
100
AcDbEntity
  8
0218_
  6
Continuous
 62
     3
370
     9
100
AcDbLine
 10
984.7337877428214
 20
235.6388731260557
 30
0.0
 11
969.7334908150339
 21
235.6388731260557
 31
0.0
  0
LINE
  5
13B
330
1F
100
AcDbEntity
  8
0226_下
  6
Continuous
 62
     3
370
     9
100
AcDbLine
 10
1535.481633366766
 20
195.5235579207138
 30
0.0
 11
984.7337877428214
 21
195.5235579207138
 31
0.0
  0
LINE
  5
13C
330
1F
100
AcDbEntity
  8
0226_下
  6
Continuous
 62
     3
370
     9
100
AcDbLine
 10
1535.481633366766
 20
295.5237641205659
 30
0.0
 11
984.7337877428214
 21
295.5237641205659
 31
0.0
  0
LINE
  5
13D
330
1F
100
AcDbEntity
  8
0226_下
  6
Continuous
 62
     3
370
     9
100
AcDbLine
 10
984.7337877428214
 20
288.523691538218
 30
0.0
 11
1535.481633366766
 21
288.523691538218
 31
0.0
  0
LINE
  5
13E
330
1F
100
AcDbEntity
  8
0242_
  6
Continuous
 62
     7
370
     9
100
AcDbLine
 10
637.1778333509292
 20
913.1721620301943
 30
0.0
 11
657.0116197740708
 21
928.3911957611908
 31
0.0
  0
LINE
  5
13F
330
1F
100
AcDbEntity
  8
0242_
  6
Continuous
 62
     7
370
     9
100
AcDbLine
 10
637.1778333509292
 20
913.1721620301943
 30
0.0
 11
652.3968670819261
 21
933.0059484533363
 31
0.0
  0
LINE
  5
140
330
1F
100
AcDbEntity
  8
0242_
  6
Continuous
 62
     7
370
     9
100
AcDbLine
 10
637.1778333509292
 20
913.1721620301943
 30
0.0
 11
692.3499854835308
 21
968.3443141627959
 31
0.0
  0
LINE
  5
141
330
1F
100
AcDbEntity
  8
0242_
  6
Continuous
 62
     7
370
     9
100
AcDbLine
 10
692.3499854835308
 20
968.3443141627959
 30
0.0
 11
931.2672383076438
 21
968.3443141627959
 31
0.0
  0
LINE
  5
142
330
1F
100
AcDbEntity
  8
0243_
  6
Continuous
 62
     3
370
     9
100
AcDbLine
 10
667.178674646326
 20
1018.172261006123
 30
0.0
 11
397.2196011929901
 21
1018.172261006123
 31
0.0
  0
LINE
  5
143
330
1F
100
AcDbEntity
  8
0216_
  6
Continuous
 62
     7
370
     9
100
AcDbLine
 10
447.1784437024917
 20
1103.349213471284
 30
0.0
 11
532.1782292546453
 21
1103.349213471284
 31
0.0
  0
LINE
  5
144
330
1F
100
AcDbEntity
  8
0216_
  6
Continuous
 62
     7
370
     9
100
AcDbLine
 10
447.1784437024917
 20
1106.349421320735
 30
0.0
 11
447.1784437024917
 21
1058.172145534206
 31
0.0
  0
LINE
  5
145
330
1F
100
AcDbEntity
  8
0216_
  6
Continuous
 62
     7
370
     9
100
AcDbLine
 10
532.1782292546453
 20
1106.349421320735
 30
0.0
 11
532.1782292546453
 21
1058.172145534206
 31
0.0
  0
LINE
  5
146
330
1F
100
AcDbEntity
  8
0216_
  6
Continuous
 62
     7
370
     9
100
AcDbLine
 10
532.1782292546453
 20
1103.349213471284
 30
0.0
 11
617.1792520059125
 21
1103.349213471284
 31
0.0
  0
LINE
  5
147
330
1F
100
AcDbEntity
  8
0216_
  6
Continuous
 62
     7
370
     9
100
AcDbLine
 10
617.1792520059125
 20
1106.349421320735
 30
0.0
 11
617.1792520059125
 21
1058.172145534206
 31
0.0
  0
LINE
  5
148
330
1F
100
AcDbEntity
  8
0242_
  6
Continuous
 62
     4
370
     9
100
AcDbLine
 10
491.6785162848396
 20
1204.485292176943
 30
0.0
 11
487.6786515519427
 21
1204.485292176943
 31
0.0
  0
LINE
  5
149
330
1F
100
AcDbEntity
  8
0242_
  6
Continuous
 62
     4
370
     9
100
AcDbLine
 10
487.6786515519427
 20
1204.485292176943
 30
0.0
 11
487.6786515519427
 21
1244.485176705025
 31
0.0
  0
LINE
  5
14A
330
1F
100
AcDbEntity
  8
0242_
  6
Continuous
 62
     4
370
     9
100
AcDbLine
 10
487.6786515519427
 20
1244.485176705025
 30
0.0
 11
491.6785162848396
 21
1244.485176705025
 31
0.0
  0
LINE
  5
14B
330
1F
100
AcDbEntity
  8
0242_
  6
Continuous
 62
     4
370
     9
100
AcDbLine
 10
491.6785162848396
 20
1244.485176705025
 30
0.0
 11
491.6785162848396
 21
1204.485292176943
 31
0.0
  0
LINE
  5
14C
330
1F
100
AcDbEntity
  8
0242_
  6
Continuous
 62
     4
370
     9
100
AcDbLine
 10
499.3446968697214
 20
1225.466209617821
 30
0.0
 11
563.5956635346287
 21
1225.466209617821
 31
0.0
  0
LINE
  5
14D
330
1F
100
AcDbEntity
  8
0242_
  6
Continuous
 62
     4
370
     9
100
AcDbLine
 10
499.3446968697214
 20
1225.466209617821
 30
0.0
 11
539.1322780299834
 21
1222.202973236909
 31
0.0
  0
LINE
  5
14E
330
1F
100
AcDbEntity
  8
0242_
  6
Continuous
 62
     4
370
     9
100
AcDbLine
 10
499.3446968697214
 20
1225.466209617821
 30
0.0
 11
539.1322780299834
 21
1228.729445998733
 31
0.0
  0
LINE
  5
14F
330
1F
100
AcDbEntity
  8
0242_
  6
JWW_CENTER1
 62
     4
370
     9
100
AcDbLine
 10
489.6784601984797
 20
1204.485292176943
 30
0.0
 11
489.6784601984797
 21
1167.181759396115
 31
0.0
  0
LINE
  5
150
330
1F
100
AcDbEntity
  8
0218_
  6
Continuous
 62
     3
370
     9
100
AcDbLine
 10
667.178674646326
 20
1033.172063054265
 30
0.0
 11
397.2196011929901
 21
1033.172063054265
 31
0.0
  0
LINE
  5
151
330
1F
100
AcDbEntity
  8
0243_
  6
Continuous
 62
     3
370
     9
100
AcDbLine
 10
427.1786251583617
 20
558.1719805743245
 30
0.0
 11
427.1786251583617
 21
1018.172261006123
 31
0.0
  0
LINE
  5
152
330
1F
100
AcDbEntity
  8
0243_
  6
Continuous
 62
     3
370
     9
100
AcDbLine
 10
637.1778333509292
 20
558.1719805743245
 30
0.0
 11
637.1778333509292
 21
1018.172261006123
 31
0.0
  0
LINE
  5
153
330
1F
100
AcDbEntity
  8
0218_
  6
Continuous
 62
     3
370
     9
100
AcDbLine
 10
427.1739238017315
 20
777.1876484638938
 30
0.0
 11
467.1785096864443
 21
810.7555822423988
 31
0.0
  0
LINE
  5
154
330
1F
100
AcDbEntity
  8
0218_
  6
Continuous
 62
     3
370
     9
100
AcDbLine
 10
427.1786251583617
 20
833.5836379592484
 30
0.0
 11
467.1785096864443
 21
800.0181785789698
 31
0.0
  0
LINE
  5
155
330
1F
100
AcDbEntity
  8
0218_
  6
Continuous
 62
     3
370
     9
100
AcDbLine
 10
427.1786251583617
 20
813.0748356999578
 30
0.0
 11
467.1785096864443
 21
779.5093763196792
 31
0.0
  0
LINE
  5
156
330
1F
100
AcDbEntity
  8
0218_
  6
Continuous
 62
     3
370
     9
100
AcDbLine
 10
427.1786251583617
 20
797.6991725612334
 30
0.0
 11
467.1785096864443
 21
831.263147302576
 31
0.0
  0
LINE
  5
157
330
1F
100
AcDbEntity
  8
0218_
  6
Continuous
 62
     3
370
     9
100
AcDbLine
 10
427.1786251583617
 20
787.4455137510557
 30
0.0
 11
467.1785096864443
 21
821.009241052576
 31
0.0
  0
LINE
  5
158
330
1F
100
AcDbEntity
  8
0218_
  6
Continuous
 62
     3
370
     9
100
AcDbLine
 10
427.1786251583617
 20
823.3292368296031
 30
0.0
 11
467.1785096864443
 21
789.7637774493245
 31
0.0
  0
LINE
  5
159
330
1F
100
AcDbEntity
  8
0218_
  6
Continuous
 62
     3
370
     9
100
AcDbLine
 10
427.1749135610222
 20
807.9501095333617
 30
0.0
 11
467.1785096864443
 21
841.517053552576
 31
0.0
  0
LINE
  5
15A
330
1F
100
AcDbEntity
  8
0218_
  6
Continuous
 62
     3
370
     9
100
AcDbLine
 10
427.1749135610222
 20
818.449970967061
 30
0.0
 11
467.1785096864443
 21
852.0169149862755
 31
0.0
  0
LINE
  5
15B
330
1F
100
AcDbEntity
  8
0218_
  6
Continuous
 62
     3
370
     9
100
AcDbLine
 10
427.1749135610222
 20
828.9500798405828
 30
0.0
 11
467.1785096864443
 21
862.5170238597974
 31
0.0
  0
LINE
  5
15C
330
1F
100
AcDbEntity
  8
0218_
  6
Continuous
 62
     3
370
     9
100
AcDbLine
 10
427.1749135610222
 20
839.4499412742823
 30
0.0
 11
467.1785096864443
 21
873.0168852934967
 31
0.0
  0
LINE
  5
15D
330
1F
100
AcDbEntity
  8
0218_
  6
Continuous
 62
     3
370
     9
100
AcDbLine
 10
427.1749135610222
 20
849.9500501478042
 30
0.0
 11
467.1785096864443
 21
883.5169941670188
 31
0.0
  0
LINE
  5
15E
330
1F
100
AcDbEntity
  8
0218_
  6
Continuous
 62
     3
370
     9
100
AcDbLine
 10
427.1749135610222
 20
860.4499115815033
 30
0.0
 11
467.1785096864443
 21
894.0168556007179
 31
0.0
  0
LINE
  5
15F
330
1F
100
AcDbEntity
  8
0218_
  6
Continuous
 62
     3
370
     9
100
AcDbLine
 10
427.1749135610222
 20
870.9500204550255
 30
0.0
 11
467.1785096864443
 21
904.5169644742401
 31
0.0
  0
LINE
  5
160
330
1F
100
AcDbEntity
  8
0218_
  6
Continuous
 62
     3
370
     9
100
AcDbLine
 10
427.1749135610222
 20
881.4498818887248
 30
0.0
 11
467.1785096864443
 21
915.017073347762
 31
0.0
  0
LINE
  5
161
330
1F
100
AcDbEntity
  8
0218_
  6
Continuous
 62
     3
370
     9
100
AcDbLine
 10
427.1749135610222
 20
891.9499907622467
 30
0.0
 11
467.1785096864443
 21
925.5169347814613
 31
0.0
  0
LINE
  5
162
330
1F
100
AcDbEntity
  8
0218_
  6
Continuous
 62
     3
370
     9
100
AcDbLine
 10
427.1749135610222
 20
902.4500996357688
 30
0.0
 11
467.1785096864443
 21
936.0170436549834
 31
0.0
  0
LINE
  5
163
330
1F
100
AcDbEntity
  8
0218_
  6
Continuous
 62
     3
370
     9
100
AcDbLine
 10
427.1749135610222
 20
912.9499610694679
 30
0.0
 11
467.1785096864443
 21
946.5169050886825
 31
0.0
  0
LINE
  5
164
330
1F
100
AcDbEntity
  8
0218_
  6
Continuous
 62
     3
370
     9
100
AcDbLine
 10
427.1749135610222
 20
923.4500699429901
 30
0.0
 11
467.1785096864443
 21
957.0170139622044
 31
0.0
  0
LINE
  5
165
330
1F
100
AcDbEntity
  8
0218_
  6
Continuous
 62
     3
370
     9
100
AcDbLine
 10
427.1749135610222
 20
933.9499313766894
 30
0.0
 11
467.1785096864443
 21
967.516875395904
 31
0.0
  0
LINE
  5
166
330
1F
100
AcDbEntity
  8
0218_
  6
Continuous
 62
     3
370
     9
100
AcDbLine
 10
427.1749135610222
 20
944.4500402502113
 30
0.0
 11
467.1785096864443
 21
978.0169842694258
 31
0.0
  0
LINE
  5
167
330
1F
100
AcDbEntity
  8
0218_
  6
Continuous
 62
     3
370
     9
100
AcDbLine
 10
427.1749135610222
 20
954.9499016839106
 30
0.0
 11
467.1785096864443
 21
988.516845703125
 31
0.0
  0
LINE
  5
168
330
1F
100
AcDbEntity
  8
0218_
  6
Continuous
 62
     3
370
     9
100
AcDbLine
 10
427.1749135610222
 20
965.4500105574325
 30
0.0
 11
467.1785096864443
 21
999.0169545766471
 31
0.0
  0
LINE
  5
169
330
1F
100
AcDbEntity
  8
0218_
  6
Continuous
 62
     3
370
     9
100
AcDbLine
 10
427.1749135610222
 20
975.9501194309544
 30
0.0
 11
467.1785096864443
 21
1009.517063450169
 31
0.0
  0
LINE
  5
16A
330
1F
100
AcDbEntity
  8
0218_
  6
Continuous
 62
     3
370
     9
100
AcDbLine
 10
427.1786251583617
 20
844.0837468327703
 30
0.0
 11
467.1785096864443
 21
810.5182874524917
 31
0.0
  0
LINE
  5
16B
330
1F
100
AcDbEntity
  8
0218_
  6
Continuous
 62
     3
370
     9
100
AcDbLine
 10
427.1786251583617
 20
854.5836082664698
 30
0.0
 11
467.1785096864443
 21
821.0181488861908
 31
0.0
  0
LINE
  5
16C
330
1F
100
AcDbEntity
  8
0218_
  6
Continuous
 62
     3
370
     9
100
AcDbLine
 10
427.1786251583617
 20
865.0837171399917
 30
0.0
 11
467.1785096864443
 21
831.518257759713
 31
0.0
  0
LINE
  5
16D
330
1F
100
AcDbEntity
  8
0218_
  6
Continuous
 62
     3
370
     9
100
AcDbLine
 10
427.1786251583617
 20
875.5835785736908
 30
0.0
 11
467.1785096864443
 21
842.0181191934123
 31
0.0
  0
LINE
  5
16E
330
1F
100
AcDbEntity
  8
0218_
  6
Continuous
 62
     3
370
     9
100
AcDbLine
 10
427.1786251583617
 20
886.083687447213
 30
0.0
 11
467.1785096864443
 21
852.5182280669342
 31
0.0
  0
LINE
  5
16F
330
1F
100
AcDbEntity
  8
0218_
  6
Continuous
 62
     3
370
     9
100
AcDbLine
 10
427.1786251583617
 20
896.5837963207349
 30
0.0
 11
467.1785096864443
 21
863.0183369404563
 31
0.0
  0
LINE
  5
170
330
1F
100
AcDbEntity
  8
0218_
  6
Continuous
 62
     3
370
     9
100
AcDbLine
 10
427.1786251583617
 20
907.0836577544342
 30
0.0
 11
467.1785096864443
 21
873.5181983741554
 31
0.0
  0
LINE
  5
171
330
1F
100
AcDbEntity
  8
0218_
  6
Continuous
 62
     3
370
     9
100
AcDbLine
 10
427.1786251583617
 20
917.5837666279563
 30
0.0
 11
467.1785096864443
 21
884.0183072476776
 31
0.0
  0
LINE
  5
172
330
1F
100
AcDbEntity
  8
0218_
  6
Continuous
 62
     3
370
     9
100
AcDbLine
 10
427.1786251583617
 20
928.0836280616554
 30
0.0
 11
467.1785096864443
 21
894.5181686813769
 31
0.0
  0
LINE
  5
173
330
1F
100
AcDbEntity
  8
0218_
  6
Continuous
 62
     3
370
     9
100
AcDbLine
 10
427.1786251583617
 20
938.5837369351776
 30
0.0
 11
467.1785096864443
 21
905.0182775548988
 31
0.0
  0
LINE
  5
174
330
1F
100
AcDbEntity
  8
0218_
  6
Continuous
 62
     3
370
     9
100
AcDbLine
 10
427.1786251583617
 20
949.0835983688769
 30
0.0
 11
467.1785096864443
 21
915.5181389885981
 31
0.0
  0
LINE
  5
175
330
1F
100
AcDbEntity
  8
0218_
  6
Continuous
 62
     3
370
     9
100
AcDbLine
 10
427.1786251583617
 20
959.5837072423988
 30
0.0
 11
467.1785096864443
 21
926.01824786212
 31
0.0
  0
LINE
  5
176
330
1F
100
AcDbEntity
  8
0218_
  6
Continuous
 62
     3
370
     9
100
AcDbLine
 10
427.1786251583617
 20
970.0838161159209
 30
0.0
 11
467.1785096864443
 21
936.5181092958193
 31
0.0
  0
LINE
  5
177
330
1F
100
AcDbEntity
  8
0218_
  6
Continuous
 62
     3
370
     9
100
AcDbLine
 10
427.1786251583617
 20
980.58367754962
 30
0.0
 11
467.1785096864443
 21
947.0182181693415
 31
0.0
  0
LINE
  5
178
330
1F
100
AcDbEntity
  8
0218_
  6
Continuous
 62
     3
370
     9
100
AcDbLine
 10
427.1786251583617
 20
991.0837864231419
 30
0.0
 11
467.1785096864443
 21
957.5183270428633
 31
0.0
  0
LINE
  5
179
330
1F
100
AcDbEntity
  8
0218_
  6
Continuous
 62
     3
370
     9
100
AcDbLine
 10
427.1786251583617
 20
1001.583647856841
 30
0.0
 11
467.1785096864443
 21
968.0181884765625
 31
0.0
  0
LINE
  5
17A
330
1F
100
AcDbEntity
  8
0218_
  6
Continuous
 62
     3
370
     9
100
AcDbLine
 10
427.1786251583617
 20
1012.083756730363
 30
0.0
 11
467.1785096864443
 21
978.5182973500846
 31
0.0
  0
LINE
  5
17B
330
1F
100
AcDbEntity
  8
0218_
  6
Continuous
 62
     3
370
     9
100
AcDbLine
 10
512.1749465529984
 20
807.9501095333617
 30
0.0
 11
552.1778003589526
 21
841.5163112331084
 31
0.0
  0
LINE
  5
17C
330
1F
100
AcDbEntity
  8
0218_
  6
Continuous
 62
     3
370
     9
100
AcDbLine
 10
512.1739567937078
 20
777.1876484638938
 30
0.0
 11
552.1778003589526
 21
810.7548399229311
 31
0.0
  0
LINE
  5
17D
330
1F
100
AcDbEntity
  8
0218_
  6
Continuous
 62
     3
370
     9
100
AcDbLine
 10
512.1742042335308
 20
787.4418021537165
 30
0.0
 11
552.1778003589526
 21
821.0087461729311
 31
0.0
  0
LINE
  5
17E
330
1F
100
AcDbEntity
  8
0218_
  6
Continuous
 62
     3
370
     9
100
AcDbLine
 10
512.1746991131761
 20
797.6959558435391
 30
0.0
 11
552.1778003589526
 21
831.2626524229311
 31
0.0
  0
LINE
  5
17F
330
1F
100
AcDbEntity
  8
0218_
  6
Continuous
 62
     3
370
     9
100
AcDbLine
 10
512.178658150338
 20
833.5836379592484
 30
0.0
 11
552.1753259607266
 21
800.0209004170188
 31
0.0
  0
LINE
  5
180
330
1F
100
AcDbEntity
  8
0218_
  6
Continuous
 62
     3
370
     9
100
AcDbLine
 10
512.178658150338
 20
813.0748356999578
 30
0.0
 11
552.1778003589526
 21
779.5101186391471
 31
0.0
  0
LINE
  5
181
330
1F
100
AcDbEntity
  8
0218_
  6
Continuous
 62
     3
370
     9
100
AcDbLine
 10
512.178658150338
 20
823.3292368296031
 30
0.0
 11
552.1753259607266
 21
789.7664992873734
 31
0.0
  0
LINE
  5
182
330
1F
100
AcDbEntity
  8
0218_
  6
Continuous
 62
     3
370
     9
100
AcDbLine
 10
512.1749465529984
 20
818.449970967061
 30
0.0
 11
552.1778003589526
 21
852.0164201066302
 31
0.0
  0
LINE
  5
183
330
1F
100
AcDbEntity
  8
0218_
  6
Continuous
 62
     3
370
     9
100
AcDbLine
 10
512.1749465529984
 20
828.9500798405828
 30
0.0
 11
552.1778003589526
 21
862.5162815403294
 31
0.0
  0
LINE
  5
184
330
1F
100
AcDbEntity
  8
0218_
  6
Continuous
 62
     3
370
     9
100
AcDbLine
 10
512.1749465529984
 20
839.4499412742823
 30
0.0
 11
552.1778003589526
 21
873.0163904138516
 31
0.0
  0
LINE
  5
185
330
1F
100
AcDbEntity
  8
0218_
  6
Continuous
 62
     3
370
     9
100
AcDbLine
 10
512.1749465529984
 20
849.9500501478042
 30
0.0
 11
552.1778003589526
 21
883.5162518475508
 31
0.0
  0
LINE
  5
186
330
1F
100
AcDbEntity
  8
0218_
  6
Continuous
 62
     3
370
     9
100
AcDbLine
 10
512.1749465529984
 20
860.4499115815033
 30
0.0
 11
552.1778003589526
 21
894.0163607210727
 31
0.0
  0
LINE
  5
187
330
1F
100
AcDbEntity
  8
0218_
  6
Continuous
 62
     3
370
     9
100
AcDbLine
 10
512.1749465529984
 20
870.9500204550255
 30
0.0
 11
552.1778003589526
 21
904.5162221547721
 31
0.0
  0
LINE
  5
188
330
1F
100
AcDbEntity
  8
0218_
  6
Continuous
 62
     3
370
     9
100
AcDbLine
 10
512.1749465529984
 20
881.4498818887248
 30
0.0
 11
552.1778003589526
 21
915.016331028294
 31
0.0
  0
LINE
  5
189
330
1F
100
AcDbEntity
  8
0218_
  6
Continuous
 62
     3
370
     9
100
AcDbLine
 10
512.1749465529984
 20
891.9499907622467
 30
0.0
 11
552.1778003589526
 21
925.5164399018158
 31
0.0
  0
LINE
  5
18A
330
1F
100
AcDbEntity
  8
0218_
  6
Continuous
 62
     3
370
     9
100
AcDbLine
 10
512.1749465529984
 20
902.4500996357688
 30
0.0
 11
552.1778003589526
 21
936.0163013355154
 31
0.0
  0
LINE
  5
18B
330
1F
100
AcDbEntity
  8
0218_
  6
Continuous
 62
     3
370
     9
100
AcDbLine
 10
512.1749465529984
 20
912.9499610694679
 30
0.0
 11
552.1778003589526
 21
946.5164102090373
 31
0.0
  0
LINE
  5
18C
330
1F
100
AcDbEntity
  8
0218_
  6
Continuous
 62
     3
370
     9
100
AcDbLine
 10
512.1749465529984
 20
923.4500699429901
 30
0.0
 11
552.1778003589526
 21
957.0162716427367
 31
0.0
  0
LINE
  5
18D
330
1F
100
AcDbEntity
  8
0218_
  6
Continuous
 62
     3
370
     9
100
AcDbLine
 10
512.1749465529984
 20
933.9499313766894
 30
0.0
 11
552.1778003589526
 21
967.5163805162586
 31
0.0
  0
LINE
  5
18E
330
1F
100
AcDbEntity
  8
0218_
  6
Continuous
 62
     3
370
     9
100
AcDbLine
 10
512.1749465529984
 20
944.4500402502113
 30
0.0
 11
552.1778003589526
 21
978.0162419499578
 31
0.0
  0
LINE
  5
18F
330
1F
100
AcDbEntity
  8
0218_
  6
Continuous
 62
     3
370
     9
100
AcDbLine
 10
512.1749465529984
 20
954.9499016839106
 30
0.0
 11
552.1778003589526
 21
988.51635082348
 31
0.0
  0
LINE
  5
190
330
1F
100
AcDbEntity
  8
0218_
  6
Continuous
 62
     3
370
     9
100
AcDbLine
 10
512.1749465529984
 20
965.4500105574325
 30
0.0
 11
552.1778003589526
 21
999.0162122571792
 31
0.0
  0
LINE
  5
191
330
1F
100
AcDbEntity
  8
0218_
  6
Continuous
 62
     3
370
     9
100
AcDbLine
 10
512.1749465529984
 20
975.9501194309544
 30
0.0
 11
552.1778003589526
 21
1009.516321130701
 31
0.0
  0
LINE
  5
192
330
1F
100
AcDbEntity
  8
0218_
  6
Continuous
 62
     3
370
     9
100
AcDbLine
 10
512.178658150338
 20
844.0837468327703
 30
0.0
 11
552.1753259607266
 21
810.5210092905406
 31
0.0
  0
LINE
  5
193
330
1F
100
AcDbEntity
  8
0218_
  6
Continuous
 62
     3
370
     9
100
AcDbLine
 10
512.178658150338
 20
854.5836082664698
 30
0.0
 11
552.1753259607266
 21
821.0208707242401
 31
0.0
  0
LINE
  5
194
330
1F
100
AcDbEntity
  8
0218_
  6
Continuous
 62
     3
370
     9
100
AcDbLine
 10
512.178658150338
 20
865.0837171399917
 30
0.0
 11
552.1753259607266
 21
831.520979597762
 31
0.0
  0
LINE
  5
195
330
1F
100
AcDbEntity
  8
0218_
  6
Continuous
 62
     3
370
     9
100
AcDbLine
 10
512.178658150338
 20
875.5835785736908
 30
0.0
 11
552.1753259607266
 21
842.0208410314613
 31
0.0
  0
LINE
  5
196
330
1F
100
AcDbEntity
  8
0218_
  6
Continuous
 62
     3
370
     9
100
AcDbLine
 10
512.178658150338
 20
886.083687447213
 30
0.0
 11
552.1753259607266
 21
852.5209499049834
 31
0.0
  0
LINE
  5
197
330
1F
100
AcDbEntity
  8
0218_
  6
Continuous
 62
     3
370
     9
100
AcDbLine
 10
512.178658150338
 20
896.5837963207349
 30
0.0
 11
552.1753259607266
 21
863.0208113386825
 31
0.0
  0
LINE
  5
198
330
1F
100
AcDbEntity
  8
0218_
  6
Continuous
 62
     3
370
     9
100
AcDbLine
 10
512.178658150338
 20
907.0836577544342
 30
0.0
 11
552.1753259607266
 21
873.5209202122044
 31
0.0
  0
LINE
  5
199
330
1F
100
AcDbEntity
  8
0218_
  6
Continuous
 62
     3
370
     9
100
AcDbLine
 10
512.178658150338
 20
917.5837666279563
 30
0.0
 11
552.1753259607266
 21
884.0210290857266
 31
0.0
  0
LINE
  5
19A
330
1F
100
AcDbEntity
  8
0218_
  6
Continuous
 62
     3
370
     9
100
AcDbLine
 10
512.178658150338
 20
928.0836280616554
 30
0.0
 11
552.1753259607266
 21
894.5208905194258
 31
0.0
  0
LINE
  5
19B
330
1F
100
AcDbEntity
  8
0218_
  6
Continuous
 62
     3
370
     9
100
AcDbLine
 10
512.178658150338
 20
938.5837369351776
 30
0.0
 11
552.1753259607266
 21
905.0209993929477
 31
0.0
  0
LINE
  5
19C
330
1F
100
AcDbEntity
  8
0218_
  6
Continuous
 62
     3
370
     9
100
AcDbLine
 10
512.178658150338
 20
949.0835983688769
 30
0.0
 11
552.1753259607266
 21
915.5208608266471
 31
0.0
  0
LINE
  5
19D
330
1F
100
AcDbEntity
  8
0218_
  6
Continuous
 62
     3
370
     9
100
AcDbLine
 10
512.178658150338
 20
959.5837072423988
 30
0.0
 11
552.1753259607266
 21
926.020969700169
 31
0.0
  0
LINE
  5
19E
330
1F
100
AcDbEntity
  8
0218_
  6
Continuous
 62
     3
370
     9
100
AcDbLine
 10
512.178658150338
 20
970.0838161159209
 30
0.0
 11
552.1753259607266
 21
936.5208311338686
 31
0.0
  0
LINE
  5
19F
330
1F
100
AcDbEntity
  8
0218_
  6
Continuous
 62
     3
370
     9
100
AcDbLine
 10
512.178658150338
 20
980.58367754962
 30
0.0
 11
552.1753259607266
 21
947.0209400073904
 31
0.0
  0
LINE
  5
1A0
330
1F
100
AcDbEntity
  8
0218_
  6
Continuous
 62
     3
370
     9
100
AcDbLine
 10
512.178658150338
 20
991.0837864231419
 30
0.0
 11
552.1753259607266
 21
957.5208014410896
 31
0.0
  0
LINE
  5
1A1
330
1F
100
AcDbEntity
  8
0218_
  6
Continuous
 62
     3
370
     9
100
AcDbLine
 10
512.178658150338
 20
1001.583647856841
 30
0.0
 11
552.1753259607266
 21
968.0209103146117
 31
0.0
  0
LINE
  5
1A2
330
1F
100
AcDbEntity
  8
0218_
  6
Continuous
 62
     3
370
     9
100
AcDbLine
 10
512.178658150338
 20
1012.083756730363
 30
0.0
 11
552.1753259607266
 21
978.5210191881336
 31
0.0
  0
LINE
  5
1A3
330
1F
100
AcDbEntity
  8
0218_
  6
Continuous
 62
     3
370
     9
100
AcDbLine
 10
597.176216744088
 20
777.1876484638938
 30
0.0
 11
637.1778333509292
 21
810.7528604043498
 31
0.0
  0
LINE
  5
1A4
330
1F
100
AcDbEntity
  8
0218_
  6
Continuous
 62
     3
370
     9
100
AcDbLine
 10
597.1809181007183
 20
807.9530788112334
 30
0.0
 11
597.4422145534209
 21
808.1720630542654
 31
0.0
  0
LINE
  5
1A5
330
1F
100
AcDbEntity
  8
0218_
  6
Continuous
 62
     3
370
     9
100
AcDbLine
 10
597.1809181007183
 20
833.5836379592484
 30
0.0
 11
637.1778333509292
 21
800.0209004170188
 31
0.0
  0
LINE
  5
1A6
330
1F
100
AcDbEntity
  8
0218_
  6
Continuous
 62
     3
370
     9
100
AcDbLine
 10
597.1809181007183
 20
797.6991725612334
 30
0.0
 11
637.1778333509292
 21
831.2604254645271
 31
0.0
  0
LINE
  5
1A7
330
1F
100
AcDbEntity
  8
0218_
  6
Continuous
 62
     3
370
     9
100
AcDbLine
 10
597.1809181007183
 20
787.4455137510557
 30
0.0
 11
637.1778333509292
 21
821.0067666543498
 31
0.0
  0
LINE
  5
1A8
330
1F
100
AcDbEntity
  8
0218_
  6
Continuous
 62
     3
370
     9
100
AcDbLine
 10
597.1809181007183
 20
823.3292368296031
 30
0.0
 11
637.1778333509292
 21
789.7664992873734
 31
0.0
  0
LINE
  5
1A9
330
1F
100
AcDbEntity
  8
0218_
  6
Continuous
 62
     3
370
     9
100
AcDbLine
 10
597.1809181007183
 20
813.0748356999578
 30
0.0
 11
637.1778333509292
 21
779.5120981577281
 31
0.0
  0
LINE
  5
1AA
330
1F
100
AcDbEntity
  8
0218_
  6
Continuous
 62
     3
370
     9
100
AcDbLine
 10
597.1809181007183
 20
808.1992814347552
 30
0.0
 11
637.1778333509292
 21
841.7605343380492
 31
0.0
  0
LINE
  5
1AB
330
1F
100
AcDbEntity
  8
0218_
  6
Continuous
 62
     3
370
     9
100
AcDbLine
 10
597.1809181007183
 20
818.6991428684544
 30
0.0
 11
637.1778333509292
 21
852.2603957717484
 31
0.0
  0
LINE
  5
1AC
330
1F
100
AcDbEntity
  8
0218_
  6
Continuous
 62
     3
370
     9
100
AcDbLine
 10
597.1809181007183
 20
829.1992517419766
 30
0.0
 11
637.1778333509292
 21
862.7605046452703
 31
0.0
  0
LINE
  5
1AD
330
1F
100
AcDbEntity
  8
0218_
  6
Continuous
 62
     3
370
     9
100
AcDbLine
 10
597.1809181007183
 20
839.6991131756758
 30
0.0
 11
637.1778333509292
 21
873.2603660789698
 31
0.0
  0
LINE
  5
1AE
330
1F
100
AcDbEntity
  8
0218_
  6
Continuous
 62
     3
370
     9
100
AcDbLine
 10
597.1809181007183
 20
850.1992220491977
 30
0.0
 11
637.1778333509292
 21
883.7604749524917
 31
0.0
  0
LINE
  5
1AF
330
1F
100
AcDbEntity
  8
0218_
  6
Continuous
 62
     3
370
     9
100
AcDbLine
 10
597.1809181007183
 20
860.6990834828971
 30
0.0
 11
637.1778333509292
 21
894.2605838260135
 31
0.0
  0
LINE
  5
1B0
330
1F
100
AcDbEntity
  8
0218_
  6
Continuous
 62
     3
370
     9
100
AcDbLine
 10
597.1809181007183
 20
871.199192356419
 30
0.0
 11
637.1778333509292
 21
904.760445259713
 31
0.0
  0
LINE
  5
1B1
330
1F
100
AcDbEntity
  8
0218_
  6
Continuous
 62
     3
370
     9
100
AcDbLine
 10
597.1809181007183
 20
881.6993012299408
 30
0.0
 11
637.1778333509292
 21
915.2605541332349
 31
0.0
  0
LINE
  5
1B2
330
1F
100
AcDbEntity
  8
0218_
  6
Continuous
 62
     3
370
     9
100
AcDbLine
 10
597.1809181007183
 20
892.1991626636404
 30
0.0
 11
637.1778333509292
 21
925.7604155669342
 31
0.0
  0
LINE
  5
1B3
330
1F
100
AcDbEntity
  8
0218_
  6
Continuous
 62
     3
370
     9
100
AcDbLine
 10
597.1809181007183
 20
902.6992715371623
 30
0.0
 11
637.1778333509292
 21
936.2605244404563
 31
0.0
  0
LINE
  5
1B4
330
1F
100
AcDbEntity
  8
0218_
  6
Continuous
 62
     3
370
     9
100
AcDbLine
 10
597.1809181007183
 20
913.1991329708617
 30
0.0
 11
637.1778333509292
 21
946.7603858741554
 31
0.0
  0
LINE
  5
1B5
330
1F
100
AcDbEntity
  8
0218_
  6
Continuous
 62
     3
370
     9
100
AcDbLine
 10
597.1809181007183
 20
923.6992418443836
 30
0.0
 11
637.1778333509292
 21
957.2604947476776
 31
0.0
  0
LINE
  5
1B6
330
1F
100
AcDbEntity
  8
0218_
  6
Continuous
 62
     3
370
     9
100
AcDbLine
 10
597.1809181007183
 20
934.1991032780828
 30
0.0
 11
637.1778333509292
 21
967.7603561813769
 31
0.0
  0
LINE
  5
1B7
330
1F
100
AcDbEntity
  8
0218_
  6
Continuous
 62
     3
370
     9
100
AcDbLine
 10
597.1809181007183
 20
944.699212151605
 30
0.0
 11
637.1778333509292
 21
978.2604650548988
 31
0.0
  0
LINE
  5
1B8
330
1F
100
AcDbEntity
  8
0218_
  6
Continuous
 62
     3
370
     9
100
AcDbLine
 10
597.1809181007183
 20
955.1993210251269
 30
0.0
 11
637.1778333509292
 21
988.7605739284209
 31
0.0
  0
LINE
  5
1B9
330
1F
100
AcDbEntity
  8
0218_
  6
Continuous
 62
     3
370
     9
100
AcDbLine
 10
597.1809181007183
 20
965.699182458826
 30
0.0
 11
637.1778333509292
 21
999.26043536212
 31
0.0
  0
LINE
  5
1BA
330
1F
100
AcDbEntity
  8
0218_
  6
Continuous
 62
     3
370
     9
100
AcDbLine
 10
597.1809181007183
 20
976.1992913323481
 30
0.0
 11
637.1778333509292
 21
1009.760544235642
 31
0.0
  0
LINE
  5
1BB
330
1F
100
AcDbEntity
  8
0218_
  6
Continuous
 62
     3
370
     9
100
AcDbLine
 10
597.1809181007183
 20
844.0837468327703
 30
0.0
 11
637.1778333509292
 21
810.5210092905406
 31
0.0
  0
LINE
  5
1BC
330
1F
100
AcDbEntity
  8
0218_
  6
Continuous
 62
     3
370
     9
100
AcDbLine
 10
597.1809181007183
 20
854.5836082664698
 30
0.0
 11
637.1778333509292
 21
821.0208707242401
 31
0.0
  0
LINE
  5
1BD
330
1F
100
AcDbEntity
  8
0218_
  6
Continuous
 62
     3
370
     9
100
AcDbLine
 10
597.1809181007183
 20
865.0837171399917
 30
0.0
 11
637.1778333509292
 21
831.520979597762
 31
0.0
  0
LINE
  5
1BE
330
1F
100
AcDbEntity
  8
0218_
  6
Continuous
 62
     3
370
     9
100
AcDbLine
 10
597.1809181007183
 20
875.5835785736908
 30
0.0
 11
637.1778333509292
 21
842.0208410314613
 31
0.0
  0
LINE
  5
1BF
330
1F
100
AcDbEntity
  8
0218_
  6
Continuous
 62
     3
370
     9
100
AcDbLine
 10
597.1809181007183
 20
886.083687447213
 30
0.0
 11
637.1778333509292
 21
852.5209499049834
 31
0.0
  0
LINE
  5
1C0
330
1F
100
AcDbEntity
  8
0218_
  6
Continuous
 62
     3
370
     9
100
AcDbLine
 10
597.1809181007183
 20
896.5837963207349
 30
0.0
 11
637.1778333509292
 21
863.0208113386825
 31
0.0
  0
LINE
  5
1C1
330
1F
100
AcDbEntity
  8
0218_
  6
Continuous
 62
     3
370
     9
100
AcDbLine
 10
597.1809181007183
 20
907.0836577544342
 30
0.0
 11
637.1778333509292
 21
873.5209202122044
 31
0.0
  0
LINE
  5
1C2
330
1F
100
AcDbEntity
  8
0218_
  6
Continuous
 62
     3
370
     9
100
AcDbLine
 10
597.1809181007183
 20
917.5837666279563
 30
0.0
 11
637.1778333509292
 21
884.0210290857266
 31
0.0
  0
LINE
  5
1C3
330
1F
100
AcDbEntity
  8
0218_
  6
Continuous
 62
     3
370
     9
100
AcDbLine
 10
597.1809181007183
 20
928.0836280616554
 30
0.0
 11
637.1778333509292
 21
894.5208905194258
 31
0.0
  0
LINE
  5
1C4
330
1F
100
AcDbEntity
  8
0218_
  6
Continuous
 62
     3
370
     9
100
AcDbLine
 10
597.1809181007183
 20
938.5837369351776
 30
0.0
 11
637.1778333509292
 21
905.0209993929477
 31
0.0
  0
LINE
  5
1C5
330
1F
100
AcDbEntity
  8
0218_
  6
Continuous
 62
     3
370
     9
100
AcDbLine
 10
597.1809181007183
 20
949.0835983688769
 30
0.0
 11
637.1778333509292
 21
915.5208608266471
 31
0.0
  0
LINE
  5
1C6
330
1F
100
AcDbEntity
  8
0218_
  6
Continuous
 62
     3
370
     9
100
AcDbLine
 10
597.1809181007183
 20
959.5837072423988
 30
0.0
 11
637.1778333509292
 21
926.020969700169
 31
0.0
  0
LINE
  5
1C7
330
1F
100
AcDbEntity
  8
0218_
  6
Continuous
 62
     3
370
     9
100
AcDbLine
 10
597.1809181007183
 20
970.0838161159209
 30
0.0
 11
637.1778333509292
 21
936.5208311338686
 31
0.0
  0
LINE
  5
1C8
330
1F
100
AcDbEntity
  8
0218_
  6
Continuous
 62
     3
370
     9
100
AcDbLine
 10
597.1809181007183
 20
980.58367754962
 30
0.0
 11
637.1778333509292
 21
947.0209400073904
 31
0.0
  0
LINE
  5
1C9
330
1F
100
AcDbEntity
  8
0218_
  6
Continuous
 62
     3
370
     9
100
AcDbLine
 10
597.1809181007183
 20
991.0837864231419
 30
0.0
 11
637.1778333509292
 21
957.5208014410896
 31
0.0
  0
LINE
  5
1CA
330
1F
100
AcDbEntity
  8
0218_
  6
Continuous
 62
     3
370
     9
100
AcDbLine
 10
597.1809181007183
 20
1001.583647856841
 30
0.0
 11
637.1778333509292
 21
968.0209103146117
 31
0.0
  0
LINE
  5
1CB
330
1F
100
AcDbEntity
  8
0218_
  6
Continuous
 62
     3
370
     9
100
AcDbLine
 10
597.1809181007183
 20
1012.083756730363
 30
0.0
 11
637.1778333509292
 21
978.5210191881336
 31
0.0
  0
LINE
  5
1CC
330
1F
100
AcDbEntity
  8
0218_
  6
Continuous
 62
     3
370
     9
100
AcDbLine
 10
427.1749135610222
 20
1017.950060045397
 30
0.0
 11
427.4399216110643
 21
1018.172261006123
 31
0.0
  0
LINE
  5
1CD
330
1F
100
AcDbEntity
  8
0218_
  6
Continuous
 62
     3
370
     9
100
AcDbLine
 10
597.1809181007183
 20
986.6991527660474
 30
0.0
 11
634.6893310546875
 21
1018.172261006123
 31
0.0
  0
LINE
  5
1CE
330
1F
100
AcDbEntity
  8
0243_
  6
Continuous
 62
     3
370
     9
100
AcDbLine
 10
597.1809181007183
 20
558.1719805743245
 30
0.0
 11
597.1809181007183
 21
1018.172261006123
 31
0.0
  0
LINE
  5
1CF
330
1F
100
AcDbEntity
  8
0243_
  6
Continuous
 62
     3
370
     9
100
AcDbLine
 10
512.178658150338
 20
558.1719805743245
 30
0.0
 11
512.178658150338
 21
1018.172261006123
 31
0.0
  0
LINE
  5
1D0
330
1F
100
AcDbEntity
  8
0243_
  6
Continuous
 62
     3
370
     9
100
AcDbLine
 10
467.1785096864443
 20
558.1719805743245
 30
0.0
 11
467.1785096864443
 21
1018.172261006123
 31
0.0
  0
LINE
  5
1D1
330
1F
100
AcDbEntity
  8
0243_
  6
Continuous
 62
     3
370
     9
100
AcDbLine
 10
552.1778003589526
 20
558.1719805743245
 30
0.0
 11
552.1778003589526
 21
1018.172261006123
 31
0.0
  0
LINE
  5
1D2
330
1F
100
AcDbEntity
  8
0218_
  6
Continuous
 62
     3
370
     9
100
AcDbLine
 10
427.1749135610222
 20
986.449980864654
 30
0.0
 11
464.9802543021536
 21
1018.172261006123
 31
0.0
  0
LINE
  5
1D3
330
1F
100
AcDbEntity
  8
0218_
  6
Continuous
 62
     3
370
     9
100
AcDbLine
 10
427.1749135610222
 20
996.9500897381758
 30
0.0
 11
452.4667275918497
 21
1018.172261006123
 31
0.0
  0
LINE
  5
1D4
330
1F
100
AcDbEntity
  8
0218_
  6
Continuous
 62
     3
370
     9
100
AcDbLine
 10
427.1749135610222
 20
1007.449951171875
 30
0.0
 11
439.9534483213685
 21
1018.172261006123
 31
0.0
  0
LINE
  5
1D5
330
1F
100
AcDbEntity
  8
0218_
  6
Continuous
 62
     3
370
     9
100
AcDbLine
 10
432.4354841902451
 20
1018.172261006123
 30
0.0
 11
467.1785096864443
 21
989.0181587837839
 31
0.0
  0
LINE
  5
1D6
330
1F
100
AcDbEntity
  8
0218_
  6
Continuous
 62
     3
370
     9
100
AcDbLine
 10
444.9485160209039
 20
1018.172261006123
 30
0.0
 11
467.1785096864443
 21
999.5182676573061
 31
0.0
  0
LINE
  5
1D7
330
1F
100
AcDbEntity
  8
0218_
  6
Continuous
 62
     3
370
     9
100
AcDbLine
 10
457.4613004117401
 20
1018.172261006123
 30
0.0
 11
467.1785096864443
 21
1010.018129091005
 31
0.0
  0
LINE
  5
1D8
330
1F
100
AcDbEntity
  8
0218_
  6
Continuous
 62
     3
370
     9
100
AcDbLine
 10
512.1749465529984
 20
986.449980864654
 30
0.0
 11
549.9802872941302
 21
1018.172261006123
 31
0.0
  0
LINE
  5
1D9
330
1F
100
AcDbEntity
  8
0218_
  6
Continuous
 62
     3
370
     9
100
AcDbLine
 10
512.1749465529984
 20
996.9500897381758
 30
0.0
 11
537.466760583826
 21
1018.172261006123
 31
0.0
  0
LINE
  5
1DA
330
1F
100
AcDbEntity
  8
0218_
  6
Continuous
 62
     3
370
     9
100
AcDbLine
 10
512.1749465529984
 20
1007.449951171875
 30
0.0
 11
524.9532338735219
 21
1018.172261006123
 31
0.0
  0
LINE
  5
1DB
330
1F
100
AcDbEntity
  8
0218_
  6
Continuous
 62
     3
370
     9
100
AcDbLine
 10
517.4355171822214
 20
1018.172261006123
 30
0.0
 11
552.1753259607266
 21
989.0208806218328
 31
0.0
  0
LINE
  5
1DC
330
1F
100
AcDbEntity
  8
0218_
  6
Continuous
 62
     3
370
     9
100
AcDbLine
 10
529.9485490128802
 20
1018.172261006123
 30
0.0
 11
552.1753259607266
 21
999.520989495355
 31
0.0
  0
LINE
  5
1DD
330
1F
100
AcDbEntity
  8
0218_
  6
Continuous
 62
     3
370
     9
100
AcDbLine
 10
542.4613334037161
 20
1018.172261006123
 30
0.0
 11
552.1753259607266
 21
1010.020850929054
 31
0.0
  0
LINE
  5
1DE
330
1F
100
AcDbEntity
  8
0218_
  6
Continuous
 62
     3
370
     9
100
AcDbLine
 10
597.1809181007183
 20
997.1992616395693
 30
0.0
 11
622.1758043443833
 21
1018.172261006123
 31
0.0
  0
LINE
  5
1DF
330
1F
100
AcDbEntity
  8
0218_
  6
Continuous
 62
     3
370
     9
100
AcDbLine
 10
597.1809181007183
 20
1007.699123073269
 30
0.0
 11
609.6622776340797
 21
1018.172261006123
 31
0.0
  0
LINE
  5
1E0
330
1F
100
AcDbEntity
  8
0218_
  6
Continuous
 62
     3
370
     9
100
AcDbLine
 10
602.438024572424
 20
1018.172261006123
 30
0.0
 11
637.1778333509292
 21
989.0208806218328
 31
0.0
  0
LINE
  5
1E1
330
1F
100
AcDbEntity
  8
0218_
  6
Continuous
 62
     3
370
     9
100
AcDbLine
 10
614.9508089632604
 20
1018.172261006123
 30
0.0
 11
637.1778333509292
 21
999.520989495355
 31
0.0
  0
LINE
  5
1E2
330
1F
100
AcDbEntity
  8
0218_
  6
Continuous
 62
     3
370
     9
100
AcDbLine
 10
627.4635933540964
 20
1018.172261006123
 30
0.0
 11
637.1778333509292
 21
1010.020850929054
 31
0.0
  0
LINE
  5
1E3
330
1F
100
AcDbEntity
  8
0218_
  6
Continuous
 62
     3
370
     9
100
AcDbLine
 10
512.1749465529984
 20
1017.950060045397
 30
0.0
 11
512.4399546030406
 21
1018.172261006123
 31
0.0
  0
LINE
  5
1E4
330
1F
100
AcDbEntity
  8
0242_
  6
Continuous
 62
     7
370
     9
100
AcDbLine
 10
1169.147718274916
 20
13.37926916173984
 30
0.0
 11
1366.067752322635
 21
13.37926916173984
 31
0.0
  0
LINE
  5
1E5
330
1F
100
AcDbEntity
  8
0218_
  6
Continuous
 62
     3
370
     9
100
AcDbLine
 10
451.1783084353885
 20
224.9995793523016
 30
0.0
 11
528.6781929634714
 21
224.9995793523016
 31
0.0
  0
LINE
  5
1E6
330
1F
100
AcDbEntity
  8
0218_
  6
Continuous
 62
     3
370
     9
100
AcDbLine
 10
451.1783084353885
 20
242.6776700406461
 30
0.0
 11
528.6781929634714
 21
242.6776700406461
 31
0.0
  0
LINE
  5
1E7
330
1F
100
AcDbEntity
  8
0218_
  6
Continuous
 62
     3
370
     9
100
AcDbLine
 10
451.1783084353885
 20
260.3551421294341
 30
0.0
 11
528.6781929634714
 21
260.3551421294341
 31
0.0
  0
LINE
  5
1E8
330
1F
100
AcDbEntity
  8
0218_
  6
Continuous
 62
     3
370
     9
100
AcDbLine
 10
390.4783506651185
 20
260.3551421294341
 30
0.0
 11
443.6781599714951
 21
260.3551421294341
 31
0.0
  0
LINE
  5
1E9
330
1F
100
AcDbEntity
  8
0218_
  6
Continuous
 62
     3
370
     9
100
AcDbLine
 10
390.4783506651185
 20
242.6776700406461
 30
0.0
 11
443.6781599714951
 21
242.6776700406461
 31
0.0
  0
LINE
  5
1EA
330
1F
100
AcDbEntity
  8
0218_
  6
Continuous
 62
     3
370
     9
100
AcDbLine
 10
390.4783506651185
 20
224.9995793523016
 30
0.0
 11
443.6781599714951
 21
224.9995793523016
 31
0.0
  0
LINE
  5
1EB
330
1F
100
AcDbEntity
  8
0218_
  6
Continuous
 62
     3
370
     9
100
AcDbLine
 10
535.6782655458193
 20
260.3551421294341
 30
0.0
 11
613.6774836359797
 21
260.3551421294341
 31
0.0
  0
LINE
  5
1EC
330
1F
100
AcDbEntity
  8
0218_
  6
Continuous
 62
     3
370
     9
100
AcDbLine
 10
620.6780510979729
 20
260.3551421294341
 30
0.0
 11
673.8776129645271
 21
260.3551421294341
 31
0.0
  0
LINE
  5
1ED
330
1F
100
AcDbEntity
  8
0218_
  6
Continuous
 62
     3
370
     9
100
AcDbLine
 10
535.6782655458193
 20
242.6776700406461
 30
0.0
 11
613.6774836359797
 21
242.6776700406461
 31
0.0
  0
LINE
  5
1EE
330
1F
100
AcDbEntity
  8
0218_
  6
Continuous
 62
     3
370
     9
100
AcDbLine
 10
620.6780510979729
 20
242.6776700406461
 30
0.0
 11
673.8776129645271
 21
242.6776700406461
 31
0.0
  0
LINE
  5
1EF
330
1F
100
AcDbEntity
  8
0218_
  6
Continuous
 62
     3
370
     9
100
AcDbLine
 10
535.6782655458193
 20
224.9995793523016
 30
0.0
 11
613.6774836359797
 21
224.9995793523016
 31
0.0
  0
LINE
  5
1F0
330
1F
100
AcDbEntity
  8
0218_
  6
Continuous
 62
     3
370
     9
100
AcDbLine
 10
620.6780510979729
 20
224.9995793523016
 30
0.0
 11
673.8776129645271
 21
224.9995793523016
 31
0.0
  0
LINE
  5
1F1
330
1F
100
AcDbEntity
  8
0218_
  6
Continuous
 62
     3
370
     9
100
AcDbLine
 10
1180.65936114337
 20
230.0238449509081
 30
0.0
 11
1187.981105495144
 21
230.0238449509081
 31
0.0
  0
LINE
  5
1F2
330
1F
100
AcDbEntity
  8
0218_
  6
Continuous
 62
     3
370
     9
100
AcDbLine
 10
1187.981105495144
 20
237.3464553420609
 30
0.0
 11
1187.981105495144
 21
230.0238449509081
 31
0.0
  0
LINE
  5
1F3
330
1F
100
AcDbEntity
  8
0218_
  6
Continuous
 62
     3
370
     9
100
AcDbLine
 10
1193.159278663429
 20
242.5237624709672
 30
0.0
 11
1175.481187975084
 21
224.8465378220018
 31
0.0
  0
LINE
  5
1F4
330
1F
100
AcDbEntity
  8
0218_
  6
Continuous
 62
     3
370
     9
100
AcDbLine
 10
1175.48168285473
 20
260.2017294394005
 30
0.0
 11
1193.159278663429
 21
242.5237624709672
 31
0.0
  0
LINE
  5
1F5
330
1F
100
AcDbEntity
  8
0218_
  6
Continuous
 62
     3
370
     9
100
AcDbLine
 10
1187.981105495144
 20
255.0244223104943
 30
0.0
 11
1187.981105495144
 21
247.7021830790753
 31
0.0
  0
LINE
  5
1F6
330
1F
100
AcDbEntity
  8
0218_
  6
Continuous
 62
     3
370
     9
100
AcDbLine
 10
1180.65936114337
 20
255.0244223104943
 30
0.0
 11
1187.981105495144
 21
255.0244223104943
 31
0.0
  0
LINE
  5
1F7
330
1F
100
AcDbEntity
  8
0218_
  6
Continuous
 62
     3
370
     9
100
AcDbLine
 10
1157.803592166385
 20
242.5237624709672
 30
0.0
 11
1175.48168285473
 21
260.2017294394005
 31
0.0
  0
LINE
  5
1F8
330
1F
100
AcDbEntity
  8
0218_
  6
Continuous
 62
     3
370
     9
100
AcDbLine
 10
1162.981270455025
 20
255.0244223104943
 30
0.0
 11
1170.304252005913
 21
255.0244223104943
 31
0.0
  0
LINE
  5
1F9
330
1F
100
AcDbEntity
  8
0218_
  6
Continuous
 62
     3
370
     9
100
AcDbLine
 10
1162.981270455025
 20
255.0244223104943
 30
0.0
 11
1162.981270455025
 21
247.7018119193414
 31
0.0
  0
LINE
  5
1FA
330
1F
100
AcDbEntity
  8
0218_
  6
Continuous
 62
     3
370
     9
100
AcDbLine
 10
1175.481187975084
 20
224.8465378220018
 30
0.0
 11
1157.803592166385
 21
242.5237624709672
 31
0.0
  0
LINE
  5
1FB
330
1F
100
AcDbEntity
  8
0218_
  6
Continuous
 62
     3
370
     9
100
AcDbLine
 10
1162.981270455025
 20
237.3464553420609
 30
0.0
 11
1162.981270455025
 21
230.0238449509081
 31
0.0
  0
LINE
  5
1FC
330
1F
100
AcDbEntity
  8
0218_
  6
Continuous
 62
     3
370
     9
100
AcDbLine
 10
1162.981270455025
 20
230.0238449509081
 30
0.0
 11
1170.303509686444
 21
230.0238449509081
 31
0.0
  0
LINE
  5
1FD
330
1F
100
AcDbEntity
  8
0218_
  6
JWW_CENTER1
 62
     3
370
     9
100
AcDbLine
 10
1175.48168285473
 20
216.0166477512669
 30
0.0
 11
1175.48168285473
 21
269.0319906698693
 31
0.0
  0
LINE
  5
1FE
330
1F
100
AcDbEntity
  8
0216_
  6
Continuous
 62
     7
370
     9
100
AcDbLine
 10
1474.334551836993
 20
114.9794212547511
 30
0.0
 11
1303.026766390414
 21
114.9794212547511
 31
0.0
  0
LINE
  5
1FF
330
1F
100
AcDbEntity
  8
0216_
  6
Continuous
 62
     7
370
     9
100
AcDbLine
 10
1184.320728198902
 20
233.6852120064401
 30
0.0
 11
1199.539761929899
 21
213.8514255832982
 31
0.0
  0
LINE
  5
200
330
1F
100
AcDbEntity
  8
0216_
  6
Continuous
 62
     7
370
     9
100
AcDbLine
 10
1184.320728198902
 20
233.6852120064401
 30
0.0
 11
1204.154762061867
 21
218.4661782754435
 31
0.0
  0
LINE
  5
201
330
1F
100
AcDbEntity
  8
0216_
  6
Continuous
 62
     7
370
     9
100
AcDbLine
 10
1184.320728198902
 20
233.6852120064401
 30
0.0
 11
1303.026766390414
 21
114.9794212547511
 31
0.0
  0
LINE
  5
202
330
1F
100
AcDbEntity
  8
0216_
  6
Continuous
 62
     7
370
     9
100
AcDbLine
 10
1175.48168285473
 20
369.336671571474
 30
0.0
 11
1175.48168285473
 21
310.8760441960516
 31
0.0
  0
LINE
  5
203
330
1F
100
AcDbEntity
  8
0239_詳
  6
Continuous
 62
     3
370
     9
100
AcDbLine
 10
-854.9091648411105
 20
632.0985866237334
 30
0.0
 11
-863.7891614759291
 21
632.0985866237334
 31
0.0
  0
LINE
  5
204
330
1F
100
AcDbEntity
  8
0239_詳
  6
Continuous
 62
     3
370
     9
100
AcDbLine
 10
-854.9091648411105
 20
639.1696744351773
 30
0.0
 11
-863.7891614759291
 21
639.1696744351773
 31
0.0
  0
LINE
  5
205
330
1F
100
AcDbEntity
  8
0239_詳
  6
Continuous
 62
     3
370
     9
100
AcDbLine
 10
-863.7891614759291
 20
635.6342542493667
 30
0.0
 11
-854.9091648411105
 21
635.6342542493667
 31
0.0
  0
LINE
  5
206
330
1F
100
AcDbEntity
  8
0239_詳
  6
Continuous
 62
     3
370
     9
100
AcDbLine
 10
-753.6291998785896
 20
732.0986691036742
 30
0.0
 11
-762.5091965134078
 21
732.0986691036742
 31
0.0
  0
LINE
  5
207
330
1F
100
AcDbEntity
  8
0239_詳
  6
Continuous
 62
     3
370
     9
100
AcDbLine
 10
-753.6291998785896
 20
739.1697569151182
 30
0.0
 11
-762.5091965134078
 21
739.1697569151182
 31
0.0
  0
LINE
  5
208
330
1F
100
AcDbEntity
  8
0239_詳
  6
Continuous
 62
     3
370
     9
100
AcDbLine
 10
-762.5091965134078
 20
735.6343367293075
 30
0.0
 11
-753.6291998785896
 21
735.6343367293075
 31
0.0
  0
LINE
  5
209
330
1F
100
AcDbEntity
  8
0192_区
  6
Continuous
 62
     3
370
     9
100
AcDbLine
 10
-667.4691689980995
 20
910.6341717694258
 30
0.0
 11
-667.4691689980995
 21
560.6342542493667
 31
0.0
  0
LINE
  5
20A
330
1F
100
AcDbEntity
  8
0192_区
  6
Continuous
 62
     3
370
     9
100
AcDbLine
 10
-1017.46921023807
 20
910.6341717694258
 30
0.0
 11
-667.4691689980995
 21
910.6341717694258
 31
0.0
  0
LINE
  5
20B
330
1F
100
AcDbEntity
  8
0192_区
  6
Continuous
 62
     3
370
     9
100
AcDbLine
 10
-1017.46921023807
 20
560.6342542493667
 30
0.0
 11
-1017.46921023807
 21
910.6341717694258
 31
0.0
  0
LINE
  5
20C
330
1F
100
AcDbEntity
  8
0191_区
  6
JWW_DASHED3
 62
     2
370
     9
100
AcDbLine
 10
-992.4692514780405
 20
885.6338418496623
 30
0.0
 11
-692.4692514780404
 21
885.6338418496623
 31
0.0
  0
LINE
  5
20D
330
1F
100
AcDbEntity
  8
0191_区
  6
JWW_DASHED3
 62
     2
370
     9
100
AcDbLine
 10
-692.4692514780404
 20
585.634213009396
 30
0.0
 11
-992.4692514780405
 21
585.634213009396
 31
0.0
  0
LINE
  5
20E
330
1F
100
AcDbEntity
  8
0191_区
  6
JWW_DASHED3
 62
     2
370
     9
100
AcDbLine
 10
-692.4692514780404
 20
885.6338418496623
 30
0.0
 11
-692.4692514780404
 21
585.634213009396
 31
0.0
  0
LINE
  5
20F
330
1F
100
AcDbEntity
  8
0191_区
  6
JWW_DASHED3
 62
     2
370
     9
100
AcDbLine
 10
-992.4692514780405
 20
885.6338418496623
 30
0.0
 11
-992.4692514780405
 21
585.634213009396
 31
0.0
  0
LINE
  5
210
330
1F
100
AcDbEntity
  8
0239_詳
  6
Continuous
 62
     3
370
     9
100
AcDbLine
 10
-675.4691459037161
 20
839.1698393950592
 30
0.0
 11
-678.1092050913217
 21
839.1698393950592
 31
0.0
  0
LINE
  5
211
330
1F
100
AcDbEntity
  8
0239_詳
  6
Continuous
 62
     3
370
     9
100
AcDbLine
 10
-675.4691459037161
 20
832.0987515836151
 30
0.0
 11
-678.1092050913217
 21
832.0987515836151
 31
0.0
  0
LINE
  5
212
330
1F
100
AcDbEntity
  8
0239_詳
  6
Continuous
 62
     3
370
     9
100
AcDbLine
 10
-678.1092050913217
 20
835.6341717694258
 30
0.0
 11
-675.4691459037161
 21
835.6341717694258
 31
0.0
  0
LINE
  5
213
330
1F
100
AcDbEntity
  8
0239_詳
  6
Continuous
 62
     3
370
     9
100
AcDbLine
 10
-686.1091819969383
 20
832.0987515836151
 30
0.0
 11
-694.9891786317568
 21
832.0987515836151
 31
0.0
  0
LINE
  5
214
330
1F
100
AcDbEntity
  8
0239_詳
  6
Continuous
 62
     3
370
     9
100
AcDbLine
 10
-686.1091819969383
 20
839.1698393950592
 30
0.0
 11
-694.9891786317568
 21
839.1698393950592
 31
0.0
  0
LINE
  5
215
330
1F
100
AcDbEntity
  8
0239_詳
  6
Continuous
 62
     3
370
     9
100
AcDbLine
 10
-694.9891786317568
 20
835.6341717694258
 30
0.0
 11
-686.1091819969383
 21
835.6341717694258
 31
0.0
  0
LINE
  5
216
330
1F
100
AcDbEntity
  8
0239_詳
  6
Continuous
 62
     3
370
     9
100
AcDbLine
 10
-702.9891555373731
 20
832.0987515836151
 30
0.0
 11
-711.8691521721917
 21
832.0987515836151
 31
0.0
  0
LINE
  5
217
330
1F
100
AcDbEntity
  8
0239_詳
  6
Continuous
 62
     3
370
     9
100
AcDbLine
 10
-702.9891555373731
 20
839.1698393950592
 30
0.0
 11
-711.8691521721917
 21
839.1698393950592
 31
0.0
  0
LINE
  5
218
330
1F
100
AcDbEntity
  8
0239_詳
  6
Continuous
 62
     3
370
     9
100
AcDbLine
 10
-711.8691521721917
 20
835.6341717694258
 30
0.0
 11
-702.9891555373731
 21
835.6341717694258
 31
0.0
  0
LINE
  5
219
330
1F
100
AcDbEntity
  8
0239_詳
  6
Continuous
 62
     3
370
     9
100
AcDbLine
 10
-719.8692527977196
 20
832.0987515836151
 30
0.0
 11
-728.749249432538
 21
832.0987515836151
 31
0.0
  0
LINE
  5
21A
330
1F
100
AcDbEntity
  8
0239_詳
  6
Continuous
 62
     3
370
     9
100
AcDbLine
 10
-719.8692527977196
 20
839.1698393950592
 30
0.0
 11
-728.749249432538
 21
839.1698393950592
 31
0.0
  0
LINE
  5
21B
330
1F
100
AcDbEntity
  8
0239_詳
  6
Continuous
 62
     3
370
     9
100
AcDbLine
 10
-728.749249432538
 20
835.6341717694258
 30
0.0
 11
-719.8692527977196
 21
835.6341717694258
 31
0.0
  0
LINE
  5
21C
330
1F
100
AcDbEntity
  8
0239_詳
  6
Continuous
 62
     3
370
     9
100
AcDbLine
 10
-736.7492263381544
 20
832.0987515836151
 30
0.0
 11
-745.6292229729729
 21
832.0987515836151
 31
0.0
  0
LINE
  5
21D
330
1F
100
AcDbEntity
  8
0239_詳
  6
Continuous
 62
     3
370
     9
100
AcDbLine
 10
-736.7492263381544
 20
839.1698393950592
 30
0.0
 11
-745.6292229729729
 21
839.1698393950592
 31
0.0
  0
LINE
  5
21E
330
1F
100
AcDbEntity
  8
0239_詳
  6
Continuous
 62
     3
370
     9
100
AcDbLine
 10
-745.6292229729729
 20
835.6341717694258
 30
0.0
 11
-736.7492263381544
 21
835.6341717694258
 31
0.0
  0
LINE
  5
21F
330
1F
100
AcDbEntity
  8
0239_詳
  6
Continuous
 62
     3
370
     9
100
AcDbLine
 10
-753.6291998785896
 20
832.0987515836151
 30
0.0
 11
-762.5091965134078
 21
832.0987515836151
 31
0.0
  0
LINE
  5
220
330
1F
100
AcDbEntity
  8
0239_詳
  6
Continuous
 62
     3
370
     9
100
AcDbLine
 10
-753.6291998785896
 20
839.1698393950592
 30
0.0
 11
-762.5091965134078
 21
839.1698393950592
 31
0.0
  0
LINE
  5
221
330
1F
100
AcDbEntity
  8
0239_詳
  6
Continuous
 62
     3
370
     9
100
AcDbLine
 10
-762.5091965134078
 20
835.6341717694258
 30
0.0
 11
-753.6291998785896
 21
835.6341717694258
 31
0.0
  0
LINE
  5
222
330
1F
100
AcDbEntity
  8
0239_詳
  6
Continuous
 62
     3
370
     9
100
AcDbLine
 10
-770.5091734190245
 20
832.0987515836151
 30
0.0
 11
-779.3891700538427
 21
832.0987515836151
 31
0.0
  0
LINE
  5
223
330
1F
100
AcDbEntity
  8
0239_詳
  6
Continuous
 62
     3
370
     9
100
AcDbLine
 10
-770.5091734190245
 20
839.1698393950592
 30
0.0
 11
-779.3891700538427
 21
839.1698393950592
 31
0.0
  0
LINE
  5
224
330
1F
100
AcDbEntity
  8
0239_詳
  6
Continuous
 62
     3
370
     9
100
AcDbLine
 10
-779.3891700538427
 20
835.6341717694258
 30
0.0
 11
-770.5091734190245
 21
835.6341717694258
 31
0.0
  0
LINE
  5
225
330
1F
100
AcDbEntity
  8
0239_詳
  6
Continuous
 62
     3
370
     9
100
AcDbLine
 10
-787.3891469594594
 20
832.0987515836151
 30
0.0
 11
-796.2691435942779
 21
832.0987515836151
 31
0.0
  0
LINE
  5
226
330
1F
100
AcDbEntity
  8
0239_詳
  6
Continuous
 62
     3
370
     9
100
AcDbLine
 10
-787.3891469594594
 20
839.1698393950592
 30
0.0
 11
-796.2691435942779
 21
839.1698393950592
 31
0.0
  0
LINE
  5
227
330
1F
100
AcDbEntity
  8
0239_詳
  6
Continuous
 62
     3
370
     9
100
AcDbLine
 10
-796.2691435942779
 20
835.6341717694258
 30
0.0
 11
-787.3891469594594
 21
835.6341717694258
 31
0.0
  0
LINE
  5
228
330
1F
100
AcDbEntity
  8
0239_詳
  6
Continuous
 62
     3
370
     9
100
AcDbLine
 10
-804.2692442198057
 20
832.0987515836151
 30
0.0
 11
-813.1492408546242
 21
832.0987515836151
 31
0.0
  0
LINE
  5
229
330
1F
100
AcDbEntity
  8
0239_詳
  6
Continuous
 62
     3
370
     9
100
AcDbLine
 10
-804.2692442198057
 20
839.1698393950592
 30
0.0
 11
-813.1492408546242
 21
839.1698393950592
 31
0.0
  0
LINE
  5
22A
330
1F
100
AcDbEntity
  8
0239_詳
  6
Continuous
 62
     3
370
     9
100
AcDbLine
 10
-813.1492408546242
 20
835.6341717694258
 30
0.0
 11
-804.2692442198057
 21
835.6341717694258
 31
0.0
  0
LINE
  5
22B
330
1F
100
AcDbEntity
  8
0239_詳
  6
Continuous
 62
     3
370
     9
100
AcDbLine
 10
-821.1492177602406
 20
832.0987515836151
 30
0.0
 11
-830.0292143950592
 21
832.0987515836151
 31
0.0
  0
LINE
  5
22C
330
1F
100
AcDbEntity
  8
0239_詳
  6
Continuous
 62
     3
370
     9
100
AcDbLine
 10
-821.1492177602406
 20
839.1698393950592
 30
0.0
 11
-830.0292143950592
 21
839.1698393950592
 31
0.0
  0
LINE
  5
22D
330
1F
100
AcDbEntity
  8
0239_詳
  6
Continuous
 62
     3
370
     9
100
AcDbLine
 10
-830.0292143950592
 20
835.6341717694258
 30
0.0
 11
-821.1492177602406
 21
835.6341717694258
 31
0.0
  0
LINE
  5
22E
330
1F
100
AcDbEntity
  8
0239_詳
  6
Continuous
 62
     3
370
     9
100
AcDbLine
 10
-838.0291913006756
 20
832.0987515836151
 30
0.0
 11
-846.909187935494
 21
832.0987515836151
 31
0.0
  0
LINE
  5
22F
330
1F
100
AcDbEntity
  8
0239_詳
  6
Continuous
 62
     3
370
     9
100
AcDbLine
 10
-838.0291913006756
 20
839.1698393950592
 30
0.0
 11
-846.909187935494
 21
839.1698393950592
 31
0.0
  0
LINE
  5
230
330
1F
100
AcDbEntity
  8
0239_詳
  6
Continuous
 62
     3
370
     9
100
AcDbLine
 10
-846.909187935494
 20
835.6341717694258
 30
0.0
 11
-838.0291913006756
 21
835.6341717694258
 31
0.0
  0
LINE
  5
231
330
1F
100
AcDbEntity
  8
0239_詳
  6
Continuous
 62
     3
370
     9
100
AcDbLine
 10
-854.9091648411105
 20
832.0987515836151
 30
0.0
 11
-863.7891614759291
 21
832.0987515836151
 31
0.0
  0
LINE
  5
232
330
1F
100
AcDbEntity
  8
0239_詳
  6
Continuous
 62
     3
370
     9
100
AcDbLine
 10
-854.9091648411105
 20
839.1698393950592
 30
0.0
 11
-863.7891614759291
 21
839.1698393950592
 31
0.0
  0
LINE
  5
233
330
1F
100
AcDbEntity
  8
0239_詳
  6
Continuous
 62
     3
370
     9
100
AcDbLine
 10
-863.7891614759291
 20
835.6341717694258
 30
0.0
 11
-854.9091648411105
 21
835.6341717694258
 31
0.0
  0
LINE
  5
234
330
1F
100
AcDbEntity
  8
0239_詳
  6
Continuous
 62
     3
370
     9
100
AcDbLine
 10
-871.7892621014569
 20
832.0987515836151
 30
0.0
 11
-880.6692587362752
 21
832.0987515836151
 31
0.0
  0
LINE
  5
235
330
1F
100
AcDbEntity
  8
0239_詳
  6
Continuous
 62
     3
370
     9
100
AcDbLine
 10
-871.7892621014569
 20
839.1698393950592
 30
0.0
 11
-880.6692587362752
 21
839.1698393950592
 31
0.0
  0
LINE
  5
236
330
1F
100
AcDbEntity
  8
0239_詳
  6
Continuous
 62
     3
370
     9
100
AcDbLine
 10
-880.6692587362752
 20
835.6341717694258
 30
0.0
 11
-871.7892621014569
 21
835.6341717694258
 31
0.0
  0
LINE
  5
237
330
1F
100
AcDbEntity
  8
0239_詳
  6
Continuous
 62
     3
370
     9
100
AcDbLine
 10
-888.6692356418918
 20
832.0987515836151
 30
0.0
 11
-897.5492322767103
 21
832.0987515836151
 31
0.0
  0
LINE
  5
238
330
1F
100
AcDbEntity
  8
0239_詳
  6
Continuous
 62
     3
370
     9
100
AcDbLine
 10
-888.6692356418918
 20
839.1698393950592
 30
0.0
 11
-897.5492322767103
 21
839.1698393950592
 31
0.0
  0
LINE
  5
239
330
1F
100
AcDbEntity
  8
0239_詳
  6
Continuous
 62
     3
370
     9
100
AcDbLine
 10
-897.5492322767103
 20
835.6341717694258
 30
0.0
 11
-888.6692356418918
 21
835.6341717694258
 31
0.0
  0
LINE
  5
23A
330
1F
100
AcDbEntity
  8
0239_詳
  6
Continuous
 62
     3
370
     9
100
AcDbLine
 10
-905.5492091823269
 20
832.0987515836151
 30
0.0
 11
-914.4292058171452
 21
832.0987515836151
 31
0.0
  0
LINE
  5
23B
330
1F
100
AcDbEntity
  8
0239_詳
  6
Continuous
 62
     3
370
     9
100
AcDbLine
 10
-905.5492091823269
 20
839.1698393950592
 30
0.0
 11
-914.4292058171452
 21
839.1698393950592
 31
0.0
  0
LINE
  5
23C
330
1F
100
AcDbEntity
  8
0239_詳
  6
Continuous
 62
     3
370
     9
100
AcDbLine
 10
-914.4292058171452
 20
835.6341717694258
 30
0.0
 11
-905.5492091823269
 21
835.6341717694258
 31
0.0
  0
LINE
  5
23D
330
1F
100
AcDbEntity
  8
0239_詳
  6
Continuous
 62
     3
370
     9
100
AcDbLine
 10
-922.4291827227617
 20
832.0987515836151
 30
0.0
 11
-931.3091793575802
 21
832.0987515836151
 31
0.0
  0
LINE
  5
23E
330
1F
100
AcDbEntity
  8
0239_詳
  6
Continuous
 62
     3
370
     9
100
AcDbLine
 10
-922.4291827227617
 20
839.1698393950592
 30
0.0
 11
-931.3091793575802
 21
839.1698393950592
 31
0.0
  0
LINE
  5
23F
330
1F
100
AcDbEntity
  8
0239_詳
  6
Continuous
 62
     3
370
     9
100
AcDbLine
 10
-931.3091793575802
 20
835.6341717694258
 30
0.0
 11
-922.4291827227617
 21
835.6341717694258
 31
0.0
  0
LINE
  5
240
330
1F
100
AcDbEntity
  8
0239_詳
  6
Continuous
 62
     3
370
     9
100
AcDbLine
 10
-939.3091562631968
 20
832.0987515836151
 30
0.0
 11
-948.1891528980151
 21
832.0987515836151
 31
0.0
  0
LINE
  5
241
330
1F
100
AcDbEntity
  8
0239_詳
  6
Continuous
 62
     3
370
     9
100
AcDbLine
 10
-939.3091562631968
 20
839.1698393950592
 30
0.0
 11
-948.1891528980151
 21
839.1698393950592
 31
0.0
  0
LINE
  5
242
330
1F
100
AcDbEntity
  8
0239_詳
  6
Continuous
 62
     3
370
     9
100
AcDbLine
 10
-948.1891528980151
 20
835.6341717694258
 30
0.0
 11
-939.3091562631968
 21
835.6341717694258
 31
0.0
  0
LINE
  5
243
330
1F
100
AcDbEntity
  8
0239_詳
  6
Continuous
 62
     3
370
     9
100
AcDbLine
 10
-956.1892535235429
 20
832.0987515836151
 30
0.0
 11
-965.0692501583615
 21
832.0987515836151
 31
0.0
  0
LINE
  5
244
330
1F
100
AcDbEntity
  8
0239_詳
  6
Continuous
 62
     3
370
     9
100
AcDbLine
 10
-956.1892535235429
 20
839.1698393950592
 30
0.0
 11
-965.0692501583615
 21
839.1698393950592
 31
0.0
  0
LINE
  5
245
330
1F
100
AcDbEntity
  8
0239_詳
  6
Continuous
 62
     3
370
     9
100
AcDbLine
 10
-965.0692501583615
 20
835.6341717694258
 30
0.0
 11
-956.1892535235429
 21
835.6341717694258
 31
0.0
  0
LINE
  5
246
330
1F
100
AcDbEntity
  8
0239_詳
  6
Continuous
 62
     3
370
     9
100
AcDbLine
 10
-973.069227063978
 20
832.0987515836151
 30
0.0
 11
-981.9492236987963
 21
832.0987515836151
 31
0.0
  0
LINE
  5
247
330
1F
100
AcDbEntity
  8
0239_詳
  6
Continuous
 62
     3
370
     9
100
AcDbLine
 10
-973.069227063978
 20
839.1698393950592
 30
0.0
 11
-981.9492236987963
 21
839.1698393950592
 31
0.0
  0
LINE
  5
248
330
1F
100
AcDbEntity
  8
0239_詳
  6
Continuous
 62
     3
370
     9
100
AcDbLine
 10
-981.9492236987963
 20
835.6341717694258
 30
0.0
 11
-973.069227063978
 21
835.6341717694258
 31
0.0
  0
LINE
  5
249
330
1F
100
AcDbEntity
  8
0239_詳
  6
Continuous
 62
     3
370
     9
100
AcDbLine
 10
-989.9492006044129
 20
832.0987515836151
 30
0.0
 11
-998.8291972392313
 21
832.0987515836151
 31
0.0
  0
LINE
  5
24A
330
1F
100
AcDbEntity
  8
0239_詳
  6
Continuous
 62
     3
370
     9
100
AcDbLine
 10
-989.9492006044129
 20
839.1698393950592
 30
0.0
 11
-998.8291972392313
 21
839.1698393950592
 31
0.0
  0
LINE
  5
24B
330
1F
100
AcDbEntity
  8
0239_詳
  6
Continuous
 62
     3
370
     9
100
AcDbLine
 10
-998.8291972392313
 20
835.6341717694258
 30
0.0
 11
-989.9492006044129
 21
835.6341717694258
 31
0.0
  0
LINE
  5
24C
330
1F
100
AcDbEntity
  8
0239_詳
  6
Continuous
 62
     3
370
     9
100
AcDbLine
 10
-1006.829174144848
 20
832.0987515836151
 30
0.0
 11
-1009.469233332454
 21
832.0987515836151
 31
0.0
  0
LINE
  5
24D
330
1F
100
AcDbEntity
  8
0239_詳
  6
Continuous
 62
     3
370
     9
100
AcDbLine
 10
-1006.829174144848
 20
839.1698393950592
 30
0.0
 11
-1009.469233332454
 21
839.1698393950592
 31
0.0
  0
LINE
  5
24E
330
1F
100
AcDbEntity
  8
0239_詳
  6
Continuous
 62
     3
370
     9
100
AcDbLine
 10
-1009.469233332454
 20
835.6341717694258
 30
0.0
 11
-1006.829174144848
 21
835.6341717694258
 31
0.0
  0
LINE
  5
24F
330
1F
100
AcDbEntity
  8
0239_詳
  6
Continuous
 62
     3
370
     9
100
AcDbLine
 10
-770.5091734190245
 20
732.0986691036742
 30
0.0
 11
-779.3891700538427
 21
732.0986691036742
 31
0.0
  0
LINE
  5
250
330
1F
100
AcDbEntity
  8
0239_詳
  6
Continuous
 62
     3
370
     9
100
AcDbLine
 10
-770.5091734190245
 20
739.1697569151182
 30
0.0
 11
-779.3891700538427
 21
739.1697569151182
 31
0.0
  0
LINE
  5
251
330
1F
100
AcDbEntity
  8
0239_詳
  6
Continuous
 62
     3
370
     9
100
AcDbLine
 10
-779.3891700538427
 20
735.6343367293075
 30
0.0
 11
-770.5091734190245
 21
735.6343367293075
 31
0.0
  0
LINE
  5
252
330
1F
100
AcDbEntity
  8
0239_詳
  6
Continuous
 62
     3
370
     9
100
AcDbLine
 10
-787.3891469594594
 20
732.0986691036742
 30
0.0
 11
-796.2691435942779
 21
732.0986691036742
 31
0.0
  0
LINE
  5
253
330
1F
100
AcDbEntity
  8
0239_詳
  6
Continuous
 62
     3
370
     9
100
AcDbLine
 10
-787.3891469594594
 20
739.1697569151182
 30
0.0
 11
-796.2691435942779
 21
739.1697569151182
 31
0.0
  0
LINE
  5
254
330
1F
100
AcDbEntity
  8
0239_詳
  6
Continuous
 62
     3
370
     9
100
AcDbLine
 10
-796.2691435942779
 20
735.6343367293075
 30
0.0
 11
-787.3891469594594
 21
735.6343367293075
 31
0.0
  0
LINE
  5
255
330
1F
100
AcDbEntity
  8
0239_詳
  6
Continuous
 62
     3
370
     9
100
AcDbLine
 10
-804.2692442198057
 20
732.0986691036742
 30
0.0
 11
-813.1492408546242
 21
732.0986691036742
 31
0.0
  0
LINE
  5
256
330
1F
100
AcDbEntity
  8
0239_詳
  6
Continuous
 62
     3
370
     9
100
AcDbLine
 10
-804.2692442198057
 20
739.1697569151182
 30
0.0
 11
-813.1492408546242
 21
739.1697569151182
 31
0.0
  0
LINE
  5
257
330
1F
100
AcDbEntity
  8
0239_詳
  6
Continuous
 62
     3
370
     9
100
AcDbLine
 10
-813.1492408546242
 20
735.6343367293075
 30
0.0
 11
-804.2692442198057
 21
735.6343367293075
 31
0.0
  0
LINE
  5
258
330
1F
100
AcDbEntity
  8
0239_詳
  6
Continuous
 62
     3
370
     9
100
AcDbLine
 10
-821.1492177602406
 20
732.0986691036742
 30
0.0
 11
-830.0292143950592
 21
732.0986691036742
 31
0.0
  0
LINE
  5
259
330
1F
100
AcDbEntity
  8
0239_詳
  6
Continuous
 62
     3
370
     9
100
AcDbLine
 10
-821.1492177602406
 20
739.1697569151182
 30
0.0
 11
-830.0292143950592
 21
739.1697569151182
 31
0.0
  0
LINE
  5
25A
330
1F
100
AcDbEntity
  8
0239_詳
  6
Continuous
 62
     3
370
     9
100
AcDbLine
 10
-830.0292143950592
 20
735.6343367293075
 30
0.0
 11
-821.1492177602406
 21
735.6343367293075
 31
0.0
  0
LINE
  5
25B
330
1F
100
AcDbEntity
  8
0239_詳
  6
Continuous
 62
     3
370
     9
100
AcDbLine
 10
-838.0291913006756
 20
732.0986691036742
 30
0.0
 11
-846.909187935494
 21
732.0986691036742
 31
0.0
  0
LINE
  5
25C
330
1F
100
AcDbEntity
  8
0239_詳
  6
Continuous
 62
     3
370
     9
100
AcDbLine
 10
-838.0291913006756
 20
739.1697569151182
 30
0.0
 11
-846.909187935494
 21
739.1697569151182
 31
0.0
  0
LINE
  5
25D
330
1F
100
AcDbEntity
  8
0239_詳
  6
Continuous
 62
     3
370
     9
100
AcDbLine
 10
-846.909187935494
 20
735.6343367293075
 30
0.0
 11
-838.0291913006756
 21
735.6343367293075
 31
0.0
  0
LINE
  5
25E
330
1F
100
AcDbEntity
  8
0239_詳
  6
Continuous
 62
     3
370
     9
100
AcDbLine
 10
-854.9091648411105
 20
732.0986691036742
 30
0.0
 11
-863.7891614759291
 21
732.0986691036742
 31
0.0
  0
LINE
  5
25F
330
1F
100
AcDbEntity
  8
0239_詳
  6
Continuous
 62
     3
370
     9
100
AcDbLine
 10
-854.9091648411105
 20
739.1697569151182
 30
0.0
 11
-863.7891614759291
 21
739.1697569151182
 31
0.0
  0
LINE
  5
260
330
1F
100
AcDbEntity
  8
0239_詳
  6
Continuous
 62
     3
370
     9
100
AcDbLine
 10
-863.7891614759291
 20
735.6343367293075
 30
0.0
 11
-854.9091648411105
 21
735.6343367293075
 31
0.0
  0
LINE
  5
261
330
1F
100
AcDbEntity
  8
0239_詳
  6
Continuous
 62
     3
370
     9
100
AcDbLine
 10
-871.7892621014569
 20
732.0986691036742
 30
0.0
 11
-880.6692587362752
 21
732.0986691036742
 31
0.0
  0
LINE
  5
262
330
1F
100
AcDbEntity
  8
0239_詳
  6
Continuous
 62
     3
370
     9
100
AcDbLine
 10
-871.7892621014569
 20
739.1697569151182
 30
0.0
 11
-880.6692587362752
 21
739.1697569151182
 31
0.0
  0
LINE
  5
263
330
1F
100
AcDbEntity
  8
0239_詳
  6
Continuous
 62
     3
370
     9
100
AcDbLine
 10
-880.6692587362752
 20
735.6343367293075
 30
0.0
 11
-871.7892621014569
 21
735.6343367293075
 31
0.0
  0
LINE
  5
264
330
1F
100
AcDbEntity
  8
0239_詳
  6
Continuous
 62
     3
370
     9
100
AcDbLine
 10
-888.6692356418918
 20
732.0986691036742
 30
0.0
 11
-897.5492322767103
 21
732.0986691036742
 31
0.0
  0
LINE
  5
265
330
1F
100
AcDbEntity
  8
0239_詳
  6
Continuous
 62
     3
370
     9
100
AcDbLine
 10
-888.6692356418918
 20
739.1697569151182
 30
0.0
 11
-897.5492322767103
 21
739.1697569151182
 31
0.0
  0
LINE
  5
266
330
1F
100
AcDbEntity
  8
0239_詳
  6
Continuous
 62
     3
370
     9
100
AcDbLine
 10
-897.5492322767103
 20
735.6343367293075
 30
0.0
 11
-888.6692356418918
 21
735.6343367293075
 31
0.0
  0
LINE
  5
267
330
1F
100
AcDbEntity
  8
0239_詳
  6
Continuous
 62
     3
370
     9
100
AcDbLine
 10
-905.5492091823269
 20
732.0986691036742
 30
0.0
 11
-914.4292058171452
 21
732.0986691036742
 31
0.0
  0
LINE
  5
268
330
1F
100
AcDbEntity
  8
0239_詳
  6
Continuous
 62
     3
370
     9
100
AcDbLine
 10
-905.5492091823269
 20
739.1697569151182
 30
0.0
 11
-914.4292058171452
 21
739.1697569151182
 31
0.0
  0
LINE
  5
269
330
1F
100
AcDbEntity
  8
0239_詳
  6
Continuous
 62
     3
370
     9
100
AcDbLine
 10
-914.4292058171452
 20
735.6343367293075
 30
0.0
 11
-905.5492091823269
 21
735.6343367293075
 31
0.0
  0
LINE
  5
26A
330
1F
100
AcDbEntity
  8
0239_詳
  6
Continuous
 62
     3
370
     9
100
AcDbLine
 10
-922.4291827227617
 20
732.0986691036742
 30
0.0
 11
-931.3091793575802
 21
732.0986691036742
 31
0.0
  0
LINE
  5
26B
330
1F
100
AcDbEntity
  8
0239_詳
  6
Continuous
 62
     3
370
     9
100
AcDbLine
 10
-922.4291827227617
 20
739.1697569151182
 30
0.0
 11
-931.3091793575802
 21
739.1697569151182
 31
0.0
  0
LINE
  5
26C
330
1F
100
AcDbEntity
  8
0239_詳
  6
Continuous
 62
     3
370
     9
100
AcDbLine
 10
-931.3091793575802
 20
735.6343367293075
 30
0.0
 11
-922.4291827227617
 21
735.6343367293075
 31
0.0
  0
LINE
  5
26D
330
1F
100
AcDbEntity
  8
0239_詳
  6
Continuous
 62
     3
370
     9
100
AcDbLine
 10
-939.3091562631968
 20
732.0986691036742
 30
0.0
 11
-948.1891528980151
 21
732.0986691036742
 31
0.0
  0
LINE
  5
26E
330
1F
100
AcDbEntity
  8
0239_詳
  6
Continuous
 62
     3
370
     9
100
AcDbLine
 10
-939.3091562631968
 20
739.1697569151182
 30
0.0
 11
-948.1891528980151
 21
739.1697569151182
 31
0.0
  0
LINE
  5
26F
330
1F
100
AcDbEntity
  8
0239_詳
  6
Continuous
 62
     3
370
     9
100
AcDbLine
 10
-948.1891528980151
 20
735.6343367293075
 30
0.0
 11
-939.3091562631968
 21
735.6343367293075
 31
0.0
  0
LINE
  5
270
330
1F
100
AcDbEntity
  8
0239_詳
  6
Continuous
 62
     3
370
     9
100
AcDbLine
 10
-956.1892535235429
 20
732.0986691036742
 30
0.0
 11
-965.0692501583615
 21
732.0986691036742
 31
0.0
  0
LINE
  5
271
330
1F
100
AcDbEntity
  8
0239_詳
  6
Continuous
 62
     3
370
     9
100
AcDbLine
 10
-956.1892535235429
 20
739.1697569151182
 30
0.0
 11
-965.0692501583615
 21
739.1697569151182
 31
0.0
  0
LINE
  5
272
330
1F
100
AcDbEntity
  8
0239_詳
  6
Continuous
 62
     3
370
     9
100
AcDbLine
 10
-965.0692501583615
 20
735.6343367293075
 30
0.0
 11
-956.1892535235429
 21
735.6343367293075
 31
0.0
  0
LINE
  5
273
330
1F
100
AcDbEntity
  8
0239_詳
  6
Continuous
 62
     3
370
     9
100
AcDbLine
 10
-973.069227063978
 20
732.0986691036742
 30
0.0
 11
-981.9492236987963
 21
732.0986691036742
 31
0.0
  0
LINE
  5
274
330
1F
100
AcDbEntity
  8
0239_詳
  6
Continuous
 62
     3
370
     9
100
AcDbLine
 10
-973.069227063978
 20
739.1697569151182
 30
0.0
 11
-981.9492236987963
 21
739.1697569151182
 31
0.0
  0
LINE
  5
275
330
1F
100
AcDbEntity
  8
0239_詳
  6
Continuous
 62
     3
370
     9
100
AcDbLine
 10
-981.9492236987963
 20
735.6343367293075
 30
0.0
 11
-973.069227063978
 21
735.6343367293075
 31
0.0
  0
LINE
  5
276
330
1F
100
AcDbEntity
  8
0239_詳
  6
Continuous
 62
     3
370
     9
100
AcDbLine
 10
-989.9492006044129
 20
732.0986691036742
 30
0.0
 11
-998.8291972392313
 21
732.0986691036742
 31
0.0
  0
LINE
  5
277
330
1F
100
AcDbEntity
  8
0239_詳
  6
Continuous
 62
     3
370
     9
100
AcDbLine
 10
-989.9492006044129
 20
739.1697569151182
 30
0.0
 11
-998.8291972392313
 21
739.1697569151182
 31
0.0
  0
LINE
  5
278
330
1F
100
AcDbEntity
  8
0239_詳
  6
Continuous
 62
     3
370
     9
100
AcDbLine
 10
-998.8291972392313
 20
735.6343367293075
 30
0.0
 11
-989.9492006044129
 21
735.6343367293075
 31
0.0
  0
LINE
  5
279
330
1F
100
AcDbEntity
  8
0239_詳
  6
Continuous
 62
     3
370
     9
100
AcDbLine
 10
-1006.829174144848
 20
732.0986691036742
 30
0.0
 11
-1009.469233332454
 21
732.0986691036742
 31
0.0
  0
LINE
  5
27A
330
1F
100
AcDbEntity
  8
0239_詳
  6
Continuous
 62
     3
370
     9
100
AcDbLine
 10
-1006.829174144848
 20
739.1697569151182
 30
0.0
 11
-1009.469233332454
 21
739.1697569151182
 31
0.0
  0
LINE
  5
27B
330
1F
100
AcDbEntity
  8
0239_詳
  6
Continuous
 62
     3
370
     9
100
AcDbLine
 10
-1009.469233332454
 20
735.6343367293075
 30
0.0
 11
-1006.829174144848
 21
735.6343367293075
 31
0.0
  0
LINE
  5
27C
330
1F
100
AcDbEntity
  8
0239_詳
  6
Continuous
 62
     3
370
     9
100
AcDbLine
 10
-871.7892621014569
 20
632.0985866237334
 30
0.0
 11
-880.6692587362752
 21
632.0985866237334
 31
0.0
  0
LINE
  5
27D
330
1F
100
AcDbEntity
  8
0239_詳
  6
Continuous
 62
     3
370
     9
100
AcDbLine
 10
-871.7892621014569
 20
639.1696744351773
 30
0.0
 11
-880.6692587362752
 21
639.1696744351773
 31
0.0
  0
LINE
  5
27E
330
1F
100
AcDbEntity
  8
0239_詳
  6
Continuous
 62
     3
370
     9
100
AcDbLine
 10
-880.6692587362752
 20
635.6342542493667
 30
0.0
 11
-871.7892621014569
 21
635.6342542493667
 31
0.0
  0
LINE
  5
27F
330
1F
100
AcDbEntity
  8
0239_詳
  6
Continuous
 62
     3
370
     9
100
AcDbLine
 10
-888.6692356418918
 20
632.0985866237334
 30
0.0
 11
-897.5492322767103
 21
632.0985866237334
 31
0.0
  0
LINE
  5
280
330
1F
100
AcDbEntity
  8
0239_詳
  6
Continuous
 62
     3
370
     9
100
AcDbLine
 10
-888.6692356418918
 20
639.1696744351773
 30
0.0
 11
-897.5492322767103
 21
639.1696744351773
 31
0.0
  0
LINE
  5
281
330
1F
100
AcDbEntity
  8
0239_詳
  6
Continuous
 62
     3
370
     9
100
AcDbLine
 10
-897.5492322767103
 20
635.6342542493667
 30
0.0
 11
-888.6692356418918
 21
635.6342542493667
 31
0.0
  0
LINE
  5
282
330
1F
100
AcDbEntity
  8
0239_詳
  6
Continuous
 62
     3
370
     9
100
AcDbLine
 10
-905.5492091823269
 20
632.0985866237334
 30
0.0
 11
-914.4292058171452
 21
632.0985866237334
 31
0.0
  0
LINE
  5
283
330
1F
100
AcDbEntity
  8
0239_詳
  6
Continuous
 62
     3
370
     9
100
AcDbLine
 10
-905.5492091823269
 20
639.1696744351773
 30
0.0
 11
-914.4292058171452
 21
639.1696744351773
 31
0.0
  0
LINE
  5
284
330
1F
100
AcDbEntity
  8
0239_詳
  6
Continuous
 62
     3
370
     9
100
AcDbLine
 10
-914.4292058171452
 20
635.6342542493667
 30
0.0
 11
-905.5492091823269
 21
635.6342542493667
 31
0.0
  0
LINE
  5
285
330
1F
100
AcDbEntity
  8
0239_詳
  6
Continuous
 62
     3
370
     9
100
AcDbLine
 10
-922.4291827227617
 20
632.0985866237334
 30
0.0
 11
-931.3091793575802
 21
632.0985866237334
 31
0.0
  0
LINE
  5
286
330
1F
100
AcDbEntity
  8
0239_詳
  6
Continuous
 62
     3
370
     9
100
AcDbLine
 10
-922.4291827227617
 20
639.1696744351773
 30
0.0
 11
-931.3091793575802
 21
639.1696744351773
 31
0.0
  0
LINE
  5
287
330
1F
100
AcDbEntity
  8
0239_詳
  6
Continuous
 62
     3
370
     9
100
AcDbLine
 10
-931.3091793575802
 20
635.6342542493667
 30
0.0
 11
-922.4291827227617
 21
635.6342542493667
 31
0.0
  0
LINE
  5
288
330
1F
100
AcDbEntity
  8
0239_詳
  6
Continuous
 62
     3
370
     9
100
AcDbLine
 10
-939.3091562631968
 20
632.0985866237334
 30
0.0
 11
-948.1891528980151
 21
632.0985866237334
 31
0.0
  0
LINE
  5
289
330
1F
100
AcDbEntity
  8
0239_詳
  6
Continuous
 62
     3
370
     9
100
AcDbLine
 10
-939.3091562631968
 20
639.1696744351773
 30
0.0
 11
-948.1891528980151
 21
639.1696744351773
 31
0.0
  0
LINE
  5
28A
330
1F
100
AcDbEntity
  8
0239_詳
  6
Continuous
 62
     3
370
     9
100
AcDbLine
 10
-948.1891528980151
 20
635.6342542493667
 30
0.0
 11
-939.3091562631968
 21
635.6342542493667
 31
0.0
  0
LINE
  5
28B
330
1F
100
AcDbEntity
  8
0239_詳
  6
Continuous
 62
     3
370
     9
100
AcDbLine
 10
-956.1892535235429
 20
632.0985866237334
 30
0.0
 11
-965.0692501583615
 21
632.0985866237334
 31
0.0
  0
LINE
  5
28C
330
1F
100
AcDbEntity
  8
0239_詳
  6
Continuous
 62
     3
370
     9
100
AcDbLine
 10
-956.1892535235429
 20
639.1696744351773
 30
0.0
 11
-965.0692501583615
 21
639.1696744351773
 31
0.0
  0
LINE
  5
28D
330
1F
100
AcDbEntity
  8
0239_詳
  6
Continuous
 62
     3
370
     9
100
AcDbLine
 10
-965.0692501583615
 20
635.6342542493667
 30
0.0
 11
-956.1892535235429
 21
635.6342542493667
 31
0.0
  0
LINE
  5
28E
330
1F
100
AcDbEntity
  8
0239_詳
  6
Continuous
 62
     3
370
     9
100
AcDbLine
 10
-973.069227063978
 20
632.0985866237334
 30
0.0
 11
-981.9492236987963
 21
632.0985866237334
 31
0.0
  0
LINE
  5
28F
330
1F
100
AcDbEntity
  8
0239_詳
  6
Continuous
 62
     3
370
     9
100
AcDbLine
 10
-973.069227063978
 20
639.1696744351773
 30
0.0
 11
-981.9492236987963
 21
639.1696744351773
 31
0.0
  0
LINE
  5
290
330
1F
100
AcDbEntity
  8
0239_詳
  6
Continuous
 62
     3
370
     9
100
AcDbLine
 10
-981.9492236987963
 20
635.6342542493667
 30
0.0
 11
-973.069227063978
 21
635.6342542493667
 31
0.0
  0
LINE
  5
291
330
1F
100
AcDbEntity
  8
0239_詳
  6
Continuous
 62
     3
370
     9
100
AcDbLine
 10
-989.9492006044129
 20
632.0985866237334
 30
0.0
 11
-998.8291972392313
 21
632.0985866237334
 31
0.0
  0
LINE
  5
292
330
1F
100
AcDbEntity
  8
0239_詳
  6
Continuous
 62
     3
370
     9
100
AcDbLine
 10
-989.9492006044129
 20
639.1696744351773
 30
0.0
 11
-998.8291972392313
 21
639.1696744351773
 31
0.0
  0
LINE
  5
293
330
1F
100
AcDbEntity
  8
0239_詳
  6
Continuous
 62
     3
370
     9
100
AcDbLine
 10
-998.8291972392313
 20
635.6342542493667
 30
0.0
 11
-989.9492006044129
 21
635.6342542493667
 31
0.0
  0
LINE
  5
294
330
1F
100
AcDbEntity
  8
0239_詳
  6
Continuous
 62
     3
370
     9
100
AcDbLine
 10
-1006.829174144848
 20
632.0985866237334
 30
0.0
 11
-1009.469233332454
 21
632.0985866237334
 31
0.0
  0
LINE
  5
295
330
1F
100
AcDbEntity
  8
0239_詳
  6
Continuous
 62
     3
370
     9
100
AcDbLine
 10
-1006.829174144848
 20
639.1696744351773
 30
0.0
 11
-1009.469233332454
 21
639.1696744351773
 31
0.0
  0
LINE
  5
296
330
1F
100
AcDbEntity
  8
0239_詳
  6
Continuous
 62
     3
370
     9
100
AcDbLine
 10
-1009.469233332454
 20
635.6342542493667
 30
0.0
 11
-1006.829174144848
 21
635.6342542493667
 31
0.0
  0
LINE
  5
297
330
1F
100
AcDbEntity
  8
0239_詳
  6
Continuous
 62
     3
370
     9
100
AcDbLine
 10
-1017.46921023807
 20
907.6342113597974
 30
0.0
 11
-667.4691689980995
 21
907.6342113597974
 31
0.0
  0
LINE
  5
298
330
1F
100
AcDbEntity
  8
0239_詳
  6
Continuous
 62
     3
370
     9
100
AcDbLine
 10
-1006.829174144848
 20
563.634214658995
 30
0.0
 11
-1006.829174144848
 21
907.6342113597974
 31
0.0
  0
LINE
  5
299
330
1F
100
AcDbEntity
  8
0239_詳
  6
Continuous
 62
     3
370
     9
100
AcDbLine
 10
-998.8291972392313
 20
563.634214658995
 30
0.0
 11
-998.8291972392313
 21
907.6342113597974
 31
0.0
  0
LINE
  5
29A
330
1F
100
AcDbEntity
  8
0239_詳
  6
Continuous
 62
     3
370
     9
100
AcDbLine
 10
-1009.469233332454
 20
563.634214658995
 30
0.0
 11
-1009.469233332454
 21
907.6342113597974
 31
0.0
  0
LINE
  5
29B
330
1F
100
AcDbEntity
  8
0239_詳
  6
Continuous
 62
     3
370
     9
100
AcDbLine
 10
-989.9492006044129
 20
563.634214658995
 30
0.0
 11
-989.9492006044129
 21
907.6342113597974
 31
0.0
  0
LINE
  5
29C
330
1F
100
AcDbEntity
  8
0239_詳
  6
Continuous
 62
     3
370
     9
100
AcDbLine
 10
-981.9492236987963
 20
563.634214658995
 30
0.0
 11
-981.9492236987963
 21
907.6342113597974
 31
0.0
  0
LINE
  5
29D
330
1F
100
AcDbEntity
  8
0239_詳
  6
Continuous
 62
     3
370
     9
100
AcDbLine
 10
-973.069227063978
 20
563.634214658995
 30
0.0
 11
-973.069227063978
 21
907.6342113597974
 31
0.0
  0
LINE
  5
29E
330
1F
100
AcDbEntity
  8
0239_詳
  6
Continuous
 62
     3
370
     9
100
AcDbLine
 10
-965.0692501583615
 20
563.634214658995
 30
0.0
 11
-965.0692501583615
 21
907.6342113597974
 31
0.0
  0
LINE
  5
29F
330
1F
100
AcDbEntity
  8
0239_詳
  6
Continuous
 62
     3
370
     9
100
AcDbLine
 10
-956.1892535235429
 20
563.634214658995
 30
0.0
 11
-956.1892535235429
 21
907.6342113597974
 31
0.0
  0
LINE
  5
2A0
330
1F
100
AcDbEntity
  8
0239_詳
  6
Continuous
 62
     3
370
     9
100
AcDbLine
 10
-948.1891528980151
 20
563.634214658995
 30
0.0
 11
-948.1891528980151
 21
907.6342113597974
 31
0.0
  0
LINE
  5
2A1
330
1F
100
AcDbEntity
  8
0239_詳
  6
Continuous
 62
     3
370
     9
100
AcDbLine
 10
-939.3091562631968
 20
563.634214658995
 30
0.0
 11
-939.3091562631968
 21
907.6342113597974
 31
0.0
  0
LINE
  5
2A2
330
1F
100
AcDbEntity
  8
0239_詳
  6
Continuous
 62
     3
370
     9
100
AcDbLine
 10
-931.3091793575802
 20
563.634214658995
 30
0.0
 11
-931.3091793575802
 21
907.6342113597974
 31
0.0
  0
LINE
  5
2A3
330
1F
100
AcDbEntity
  8
0239_詳
  6
Continuous
 62
     3
370
     9
100
AcDbLine
 10
-922.4291827227617
 20
563.634214658995
 30
0.0
 11
-922.4291827227617
 21
907.6342113597974
 31
0.0
  0
LINE
  5
2A4
330
1F
100
AcDbEntity
  8
0239_詳
  6
Continuous
 62
     3
370
     9
100
AcDbLine
 10
-914.4292058171452
 20
563.634214658995
 30
0.0
 11
-914.4292058171452
 21
907.6342113597974
 31
0.0
  0
LINE
  5
2A5
330
1F
100
AcDbEntity
  8
0192_区
  6
Continuous
 62
     3
370
     9
100
AcDbLine
 10
-667.4691689980995
 20
560.6342542493667
 30
0.0
 11
-1017.46921023807
 21
560.6342542493667
 31
0.0
  0
LINE
  5
2A6
330
1F
100
AcDbEntity
  8
0239_詳
  6
Continuous
 62
     3
370
     9
100
AcDbLine
 10
-1017.46921023807
 20
563.634214658995
 30
0.0
 11
-667.4691689980995
 21
563.634214658995
 31
0.0
  0
LINE
  5
2A7
330
1F
100
AcDbEntity
  8
0239_詳
  6
Continuous
 62
     3
370
     9
100
AcDbLine
 10
-675.4691459037161
 20
563.634214658995
 30
0.0
 11
-675.4691459037161
 21
907.6342113597974
 31
0.0
  0
LINE
  5
2A8
330
1F
100
AcDbEntity
  8
0239_詳
  6
Continuous
 62
     3
370
     9
100
AcDbLine
 10
-905.5492091823269
 20
563.634214658995
 30
0.0
 11
-905.5492091823269
 21
907.6342113597974
 31
0.0
  0
LINE
  5
2A9
330
1F
100
AcDbEntity
  8
0239_詳
  6
Continuous
 62
     3
370
     9
100
AcDbLine
 10
-678.1092050913217
 20
563.634214658995
 30
0.0
 11
-678.1092050913217
 21
907.6342113597974
 31
0.0
  0
LINE
  5
2AA
330
1F
100
AcDbEntity
  8
0239_詳
  6
Continuous
 62
     3
370
     9
100
AcDbLine
 10
-686.1091819969383
 20
563.634214658995
 30
0.0
 11
-686.1091819969383
 21
907.6342113597974
 31
0.0
  0
LINE
  5
2AB
330
1F
100
AcDbEntity
  8
0239_詳
  6
Continuous
 62
     3
370
     9
100
AcDbLine
 10
-897.5492322767103
 20
563.634214658995
 30
0.0
 11
-897.5492322767103
 21
907.6342113597974
 31
0.0
  0
LINE
  5
2AC
330
1F
100
AcDbEntity
  8
0239_詳
  6
Continuous
 62
     3
370
     9
100
AcDbLine
 10
-888.6692356418918
 20
563.634214658995
 30
0.0
 11
-888.6692356418918
 21
907.6342113597974
 31
0.0
  0
LINE
  5
2AD
330
1F
100
AcDbEntity
  8
0239_詳
  6
Continuous
 62
     3
370
     9
100
AcDbLine
 10
-880.6692587362752
 20
563.634214658995
 30
0.0
 11
-880.6692587362752
 21
907.6342113597974
 31
0.0
  0
LINE
  5
2AE
330
1F
100
AcDbEntity
  8
0239_詳
  6
Continuous
 62
     3
370
     9
100
AcDbLine
 10
-871.7892621014569
 20
563.634214658995
 30
0.0
 11
-871.7892621014569
 21
907.6342113597974
 31
0.0
  0
LINE
  5
2AF
330
1F
100
AcDbEntity
  8
0239_詳
  6
Continuous
 62
     3
370
     9
100
AcDbLine
 10
-863.7891614759291
 20
563.634214658995
 30
0.0
 11
-863.7891614759291
 21
907.6342113597974
 31
0.0
  0
LINE
  5
2B0
330
1F
100
AcDbEntity
  8
0239_詳
  6
Continuous
 62
     3
370
     9
100
AcDbLine
 10
-854.9091648411105
 20
563.634214658995
 30
0.0
 11
-854.9091648411105
 21
907.6342113597974
 31
0.0
  0
LINE
  5
2B1
330
1F
100
AcDbEntity
  8
0239_詳
  6
Continuous
 62
     3
370
     9
100
AcDbLine
 10
-846.909187935494
 20
563.634214658995
 30
0.0
 11
-846.909187935494
 21
907.6342113597974
 31
0.0
  0
LINE
  5
2B2
330
1F
100
AcDbEntity
  8
0239_詳
  6
Continuous
 62
     3
370
     9
100
AcDbLine
 10
-838.0291913006756
 20
563.634214658995
 30
0.0
 11
-838.0291913006756
 21
907.6342113597974
 31
0.0
  0
LINE
  5
2B3
330
1F
100
AcDbEntity
  8
0239_詳
  6
Continuous
 62
     3
370
     9
100
AcDbLine
 10
-830.0292143950592
 20
563.634214658995
 30
0.0
 11
-830.0292143950592
 21
907.6342113597974
 31
0.0
  0
LINE
  5
2B4
330
1F
100
AcDbEntity
  8
0239_詳
  6
Continuous
 62
     3
370
     9
100
AcDbLine
 10
-821.1492177602406
 20
563.634214658995
 30
0.0
 11
-821.1492177602406
 21
907.6342113597974
 31
0.0
  0
LINE
  5
2B5
330
1F
100
AcDbEntity
  8
0239_詳
  6
Continuous
 62
     3
370
     9
100
AcDbLine
 10
-813.1492408546242
 20
563.634214658995
 30
0.0
 11
-813.1492408546242
 21
907.6342113597974
 31
0.0
  0
LINE
  5
2B6
330
1F
100
AcDbEntity
  8
0239_詳
  6
Continuous
 62
     3
370
     9
100
AcDbLine
 10
-804.2692442198057
 20
563.634214658995
 30
0.0
 11
-804.2692442198057
 21
907.6342113597974
 31
0.0
  0
LINE
  5
2B7
330
1F
100
AcDbEntity
  8
0239_詳
  6
Continuous
 62
     3
370
     9
100
AcDbLine
 10
-796.2691435942779
 20
563.634214658995
 30
0.0
 11
-796.2691435942779
 21
907.6342113597974
 31
0.0
  0
LINE
  5
2B8
330
1F
100
AcDbEntity
  8
0239_詳
  6
Continuous
 62
     3
370
     9
100
AcDbLine
 10
-787.3891469594594
 20
563.634214658995
 30
0.0
 11
-787.3891469594594
 21
907.6342113597974
 31
0.0
  0
LINE
  5
2B9
330
1F
100
AcDbEntity
  8
0239_詳
  6
Continuous
 62
     3
370
     9
100
AcDbLine
 10
-779.3891700538427
 20
563.634214658995
 30
0.0
 11
-779.3891700538427
 21
907.6342113597974
 31
0.0
  0
LINE
  5
2BA
330
1F
100
AcDbEntity
  8
0239_詳
  6
Continuous
 62
     3
370
     9
100
AcDbLine
 10
-770.5091734190245
 20
563.634214658995
 30
0.0
 11
-770.5091734190245
 21
907.6342113597974
 31
0.0
  0
LINE
  5
2BB
330
1F
100
AcDbEntity
  8
0239_詳
  6
Continuous
 62
     3
370
     9
100
AcDbLine
 10
-762.5091965134078
 20
563.634214658995
 30
0.0
 11
-762.5091965134078
 21
907.6342113597974
 31
0.0
  0
LINE
  5
2BC
330
1F
100
AcDbEntity
  8
0239_詳
  6
Continuous
 62
     3
370
     9
100
AcDbLine
 10
-753.6291998785896
 20
563.634214658995
 30
0.0
 11
-753.6291998785896
 21
907.6342113597974
 31
0.0
  0
LINE
  5
2BD
330
1F
100
AcDbEntity
  8
0239_詳
  6
Continuous
 62
     3
370
     9
100
AcDbLine
 10
-745.6292229729729
 20
563.634214658995
 30
0.0
 11
-745.6292229729729
 21
907.6342113597974
 31
0.0
  0
LINE
  5
2BE
330
1F
100
AcDbEntity
  8
0239_詳
  6
Continuous
 62
     3
370
     9
100
AcDbLine
 10
-736.7492263381544
 20
563.634214658995
 30
0.0
 11
-736.7492263381544
 21
907.6342113597974
 31
0.0
  0
LINE
  5
2BF
330
1F
100
AcDbEntity
  8
0239_詳
  6
Continuous
 62
     3
370
     9
100
AcDbLine
 10
-728.749249432538
 20
563.634214658995
 30
0.0
 11
-728.749249432538
 21
907.6342113597974
 31
0.0
  0
LINE
  5
2C0
330
1F
100
AcDbEntity
  8
0239_詳
  6
Continuous
 62
     3
370
     9
100
AcDbLine
 10
-719.8692527977196
 20
563.634214658995
 30
0.0
 11
-719.8692527977196
 21
907.6342113597974
 31
0.0
  0
LINE
  5
2C1
330
1F
100
AcDbEntity
  8
0239_詳
  6
Continuous
 62
     3
370
     9
100
AcDbLine
 10
-711.8691521721917
 20
563.634214658995
 30
0.0
 11
-711.8691521721917
 21
907.6342113597974
 31
0.0
  0
LINE
  5
2C2
330
1F
100
AcDbEntity
  8
0239_詳
  6
Continuous
 62
     3
370
     9
100
AcDbLine
 10
-702.9891555373731
 20
563.634214658995
 30
0.0
 11
-702.9891555373731
 21
907.6342113597974
 31
0.0
  0
LINE
  5
2C3
330
1F
100
AcDbEntity
  8
0239_詳
  6
Continuous
 62
     3
370
     9
100
AcDbLine
 10
-694.9891786317568
 20
563.634214658995
 30
0.0
 11
-694.9891786317568
 21
907.6342113597974
 31
0.0
  0
LINE
  5
2C4
330
1F
100
AcDbEntity
  8
0239_詳
  6
Continuous
 62
     3
370
     9
100
AcDbLine
 10
-736.7492263381544
 20
732.0986691036742
 30
0.0
 11
-745.6292229729729
 21
732.0986691036742
 31
0.0
  0
LINE
  5
2C5
330
1F
100
AcDbEntity
  8
0239_詳
  6
Continuous
 62
     3
370
     9
100
AcDbLine
 10
-736.7492263381544
 20
739.1697569151182
 30
0.0
 11
-745.6292229729729
 21
739.1697569151182
 31
0.0
  0
LINE
  5
2C6
330
1F
100
AcDbEntity
  8
0239_詳
  6
Continuous
 62
     3
370
     9
100
AcDbLine
 10
-745.6292229729729
 20
735.6343367293075
 30
0.0
 11
-736.7492263381544
 21
735.6343367293075
 31
0.0
  0
LINE
  5
2C7
330
1F
100
AcDbEntity
  8
0239_詳
  6
Continuous
 62
     3
370
     9
100
AcDbLine
 10
-719.8692527977196
 20
732.0986691036742
 30
0.0
 11
-728.749249432538
 21
732.0986691036742
 31
0.0
  0
LINE
  5
2C8
330
1F
100
AcDbEntity
  8
0239_詳
  6
Continuous
 62
     3
370
     9
100
AcDbLine
 10
-719.8692527977196
 20
739.1697569151182
 30
0.0
 11
-728.749249432538
 21
739.1697569151182
 31
0.0
  0
LINE
  5
2C9
330
1F
100
AcDbEntity
  8
0239_詳
  6
Continuous
 62
     3
370
     9
100
AcDbLine
 10
-728.749249432538
 20
735.6343367293075
 30
0.0
 11
-719.8692527977196
 21
735.6343367293075
 31
0.0
  0
LINE
  5
2CA
330
1F
100
AcDbEntity
  8
0239_詳
  6
Continuous
 62
     3
370
     9
100
AcDbLine
 10
-702.9891555373731
 20
732.0986691036742
 30
0.0
 11
-711.8691521721917
 21
732.0986691036742
 31
0.0
  0
LINE
  5
2CB
330
1F
100
AcDbEntity
  8
0239_詳
  6
Continuous
 62
     3
370
     9
100
AcDbLine
 10
-702.9891555373731
 20
739.1697569151182
 30
0.0
 11
-711.8691521721917
 21
739.1697569151182
 31
0.0
  0
LINE
  5
2CC
330
1F
100
AcDbEntity
  8
0239_詳
  6
Continuous
 62
     3
370
     9
100
AcDbLine
 10
-711.8691521721917
 20
735.6343367293075
 30
0.0
 11
-702.9891555373731
 21
735.6343367293075
 31
0.0
  0
LINE
  5
2CD
330
1F
100
AcDbEntity
  8
0239_詳
  6
Continuous
 62
     3
370
     9
100
AcDbLine
 10
-686.1091819969383
 20
732.0986691036742
 30
0.0
 11
-694.9891786317568
 21
732.0986691036742
 31
0.0
  0
LINE
  5
2CE
330
1F
100
AcDbEntity
  8
0239_詳
  6
Continuous
 62
     3
370
     9
100
AcDbLine
 10
-686.1091819969383
 20
739.1697569151182
 30
0.0
 11
-694.9891786317568
 21
739.1697569151182
 31
0.0
  0
LINE
  5
2CF
330
1F
100
AcDbEntity
  8
0239_詳
  6
Continuous
 62
     3
370
     9
100
AcDbLine
 10
-694.9891786317568
 20
735.6343367293075
 30
0.0
 11
-686.1091819969383
 21
735.6343367293075
 31
0.0
  0
LINE
  5
2D0
330
1F
100
AcDbEntity
  8
0239_詳
  6
Continuous
 62
     3
370
     9
100
AcDbLine
 10
-838.0291913006756
 20
632.0985866237334
 30
0.0
 11
-846.909187935494
 21
632.0985866237334
 31
0.0
  0
LINE
  5
2D1
330
1F
100
AcDbEntity
  8
0239_詳
  6
Continuous
 62
     3
370
     9
100
AcDbLine
 10
-838.0291913006756
 20
639.1696744351773
 30
0.0
 11
-846.909187935494
 21
639.1696744351773
 31
0.0
  0
LINE
  5
2D2
330
1F
100
AcDbEntity
  8
0239_詳
  6
Continuous
 62
     3
370
     9
100
AcDbLine
 10
-846.909187935494
 20
635.6342542493667
 30
0.0
 11
-838.0291913006756
 21
635.6342542493667
 31
0.0
  0
LINE
  5
2D3
330
1F
100
AcDbEntity
  8
0239_詳
  6
Continuous
 62
     3
370
     9
100
AcDbLine
 10
-821.1492177602406
 20
632.0985866237334
 30
0.0
 11
-830.0292143950592
 21
632.0985866237334
 31
0.0
  0
LINE
  5
2D4
330
1F
100
AcDbEntity
  8
0239_詳
  6
Continuous
 62
     3
370
     9
100
AcDbLine
 10
-821.1492177602406
 20
639.1696744351773
 30
0.0
 11
-830.0292143950592
 21
639.1696744351773
 31
0.0
  0
LINE
  5
2D5
330
1F
100
AcDbEntity
  8
0239_詳
  6
Continuous
 62
     3
370
     9
100
AcDbLine
 10
-830.0292143950592
 20
635.6342542493667
 30
0.0
 11
-821.1492177602406
 21
635.6342542493667
 31
0.0
  0
LINE
  5
2D6
330
1F
100
AcDbEntity
  8
0239_詳
  6
Continuous
 62
     3
370
     9
100
AcDbLine
 10
-804.2692442198057
 20
632.0985866237334
 30
0.0
 11
-813.1492408546242
 21
632.0985866237334
 31
0.0
  0
LINE
  5
2D7
330
1F
100
AcDbEntity
  8
0239_詳
  6
Continuous
 62
     3
370
     9
100
AcDbLine
 10
-804.2692442198057
 20
639.1696744351773
 30
0.0
 11
-813.1492408546242
 21
639.1696744351773
 31
0.0
  0
LINE
  5
2D8
330
1F
100
AcDbEntity
  8
0239_詳
  6
Continuous
 62
     3
370
     9
100
AcDbLine
 10
-813.1492408546242
 20
635.6342542493667
 30
0.0
 11
-804.2692442198057
 21
635.6342542493667
 31
0.0
  0
LINE
  5
2D9
330
1F
100
AcDbEntity
  8
0239_詳
  6
Continuous
 62
     3
370
     9
100
AcDbLine
 10
-787.3891469594594
 20
632.0985866237334
 30
0.0
 11
-796.2691435942779
 21
632.0985866237334
 31
0.0
  0
LINE
  5
2DA
330
1F
100
AcDbEntity
  8
0239_詳
  6
Continuous
 62
     3
370
     9
100
AcDbLine
 10
-787.3891469594594
 20
639.1696744351773
 30
0.0
 11
-796.2691435942779
 21
639.1696744351773
 31
0.0
  0
LINE
  5
2DB
330
1F
100
AcDbEntity
  8
0239_詳
  6
Continuous
 62
     3
370
     9
100
AcDbLine
 10
-796.2691435942779
 20
635.6342542493667
 30
0.0
 11
-787.3891469594594
 21
635.6342542493667
 31
0.0
  0
LINE
  5
2DC
330
1F
100
AcDbEntity
  8
0239_詳
  6
Continuous
 62
     3
370
     9
100
AcDbLine
 10
-770.5091734190245
 20
632.0985866237334
 30
0.0
 11
-779.3891700538427
 21
632.0985866237334
 31
0.0
  0
LINE
  5
2DD
330
1F
100
AcDbEntity
  8
0239_詳
  6
Continuous
 62
     3
370
     9
100
AcDbLine
 10
-770.5091734190245
 20
639.1696744351773
 30
0.0
 11
-779.3891700538427
 21
639.1696744351773
 31
0.0
  0
LINE
  5
2DE
330
1F
100
AcDbEntity
  8
0239_詳
  6
Continuous
 62
     3
370
     9
100
AcDbLine
 10
-779.3891700538427
 20
635.6342542493667
 30
0.0
 11
-770.5091734190245
 21
635.6342542493667
 31
0.0
  0
LINE
  5
2DF
330
1F
100
AcDbEntity
  8
0239_詳
  6
Continuous
 62
     3
370
     9
100
AcDbLine
 10
-753.6291998785896
 20
632.0985866237334
 30
0.0
 11
-762.5091965134078
 21
632.0985866237334
 31
0.0
  0
LINE
  5
2E0
330
1F
100
AcDbEntity
  8
0239_詳
  6
Continuous
 62
     3
370
     9
100
AcDbLine
 10
-753.6291998785896
 20
639.1696744351773
 30
0.0
 11
-762.5091965134078
 21
639.1696744351773
 31
0.0
  0
LINE
  5
2E1
330
1F
100
AcDbEntity
  8
0239_詳
  6
Continuous
 62
     3
370
     9
100
AcDbLine
 10
-762.5091965134078
 20
635.6342542493667
 30
0.0
 11
-753.6291998785896
 21
635.6342542493667
 31
0.0
  0
LINE
  5
2E2
330
1F
100
AcDbEntity
  8
0239_詳
  6
Continuous
 62
     3
370
     9
100
AcDbLine
 10
-736.7492263381544
 20
632.0985866237334
 30
0.0
 11
-745.6292229729729
 21
632.0985866237334
 31
0.0
  0
LINE
  5
2E3
330
1F
100
AcDbEntity
  8
0239_詳
  6
Continuous
 62
     3
370
     9
100
AcDbLine
 10
-736.7492263381544
 20
639.1696744351773
 30
0.0
 11
-745.6292229729729
 21
639.1696744351773
 31
0.0
  0
LINE
  5
2E4
330
1F
100
AcDbEntity
  8
0239_詳
  6
Continuous
 62
     3
370
     9
100
AcDbLine
 10
-745.6292229729729
 20
635.6342542493667
 30
0.0
 11
-736.7492263381544
 21
635.6342542493667
 31
0.0
  0
LINE
  5
2E5
330
1F
100
AcDbEntity
  8
0239_詳
  6
Continuous
 62
     3
370
     9
100
AcDbLine
 10
-719.8692527977196
 20
632.0985866237334
 30
0.0
 11
-728.749249432538
 21
632.0985866237334
 31
0.0
  0
LINE
  5
2E6
330
1F
100
AcDbEntity
  8
0239_詳
  6
Continuous
 62
     3
370
     9
100
AcDbLine
 10
-719.8692527977196
 20
639.1696744351773
 30
0.0
 11
-728.749249432538
 21
639.1696744351773
 31
0.0
  0
LINE
  5
2E7
330
1F
100
AcDbEntity
  8
0239_詳
  6
Continuous
 62
     3
370
     9
100
AcDbLine
 10
-728.749249432538
 20
635.6342542493667
 30
0.0
 11
-719.8692527977196
 21
635.6342542493667
 31
0.0
  0
LINE
  5
2E8
330
1F
100
AcDbEntity
  8
0239_詳
  6
Continuous
 62
     3
370
     9
100
AcDbLine
 10
-702.9891555373731
 20
632.0985866237334
 30
0.0
 11
-711.8691521721917
 21
632.0985866237334
 31
0.0
  0
LINE
  5
2E9
330
1F
100
AcDbEntity
  8
0239_詳
  6
Continuous
 62
     3
370
     9
100
AcDbLine
 10
-702.9891555373731
 20
639.1696744351773
 30
0.0
 11
-711.8691521721917
 21
639.1696744351773
 31
0.0
  0
LINE
  5
2EA
330
1F
100
AcDbEntity
  8
0239_詳
  6
Continuous
 62
     3
370
     9
100
AcDbLine
 10
-711.8691521721917
 20
635.6342542493667
 30
0.0
 11
-702.9891555373731
 21
635.6342542493667
 31
0.0
  0
LINE
  5
2EB
330
1F
100
AcDbEntity
  8
0239_詳
  6
Continuous
 62
     3
370
     9
100
AcDbLine
 10
-686.1091819969383
 20
632.0985866237334
 30
0.0
 11
-694.9891786317568
 21
632.0985866237334
 31
0.0
  0
LINE
  5
2EC
330
1F
100
AcDbEntity
  8
0239_詳
  6
Continuous
 62
     3
370
     9
100
AcDbLine
 10
-686.1091819969383
 20
639.1696744351773
 30
0.0
 11
-694.9891786317568
 21
639.1696744351773
 31
0.0
  0
LINE
  5
2ED
330
1F
100
AcDbEntity
  8
0239_詳
  6
Continuous
 62
     3
370
     9
100
AcDbLine
 10
-694.9891786317568
 20
635.6342542493667
 30
0.0
 11
-686.1091819969383
 21
635.6342542493667
 31
0.0
  0
LINE
  5
2EE
330
1F
100
AcDbEntity
  8
0239_詳
  6
Continuous
 62
     3
370
     9
100
AcDbLine
 10
-675.4691459037161
 20
739.1697569151182
 30
0.0
 11
-678.1092050913217
 21
739.1697569151182
 31
0.0
  0
LINE
  5
2EF
330
1F
100
AcDbEntity
  8
0239_詳
  6
Continuous
 62
     3
370
     9
100
AcDbLine
 10
-675.4691459037161
 20
632.0985866237334
 30
0.0
 11
-678.1092050913217
 21
632.0985866237334
 31
0.0
  0
LINE
  5
2F0
330
1F
100
AcDbEntity
  8
0239_詳
  6
Continuous
 62
     3
370
     9
100
AcDbLine
 10
-675.4691459037161
 20
732.0986691036742
 30
0.0
 11
-678.1092050913217
 21
732.0986691036742
 31
0.0
  0
LINE
  5
2F1
330
1F
100
AcDbEntity
  8
0239_詳
  6
Continuous
 62
     3
370
     9
100
AcDbLine
 10
-678.1092050913217
 20
735.6343367293075
 30
0.0
 11
-675.4691459037161
 21
735.6343367293075
 31
0.0
  0
LINE
  5
2F2
330
1F
100
AcDbEntity
  8
0239_詳
  6
Continuous
 62
     3
370
     9
100
AcDbLine
 10
-675.4691459037161
 20
639.1696744351773
 30
0.0
 11
-678.1092050913217
 21
639.1696744351773
 31
0.0
  0
LINE
  5
2F3
330
1F
100
AcDbEntity
  8
0239_詳
  6
Continuous
 62
     3
370
     9
100
AcDbLine
 10
-678.1092050913217
 20
635.6342542493667
 30
0.0
 11
-675.4691459037161
 21
635.6342542493667
 31
0.0
  0
LINE
  5
2F4
330
1F
100
AcDbEntity
  8
0235_床
  6
Continuous
 62
     3
370
     9
100
AcDbLine
 10
-913.719300966005
 20
920.6344522012248
 30
0.0
 11
-914.9692432300463
 21
920.6344522012248
 31
0.0
  0
LINE
  5
2F5
330
1F
100
AcDbEntity
  8
0235_床
  6
Continuous
 62
     3
370
     9
100
AcDbLine
 10
-913.719300966005
 20
920.6344522012248
 30
0.0
 11
-913.719300966005
 21
949.6343994140625
 31
0.0
  0
LINE
  5
2F6
330
1F
100
AcDbEntity
  8
0235_床
  6
Continuous
 62
     3
370
     9
100
AcDbLine
 10
-914.9739445866765
 20
916.6345874683279
 30
0.0
 11
-914.4607543945312
 21
916.6345874683279
 31
0.0
  0
LINE
  5
2F7
330
1F
100
AcDbEntity
  8
0235_床
  6
Continuous
 62
     3
370
     9
100
AcDbLine
 10
-930.4691211597338
 20
916.6345874683279
 30
0.0
 11
-929.9692927180109
 21
916.6345874683279
 31
0.0
  0
LINE
  5
2F8
330
1F
100
AcDbEntity
  8
0235_床
  6
Continuous
 62
     3
370
     9
100
AcDbLine
 10
-931.2193587019636
 20
920.6344522012248
 30
0.0
 11
-929.9694164379223
 21
920.6344522012248
 31
0.0
  0
LINE
  5
2F9
330
1F
100
AcDbEntity
  8
0235_床
  6
Continuous
 62
     3
370
     9
100
AcDbLine
 10
-931.2193587019636
 20
920.6344522012248
 30
0.0
 11
-931.2193587019636
 21
949.6343994140625
 31
0.0
  0
LINE
  5
2FA
330
1F
100
AcDbEntity
  8
0235_床
  6
Continuous
 62
     3
370
     9
100
AcDbLine
 10
-913.719300966005
 20
949.6343994140625
 30
0.0
 11
-931.2193587019636
 21
949.6343994140625
 31
0.0
  0
LINE
  5
2FB
330
1F
100
AcDbEntity
  8
0235_床
  6
JWW_DASHED2
 62
     3
370
     9
100
AcDbLine
 10
-915.7193570523648
 20
920.48846270587
 30
0.0
 11
-915.7193570523648
 21
949.6343994140625
 31
0.0
  0
LINE
  5
2FC
330
1F
100
AcDbEntity
  8
0235_床
  6
JWW_DASHED2
 62
     3
370
     9
100
AcDbLine
 10
-929.2193026156037
 20
920.48846270587
 30
0.0
 11
-929.2193026156037
 21
949.6343994140625
 31
0.0
  0
LINE
  5
2FD
330
1F
100
AcDbEntity
  8
0235_床
  6
JWW_CENTER2
 62
     7
370
     9
100
AcDbLine
 10
-928.2452557538006
 20
939.6343664220863
 30
0.0
 11
-916.6932801942567
 21
939.6343664220863
 31
0.0
  0
LINE
  5
2FE
330
1F
100
AcDbEntity
  8
0235_床
  6
JWW_CENTER2
 62
     7
370
     9
100
AcDbLine
 10
-922.4692679740286
 20
907.1663026551943
 30
0.0
 11
-922.4692679740286
 21
954.5666173986488
 31
0.0
  0
LINE
  5
2FF
330
1F
100
AcDbEntity
  8
0235_床
  6
Continuous
 62
     3
370
     9
100
AcDbLine
 10
-913.719300966005
 20
550.634097537479
 30
0.0
 11
-914.9692432300463
 21
550.634097537479
 31
0.0
  0
LINE
  5
300
330
1F
100
AcDbEntity
  8
0235_床
  6
Continuous
 62
     3
370
     9
100
AcDbLine
 10
-913.719300966005
 20
550.634097537479
 30
0.0
 11
-913.719300966005
 21
521.63402660473
 31
0.0
  0
LINE
  5
301
330
1F
100
AcDbEntity
  8
0235_床
  6
Continuous
 62
     3
370
     9
100
AcDbLine
 10
-914.9739445866765
 20
554.6340859902873
 30
0.0
 11
-914.4607543945312
 21
554.6340859902873
 31
0.0
  0
LINE
  5
302
330
1F
100
AcDbEntity
  8
0235_床
  6
Continuous
 62
     3
370
     9
100
AcDbLine
 10
-930.4691211597338
 20
554.6340859902873
 30
0.0
 11
-929.9692927180109
 21
554.6340859902873
 31
0.0
  0
LINE
  5
303
330
1F
100
AcDbEntity
  8
0235_床
  6
Continuous
 62
     3
370
     9
100
AcDbLine
 10
-931.2193587019636
 20
550.634097537479
 30
0.0
 11
-929.9694164379223
 21
550.634097537479
 31
0.0
  0
LINE
  5
304
330
1F
100
AcDbEntity
  8
0235_床
  6
Continuous
 62
     3
370
     9
100
AcDbLine
 10
-931.2193587019636
 20
550.634097537479
 30
0.0
 11
-931.2193587019636
 21
521.63402660473
 31
0.0
  0
LINE
  5
305
330
1F
100
AcDbEntity
  8
0235_床
  6
Continuous
 62
     3
370
     9
100
AcDbLine
 10
-913.719300966005
 20
521.63402660473
 30
0.0
 11
-931.2193587019636
 21
521.63402660473
 31
0.0
  0
LINE
  5
306
330
1F
100
AcDbEntity
  8
0235_床
  6
JWW_DASHED2
 62
     3
370
     9
100
AcDbLine
 10
-915.7193570523648
 20
550.7799633129224
 30
0.0
 11
-915.7193570523648
 21
521.63402660473
 31
0.0
  0
LINE
  5
307
330
1F
100
AcDbEntity
  8
0235_床
  6
JWW_DASHED2
 62
     3
370
     9
100
AcDbLine
 10
-929.2193026156037
 20
550.7799633129224
 30
0.0
 11
-929.2193026156037
 21
521.63402660473
 31
0.0
  0
LINE
  5
308
330
1F
100
AcDbEntity
  8
0235_床
  6
JWW_CENTER2
 62
     7
370
     9
100
AcDbLine
 10
-928.2452557538006
 20
531.6340595967063
 30
0.0
 11
-916.6932801942567
 21
531.6340595967063
 31
0.0
  0
LINE
  5
309
330
1F
100
AcDbEntity
  8
0235_床
  6
JWW_CENTER2
 62
     7
370
     9
100
AcDbLine
 10
-922.4692679740286
 20
564.1022470835094
 30
0.0
 11
-922.4692679740286
 21
516.7018086201438
 31
0.0
  0
LINE
  5
30A
330
1F
100
AcDbEntity
  8
0235_床
  6
Continuous
 62
     3
370
     9
100
AcDbLine
 10
-753.7192679740286
 20
920.6344522012248
 30
0.0
 11
-754.96921023807
 21
920.6344522012248
 31
0.0
  0
LINE
  5
30B
330
1F
100
AcDbEntity
  8
0235_床
  6
Continuous
 62
     3
370
     9
100
AcDbLine
 10
-753.7192679740286
 20
920.6344522012248
 30
0.0
 11
-753.7192679740286
 21
949.6343994140625
 31
0.0
  0
LINE
  5
30C
330
1F
100
AcDbEntity
  8
0235_床
  6
Continuous
 62
     3
370
     9
100
AcDbLine
 10
-754.9739115947
 20
916.6345874683279
 30
0.0
 11
-754.460721402555
 21
916.6345874683279
 31
0.0
  0
LINE
  5
30D
330
1F
100
AcDbEntity
  8
0235_床
  6
Continuous
 62
     3
370
     9
100
AcDbLine
 10
-770.4690881677575
 20
916.6345874683279
 30
0.0
 11
-769.9691360061231
 21
916.6345874683279
 31
0.0
  0
LINE
  5
30E
330
1F
100
AcDbEntity
  8
0235_床
  6
Continuous
 62
     3
370
     9
100
AcDbLine
 10
-771.2193257099873
 20
920.6344522012248
 30
0.0
 11
-769.9692597260346
 21
920.6344522012248
 31
0.0
  0
LINE
  5
30F
330
1F
100
AcDbEntity
  8
0235_床
  6
Continuous
 62
     3
370
     9
100
AcDbLine
 10
-771.2193257099873
 20
920.6344522012248
 30
0.0
 11
-771.2193257099873
 21
949.6343994140625
 31
0.0
  0
LINE
  5
310
330
1F
100
AcDbEntity
  8
0235_床
  6
Continuous
 62
     3
370
     9
100
AcDbLine
 10
-753.7192679740286
 20
949.6343994140625
 30
0.0
 11
-771.2193257099873
 21
949.6343994140625
 31
0.0
  0
LINE
  5
311
330
1F
100
AcDbEntity
  8
0235_床
  6
JWW_DASHED2
 62
     3
370
     9
100
AcDbLine
 10
-755.7192003404771
 20
920.48846270587
 30
0.0
 11
-755.7192003404771
 21
949.6343994140625
 31
0.0
  0
LINE
  5
312
330
1F
100
AcDbEntity
  8
0235_床
  6
JWW_DASHED2
 62
     3
370
     9
100
AcDbLine
 10
-769.2192696236273
 20
920.48846270587
 30
0.0
 11
-769.2192696236273
 21
949.6343994140625
 31
0.0
  0
LINE
  5
313
330
1F
100
AcDbEntity
  8
0235_床
  6
JWW_CENTER2
 62
     7
370
     9
100
AcDbLine
 10
-768.2452227618242
 20
939.6343664220863
 30
0.0
 11
-756.693123482369
 21
939.6343664220863
 31
0.0
  0
LINE
  5
314
330
1F
100
AcDbEntity
  8
0235_床
  6
JWW_CENTER2
 62
     7
370
     9
100
AcDbLine
 10
-762.4691112621408
 20
907.1663026551943
 30
0.0
 11
-762.4691112621408
 21
954.5666173986488
 31
0.0
  0
LINE
  5
315
330
1F
100
AcDbEntity
  8
0235_床
  6
Continuous
 62
     3
370
     9
100
AcDbLine
 10
-753.7192679740286
 20
550.634097537479
 30
0.0
 11
-754.96921023807
 21
550.634097537479
 31
0.0
  0
LINE
  5
316
330
1F
100
AcDbEntity
  8
0235_床
  6
Continuous
 62
     3
370
     9
100
AcDbLine
 10
-753.7192679740286
 20
550.634097537479
 30
0.0
 11
-753.7192679740286
 21
521.63402660473
 31
0.0
  0
LINE
  5
317
330
1F
100
AcDbEntity
  8
0235_床
  6
Continuous
 62
     3
370
     9
100
AcDbLine
 10
-754.9739115947
 20
554.6340859902873
 30
0.0
 11
-754.460721402555
 21
554.6340859902873
 31
0.0
  0
LINE
  5
318
330
1F
100
AcDbEntity
  8
0235_床
  6
Continuous
 62
     3
370
     9
100
AcDbLine
 10
-770.4690881677575
 20
554.6340859902873
 30
0.0
 11
-769.9691360061231
 21
554.6340859902873
 31
0.0
  0
LINE
  5
319
330
1F
100
AcDbEntity
  8
0235_床
  6
Continuous
 62
     3
370
     9
100
AcDbLine
 10
-771.2193257099873
 20
550.634097537479
 30
0.0
 11
-769.9692597260346
 21
550.634097537479
 31
0.0
  0
LINE
  5
31A
330
1F
100
AcDbEntity
  8
0235_床
  6
Continuous
 62
     3
370
     9
100
AcDbLine
 10
-771.2193257099873
 20
550.634097537479
 30
0.0
 11
-771.2193257099873
 21
521.63402660473
 31
0.0
  0
LINE
  5
31B
330
1F
100
AcDbEntity
  8
0235_床
  6
Continuous
 62
     3
370
     9
100
AcDbLine
 10
-753.7192679740286
 20
521.63402660473
 30
0.0
 11
-771.2193257099873
 21
521.63402660473
 31
0.0
  0
LINE
  5
31C
330
1F
100
AcDbEntity
  8
0235_床
  6
JWW_DASHED2
 62
     3
370
     9
100
AcDbLine
 10
-755.7192003404771
 20
550.7799633129224
 30
0.0
 11
-755.7192003404771
 21
521.63402660473
 31
0.0
  0
LINE
  5
31D
330
1F
100
AcDbEntity
  8
0235_床
  6
JWW_DASHED2
 62
     3
370
     9
100
AcDbLine
 10
-769.2192696236273
 20
550.7799633129224
 30
0.0
 11
-769.2192696236273
 21
521.63402660473
 31
0.0
  0
LINE
  5
31E
330
1F
100
AcDbEntity
  8
0235_床
  6
JWW_CENTER2
 62
     7
370
     9
100
AcDbLine
 10
-768.2452227618242
 20
531.6340595967063
 30
0.0
 11
-756.693123482369
 21
531.6340595967063
 31
0.0
  0
LINE
  5
31F
330
1F
100
AcDbEntity
  8
0235_床
  6
JWW_CENTER2
 62
     7
370
     9
100
AcDbLine
 10
-762.4691112621408
 20
564.1022470835094
 30
0.0
 11
-762.4691112621408
 21
516.7018086201438
 31
0.0
  0
LINE
  5
320
330
1F
100
AcDbEntity
  8
0191_区
  6
Continuous
 62
     2
370
     9
100
AcDbLine
 10
-662.4691525021115
 20
915.6339408255915
 30
0.0
 11
-1022.469226734058
 21
915.6339408255915
 31
0.0
  0
LINE
  5
321
330
1F
100
AcDbEntity
  8
0191_区
  6
Continuous
 62
     2
370
     9
100
AcDbLine
 10
-665.469236631651
 20
912.633980415963
 30
0.0
 11
-1019.46926632443
 21
912.633980415963
 31
0.0
  0
LINE
  5
322
330
1F
100
AcDbEntity
  8
0191_区
  6
Continuous
 62
     2
370
     9
100
AcDbLine
 10
-1022.469226734058
 20
915.6339408255915
 30
0.0
 11
-1022.469226734058
 21
555.634485193201
 31
0.0
  0
LINE
  5
323
330
1F
100
AcDbEntity
  8
0191_区
  6
Continuous
 62
     2
370
     9
100
AcDbLine
 10
-1019.46926632443
 20
912.633980415963
 30
0.0
 11
-1019.46926632443
 21
558.6344456028294
 31
0.0
  0
LINE
  5
324
330
1F
100
AcDbEntity
  8
0191_区
  6
Continuous
 62
     2
370
     9
100
AcDbLine
 10
-1019.46926632443
 20
558.6344456028294
 30
0.0
 11
-665.469236631651
 21
558.6344456028294
 31
0.0
  0
LINE
  5
325
330
1F
100
AcDbEntity
  8
0191_区
  6
Continuous
 62
     2
370
     9
100
AcDbLine
 10
-665.469236631651
 20
912.633980415963
 30
0.0
 11
-665.469236631651
 21
558.6344456028294
 31
0.0
  0
LINE
  5
326
330
1F
100
AcDbEntity
  8
0191_区
  6
Continuous
 62
     2
370
     9
100
AcDbLine
 10
-1022.469226734058
 20
555.634485193201
 30
0.0
 11
-662.4691525021115
 21
555.634485193201
 31
0.0
  0
LINE
  5
327
330
1F
100
AcDbEntity
  8
0191_区
  6
Continuous
 62
     2
370
     9
100
AcDbLine
 10
-662.4691525021115
 20
915.6339408255915
 30
0.0
 11
-662.4691525021115
 21
555.634485193201
 31
0.0
  0
LINE
  5
328
330
1F
100
AcDbEntity
  8
0193_区
  6
Continuous
 62
     7
370
     9
100
AcDbLine
 10
-1022.469226734058
 20
1177.116220835093
 30
0.0
 11
-662.4689050622887
 21
1177.116220835093
 31
0.0
  0
LINE
  5
329
330
1F
100
AcDbEntity
  8
0193_区
  6
Continuous
 62
     7
370
     9
100
AcDbLine
 10
-1022.469226734058
 20
1180.116181244721
 30
0.0
 11
-1022.469226734058
 21
930.6339903135561
 31
0.0
  0
LINE
  5
32A
330
1F
100
AcDbEntity
  8
0193_区
  6
Continuous
 62
     7
370
     9
100
AcDbLine
 10
-662.4689050622887
 20
1180.116181244721
 30
0.0
 11
-662.4689050622887
 21
930.6339903135561
 31
0.0
  0
LINE
  5
32B
330
1F
100
AcDbEntity
  8
0193_区
  6
Continuous
 62
     7
370
     9
100
AcDbLine
 10
-992.4687565983952
 20
1035.380463471284
 30
0.0
 11
-692.4685091585727
 21
1035.380463471284
 31
0.0
  0
LINE
  5
32C
330
1F
100
AcDbEntity
  8
0193_区
  6
Continuous
 62
     7
370
     9
100
AcDbLine
 10
-992.4687565983952
 20
1038.380423880912
 30
0.0
 11
-992.4687565983952
 21
930.6339903135561
 31
0.0
  0
LINE
  5
32D
330
1F
100
AcDbEntity
  8
0193_区
  6
Continuous
 62
     7
370
     9
100
AcDbLine
 10
-692.4685091585727
 20
1038.380423880912
 30
0.0
 11
-692.4685091585727
 21
930.6339903135561
 31
0.0
  0
LINE
  5
32E
330
1F
100
AcDbEntity
  8
0193_区
  6
Continuous
 62
     7
370
     9
100
AcDbLine
 10
-1019.46926632443
 20
1106.2484658731
 30
0.0
 11
-1017.46921023807
 21
1106.2484658731
 31
0.0
  0
LINE
  5
32F
330
1F
100
AcDbEntity
  8
0193_区
  6
Continuous
 62
     7
370
     9
100
AcDbLine
 10
-1017.46921023807
 20
1106.2484658731
 30
0.0
 11
-667.4689215582771
 21
1106.2484658731
 31
0.0
  0
LINE
  5
330
330
1F
100
AcDbEntity
  8
0193_区
  6
Continuous
 62
     7
370
     9
100
AcDbLine
 10
-667.4689215582771
 20
1106.2484658731
 30
0.0
 11
-665.4688654719172
 21
1106.2484658731
 31
0.0
  0
LINE
  5
331
330
1F
100
AcDbEntity
  8
0193_区
  6
Continuous
 62
     7
370
     9
100
AcDbLine
 10
-1056.229173814928
 20
1106.2484658731
 30
0.0
 11
-1019.46926632443
 21
1106.2484658731
 31
0.0
  0
LINE
  5
332
330
1F
100
AcDbEntity
  8
0193_区
  6
Continuous
 62
     7
370
     9
100
AcDbLine
 10
-665.4688654719172
 20
1106.2484658731
 30
0.0
 11
-627.8004826726141
 21
1106.2484658731
 31
0.0
  0
LINE
  5
333
330
1F
100
AcDbEntity
  8
0193_区
  6
Continuous
 62
     7
370
     9
100
AcDbLine
 10
-1019.46926632443
 20
1109.248426282728
 30
0.0
 11
-1019.46926632443
 21
930.6339903135561
 31
0.0
  0
LINE
  5
334
330
1F
100
AcDbEntity
  8
0193_区
  6
Continuous
 62
     7
370
     9
100
AcDbLine
 10
-1017.46921023807
 20
1109.248426282728
 30
0.0
 11
-1017.46921023807
 21
930.6339903135561
 31
0.0
  0
LINE
  5
335
330
1F
100
AcDbEntity
  8
0193_区
  6
Continuous
 62
     7
370
     9
100
AcDbLine
 10
-667.4689215582771
 20
1109.248426282728
 30
0.0
 11
-667.4689215582771
 21
930.6339903135561
 31
0.0
  0
LINE
  5
336
330
1F
100
AcDbEntity
  8
0193_区
  6
Continuous
 62
     7
370
     9
100
AcDbLine
 10
-665.4688654719172
 20
1109.248426282728
 30
0.0
 11
-665.4688654719172
 21
930.6339903135561
 31
0.0
  0
LINE
  5
337
330
1F
100
AcDbEntity
  8
0193_区
  6
Continuous
 62
     7
370
     9
100
AcDbLine
 10
-1113.644739099451
 20
885.6343367293075
 30
0.0
 11
-1113.644739099451
 21
585.6338418496623
 31
0.0
  0
LINE
  5
338
330
1F
100
AcDbEntity
  8
0193_区
  6
Continuous
 62
     7
370
     9
100
AcDbLine
 10
-1116.644761369035
 20
885.6343367293075
 30
0.0
 11
-1037.469152502111
 21
885.6343367293075
 31
0.0
  0
LINE
  5
339
330
1F
100
AcDbEntity
  8
0193_区
  6
Continuous
 62
     7
370
     9
100
AcDbLine
 10
-1116.644761369035
 20
585.6338418496623
 30
0.0
 11
-1037.469152502111
 21
585.6338418496623
 31
0.0
  0
LINE
  5
33A
330
1F
100
AcDbEntity
  8
0193_区
  6
Continuous
 62
     7
370
     9
100
AcDbLine
 10
-1267.841875230944
 20
915.6339408255915
 30
0.0
 11
-1267.841875230944
 21
555.6342377533783
 31
0.0
  0
LINE
  5
33B
330
1F
100
AcDbEntity
  8
0193_区
  6
Continuous
 62
     7
370
     9
100
AcDbLine
 10
-1270.841897500528
 20
915.6339408255915
 30
0.0
 11
-1037.469152502111
 21
915.6339408255915
 31
0.0
  0
LINE
  5
33C
330
1F
100
AcDbEntity
  8
0193_区
  6
Continuous
 62
     7
370
     9
100
AcDbLine
 10
-1270.841897500528
 20
555.6342377533783
 30
0.0
 11
-1037.469152502111
 21
555.6342377533783
 31
0.0
  0
LINE
  5
33D
330
1F
100
AcDbEntity
  8
0193_区
  6
Continuous
 62
     7
370
     9
100
AcDbLine
 10
-1190.743338095175
 20
912.633980415963
 30
0.0
 11
-1190.743338095175
 21
910.6341717694258
 31
0.0
  0
LINE
  5
33E
330
1F
100
AcDbEntity
  8
0193_区
  6
Continuous
 62
     7
370
     9
100
AcDbLine
 10
-1190.743338095175
 20
910.6341717694258
 30
0.0
 11
-1190.743338095175
 21
560.6342542493667
 31
0.0
  0
LINE
  5
33F
330
1F
100
AcDbEntity
  8
0193_区
  6
Continuous
 62
     7
370
     9
100
AcDbLine
 10
-1190.743338095175
 20
560.6342542493667
 30
0.0
 11
-1190.743338095175
 21
558.6343218829182
 31
0.0
  0
LINE
  5
340
330
1F
100
AcDbEntity
  8
0193_区
  6
Continuous
 62
     7
370
     9
100
AcDbLine
 10
-1193.743298504804
 20
912.633980415963
 30
0.0
 11
-1037.469152502111
 21
912.633980415963
 31
0.0
  0
LINE
  5
341
330
1F
100
AcDbEntity
  8
0193_区
  6
Continuous
 62
     7
370
     9
100
AcDbLine
 10
-1193.743298504804
 20
910.6341717694258
 30
0.0
 11
-1037.469152502111
 21
910.6341717694258
 31
0.0
  0
LINE
  5
342
330
1F
100
AcDbEntity
  8
0193_区
  6
Continuous
 62
     7
370
     9
100
AcDbLine
 10
-1193.743298504804
 20
560.6342542493667
 30
0.0
 11
-1037.469152502111
 21
560.6342542493667
 31
0.0
  0
LINE
  5
343
330
1F
100
AcDbEntity
  8
0193_区
  6
Continuous
 62
     7
370
     9
100
AcDbLine
 10
-1193.743298504804
 20
558.6343218829182
 30
0.0
 11
-1037.469152502111
 21
558.6343218829182
 31
0.0
  0
LINE
  5
344
330
1F
100
AcDbEntity
  8
0193_区
  6
Continuous
 62
     7
370
     9
100
AcDbLine
 10
-1190.743338095175
 20
558.6343218829182
 30
0.0
 11
-1190.743338095175
 21
520.9591344884925
 31
0.0
  0
LINE
  5
345
330
1F
100
AcDbEntity
  8
0193_区
  6
Continuous
 62
     7
370
     9
100
AcDbLine
 10
-1190.743338095175
 20
955.6110608899917
 30
0.0
 11
-1190.743338095175
 21
912.633980415963
 31
0.0
  0
LINE
  5
346
330
1F
100
AcDbEntity
  8
0193_区
  6
Continuous
 62
     7
370
     9
100
AcDbLine
 10
-1022.469226734058
 20
434.8073928420609
 30
0.0
 11
-922.4691442541173
 21
434.8073928420609
 31
0.0
  0
LINE
  5
347
330
1F
100
AcDbEntity
  8
0193_区
  6
Continuous
 62
     7
370
     9
100
AcDbLine
 10
-1022.469226734058
 20
431.8074324324326
 30
0.0
 11
-1022.469226734058
 21
535.634295489337
 31
0.0
  0
LINE
  5
348
330
1F
100
AcDbEntity
  8
0193_区
  6
Continuous
 62
     7
370
     9
100
AcDbLine
 10
-922.4691442541173
 20
431.8074324324326
 30
0.0
 11
-922.4691442541173
 21
496.7017426361909
 31
0.0
  0
LINE
  5
349
330
1F
100
AcDbEntity
  8
0193_区
  6
Continuous
 62
     7
370
     9
100
AcDbLine
 10
-922.4691442541173
 20
434.8073928420609
 30
0.0
 11
-762.4691112621408
 21
434.8073928420609
 31
0.0
  0
LINE
  5
34A
330
1F
100
AcDbEntity
  8
0193_区
  6
Continuous
 62
     7
370
     9
100
AcDbLine
 10
-762.4691112621408
 20
431.8074324324326
 30
0.0
 11
-762.4691112621408
 21
496.7017426361909
 31
0.0
  0
LINE
  5
34B
330
1F
100
AcDbEntity
  8
0193_区
  6
Continuous
 62
     7
370
     9
100
AcDbLine
 10
-762.4691112621408
 20
434.8073928420609
 30
0.0
 11
-662.4689050622887
 21
434.8073928420609
 31
0.0
  0
LINE
  5
34C
330
1F
100
AcDbEntity
  8
0193_区
  6
Continuous
 62
     7
370
     9
100
AcDbLine
 10
-662.4689050622887
 20
431.8074324324326
 30
0.0
 11
-662.4689050622887
 21
535.634295489337
 31
0.0
  0
LINE
  5
34D
330
1F
100
AcDbEntity
  8
0255_
  6
Continuous
 62
     7
370
     9
100
AcDbLine
 10
-537.2643548089104
 20
328.552526525549
 30
0.0
 11
-1112.264705348659
 21
328.552526525549
 31
0.0
  0
LINE
  5
34E
330
1F
100
AcDbEntity
  8
0218_
  6
Continuous
 62
     3
370
     9
100
AcDbLine
 10
-1005.934555466111
 20
-251.7131578600083
 30
0.0
 11
-1005.934555466111
 21
-351.7133640598605
 31
0.0
  0
LINE
  5
34F
330
1F
100
AcDbEntity
  8
0218_
  6
Continuous
 62
     3
370
     9
100
AcDbLine
 10
-1005.934555466111
 20
-251.7131578600083
 30
0.0
 11
-990.934505978146
 21
-251.7131578600083
 31
0.0
  0
LINE
  5
350
330
1F
100
AcDbEntity
  8
0218_
  6
Continuous
 62
     3
370
     9
100
AcDbLine
 10
-990.934505978146
 20
-251.7131578600083
 30
0.0
 11
-990.934505978146
 21
-351.7133640598605
 31
0.0
  0
LINE
  5
351
330
1F
100
AcDbEntity
  8
0218_
  6
Continuous
 62
     3
370
     9
100
AcDbLine
 10
-990.934505978146
 20
-351.7133640598605
 30
0.0
 11
-1005.934555466111
 21
-351.7133640598605
 31
0.0
  0
LINE
  5
352
330
1F
100
AcDbEntity
  8
0218_
  6
Continuous
 62
     3
370
     9
100
AcDbLine
 10
-1005.934555466111
 20
-251.7131578600083
 30
0.0
 11
-1688.602993939374
 21
-251.7131578600083
 31
0.0
  0
LINE
  5
353
330
1F
100
AcDbEntity
  8
0218_
  6
Continuous
 62
     3
370
     9
100
AcDbLine
 10
-1005.934555466111
 20
-351.7133640598605
 30
0.0
 11
-1688.602993939374
 21
-351.7133640598605
 31
0.0
  0
LINE
  5
354
330
1F
100
AcDbEntity
  8
0218_
  6
Continuous
 62
     3
370
     9
100
AcDbLine
 10
-1688.602993939374
 20
-258.7132304423563
 30
0.0
 11
-1005.934555466111
 21
-258.7132304423563
 31
0.0
  0
LINE
  5
355
330
1F
100
AcDbEntity
  8
0218_
  6
Continuous
 62
     3
370
     9
100
AcDbLine
 10
-1708.602936203415
 20
-316.7136197476773
 30
0.0
 11
-1668.602742375554
 21
-286.7129021721917
 31
0.0
  0
LINE
  5
356
330
1F
100
AcDbEntity
  8
0218_
  6
Continuous
 62
     3
370
     9
100
AcDbLine
 10
-1708.602936203415
 20
-316.7136197476773
 30
0.0
 11
-1688.602993939374
 21
-316.7136197476773
 31
0.0
  0
LINE
  5
357
330
1F
100
AcDbEntity
  8
0218_
  6
Continuous
 62
     3
370
     9
100
AcDbLine
 10
-1688.602993939374
 20
-286.7129021721917
 30
0.0
 11
-1668.602742375554
 21
-286.7129021721917
 31
0.0
  0
LINE
  5
358
330
1F
100
AcDbEntity
  8
0218_
  6
Continuous
 62
     3
370
     9
100
AcDbLine
 10
-1688.602993939374
 20
-286.7129021721917
 30
0.0
 11
-1688.602993939374
 21
-201.713116620038
 31
0.0
  0
LINE
  5
359
330
1F
100
AcDbEntity
  8
0218_
  6
Continuous
 62
     3
370
     9
100
AcDbLine
 10
-1688.602993939374
 20
-401.713405299831
 30
0.0
 11
-1688.602993939374
 21
-316.7136197476773
 31
0.0
  0
LINE
  5
35A
330
1F
100
AcDbEntity
  8
0218_
  6
Continuous
 62
     3
370
     9
100
AcDbLine
 10
-1378.434547218117
 20
-309.8904666385134
 30
0.0
 11
-1378.434547218117
 21
-317.2130770296662
 31
0.0
  0
LINE
  5
35B
330
1F
100
AcDbEntity
  8
0218_
  6
Continuous
 62
     3
370
     9
100
AcDbLine
 10
-1378.434547218117
 20
-317.2130770296662
 30
0.0
 11
-1371.112307986698
 21
-317.2130770296662
 31
0.0
  0
LINE
  5
35C
330
1F
100
AcDbEntity
  8
0218_
  6
Continuous
 62
     3
370
     9
100
AcDbLine
 10
-1353.434712177998
 20
-309.8904666385134
 30
0.0
 11
-1353.434712177998
 21
-317.2130770296662
 31
0.0
  0
LINE
  5
35D
330
1F
100
AcDbEntity
  8
0218_
  6
Continuous
 62
     3
370
     9
100
AcDbLine
 10
-1360.756580249683
 20
-317.2130770296662
 30
0.0
 11
-1353.434712177998
 21
-317.2130770296662
 31
0.0
  0
LINE
  5
35E
330
1F
100
AcDbEntity
  8
0218_
  6
Continuous
 62
     3
370
     9
100
AcDbLine
 10
-1353.434712177998
 20
-292.2124996700802
 30
0.0
 11
-1353.434712177998
 21
-299.5347389014991
 31
0.0
  0
LINE
  5
35F
330
1F
100
AcDbEntity
  8
0218_
  6
Continuous
 62
     3
370
     9
100
AcDbLine
 10
-1378.434547218117
 20
-292.2124996700802
 30
0.0
 11
-1371.11156566723
 21
-292.2124996700802
 31
0.0
  0
LINE
  5
360
330
1F
100
AcDbEntity
  8
0218_
  6
Continuous
 62
     3
370
     9
100
AcDbLine
 10
-1378.434547218117
 20
-292.2124996700802
 30
0.0
 11
-1378.434547218117
 21
-299.5351100612331
 31
0.0
  0
LINE
  5
361
330
1F
100
AcDbEntity
  8
0218_
  6
JWW_CENTER1
 62
     3
370
     9
100
AcDbLine
 10
-1339.426772658889
 20
-304.7131595096072
 30
0.0
 11
-1392.442115577492
 21
-304.7131595096072
 31
0.0
  0
LINE
  5
362
330
1F
100
AcDbEntity
  8
0218_
  6
JWW_CENTER1
 62
     3
370
     9
100
AcDbLine
 10
-1365.934258538323
 20
-331.2202742293074
 30
0.0
 11
-1365.934258538323
 21
-278.2049313107052
 31
0.0
  0
LINE
  5
363
330
1F
100
AcDbEntity
  8
0218_
  6
Continuous
 62
     3
370
     9
100
AcDbLine
 10
-1383.612225506757
 20
-304.7131595096072
 30
0.0
 11
-1365.934258538323
 21
-287.035192541174
 31
0.0
  0
LINE
  5
364
330
1F
100
AcDbEntity
  8
0218_
  6
Continuous
 62
     3
370
     9
100
AcDbLine
 10
-1365.934629698057
 20
-322.3903841585725
 30
0.0
 11
-1383.612225506757
 21
-304.7131595096072
 31
0.0
  0
LINE
  5
365
330
1F
100
AcDbEntity
  8
0218_
  6
Continuous
 62
     3
370
     9
100
AcDbLine
 10
-1348.256662729624
 20
-304.7131595096072
 30
0.0
 11
-1365.934629698057
 21
-322.3903841585725
 31
0.0
  0
LINE
  5
366
330
1F
100
AcDbEntity
  8
0218_
  6
Continuous
 62
     3
370
     9
100
AcDbLine
 10
-1360.756580249683
 20
-292.2124996700802
 30
0.0
 11
-1353.434712177998
 21
-292.2124996700802
 31
0.0
  0
LINE
  5
367
330
1F
100
AcDbEntity
  8
0218_
  6
Continuous
 62
     3
370
     9
100
AcDbLine
 10
-1365.934258538323
 20
-287.035192541174
 30
0.0
 11
-1348.256662729624
 21
-304.7131595096072
 31
0.0
  0
LINE
  5
368
330
1F
100
AcDbEntity
  8
0227_下
  6
Continuous
 62
     2
370
     9
100
AcDbLine
 10
-985.9351080817145
 20
-366.7127949482685
 30
0.0
 11
-980.9348441459036
 21
-366.7127949482685
 31
0.0
  0
LINE
  5
369
330
1F
100
AcDbEntity
  8
0227_下
  6
Continuous
 62
     2
370
     9
100
AcDbLine
 10
-980.9348441459036
 20
-251.713405299831
 30
0.0
 11
-980.9348441459036
 21
-351.7128691802154
 31
0.0
  0
LINE
  5
36A
330
1F
100
AcDbEntity
  8
0216_
  6
Continuous
 62
     7
370
     9
100
AcDbLine
 10
-990.9338873785895
 20
-24.54212085620782
 30
0.0
 11
-985.9336234427786
 21
-24.54212085620782
 31
0.0
  0
LINE
  5
36B
330
1F
100
AcDbEntity
  8
0216_
  6
Continuous
 62
     7
370
     9
100
AcDbLine
 10
-1115.934732797984
 20
-133.294397302576
 30
0.0
 11
-990.9338873785895
 21
-133.294397302576
 31
0.0
  0
LINE
  5
36C
330
1F
100
AcDbEntity
  8
0216_
  6
Continuous
 62
     7
370
     9
100
AcDbLine
 10
-990.9338873785895
 20
-238.7579510663006
 30
0.0
 11
-990.9338873785895
 21
-21.54253160631328
 31
0.0
  0
LINE
  5
36D
330
1F
100
AcDbEntity
  8
0216_
  6
Continuous
 62
     7
370
     9
100
AcDbLine
 10
-980.9338543866131
 20
-238.7579510663006
 30
0.0
 11
-980.9338543866131
 21
-21.54253160631328
 31
0.0
  0
LINE
  5
36E
330
1F
100
AcDbEntity
  8
0216_
  6
Continuous
 62
     7
370
     9
100
AcDbLine
 10
-965.9350420977617
 20
-238.7579510663006
 30
0.0
 11
-965.9350420977617
 21
89.15412696632188
 31
0.0
  0
LINE
  5
36F
330
1F
100
AcDbEntity
  8
0220_
  6
Continuous
 62
     6
370
     5
100
AcDbLine
 10
-715.9348358979096
 20
-497.7225927404454
 30
0.0
 11
-619.9239782384925
 21
-401.7126629803631
 31
0.0
  0
LINE
  5
370
330
1F
100
AcDbEntity
  8
0220_
  6
Continuous
 62
     6
370
     5
100
AcDbLine
 10
-715.9348358979096
 20
-401.7126629803631
 30
0.0
 11
-550.9337966506544
 21
-401.7126629803631
 31
0.0
  0
LINE
  5
371
330
1F
100
AcDbEntity
  8
0220_
  6
Continuous
 62
     6
370
     5
100
AcDbLine
 10
-715.9348358979096
 20
-511.8642734836886
 30
0.0
 11
-605.7831635346283
 21
-401.7126629803631
 31
0.0
  0
LINE
  5
372
330
1F
100
AcDbEntity
  8
0220_
  6
Continuous
 62
     6
370
     5
100
AcDbLine
 10
-965.9345472181166
 20
-576.7132403399492
 30
0.0
 11
-965.9345472181166
 21
-751.7128279402449
 31
0.0
  0
LINE
  5
373
330
1F
100
AcDbEntity
  8
0220_
  6
Continuous
 62
     6
370
     5
100
AcDbLine
 10
-715.9348358979096
 20
-401.7126629803631
 30
0.0
 11
-715.9348358979096
 21
-576.7132403399492
 31
0.0
  0
LINE
  5
374
330
1F
100
AcDbEntity
  8
0220_
  6
Continuous
 62
     6
370
     5
100
AcDbLine
 10
-965.9345472181166
 20
-576.7132403399492
 30
0.0
 11
-715.9348358979096
 21
-576.7132403399492
 31
0.0
  0
LINE
  5
375
330
1F
100
AcDbEntity
  8
0216_
  6
Continuous
 62
     7
370
     9
100
AcDbLine
 10
-1115.934732797984
 20
-238.7579510663006
 30
0.0
 11
-1115.934732797984
 21
-130.2938182933909
 31
0.0
  0
LINE
  5
376
330
1F
100
AcDbEntity
  8
0216_
  6
Continuous
 62
     7
370
     9
100
AcDbLine
 10
-985.9336234427786
 20
-24.54212085620782
 30
0.0
 11
-928.273463893581
 21
-24.54212085620782
 31
0.0
  0
LINE
  5
377
330
1F
100
AcDbEntity
  8
0216_
  6
Continuous
 62
     7
370
     9
100
AcDbLine
 10
-1688.602963009396
 20
-133.294397302576
 30
0.0
 11
-1115.934732797984
 21
-133.294397302576
 31
0.0
  0
LINE
  5
378
330
1F
100
AcDbEntity
  8
0216_
  6
Continuous
 62
     7
370
     9
100
AcDbLine
 10
-1688.602963009396
 20
-24.54212085620782
 30
0.0
 11
-990.9338873785895
 21
-24.54212085620782
 31
0.0
  0
LINE
  5
379
330
1F
100
AcDbEntity
  8
0216_
  6
Continuous
 62
     7
370
     9
100
AcDbLine
 10
-1688.602963009396
 20
86.15367167704818
 30
0.0
 11
-965.9350420977617
 21
86.15367167704818
 31
0.0
  0
LINE
  5
37A
330
1F
100
AcDbEntity
  8
0227_下
  6
Continuous
 62
     2
370
     9
100
AcDbLine
 10
-980.9348441459036
 20
-351.7128691802154
 30
0.0
 11
-1115.935227677629
 21
-351.7128691802154
 31
0.0
  0
LINE
  5
37B
330
1F
100
AcDbEntity
  8
0227_下
  6
Continuous
 62
     2
370
     9
100
AcDbLine
 10
-1115.935227677629
 20
-366.7127949482685
 30
0.0
 11
-1115.935227677629
 21
-351.7128691802154
 31
0.0
  0
LINE
  5
37C
330
1F
100
AcDbEntity
  8
0227_下
  6
Continuous
 62
     2
370
     9
100
AcDbLine
 10
-1115.935227677629
 20
-366.7127949482685
 30
0.0
 11
-985.9351080817145
 21
-366.7127949482685
 31
0.0
  0
LINE
  5
37D
330
1F
100
AcDbEntity
  8
0220_
  6
Continuous
 62
     6
370
     5
100
AcDbLine
 10
-965.9345472181166
 20
-747.7213143013619
 30
0.0
 11
-794.9250504777237
 21
-576.7132403399492
 31
0.0
  0
LINE
  5
37E
330
1F
100
AcDbEntity
  8
0220_
  6
Continuous
 62
     6
370
     5
100
AcDbLine
 10
-955.7848131334458
 20
-751.7128279402449
 30
0.0
 11
-780.7842357738596
 21
-576.7132403399492
 31
0.0
  0
LINE
  5
37F
330
1F
100
AcDbEntity
  8
0220_
  6
Continuous
 62
     6
370
     5
100
AcDbLine
 10
-715.9348358979096
 20
-526.0049644676415
 30
0.0
 11
-591.6424725506755
 21
-401.7126629803631
 31
0.0
  0
LINE
  5
380
330
1F
100
AcDbEntity
  8
0220_
  6
Continuous
 62
     6
370
     5
100
AcDbLine
 10
-941.644864468961
 20
-751.7128279402449
 30
0.0
 11
-766.6441633894635
 21
-576.7132403399492
 31
0.0
  0
LINE
  5
381
330
1F
100
AcDbEntity
  8
0226_下
  6
Continuous
 62
     7
370
     9
100
AcDbLine
 10
-815.641083588471
 20
-500.0493312526393
 30
0.0
 11
-815.641083588471
 21
-498.5490417480469
 31
0.0
  0
LINE
  5
382
330
1F
100
AcDbEntity
  8
0226_下
  6
Continuous
 62
     7
370
     9
100
AcDbLine
 10
-815.641083588471
 20
-498.5490417480469
 30
0.0
 11
-814.1411033836571
 21
-498.5490417480469
 31
0.0
  0
LINE
  5
383
330
1F
100
AcDbEntity
  8
0226_下
  6
Continuous
 62
     7
370
     9
100
AcDbLine
 10
-814.1411033836571
 20
-498.5490417480469
 30
0.0
 11
-814.1411033836571
 21
-500.0493312526393
 31
0.0
  0
LINE
  5
384
330
1F
100
AcDbEntity
  8
0226_下
  6
Continuous
 62
     7
370
     9
100
AcDbLine
 10
-814.1411033836571
 20
-500.0493312526393
 30
0.0
 11
-815.641083588471
 21
-500.0493312526393
 31
0.0
  0
LINE
  5
385
330
1F
100
AcDbEntity
  8
0226_下
  6
Continuous
 62
     7
370
     9
100
AcDbLine
 10
-775.7129566089526
 20
-529.8259920687287
 30
0.0
 11
-775.7129566089526
 21
-528.3257644240921
 31
0.0
  0
LINE
  5
386
330
1F
100
AcDbEntity
  8
0226_下
  6
Continuous
 62
     7
370
     9
100
AcDbLine
 10
-775.7129566089526
 20
-528.3257644240921
 30
0.0
 11
-774.2129764041385
 21
-528.3257644240921
 31
0.0
  0
LINE
  5
387
330
1F
100
AcDbEntity
  8
0226_下
  6
Continuous
 62
     7
370
     9
100
AcDbLine
 10
-774.2129764041385
 20
-528.3257644240921
 30
0.0
 11
-774.2129764041385
 21
-529.8259920687287
 31
0.0
  0
LINE
  5
388
330
1F
100
AcDbEntity
  8
0226_下
  6
Continuous
 62
     7
370
     9
100
AcDbLine
 10
-774.2129764041385
 20
-529.8259920687287
 30
0.0
 11
-775.7129566089526
 21
-529.8259920687287
 31
0.0
  0
LINE
  5
389
330
1F
100
AcDbEntity
  8
0226_下
  6
Continuous
 62
     7
370
     9
100
AcDbLine
 10
-810.2271002692146
 20
-550.128367655986
 30
0.0
 11
-810.2271002692146
 21
-548.6280781513935
 31
0.0
  0
LINE
  5
38A
330
1F
100
AcDbEntity
  8
0226_下
  6
Continuous
 62
     7
370
     9
100
AcDbLine
 10
-810.2271002692146
 20
-548.6280781513935
 30
0.0
 11
-808.7271200644002
 21
-548.6280781513935
 31
0.0
  0
LINE
  5
38B
330
1F
100
AcDbEntity
  8
0226_下
  6
Continuous
 62
     7
370
     9
100
AcDbLine
 10
-808.7271200644002
 20
-548.6280781513935
 30
0.0
 11
-808.7271200644002
 21
-550.128367655986
 31
0.0
  0
LINE
  5
38C
330
1F
100
AcDbEntity
  8
0226_下
  6
Continuous
 62
     7
370
     9
100
AcDbLine
 10
-808.7271200644002
 20
-550.128367655986
 30
0.0
 11
-810.2271002692146
 21
-550.128367655986
 31
0.0
  0
LINE
  5
38D
330
1F
100
AcDbEntity
  8
0226_下
  6
Continuous
 62
     7
370
     9
100
AcDbLine
 10
-745.2594241580448
 20
-552.1587969805742
 30
0.0
 11
-745.2594241580448
 21
-550.6585074759818
 31
0.0
  0
LINE
  5
38E
330
1F
100
AcDbEntity
  8
0226_下
  6
Continuous
 62
     7
370
     9
100
AcDbLine
 10
-745.2594241580448
 20
-550.6585074759818
 30
0.0
 11
-743.7593202333193
 21
-550.6585074759818
 31
0.0
  0
LINE
  5
38F
330
1F
100
AcDbEntity
  8
0226_下
  6
Continuous
 62
     7
370
     9
100
AcDbLine
 10
-743.7593202333193
 20
-550.6585074759818
 30
0.0
 11
-743.7593202333193
 21
-552.1587969805742
 31
0.0
  0
LINE
  5
390
330
1F
100
AcDbEntity
  8
0226_下
  6
Continuous
 62
     7
370
     9
100
AcDbLine
 10
-743.7593202333193
 20
-552.1587969805742
 30
0.0
 11
-745.2594241580448
 21
-552.1587969805742
 31
0.0
  0
LINE
  5
391
330
1F
100
AcDbEntity
  8
0226_下
  6
Continuous
 62
     7
370
     9
100
AcDbLine
 10
-938.8089566617398
 20
-272.6624030035895
 30
0.0
 11
-938.8089566617398
 21
-271.1620516390412
 31
0.0
  0
LINE
  5
392
330
1F
100
AcDbEntity
  8
0226_下
  6
Continuous
 62
     7
370
     9
100
AcDbLine
 10
-938.8089566617398
 20
-271.1620516390412
 30
0.0
 11
-937.3089764569256
 21
-271.1620516390412
 31
0.0
  0
LINE
  5
393
330
1F
100
AcDbEntity
  8
0226_下
  6
Continuous
 62
     7
370
     9
100
AcDbLine
 10
-937.3089764569256
 20
-271.1620516390412
 30
0.0
 11
-937.3089764569256
 21
-272.6624030035895
 31
0.0
  0
LINE
  5
394
330
1F
100
AcDbEntity
  8
0226_下
  6
Continuous
 62
     7
370
     9
100
AcDbLine
 10
-937.3089764569256
 20
-272.6624030035895
 30
0.0
 11
-938.8089566617398
 21
-272.6624030035895
 31
0.0
  0
LINE
  5
395
330
1F
100
AcDbEntity
  8
0226_下
  6
Continuous
 62
     7
370
     9
100
AcDbLine
 10
-884.6692471890835
 20
-271.9856550886824
 30
0.0
 11
-884.6692471890835
 21
-270.4853037241343
 31
0.0
  0
LINE
  5
396
330
1F
100
AcDbEntity
  8
0226_下
  6
Continuous
 62
     7
370
     9
100
AcDbLine
 10
-884.6692471890835
 20
-270.4853037241343
 30
0.0
 11
-883.1691432643581
 21
-270.4853037241343
 31
0.0
  0
LINE
  5
397
330
1F
100
AcDbEntity
  8
0226_下
  6
Continuous
 62
     7
370
     9
100
AcDbLine
 10
-883.1691432643581
 20
-270.4853037241343
 30
0.0
 11
-883.1691432643581
 21
-271.9856550886824
 31
0.0
  0
LINE
  5
398
330
1F
100
AcDbEntity
  8
0226_下
  6
Continuous
 62
     7
370
     9
100
AcDbLine
 10
-883.1691432643581
 20
-271.9856550886824
 30
0.0
 11
-884.6692471890835
 21
-271.9856550886824
 31
0.0
  0
LINE
  5
399
330
1F
100
AcDbEntity
  8
0226_下
  6
Continuous
 62
     7
370
     9
100
AcDbLine
 10
-842.0341285499366
 20
-295.6719558303421
 30
0.0
 11
-842.0341285499366
 21
-294.1716044657938
 31
0.0
  0
LINE
  5
39A
330
1F
100
AcDbEntity
  8
0226_下
  6
Continuous
 62
     7
370
     9
100
AcDbLine
 10
-842.0341285499366
 20
-294.1716044657938
 30
0.0
 11
-840.534024625211
 21
-294.1716044657938
 31
0.0
  0
LINE
  5
39B
330
1F
100
AcDbEntity
  8
0226_下
  6
Continuous
 62
     7
370
     9
100
AcDbLine
 10
-840.534024625211
 20
-294.1716044657938
 30
0.0
 11
-840.534024625211
 21
-295.6719558303421
 31
0.0
  0
LINE
  5
39C
330
1F
100
AcDbEntity
  8
0226_下
  6
Continuous
 62
     7
370
     9
100
AcDbLine
 10
-840.534024625211
 20
-295.6719558303421
 30
0.0
 11
-842.0341285499366
 21
-295.6719558303421
 31
0.0
  0
LINE
  5
39D
330
1F
100
AcDbEntity
  8
0226_下
  6
Continuous
 62
     7
370
     9
100
AcDbLine
 10
-818.3479515281883
 20
-274.692770468222
 30
0.0
 11
-818.3479515281883
 21
-273.1925428235853
 31
0.0
  0
LINE
  5
39E
330
1F
100
AcDbEntity
  8
0226_下
  6
Continuous
 62
     7
370
     9
100
AcDbLine
 10
-818.3479515281883
 20
-273.1925428235853
 30
0.0
 11
-816.8479713233742
 21
-273.1925428235853
 31
0.0
  0
LINE
  5
39F
330
1F
100
AcDbEntity
  8
0226_下
  6
Continuous
 62
     7
370
     9
100
AcDbLine
 10
-816.8479713233742
 20
-273.1925428235853
 30
0.0
 11
-816.8479713233742
 21
-274.692770468222
 31
0.0
  0
LINE
  5
3A0
330
1F
100
AcDbEntity
  8
0226_下
  6
Continuous
 62
     7
370
     9
100
AcDbLine
 10
-816.8479713233742
 20
-274.692770468222
 30
0.0
 11
-818.3479515281883
 21
-274.692770468222
 31
0.0
  0
LINE
  5
3A1
330
1F
100
AcDbEntity
  8
0226_下
  6
Continuous
 62
     7
370
     9
100
AcDbLine
 10
-817.6713273331925
 20
-343.7210577887457
 30
0.0
 11
-817.6713273331925
 21
-342.2207064241975
 31
0.0
  0
LINE
  5
3A2
330
1F
100
AcDbEntity
  8
0226_下
  6
Continuous
 62
     7
370
     9
100
AcDbLine
 10
-817.6713273331925
 20
-342.2207064241975
 30
0.0
 11
-816.1712234084669
 21
-342.2207064241975
 31
0.0
  0
LINE
  5
3A3
330
1F
100
AcDbEntity
  8
0226_下
  6
Continuous
 62
     7
370
     9
100
AcDbLine
 10
-816.1712234084669
 20
-342.2207064241975
 30
0.0
 11
-816.1712234084669
 21
-343.7210577887457
 31
0.0
  0
LINE
  5
3A4
330
1F
100
AcDbEntity
  8
0226_下
  6
Continuous
 62
     7
370
     9
100
AcDbLine
 10
-816.1712234084669
 20
-343.7210577887457
 30
0.0
 11
-817.6713273331925
 21
-343.7210577887457
 31
0.0
  0
LINE
  5
3A5
330
1F
100
AcDbEntity
  8
0226_下
  6
Continuous
 62
     7
370
     9
100
AcDbLine
 10
-689.0894709406672
 20
-272.6624030035895
 30
0.0
 11
-689.0894709406672
 21
-271.1620516390412
 31
0.0
  0
LINE
  5
3A6
330
1F
100
AcDbEntity
  8
0226_下
  6
Continuous
 62
     7
370
     9
100
AcDbLine
 10
-689.0894709406672
 20
-271.1620516390412
 30
0.0
 11
-687.5894907358529
 21
-271.1620516390412
 31
0.0
  0
LINE
  5
3A7
330
1F
100
AcDbEntity
  8
0226_下
  6
Continuous
 62
     7
370
     9
100
AcDbLine
 10
-687.5894907358529
 20
-271.1620516390412
 30
0.0
 11
-687.5894907358529
 21
-272.6624030035895
 31
0.0
  0
LINE
  5
3A8
330
1F
100
AcDbEntity
  8
0226_下
  6
Continuous
 62
     7
370
     9
100
AcDbLine
 10
-687.5894907358529
 20
-272.6624030035895
 30
0.0
 11
-689.0894709406672
 21
-272.6624030035895
 31
0.0
  0
LINE
  5
3A9
330
1F
100
AcDbEntity
  8
0226_下
  6
Continuous
 62
     7
370
     9
100
AcDbLine
 10
-638.3335010425463
 20
-275.3696421030405
 30
0.0
 11
-638.3335010425463
 21
-273.8694144584036
 31
0.0
  0
LINE
  5
3AA
330
1F
100
AcDbEntity
  8
0226_下
  6
Continuous
 62
     7
370
     9
100
AcDbLine
 10
-638.3335010425463
 20
-273.8694144584036
 30
0.0
 11
-636.8335208377323
 21
-273.8694144584036
 31
0.0
  0
LINE
  5
3AB
330
1F
100
AcDbEntity
  8
0226_下
  6
Continuous
 62
     7
370
     9
100
AcDbLine
 10
-636.8335208377323
 20
-273.8694144584036
 30
0.0
 11
-636.8335208377323
 21
-275.3696421030405
 31
0.0
  0
LINE
  5
3AC
330
1F
100
AcDbEntity
  8
0226_下
  6
Continuous
 62
     7
370
     9
100
AcDbLine
 10
-636.8335208377323
 20
-275.3696421030405
 30
0.0
 11
-638.3335010425463
 21
-275.3696421030405
 31
0.0
  0
LINE
  5
3AD
330
1F
100
AcDbEntity
  8
0226_下
  6
Continuous
 62
     7
370
     9
100
AcDbLine
 10
-573.3658249313766
 20
-273.3391509184966
 30
0.0
 11
-573.3658249313766
 21
-271.8389232738598
 31
0.0
  0
LINE
  5
3AE
330
1F
100
AcDbEntity
  8
0226_下
  6
Continuous
 62
     7
370
     9
100
AcDbLine
 10
-573.3658249313766
 20
-271.8389232738598
 30
0.0
 11
-571.865721006651
 21
-271.8389232738598
 31
0.0
  0
LINE
  5
3AF
330
1F
100
AcDbEntity
  8
0226_下
  6
Continuous
 62
     7
370
     9
100
AcDbLine
 10
-571.865721006651
 20
-271.8389232738598
 30
0.0
 11
-571.865721006651
 21
-273.3391509184966
 31
0.0
  0
LINE
  5
3B0
330
1F
100
AcDbEntity
  8
0226_下
  6
Continuous
 62
     7
370
     9
100
AcDbLine
 10
-571.865721006651
 20
-273.3391509184966
 30
0.0
 11
-573.3658249313766
 21
-273.3391509184966
 31
0.0
  0
LINE
  5
3B1
330
1F
100
AcDbEntity
  8
0226_下
  6
Continuous
 62
     7
370
     9
100
AcDbLine
 10
-597.7287498680321
 20
-305.8230508340371
 30
0.0
 11
-597.7287498680321
 21
-304.3229469093116
 31
0.0
  0
LINE
  5
3B2
330
1F
100
AcDbEntity
  8
0226_下
  6
Continuous
 62
     7
370
     9
100
AcDbLine
 10
-597.7287498680321
 20
-304.3229469093116
 30
0.0
 11
-596.2286459433064
 21
-304.3229469093116
 31
0.0
  0
LINE
  5
3B3
330
1F
100
AcDbEntity
  8
0226_下
  6
Continuous
 62
     7
370
     9
100
AcDbLine
 10
-596.2286459433064
 20
-304.3229469093116
 30
0.0
 11
-596.2286459433064
 21
-305.8230508340371
 31
0.0
  0
LINE
  5
3B4
330
1F
100
AcDbEntity
  8
0226_下
  6
Continuous
 62
     7
370
     9
100
AcDbLine
 10
-596.2286459433064
 20
-305.8230508340371
 30
0.0
 11
-597.7287498680321
 21
-305.8230508340371
 31
0.0
  0
LINE
  5
3B5
330
1F
100
AcDbEntity
  8
0226_下
  6
Continuous
 62
     7
370
     9
100
AcDbLine
 10
-637.6567531276394
 20
-329.5089804159628
 30
0.0
 11
-637.6567531276394
 21
-328.0087527713259
 31
0.0
  0
LINE
  5
3B6
330
1F
100
AcDbEntity
  8
0226_下
  6
Continuous
 62
     7
370
     9
100
AcDbLine
 10
-637.6567531276394
 20
-328.0087527713259
 30
0.0
 11
-636.1566492029137
 21
-328.0087527713259
 31
0.0
  0
LINE
  5
3B7
330
1F
100
AcDbEntity
  8
0226_下
  6
Continuous
 62
     7
370
     9
100
AcDbLine
 10
-636.1566492029137
 20
-328.0087527713259
 30
0.0
 11
-636.1566492029137
 21
-329.5089804159628
 31
0.0
  0
LINE
  5
3B8
330
1F
100
AcDbEntity
  8
0226_下
  6
Continuous
 62
     7
370
     9
100
AcDbLine
 10
-636.1566492029137
 20
-329.5089804159628
 30
0.0
 11
-637.6567531276394
 21
-329.5089804159628
 31
0.0
  0
LINE
  5
3B9
330
1F
100
AcDbEntity
  8
0226_下
  6
Continuous
 62
     7
370
     9
100
AcDbLine
 10
-665.4032939189187
 20
-343.7210577887457
 30
0.0
 11
-665.4032939189187
 21
-342.2207064241975
 31
0.0
  0
LINE
  5
3BA
330
1F
100
AcDbEntity
  8
0226_下
  6
Continuous
 62
     7
370
     9
100
AcDbLine
 10
-665.4032939189187
 20
-342.2207064241975
 30
0.0
 11
-663.9033137141047
 21
-342.2207064241975
 31
0.0
  0
LINE
  5
3BB
330
1F
100
AcDbEntity
  8
0226_下
  6
Continuous
 62
     7
370
     9
100
AcDbLine
 10
-663.9033137141047
 20
-342.2207064241975
 30
0.0
 11
-663.9033137141047
 21
-343.7210577887457
 31
0.0
  0
LINE
  5
3BC
330
1F
100
AcDbEntity
  8
0226_下
  6
Continuous
 62
     7
370
     9
100
AcDbLine
 10
-663.9033137141047
 20
-343.7210577887457
 30
0.0
 11
-665.4032939189187
 21
-343.7210577887457
 31
0.0
  0
LINE
  5
3BD
330
1F
100
AcDbEntity
  8
0226_下
  6
Continuous
 62
     7
370
     9
100
AcDbLine
 10
-690.4429667704812
 20
-314.620650007918
 30
0.0
 11
-690.4429667704812
 21
-313.1204223632812
 31
0.0
  0
LINE
  5
3BE
330
1F
100
AcDbEntity
  8
0226_下
  6
Continuous
 62
     7
370
     9
100
AcDbLine
 10
-690.4429667704812
 20
-313.1204223632812
 30
0.0
 11
-688.9428628457557
 21
-313.1204223632812
 31
0.0
  0
LINE
  5
3BF
330
1F
100
AcDbEntity
  8
0226_下
  6
Continuous
 62
     7
370
     9
100
AcDbLine
 10
-688.9428628457557
 20
-313.1204223632812
 30
0.0
 11
-688.9428628457557
 21
-314.620650007918
 31
0.0
  0
LINE
  5
3C0
330
1F
100
AcDbEntity
  8
0226_下
  6
Continuous
 62
     7
370
     9
100
AcDbLine
 10
-688.9428628457557
 20
-314.620650007918
 30
0.0
 11
-690.4429667704812
 21
-314.620650007918
 31
0.0
  0
LINE
  5
3C1
330
1F
100
AcDbEntity
  8
0226_下
  6
Continuous
 62
     7
370
     9
100
AcDbLine
 10
-670.14065304318
 20
-378.9117019240921
 30
0.0
 11
-670.14065304318
 21
-377.4113505595438
 31
0.0
  0
LINE
  5
3C2
330
1F
100
AcDbEntity
  8
0226_下
  6
Continuous
 62
     7
370
     9
100
AcDbLine
 10
-670.14065304318
 20
-377.4113505595438
 30
0.0
 11
-668.6405491184544
 21
-377.4113505595438
 31
0.0
  0
LINE
  5
3C3
330
1F
100
AcDbEntity
  8
0226_下
  6
Continuous
 62
     7
370
     9
100
AcDbLine
 10
-668.6405491184544
 20
-377.4113505595438
 30
0.0
 11
-668.6405491184544
 21
-378.9117019240921
 31
0.0
  0
LINE
  5
3C4
330
1F
100
AcDbEntity
  8
0226_下
  6
Continuous
 62
     7
370
     9
100
AcDbLine
 10
-668.6405491184544
 20
-378.9117019240921
 30
0.0
 11
-670.14065304318
 21
-378.9117019240921
 31
0.0
  0
LINE
  5
3C5
330
1F
100
AcDbEntity
  8
0226_下
  6
Continuous
 62
     7
370
     9
100
AcDbLine
 10
-612.6170802760769
 20
-377.5580823743666
 30
0.0
 11
-612.6170802760769
 21
-376.0577310098183
 31
0.0
  0
LINE
  5
3C6
330
1F
100
AcDbEntity
  8
0226_下
  6
Continuous
 62
     7
370
     9
100
AcDbLine
 10
-612.6170802760769
 20
-376.0577310098183
 30
0.0
 11
-611.1171000712625
 21
-376.0577310098183
 31
0.0
  0
LINE
  5
3C7
330
1F
100
AcDbEntity
  8
0226_下
  6
Continuous
 62
     7
370
     9
100
AcDbLine
 10
-611.1171000712625
 20
-376.0577310098183
 30
0.0
 11
-611.1171000712625
 21
-377.5580823743666
 31
0.0
  0
LINE
  5
3C8
330
1F
100
AcDbEntity
  8
0226_下
  6
Continuous
 62
     7
370
     9
100
AcDbLine
 10
-611.1171000712625
 20
-377.5580823743666
 30
0.0
 11
-612.6170802760769
 21
-377.5580823743666
 31
0.0
  0
LINE
  5
3C9
330
1F
100
AcDbEntity
  8
0226_下
  6
Continuous
 62
     7
370
     9
100
AcDbLine
 10
-563.2146062077703
 20
-376.881210739548
 30
0.0
 11
-563.2146062077703
 21
-375.3809830949112
 31
0.0
  0
LINE
  5
3CA
330
1F
100
AcDbEntity
  8
0226_下
  6
Continuous
 62
     7
370
     9
100
AcDbLine
 10
-563.2146062077703
 20
-375.3809830949112
 30
0.0
 11
-561.714626002956
 21
-375.3809830949112
 31
0.0
  0
LINE
  5
3CB
330
1F
100
AcDbEntity
  8
0226_下
  6
Continuous
 62
     7
370
     9
100
AcDbLine
 10
-561.714626002956
 20
-375.3809830949112
 30
0.0
 11
-561.714626002956
 21
-376.881210739548
 31
0.0
  0
LINE
  5
3CC
330
1F
100
AcDbEntity
  8
0226_下
  6
Continuous
 62
     7
370
     9
100
AcDbLine
 10
-561.714626002956
 20
-376.881210739548
 30
0.0
 11
-563.2146062077703
 21
-376.881210739548
 31
0.0
  0
LINE
  5
3CD
330
1F
100
AcDbEntity
  8
0226_下
  6
Continuous
 62
     7
370
     9
100
AcDbLine
 10
-575.3960686760979
 20
-336.9534549197634
 30
0.0
 11
-575.3960686760979
 21
-335.4531035552154
 31
0.0
  0
LINE
  5
3CE
330
1F
100
AcDbEntity
  8
0226_下
  6
Continuous
 62
     7
370
     9
100
AcDbLine
 10
-575.3960686760979
 20
-335.4531035552154
 30
0.0
 11
-573.8960884712835
 21
-335.4531035552154
 31
0.0
  0
LINE
  5
3CF
330
1F
100
AcDbEntity
  8
0226_下
  6
Continuous
 62
     7
370
     9
100
AcDbLine
 10
-573.8960884712835
 20
-335.4531035552154
 30
0.0
 11
-573.8960884712835
 21
-336.9534549197634
 31
0.0
  0
LINE
  5
3D0
330
1F
100
AcDbEntity
  8
0226_下
  6
Continuous
 62
     7
370
     9
100
AcDbLine
 10
-573.8960884712835
 20
-336.9534549197634
 30
0.0
 11
-575.3960686760979
 21
-336.9534549197634
 31
0.0
  0
LINE
  5
3D1
330
1F
100
AcDbEntity
  8
0226_下
  6
Continuous
 62
     7
370
     9
100
AcDbLine
 10
-1096.956160261824
 20
-508.2548069309543
 30
0.0
 11
-1096.956160261824
 21
-506.7545174263619
 31
0.0
  0
LINE
  5
3D2
330
1F
100
AcDbEntity
  8
0226_下
  6
Continuous
 62
     7
370
     9
100
AcDbLine
 10
-1096.956160261824
 20
-506.7545174263619
 30
0.0
 11
-1095.456118197054
 21
-506.7545174263619
 31
0.0
  0
LINE
  5
3D3
330
1F
100
AcDbEntity
  8
0226_下
  6
Continuous
 62
     7
370
     9
100
AcDbLine
 10
-1095.456118197054
 20
-506.7545174263619
 30
0.0
 11
-1095.456118197054
 21
-508.2548069309543
 31
0.0
  0
LINE
  5
3D4
330
1F
100
AcDbEntity
  8
0226_下
  6
Continuous
 62
     7
370
     9
100
AcDbLine
 10
-1095.456118197054
 20
-508.2548069309543
 30
0.0
 11
-1096.956160261824
 21
-508.2548069309543
 31
0.0
  0
LINE
  5
3D5
330
1F
100
AcDbEntity
  8
0226_下
  6
Continuous
 62
     7
370
     9
100
AcDbLine
 10
-992.271918219489
 20
-508.2548069309543
 30
0.0
 11
-992.271918219489
 21
-506.7545174263619
 31
0.0
  0
LINE
  5
3D6
330
1F
100
AcDbEntity
  8
0226_下
  6
Continuous
 62
     7
370
     9
100
AcDbLine
 10
-992.271918219489
 20
-506.7545174263619
 30
0.0
 11
-990.7718142947634
 21
-506.7545174263619
 31
0.0
  0
LINE
  5
3D7
330
1F
100
AcDbEntity
  8
0226_下
  6
Continuous
 62
     7
370
     9
100
AcDbLine
 10
-990.7718142947634
 20
-506.7545174263619
 30
0.0
 11
-990.7718142947634
 21
-508.2548069309543
 31
0.0
  0
LINE
  5
3D8
330
1F
100
AcDbEntity
  8
0226_下
  6
Continuous
 62
     7
370
     9
100
AcDbLine
 10
-990.7718142947634
 20
-508.2548069309543
 30
0.0
 11
-992.271918219489
 21
-508.2548069309543
 31
0.0
  0
LINE
  5
3D9
330
1F
100
AcDbEntity
  8
0226_下
  6
Continuous
 62
     7
370
     9
100
AcDbLine
 10
-1006.356687803526
 20
-596.5706572661529
 30
0.0
 11
-1006.356687803526
 21
-595.0703677615603
 31
0.0
  0
LINE
  5
3DA
330
1F
100
AcDbEntity
  8
0226_下
  6
Continuous
 62
     7
370
     9
100
AcDbLine
 10
-1006.356687803526
 20
-595.0703677615603
 30
0.0
 11
-1004.856707598712
 21
-595.0703677615603
 31
0.0
  0
LINE
  5
3DB
330
1F
100
AcDbEntity
  8
0226_下
  6
Continuous
 62
     7
370
     9
100
AcDbLine
 10
-1004.856707598712
 20
-595.0703677615603
 30
0.0
 11
-1004.856707598712
 21
-596.5706572661529
 31
0.0
  0
LINE
  5
3DC
330
1F
100
AcDbEntity
  8
0226_下
  6
Continuous
 62
     7
370
     9
100
AcDbLine
 10
-1004.856707598712
 20
-596.5706572661529
 30
0.0
 11
-1006.356687803526
 21
-596.5706572661529
 31
0.0
  0
LINE
  5
3DD
330
1F
100
AcDbEntity
  8
0226_下
  6
Continuous
 62
     7
370
     9
100
AcDbLine
 10
-994.1752253351984
 20
-561.1683902224978
 30
0.0
 11
-994.1752253351984
 21
-559.6681007179053
 31
0.0
  0
LINE
  5
3DE
330
1F
100
AcDbEntity
  8
0226_下
  6
Continuous
 62
     7
370
     9
100
AcDbLine
 10
-994.1752253351984
 20
-559.6681007179053
 30
0.0
 11
-992.6752451303843
 21
-559.6681007179053
 31
0.0
  0
LINE
  5
3DF
330
1F
100
AcDbEntity
  8
0226_下
  6
Continuous
 62
     7
370
     9
100
AcDbLine
 10
-992.6752451303843
 20
-559.6681007179053
 30
0.0
 11
-992.6752451303843
 21
-561.1683902224978
 31
0.0
  0
LINE
  5
3E0
330
1F
100
AcDbEntity
  8
0226_下
  6
Continuous
 62
     7
370
     9
100
AcDbLine
 10
-992.6752451303843
 20
-561.1683902224978
 30
0.0
 11
-994.1752253351984
 21
-561.1683902224978
 31
0.0
  0
LINE
  5
3E1
330
1F
100
AcDbEntity
  8
0226_下
  6
Continuous
 62
     7
370
     9
100
AcDbLine
 10
-1094.672166978991
 20
-598.8547124089421
 30
0.0
 11
-1094.672166978991
 21
-597.3544229043496
 31
0.0
  0
LINE
  5
3E2
330
1F
100
AcDbEntity
  8
0226_下
  6
Continuous
 62
     7
370
     9
100
AcDbLine
 10
-1094.672166978991
 20
-597.3544229043496
 30
0.0
 11
-1093.172124914221
 21
-597.3544229043496
 31
0.0
  0
LINE
  5
3E3
330
1F
100
AcDbEntity
  8
0226_下
  6
Continuous
 62
     7
370
     9
100
AcDbLine
 10
-1093.172124914221
 20
-597.3544229043496
 30
0.0
 11
-1093.172124914221
 21
-598.8547124089421
 31
0.0
  0
LINE
  5
3E4
330
1F
100
AcDbEntity
  8
0226_下
  6
Continuous
 62
     7
370
     9
100
AcDbLine
 10
-1093.172124914221
 20
-598.8547124089421
 30
0.0
 11
-1094.672166978991
 21
-598.8547124089421
 31
0.0
  0
LINE
  5
3E5
330
1F
100
AcDbEntity
  8
0226_下
  6
Continuous
 62
     7
370
     9
100
AcDbLine
 10
-1050.514303671347
 20
-601.8998924461571
 30
0.0
 11
-1050.514303671347
 21
-600.3996029415646
 31
0.0
  0
LINE
  5
3E6
330
1F
100
AcDbEntity
  8
0226_下
  6
Continuous
 62
     7
370
     9
100
AcDbLine
 10
-1050.514303671347
 20
-600.3996029415646
 30
0.0
 11
-1049.014323466533
 21
-600.3996029415646
 31
0.0
  0
LINE
  5
3E7
330
1F
100
AcDbEntity
  8
0226_下
  6
Continuous
 62
     7
370
     9
100
AcDbLine
 10
-1049.014323466533
 20
-600.3996029415646
 30
0.0
 11
-1049.014323466533
 21
-601.8998924461571
 31
0.0
  0
LINE
  5
3E8
330
1F
100
AcDbEntity
  8
0226_下
  6
Continuous
 62
     7
370
     9
100
AcDbLine
 10
-1049.014323466533
 20
-601.8998924461571
 30
0.0
 11
-1050.514303671347
 21
-601.8998924461571
 31
0.0
  0
LINE
  5
3E9
330
1F
100
AcDbEntity
  8
0226_下
  6
Continuous
 62
     7
370
     9
100
AcDbLine
 10
-1047.088375607052
 20
-564.2135083997572
 30
0.0
 11
-1047.088375607052
 21
-562.7132807551203
 31
0.0
  0
LINE
  5
3EA
330
1F
100
AcDbEntity
  8
0226_下
  6
Continuous
 62
     7
370
     9
100
AcDbLine
 10
-1047.088375607052
 20
-562.7132807551203
 30
0.0
 11
-1045.588271682327
 21
-562.7132807551203
 31
0.0
  0
LINE
  5
3EB
330
1F
100
AcDbEntity
  8
0226_下
  6
Continuous
 62
     7
370
     9
100
AcDbLine
 10
-1045.588271682327
 20
-562.7132807551203
 30
0.0
 11
-1045.588271682327
 21
-564.2135083997572
 31
0.0
  0
LINE
  5
3EC
330
1F
100
AcDbEntity
  8
0226_下
  6
Continuous
 62
     7
370
     9
100
AcDbLine
 10
-1045.588271682327
 20
-564.2135083997572
 30
0.0
 11
-1047.088375607052
 21
-564.2135083997572
 31
0.0
  0
LINE
  5
3ED
330
1F
100
AcDbEntity
  8
0226_下
  6
Continuous
 62
     7
370
     9
100
AcDbLine
 10
-1097.717408876161
 20
-562.6904544314822
 30
0.0
 11
-1097.717408876161
 21
-561.1901649268897
 31
0.0
  0
LINE
  5
3EE
330
1F
100
AcDbEntity
  8
0226_下
  6
Continuous
 62
     7
370
     9
100
AcDbLine
 10
-1097.717408876161
 20
-561.1901649268897
 30
0.0
 11
-1096.217428671347
 21
-561.1901649268897
 31
0.0
  0
LINE
  5
3EF
330
1F
100
AcDbEntity
  8
0226_下
  6
Continuous
 62
     7
370
     9
100
AcDbLine
 10
-1096.217428671347
 20
-561.1901649268897
 30
0.0
 11
-1096.217428671347
 21
-562.6904544314822
 31
0.0
  0
LINE
  5
3F0
330
1F
100
AcDbEntity
  8
0226_下
  6
Continuous
 62
     7
370
     9
100
AcDbLine
 10
-1096.217428671347
 20
-562.6904544314822
 30
0.0
 11
-1097.717408876161
 21
-562.6904544314822
 31
0.0
  0
LINE
  5
3F1
330
1F
100
AcDbEntity
  8
0226_下
  6
Continuous
 62
     7
370
     9
100
AcDbLine
 10
-1089.342746219119
 20
-684.1248878272803
 30
0.0
 11
-1089.342746219119
 21
-682.6246601826435
 31
0.0
  0
LINE
  5
3F2
330
1F
100
AcDbEntity
  8
0226_下
  6
Continuous
 62
     7
370
     9
100
AcDbLine
 10
-1089.342746219119
 20
-682.6246601826435
 30
0.0
 11
-1087.842766014305
 21
-682.6246601826435
 31
0.0
  0
LINE
  5
3F3
330
1F
100
AcDbEntity
  8
0226_下
  6
Continuous
 62
     7
370
     9
100
AcDbLine
 10
-1087.842766014305
 20
-682.6246601826435
 30
0.0
 11
-1087.842766014305
 21
-684.1248878272803
 31
0.0
  0
LINE
  5
3F4
330
1F
100
AcDbEntity
  8
0226_下
  6
Continuous
 62
     7
370
     9
100
AcDbLine
 10
-1087.842766014305
 20
-684.1248878272803
 30
0.0
 11
-1089.342746219119
 21
-684.1248878272803
 31
0.0
  0
LINE
  5
3F5
330
1F
100
AcDbEntity
  8
0226_下
  6
Continuous
 62
     7
370
     9
100
AcDbLine
 10
-1037.571592588683
 20
-680.3177168562605
 30
0.0
 11
-1037.571592588683
 21
-678.8174273516679
 31
0.0
  0
LINE
  5
3F6
330
1F
100
AcDbEntity
  8
0226_下
  6
Continuous
 62
     7
370
     9
100
AcDbLine
 10
-1037.571592588683
 20
-678.8174273516679
 30
0.0
 11
-1036.071612383868
 21
-678.8174273516679
 31
0.0
  0
LINE
  5
3F7
330
1F
100
AcDbEntity
  8
0226_下
  6
Continuous
 62
     7
370
     9
100
AcDbLine
 10
-1036.071612383868
 20
-678.8174273516679
 30
0.0
 11
-1036.071612383868
 21
-680.3177168562605
 31
0.0
  0
LINE
  5
3F8
330
1F
100
AcDbEntity
  8
0226_下
  6
Continuous
 62
     7
370
     9
100
AcDbLine
 10
-1036.071612383868
 20
-680.3177168562605
 30
0.0
 11
-1037.571592588683
 21
-680.3177168562605
 31
0.0
  0
LINE
  5
3F9
330
1F
100
AcDbEntity
  8
0226_下
  6
Continuous
 62
     7
370
     9
100
AcDbLine
 10
-987.7038079339104
 20
-682.2213332717483
 30
0.0
 11
-987.7038079339104
 21
-680.7210437671557
 31
0.0
  0
LINE
  5
3FA
330
1F
100
AcDbEntity
  8
0226_下
  6
Continuous
 62
     7
370
     9
100
AcDbLine
 10
-987.7038079339104
 20
-680.7210437671557
 30
0.0
 11
-986.2037040091849
 21
-680.7210437671557
 31
0.0
  0
LINE
  5
3FB
330
1F
100
AcDbEntity
  8
0226_下
  6
Continuous
 62
     7
370
     9
100
AcDbLine
 10
-986.2037040091849
 20
-680.7210437671557
 30
0.0
 11
-986.2037040091849
 21
-682.2213332717483
 31
0.0
  0
LINE
  5
3FC
330
1F
100
AcDbEntity
  8
0226_下
  6
Continuous
 62
     7
370
     9
100
AcDbLine
 10
-986.2037040091849
 20
-682.2213332717483
 30
0.0
 11
-987.7038079339104
 21
-682.2213332717483
 31
0.0
  0
LINE
  5
3FD
330
1F
100
AcDbEntity
  8
0226_下
  6
Continuous
 62
     7
370
     9
100
AcDbLine
 10
-1012.44741903769
 20
-708.1065698572106
 30
0.0
 11
-1012.44741903769
 21
-706.6062803526182
 31
0.0
  0
LINE
  5
3FE
330
1F
100
AcDbEntity
  8
0226_下
  6
Continuous
 62
     7
370
     9
100
AcDbLine
 10
-1012.44741903769
 20
-706.6062803526182
 30
0.0
 11
-1010.947315112964
 21
-706.6062803526182
 31
0.0
  0
LINE
  5
3FF
330
1F
100
AcDbEntity
  8
0226_下
  6
Continuous
 62
     7
370
     9
100
AcDbLine
 10
-1010.947315112964
 20
-706.6062803526182
 30
0.0
 11
-1010.947315112964
 21
-708.1065698572106
 31
0.0
  0
LINE
  5
400
330
1F
100
AcDbEntity
  8
0226_下
  6
Continuous
 62
     7
370
     9
100
AcDbLine
 10
-1010.947315112964
 20
-708.1065698572106
 30
0.0
 11
-1012.44741903769
 21
-708.1065698572106
 31
0.0
  0
LINE
  5
401
330
1F
100
AcDbEntity
  8
0226_下
  6
Continuous
 62
     7
370
     9
100
AcDbLine
 10
-1052.798296954181
 20
-719.9076554581926
 30
0.0
 11
-1052.798296954181
 21
-718.4073659536
 31
0.0
  0
LINE
  5
402
330
1F
100
AcDbEntity
  8
0226_下
  6
Continuous
 62
     7
370
     9
100
AcDbLine
 10
-1052.798296954181
 20
-718.4073659536
 30
0.0
 11
-1051.298316749366
 21
-718.4073659536
 31
0.0
  0
LINE
  5
403
330
1F
100
AcDbEntity
  8
0226_下
  6
Continuous
 62
     7
370
     9
100
AcDbLine
 10
-1051.298316749366
 20
-718.4073659536
 30
0.0
 11
-1051.298316749366
 21
-719.9076554581926
 31
0.0
  0
LINE
  5
404
330
1F
100
AcDbEntity
  8
0226_下
  6
Continuous
 62
     7
370
     9
100
AcDbLine
 10
-1051.298316749366
 20
-719.9076554581926
 30
0.0
 11
-1052.798296954181
 21
-719.9076554581926
 31
0.0
  0
LINE
  5
405
330
1F
100
AcDbEntity
  8
0226_下
  6
Continuous
 62
     7
370
     9
100
AcDbLine
 10
-1100.001525878906
 20
-717.6235384554477
 30
0.0
 11
-1100.001525878906
 21
-716.1233108108108
 31
0.0
  0
LINE
  5
406
330
1F
100
AcDbEntity
  8
0226_下
  6
Continuous
 62
     7
370
     9
100
AcDbLine
 10
-1100.001525878906
 20
-716.1233108108108
 30
0.0
 11
-1098.501483814136
 21
-716.1233108108108
 31
0.0
  0
LINE
  5
407
330
1F
100
AcDbEntity
  8
0226_下
  6
Continuous
 62
     7
370
     9
100
AcDbLine
 10
-1098.501483814136
 20
-716.1233108108108
 30
0.0
 11
-1098.501483814136
 21
-717.6235384554477
 31
0.0
  0
LINE
  5
408
330
1F
100
AcDbEntity
  8
0226_下
  6
Continuous
 62
     7
370
     9
100
AcDbLine
 10
-1098.501483814136
 20
-717.6235384554477
 30
0.0
 11
-1100.001525878906
 21
-717.6235384554477
 31
0.0
  0
LINE
  5
409
330
1F
100
AcDbEntity
  8
0226_下
  6
Continuous
 62
     7
370
     9
100
AcDbLine
 10
-1083.632639292124
 20
-746.173949370513
 30
0.0
 11
-1083.632639292124
 21
-744.6736598659206
 31
0.0
  0
LINE
  5
40A
330
1F
100
AcDbEntity
  8
0226_下
  6
Continuous
 62
     7
370
     9
100
AcDbLine
 10
-1083.632639292124
 20
-744.6736598659206
 30
0.0
 11
-1082.132597227354
 21
-744.6736598659206
 31
0.0
  0
LINE
  5
40B
330
1F
100
AcDbEntity
  8
0226_下
  6
Continuous
 62
     7
370
     9
100
AcDbLine
 10
-1082.132597227354
 20
-744.6736598659206
 30
0.0
 11
-1082.132597227354
 21
-746.173949370513
 31
0.0
  0
LINE
  5
40C
330
1F
100
AcDbEntity
  8
0226_下
  6
Continuous
 62
     7
370
     9
100
AcDbLine
 10
-1082.132597227354
 20
-746.173949370513
 30
0.0
 11
-1083.632639292124
 21
-746.173949370513
 31
0.0
  0
LINE
  5
40D
330
1F
100
AcDbEntity
  8
0226_下
  6
Continuous
 62
     7
370
     9
100
AcDbLine
 10
-1031.861547521643
 20
-744.6513902818834
 30
0.0
 11
-1031.861547521643
 21
-743.1511007772908
 31
0.0
  0
LINE
  5
40E
330
1F
100
AcDbEntity
  8
0226_下
  6
Continuous
 62
     7
370
     9
100
AcDbLine
 10
-1031.861547521643
 20
-743.1511007772908
 30
0.0
 11
-1030.361567316829
 21
-743.1511007772908
 31
0.0
  0
LINE
  5
40F
330
1F
100
AcDbEntity
  8
0226_下
  6
Continuous
 62
     7
370
     9
100
AcDbLine
 10
-1030.361567316829
 20
-743.1511007772908
 30
0.0
 11
-1030.361567316829
 21
-744.6513902818834
 31
0.0
  0
LINE
  5
410
330
1F
100
AcDbEntity
  8
0226_下
  6
Continuous
 62
     7
370
     9
100
AcDbLine
 10
-1030.361567316829
 20
-744.6513902818834
 30
0.0
 11
-1031.861547521643
 21
-744.6513902818834
 31
0.0
  0
LINE
  5
411
330
1F
100
AcDbEntity
  8
0226_下
  6
Continuous
 62
     7
370
     9
100
AcDbLine
 10
-993.7945391680742
 20
-744.6513902818834
 30
0.0
 11
-993.7945391680742
 21
-743.1511007772908
 31
0.0
  0
LINE
  5
412
330
1F
100
AcDbEntity
  8
0226_下
  6
Continuous
 62
     7
370
     9
100
AcDbLine
 10
-993.7945391680742
 20
-743.1511007772908
 30
0.0
 11
-992.29455896326
 21
-743.1511007772908
 31
0.0
  0
LINE
  5
413
330
1F
100
AcDbEntity
  8
0226_下
  6
Continuous
 62
     7
370
     9
100
AcDbLine
 10
-992.29455896326
 20
-743.1511007772908
 30
0.0
 11
-992.29455896326
 21
-744.6513902818834
 31
0.0
  0
LINE
  5
414
330
1F
100
AcDbEntity
  8
0226_下
  6
Continuous
 62
     7
370
     9
100
AcDbLine
 10
-992.29455896326
 20
-744.6513902818834
 30
0.0
 11
-993.7945391680742
 21
-744.6513902818834
 31
0.0
  0
LINE
  5
415
330
1F
100
AcDbEntity
  8
0226_下
  6
Continuous
 62
     7
370
     9
100
AcDbLine
 10
-936.770299963049
 20
-561.6465058197846
 30
0.0
 11
-936.770299963049
 21
-560.1457214355469
 31
0.0
  0
LINE
  5
416
330
1F
100
AcDbEntity
  8
0226_下
  6
Continuous
 62
     7
370
     9
100
AcDbLine
 10
-936.770299963049
 20
-560.1457214355469
 30
0.0
 11
-935.2703197582348
 21
-560.1457214355469
 31
0.0
  0
LINE
  5
417
330
1F
100
AcDbEntity
  8
0226_下
  6
Continuous
 62
     7
370
     9
100
AcDbLine
 10
-935.2703197582348
 20
-560.1457214355469
 30
0.0
 11
-935.2703197582348
 21
-561.6465058197846
 31
0.0
  0
LINE
  5
418
330
1F
100
AcDbEntity
  8
0226_下
  6
Continuous
 62
     7
370
     9
100
AcDbLine
 10
-935.2703197582348
 20
-561.6465058197846
 30
0.0
 11
-936.770299963049
 21
-561.6465058197846
 31
0.0
  0
LINE
  5
419
330
1F
100
AcDbEntity
  8
0220_
  6
Continuous
 62
     6
370
     5
100
AcDbLine
 10
-1115.935227677629
 20
-366.7127949482685
 30
0.0
 11
-1115.935227677629
 21
-751.7128279402449
 31
0.0
  0
LINE
  5
41A
330
1F
100
AcDbEntity
  8
0216_
  6
Continuous
 62
     7
370
     9
100
AcDbLine
 10
-1115.935227677629
 20
-656.46841513144
 30
0.0
 11
-965.9345472181166
 21
-656.46841513144
 31
0.0
  0
LINE
  5
41B
330
1F
100
AcDbEntity
  8
0216_
  6
Continuous
 62
     7
370
     9
100
AcDbLine
 10
-1115.935227677629
 20
-810.0653241131756
 30
0.0
 11
-715.9348358979096
 21
-810.0653241131756
 31
0.0
  0
LINE
  5
41C
330
1F
100
AcDbEntity
  8
0216_
  6
Continuous
 62
     7
370
     9
100
AcDbLine
 10
-1115.935227677629
 20
-813.0653463827596
 30
0.0
 11
-1115.935227677629
 21
-771.7128320642419
 31
0.0
  0
LINE
  5
41D
330
1F
100
AcDbEntity
  8
0216_
  6
Continuous
 62
     7
370
     9
100
AcDbLine
 10
-715.9348358979096
 20
-813.0653463827596
 30
0.0
 11
-715.9348358979096
 21
-596.7132444639464
 31
0.0
  0
LINE
  5
41E
330
1F
100
AcDbEntity
  8
0227_下
  6
Continuous
 62
     2
370
     9
100
AcDbLine
 10
-965.9350420977617
 20
-351.7128691802154
 30
0.0
 11
-965.9350420977617
 21
-251.713405299831
 31
0.0
  0
LINE
  5
41F
330
1F
100
AcDbEntity
  8
0227_下
  6
Continuous
 62
     2
370
     9
100
AcDbLine
 10
-980.9348441459036
 20
-251.713405299831
 30
0.0
 11
-965.9350420977617
 21
-251.713405299831
 31
0.0
  0
LINE
  5
420
330
1F
100
AcDbEntity
  8
0220_
  6
Continuous
 62
     6
370
     5
100
AcDbLine
 10
-965.9350420977617
 20
-251.713405299831
 30
0.0
 11
-550.9342915302998
 21
-251.713405299831
 31
0.0
  0
LINE
  5
421
330
1F
100
AcDbEntity
  8
0216_
  6
Continuous
 62
     7
370
     9
100
AcDbLine
 10
-447.1722577069255
 20
-251.713405299831
 30
0.0
 11
-447.1722577069255
 21
-576.7132403399492
 31
0.0
  0
LINE
  5
422
330
1F
100
AcDbEntity
  8
0216_
  6
Continuous
 62
     7
370
     9
100
AcDbLine
 10
-444.1722972972971
 20
-251.713405299831
 30
0.0
 11
-530.9343492662583
 21
-251.713405299831
 31
0.0
  0
LINE
  5
423
330
1F
100
AcDbEntity
  8
0216_
  6
Continuous
 62
     7
370
     9
100
AcDbLine
 10
-444.1722972972971
 20
-576.7132403399492
 30
0.0
 11
-695.9347699139568
 21
-576.7132403399492
 31
0.0
  0
LINE
  5
424
330
1F
100
AcDbEntity
  8
0216_
  6
Continuous
 62
     7
370
     9
100
AcDbLine
 10
-1115.926257984058
 20
-484.8150181125949
 30
0.0
 11
-965.9261342641469
 21
-484.8150181125949
 31
0.0
  0
LINE
  5
425
330
1F
100
AcDbEntity
  8
0216_
  6
Continuous
 62
     7
370
     9
100
AcDbLine
 10
-965.9261342641469
 20
-484.8150181125949
 30
0.0
 11
-795.9259445602828
 21
-484.8150181125949
 31
0.0
  0
LINE
  5
426
330
1F
100
AcDbEntity
  8
0216_
  6
Continuous
 62
     7
370
     9
100
AcDbLine
 10
-795.9259445602828
 20
-487.8150403821791
 30
0.0
 11
-795.9259445602828
 21
-403.2114059860642
 31
0.0
  0
LINE
  5
427
330
1F
100
AcDbEntity
  8
0216_
  6
Continuous
 62
     7
370
     9
100
AcDbLine
 10
-732.9699542071367
 20
-398.2113894900759
 30
0.0
 11
-790.9259280642948
 21
-398.2113894900759
 31
0.0
  0
LINE
  5
428
330
1F
100
AcDbEntity
  8
0216_
  6
Continuous
 62
     7
370
     9
100
AcDbLine
 10
-735.9699146167651
 20
-366.7123000686233
 30
0.0
 11
-735.9699146167651
 21
-483.46238832216
 31
0.0
  0
LINE
  5
429
330
1F
100
AcDbEntity
  8
0216_
  6
Continuous
 62
     7
370
     9
100
AcDbLine
 10
-965.9261342641469
 20
-487.8150403821791
 30
0.0
 11
-965.9261342641469
 21
-403.2114059860642
 31
0.0
  0
LINE
  5
42A
330
1F
100
AcDbEntity
  8
0234_
  6
Continuous
 62
     4
370
     9
100
AcDbLine
 10
-925.9260022962416
 20
-398.2113894900759
 30
0.0
 11
-810.9259940482474
 21
-398.2113894900759
 31
0.0
  0
LINE
  5
42B
330
1F
100
AcDbEntity
  8
0234_
  6
Continuous
 62
     4
370
     9
100
AcDbLine
 10
-940.926051784206
 20
-383.2113400021115
 30
0.0
 11
-940.926051784206
 21
-369.2114422772381
 31
0.0
  0
LINE
  5
42C
330
1F
100
AcDbEntity
  8
0234_
  6
Continuous
 62
     4
370
     9
100
AcDbLine
 10
-795.9261920001054
 20
-383.2113400021115
 30
0.0
 11
-795.9261920001054
 21
-369.2114422772381
 31
0.0
  0
LINE
  5
42D
330
1F
100
AcDbEntity
  8
0234_
  6
Continuous
 62
     4
370
     9
100
AcDbLine
 10
-960.9261177681587
 20
-379.2114752692145
 30
0.0
 11
-960.9261177681587
 21
-369.2114422772381
 31
0.0
  0
LINE
  5
42E
330
1F
100
AcDbEntity
  8
0234_
  6
Continuous
 62
     4
370
     9
100
AcDbLine
 10
-940.9010603621199
 20
-379.2114752692145
 30
0.0
 11
-990.9258455843537
 21
-379.2114752692145
 31
0.0
  0
LINE
  5
42F
330
1F
100
AcDbEntity
  8
0234_
  6
Continuous
 62
     4
370
     9
100
AcDbLine
 10
-795.9261920001054
 20
-369.2114422772381
 30
0.0
 11
-990.9258455843537
 21
-369.2114422772381
 31
0.0
  0
LINE
  5
430
330
1F
100
AcDbEntity
  8
0234_
  6
Continuous
 62
     3
370
     9
100
AcDbLine
 10
-1090.926175504117
 20
-366.7127949482685
 30
0.0
 11
-1090.926175504117
 21
-389.2127454603041
 31
0.0
  0
LINE
  5
431
330
1F
100
AcDbEntity
  8
0234_
  6
Continuous
 62
     3
370
     9
100
AcDbLine
 10
-990.9258455843537
 20
-389.2127454603041
 30
0.0
 11
-1090.926175504117
 21
-389.2127454603041
 31
0.0
  0
LINE
  5
432
330
1F
100
AcDbEntity
  8
0234_
  6
Continuous
 62
     3
370
     9
100
AcDbLine
 10
-990.9258455843537
 20
-366.7127949482685
 30
0.0
 11
-1090.926175504117
 21
-366.7127949482685
 31
0.0
  0
LINE
  5
433
330
1F
100
AcDbEntity
  8
0234_
  6
Continuous
 62
     2
370
     9
100
AcDbLine
 10
-1027.176274480046
 20
-391.7113927892735
 30
0.0
 11
-1027.176274480046
 21
-389.2127454603041
 31
0.0
  0
LINE
  5
434
330
1F
100
AcDbEntity
  8
0234_
  6
Continuous
 62
     2
370
     9
100
AcDbLine
 10
-1035.926983807538
 20
-399.2107989336992
 30
0.0
 11
-1027.176274480046
 21
-391.7113927892735
 31
0.0
  0
LINE
  5
435
330
1F
100
AcDbEntity
  8
0234_
  6
Continuous
 62
     2
370
     9
100
AcDbLine
 10
-1045.925903320312
 20
-399.2107989336992
 30
0.0
 11
-1035.926983807538
 21
-399.2107989336992
 31
0.0
  0
LINE
  5
436
330
1F
100
AcDbEntity
  8
0234_
  6
Continuous
 62
     2
370
     9
100
AcDbLine
 10
-1054.676365207981
 20
-391.7113927892735
 30
0.0
 11
-1045.925903320312
 21
-399.2107989336992
 31
0.0
  0
LINE
  5
437
330
1F
100
AcDbEntity
  8
0234_
  6
Continuous
 62
     2
370
     9
100
AcDbLine
 10
-1054.676365207981
 20
-391.7113927892735
 30
0.0
 11
-1054.676365207981
 21
-389.2127454603041
 31
0.0
  0
LINE
  5
438
330
1F
100
AcDbEntity
  8
0234_
  6
Continuous
 62
     2
370
     9
100
AcDbLine
 10
-1054.676365207981
 20
-391.7113927892735
 30
0.0
 11
-1027.176274480046
 21
-391.7113927892735
 31
0.0
  0
LINE
  5
439
330
1F
100
AcDbEntity
  8
0234_
  6
Continuous
 62
     3
370
     9
100
AcDbLine
 10
-990.9258455843537
 20
-366.7127949482685
 30
0.0
 11
-990.9258455843537
 21
-389.2127454603041
 31
0.0
  0
LINE
  5
43A
330
1F
100
AcDbEntity
  8
0234_
  6
Continuous
 62
     3
370
     9
100
AcDbLine
 10
-990.9258455843537
 20
-376.7127042203336
 30
0.0
 11
-1090.926175504117
 21
-376.7127042203336
 31
0.0
  0
LINE
  5
43B
330
1F
100
AcDbEntity
  8
0234_
  6
JWW_DASHED2
 62
     3
370
     9
100
AcDbLine
 10
-990.9258455843537
 20
-379.2127124683276
 30
0.0
 11
-1090.926175504117
 21
-379.2127124683276
 31
0.0
  0
LINE
  5
43C
330
1F
100
AcDbEntity
  8
0234_
  6
JWW_CENTER1
 62
     4
370
     9
100
AcDbLine
 10
-1040.926010544236
 20
-406.9517063450168
 30
0.0
 11
-1040.926010544236
 21
-366.7127949482685
 31
0.0
  0
LINE
  5
43D
330
1F
100
AcDbEntity
  8
0216_
  6
Continuous
 62
     7
370
     9
100
AcDbLine
 10
-931.9240673168285
 20
-366.7123000686233
 30
0.0
 11
-732.9694593274914
 21
-366.7123000686233
 31
0.0
  0
LINE
  5
43E
330
1F
100
AcDbEntity
  8
0216_
  6
Continuous
 62
     7
370
     9
100
AcDbLine
 10
-735.9699146167651
 20
-366.7123000686233
 30
0.0
 11
-735.9699146167651
 21
-251.713405299831
 31
0.0
  0
LINE
  5
43F
330
1F
100
AcDbEntity
  8
0242_
  6
Continuous
 62
     7
370
     9
100
AcDbLine
 10
-947.8151476061021
 20
-369.2114422772381
 30
0.0
 11
-934.0034278663428
 21
-348.3729264542862
 31
0.0
  0
LINE
  5
440
330
1F
100
AcDbEntity
  8
0242_
  6
Continuous
 62
     7
370
     9
100
AcDbLine
 10
-947.8151476061021
 20
-369.2114422772381
 30
0.0
 11
-929.081478634396
 21
-352.6573469832136
 31
0.0
  0
LINE
  5
441
330
1F
100
AcDbEntity
  8
0242_
  6
Continuous
 62
     7
370
     9
100
AcDbLine
 10
-773.2660242029137
 20
-168.6639404296875
 30
0.0
 11
-947.8151476061021
 21
-369.2114422772381
 31
0.0
  0
LINE
  5
442
330
1F
100
AcDbEntity
  8
0242_
  6
Continuous
 62
     7
370
     9
100
AcDbLine
 10
-782.6723253404771
 20
26.90420614706511
 30
0.0
 11
-1025.171269597234
 21
-251.7131578600083
 31
0.0
  0
LINE
  5
443
330
1F
100
AcDbEntity
  8
0242_
  6
Continuous
 62
     7
370
     9
100
AcDbLine
 10
-1025.171269597234
 20
-251.7131578600083
 30
0.0
 11
-1011.360539616765
 21
-230.8752606366131
 31
0.0
  0
LINE
  5
444
330
1F
100
AcDbEntity
  8
0242_
  6
Continuous
 62
     7
370
     9
100
AcDbLine
 10
-1025.171269597234
 20
-251.7131578600083
 30
0.0
 11
-1006.437600625528
 21
-235.1595574456292
 31
0.0
  0
LINE
  5
445
330
1F
100
AcDbEntity
  8
0242_
  6
Continuous
 62
     7
370
     9
100
AcDbLine
 10
-775.8455843538852
 20
-62.47476938608514
 30
0.0
 11
-321.2485236090581
 21
-62.47476938608514
 31
0.0
  0
LINE
  5
446
330
1F
100
AcDbEntity
  8
0242_
  6
Continuous
 62
     7
370
     9
100
AcDbLine
 10
-965.9350420977617
 20
-280.8765390756968
 30
0.0
 11
-952.1243121172929
 21
-260.0386418523015
 31
0.0
  0
LINE
  5
447
330
1F
100
AcDbEntity
  8
0242_
  6
Continuous
 62
     7
370
     9
100
AcDbLine
 10
-775.8455843538852
 20
-62.47476938608514
 30
0.0
 11
-965.9350420977617
 21
-280.8765390756968
 31
0.0
  0
LINE
  5
448
330
1F
100
AcDbEntity
  8
0242_
  6
Continuous
 62
     7
370
     9
100
AcDbLine
 10
-965.9350420977617
 20
-280.8765390756968
 30
0.0
 11
-947.2013731260557
 21
-264.3229386613174
 31
0.0
  0
LINE
  5
449
330
1F
100
AcDbEntity
  8
0242_
  6
Continuous
 62
     7
370
     9
100
AcDbLine
 10
-773.2660242029137
 20
-168.6639404296875
 30
0.0
 11
-151.1213972761823
 21
-168.6639404296875
 31
0.0
  0
LINE
  5
44A
330
1F
100
AcDbEntity
  8
0220_
  6
Continuous
 62
     6
370
     5
100
AcDbLine
 10
-823.4259115683064
 20
-576.7132403399492
 30
0.0
 11
-823.4259115683064
 21
-398.2113894900759
 31
0.0
  0
LINE
  5
44B
330
1F
100
AcDbEntity
  8
0220_
  6
Continuous
 62
     6
370
     5
100
AcDbLine
 10
-868.4263074720228
 20
-576.7132403399492
 30
0.0
 11
-868.4263074720228
 21
-398.2113894900759
 31
0.0
  0
LINE
  5
44C
330
1F
100
AcDbEntity
  8
0220_
  6
Continuous
 62
     6
370
     5
100
AcDbLine
 10
-868.4263074720228
 20
-369.2114422772381
 30
0.0
 11
-868.4263074720228
 21
-334.2114505252322
 31
0.0
  0
LINE
  5
44D
330
1F
100
AcDbEntity
  8
0220_
  6
Continuous
 62
     6
370
     5
100
AcDbLine
 10
-823.4259115683064
 20
-369.2114422772381
 30
0.0
 11
-823.4259115683064
 21
-334.2114505252322
 31
0.0
  0
LINE
  5
44E
330
1F
100
AcDbEntity
  8
0220_
  6
Continuous
 62
     6
370
     5
100
AcDbLine
 10
-868.4263074720228
 20
-334.2114505252322
 30
0.0
 11
-823.4259115683064
 21
-334.2114505252322
 31
0.0
  0
LINE
  5
44F
330
1F
100
AcDbEntity
  8
0220_
  6
JWW_CENTER2
 62
     6
370
     5
100
AcDbLine
 10
-845.9261095201646
 20
-321.8979789115286
 30
0.0
 11
-845.9261095201646
 21
-690.0457516232052
 31
0.0
  0
LINE
  5
450
330
1F
100
AcDbEntity
  8
0220_
  6
JWW_DASHED3
 62
     6
370
     5
100
AcDbLine
 10
-868.4263074720228
 20
-679.212836188239
 30
0.0
 11
-868.4263074720228
 21
-576.7132403399492
 31
0.0
  0
LINE
  5
451
330
1F
100
AcDbEntity
  8
0220_
  6
JWW_DASHED3
 62
     6
370
     5
100
AcDbLine
 10
-823.4259115683064
 20
-576.7132403399492
 30
0.0
 11
-823.4259115683064
 21
-679.212836188239
 31
0.0
  0
LINE
  5
452
330
1F
100
AcDbEntity
  8
0242_
  6
Continuous
 62
     7
370
     9
100
AcDbLine
 10
-663.5906734982052
 20
-679.4451821816933
 30
0.0
 11
-475.2664514490075
 21
-679.4451821816933
 31
0.0
  0
LINE
  5
453
330
1F
100
AcDbEntity
  8
0242_
  6
Continuous
 62
     7
370
     9
100
AcDbLine
 10
-823.4343245222761
 20
-519.6015311576224
 30
0.0
 11
-663.5906734982052
 21
-679.4451821816933
 31
0.0
  0
LINE
  5
454
330
1F
100
AcDbEntity
  8
0242_
  6
Continuous
 62
     7
370
     9
100
AcDbLine
 10
-823.4343245222761
 20
-519.6015311576224
 30
0.0
 11
-808.2152907912794
 21
-539.4353794407199
 31
0.0
  0
LINE
  5
455
330
1F
100
AcDbEntity
  8
0242_
  6
Continuous
 62
     7
370
     9
100
AcDbLine
 10
-823.4343245222761
 20
-519.6015311576224
 30
0.0
 11
-803.6005380991342
 21
-534.820564888619
 31
0.0
  0
LINE
  5
456
330
1F
100
AcDbEntity
  8
0216_
  6
Continuous
 62
     7
370
     9
100
AcDbLine
 10
-1516.915852314717
 20
-251.7131578600083
 30
0.0
 11
-1516.915852314717
 21
-351.7133640598605
 31
0.0
  0
LINE
  5
457
330
1F
100
AcDbEntity
  8
0242_
  6
Continuous
 62
     7
370
     9
100
AcDbLine
 10
-782.6723253404771
 20
26.90420614706511
 30
0.0
 11
83.61981366131772
 21
26.90420614706511
 31
0.0
  0
LINE
  5
458
330
1F
100
AcDbEntity
  8
0255_
  6
Continuous
 62
     4
370
     9
100
AcDbLine
 10
-874.229266192462
 20
966.6340101087417
 30
0.0
 11
-878.2292546452702
 21
966.6340101087417
 31
0.0
  0
LINE
  5
459
330
1F
100
AcDbEntity
  8
0255_
  6
Continuous
 62
     4
370
     9
100
AcDbLine
 10
-878.2292546452702
 20
966.6340101087417
 30
0.0
 11
-878.2292546452702
 21
1006.634142076647
 31
0.0
  0
LINE
  5
45A
330
1F
100
AcDbEntity
  8
0255_
  6
Continuous
 62
     4
370
     9
100
AcDbLine
 10
-878.2292546452702
 20
1006.634142076647
 30
0.0
 11
-874.229266192462
 21
1006.634142076647
 31
0.0
  0
LINE
  5
45B
330
1F
100
AcDbEntity
  8
0255_
  6
Continuous
 62
     4
370
     9
100
AcDbLine
 10
-874.229266192462
 20
1006.634142076647
 30
0.0
 11
-874.229266192462
 21
966.6340101087417
 31
0.0
  0
LINE
  5
45C
330
1F
100
AcDbEntity
  8
0255_
  6
Continuous
 62
     4
370
     9
100
AcDbLine
 10
-866.5630856075802
 20
987.6151749894427
 30
0.0
 11
-817.3137767894846
 21
987.6151749894427
 31
0.0
  0
LINE
  5
45D
330
1F
100
AcDbEntity
  8
0255_
  6
Continuous
 62
     4
370
     9
100
AcDbLine
 10
-866.5630856075802
 20
987.6151749894427
 30
0.0
 11
-841.7770385742188
 21
984.3519386085304
 31
0.0
  0
LINE
  5
45E
330
1F
100
AcDbEntity
  8
0255_
  6
Continuous
 62
     4
370
     9
100
AcDbLine
 10
-866.5630856075802
 20
987.6151749894427
 30
0.0
 11
-841.7770385742188
 21
990.8781639305323
 31
0.0
  0
LINE
  5
45F
330
1F
100
AcDbEntity
  8
0255_
  6
JWW_CENTER1
 62
     4
370
     9
100
AcDbLine
 10
-876.2291985589104
 20
966.6340101087417
 30
0.0
 11
-876.2291985589104
 21
780.4028815192146
 31
0.0
  0
LINE
  5
460
330
1F
100
AcDbEntity
  8
0242_
  6
Continuous
 62
     2
370
     9
100
AcDbLine
 10
111.9912637246622
 20
-401.0126557221284
 30
0.0
 11
-113.0087362753378
 21
-401.0126557221284
 31
0.0
  0
LINE
  5
461
330
1F
100
AcDbEntity
  8
0242_
  6
Continuous
 62
     2
370
     9
100
AcDbLine
 10
111.9912637246622
 20
-351.0123670423353
 30
0.0
 11
111.9912637246622
 21
-401.0126557221284
 31
0.0
  0
LINE
  5
462
330
1F
100
AcDbEntity
  8
0242_
  6
Continuous
 62
     2
370
     9
100
AcDbLine
 10
-113.0087362753378
 20
-351.0123670423353
 30
0.0
 11
111.9912637246622
 21
-351.0123670423353
 31
0.0
  0
LINE
  5
463
330
1F
100
AcDbEntity
  8
0242_
  6
Continuous
 62
     2
370
     9
100
AcDbLine
 10
-113.0087362753378
 20
-401.0126557221284
 30
0.0
 11
-113.0087362753378
 21
-351.0123670423353
 31
0.0
  0
ARC
  5
464
330
1F
100
AcDbEntity
  8
0218_
  6
Continuous
 62
     3
370
     9
100
AcDbCircle
 10
438.6781434755068
 20
283.6775826119089
 30
0.0
 40
5.000000064437454
100
AcDbArc
 50
0.0
 51
90.0
  0
ARC
  5
465
330
1F
100
AcDbEntity
  8
0218_
  6
Continuous
 62
     3
370
     9
100
AcDbCircle
 10
455.6784964896539
 20
283.6775826119089
 30
0.0
 40
5.000000064437454
100
AcDbArc
 50
90.0
 51
180.0
  0
ARC
  5
466
330
1F
100
AcDbEntity
  8
0218_
  6
Continuous
 62
     3
370
     9
100
AcDbCircle
 10
523.6781764674834
 20
283.6775826119089
 30
0.0
 40
5.000000064437454
100
AcDbArc
 50
0.0
 51
90.0
  0
ARC
  5
467
330
1F
100
AcDbEntity
  8
0218_
  6
Continuous
 62
     3
370
     9
100
AcDbCircle
 10
540.6785294816302
 20
283.6775826119089
 30
0.0
 40
5.000000064437454
100
AcDbArc
 50
90.0
 51
180.0
  0
ARC
  5
468
330
1F
100
AcDbEntity
  8
0218_
  6
Continuous
 62
     3
370
     9
100
AcDbCircle
 10
608.6774671399917
 20
283.6775826119089
 30
0.0
 40
5.000000064437454
100
AcDbArc
 50
0.0
 51
90.0
  0
ARC
  5
469
330
1F
100
AcDbEntity
  8
0218_
  6
Continuous
 62
     3
370
     9
100
AcDbCircle
 10
625.6778201541385
 20
283.6775826119089
 30
0.0
 40
5.000000064437454
100
AcDbArc
 50
90.0
 51
180.0
  0
ARC
  5
46A
330
1F
100
AcDbEntity
  8
0235_床
  6
Continuous
 62
     3
370
     9
100
AcDbCircle
 10
-914.4692910684121
 20
914.6345313819679
 30
0.0
 40
1.999999663314304
100
AcDbArc
 50
29.99926757812499
 51
89.75836181640622
  0
ARC
  5
46B
330
1F
100
AcDbEntity
  8
0235_床
  6
Continuous
 62
     3
370
     9
100
AcDbCircle
 10
-914.9692432300463
 20
918.6343961148651
 30
0.0
 40
1.999999663314304
100
AcDbArc
 50
90.0
 51
269.86669921875
  0
ARC
  5
46C
330
1F
100
AcDbEntity
  8
0235_床
  6
Continuous
 62
     3
370
     9
100
AcDbCircle
 10
-930.4691211597338
 20
914.6345313819679
 30
0.0
 40
1.999999663314304
100
AcDbArc
 50
90.27595520019531
 51
150.0004577636719
  0
ARC
  5
46D
330
1F
100
AcDbEntity
  8
0235_床
  6
Continuous
 62
     3
370
     9
100
AcDbCircle
 10
-929.9694164379223
 20
918.6343961148651
 30
0.0
 40
1.999999663314304
100
AcDbArc
 50
270.0
 51
90.0
  0
CIRCLE
  5
46E
330
1F
100
AcDbEntity
  8
0235_床
  6
Continuous
 62
     3
370
     9
100
AcDbCircle
 10
-922.4692679740286
 20
939.6343664220863
 30
0.0
 40
4.249999329850481
  0
ARC
  5
46F
330
1F
100
AcDbEntity
  8
0235_床
  6
Continuous
 62
     3
370
     9
100
AcDbCircle
 10
-914.4692910684121
 20
556.6340183567356
 30
0.0
 40
1.999999663314304
100
AcDbArc
 50
270.2416229248047
 51
330.0007171630859
  0
ARC
  5
470
330
1F
100
AcDbEntity
  8
0235_床
  6
Continuous
 62
     3
370
     9
100
AcDbCircle
 10
-914.9692432300463
 20
552.6340299039273
 30
0.0
 40
1.999999663314304
100
AcDbArc
 50
90.13328552246094
 51
270.0
  0
ARC
  5
471
330
1F
100
AcDbEntity
  8
0235_床
  6
Continuous
 62
     3
370
     9
100
AcDbCircle
 10
-930.4691211597338
 20
556.6340183567356
 30
0.0
 40
1.999999663314304
100
AcDbArc
 50
209.99951171875
 51
269.7240295410156
  0
ARC
  5
472
330
1F
100
AcDbEntity
  8
0235_床
  6
Continuous
 62
     3
370
     9
100
AcDbCircle
 10
-929.9694164379223
 20
552.6340299039273
 30
0.0
 40
1.999999663314304
100
AcDbArc
 50
270.0
 51
90.0
  0
CIRCLE
  5
473
330
1F
100
AcDbEntity
  8
0235_床
  6
Continuous
 62
     3
370
     9
100
AcDbCircle
 10
-922.4692679740286
 20
531.6340595967063
 30
0.0
 40
4.249999329850481
  0
ARC
  5
474
330
1F
100
AcDbEntity
  8
0235_床
  6
Continuous
 62
     3
370
     9
100
AcDbCircle
 10
-754.4691343565245
 20
914.6345313819679
 30
0.0
 40
1.999999663314304
100
AcDbArc
 50
29.99926757812499
 51
89.75836181640622
  0
ARC
  5
475
330
1F
100
AcDbEntity
  8
0235_床
  6
Continuous
 62
     3
370
     9
100
AcDbCircle
 10
-754.96921023807
 20
918.6343961148651
 30
0.0
 40
1.999999663314304
100
AcDbArc
 50
90.0
 51
269.86669921875
  0
ARC
  5
476
330
1F
100
AcDbEntity
  8
0235_床
  6
Continuous
 62
     3
370
     9
100
AcDbCircle
 10
-770.4690881677575
 20
914.6345313819679
 30
0.0
 40
1.999999663314304
100
AcDbArc
 50
90.27595520019531
 51
150.0004577636719
  0
ARC
  5
477
330
1F
100
AcDbEntity
  8
0235_床
  6
Continuous
 62
     3
370
     9
100
AcDbCircle
 10
-769.9692597260346
 20
918.6343961148651
 30
0.0
 40
1.999999663314304
100
AcDbArc
 50
270.0
 51
90.0
  0
CIRCLE
  5
478
330
1F
100
AcDbEntity
  8
0235_床
  6
Continuous
 62
     3
370
     9
100
AcDbCircle
 10
-762.4691112621408
 20
939.6343664220863
 30
0.0
 40
4.249999329850481
  0
ARC
  5
479
330
1F
100
AcDbEntity
  8
0235_床
  6
Continuous
 62
     3
370
     9
100
AcDbCircle
 10
-754.4691343565245
 20
556.6340183567356
 30
0.0
 40
1.999999663314304
100
AcDbArc
 50
270.2416229248047
 51
330.0007171630859
  0
ARC
  5
47A
330
1F
100
AcDbEntity
  8
0235_床
  6
Continuous
 62
     3
370
     9
100
AcDbCircle
 10
-754.96921023807
 20
552.6340299039273
 30
0.0
 40
1.999999663314304
100
AcDbArc
 50
90.13328552246094
 51
270.0
  0
ARC
  5
47B
330
1F
100
AcDbEntity
  8
0235_床
  6
Continuous
 62
     3
370
     9
100
AcDbCircle
 10
-770.4690881677575
 20
556.6340183567356
 30
0.0
 40
1.999999663314304
100
AcDbArc
 50
209.99951171875
 51
269.7240295410156
  0
ARC
  5
47C
330
1F
100
AcDbEntity
  8
0235_床
  6
Continuous
 62
     3
370
     9
100
AcDbCircle
 10
-769.9692597260346
 20
552.6340299039273
 30
0.0
 40
1.999999663314304
100
AcDbArc
 50
270.0
 51
90.0
  0
CIRCLE
  5
47D
330
1F
100
AcDbEntity
  8
0235_床
  6
Continuous
 62
     3
370
     9
100
AcDbCircle
 10
-762.4691112621408
 20
531.6340595967063
 30
0.0
 40
4.249999329850481
  0
ARC
  5
47E
330
1F
100
AcDbEntity
  8
0227_下
  6
Continuous
 62
     2
370
     9
100
AcDbCircle
 10
-980.9348441459036
 20
-351.7128691802154
 30
0.0
 40
15.00000019331236
100
AcDbArc
 50
270.0
 51
0.0
  0
ARC
  5
47F
330
1F
100
AcDbEntity
  8
0234_
  6
Continuous
 62
     4
370
     9
100
AcDbCircle
 10
-925.9260022962416
 20
-383.2113400021115
 30
0.0
 40
15.00000212643598
100
AcDbArc
 50
180.0
 51
270.0
  0
ARC
  5
480
330
1F
100
AcDbEntity
  8
0234_
  6
Continuous
 62
     4
370
     9
100
AcDbCircle
 10
-810.9259940482474
 20
-383.2113400021115
 30
0.0
 40
15.00000212643598
100
AcDbArc
 50
270.0
 51
0.0
  0
TEXT
  5
481
330
1F
100
AcDbEntity
  8
F-5ﾚｲﾔ
  6
Continuous
 62
     7
370
     9
100
AcDbText
 10
-826.3705774255699
 20
-1328.298447331609
 30
0.0
 40
22.86
  1
ステンレス製　細目滑り止め模様付（ローレット模様）グレーチング（すきま9mm）
 41
1.162222222222222
  7
ＭＳ ゴシック
100
AcDbText
  0
TEXT
  5
482
330
1F
100
AcDbEntity
  8
0242_
  6
Continuous
 62
     2
370
     9
100
AcDbText
 10
-1296.826495667762
 20
-1018.324369490375
 30
0.0
 40
30.48
  1
A断面詳細図　Ｓ＝１：２
 50
359.9999377583887
 41
1.114130434782609
  7
ＭＳ ゴシック
100
AcDbText
  0
TEXT
  5
483
330
1F
100
AcDbEntity
  8
0242_
  6
Continuous
 62
     2
370
     9
100
AcDbText
 10
732.3593057168498
 20
521.3456158942146
 30
0.0
 40
30.48
  1
B
 41
0.9999999999999998
  7
ＭＳ ゴシック
100
AcDbText
  0
TEXT
  5
484
330
1F
100
AcDbEntity
  8
0242_
  6
Continuous
 62
     2
370
     9
100
AcDbText
 10
314.8991270323058
 20
519.0560552153717
 30
0.0
 40
30.48
  1
B
 41
0.9999999999999998
  7
ＭＳ ゴシック
100
AcDbText
  0
TEXT
  5
485
330
1F
100
AcDbEntity
  8
0216_
  6
Continuous
 62
     2
370
     9
100
AcDbText
 10
437.1783199825803
 20
354.9423351720862
 30
0.0
 40
30.48
  1
8
 41
0.9999999999999998
  7
ＭＳ ゴシック
100
AcDbText
  0
TEXT
  5
486
330
1F
100
AcDbEntity
  8
0216_
  6
Continuous
 62
     2
370
     9
100
AcDbText
 10
479.6282299144849
 20
354.9423351720862
 30
0.0
 40
30.48
  1
9
 41
0.9999999999999998
  7
ＭＳ ゴシック
100
AcDbText
  0
TEXT
  5
487
330
1F
100
AcDbEntity
  8
0216_
  6
Continuous
 62
     2
370
     9
100
AcDbText
 10
522.0782635663008
 20
354.9423351720862
 30
0.0
 40
30.48
  1
8
 41
0.9999999999999998
  7
ＭＳ ゴシック
100
AcDbText
  0
TEXT
  5
488
330
1F
100
AcDbEntity
  8
0216_
  6
Continuous
 62
     2
370
     9
100
AcDbText
 10
564.5282972181167
 20
354.9423351720862
 30
0.0
 40
30.48
  1
9
 41
0.9999999999999998
  7
ＭＳ ゴシック
100
AcDbText
  0
TEXT
  5
489
330
1F
100
AcDbEntity
  8
0216_
  6
Continuous
 62
     2
370
     9
100
AcDbText
 10
606.9783308699325
 20
354.9423351720862
 30
0.0
 40
30.48
  1
8
 41
0.9999999999999998
  7
ＭＳ ゴシック
100
AcDbText
  0
TEXT
  5
48A
330
1F
100
AcDbEntity
  8
0216_
  6
Continuous
 62
     2
370
     9
100
AcDbText
 10
763.1191562023046
 20
224.3506145589471
 30
0.0
 40
30.48
  1
20
 50
90.00000250447816
 41
1.0625
  7
ＭＳ ゴシック
100
AcDbText
  0
TEXT
  5
48B
330
1F
100
AcDbEntity
  8
0242_
  6
Continuous
 62
     2
370
     9
100
AcDbText
 10
434.8028811892949
 20
34.01931864970443
 30
0.0
 40
30.48
  1
B-B断面図
 41
1.097222222222222
  7
ＭＳ ゴシック
100
AcDbText
  0
TEXT
  5
48C
330
1F
100
AcDbEntity
  8
0242_
  6
Continuous
 62
     2
370
     9
100
AcDbText
 10
592.7991712415544
 20
-127.1643427338471
 30
0.0
 40
30.48
  1
メインバー詳細図　Ｓ＝１：２
 41
1.116071428571428
  7
ＭＳ ゴシック
100
AcDbText
  0
TEXT
  5
48D
330
1F
100
AcDbEntity
  8
0242_
  6
Continuous
 62
     2
370
     9
100
AcDbText
 10
577.9494331978467
 20
494.339662492082
 30
0.0
 40
30.48
  1
C
 41
0.9999999999999998
  7
ＭＳ ゴシック
100
AcDbText
  0
TEXT
  5
48E
330
1F
100
AcDbEntity
  8
0242_
  6
Continuous
 62
     7
370
     9
100
AcDbText
 10
1619.399892446157
 20
373.6719572160052
 30
0.0
 40
22.86
  1
サイドバー
 41
1.133333333333333
  7
ＭＳ ゴシック
100
AcDbText
  0
TEXT
  5
48F
330
1F
100
AcDbEntity
  8
0242_
  6
Continuous
 62
     7
370
     9
100
AcDbText
 10
1354.496014569257
 20
373.6719572160052
 30
0.0
 40
22.86
  1
メインバー
 41
1.133333333333333
  7
ＭＳ ゴシック
100
AcDbText
  0
TEXT
  5
490
330
1F
100
AcDbEntity
  8
0216_
  6
Continuous
 62
     2
370
     9
100
AcDbText
 10
984.7337712468332
 20
377.9766319811023
 30
0.0
 40
30.48
  1
100
 41
1.083333333333333
  7
ＭＳ ゴシック
100
AcDbText
  0
TEXT
  5
491
330
1F
100
AcDbEntity
  8
0242_
  6
Continuous
 62
     7
370
     9
100
AcDbText
 10
692.350010227513
 20
977.5743306587839
 30
0.0
 40
22.86
  1
ローレット模様
 41
1.142857142857143
  7
ＭＳ ゴシック
100
AcDbText
  0
TEXT
  5
492
330
1F
100
AcDbEntity
  8
0216_
  6
Continuous
 62
     2
370
     9
100
AcDbText
 10
468.4283364785685
 20
1118.989246463261
 30
0.0
 40
30.48
  1
17
 41
1.0625
  7
ＭＳ ゴシック
100
AcDbText
  0
TEXT
  5
493
330
1F
100
AcDbEntity
  8
0216_
  6
Continuous
 62
     2
370
     9
100
AcDbText
 10
553.4288643501901
 20
1118.989246463261
 30
0.0
 40
30.48
  1
17
 41
1.0625
  7
ＭＳ ゴシック
100
AcDbText
  0
TEXT
  5
494
330
1F
100
AcDbEntity
  8
0242_
  6
Continuous
 62
     2
370
     9
100
AcDbText
 10
577.9494331978467
 20
1213.261097049198
 30
0.0
 40
30.48
  1
C
 41
0.9999999999999998
  7
ＭＳ ゴシック
100
AcDbText
  0
TEXT
  5
495
330
1F
100
AcDbEntity
  8
0242_
  6
Continuous
 62
     2
370
     9
100
AcDbText
 10
1171.384838207348
 20
34.01931864970443
 30
0.0
 40
30.48
  1
C-C断面図
 41
1.097222222222222
  7
ＭＳ ゴシック
100
AcDbText
  0
TEXT
  5
496
330
1F
100
AcDbEntity
  8
0242_
  6
Continuous
 62
     7
370
     9
100
AcDbText
 10
1302.342875712627
 20
124.2094377507391
 30
0.0
 40
22.86
  1
クロスバー
 41
1.133333333333333
  7
ＭＳ ゴシック
100
AcDbText
  0
TEXT
  5
497
330
1F
100
AcDbEntity
  8
0193_区
  6
Continuous
 62
     2
370
     9
100
AcDbText
 10
-874.9690658981734
 20
1188.756389094173
 30
0.0
 40
30.48
  1
360
 41
1.083333333333333
  7
ＭＳ ゴシック
100
AcDbText
  0
TEXT
  5
498
330
1F
100
AcDbEntity
  8
0193_区
  6
Continuous
 62
     2
370
     9
100
AcDbText
 10
-874.9686328784838
 20
1047.020384290541
 30
0.0
 40
30.48
  1
300
 41
1.083333333333333
  7
ＭＳ ゴシック
100
AcDbText
  0
TEXT
  5
499
330
1F
100
AcDbEntity
  8
0193_区
  6
Continuous
 62
     2
370
     9
100
AcDbText
 10
-874.9690658981734
 20
1117.888386692357
 30
0.0
 40
30.48
  1
350
 41
1.083333333333333
  7
ＭＳ ゴシック
100
AcDbText
  0
TEXT
  5
49A
330
1F
100
AcDbEntity
  8
0193_区
  6
Continuous
 62
     2
370
     9
100
AcDbText
 10
-1053.995687123891
 20
1117.888386692357
 30
0.0
 40
30.48
  1
3
 41
0.9999999999999998
  7
ＭＳ ゴシック
100
AcDbText
  0
TEXT
  5
49B
330
1F
100
AcDbEntity
  8
0193_区
  6
Continuous
 62
     2
370
     9
100
AcDbText
 10
-649.5340172020162
 20
1117.888386692357
 30
0.0
 40
30.48
  1
3
 41
0.9999999999999998
  7
ＭＳ ゴシック
100
AcDbText
  0
TEXT
  5
49C
330
1F
100
AcDbEntity
  8
0193_区
  6
Continuous
 62
     2
370
     9
100
AcDbText
 10
-692.3268787280933
 20
1117.888386692357
 30
0.0
 40
30.48
  1
2
 41
0.9999999999999998
  7
ＭＳ ゴシック
100
AcDbText
  0
TEXT
  5
49D
330
1F
100
AcDbEntity
  8
0193_区
  6
Continuous
 62
     2
370
     9
100
AcDbText
 10
-1010.512654072529
 20
1117.888386692357
 30
0.0
 40
30.48
  1
2
 41
0.9999999999999998
  7
ＭＳ ゴシック
100
AcDbText
  0
TEXT
  5
49E
330
1F
100
AcDbEntity
  8
0193_区
  6
Continuous
 62
     2
370
     9
100
AcDbText
 10
-1125.284720358043
 20
703.1340890429526
 30
0.0
 40
30.48
  1
300
 50
90.00000250447816
 41
1.083333333333334
  7
ＭＳ ゴシック
100
AcDbText
  0
TEXT
  5
49F
330
1F
100
AcDbEntity
  8
0193_区
  6
Continuous
 62
     2
370
     9
100
AcDbText
 10
-1279.481918349492
 20
703.1340890429526
 30
0.0
 40
30.48
  1
360
 50
90.00000250447816
 41
1.083333333333334
  7
ＭＳ ゴシック
100
AcDbText
  0
TEXT
  5
4A0
330
1F
100
AcDbEntity
  8
0193_区
  6
Continuous
 62
     2
370
     9
100
AcDbText
 10
-1202.383319353768
 20
703.1340890429526
 30
0.0
 40
30.48
  1
350
 50
90.00000250447816
 41
1.083333333333334
  7
ＭＳ ゴシック
100
AcDbText
  0
TEXT
  5
4A1
330
1F
100
AcDbEntity
  8
0193_区
  6
Continuous
 62
     2
370
     9
100
AcDbText
 10
-1202.383320337274
 20
886.3810191395531
 30
0.0
 40
30.48
  1
2
 50
90.00000250447816
 41
1.000000000000001
  7
ＭＳ ゴシック
100
AcDbText
  0
TEXT
  5
4A2
330
1F
100
AcDbEntity
  8
0193_区
  6
Continuous
 62
     2
370
     9
100
AcDbText
 10
-1202.383320337274
 20
934.0053906424037
 30
0.0
 40
30.48
  1
3
 50
90.00000250447816
 41
1.000000000000001
  7
ＭＳ ゴシック
100
AcDbText
  0
TEXT
  5
4A3
330
1F
100
AcDbEntity
  8
0193_区
  6
Continuous
 62
     2
370
     9
100
AcDbText
 10
-1202.383320337274
 20
521.9514009227033
 30
0.0
 40
30.48
  1
3
 50
90.00000250447816
 41
1.000000000000001
  7
ＭＳ ゴシック
100
AcDbText
  0
TEXT
  5
4A4
330
1F
100
AcDbEntity
  8
0193_区
  6
Continuous
 62
     2
370
     9
100
AcDbText
 10
-1202.383320337274
 20
564.0540290635396
 30
0.0
 40
30.48
  1
2
 50
90.00000250447816
 41
1.000000000000001
  7
ＭＳ ゴシック
100
AcDbText
  0
TEXT
  5
4A5
330
1F
100
AcDbEntity
  8
0193_区
  6
Continuous
 62
     2
370
     9
100
AcDbText
 10
-1004.969185494088
 20
446.4474373812289
 30
0.0
 40
30.48
  1
100
 41
1.083333333333333
  7
ＭＳ ゴシック
100
AcDbText
  0
TEXT
  5
4A6
330
1F
100
AcDbEntity
  8
0193_区
  6
Continuous
 62
     2
370
     9
100
AcDbText
 10
-874.9691277581292
 20
446.4474373812289
 30
0.0
 40
30.48
  1
160
 41
1.083333333333333
  7
ＭＳ ゴシック
100
AcDbText
  0
TEXT
  5
4A7
330
1F
100
AcDbEntity
  8
0193_区
  6
Continuous
 62
     2
370
     9
100
AcDbText
 10
-744.9690081622148
 20
446.4474373812289
 30
0.0
 40
30.48
  1
100
 41
1.083333333333333
  7
ＭＳ ゴシック
100
AcDbText
  0
TEXT
  5
4A8
330
1F
100
AcDbEntity
  8
0255_
  6
Continuous
 62
     2
370
     9
100
AcDbText
 10
-1092.264653798696
 20
346.6921966057857
 30
0.0
 40
30.48
  1
平面詳細図　Ｓ＝１：１０
 41
1.114583333333333
  7
ＭＳ ゴシック
100
AcDbText
  0
TEXT
  5
4A9
330
1F
100
AcDbEntity
  8
0216_
  6
Continuous
 62
     2
370
     9
100
AcDbText
 10
-1688.374688432024
 20
-117.6541168707771
 30
0.0
 40
30.48
  1
□300
 41
1.1
  7
ＭＳ ゴシック
100
AcDbText
  0
TEXT
  5
4AA
330
1F
100
AcDbEntity
  8
0216_
  6
Continuous
 62
     2
370
     9
100
AcDbText
 10
-1688.374688432024
 20
-8.329017235008322
 30
0.0
 40
30.48
  1
□350
 41
1.1
  7
ＭＳ ゴシック
100
AcDbText
  0
TEXT
  5
4AB
330
1F
100
AcDbEntity
  8
0216_
  6
Continuous
 62
     2
370
     9
100
AcDbText
 10
-1074.68396985853
 20
-122.6542570866766
 30
0.0
 40
30.48
  1
25
 41
1.0625
  7
ＭＳ ゴシック
100
AcDbText
  0
TEXT
  5
4AC
330
1F
100
AcDbEntity
  8
0216_
  6
Continuous
 62
     2
370
     9
100
AcDbText
 10
-983.8025768383129
 20
-801.1560254566089
 30
0.0
 40
30.48
  1
75～80
 41
1.104166666666667
  7
ＭＳ ゴシック
100
AcDbText
  0
TEXT
  5
4AD
330
1F
100
AcDbEntity
  8
0216_
  6
Continuous
 62
     2
370
     9
100
AcDbText
 10
-460.4196684380519
 20
-474.7179868946793
 30
0.0
 40
30.48
  1
55～65
 50
90.00000250447816
 41
1.104166666666666
  7
ＭＳ ゴシック
100
AcDbText
  0
TEXT
  5
4AE
330
1F
100
AcDbEntity
  8
0216_
  6
Continuous
 62
     2
370
     9
100
AcDbText
 10
-952.6336340002113
 20
-13.90272295977603
 30
0.0
 40
30.48
  1
3
 41
0.9999999999999998
  7
ＭＳ ゴシック
100
AcDbText
  0
TEXT
  5
4AF
330
1F
100
AcDbEntity
  8
0216_
  6
Continuous
 62
     2
370
     9
100
AcDbText
 10
-1017.774889146959
 20
-13.90272295977603
 30
0.0
 40
30.48
  1
2
 41
0.9999999999999998
  7
ＭＳ ゴシック
100
AcDbText
  0
TEXT
  5
4B0
330
1F
100
AcDbEntity
  8
0216_
  6
Continuous
 62
     2
370
     9
100
AcDbText
 10
-1062.176227054081
 20
-473.1750354333826
 30
0.0
 40
30.48
  1
30
 41
1.0625
  7
ＭＳ ゴシック
100
AcDbText
  0
TEXT
  5
4B1
330
1F
100
AcDbEntity
  8
0216_
  6
Continuous
 62
     2
370
     9
100
AcDbText
 10
-955.5600058065877
 20
-473.1750354333826
 30
0.0
 40
30.48
  1
34
 41
1.0625
  7
ＭＳ ゴシック
100
AcDbText
  0
TEXT
  5
4B2
330
1F
100
AcDbEntity
  8
0216_
  6
Continuous
 62
     2
370
     9
100
AcDbText
 10
-747.6099577353131
 20
-469.9066308914594
 30
0.0
 40
30.48
  1
6.5
 50
90.00000250447816
 41
1.083333333333333
  7
ＭＳ ゴシック
100
AcDbText
  0
TEXT
  5
4B3
330
1F
100
AcDbEntity
  8
0216_
  6
Continuous
 62
     2
370
     9
100
AcDbText
 10
-751.6099466798743
 20
-330.4628529307594
 30
0.0
 40
30.48
  1
23
 50
90.00000250447816
 41
1.0625
  7
ＭＳ ゴシック
100
AcDbText
  0
TEXT
  5
4B4
330
1F
100
AcDbEntity
  8
0216_
  6
Continuous
 62
     2
370
     9
100
AcDbText
 10
-1107.184856517895
 20
-643.9213799224029
 30
0.0
 40
30.48
  1
25～30
 41
1.104166666666667
  7
ＭＳ ゴシック
100
AcDbText
  0
TEXT
  5
4B5
330
1F
100
AcDbEntity
  8
0242_
  6
Continuous
 62
     7
370
     9
100
AcDbText
 10
-759.6217841071051
 20
-159.7750197292018
 30
0.0
 40
22.86
  1
アンカー
 41
1.125
  7
ＭＳ ゴシック
100
AcDbText
  0
TEXT
  5
4B6
330
1F
100
AcDbEntity
  8
0242_
  6
Continuous
 62
     7
370
     9
100
AcDbText
 10
-663.148745974979
 20
-667.7514073717272
 30
0.0
 40
22.86
  1
差筋φ9程度
 41
1.136363636363636
  7
ＭＳ ゴシック
100
AcDbText
  0
TEXT
  5
4B7
330
1F
100
AcDbEntity
  8
0216_
  6
Continuous
 62
     2
370
     9
100
AcDbText
 10
-1688.374688432024
 20
102.119954075169
 30
0.0
 40
30.48
  1
□360
 41
1.1
  7
ＭＳ ゴシック
100
AcDbText
  0
TEXT
  5
4B8
330
1F
100
AcDbEntity
  8
0216_
  6
Continuous
 62
     2
370
     9
100
AcDbText
 10
-1532.555884377826
 20
-322.9633230664224
 30
0.0
 40
30.48
  1
20
 50
90.00000250447816
 41
1.0625
  7
ＭＳ ゴシック
100
AcDbText
  0
TEXT
  5
4B9
330
1F
100
AcDbEntity
  8
0242_
  6
Continuous
 62
     7
370
     9
100
AcDbText
 10
-783.0340081292229
 20
75.82629203177787
 30
0.0
 40
22.86
  1
ステンレス製　細目滑り止め模様付（ローレット模様）
 41
1.16
  7
ＭＳ ゴシック
100
AcDbText
  0
TEXT
  5
4BA
330
1F
100
AcDbEntity
  8
0242_
  6
Continuous
 62
     7
370
     9
100
AcDbText
 10
-783.0339792612436
 20
39.00996826171875
 30
0.0
 40
22.86
  1
グレーチング（すきま９mm）ＺＱ－２０
 41
1.157407407407407
  7
ＭＳ ゴシック
100
AcDbText
  0
TEXT
  5
4BB
330
1F
100
AcDbEntity
  8
0242_
  6
Continuous
 62
     7
370
     9
100
AcDbText
 10
-771.4582242067364
 20
-53.48575927734034
 30
0.0
 40
22.86
  1
ステンレス製受枠ＲＬ－２０
 50
359.999936989965
 41
1.153846153846154
  7
ＭＳ ゴシック
100
AcDbText
  0
TEXT
  5
4BC
330
1F
100
AcDbEntity
  8
0242_
  6
Continuous
 62
     7
370
     9
100
AcDbText
 10
-759.6217799831079
 20
-199.0929601061021
 30
0.0
 40
22.86
  1
ｔ＝２．０（ＳＥＣＣまたはＳＧＨＣ）
 41
1.157407407407407
  7
ＭＳ ゴシック
100
AcDbText
  0
TEXT
  5
4BD
330
1F
100
AcDbEntity
  8
F-5ﾚｲﾔ
  6
Continuous
 62
     7
370
     9
100
AcDbText
 10
-822.941329543655
 20
-1371.400492648563
 30
0.0
 40
22.86
  1
ＺＱ－２０　３５０×３５０×２０　ステンレス製受枠ＲＬ－２０（四方枠）
 41
1.161904761904762
  7
ＭＳ ゴシック
100
AcDbText
  0
TEXT
  5
4BE
330
1F
100
AcDbEntity
  8
0255_
  6
Continuous
 62
     2
370
     9
100
AcDbText
 10
-809.6029621845968
 20
975.4098149809969
 30
0.0
 40
30.48
  1
A
 41
0.9999999999999998
  7
ＭＳ ゴシック
100
AcDbText
  0
TEXT
  5
4BF
330
1F
100
AcDbEntity
  8
0242_
  6
Continuous
 62
     2
370
     9
100
AcDbText
 10
45.26989911053633
 20
-602.8737733253272
 30
0.0
 40
30.48
  1
材質：メインバー　ＳＵＳ３０４　＠１７
 41
1.118421052631579
  7
ＭＳ ゴシック
100
AcDbText
  0
TEXT
  5
4C0
330
1F
100
AcDbEntity
  8
0242_
  6
Continuous
 62
     2
370
     9
100
AcDbText
 10
181.3273826805322
 20
-664.8330142129433
 30
0.0
 40
30.48
  1
クロスバー　ＳＵＳ３０４　＠１００
 41
1.117647058823529
  7
ＭＳ ゴシック
100
AcDbText
  0
TEXT
  5
4C1
330
1F
100
AcDbEntity
  8
0242_
  6
Continuous
 62
     2
370
     9
100
AcDbText
 10
181.3273331925676
 20
-725.4450071262668
 30
0.0
 40
30.48
  1
サイドバー　ＳＵＳ３０４　
 41
1.115384615384615
  7
ＭＳ ゴシック
100
AcDbText
  0
TEXT
  5
4C2
330
1F
100
AcDbEntity
  8
0242_
  6
Continuous
 62
     2
370
     9
100
AcDbText
 10
-65.50873627533775
 20
-389.5289931508656
 30
0.0
 40
30.48
  1
仕　様
 41
1.083333333333333
  7
ＭＳ ゴシック
100
AcDbText
  0
TEXT
  5
4C3
330
1F
100
AcDbEntity
  8
0242_
  6
Continuous
 62
     2
370
     9
100
AcDbText
 10
-14.44183349609347
 20
-473.5676605719489
 30
0.0
 40
30.48
  1
ステンレス製　細目滑り止め模様付（ローレット模様）
 41
1.12
  7
ＭＳ ゴシック
100
AcDbText
  0
TEXT
  5
4C4
330
1F
100
AcDbEntity
  8
0242_
  6
Continuous
 62
     2
370
     9
100
AcDbText
 10
-14.44190772804035
 20
-536.5270532226563
 30
0.0
 40
30.48
  1
グレーチング（すきま９mm）ＺＱ－２０　３５０×３５０×２０
 41
1.120689655172413
  7
ＭＳ ゴシック
100
AcDbText
  0
TEXT
  5
4C5
330
1F
100
AcDbEntity
  8
0242_
  6
Continuous
 62
     2
370
     9
100
AcDbText
 10
-14.44190772804035
 20
-799.984336036476
 30
0.0
 40
30.48
  1
ステンレス製受枠　ＲＬ－２０（四方枠）
 41
1.118421052631579
  7
ＭＳ ゴシック
100
AcDbText
  0
TEXT
  5
4C6
330
1F
100
AcDbEntity
  8
0242_
  6
Continuous
 62
     2
370
     9
100
AcDbText
 10
45.26994859850092
 20
-854.9853216717694
 30
0.0
 40
30.48
  1
材質：ステンレス鋼板ｔ＝３．０（ＳＵＳ３０４）
 41
1.119565217391304
  7
ＭＳ ゴシック
100
AcDbText
  0
TEXT
  5
4C7
330
1F
100
AcDbEntity
  8
0242_
  6
Continuous
 62
     2
370
     9
100
AcDbText
 10
45.26994859850092
 20
-964.9844164544182
 30
0.0
 40
30.48
  1
施工場所の状況に合わせて、アンカーをプライヤー等で折り曲げてご使用ください。
 41
1.121710526315789
  7
ＭＳ ゴシック
100
AcDbText
  0
LWPOLYLINE
  5
4C8
330
1F
100
AcDbEntity
  8
0216_
  6
Continuous
 62
     7
370
     9
100
AcDbPolyline
 90
        4
 70
     1
 43
1.0
 10
427.6786251583617
 20
343.3022906329182
 42
0.4142135623731
 10
427.1786251583617
 20
343.8022906329182
 42
0.4142135623731
 10
426.6786251583618
 20
343.3022906329182
 42
0.4142135623731
 10
427.1786251583617
 20
342.8022906329182
 42
0.4142135623731
  0
LWPOLYLINE
  5
4C9
330
1F
100
AcDbEntity
  8
0216_
  6
Continuous
 62
     7
370
     9
100
AcDbPolyline
 90
        4
 70
     1
 43
1.0
 10
467.678014806799
 20
343.3022906329182
 42
0.4142135623731
 10
467.178014806799
 20
343.8022906329182
 42
0.4142135623731
 10
466.678014806799
 20
343.3022906329182
 42
0.4142135623731
 10
467.178014806799
 20
342.8022906329182
 42
0.4142135623731
  0
LWPOLYLINE
  5
4CA
330
1F
100
AcDbEntity
  8
0216_
  6
Continuous
 62
     7
370
     9
100
AcDbPolyline
 90
        4
 70
     1
 43
1.0
 10
512.5784450221709
 20
343.3022906329182
 42
0.4142135623731
 10
512.0784450221709
 20
343.8022906329182
 42
0.4142135623731
 10
511.5784450221709
 20
343.3022906329182
 42
0.4142135623731
 10
512.0784450221709
 20
342.8022906329182
 42
0.4142135623731
  0
LWPOLYLINE
  5
4CB
330
1F
100
AcDbEntity
  8
0216_
  6
Continuous
 62
     7
370
     9
100
AcDbPolyline
 90
        4
 70
     1
 43
1.0
 10
552.5780821104307
 20
343.3022906329182
 42
0.4142135623731
 10
552.0780821104307
 20
343.8022906329182
 42
0.4142135623731
 10
551.5780821104307
 20
343.3022906329182
 42
0.4142135623731
 10
552.0780821104307
 20
342.8022906329182
 42
0.4142135623731
  0
LWPOLYLINE
  5
4CC
330
1F
100
AcDbEntity
  8
0216_
  6
Continuous
 62
     7
370
     9
100
AcDbPolyline
 90
        4
 70
     1
 43
1.0
 10
597.4785123258026
 20
343.3022906329182
 42
0.4142135623731
 10
596.9785123258026
 20
343.8022906329182
 42
0.4142135623731
 10
596.4785123258026
 20
343.3022906329182
 42
0.4142135623731
 10
596.9785123258026
 20
342.8022906329182
 42
0.4142135623731
  0
LWPOLYLINE
  5
4CD
330
1F
100
AcDbEntity
  8
0216_
  6
Continuous
 62
     7
370
     9
100
AcDbPolyline
 90
        4
 70
     1
 43
1.0
 10
637.4781494140625
 20
343.3022906329182
 42
0.4142135623731
 10
636.9781494140625
 20
343.8022906329182
 42
0.4142135623731
 10
636.4781494140625
 20
343.3022906329182
 42
0.4142135623731
 10
636.9781494140625
 20
342.8022906329182
 42
0.4142135623731
  0
LWPOLYLINE
  5
4CE
330
1F
100
AcDbEntity
  8
0216_
  6
Continuous
 62
     7
370
     9
100
AcDbPolyline
 90
        4
 70
     1
 43
1.0
 10
779.2589408255911
 20
295.6776716902451
 42
0.4142135623731
 10
778.7589408255911
 20
296.1776716902451
 42
0.4142135623731
 10
778.2589408255911
 20
295.6776716902451
 42
0.4142135623731
 10
778.7589408255911
 20
295.1776716902451
 42
0.4142135623731
  0
LWPOLYLINE
  5
4CF
330
1F
100
AcDbEntity
  8
0216_
  6
Continuous
 62
     7
370
     9
100
AcDbPolyline
 90
        4
 70
     1
 43
1.0
 10
779.2589408255911
 20
195.5235579207138
 42
0.4142135623731
 10
778.7589408255911
 20
196.0235579207138
 42
0.4142135623731
 10
778.2589408255911
 20
195.5235579207138
 42
0.4142135623731
 10
778.7589408255911
 20
195.0235579207138
 42
0.4142135623731
  0
LWPOLYLINE
  5
4D0
330
1F
100
AcDbEntity
  8
0216_
  6
Continuous
 62
     7
370
     9
100
AcDbPolyline
 90
        4
 70
     1
 43
1.0
 10
1175.98168285473
 20
366.3365874419341
 42
0.4142135623731
 10
1175.48168285473
 20
366.8365874419341
 42
0.4142135623731
 10
1174.98168285473
 20
366.3365874419341
 42
0.4142135623731
 10
1175.48168285473
 20
365.8365874419342
 42
0.4142135623731
  0
LWPOLYLINE
  5
4D1
330
1F
100
AcDbEntity
  8
0216_
  6
Continuous
 62
     7
370
     9
100
AcDbPolyline
 90
        4
 70
     1
 43
1.0
 10
447.6784437024917
 20
1103.349213471284
 42
0.4142135623731
 10
447.1784437024917
 20
1103.849213471284
 42
0.4142135623731
 10
446.6784437024917
 20
1103.349213471284
 42
0.4142135623731
 10
447.1784437024917
 20
1102.849213471284
 42
0.4142135623731
  0
LWPOLYLINE
  5
4D2
330
1F
100
AcDbEntity
  8
0216_
  6
Continuous
 62
     7
370
     9
100
AcDbPolyline
 90
        4
 70
     1
 43
1.0
 10
532.6782292546453
 20
1103.349213471284
 42
0.4142135623731
 10
532.1782292546453
 20
1103.849213471284
 42
0.4142135623731
 10
531.6782292546453
 20
1103.349213471284
 42
0.4142135623731
 10
532.1782292546453
 20
1102.849213471284
 42
0.4142135623731
  0
LWPOLYLINE
  5
4D3
330
1F
100
AcDbEntity
  8
0216_
  6
Continuous
 62
     7
370
     9
100
AcDbPolyline
 90
        4
 70
     1
 43
1.0
 10
617.6792520059125
 20
1103.349213471284
 42
0.4142135623731
 10
617.1792520059125
 20
1103.849213471284
 42
0.4142135623731
 10
616.6792520059125
 20
1103.349213471284
 42
0.4142135623731
 10
617.1792520059125
 20
1102.849213471284
 42
0.4142135623731
  0
LWPOLYLINE
  5
4D4
330
1F
100
AcDbEntity
  8
0193_区
  6
Continuous
 62
     7
370
     9
100
AcDbPolyline
 90
        4
 70
     1
 43
1.0
 10
-1021.969226734058
 20
1177.116220835093
 42
0.4142135623731
 10
-1022.469226734058
 20
1177.616220835093
 42
0.4142135623731
 10
-1022.969226734058
 20
1177.116220835093
 42
0.4142135623731
 10
-1022.469226734058
 20
1176.616220835093
 42
0.4142135623731
  0
LWPOLYLINE
  5
4D5
330
1F
100
AcDbEntity
  8
0193_区
  6
Continuous
 62
     7
370
     9
100
AcDbPolyline
 90
        4
 70
     1
 43
1.0
 10
-661.9689050622889
 20
1177.116220835093
 42
0.4142135623731
 10
-662.4689050622887
 20
1177.616220835093
 42
0.4142135623731
 10
-662.9689050622887
 20
1177.116220835093
 42
0.4142135623731
 10
-662.4689050622887
 20
1176.616220835093
 42
0.4142135623731
  0
LWPOLYLINE
  5
4D6
330
1F
100
AcDbEntity
  8
0193_区
  6
Continuous
 62
     7
370
     9
100
AcDbPolyline
 90
        4
 70
     1
 43
1.0
 10
-991.9687565983952
 20
1035.380463471284
 42
0.4142135623731
 10
-992.4687565983952
 20
1035.880463471284
 42
0.4142135623731
 10
-992.9687565983952
 20
1035.380463471284
 42
0.4142135623731
 10
-992.4687565983952
 20
1034.880463471284
 42
0.4142135623731
  0
LWPOLYLINE
  5
4D7
330
1F
100
AcDbEntity
  8
0193_区
  6
Continuous
 62
     7
370
     9
100
AcDbPolyline
 90
        4
 70
     1
 43
1.0
 10
-691.9685091585727
 20
1035.380463471284
 42
0.4142135623731
 10
-692.4685091585727
 20
1035.880463471284
 42
0.4142135623731
 10
-692.9685091585726
 20
1035.380463471284
 42
0.4142135623731
 10
-692.4685091585727
 20
1034.880463471284
 42
0.4142135623731
  0
LWPOLYLINE
  5
4D8
330
1F
100
AcDbEntity
  8
0193_区
  6
Continuous
 62
     7
370
     9
100
AcDbPolyline
 90
        4
 70
     1
 43
1.0
 10
-1021.969226734058
 20
1106.2484658731
 42
0.4142135623731
 10
-1022.469226734058
 20
1106.7484658731
 42
0.4142135623731
 10
-1022.969226734058
 20
1106.2484658731
 42
0.4142135623731
 10
-1022.469226734058
 20
1105.7484658731
 42
0.4142135623731
  0
LWPOLYLINE
  5
4D9
330
1F
100
AcDbEntity
  8
0193_区
  6
Continuous
 62
     7
370
     9
100
AcDbPolyline
 90
        4
 70
     1
 43
1.0
 10
-1018.96926632443
 20
1106.2484658731
 42
0.4142135623731
 10
-1019.46926632443
 20
1106.7484658731
 42
0.4142135623731
 10
-1019.96926632443
 20
1106.2484658731
 42
0.4142135623731
 10
-1019.46926632443
 20
1105.7484658731
 42
0.4142135623731
  0
LWPOLYLINE
  5
4DA
330
1F
100
AcDbEntity
  8
0193_区
  6
Continuous
 62
     7
370
     9
100
AcDbPolyline
 90
        4
 70
     1
 43
1.0
 10
-1016.96921023807
 20
1106.2484658731
 42
0.4142135623731
 10
-1017.46921023807
 20
1106.7484658731
 42
0.4142135623731
 10
-1017.96921023807
 20
1106.2484658731
 42
0.4142135623731
 10
-1017.46921023807
 20
1105.7484658731
 42
0.4142135623731
  0
LWPOLYLINE
  5
4DB
330
1F
100
AcDbEntity
  8
0193_区
  6
Continuous
 62
     7
370
     9
100
AcDbPolyline
 90
        4
 70
     1
 43
1.0
 10
-666.9689215582771
 20
1106.2484658731
 42
0.4142135623731
 10
-667.4689215582771
 20
1106.7484658731
 42
0.4142135623731
 10
-667.9689215582771
 20
1106.2484658731
 42
0.4142135623731
 10
-667.4689215582771
 20
1105.7484658731
 42
0.4142135623731
  0
LWPOLYLINE
  5
4DC
330
1F
100
AcDbEntity
  8
0193_区
  6
Continuous
 62
     7
370
     9
100
AcDbPolyline
 90
        4
 70
     1
 43
1.0
 10
-664.9688654719172
 20
1106.2484658731
 42
0.4142135623731
 10
-665.4688654719172
 20
1106.7484658731
 42
0.4142135623731
 10
-665.9688654719172
 20
1106.2484658731
 42
0.4142135623731
 10
-665.4688654719172
 20
1105.7484658731
 42
0.4142135623731
  0
LWPOLYLINE
  5
4DD
330
1F
100
AcDbEntity
  8
0193_区
  6
Continuous
 62
     7
370
     9
100
AcDbPolyline
 90
        4
 70
     1
 43
1.0
 10
-661.9689050622889
 20
1106.2484658731
 42
0.4142135623731
 10
-662.4689050622887
 20
1106.7484658731
 42
0.4142135623731
 10
-662.9689050622887
 20
1106.2484658731
 42
0.4142135623731
 10
-662.4689050622887
 20
1105.7484658731
 42
0.4142135623731
  0
LWPOLYLINE
  5
4DE
330
1F
100
AcDbEntity
  8
0193_区
  6
Continuous
 62
     7
370
     9
100
AcDbPolyline
 90
        4
 70
     1
 43
1.0
 10
-1113.144739099451
 20
885.6343367293075
 42
0.4142135623731
 10
-1113.644739099451
 20
886.1343367293075
 42
0.4142135623731
 10
-1114.144739099451
 20
885.6343367293075
 42
0.4142135623731
 10
-1113.644739099451
 20
885.1343367293076
 42
0.4142135623731
  0
LWPOLYLINE
  5
4DF
330
1F
100
AcDbEntity
  8
0193_区
  6
Continuous
 62
     7
370
     9
100
AcDbPolyline
 90
        4
 70
     1
 43
1.0
 10
-1113.144739099451
 20
585.6338418496623
 42
0.4142135623731
 10
-1113.644739099451
 20
586.1338418496622
 42
0.4142135623731
 10
-1114.144739099451
 20
585.6338418496623
 42
0.4142135623731
 10
-1113.644739099451
 20
585.1338418496623
 42
0.4142135623731
  0
LWPOLYLINE
  5
4E0
330
1F
100
AcDbEntity
  8
0193_区
  6
Continuous
 62
     7
370
     9
100
AcDbPolyline
 90
        4
 70
     1
 43
1.0
 10
-1267.341875230944
 20
915.6339408255915
 42
0.4142135623731
 10
-1267.841875230944
 20
916.1339408255914
 42
0.4142135623731
 10
-1268.341875230944
 20
915.6339408255915
 42
0.4142135623731
 10
-1267.841875230944
 20
915.1339408255915
 42
0.4142135623731
  0
LWPOLYLINE
  5
4E1
330
1F
100
AcDbEntity
  8
0193_区
  6
Continuous
 62
     7
370
     9
100
AcDbPolyline
 90
        4
 70
     1
 43
1.0
 10
-1267.341875230944
 20
555.6342377533783
 42
0.4142135623731
 10
-1267.841875230944
 20
556.1342377533783
 42
0.4142135623731
 10
-1268.341875230944
 20
555.6342377533783
 42
0.4142135623731
 10
-1267.841875230944
 20
555.1342377533784
 42
0.4142135623731
  0
LWPOLYLINE
  5
4E2
330
1F
100
AcDbEntity
  8
0193_区
  6
Continuous
 62
     7
370
     9
100
AcDbPolyline
 90
        4
 70
     1
 43
1.0
 10
-1190.243338095175
 20
915.6339408255915
 42
0.4142135623731
 10
-1190.743338095175
 20
916.1339408255914
 42
0.4142135623731
 10
-1191.243338095175
 20
915.6339408255915
 42
0.4142135623731
 10
-1190.743338095175
 20
915.1339408255915
 42
0.4142135623731
  0
LWPOLYLINE
  5
4E3
330
1F
100
AcDbEntity
  8
0193_区
  6
Continuous
 62
     7
370
     9
100
AcDbPolyline
 90
        4
 70
     1
 43
1.0
 10
-1190.243338095175
 20
912.633980415963
 42
0.4142135623731
 10
-1190.743338095175
 20
913.133980415963
 42
0.4142135623731
 10
-1191.243338095175
 20
912.633980415963
 42
0.4142135623731
 10
-1190.743338095175
 20
912.133980415963
 42
0.4142135623731
  0
LWPOLYLINE
  5
4E4
330
1F
100
AcDbEntity
  8
0193_区
  6
Continuous
 62
     7
370
     9
100
AcDbPolyline
 90
        4
 70
     1
 43
1.0
 10
-1190.243338095175
 20
910.6341717694258
 42
0.4142135623731
 10
-1190.743338095175
 20
911.1341717694257
 42
0.4142135623731
 10
-1191.243338095175
 20
910.6341717694258
 42
0.4142135623731
 10
-1190.743338095175
 20
910.1341717694258
 42
0.4142135623731
  0
LWPOLYLINE
  5
4E5
330
1F
100
AcDbEntity
  8
0193_区
  6
Continuous
 62
     7
370
     9
100
AcDbPolyline
 90
        4
 70
     1
 43
1.0
 10
-1190.243338095175
 20
560.6342542493667
 42
0.4142135623731
 10
-1190.743338095175
 20
561.1342542493667
 42
0.4142135623731
 10
-1191.243338095175
 20
560.6342542493667
 42
0.4142135623731
 10
-1190.743338095175
 20
560.1342542493667
 42
0.4142135623731
  0
LWPOLYLINE
  5
4E6
330
1F
100
AcDbEntity
  8
0193_区
  6
Continuous
 62
     7
370
     9
100
AcDbPolyline
 90
        4
 70
     1
 43
1.0
 10
-1190.243338095175
 20
558.6343218829182
 42
0.4142135623731
 10
-1190.743338095175
 20
559.1343218829182
 42
0.4142135623731
 10
-1191.243338095175
 20
558.6343218829182
 42
0.4142135623731
 10
-1190.743338095175
 20
558.1343218829182
 42
0.4142135623731
  0
LWPOLYLINE
  5
4E7
330
1F
100
AcDbEntity
  8
0193_区
  6
Continuous
 62
     7
370
     9
100
AcDbPolyline
 90
        4
 70
     1
 43
1.0
 10
-1190.243338095175
 20
555.6342377533783
 42
0.4142135623731
 10
-1190.743338095175
 20
556.1342377533783
 42
0.4142135623731
 10
-1191.243338095175
 20
555.6342377533783
 42
0.4142135623731
 10
-1190.743338095175
 20
555.1342377533784
 42
0.4142135623731
  0
LWPOLYLINE
  5
4E8
330
1F
100
AcDbEntity
  8
0193_区
  6
Continuous
 62
     7
370
     9
100
AcDbPolyline
 90
        4
 70
     1
 43
1.0
 10
-1021.969226734058
 20
434.8073928420609
 42
0.4142135623731
 10
-1022.469226734058
 20
435.3073928420609
 42
0.4142135623731
 10
-1022.969226734058
 20
434.8073928420609
 42
0.4142135623731
 10
-1022.469226734058
 20
434.3073928420609
 42
0.4142135623731
  0
LWPOLYLINE
  5
4E9
330
1F
100
AcDbEntity
  8
0193_区
  6
Continuous
 62
     7
370
     9
100
AcDbPolyline
 90
        4
 70
     1
 43
1.0
 10
-921.9691442541173
 20
434.8073928420609
 42
0.4142135623731
 10
-922.4691442541173
 20
435.3073928420609
 42
0.4142135623731
 10
-922.9691442541173
 20
434.8073928420609
 42
0.4142135623731
 10
-922.4691442541173
 20
434.3073928420609
 42
0.4142135623731
  0
LWPOLYLINE
  5
4EA
330
1F
100
AcDbEntity
  8
0193_区
  6
Continuous
 62
     7
370
     9
100
AcDbPolyline
 90
        4
 70
     1
 43
1.0
 10
-761.9691112621409
 20
434.8073928420609
 42
0.4142135623731
 10
-762.4691112621408
 20
435.3073928420609
 42
0.4142135623731
 10
-762.9691112621408
 20
434.8073928420609
 42
0.4142135623731
 10
-762.4691112621408
 20
434.3073928420609
 42
0.4142135623731
  0
LWPOLYLINE
  5
4EB
330
1F
100
AcDbEntity
  8
0193_区
  6
Continuous
 62
     7
370
     9
100
AcDbPolyline
 90
        4
 70
     1
 43
1.0
 10
-661.9689050622889
 20
434.8073928420609
 42
0.4142135623731
 10
-662.4689050622887
 20
435.3073928420609
 42
0.4142135623731
 10
-662.9689050622887
 20
434.8073928420609
 42
0.4142135623731
 10
-662.4689050622887
 20
434.3073928420609
 42
0.4142135623731
  0
LWPOLYLINE
  5
4EC
330
1F
100
AcDbEntity
  8
0216_
  6
Continuous
 62
     7
370
     9
100
AcDbPolyline
 90
        4
 70
     1
 43
1.0
 10
-980.4338543866131
 20
-24.54212085620782
 42
0.4142135623731
 10
-980.9338543866131
 20
-24.04212085620782
 42
0.4142135623731
 10
-981.4338543866131
 20
-24.54212085620782
 42
0.4142135623731
 10
-980.9338543866131
 20
-25.04212085620782
 42
0.4142135623731
  0
LWPOLYLINE
  5
4ED
330
1F
100
AcDbEntity
  8
0216_
  6
Continuous
 62
     7
370
     9
100
AcDbPolyline
 90
        4
 70
     1
 43
1.0
 10
-1115.434732797984
 20
-133.294397302576
 42
0.4142135623731
 10
-1115.934732797984
 20
-132.794397302576
 42
0.4142135623731
 10
-1116.434732797984
 20
-133.294397302576
 42
0.4142135623731
 10
-1115.934732797984
 20
-133.794397302576
 42
0.4142135623731
  0
LWPOLYLINE
  5
4EE
330
1F
100
AcDbEntity
  8
0216_
  6
Continuous
 62
     7
370
     9
100
AcDbPolyline
 90
        4
 70
     1
 43
1.0
 10
-990.4338873785895
 20
-133.294397302576
 42
0.4142135623731
 10
-990.9338873785895
 20
-132.794397302576
 42
0.4142135623731
 10
-991.4338873785894
 20
-133.294397302576
 42
0.4142135623731
 10
-990.9338873785895
 20
-133.794397302576
 42
0.4142135623731
  0
LWPOLYLINE
  5
4EF
330
1F
100
AcDbEntity
  8
0216_
  6
Continuous
 62
     7
370
     9
100
AcDbPolyline
 90
        4
 70
     1
 43
1.0
 10
-990.4338873785895
 20
-24.54212085620782
 42
0.4142135623731
 10
-990.9338873785895
 20
-24.04212085620782
 42
0.4142135623731
 10
-991.4338873785894
 20
-24.54212085620782
 42
0.4142135623731
 10
-990.9338873785895
 20
-25.04212085620782
 42
0.4142135623731
  0
LWPOLYLINE
  5
4F0
330
1F
100
AcDbEntity
  8
0216_
  6
Continuous
 62
     7
370
     9
100
AcDbPolyline
 90
        4
 70
     1
 43
1.0
 10
-965.4350420977618
 20
-24.54212085620782
 42
0.4142135623731
 10
-965.9350420977617
 20
-24.04212085620782
 42
0.4142135623731
 10
-966.4350420977617
 20
-24.54212085620782
 42
0.4142135623731
 10
-965.9350420977617
 20
-25.04212085620782
 42
0.4142135623731
  0
LWPOLYLINE
  5
4F1
330
1F
100
AcDbEntity
  8
0216_
  6
Continuous
 62
     7
370
     9
100
AcDbPolyline
 90
        4
 70
     1
 43
1.0
 10
-965.4350420977618
 20
86.15367167704818
 42
0.4142135623731
 10
-965.9350420977617
 20
86.65367167704818
 42
0.4142135623731
 10
-966.4350420977617
 20
86.15367167704818
 42
0.4142135623731
 10
-965.9350420977617
 20
85.65367167704818
 42
0.4142135623731
  0
LWPOLYLINE
  5
4F2
330
1F
100
AcDbEntity
  8
0216_
  6
Continuous
 62
     7
370
     9
100
AcDbPolyline
 90
        4
 70
     1
 43
1.0
 10
-1115.435227677629
 20
-656.46841513144
 42
0.4142135623731
 10
-1115.935227677629
 20
-655.96841513144
 42
0.4142135623731
 10
-1116.435227677629
 20
-656.46841513144
 42
0.4142135623731
 10
-1115.935227677629
 20
-656.96841513144
 42
0.4142135623731
  0
LWPOLYLINE
  5
4F3
330
1F
100
AcDbEntity
  8
0216_
  6
Continuous
 62
     7
370
     9
100
AcDbPolyline
 90
        4
 70
     1
 43
1.0
 10
-965.4345472181166
 20
-656.46841513144
 42
0.4142135623731
 10
-965.9345472181166
 20
-655.96841513144
 42
0.4142135623731
 10
-966.4345472181164
 20
-656.46841513144
 42
0.4142135623731
 10
-965.9345472181166
 20
-656.96841513144
 42
0.4142135623731
  0
LWPOLYLINE
  5
4F4
330
1F
100
AcDbEntity
  8
0216_
  6
Continuous
 62
     7
370
     9
100
AcDbPolyline
 90
        4
 70
     1
 43
1.0
 10
-1115.435227677629
 20
-810.0653241131756
 42
0.4142135623731
 10
-1115.935227677629
 20
-809.5653241131756
 42
0.4142135623731
 10
-1116.435227677629
 20
-810.0653241131756
 42
0.4142135623731
 10
-1115.935227677629
 20
-810.5653241131756
 42
0.4142135623731
  0
LWPOLYLINE
  5
4F5
330
1F
100
AcDbEntity
  8
0216_
  6
Continuous
 62
     7
370
     9
100
AcDbPolyline
 90
        4
 70
     1
 43
1.0
 10
-715.4348358979097
 20
-810.0653241131756
 42
0.4142135623731
 10
-715.9348358979096
 20
-809.5653241131756
 42
0.4142135623731
 10
-716.4348358979096
 20
-810.0653241131756
 42
0.4142135623731
 10
-715.9348358979096
 20
-810.5653241131756
 42
0.4142135623731
  0
LWPOLYLINE
  5
4F6
330
1F
100
AcDbEntity
  8
0216_
  6
Continuous
 62
     7
370
     9
100
AcDbPolyline
 90
        4
 70
     1
 43
1.0
 10
-446.6722577069255
 20
-251.713405299831
 42
0.4142135623731
 10
-447.1722577069255
 20
-251.213405299831
 42
0.4142135623731
 10
-447.6722577069255
 20
-251.713405299831
 42
0.4142135623731
 10
-447.1722577069255
 20
-252.213405299831
 42
0.4142135623731
  0
LWPOLYLINE
  5
4F7
330
1F
100
AcDbEntity
  8
0216_
  6
Continuous
 62
     7
370
     9
100
AcDbPolyline
 90
        4
 70
     1
 43
1.0
 10
-446.6722577069255
 20
-576.7132403399492
 42
0.4142135623731
 10
-447.1722577069255
 20
-576.2132403399493
 42
0.4142135623731
 10
-447.6722577069255
 20
-576.7132403399492
 42
0.4142135623731
 10
-447.1722577069255
 20
-577.2132403399492
 42
0.4142135623731
  0
LWPOLYLINE
  5
4F8
330
1F
100
AcDbEntity
  8
0216_
  6
Continuous
 62
     7
370
     9
100
AcDbPolyline
 90
        4
 70
     1
 43
1.0
 10
-1115.426257984058
 20
-484.8150181125949
 42
0.4142135623731
 10
-1115.926257984058
 20
-484.3150181125949
 42
0.4142135623731
 10
-1116.426257984058
 20
-484.8150181125949
 42
0.4142135623731
 10
-1115.926257984058
 20
-485.3150181125949
 42
0.4142135623731
  0
LWPOLYLINE
  5
4F9
330
1F
100
AcDbEntity
  8
0216_
  6
Continuous
 62
     7
370
     9
100
AcDbPolyline
 90
        4
 70
     1
 43
1.0
 10
-965.4261342641469
 20
-484.8150181125949
 42
0.4142135623731
 10
-965.9261342641469
 20
-484.3150181125949
 42
0.4142135623731
 10
-966.4261342641469
 20
-484.8150181125949
 42
0.4142135623731
 10
-965.9261342641469
 20
-485.3150181125949
 42
0.4142135623731
  0
LWPOLYLINE
  5
4FA
330
1F
100
AcDbEntity
  8
0216_
  6
Continuous
 62
     7
370
     9
100
AcDbPolyline
 90
        4
 70
     1
 43
1.0
 10
-795.4259445602828
 20
-484.8150181125949
 42
0.4142135623731
 10
-795.9259445602828
 20
-484.3150181125949
 42
0.4142135623731
 10
-796.4259445602828
 20
-484.8150181125949
 42
0.4142135623731
 10
-795.9259445602828
 20
-485.3150181125949
 42
0.4142135623731
  0
LWPOLYLINE
  5
4FB
330
1F
100
AcDbEntity
  8
0216_
  6
Continuous
 62
     7
370
     9
100
AcDbPolyline
 90
        4
 70
     1
 43
1.0
 10
-735.4699146167651
 20
-398.2113894900759
 42
0.4142135623731
 10
-735.9699146167651
 20
-397.7113894900759
 42
0.4142135623731
 10
-736.4699146167651
 20
-398.2113894900759
 42
0.4142135623731
 10
-735.9699146167651
 20
-398.7113894900759
 42
0.4142135623731
  0
LWPOLYLINE
  5
4FC
330
1F
100
AcDbEntity
  8
0216_
  6
Continuous
 62
     7
370
     9
100
AcDbPolyline
 90
        4
 70
     1
 43
1.0
 10
-735.4699146167651
 20
-366.7123000686233
 42
0.4142135623731
 10
-735.9699146167651
 20
-366.2123000686233
 42
0.4142135623731
 10
-736.4699146167651
 20
-366.7123000686233
 42
0.4142135623731
 10
-735.9699146167651
 20
-367.2123000686233
 42
0.4142135623731
  0
LWPOLYLINE
  5
4FD
330
1F
100
AcDbEntity
  8
0216_
  6
Continuous
 62
     7
370
     9
100
AcDbPolyline
 90
        4
 70
     1
 43
1.0
 10
-735.4699146167651
 20
-251.713405299831
 42
0.4142135623731
 10
-735.9699146167651
 20
-251.213405299831
 42
0.4142135623731
 10
-736.4699146167651
 20
-251.713405299831
 42
0.4142135623731
 10
-735.9699146167651
 20
-252.213405299831
 42
0.4142135623731
  0
LWPOLYLINE
  5
4FE
330
1F
100
AcDbEntity
  8
0216_
  6
Continuous
 62
     7
370
     9
100
AcDbPolyline
 90
        4
 70
     1
 43
1.0
 10
-1516.415852314717
 20
-251.7131578600083
 42
0.4142135623731
 10
-1516.915852314717
 20
-251.2131578600083
 42
0.4142135623731
 10
-1517.415852314717
 20
-251.7131578600083
 42
0.4142135623731
 10
-1516.915852314717
 20
-252.2131578600083
 42
0.4142135623731
  0
LWPOLYLINE
  5
4FF
330
1F
100
AcDbEntity
  8
0216_
  6
Continuous
 62
     7
370
     9
100
AcDbPolyline
 90
        4
 70
     1
 43
1.0
 10
-1516.415852314717
 20
-351.7133640598605
 42
0.4142135623731
 10
-1516.915852314717
 20
-351.2133640598606
 42
0.4142135623731
 10
-1517.415852314717
 20
-351.7133640598605
 42
0.4142135623731
 10
-1516.915852314717
 20
-352.2133640598605
 42
0.4142135623731
  0
ENDSEC
  0
SECTION
  2
OBJECTS
  0
DICTIONARY
  5
C
330
0
100
AcDbDictionary
281
     1
  3
ACAD_GROUP
350
D
  3
ACAD_LAYOUT
350
1A
  3
ACAD_MLEADERSTYLE
350
501
  3
ACAD_MLINESTYLE
350
17
  3
ACAD_PLOTSETTINGS
350
19
  3
ACAD_PLOTSTYLENAME
350
E
  3
ACAD_TABLESTYLE
350
500
  3
ACAD_VISUALSTYLE
350
2A
  0
DICTIONARY
  5
D
102
{ACAD_REACTORS
330
C
102
}
330
C
100
AcDbDictionary
281
     1
  0
DICTIONARY
  5
1A
102
{ACAD_REACTORS
330
C
102
}
330
C
100
AcDbDictionary
281
     1
  3
Layout1
350
1E
  3
Layout2
350
26
  3
Model
350
22
  0
DICTIONARY
  5
501
102
{ACAD_REACTORS
330
C
102
}
330
C
100
AcDbDictionary
281
     1
  0
DICTIONARY
  5
17
102
{ACAD_REACTORS
330
C
102
}
330
C
100
AcDbDictionary
281
     1
  3
Standard
350
18
  0
DICTIONARY
  5
19
102
{ACAD_REACTORS
330
C
102
}
330
C
100
AcDbDictionary
281
     1
  0
ACDBDICTIONARYWDFLT
  5
E
102
{ACAD_REACTORS
330
C
102
}
330
C
100
AcDbDictionary
281
     1
  3
Normal
350
F
100
AcDbDictionaryWithDefault
340
F
  0
DICTIONARY
  5
500
102
{ACAD_REACTORS
330
C
102
}
330
C
100
AcDbDictionary
281
     1
  0
DICTIONARY
  5
2A
102
{ACAD_REACTORS
330
C
102
}
330
C
100
AcDbDictionary
281
     1
  3
2dWireframe
350
2F
  3
3D Hidden
350
31
  3
3dWireframe
350
30
  3
Basic
350
32
  3
Brighten
350
36
  3
ColorChange
350
3A
  3
Conceptual
350
34
  3
Dim
350
35
  3
Facepattern
350
39
  3
Flat
350
2B
  3
FlatWithEdges
350
2C
  3
Gouraud
350
2D
  3
GouraudWithEdges
350
2E
  3
Linepattern
350
38
  3
Realistic
350
33
  3
Thicken
350
37
  0
LAYOUT
  5
1E
102
{ACAD_REACTORS
330
1A
102
}
330
1A
100
AcDbPlotSettings
  1

  2
none_device
  4

  6

 40
0.0
 41
0.0
 42
0.0
 43
0.0
 44
0.0
 45
0.0
 46
0.0
 47
0.0
 48
0.0
 49
0.0
140
0.0
141
0.0
142
1.0
143
1.0
 70
   688
 72
     0
 73
     0
 74
     5
  7

 75
    16
 76
     0
 77
     5
 78
   300
147
1.0
148
0.0
149
0.0
100
AcDbLayout
  1
Layout1
 70
     1
 71
     1
 10
0.0
 20
0.0
 11
420.0
 21
297.0
 12
0.0
 22
0.0
 32
0.0
 14
1.000000000000000E+20
 24
1.000000000000000E+20
 34
1.000000000000000E+20
 15
-1.000000000000000E+20
 25
-1.000000000000000E+20
 35
-1.000000000000000E+20
146
0.0
 13
0.0
 23
0.0
 33
0.0
 16
1.0
 26
0.0
 36
0.0
 17
0.0
 27
1.0
 37
0.0
 76
     0
330
1B
  0
LAYOUT
  5
26
102
{ACAD_REACTORS
330
1A
102
}
330
1A
100
AcDbPlotSettings
  1

  2
none_device
  4

  6

 40
0.0
 41
0.0
 42
0.0
 43
0.0
 44
0.0
 45
0.0
 46
0.0
 47
0.0
 48
0.0
 49
0.0
140
0.0
141
0.0
142
1.0
143
1.0
 70
   688
 72
     0
 73
     0
 74
     5
  7

 75
    16
 76
     0
 77
     5
 78
   300
147
1.0
148
0.0
149
0.0
100
AcDbLayout
  1
Layout2
 70
     1
 71
     2
 10
0.0
 20
0.0
 11
0.0
 21
0.0
 12
0.0
 22
0.0
 32
0.0
 14
0.0
 24
0.0
 34
0.0
 15
0.0
 25
0.0
 35
0.0
146
0.0
 13
0.0
 23
0.0
 33
0.0
 16
1.0
 26
0.0
 36
0.0
 17
0.0
 27
1.0
 37
0.0
 76
     0
330
23
  0
LAYOUT
  5
22
102
{ACAD_REACTORS
330
1A
102
}
330
1A
100
AcDbPlotSettings
  1

  2
none_device
  4

  6

 40
0.0
 41
0.0
 42
0.0
 43
0.0
 44
0.0
 45
0.0
 46
0.0
 47
0.0
 48
0.0
 49
0.0
140
0.0
141
0.0
142
1.0
143
1.0
 70
  1712
 72
     0
 73
     0
 74
     0
  7

 75
     0
 76
     0
 77
     5
 78
   300
147
1.0
148
0.0
149
0.0
100
AcDbLayout
  1
Model
 70
     1
 71
     0
 10
-2100.0
 20
-1485.0
 11
2100.0
 21
1485.0
 12
0.0
 22
0.0
 32
0.0
 14
-2100.0
 24
-1485.0
 34
0.0
 15
2100.0
 25
1485.0
 35
0.0
146
0.0
 13
0.0
 23
0.0
 33
0.0
 16
1.0
 26
0.0
 36
0.0
 17
0.0
 27
1.0
 37
0.0
 76
     0
330
1F
331
29
  0
MLINESTYLE
  5
18
102
{ACAD_REACTORS
330
17
102
}
330
17
100
AcDbMlineStyle
  2
Standard
 70
     0
  3

 62
   256
 51
90.0
 52
90.0
 71
     2
 49
0.5
 62
   256
  6
BYLAYER
 49
-0.5
 62
   256
  6
BYLAYER
  0
ACDBPLACEHOLDER
  5
F
102
{ACAD_REACTORS
330
E
102
}
330
E
  0
VISUALSTYLE
  5
2F
102
{ACAD_REACTORS
330
2A
102
}
330
2A
100
AcDbVisualStyle
  2
2dWireframe
 70
     4
 71
     0
 72
     2
 73
     0
 90
        0
 40
-0.6
 41
-30.0
 62
     5
 63
     7
421
 16777215
 74
     1
 91
        4
 64
     7
 65
   257
 75
     1
175
     1
 42
1.0
 92
        0
 66
   257
 43
1.0
 76
     1
 77
     6
 78
     2
 67
     7
 79
     5
170
     0
171
     0
290
     0
174
     0
 93
        1
 44
0.0
173
     0
291
     0
 45
0.0
1001
ACAD
1000
AcDbSavedByObjectVersion
1070
     0
  0
VISUALSTYLE
  5
31
102
{ACAD_REACTORS
330
2A
102
}
330
2A
100
AcDbVisualStyle
  2
3D Hidden
 70
     6
 71
     1
 72
     2
 73
     2
 90
        0
 40
-0.6
 41
-30.0
 62
     5
 63
     7
421
 16777215
 74
     2
 91
        2
 64
     7
 65
   257
 75
     2
175
     1
 42
40.0
 92
        0
 66
   257
 43
1.0
 76
     1
 77
     6
 78
     2
 67
     7
 79
     3
170
     0
171
     0
290
     0
174
     0
 93
        1
 44
0.0
173
     0
291
     0
 45
0.0
1001
ACAD
1000
AcDbSavedByObjectVersion
1070
     0
  0
VISUALSTYLE
  5
30
102
{ACAD_REACTORS
330
2A
102
}
330
2A
100
AcDbVisualStyle
  2
3dWireframe
 70
     5
 71
     0
 72
     2
 73
     0
 90
        0
 40
-0.6
 41
-30.0
 62
     5
 63
     7
421
 16777215
 74
     1
 91
        4
 64
     7
 65
   257
 75
     1
175
     1
 42
1.0
 92
        0
 66
   257
 43
1.0
 76
     1
 77
     6
 78
     2
 67
     7
 79
     5
170
     0
171
     0
290
     0
174
     0
 93
        1
 44
0.0
173
     0
291
     0
 45
0.0
1001
ACAD
1000
AcDbSavedByObjectVersion
1070
     0
  0
VISUALSTYLE
  5
32
102
{ACAD_REACTORS
330
2A
102
}
330
2A
100
AcDbVisualStyle
  2
Basic
 70
     7
 71
     1
 72
     0
 73
     1
 90
        0
 40
-0.6
 41
-30.0
 62
     5
 63
     7
421
 16777215
 74
     0
 91
        4
 64
     7
 65
   257
 75
     1
175
     1
 42
1.0
 92
        8
 66
     7
 43
1.0
 76
     1
 77
     6
 78
     2
 67
     7
 79
     5
170
     0
171
     0
290
     0
174
     0
 93
        1
 44
0.0
173
     0
291
     1
 45
0.0
1001
ACAD
1000
AcDbSavedByObjectVersion
1070
     0
  0
VISUALSTYLE
  5
36
102
{ACAD_REACTORS
330
2A
102
}
330
2A
100
AcDbVisualStyle
  2
Brighten
 70
    12
 71
     2
 72
     2
 73
     0
 90
        0
 40
-0.6
 41
-30.0
 62
     5
 63
     7
421
 16777215
 74
     1
 91
        4
 64
     7
 65
   257
 75
     1
175
     1
 42
1.0
 92
        8
 66
     7
 43
1.0
 76
     1
 77
     6
 78
     2
 67
     7
 79
     5
170
     0
171
     0
290
     0
174
     0
 93
        1
 44
50.0
173
     0
291
     1
 45
0.0
1001
ACAD
1000
AcDbSavedByObjectVersion
1070
     0
  0
VISUALSTYLE
  5
3A
102
{ACAD_REACTORS
330
2A
102
}
330
2A
100
AcDbVisualStyle
  2
ColorChange
 70
    16
 71
     2
 72
     2
 73
     3
 90
        0
 40
-0.6
 41
-30.0
 62
     5
 63
     8
421
  8421504
 74
     1
 91
        4
 64
     7
 65
   257
 75
     1
175
     1
 42
1.0
 92
        8
 66
     8
424
  8421504
 43
1.0
 76
     1
 77
     6
 78
     2
 67
     7
 79
     5
170
     0
171
     0
290
     0
174
     0
 93
        1
 44
0.0
173
     0
291
     1
 45
0.0
1001
ACAD
1000
AcDbSavedByObjectVersion
1070
     0
  0
VISUALSTYLE
  5
34
102
{ACAD_REACTORS
330
2A
102
}
330
2A
100
AcDbVisualStyle
  2
Conceptual
 70
     9
 71
     3
 72
     2
 73
     0
 90
        0
 40
-0.6
 41
-30.0
 62
     5
 63
     7
421
 16777215
 74
     2
 91
        2
 64
     7
 65
   257
 75
     1
175
     1
 42
40.0
 92
        8
 66
     7
 43
1.0
 76
     1
 77
     6
 78
     2
 67
     7
 79
     3
170
     0
171
     0
290
     0
174
     0
 93
        1
 44
0.0
173
     0
291
     0
 45
0.0
1001
ACAD
1000
AcDbSavedByObjectVersion
1070
     0
  0
VISUALSTYLE
  5
35
102
{ACAD_REACTORS
330
2A
102
}
330
2A
100
AcDbVisualStyle
  2
Dim
 70
    11
 71
     2
 72
     2
 73
     0
 90
        0
 40
-0.6
 41
-30.0
 62
     5
 63
     7
421
 16777215
 74
     1
 91
        4
 64
     7
 65
   257
 75
     1
175
     1
 42
1.0
 92
        8
 66
     7
 43
1.0
 76
     1
 77
     6
 78
     2
 67
     7
 79
     5
170
     0
171
     0
290
     0
174
     0
 93
        1
 44
-50.0
173
     0
291
     1
 45
0.0
1001
ACAD
1000
AcDbSavedByObjectVersion
1070
     0
  0
VISUALSTYLE
  5
39
102
{ACAD_REACTORS
330
2A
102
}
330
2A
100
AcDbVisualStyle
  2
Facepattern
 70
    15
 71
     2
 72
     2
 73
     0
 90
        0
 40
-0.6
 41
-30.0
 62
     5
 63
     7
421
 16777215
 74
     1
 91
        4
 64
     7
 65
   257
 75
     1
175
     1
 42
1.0
 92
        8
 66
     7
 43
1.0
 76
     1
 77
     6
 78
     2
 67
     7
 79
     5
170
     0
171
     0
290
     0
174
     0
 93
        1
 44
0.0
173
     0
291
     1
 45
0.0
1001
ACAD
1000
AcDbSavedByObjectVersion
1070
     0
  0
VISUALSTYLE
  5
2B
102
{ACAD_REACTORS
330
2A
102
}
330
2A
100
AcDbVisualStyle
  2
Flat
 70
     0
 71
     2
 72
     1
 73
     1
 90
        2
 40
-0.6
 41
30.0
 62
     5
 63
     7
421
 16777215
 74
     0
 91
        4
 64
     7
 65
   257
 75
     1
175
     1
 42
1.0
 92
        8
 66
     7
 43
1.0
 76
     1
 77
     6
 78
     2
 67
     7
 79
     5
170
     0
171
     0
290
     0
174
     0
 93
       13
 44
0.0
173
     0
291
     1
 45
0.0
1001
ACAD
1000
AcDbSavedByObjectVersion
1070
     0
  0
VISUALSTYLE
  5
2C
102
{ACAD_REACTORS
330
2A
102
}
330
2A
100
AcDbVisualStyle
  2
FlatWithEdges
 70
     1
 71
     2
 72
     1
 73
     1
 90
        2
 40
-0.6
 41
30.0
 62
     5
 63
     7
421
 16777215
 74
     1
 91
        4
 64
     7
 65
   257
 75
     1
175
     1
 42
1.0
 92
        0
 66
   257
 43
1.0
 76
     1
 77
     6
 78
     2
 67
     7
 79
     5
170
     0
171
     0
290
     0
174
     0
 93
       13
 44
0.0
173
     0
291
     1
 45
0.0
1001
ACAD
1000
AcDbSavedByObjectVersion
1070
     0
  0
VISUALSTYLE
  5
2D
102
{ACAD_REACTORS
330
2A
102
}
330
2A
100
AcDbVisualStyle
  2
Gouraud
 70
     2
 71
     2
 72
     2
 73
     1
 90
        2
 40
-0.6
 41
30.0
 62
     5
 63
     7
421
 16777215
 74
     0
 91
        4
 64
     7
 65
   257
 75
     1
175
     1
 42
1.0
 92
        0
 66
     7
 43
1.0
 76
     1
 77
     6
 78
     2
 67
     7
 79
     5
170
     0
171
     0
290
     0
174
     0
 93
       13
 44
0.0
173
     0
291
     1
 45
0.0
1001
ACAD
1000
AcDbSavedByObjectVersion
1070
     0
  0
VISUALSTYLE
  5
2E
102
{ACAD_REACTORS
330
2A
102
}
330
2A
100
AcDbVisualStyle
  2
GouraudWithEdges
 70
     3
 71
     2
 72
     2
 73
     1
 90
        2
 40
-0.6
 41
30.0
 62
     5
 63
     7
421
 16777215
 74
     1
 91
        4
 64
     7
 65
   257
 75
     1
175
     1
 42
1.0
 92
        0
 66
   257
 43
1.0
 76
     1
 77
     6
 78
     2
 67
     7
 79
     5
170
     0
171
     0
290
     0
174
     0
 93
       13
 44
0.0
173
     0
291
     1
 45
0.0
1001
ACAD
1000
AcDbSavedByObjectVersion
1070
     0
  0
VISUALSTYLE
  5
38
102
{ACAD_REACTORS
330
2A
102
}
330
2A
100
AcDbVisualStyle
  2
Linepattern
 70
    14
 71
     2
 72
     2
 73
     0
 90
        0
 40
-0.6
 41
-30.0
 62
     5
 63
     7
421
 16777215
 74
     1
 91
        4
 64
     7
 65
   257
 75
     7
175
     7
 42
1.0
 92
        8
 66
     7
 43
1.0
 76
     1
 77
     6
 78
     2
 67
     7
 79
     5
170
     0
171
     0
290
     0
174
     0
 93
        1
 44
0.0
173
     0
291
     1
 45
0.0
1001
ACAD
1000
AcDbSavedByObjectVersion
1070
     0
  0
VISUALSTYLE
  5
33
102
{ACAD_REACTORS
330
2A
102
}
330
2A
100
AcDbVisualStyle
  2
Realistic
 70
     8
 71
     2
 72
     2
 73
     0
 90
        0
 40
-0.6
 41
-30.0
 62
     5
 63
     7
421
 16777215
 74
     1
 91
        0
 64
     7
 65
   257
 75
     1
175
     1
 42
1.0
 92
        8
 66
     8
424
  7895160
 43
1.0
 76
     1
 77
     6
 78
     2
 67
     7
 79
     5
170
     0
171
     0
290
     0
174
     0
 93
       13
 44
0.0
173
     0
291
     0
 45
0.0
1001
ACAD
1000
AcDbSavedByObjectVersion
1070
     0
  0
VISUALSTYLE
  5
37
102
{ACAD_REACTORS
330
2A
102
}
330
2A
100
AcDbVisualStyle
  2
Thicken
 70
    13
 71
     2
 72
     2
 73
     0
 90
        0
 40
-0.6
 41
-30.0
 62
     5
 63
     7
421
 16777215
 74
     1
 91
        4
 64
     7
 65
   257
 75
     1
175
     1
 42
1.0
 92
       12
 66
     7
 43
1.0
 76
     1
 77
     6
 78
     2
 67
     7
 79
     5
170
     0
171
     0
290
     0
174
     0
 93
        1
 44
0.0
173
     0
291
     1
 45
0.0
1001
ACAD
1000
AcDbSavedByObjectVersion
1070
     0
  0
ENDSEC
  0
EOF
