  0
SECTION
  2
HEADER
  9
$ACADVER
  1
AC1018
  9
$ACADMAINTVER
 70
     0
  9
$DWGCODEPAGE
  3
ANSI_932
  9
$INSBASE
 10
0.0
 20
0.0
 30
0.0
  9
$EXTMIN
 10
-2100.0
 20
-1485.0
 30
0.0
  9
$EXTMAX
 10
2100.0
 20
1485.0
 30
0.0
  9
$LIMMIN
 10
-2100.0
 20
-1485.0
  9
$LIMMAX
 10
2100.0
 20
1485.0
  9
$ORTHOMODE
 70
     0
  9
$REGENMODE
 70
     1
  9
$FILLMODE
 70
     1
  9
$QTEXTMODE
 70
     0
  9
$MIRRTEXT
 70
     1
  9
$LTSCALE
 40
10.0
  9
$ATTMODE
 70
     1
  9
$TEXTSIZE
 40
2.5
  9
$TRACEWID
 40
1.0
  9
$TEXTSTYLE
  7
Standard
  9
$CLAYER
  8
0
  9
$CELTYPE
  6
ByLayer
  9
$CECOLOR
 62
   256
  9
$CELTSCALE
 40
1.0
  9
$DISPSILH
 70
     0
  9
$DIMSCALE
 40
1.0
  9
$DIMASZ
 40
2.5
  9
$DIMEXO
 40
0.625
  9
$DIMDLI
 40
3.75
  9
$DIMRND
 40
0.0
  9
$DIMDLE
 40
0.0
  9
$DIMEXE
 40
1.25
  9
$DIMTP
 40
0.0
  9
$DIMTM
 40
0.0
  9
$DIMTXT
 40
2.5
  9
$DIMCEN
 40
2.5
  9
$DIMTSZ
 40
0.0
  9
$DIMTOL
 70
     0
  9
$DIMLIM
 70
     0
  9
$DIMTIH
 70
     0
  9
$DIMTOH
 70
     0
  9
$DIMSE1
 70
     0
  9
$DIMSE2
 70
     0
  9
$DIMTAD
 70
     1
  9
$DIMZIN
 70
     8
  9
$DIMBLK
  1

  9
$DIMASO
 70
     1
  9
$DIMSHO
 70
     1
  9
$DIMPOST
  1

  9
$DIMAPOST
  1

  9
$DIMALT
 70
     0
  9
$DIMALTD
 70
     3
  9
$DIMALTF
 40
0.03937007874016
  9
$DIMLFAC
 40
1.0
  9
$DIMTOFL
 70
     1
  9
$DIMTVP
 40
0.0
  9
$DIMTIX
 70
     0
  9
$DIMSOXD
 70
     0
  9
$DIMSAH
 70
     0
  9
$DIMBLK1
  1

  9
$DIMBLK2
  1

  9
$DIMSTYLE
  2
ISO-25
  9
$DIMCLRD
 70
     0
  9
$DIMCLRE
 70
     0
  9
$DIMCLRT
 70
     0
  9
$DIMTFAC
 40
1.0
  9
$DIMGAP
 40
0.625
  9
$DIMJUST
 70
     0
  9
$DIMSD1
 70
     0
  9
$DIMSD2
 70
     0
  9
$DIMTOLJ
 70
     0
  9
$DIMTZIN
 70
     8
  9
$DIMALTZ
 70
     0
  9
$DIMALTTZ
 70
     0
  9
$DIMUPT
 70
     0
  9
$DIMDEC
 70
     2
  9
$DIMTDEC
 70
     2
  9
$DIMALTU
 70
     2
  9
$DIMALTTD
 70
     3
  9
$DIMTXSTY
  7
Standard
  9
$DIMAUNIT
 70
     0
  9
$DIMADEC
 70
     0
  9
$DIMALTRND
 40
0.0
  9
$DIMAZIN
 70
     0
  9
$DIMDSEP
 70
    44
  9
$DIMATFIT
 70
     3
  9
$DIMFRAC
 70
     0
  9
$DIMLDRBLK
  1

  9
$DIMLUNIT
 70
     2
  9
$DIMLWD
 70
    -2
  9
$DIMLWE
 70
    -2
  9
$DIMTMOVE
 70
     0
  9
$LUNITS
 70
     2
  9
$LUPREC
 70
     4
  9
$SKETCHINC
 40
1.0
  9
$FILLETRAD
 40
10.0
  9
$AUNITS
 70
     0
  9
$AUPREC
 70
     0
  9
$MENU
  1
.
  9
$ELEVATION
 40
0.0
  9
$PELEVATION
 40
0.0
  9
$THICKNESS
 40
0.0
  9
$LIMCHECK
 70
     0
  9
$CHAMFERA
 40
10.0
  9
$CHAMFERB
 40
10.0
  9
$CHAMFERC
 40
20.0
  9
$CHAMFERD
 40
0.0
  9
$SKPOLY
 70
     0
  9
$TDCREATE
 40
2458442.462701875
  9
$TDUCREATE
 40
2458442.087701875
  9
$TDUPDATE
 40
2458442.462701886
  9
$TDUUPDATE
 40
2458442.087701886
  9
$TDINDWG
 40
0.0000000116
  9
$TDUSRTIMER
 40
0.0000000116
  9
$USRTIMER
 70
     1
  9
$ANGBASE
 50
0.0
  9
$ANGDIR
 70
     0
  9
$PDMODE
 70
     0
  9
$PDSIZE
 40
0.0
  9
$PLINEWID
 40
0.0
  9
$SPLFRAME
 70
     0
  9
$SPLINETYPE
 70
     6
  9
$SPLINESEGS
 70
     8
  9
$HANDSEED
  5
5A0
  9
$SURFTAB1
 70
     6
  9
$SURFTAB2
 70
     6
  9
$SURFTYPE
 70
     6
  9
$SURFU
 70
     6
  9
$SURFV
 70
     6
  9
$UCSBASE
  2

  9
$UCSNAME
  2

  9
$UCSORG
 10
0.0
 20
0.0
 30
0.0
  9
$UCSXDIR
 10
1.0
 20
0.0
 30
0.0
  9
$UCSYDIR
 10
0.0
 20
1.0
 30
0.0
  9
$UCSORTHOREF
  2

  9
$UCSORTHOVIEW
 70
     0
  9
$UCSORGTOP
 10
0.0
 20
0.0
 30
0.0
  9
$UCSORGBOTTOM
 10
0.0
 20
0.0
 30
0.0
  9
$UCSORGLEFT
 10
0.0
 20
0.0
 30
0.0
  9
$UCSORGRIGHT
 10
0.0
 20
0.0
 30
0.0
  9
$UCSORGFRONT
 10
0.0
 20
0.0
 30
0.0
  9
$UCSORGBACK
 10
0.0
 20
0.0
 30
0.0
  9
$PUCSBASE
  2

  9
$PUCSNAME
  2

  9
$PUCSORG
 10
0.0
 20
0.0
 30
0.0
  9
$PUCSXDIR
 10
1.0
 20
0.0
 30
0.0
  9
$PUCSYDIR
 10
0.0
 20
1.0
 30
0.0
  9
$PUCSORTHOREF
  2

  9
$PUCSORTHOVIEW
 70
     0
  9
$PUCSORGTOP
 10
0.0
 20
0.0
 30
0.0
  9
$PUCSORGBOTTOM
 10
0.0
 20
0.0
 30
0.0
  9
$PUCSORGLEFT
 10
0.0
 20
0.0
 30
0.0
  9
$PUCSORGRIGHT
 10
0.0
 20
0.0
 30
0.0
  9
$PUCSORGFRONT
 10
0.0
 20
0.0
 30
0.0
  9
$PUCSORGBACK
 10
0.0
 20
0.0
 30
0.0
  9
$USERI1
 70
     0
  9
$USERI2
 70
     0
  9
$USERI3
 70
     0
  9
$USERI4
 70
     0
  9
$USERI5
 70
     0
  9
$USERR1
 40
0.0
  9
$USERR2
 40
0.0
  9
$USERR3
 40
0.0
  9
$USERR4
 40
0.0
  9
$USERR5
 40
0.0
  9
$WORLDVIEW
 70
     1
  9
$SHADEDGE
 70
     3
  9
$SHADEDIF
 70
    70
  9
$TILEMODE
 70
     1
  9
$MAXACTVP
 70
    64
  9
$PINSBASE
 10
0.0
 20
0.0
 30
0.0
  9
$PLIMCHECK
 70
     0
  9
$PEXTMIN
 10
1.000000000000000E+20
 20
1.000000000000000E+20
 30
1.000000000000000E+20
  9
$PEXTMAX
 10
-1.000000000000000E+20
 20
-1.000000000000000E+20
 30
-1.000000000000000E+20
  9
$PLIMMIN
 10
0.0
 20
0.0
  9
$PLIMMAX
 10
420.0
 20
297.0
  9
$UNITMODE
 70
     0
  9
$VISRETAIN
 70
     1
  9
$PLINEGEN
 70
     0
  9
$PSLTSCALE
 70
     1
  9
$TREEDEPTH
 70
  3020
  9
$CMLSTYLE
  2
Standard
  9
$CMLJUST
 70
     0
  9
$CMLSCALE
 40
20.0
  9
$PROXYGRAPHICS
 70
     1
  9
$MEASUREMENT
 70
     1
  9
$CELWEIGHT
370
    -1
  9
$ENDCAPS
280
     0
  9
$JOINSTYLE
280
     0
  9
$LWDISPLAY
290
     0
  9
$INSUNITS
 70
     4
  9
$HYPERLINKBASE
  1

  9
$STYLESHEET
  1

  9
$XEDIT
290
     1
  9
$CEPSNTYPE
380
     0
  9
$PSTYLEMODE
290
     1
  9
$FINGERPRINTGUID
  2
{CF31FEBC-CE85-4505-A029-49959F7E6229}
  9
$VERSIONGUID
  2
{FAEB1C32-E019-11D5-929B-00C0DF256EC4}
  9
$EXTNAMES
290
     1
  9
$PSVPSCALE
 40
0.0
  9
$OLESTARTUP
290
     0
  9
$SORTENTS
280
   127
  9
$INDEXCTL
280
     0
  9
$HIDETEXT
280
     1
  9
$XCLIPFRAME
290
     0
  9
$HALOGAP
280
     0
  9
$OBSCOLOR
 70
   257
  9
$OBSLTYPE
280
     0
  9
$INTERSECTIONDISPLAY
280
     0
  9
$INTERSECTIONCOLOR
 70
   257
  9
$DIMASSOC
280
     2
  9
$PROJECTNAME
  1

  0
ENDSEC
  0
SECTION
  2
CLASSES
  0
CLASS
  1
ACDBDICTIONARYWDFLT
  2
AcDbDictionaryWithDefault
  3
ObjectDBX Classes
 90
        0
 91
        4
280
     0
281
     0
  0
CLASS
  1
VISUALSTYLE
  2
AcDbVisualStyle
  3
ObjectDBX Classes
 90
     4095
 91
        4
280
     0
281
     0
  0
ENDSEC
  0
SECTION
  2
TABLES
  0
TABLE
  2
VPORT
  5
8
330
0
100
AcDbSymbolTable
 70
     1
  0
VPORT
  5
29
330
8
100
AcDbSymbolTableRecord
100
AcDbViewportTableRecord
  2
*Active
 70
     0
 10
0.0
 20
0.0
 11
1.0
 21
1.0
 12
0.0
 22
0.0
 13
0.0
 23
0.0
 14
10.0
 24
10.0
 15
10.0
 25
10.0
 16
0.0
 26
0.0
 36
1.0
 17
0.0
 27
0.0
 37
0.0
 40
3267.0
 41
1.414141414141414
 42
50.0
 43
0.0
 44
0.0
 50
0.0
 51
0.0
 71
     0
 72
 10000
 73
     1
 74
     3
 75
     0
 76
     0
 77
     0
 78
     0
281
     0
 65
     1
110
0.0
120
0.0
130
0.0
111
1.0
121
0.0
131
0.0
112
0.0
122
1.0
132
0.0
 79
     0
146
0.0
  0
ENDTAB
  0
TABLE
  2
LTYPE
  5
5
330
0
100
AcDbSymbolTable
 70
     5
  0
LTYPE
  5
14
330
5
100
AcDbSymbolTableRecord
100
AcDbLinetypeTableRecord
  2
ByBlock
 70
     0
  3

 72
    65
 73
     0
 40
0.0
  0
LTYPE
  5
15
330
5
100
AcDbSymbolTableRecord
100
AcDbLinetypeTableRecord
  2
ByLayer
 70
     0
  3

 72
    65
 73
     0
 40
0.0
  0
LTYPE
  5
16
330
5
100
AcDbSymbolTableRecord
100
AcDbLinetypeTableRecord
  2
Continuous
 70
     0
  3
Solid line
 72
    65
 73
     0
 40
0.0
  0
LTYPE
  5
3C
330
5
100
AcDbSymbolTableRecord
100
AcDbLinetypeTableRecord
  2
JWW_DASHED3
 70
     0
  3
---  ------  ------  ------  ---
 72
    65
 73
     2
 40
3.386666666666667
 49
2.54
 74
     0
 49
-0.8466666666666667
 74
     0
  0
LTYPE
  5
3D
330
5
100
AcDbSymbolTableRecord
100
AcDbLinetypeTableRecord
  2
JWW_CENTER1
 70
     0
  3
-----  --  ----------  --  -----
 72
    65
 73
     4
 40
6.773333333333333
 49
4.233333333333333
 74
     0
 49
-0.8466666666666667
 74
     0
 49
0.8466666666666667
 74
     0
 49
-0.8466666666666667
 74
     0
  0
LTYPE
  5
3E
330
5
100
AcDbSymbolTableRecord
100
AcDbLinetypeTableRecord
  2
JWW_DASHED2
 70
     0
  3
--    ----    ----    ----    --
 72
    65
 73
     2
 40
3.386666666666667
 49
1.693333333333333
 74
     0
 49
-1.693333333333333
 74
     0
  0
LTYPE
  5
3F
330
5
100
AcDbSymbolTableRecord
100
AcDbLinetypeTableRecord
  2
JWW_CENTER2
 70
     0
  3
-------------  --  -------------
 72
    65
 73
     4
 40
13.54666666666667
 49
11.00666666666667
 74
     0
 49
-0.8466666666666667
 74
     0
 49
0.8466666666666667
 74
     0
 49
-0.8466666666666667
 74
     0
  0
ENDTAB
  0
TABLE
  2
LAYER
  5
2
330
0
100
AcDbSymbolTable
 70
    16
  0
LAYER
  5
10
330
2
100
AcDbSymbolTableRecord
100
AcDbLayerTableRecord
  2
0
 70
     0
 62
     7
  6
Continuous
370
    -3
390
F
  0
LAYER
  5
40
330
2
100
AcDbSymbolTableRecord
100
AcDbLayerTableRecord
  2
C-A
 70
     0
 62
     7
  6
Continuous
370
    -1
390
F
  0
LAYER
  5
41
330
2
100
AcDbSymbolTableRecord
100
AcDbLayerTableRecord
  2
C-2
 70
     0
 62
     7
  6
Continuous
370
    -1
390
F
  0
LAYER
  5
42
330
2
100
AcDbSymbolTableRecord
100
AcDbLayerTableRecord
  2
C-4
 70
     0
 62
     7
  6
Continuous
370
    -1
390
F
  0
LAYER
  5
43
330
2
100
AcDbSymbolTableRecord
100
AcDbLayerTableRecord
  2
C-1
 70
     0
 62
     7
  6
Continuous
370
    -1
390
F
  0
LAYER
  5
44
330
2
100
AcDbSymbolTableRecord
100
AcDbLayerTableRecord
  2
F-5ﾚｲﾔ
 70
     0
 62
     7
  6
Continuous
370
    -1
390
F
  0
LAYER
  5
45
330
2
100
AcDbSymbolTableRecord
100
AcDbLayerTableRecord
  2
D-2
 70
     0
 62
     7
  6
Continuous
370
    -1
390
F
  0
LAYER
  5
46
330
2
100
AcDbSymbolTableRecord
100
AcDbLayerTableRecord
  2
D-5
 70
     0
 62
     7
  6
Continuous
370
    -1
390
F
  0
LAYER
  5
47
330
2
100
AcDbSymbolTableRecord
100
AcDbLayerTableRecord
  2
D-A
 70
     0
 62
     7
  6
Continuous
370
    -1
390
F
  0
LAYER
  5
48
330
2
100
AcDbSymbolTableRecord
100
AcDbLayerTableRecord
  2
D-4
 70
     0
 62
     7
  6
Continuous
370
    -1
390
F
  0
LAYER
  5
49
330
2
100
AcDbSymbolTableRecord
100
AcDbLayerTableRecord
  2
C-5
 70
     0
 62
     7
  6
Continuous
370
    -1
390
F
  0
LAYER
  5
4A
330
2
100
AcDbSymbolTableRecord
100
AcDbLayerTableRecord
  2
C-9
 70
     0
 62
     7
  6
Continuous
370
    -1
390
F
  0
LAYER
  5
4B
330
2
100
AcDbSymbolTableRecord
100
AcDbLayerTableRecord
  2
D-1
 70
     0
 62
     7
  6
Continuous
370
    -1
390
F
  0
LAYER
  5
4C
330
2
100
AcDbSymbolTableRecord
100
AcDbLayerTableRecord
  2
D-6
 70
     0
 62
     7
  6
Continuous
370
    -1
390
F
  0
LAYER
  5
4D
330
2
100
AcDbSymbolTableRecord
100
AcDbLayerTableRecord
  2
D-0
 70
     0
 62
     7
  6
Continuous
370
    -1
390
F
  0
LAYER
  5
4E
330
2
100
AcDbSymbolTableRecord
100
AcDbLayerTableRecord
  2
D-9
 70
     0
 62
     7
  6
Continuous
370
    -1
390
F
  0
ENDTAB
  0
TABLE
  2
STYLE
  5
3
330
0
100
AcDbSymbolTable
 70
     2
  0
STYLE
  5
11
330
3
100
AcDbSymbolTableRecord
100
AcDbTextStyleTableRecord
  2
Standard
 70
     0
 40
0.0
 41
1.0
 50
0.0
 71
     0
 42
2.5
  3
txt
  4

1001
ACAD
1000

1071
        0
  0
STYLE
  5
3B
330
3
100
AcDbSymbolTableRecord
100
AcDbTextStyleTableRecord
  2
ＭＳ ゴシック
 70
     0
 40
1.0
 41
1.0
 50
0.0
 71
     0
 42
10.0
  3

  4

1001
ACAD
1000
MS Gothic
1071
    32817
  0
ENDTAB
  0
TABLE
  2
VIEW
  5
6
330
0
100
AcDbSymbolTable
 70
     0
  0
ENDTAB
  0
TABLE
  2
UCS
  5
7
330
0
100
AcDbSymbolTable
 70
     0
  0
ENDTAB
  0
TABLE
  2
APPID
  5
9
330
0
100
AcDbSymbolTable
 70
     1
  0
APPID
  5
12
330
9
100
AcDbSymbolTableRecord
100
AcDbRegAppTableRecord
  2
ACAD
 70
     0
  0
ENDTAB
  0
TABLE
  2
DIMSTYLE
  5
A
330
0
100
AcDbSymbolTable
 70
     1
100
AcDbDimStyleTable
  0
DIMSTYLE
105
27
330
A
100
AcDbSymbolTableRecord
100
AcDbDimStyleTableRecord
  2
ISO-25
 70
     0
 41
2.5
 42
0.625
 43
3.75
 44
1.25
 73
     0
 74
     0
 77
     1
 78
     8
140
2.5
141
2.5
143
0.03937007874016
147
0.625
171
     3
172
     1
271
     2
272
     2
274
     3
278
    44
283
     0
284
     8
340
11
  0
ENDTAB
  0
TABLE
  2
BLOCK_RECORD
  5
1
330
0
100
AcDbSymbolTable
 70
     1
  0
BLOCK_RECORD
  5
1F
330
1
100
AcDbSymbolTableRecord
100
AcDbBlockTableRecord
  2
*Model_Space
340
22
  0
BLOCK_RECORD
  5
1B
330
1
100
AcDbSymbolTableRecord
100
AcDbBlockTableRecord
  2
*Paper_Space
340
1E
  0
BLOCK_RECORD
  5
23
330
1
100
AcDbSymbolTableRecord
100
AcDbBlockTableRecord
  2
*Paper_Space0
340
26
  0
ENDTAB
  0
ENDSEC
  0
SECTION
  2
BLOCKS
  0
BLOCK
  5
20
330
1F
100
AcDbEntity
  8
0
100
AcDbBlockBegin
  2
*Model_Space
 70
     0
 10
0.0
 20
0.0
 30
0.0
  3
*Model_Space
  1

  0
ENDBLK
  5
21
330
1F
100
AcDbEntity
  8
0
100
AcDbBlockEnd
  0
BLOCK
  5
1C
330
1B
100
AcDbEntity
 67
     1
  8
0
100
AcDbBlockBegin
  2
*Paper_Space
 70
     0
 10
0.0
 20
0.0
 30
0.0
  3
*Paper_Space
  1

  0
ENDBLK
  5
1D
330
1B
100
AcDbEntity
 67
     1
  8
0
100
AcDbBlockEnd
  0
BLOCK
  5
24
330
23
100
AcDbEntity
  8
0
100
AcDbBlockBegin
  2
*Paper_Space0
 70
     0
 10
0.0
 20
0.0
 30
0.0
  3
*Paper_Space0
  1

  0
ENDBLK
  5
25
330
23
100
AcDbEntity
  8
0
100
AcDbBlockEnd
  0
ENDSEC
  0
SECTION
  2
ENTITIES
  0
LINE
  5
4F
330
1F
100
AcDbEntity
  8
C-A
  6
Continuous
 62
     3
370
     9
100
AcDbLine
 10
-1542.597771711457
 20
758.2840083713872
 30
0.0
 11
-1536.597649641145
 21
758.2840083713872
 31
0.0
  0
LINE
  5
50
330
1F
100
AcDbEntity
  8
C-2
  6
Continuous
 62
     3
370
     9
100
AcDbLine
 10
-62.59859568606771
 20
746.2768975115932
 30
0.0
 11
-22.59841258059893
 21
776.2775383807339
 31
0.0
  0
LINE
  5
51
330
1F
100
AcDbEntity
  8
C-2
  6
Continuous
 62
     3
370
     9
100
AcDbLine
 10
-42.59877879153635
 20
776.2775383807339
 30
0.0
 11
-22.59841258059893
 21
776.2775383807339
 31
0.0
  0
LINE
  5
52
330
1F
100
AcDbEntity
  8
C-2
  6
Continuous
 62
     3
370
     9
100
AcDbLine
 10
-62.59859568606771
 20
746.2768975115932
 30
0.0
 11
-42.59877879153635
 21
746.2768975115932
 31
0.0
  0
LINE
  5
53
330
1F
100
AcDbEntity
  8
C-A
  6
Continuous
 62
     3
370
     9
100
AcDbLine
 10
-1127.598931379427
 20
689.276836476437
 30
0.0
 11
-1127.598931379427
 21
833.2771416522183
 31
0.0
  0
LINE
  5
54
330
1F
100
AcDbEntity
  8
C-A
  6
Continuous
 62
     3
370
     9
100
AcDbLine
 10
-1121.598809309114
 20
689.276836476437
 30
0.0
 11
-1121.598809309114
 21
833.2771416522183
 31
0.0
  0
LINE
  5
55
330
1F
100
AcDbEntity
  8
C-A
  6
Continuous
 62
     3
370
     9
100
AcDbLine
 10
-791.5990229321615
 20
833.2771416522183
 30
0.0
 11
-1289.598900861849
 21
833.2771416522183
 31
0.0
  0
LINE
  5
56
330
1F
100
AcDbEntity
  8
C-A
  6
Continuous
 62
     3
370
     9
100
AcDbLine
 10
-791.5990229321615
 20
689.276836476437
 30
0.0
 11
-1289.598900861849
 21
689.276836476437
 31
0.0
  0
TEXT
  5
57
330
1F
100
AcDbEntity
  8
C-4
  6
Continuous
 62
     2
370
     9
100
AcDbText
 10
-1074.098861761202
 20
946.9164397479213
 30
0.0
 40
30.48
  1
498
 41
1.083333333333333
  7
ＭＳ ゴシック
100
AcDbText
  0
TEXT
  5
58
330
1F
100
AcDbEntity
  8
C-4
  6
Continuous
 62
     2
370
     9
100
AcDbText
 10
-574.0985041333333
 20
946.9164397479213
 30
0.0
 40
30.48
  1
498
 41
1.083333333333333
  7
ＭＳ ゴシック
100
AcDbText
  0
TEXT
  5
59
330
1F
100
AcDbEntity
  8
C-4
  6
Continuous
 62
     2
370
     9
100
AcDbText
 10
-316.6176996899739
 20
946.9164397479213
 30
0.0
 40
30.48
  1
1
 41
0.9999999999999998
  7
ＭＳ ゴシック
100
AcDbText
  0
TEXT
  5
5A
330
1F
100
AcDbEntity
  8
C-4
  6
Continuous
 62
     2
370
     9
100
AcDbText
 10
-1316.617959089388
 20
946.9164397479213
 30
0.0
 40
30.48
  1
1
 41
0.9999999999999998
  7
ＭＳ ゴシック
100
AcDbText
  0
TEXT
  5
5B
330
1F
100
AcDbEntity
  8
C-4
  6
Continuous
 62
     2
370
     9
100
AcDbText
 10
-816.6180964184896
 20
946.9164397479213
 30
0.0
 40
30.48
  1
1
 41
0.9999999999999998
  7
ＭＳ ゴシック
100
AcDbText
  0
TEXT
  5
5C
330
1F
100
AcDbEntity
  8
C-4
  6
Continuous
 62
     2
370
     9
100
AcDbText
 10
-1073.098510332216
 20
1026.916866994015
 30
0.0
 40
30.48
  1
499
 41
1.083333333333333
  7
ＭＳ ゴシック
100
AcDbText
  0
TEXT
  5
5D
330
1F
100
AcDbEntity
  8
C-4
  6
Continuous
 62
     2
370
     9
100
AcDbText
 10
-573.098412580599
 20
1026.916866994015
 30
0.0
 40
30.48
  1
499
 41
1.083333333333333
  7
ＭＳ ゴシック
100
AcDbText
  0
LWPOLYLINE
  5
5E
330
1F
100
AcDbEntity
  8
C-4
  6
Continuous
 62
     7
370
     9
100
AcDbPolyline
 90
        4
 70
     1
 43
1.0
 10
-790.0985651684896
 20
936.2766838885464
 42
0.4142135623731
 10
-790.5985651684896
 20
936.7766838885462
 42
0.4142135623731
 10
-791.0985651684895
 20
936.2766838885464
 42
0.4142135623731
 10
-790.5985651684896
 20
935.7766838885464
 42
0.4142135623731
  0
LWPOLYLINE
  5
5F
330
1F
100
AcDbEntity
  8
C-4
  6
Continuous
 62
     7
370
     9
100
AcDbPolyline
 90
        4
 70
     1
 43
1.0
 10
-292.0986567212238
 20
936.2766838885464
 42
0.4142135623731
 10
-292.5986567212238
 20
936.7766838885462
 42
0.4142135623731
 10
-293.0986567212239
 20
936.2766838885464
 42
0.4142135623731
 10
-292.5986567212238
 20
935.7766838885464
 42
0.4142135623731
  0
LWPOLYLINE
  5
60
330
1F
100
AcDbEntity
  8
C-4
  6
Continuous
 62
     7
370
     9
100
AcDbPolyline
 90
        4
 70
     1
 43
1.0
 10
-790.0985651684896
 20
1016.277050099484
 42
0.4142135623731
 10
-790.5985651684896
 20
1016.777050099484
 42
0.4142135623731
 10
-791.0985651684895
 20
1016.277050099484
 42
0.4142135623731
 10
-790.5985651684896
 20
1015.777050099484
 42
0.4142135623731
  0
LWPOLYLINE
  5
61
330
1F
100
AcDbEntity
  8
C-4
  6
Continuous
 62
     7
370
     9
100
AcDbPolyline
 90
        4
 70
     1
 43
1.0
 10
-791.0990229321615
 20
936.2766838885464
 42
0.4142135623731
 10
-791.5990229321615
 20
936.7766838885462
 42
0.4142135623731
 10
-792.0990229321615
 20
936.2766838885464
 42
0.4142135623731
 10
-791.5990229321615
 20
935.7766838885464
 42
0.4142135623731
  0
LWPOLYLINE
  5
62
330
1F
100
AcDbEntity
  8
C-4
  6
Continuous
 62
     7
370
     9
100
AcDbPolyline
 90
        4
 70
     1
 43
1.0
 10
-1289.09856516849
 20
936.2766838885464
 42
0.4142135623731
 10
-1289.59856516849
 20
936.7766838885462
 42
0.4142135623731
 10
-1290.09856516849
 20
936.2766838885464
 42
0.4142135623731
 10
-1289.59856516849
 20
935.7766838885464
 42
0.4142135623731
  0
LWPOLYLINE
  5
63
330
1F
100
AcDbEntity
  8
C-4
  6
Continuous
 62
     7
370
     9
100
AcDbPolyline
 90
        4
 70
     1
 43
1.0
 10
-1289.09856516849
 20
1016.277050099484
 42
0.4142135623731
 10
-1289.59856516849
 20
1016.777050099484
 42
0.4142135623731
 10
-1290.09856516849
 20
1016.277050099484
 42
0.4142135623731
 10
-1289.59856516849
 20
1015.777050099484
 42
0.4142135623731
  0
LWPOLYLINE
  5
64
330
1F
100
AcDbEntity
  8
C-4
  6
Continuous
 62
     7
370
     9
100
AcDbPolyline
 90
        4
 70
     1
 43
1.0
 10
-1290.098900861849
 20
936.2766838885464
 42
0.4142135623731
 10
-1290.598900861849
 20
936.7766838885462
 42
0.4142135623731
 10
-1291.098900861849
 20
936.2766838885464
 42
0.4142135623731
 10
-1290.598900861849
 20
935.7766838885464
 42
0.4142135623731
  0
LWPOLYLINE
  5
65
330
1F
100
AcDbEntity
  8
C-4
  6
Continuous
 62
     7
370
     9
100
AcDbPolyline
 90
        4
 70
     1
 43
1.0
 10
-291.0985346509115
 20
936.2766838885464
 42
0.4142135623731
 10
-291.5985346509115
 20
936.7766838885462
 42
0.4142135623731
 10
-292.0985346509115
 20
936.2766838885464
 42
0.4142135623731
 10
-291.5985346509115
 20
935.7766838885464
 42
0.4142135623731
  0
LWPOLYLINE
  5
66
330
1F
100
AcDbEntity
  8
C-4
  6
Continuous
 62
     7
370
     9
100
AcDbPolyline
 90
        4
 70
     1
 43
1.0
 10
-291.0985346509115
 20
1016.277050099484
 42
0.4142135623731
 10
-291.5985346509115
 20
1016.777050099484
 42
0.4142135623731
 10
-292.0985346509115
 20
1016.277050099484
 42
0.4142135623731
 10
-291.5985346509115
 20
1015.777050099484
 42
0.4142135623731
  0
LINE
  5
67
330
1F
100
AcDbEntity
  8
C-1
  6
JWW_DASHED3
 62
     2
370
     9
100
AcDbLine
 10
-42.59877879153635
 20
811.276836476437
 30
0.0
 11
-1540.59905344974
 21
811.276836476437
 31
0.0
  0
LINE
  5
68
330
1F
100
AcDbEntity
  8
C-1
  6
JWW_DASHED3
 62
     2
370
     9
100
AcDbLine
 10
-42.59877879153635
 20
711.2767449237026
 30
0.0
 11
-1540.59905344974
 21
711.2767449237026
 31
0.0
  0
LINE
  5
69
330
1F
100
AcDbEntity
  8
C-2
  6
Continuous
 62
     3
370
     9
100
AcDbLine
 10
-790.5985651684896
 20
686.2772637225307
 30
0.0
 11
-790.5985651684896
 21
836.2772026873745
 31
0.0
  0
LINE
  5
6A
330
1F
100
AcDbEntity
  8
C-2
  6
Continuous
 62
     3
370
     9
100
AcDbLine
 10
-292.5986567212238
 20
836.2772026873745
 30
0.0
 11
-292.5986567212238
 21
686.2772637225307
 31
0.0
  0
LINE
  5
6B
330
1F
100
AcDbEntity
  8
C-2
  6
Continuous
 62
     3
370
     9
100
AcDbLine
 10
-1289.598900861849
 20
686.2772637225307
 30
0.0
 11
-1289.598900861849
 21
836.2772026873745
 31
0.0
  0
LINE
  5
6C
330
1F
100
AcDbEntity
  8
C-2
  6
Continuous
 62
     3
370
     9
100
AcDbLine
 10
-791.5990229321615
 20
836.2772026873745
 30
0.0
 11
-791.5990229321615
 21
686.2772637225307
 31
0.0
  0
LINE
  5
6D
330
1F
100
AcDbEntity
  8
C-A
  6
Continuous
 62
     3
370
     9
100
AcDbLine
 10
-799.5988398266927
 20
833.2771416522183
 30
0.0
 11
-799.5988398266927
 21
689.276836476437
 31
0.0
  0
LINE
  5
6E
330
1F
100
AcDbEntity
  8
C-A
  6
Continuous
 62
     3
370
     9
100
AcDbLine
 10
-813.5985651684896
 20
833.2771416522183
 30
0.0
 11
-813.5985651684896
 21
689.276836476437
 31
0.0
  0
LINE
  5
6F
330
1F
100
AcDbEntity
  8
C-A
  6
Continuous
 62
     3
370
     9
100
AcDbLine
 10
-805.5987177563802
 20
833.2771416522183
 30
0.0
 11
-805.5987177563802
 21
689.276836476437
 31
0.0
  0
LINE
  5
70
330
1F
100
AcDbEntity
  8
C-A
  6
Continuous
 62
     3
370
     9
100
AcDbLine
 10
-827.5987787915365
 20
833.2771416522183
 30
0.0
 11
-827.5987787915365
 21
689.276836476437
 31
0.0
  0
LINE
  5
71
330
1F
100
AcDbEntity
  8
C-A
  6
Continuous
 62
     3
370
     9
100
AcDbLine
 10
-819.5986872388021
 20
833.2771416522183
 30
0.0
 11
-819.5986872388021
 21
689.276836476437
 31
0.0
  0
LINE
  5
72
330
1F
100
AcDbEntity
  8
C-A
  6
Continuous
 62
     3
370
     9
100
AcDbLine
 10
-841.5987482739583
 20
833.2771416522183
 30
0.0
 11
-841.5987482739583
 21
689.276836476437
 31
0.0
  0
LINE
  5
73
330
1F
100
AcDbEntity
  8
C-A
  6
Continuous
 62
     3
370
     9
100
AcDbLine
 10
-833.598916120638
 20
833.2771416522183
 30
0.0
 11
-833.598916120638
 21
689.276836476437
 31
0.0
  0
LINE
  5
74
330
1F
100
AcDbEntity
  8
C-A
  6
Continuous
 62
     3
370
     9
100
AcDbLine
 10
-855.5987177563802
 20
833.2771416522183
 30
0.0
 11
-855.5987177563802
 21
689.276836476437
 31
0.0
  0
LINE
  5
75
330
1F
100
AcDbEntity
  8
C-A
  6
Continuous
 62
     3
370
     9
100
AcDbLine
 10
-847.5988703442708
 20
833.2771416522183
 30
0.0
 11
-847.5988703442708
 21
689.276836476437
 31
0.0
  0
LINE
  5
76
330
1F
100
AcDbEntity
  8
C-A
  6
Continuous
 62
     3
370
     9
100
AcDbLine
 10
-869.5989313794271
 20
833.2771416522183
 30
0.0
 11
-869.5989313794271
 21
689.276836476437
 31
0.0
  0
LINE
  5
77
330
1F
100
AcDbEntity
  8
C-A
  6
Continuous
 62
     3
370
     9
100
AcDbLine
 10
-861.5988398266927
 20
833.2771416522183
 30
0.0
 11
-861.5988398266927
 21
689.276836476437
 31
0.0
  0
LINE
  5
78
330
1F
100
AcDbEntity
  8
C-A
  6
Continuous
 62
     3
370
     9
100
AcDbLine
 10
-883.5986414624349
 20
833.2771416522183
 30
0.0
 11
-883.5986414624349
 21
689.276836476437
 31
0.0
  0
LINE
  5
79
330
1F
100
AcDbEntity
  8
C-A
  6
Continuous
 62
     3
370
     9
100
AcDbLine
 10
-875.5988093091146
 20
833.2771416522183
 30
0.0
 11
-875.5988093091146
 21
689.276836476437
 31
0.0
  0
LINE
  5
7A
330
1F
100
AcDbEntity
  8
C-A
  6
Continuous
 62
     3
370
     9
100
AcDbLine
 10
-897.5988550854818
 20
833.2771416522183
 30
0.0
 11
-897.5988550854818
 21
689.276836476437
 31
0.0
  0
LINE
  5
7B
330
1F
100
AcDbEntity
  8
C-A
  6
Continuous
 62
     3
370
     9
100
AcDbLine
 10
-889.5990229321615
 20
833.2771416522183
 30
0.0
 11
-889.5990229321615
 21
689.276836476437
 31
0.0
  0
LINE
  5
7C
330
1F
100
AcDbEntity
  8
C-A
  6
Continuous
 62
     3
370
     9
100
AcDbLine
 10
-911.5988245679036
 20
833.2771416522183
 30
0.0
 11
-911.5988245679036
 21
689.276836476437
 31
0.0
  0
LINE
  5
7D
330
1F
100
AcDbEntity
  8
C-A
  6
Continuous
 62
     3
370
     9
100
AcDbLine
 10
-903.5989924145833
 20
833.2771416522183
 30
0.0
 11
-903.5989924145833
 21
689.276836476437
 31
0.0
  0
LINE
  5
7E
330
1F
100
AcDbEntity
  8
C-A
  6
Continuous
 62
     3
370
     9
100
AcDbLine
 10
-925.5987940503255
 20
833.2771416522183
 30
0.0
 11
-925.5987940503255
 21
689.276836476437
 31
0.0
  0
LINE
  5
7F
330
1F
100
AcDbEntity
  8
C-A
  6
Continuous
 62
     3
370
     9
100
AcDbLine
 10
-917.5987024975911
 20
833.2771416522183
 30
0.0
 11
-917.5987024975911
 21
689.276836476437
 31
0.0
  0
LINE
  5
80
330
1F
100
AcDbEntity
  8
C-A
  6
Continuous
 62
     3
370
     9
100
AcDbLine
 10
-939.5987635327474
 20
833.2771416522183
 30
0.0
 11
-939.5987635327474
 21
689.276836476437
 31
0.0
  0
LINE
  5
81
330
1F
100
AcDbEntity
  8
C-A
  6
Continuous
 62
     3
370
     9
100
AcDbLine
 10
-931.598671980013
 20
833.2771416522183
 30
0.0
 11
-931.598671980013
 21
689.276836476437
 31
0.0
  0
LINE
  5
82
330
1F
100
AcDbEntity
  8
C-2
  6
Continuous
 62
     3
370
     9
100
AcDbLine
 10
-1290.598900861849
 20
686.2772637225307
 30
0.0
 11
-1290.598900861849
 21
836.2772026873745
 31
0.0
  0
LINE
  5
83
330
1F
100
AcDbEntity
  8
C-2
  6
Continuous
 62
     3
370
     9
100
AcDbLine
 10
-291.5985346509115
 20
836.2772026873745
 30
0.0
 11
-291.5985346509115
 21
686.2772637225307
 31
0.0
  0
LINE
  5
84
330
1F
100
AcDbEntity
  8
C-2
  6
Continuous
 62
     3
370
     9
100
AcDbLine
 10
-291.5985346509115
 20
686.2772637225307
 30
0.0
 11
-42.59877879153635
 21
686.2772637225307
 31
0.0
  0
LINE
  5
85
330
1F
100
AcDbEntity
  8
C-2
  6
Continuous
 62
     3
370
     9
100
AcDbLine
 10
-1290.598900861849
 20
686.2772637225307
 30
0.0
 11
-1540.59905344974
 21
686.2772637225307
 31
0.0
  0
LINE
  5
86
330
1F
100
AcDbEntity
  8
C-2
  6
Continuous
 62
     3
370
     9
100
AcDbLine
 10
-791.5990229321615
 20
686.2772637225307
 30
0.0
 11
-1289.598900861849
 21
686.2772637225307
 31
0.0
  0
LINE
  5
87
330
1F
100
AcDbEntity
  8
C-2
  6
Continuous
 62
     3
370
     9
100
AcDbLine
 10
-292.5986567212238
 20
686.2772637225307
 30
0.0
 11
-790.5985651684896
 21
686.2772637225307
 31
0.0
  0
LINE
  5
88
330
1F
100
AcDbEntity
  8
C-2
  6
Continuous
 62
     3
370
     9
100
AcDbLine
 10
-790.5985651684896
 20
836.2772026873745
 30
0.0
 11
-292.5986567212238
 21
836.2772026873745
 31
0.0
  0
LINE
  5
89
330
1F
100
AcDbEntity
  8
C-4
  6
Continuous
 62
     7
370
     9
100
AcDbLine
 10
-1290.598900861849
 20
856.2772942401089
 30
0.0
 11
-1290.598900861849
 21
939.2772332049526
 31
0.0
  0
LINE
  5
8A
330
1F
100
AcDbEntity
  8
C-4
  6
Continuous
 62
     7
370
     9
100
AcDbLine
 10
-1290.598900861849
 20
936.2766838885464
 30
0.0
 11
-792.5990229321615
 21
936.2766838885464
 31
0.0
  0
LINE
  5
8B
330
1F
100
AcDbEntity
  8
C-4
  6
Continuous
 62
     7
370
     9
100
AcDbLine
 10
-792.5990229321615
 20
936.2766838885464
 30
0.0
 11
-790.5985651684896
 21
936.2766838885464
 31
0.0
  0
LINE
  5
8C
330
1F
100
AcDbEntity
  8
C-4
  6
Continuous
 62
     7
370
     9
100
AcDbLine
 10
-790.5985651684896
 20
936.2766838885464
 30
0.0
 11
-292.5986567212238
 21
936.2766838885464
 31
0.0
  0
LINE
  5
8D
330
1F
100
AcDbEntity
  8
C-4
  6
Continuous
 62
     7
370
     9
100
AcDbLine
 10
-292.5986567212238
 20
856.2772942401089
 30
0.0
 11
-292.5986567212238
 21
939.2772332049526
 31
0.0
  0
LINE
  5
8E
330
1F
100
AcDbEntity
  8
C-4
  6
Continuous
 62
     7
370
     9
100
AcDbLine
 10
-1542.598778791536
 20
1016.277050099484
 30
0.0
 11
-790.5985651684896
 21
1016.277050099484
 31
0.0
  0
LINE
  5
8F
330
1F
100
AcDbEntity
  8
C-4
  6
Continuous
 62
     7
370
     9
100
AcDbLine
 10
-790.5985651684896
 20
1016.277050099484
 30
0.0
 11
-41.59865672122393
 21
1016.277050099484
 31
0.0
  0
LINE
  5
90
330
1F
100
AcDbEntity
  8
C-4
  6
Continuous
 62
     7
370
     9
100
AcDbLine
 10
-1542.598778791536
 20
936.2766838885464
 30
0.0
 11
-1290.598900861849
 21
936.2766838885464
 31
0.0
  0
LINE
  5
91
330
1F
100
AcDbEntity
  8
C-4
  6
Continuous
 62
     7
370
     9
100
AcDbLine
 10
-292.5986567212238
 20
936.2766838885464
 30
0.0
 11
-41.59865672122393
 21
936.2766838885464
 31
0.0
  0
LINE
  5
92
330
1F
100
AcDbEntity
  8
C-4
  6
Continuous
 62
     7
370
     9
100
AcDbLine
 10
-791.5990229321615
 20
856.2772942401089
 30
0.0
 11
-791.5990229321615
 21
939.2772332049526
 31
0.0
  0
LINE
  5
93
330
1F
100
AcDbEntity
  8
C-4
  6
Continuous
 62
     7
370
     9
100
AcDbLine
 10
-790.5985651684896
 20
856.2772942401089
 30
0.0
 11
-790.5985651684896
 21
1019.27662285339
 31
0.0
  0
LINE
  5
94
330
1F
100
AcDbEntity
  8
C-4
  6
Continuous
 62
     7
370
     9
100
AcDbLine
 10
-1289.59856516849
 20
856.2772942401089
 30
0.0
 11
-1289.59856516849
 21
1019.27662285339
 31
0.0
  0
LINE
  5
95
330
1F
100
AcDbEntity
  8
C-4
  6
Continuous
 62
     7
370
     9
100
AcDbLine
 10
-291.5985346509115
 20
856.2772942401089
 30
0.0
 11
-291.5985346509115
 21
1019.27662285339
 31
0.0
  0
LINE
  5
96
330
1F
100
AcDbEntity
  8
C-2
  6
Continuous
 62
     3
370
     9
100
AcDbLine
 10
-1289.598900861849
 20
836.2772026873745
 30
0.0
 11
-791.5990229321615
 21
836.2772026873745
 31
0.0
  0
LINE
  5
97
330
1F
100
AcDbEntity
  8
C-2
  6
Continuous
 62
     3
370
     9
100
AcDbLine
 10
-1290.598900861849
 20
836.2772026873745
 30
0.0
 11
-1540.59905344974
 21
836.2772026873745
 31
0.0
  0
LINE
  5
98
330
1F
100
AcDbEntity
  8
C-2
  6
Continuous
 62
     3
370
     9
100
AcDbLine
 10
-291.5985346509115
 20
836.2772026873745
 30
0.0
 11
-42.59877879153635
 21
836.2772026873745
 31
0.0
  0
LINE
  5
99
330
1F
100
AcDbEntity
  8
C-2
  6
Continuous
 62
     3
370
     9
100
AcDbLine
 10
-1540.59905344974
 20
776.2775383807339
 30
0.0
 11
-1520.598473615755
 21
776.2775383807339
 31
0.0
  0
LINE
  5
9A
330
1F
100
AcDbEntity
  8
C-2
  6
Continuous
 62
     3
370
     9
100
AcDbLine
 10
-1560.598656721224
 20
746.2768975115932
 30
0.0
 11
-1540.59905344974
 21
746.2768975115932
 31
0.0
  0
TEXT
  5
9B
330
1F
100
AcDbEntity
  8
F-5ﾚｲﾔ
  6
Continuous
 62
     2
370
     9
100
AcDbText
 10
-845.3997081828237
 20
-1322.642571106638
 30
0.0
 40
30.48
  1
ステンレス製　細目ノンスリップタイプ（ローレット模様）グレーチング（すきま6mm）
 41
0.774367088607595
  7
ＭＳ ゴシック
100
AcDbText
  0
LINE
  5
9C
330
1F
100
AcDbEntity
  8
C-A
  6
Continuous
 62
     3
370
     9
100
AcDbLine
 10
-1281.598809309115
 20
689.276836476437
 30
0.0
 11
-1281.598809309115
 21
833.2771416522183
 31
0.0
  0
LINE
  5
9D
330
1F
100
AcDbEntity
  8
C-A
  6
Continuous
 62
     3
370
     9
100
AcDbLine
 10
-1267.598839826693
 20
689.276836476437
 30
0.0
 11
-1267.598839826693
 21
833.2771416522183
 31
0.0
  0
LINE
  5
9E
330
1F
100
AcDbEntity
  8
C-A
  6
Continuous
 62
     3
370
     9
100
AcDbLine
 10
-1275.598931379427
 20
689.276836476437
 30
0.0
 11
-1275.598931379427
 21
833.2771416522183
 31
0.0
  0
LINE
  5
9F
330
1F
100
AcDbEntity
  8
C-A
  6
Continuous
 62
     3
370
     9
100
AcDbLine
 10
-1253.598870344271
 20
689.276836476437
 30
0.0
 11
-1253.598870344271
 21
833.2771416522183
 31
0.0
  0
LINE
  5
A0
330
1F
100
AcDbEntity
  8
C-A
  6
Continuous
 62
     3
370
     9
100
AcDbLine
 10
-1261.598961897005
 20
689.276836476437
 30
0.0
 11
-1261.598961897005
 21
833.2771416522183
 31
0.0
  0
LINE
  5
A1
330
1F
100
AcDbEntity
  8
C-A
  6
Continuous
 62
     3
370
     9
100
AcDbLine
 10
-1239.598656721224
 20
689.276836476437
 30
0.0
 11
-1239.598656721224
 21
833.2771416522183
 31
0.0
  0
LINE
  5
A2
330
1F
100
AcDbEntity
  8
C-A
  6
Continuous
 62
     3
370
     9
100
AcDbLine
 10
-1247.598748273958
 20
689.276836476437
 30
0.0
 11
-1247.598748273958
 21
833.2771416522183
 31
0.0
  0
LINE
  5
A3
330
1F
100
AcDbEntity
  8
C-A
  6
Continuous
 62
     3
370
     9
100
AcDbLine
 10
-1225.598931379427
 20
689.276836476437
 30
0.0
 11
-1225.598931379427
 21
833.2771416522183
 31
0.0
  0
LINE
  5
A4
330
1F
100
AcDbEntity
  8
C-A
  6
Continuous
 62
     3
370
     9
100
AcDbLine
 10
-1233.599022932161
 20
689.276836476437
 30
0.0
 11
-1233.599022932161
 21
833.2771416522183
 31
0.0
  0
LINE
  5
A5
330
1F
100
AcDbEntity
  8
C-A
  6
Continuous
 62
     3
370
     9
100
AcDbLine
 10
-1211.598961897005
 20
689.276836476437
 30
0.0
 11
-1211.598961897005
 21
833.2771416522183
 31
0.0
  0
LINE
  5
A6
330
1F
100
AcDbEntity
  8
C-A
  6
Continuous
 62
     3
370
     9
100
AcDbLine
 10
-1219.59905344974
 20
689.276836476437
 30
0.0
 11
-1219.59905344974
 21
833.2771416522183
 31
0.0
  0
LINE
  5
A7
330
1F
100
AcDbEntity
  8
C-A
  6
Continuous
 62
     3
370
     9
100
AcDbLine
 10
-1197.599022932161
 20
689.276836476437
 30
0.0
 11
-1197.599022932161
 21
833.2771416522183
 31
0.0
  0
LINE
  5
A8
330
1F
100
AcDbEntity
  8
C-A
  6
Continuous
 62
     3
370
     9
100
AcDbLine
 10
-1205.598839826693
 20
689.276836476437
 30
0.0
 11
-1205.598839826693
 21
833.2771416522183
 31
0.0
  0
LINE
  5
A9
330
1F
100
AcDbEntity
  8
C-A
  6
Continuous
 62
     3
370
     9
100
AcDbLine
 10
-1183.598809309115
 20
689.276836476437
 30
0.0
 11
-1183.598809309115
 21
833.2771416522183
 31
0.0
  0
LINE
  5
AA
330
1F
100
AcDbEntity
  8
C-A
  6
Continuous
 62
     3
370
     9
100
AcDbLine
 10
-1191.598626203646
 20
689.276836476437
 30
0.0
 11
-1191.598626203646
 21
833.2771416522183
 31
0.0
  0
LINE
  5
AB
330
1F
100
AcDbEntity
  8
C-A
  6
Continuous
 62
     3
370
     9
100
AcDbLine
 10
-1169.598839826692
 20
689.276836476437
 30
0.0
 11
-1169.598839826692
 21
833.2771416522183
 31
0.0
  0
LINE
  5
AC
330
1F
100
AcDbEntity
  8
C-A
  6
Continuous
 62
     3
370
     9
100
AcDbLine
 10
-1177.598656721224
 20
689.276836476437
 30
0.0
 11
-1177.598656721224
 21
833.2771416522183
 31
0.0
  0
LINE
  5
AD
330
1F
100
AcDbEntity
  8
C-A
  6
Continuous
 62
     3
370
     9
100
AcDbLine
 10
-1155.598870344271
 20
689.276836476437
 30
0.0
 11
-1155.598870344271
 21
833.2771416522183
 31
0.0
  0
LINE
  5
AE
330
1F
100
AcDbEntity
  8
C-A
  6
Continuous
 62
     3
370
     9
100
AcDbLine
 10
-1163.598961897005
 20
689.276836476437
 30
0.0
 11
-1163.598961897005
 21
833.2771416522183
 31
0.0
  0
LINE
  5
AF
330
1F
100
AcDbEntity
  8
C-A
  6
Continuous
 62
     3
370
     9
100
AcDbLine
 10
-1141.598900861849
 20
689.276836476437
 30
0.0
 11
-1141.598900861849
 21
833.2771416522183
 31
0.0
  0
LINE
  5
B0
330
1F
100
AcDbEntity
  8
C-A
  6
Continuous
 62
     3
370
     9
100
AcDbLine
 10
-1149.598992414583
 20
689.276836476437
 30
0.0
 11
-1149.598992414583
 21
833.2771416522183
 31
0.0
  0
LINE
  5
B1
330
1F
100
AcDbEntity
  8
C-A
  6
Continuous
 62
     3
370
     9
100
AcDbLine
 10
-1135.599022932161
 20
689.276836476437
 30
0.0
 11
-1135.599022932161
 21
833.2771416522183
 31
0.0
  0
LINE
  5
B2
330
1F
100
AcDbEntity
  8
C-A
  6
Continuous
 62
     3
370
     9
100
AcDbLine
 10
-1113.59871775638
 20
689.276836476437
 30
0.0
 11
-1113.59871775638
 21
833.2771416522183
 31
0.0
  0
LINE
  5
B3
330
1F
100
AcDbEntity
  8
C-A
  6
Continuous
 62
     3
370
     9
100
AcDbLine
 10
-1107.598595686067
 20
689.276836476437
 30
0.0
 11
-1107.598595686067
 21
833.2771416522183
 31
0.0
  0
LINE
  5
B4
330
1F
100
AcDbEntity
  8
C-A
  6
Continuous
 62
     3
370
     9
100
AcDbLine
 10
-1099.598504133333
 20
689.276836476437
 30
0.0
 11
-1099.598504133333
 21
833.2771416522183
 31
0.0
  0
LINE
  5
B5
330
1F
100
AcDbEntity
  8
C-A
  6
Continuous
 62
     3
370
     9
100
AcDbLine
 10
-1093.59838206302
 20
689.276836476437
 30
0.0
 11
-1093.59838206302
 21
833.2771416522183
 31
0.0
  0
LINE
  5
B6
330
1F
100
AcDbEntity
  8
C-A
  6
Continuous
 62
     3
370
     9
100
AcDbLine
 10
-1085.598290510286
 20
689.276836476437
 30
0.0
 11
-1085.598290510286
 21
833.2771416522183
 31
0.0
  0
LINE
  5
B7
330
1F
100
AcDbEntity
  8
C-A
  6
Continuous
 62
     3
370
     9
100
AcDbLine
 10
-1079.598168439974
 20
689.276836476437
 30
0.0
 11
-1079.598168439974
 21
833.2771416522183
 31
0.0
  0
LINE
  5
B8
330
1F
100
AcDbEntity
  8
C-A
  6
Continuous
 62
     3
370
     9
100
AcDbLine
 10
-1071.598076887239
 20
689.276836476437
 30
0.0
 11
-1071.598076887239
 21
833.2771416522183
 31
0.0
  0
LINE
  5
B9
330
1F
100
AcDbEntity
  8
C-A
  6
Continuous
 62
     3
370
     9
100
AcDbLine
 10
-1065.597954816926
 20
689.276836476437
 30
0.0
 11
-1065.597954816926
 21
833.2771416522183
 31
0.0
  0
LINE
  5
BA
330
1F
100
AcDbEntity
  8
C-A
  6
Continuous
 62
     3
370
     9
100
AcDbLine
 10
-1057.597863264192
 20
689.276836476437
 30
0.0
 11
-1057.597863264192
 21
833.2771416522183
 31
0.0
  0
LINE
  5
BB
330
1F
100
AcDbEntity
  8
C-A
  6
Continuous
 62
     3
370
     9
100
AcDbLine
 10
-1051.59774119388
 20
689.276836476437
 30
0.0
 11
-1051.59774119388
 21
833.2771416522183
 31
0.0
  0
LINE
  5
BC
330
1F
100
AcDbEntity
  8
C-A
  6
Continuous
 62
     3
370
     9
100
AcDbLine
 10
-1043.597649641145
 20
689.276836476437
 30
0.0
 11
-1043.597649641145
 21
833.2771416522183
 31
0.0
  0
LINE
  5
BD
330
1F
100
AcDbEntity
  8
C-A
  6
Continuous
 62
     3
370
     9
100
AcDbLine
 10
-1037.597527570832
 20
689.276836476437
 30
0.0
 11
-1037.597527570832
 21
833.2771416522183
 31
0.0
  0
LINE
  5
BE
330
1F
100
AcDbEntity
  8
C-A
  6
Continuous
 62
     3
370
     9
100
AcDbLine
 10
-1029.597436018098
 20
689.276836476437
 30
0.0
 11
-1029.597436018098
 21
833.2771416522183
 31
0.0
  0
LINE
  5
BF
330
1F
100
AcDbEntity
  8
C-A
  6
Continuous
 62
     3
370
     9
100
AcDbLine
 10
-1023.597313947786
 20
689.276836476437
 30
0.0
 11
-1023.597313947786
 21
833.2771416522183
 31
0.0
  0
LINE
  5
C0
330
1F
100
AcDbEntity
  8
C-A
  6
Continuous
 62
     3
370
     9
100
AcDbLine
 10
-1015.597222395051
 20
689.276836476437
 30
0.0
 11
-1015.597222395051
 21
833.2771416522183
 31
0.0
  0
LINE
  5
C1
330
1F
100
AcDbEntity
  8
C-A
  6
Continuous
 62
     3
370
     9
100
AcDbLine
 10
-1009.597100324738
 20
689.276836476437
 30
0.0
 11
-1009.597100324738
 21
833.2771416522183
 31
0.0
  0
LINE
  5
C2
330
1F
100
AcDbEntity
  8
C-A
  6
Continuous
 62
     3
370
     9
100
AcDbLine
 10
-1001.597008772004
 20
689.276836476437
 30
0.0
 11
-1001.597008772004
 21
833.2771416522183
 31
0.0
  0
LINE
  5
C3
330
1F
100
AcDbEntity
  8
C-A
  6
Continuous
 62
     3
370
     9
100
AcDbLine
 10
-995.5968867016916
 20
689.276836476437
 30
0.0
 11
-995.5968867016916
 21
833.2771416522183
 31
0.0
  0
LINE
  5
C4
330
1F
100
AcDbEntity
  8
C-A
  6
Continuous
 62
     3
370
     9
100
AcDbLine
 10
-987.5967951489571
 20
689.276836476437
 30
0.0
 11
-987.5967951489571
 21
833.2771416522183
 31
0.0
  0
LINE
  5
C5
330
1F
100
AcDbEntity
  8
C-A
  6
Continuous
 62
     3
370
     9
100
AcDbLine
 10
-981.5966730786445
 20
689.276836476437
 30
0.0
 11
-981.5966730786445
 21
833.2771416522183
 31
0.0
  0
LINE
  5
C6
330
1F
100
AcDbEntity
  8
C-A
  6
Continuous
 62
     3
370
     9
100
AcDbLine
 10
-973.5965815259101
 20
689.276836476437
 30
0.0
 11
-973.5965815259101
 21
833.2771416522183
 31
0.0
  0
LINE
  5
C7
330
1F
100
AcDbEntity
  8
C-A
  6
Continuous
 62
     3
370
     9
100
AcDbLine
 10
-967.5964594555976
 20
689.276836476437
 30
0.0
 11
-967.5964594555976
 21
833.2771416522183
 31
0.0
  0
LINE
  5
C8
330
1F
100
AcDbEntity
  8
C-A
  6
Continuous
 62
     3
370
     9
100
AcDbLine
 10
-959.5963679028631
 20
689.276836476437
 30
0.0
 11
-959.5963679028631
 21
833.2771416522183
 31
0.0
  0
LINE
  5
C9
330
1F
100
AcDbEntity
  8
C-A
  6
Continuous
 62
     3
370
     9
100
AcDbLine
 10
-953.5962458325505
 20
689.276836476437
 30
0.0
 11
-953.5962458325505
 21
833.2771416522183
 31
0.0
  0
LINE
  5
CA
330
1F
100
AcDbEntity
  8
C-A
  6
Continuous
 62
     3
370
     9
100
AcDbLine
 10
-945.5991297436849
 20
689.276836476437
 30
0.0
 11
-945.5991297436849
 21
833.2771416522183
 31
0.0
  0
LINE
  5
CB
330
1F
100
AcDbEntity
  8
C-A
  6
Continuous
 62
     3
370
     9
100
AcDbLine
 10
-628.5985956860677
 20
689.276836476437
 30
0.0
 11
-628.5985956860677
 21
833.2771416522183
 31
0.0
  0
LINE
  5
CC
330
1F
100
AcDbEntity
  8
C-A
  6
Continuous
 62
     3
370
     9
100
AcDbLine
 10
-622.5984736157551
 20
689.276836476437
 30
0.0
 11
-622.5984736157551
 21
833.2771416522183
 31
0.0
  0
LINE
  5
CD
330
1F
100
AcDbEntity
  8
C-A
  6
Continuous
 62
     3
370
     9
100
AcDbLine
 10
-292.5986872388022
 20
833.2771416522183
 30
0.0
 11
-790.5985651684896
 21
833.2771416522183
 31
0.0
  0
LINE
  5
CE
330
1F
100
AcDbEntity
  8
C-A
  6
Continuous
 62
     3
370
     9
100
AcDbLine
 10
-292.5986872388022
 20
689.276836476437
 30
0.0
 11
-790.5985651684896
 21
689.276836476437
 31
0.0
  0
LINE
  5
CF
330
1F
100
AcDbEntity
  8
C-A
  6
Continuous
 62
     3
370
     9
100
AcDbLine
 10
-300.5985041333333
 20
833.2771416522183
 30
0.0
 11
-300.5985041333333
 21
689.276836476437
 31
0.0
  0
LINE
  5
D0
330
1F
100
AcDbEntity
  8
C-A
  6
Continuous
 62
     3
370
     9
100
AcDbLine
 10
-314.5982294751303
 20
833.2771416522183
 30
0.0
 11
-314.5982294751303
 21
689.276836476437
 31
0.0
  0
LINE
  5
D1
330
1F
100
AcDbEntity
  8
C-A
  6
Continuous
 62
     3
370
     9
100
AcDbLine
 10
-306.5983820630208
 20
833.2771416522183
 30
0.0
 11
-306.5983820630208
 21
689.276836476437
 31
0.0
  0
LINE
  5
D2
330
1F
100
AcDbEntity
  8
C-A
  6
Continuous
 62
     3
370
     9
100
AcDbLine
 10
-328.5984430981772
 20
833.2771416522183
 30
0.0
 11
-328.5984430981772
 21
689.276836476437
 31
0.0
  0
LINE
  5
D3
330
1F
100
AcDbEntity
  8
C-A
  6
Continuous
 62
     3
370
     9
100
AcDbLine
 10
-320.5983515454427
 20
833.2771416522183
 30
0.0
 11
-320.5983515454427
 21
689.276836476437
 31
0.0
  0
LINE
  5
D4
330
1F
100
AcDbEntity
  8
C-A
  6
Continuous
 62
     3
370
     9
100
AcDbLine
 10
-342.5984125805991
 20
833.2771416522183
 30
0.0
 11
-342.5984125805991
 21
689.276836476437
 31
0.0
  0
LINE
  5
D5
330
1F
100
AcDbEntity
  8
C-A
  6
Continuous
 62
     3
370
     9
100
AcDbLine
 10
-334.5985804272788
 20
833.2771416522183
 30
0.0
 11
-334.5985804272788
 21
689.276836476437
 31
0.0
  0
LINE
  5
D6
330
1F
100
AcDbEntity
  8
C-A
  6
Continuous
 62
     3
370
     9
100
AcDbLine
 10
-356.5983820630208
 20
833.2771416522183
 30
0.0
 11
-356.5983820630208
 21
689.276836476437
 31
0.0
  0
LINE
  5
D7
330
1F
100
AcDbEntity
  8
C-A
  6
Continuous
 62
     3
370
     9
100
AcDbLine
 10
-348.5985346509115
 20
833.2771416522183
 30
0.0
 11
-348.5985346509115
 21
689.276836476437
 31
0.0
  0
LINE
  5
D8
330
1F
100
AcDbEntity
  8
C-A
  6
Continuous
 62
     3
370
     9
100
AcDbLine
 10
-370.5985956860678
 20
833.2771416522183
 30
0.0
 11
-370.5985956860678
 21
689.276836476437
 31
0.0
  0
LINE
  5
D9
330
1F
100
AcDbEntity
  8
C-A
  6
Continuous
 62
     3
370
     9
100
AcDbLine
 10
-362.5985041333334
 20
833.2771416522183
 30
0.0
 11
-362.5985041333334
 21
689.276836476437
 31
0.0
  0
LINE
  5
DA
330
1F
100
AcDbEntity
  8
C-A
  6
Continuous
 62
     3
370
     9
100
AcDbLine
 10
-384.5983057690756
 20
833.2771416522183
 30
0.0
 11
-384.5983057690756
 21
689.276836476437
 31
0.0
  0
LINE
  5
DB
330
1F
100
AcDbEntity
  8
C-A
  6
Continuous
 62
     3
370
     9
100
AcDbLine
 10
-376.5984736157553
 20
833.2771416522183
 30
0.0
 11
-376.5984736157553
 21
689.276836476437
 31
0.0
  0
LINE
  5
DC
330
1F
100
AcDbEntity
  8
C-A
  6
Continuous
 62
     3
370
     9
100
AcDbLine
 10
-398.5985193921225
 20
833.2771416522183
 30
0.0
 11
-398.5985193921225
 21
689.276836476437
 31
0.0
  0
LINE
  5
DD
330
1F
100
AcDbEntity
  8
C-A
  6
Continuous
 62
     3
370
     9
100
AcDbLine
 10
-390.5986872388021
 20
833.2771416522183
 30
0.0
 11
-390.5986872388021
 21
689.276836476437
 31
0.0
  0
LINE
  5
DE
330
1F
100
AcDbEntity
  8
C-A
  6
Continuous
 62
     3
370
     9
100
AcDbLine
 10
-412.5984888745444
 20
833.2771416522183
 30
0.0
 11
-412.5984888745444
 21
689.276836476437
 31
0.0
  0
LINE
  5
DF
330
1F
100
AcDbEntity
  8
C-A
  6
Continuous
 62
     3
370
     9
100
AcDbLine
 10
-404.5986567212241
 20
833.2771416522183
 30
0.0
 11
-404.5986567212241
 21
689.276836476437
 31
0.0
  0
LINE
  5
E0
330
1F
100
AcDbEntity
  8
C-A
  6
Continuous
 62
     3
370
     9
100
AcDbLine
 10
-426.5984583569661
 20
833.2771416522183
 30
0.0
 11
-426.5984583569661
 21
689.276836476437
 31
0.0
  0
LINE
  5
E1
330
1F
100
AcDbEntity
  8
C-A
  6
Continuous
 62
     3
370
     9
100
AcDbLine
 10
-418.5983668042319
 20
833.2771416522183
 30
0.0
 11
-418.5983668042319
 21
689.276836476437
 31
0.0
  0
LINE
  5
E2
330
1F
100
AcDbEntity
  8
C-A
  6
Continuous
 62
     3
370
     9
100
AcDbLine
 10
-440.598427839388
 20
833.2771416522183
 30
0.0
 11
-440.598427839388
 21
689.276836476437
 31
0.0
  0
LINE
  5
E3
330
1F
100
AcDbEntity
  8
C-A
  6
Continuous
 62
     3
370
     9
100
AcDbLine
 10
-432.5983362866538
 20
833.2771416522183
 30
0.0
 11
-432.5983362866538
 21
689.276836476437
 31
0.0
  0
LINE
  5
E4
330
1F
100
AcDbEntity
  8
C-A
  6
Continuous
 62
     3
370
     9
100
AcDbLine
 10
-782.5984736157554
 20
689.276836476437
 30
0.0
 11
-782.5984736157554
 21
833.2771416522183
 31
0.0
  0
LINE
  5
E5
330
1F
100
AcDbEntity
  8
C-A
  6
Continuous
 62
     3
370
     9
100
AcDbLine
 10
-768.5985041333333
 20
689.276836476437
 30
0.0
 11
-768.5985041333333
 21
833.2771416522183
 31
0.0
  0
LINE
  5
E6
330
1F
100
AcDbEntity
  8
C-A
  6
Continuous
 62
     3
370
     9
100
AcDbLine
 10
-776.5985956860677
 20
689.276836476437
 30
0.0
 11
-776.5985956860677
 21
833.2771416522183
 31
0.0
  0
LINE
  5
E7
330
1F
100
AcDbEntity
  8
C-A
  6
Continuous
 62
     3
370
     9
100
AcDbLine
 10
-754.5985346509115
 20
689.276836476437
 30
0.0
 11
-754.5985346509115
 21
833.2771416522183
 31
0.0
  0
LINE
  5
E8
330
1F
100
AcDbEntity
  8
C-A
  6
Continuous
 62
     3
370
     9
100
AcDbLine
 10
-762.5986262036458
 20
689.276836476437
 30
0.0
 11
-762.5986262036458
 21
833.2771416522183
 31
0.0
  0
LINE
  5
E9
330
1F
100
AcDbEntity
  8
C-A
  6
Continuous
 62
     3
370
     9
100
AcDbLine
 10
-740.5983210278646
 20
689.276836476437
 30
0.0
 11
-740.5983210278646
 21
833.2771416522183
 31
0.0
  0
LINE
  5
EA
330
1F
100
AcDbEntity
  8
C-A
  6
Continuous
 62
     3
370
     9
100
AcDbLine
 10
-748.598412580599
 20
689.276836476437
 30
0.0
 11
-748.598412580599
 21
833.2771416522183
 31
0.0
  0
LINE
  5
EB
330
1F
100
AcDbEntity
  8
C-A
  6
Continuous
 62
     3
370
     9
100
AcDbLine
 10
-726.5985956860677
 20
689.276836476437
 30
0.0
 11
-726.5985956860677
 21
833.2771416522183
 31
0.0
  0
LINE
  5
EC
330
1F
100
AcDbEntity
  8
C-A
  6
Continuous
 62
     3
370
     9
100
AcDbLine
 10
-734.5986872388021
 20
689.276836476437
 30
0.0
 11
-734.5986872388021
 21
833.2771416522183
 31
0.0
  0
LINE
  5
ED
330
1F
100
AcDbEntity
  8
C-A
  6
Continuous
 62
     3
370
     9
100
AcDbLine
 10
-712.5986262036457
 20
689.276836476437
 30
0.0
 11
-712.5986262036457
 21
833.2771416522183
 31
0.0
  0
LINE
  5
EE
330
1F
100
AcDbEntity
  8
C-A
  6
Continuous
 62
     3
370
     9
100
AcDbLine
 10
-720.5987177563802
 20
689.276836476437
 30
0.0
 11
-720.5987177563802
 21
833.2771416522183
 31
0.0
  0
LINE
  5
EF
330
1F
100
AcDbEntity
  8
C-A
  6
Continuous
 62
     3
370
     9
100
AcDbLine
 10
-698.598687238802
 20
689.276836476437
 30
0.0
 11
-698.598687238802
 21
833.2771416522183
 31
0.0
  0
LINE
  5
F0
330
1F
100
AcDbEntity
  8
C-A
  6
Continuous
 62
     3
370
     9
100
AcDbLine
 10
-706.5985041333333
 20
689.276836476437
 30
0.0
 11
-706.5985041333333
 21
833.2771416522183
 31
0.0
  0
LINE
  5
F1
330
1F
100
AcDbEntity
  8
C-A
  6
Continuous
 62
     3
370
     9
100
AcDbLine
 10
-684.5984736157552
 20
689.276836476437
 30
0.0
 11
-684.5984736157552
 21
833.2771416522183
 31
0.0
  0
LINE
  5
F2
330
1F
100
AcDbEntity
  8
C-A
  6
Continuous
 62
     3
370
     9
100
AcDbLine
 10
-692.5982905102865
 20
689.276836476437
 30
0.0
 11
-692.5982905102865
 21
833.2771416522183
 31
0.0
  0
LINE
  5
F3
330
1F
100
AcDbEntity
  8
C-A
  6
Continuous
 62
     3
370
     9
100
AcDbLine
 10
-670.5985041333332
 20
689.276836476437
 30
0.0
 11
-670.5985041333332
 21
833.2771416522183
 31
0.0
  0
LINE
  5
F4
330
1F
100
AcDbEntity
  8
C-A
  6
Continuous
 62
     3
370
     9
100
AcDbLine
 10
-678.5983210278646
 20
689.276836476437
 30
0.0
 11
-678.5983210278646
 21
833.2771416522183
 31
0.0
  0
LINE
  5
F5
330
1F
100
AcDbEntity
  8
C-A
  6
Continuous
 62
     3
370
     9
100
AcDbLine
 10
-656.5985346509115
 20
689.276836476437
 30
0.0
 11
-656.5985346509115
 21
833.2771416522183
 31
0.0
  0
LINE
  5
F6
330
1F
100
AcDbEntity
  8
C-A
  6
Continuous
 62
     3
370
     9
100
AcDbLine
 10
-664.5986262036458
 20
689.276836476437
 30
0.0
 11
-664.5986262036458
 21
833.2771416522183
 31
0.0
  0
LINE
  5
F7
330
1F
100
AcDbEntity
  8
C-A
  6
Continuous
 62
     3
370
     9
100
AcDbLine
 10
-642.5985651684896
 20
689.276836476437
 30
0.0
 11
-642.5985651684896
 21
833.2771416522183
 31
0.0
  0
LINE
  5
F8
330
1F
100
AcDbEntity
  8
C-A
  6
Continuous
 62
     3
370
     9
100
AcDbLine
 10
-650.5986567212238
 20
689.276836476437
 30
0.0
 11
-650.5986567212238
 21
833.2771416522183
 31
0.0
  0
LINE
  5
F9
330
1F
100
AcDbEntity
  8
C-A
  6
Continuous
 62
     3
370
     9
100
AcDbLine
 10
-636.5986872388021
 20
689.276836476437
 30
0.0
 11
-636.5986872388021
 21
833.2771416522183
 31
0.0
  0
LINE
  5
FA
330
1F
100
AcDbEntity
  8
C-A
  6
Continuous
 62
     3
370
     9
100
AcDbLine
 10
-614.5983820630206
 20
689.276836476437
 30
0.0
 11
-614.5983820630206
 21
833.2771416522183
 31
0.0
  0
LINE
  5
FB
330
1F
100
AcDbEntity
  8
C-A
  6
Continuous
 62
     3
370
     9
100
AcDbLine
 10
-608.5982599927081
 20
689.276836476437
 30
0.0
 11
-608.5982599927081
 21
833.2771416522183
 31
0.0
  0
LINE
  5
FC
330
1F
100
AcDbEntity
  8
C-A
  6
Continuous
 62
     3
370
     9
100
AcDbLine
 10
-600.5981684399737
 20
689.276836476437
 30
0.0
 11
-600.5981684399737
 21
833.2771416522183
 31
0.0
  0
LINE
  5
FD
330
1F
100
AcDbEntity
  8
C-A
  6
Continuous
 62
     3
370
     9
100
AcDbLine
 10
-594.5980463696611
 20
689.276836476437
 30
0.0
 11
-594.5980463696611
 21
833.2771416522183
 31
0.0
  0
LINE
  5
FE
330
1F
100
AcDbEntity
  8
C-A
  6
Continuous
 62
     3
370
     9
100
AcDbLine
 10
-586.5979548169266
 20
689.276836476437
 30
0.0
 11
-586.5979548169266
 21
833.2771416522183
 31
0.0
  0
LINE
  5
FF
330
1F
100
AcDbEntity
  8
C-A
  6
Continuous
 62
     3
370
     9
100
AcDbLine
 10
-580.5978327466141
 20
689.276836476437
 30
0.0
 11
-580.5978327466141
 21
833.2771416522183
 31
0.0
  0
LINE
  5
100
330
1F
100
AcDbEntity
  8
C-A
  6
Continuous
 62
     3
370
     9
100
AcDbLine
 10
-572.5977411938798
 20
689.276836476437
 30
0.0
 11
-572.5977411938798
 21
833.2771416522183
 31
0.0
  0
LINE
  5
101
330
1F
100
AcDbEntity
  8
C-A
  6
Continuous
 62
     3
370
     9
100
AcDbLine
 10
-566.5976191235671
 20
689.276836476437
 30
0.0
 11
-566.5976191235671
 21
833.2771416522183
 31
0.0
  0
LINE
  5
102
330
1F
100
AcDbEntity
  8
C-A
  6
Continuous
 62
     3
370
     9
100
AcDbLine
 10
-558.5975275708327
 20
689.276836476437
 30
0.0
 11
-558.5975275708327
 21
833.2771416522183
 31
0.0
  0
LINE
  5
103
330
1F
100
AcDbEntity
  8
C-A
  6
Continuous
 62
     3
370
     9
100
AcDbLine
 10
-552.5974055005202
 20
689.276836476437
 30
0.0
 11
-552.5974055005202
 21
833.2771416522183
 31
0.0
  0
LINE
  5
104
330
1F
100
AcDbEntity
  8
C-A
  6
Continuous
 62
     3
370
     9
100
AcDbLine
 10
-544.5973139477858
 20
689.276836476437
 30
0.0
 11
-544.5973139477858
 21
833.2771416522183
 31
0.0
  0
LINE
  5
105
330
1F
100
AcDbEntity
  8
C-A
  6
Continuous
 62
     3
370
     9
100
AcDbLine
 10
-538.5971918774732
 20
689.276836476437
 30
0.0
 11
-538.5971918774732
 21
833.2771416522183
 31
0.0
  0
LINE
  5
106
330
1F
100
AcDbEntity
  8
C-A
  6
Continuous
 62
     3
370
     9
100
AcDbLine
 10
-530.5971003247387
 20
689.276836476437
 30
0.0
 11
-530.5971003247387
 21
833.2771416522183
 31
0.0
  0
LINE
  5
107
330
1F
100
AcDbEntity
  8
C-A
  6
Continuous
 62
     3
370
     9
100
AcDbLine
 10
-524.5969782544262
 20
689.276836476437
 30
0.0
 11
-524.5969782544262
 21
833.2771416522183
 31
0.0
  0
LINE
  5
108
330
1F
100
AcDbEntity
  8
C-A
  6
Continuous
 62
     3
370
     9
100
AcDbLine
 10
-516.5968867016918
 20
689.276836476437
 30
0.0
 11
-516.5968867016918
 21
833.2771416522183
 31
0.0
  0
LINE
  5
109
330
1F
100
AcDbEntity
  8
C-A
  6
Continuous
 62
     3
370
     9
100
AcDbLine
 10
-510.5967646313792
 20
689.276836476437
 30
0.0
 11
-510.5967646313792
 21
833.2771416522183
 31
0.0
  0
LINE
  5
10A
330
1F
100
AcDbEntity
  8
C-A
  6
Continuous
 62
     3
370
     9
100
AcDbLine
 10
-502.5966730786448
 20
689.276836476437
 30
0.0
 11
-502.5966730786448
 21
833.2771416522183
 31
0.0
  0
LINE
  5
10B
330
1F
100
AcDbEntity
  8
C-A
  6
Continuous
 62
     3
370
     9
100
AcDbLine
 10
-496.5965510083322
 20
689.276836476437
 30
0.0
 11
-496.5965510083322
 21
833.2771416522183
 31
0.0
  0
LINE
  5
10C
330
1F
100
AcDbEntity
  8
C-A
  6
Continuous
 62
     3
370
     9
100
AcDbLine
 10
-488.5964594555978
 20
689.276836476437
 30
0.0
 11
-488.5964594555978
 21
833.2771416522183
 31
0.0
  0
LINE
  5
10D
330
1F
100
AcDbEntity
  8
C-A
  6
Continuous
 62
     3
370
     9
100
AcDbLine
 10
-482.5963373852852
 20
689.276836476437
 30
0.0
 11
-482.5963373852852
 21
833.2771416522183
 31
0.0
  0
LINE
  5
10E
330
1F
100
AcDbEntity
  8
C-A
  6
Continuous
 62
     3
370
     9
100
AcDbLine
 10
-474.5962458325508
 20
689.276836476437
 30
0.0
 11
-474.5962458325508
 21
833.2771416522183
 31
0.0
  0
LINE
  5
10F
330
1F
100
AcDbEntity
  8
C-A
  6
Continuous
 62
     3
370
     9
100
AcDbLine
 10
-468.5961237622382
 20
689.276836476437
 30
0.0
 11
-468.5961237622382
 21
833.2771416522183
 31
0.0
  0
LINE
  5
110
330
1F
100
AcDbEntity
  8
C-A
  6
Continuous
 62
     3
370
     9
100
AcDbLine
 10
-460.5960322095038
 20
689.276836476437
 30
0.0
 11
-460.5960322095038
 21
833.2771416522183
 31
0.0
  0
LINE
  5
111
330
1F
100
AcDbEntity
  8
C-A
  6
Continuous
 62
     3
370
     9
100
AcDbLine
 10
-454.5959101391912
 20
689.276836476437
 30
0.0
 11
-454.5959101391912
 21
833.2771416522183
 31
0.0
  0
LINE
  5
112
330
1F
100
AcDbEntity
  8
C-A
  6
Continuous
 62
     3
370
     9
100
AcDbLine
 10
-446.5987940503255
 20
689.276836476437
 30
0.0
 11
-446.5987940503255
 21
833.2771416522183
 31
0.0
  0
LINE
  5
113
330
1F
100
AcDbEntity
  8
C-A
  6
Continuous
 62
     3
370
     9
100
AcDbLine
 10
-129.5985651684896
 20
689.276836476437
 30
0.0
 11
-129.5985651684896
 21
833.2771416522183
 31
0.0
  0
LINE
  5
114
330
1F
100
AcDbEntity
  8
C-A
  6
Continuous
 62
     3
370
     9
100
AcDbLine
 10
-123.598443098177
 20
689.276836476437
 30
0.0
 11
-123.598443098177
 21
833.2771416522183
 31
0.0
  0
LINE
  5
115
330
1F
100
AcDbEntity
  8
C-A
  6
Continuous
 62
     3
370
     9
100
AcDbLine
 10
-42.59877879153635
 20
689.276836476437
 30
0.0
 11
-291.5985346509115
 21
689.276836476437
 31
0.0
  0
LINE
  5
116
330
1F
100
AcDbEntity
  8
C-A
  6
Continuous
 62
     3
370
     9
100
AcDbLine
 10
-283.5984430981773
 20
689.276836476437
 30
0.0
 11
-283.5984430981773
 21
833.2771416522183
 31
0.0
  0
LINE
  5
117
330
1F
100
AcDbEntity
  8
C-A
  6
Continuous
 62
     3
370
     9
100
AcDbLine
 10
-269.5984736157553
 20
689.276836476437
 30
0.0
 11
-269.5984736157553
 21
833.2771416522183
 31
0.0
  0
LINE
  5
118
330
1F
100
AcDbEntity
  8
C-A
  6
Continuous
 62
     3
370
     9
100
AcDbLine
 10
-277.5985651684897
 20
689.276836476437
 30
0.0
 11
-277.5985651684897
 21
833.2771416522183
 31
0.0
  0
LINE
  5
119
330
1F
100
AcDbEntity
  8
C-A
  6
Continuous
 62
     3
370
     9
100
AcDbLine
 10
-255.5985041333334
 20
689.276836476437
 30
0.0
 11
-255.5985041333334
 21
833.2771416522183
 31
0.0
  0
LINE
  5
11A
330
1F
100
AcDbEntity
  8
C-A
  6
Continuous
 62
     3
370
     9
100
AcDbLine
 10
-263.5985956860678
 20
689.276836476437
 30
0.0
 11
-263.5985956860678
 21
833.2771416522183
 31
0.0
  0
LINE
  5
11B
330
1F
100
AcDbEntity
  8
C-A
  6
Continuous
 62
     3
370
     9
100
AcDbLine
 10
-241.5982905102865
 20
689.276836476437
 30
0.0
 11
-241.5982905102865
 21
833.2771416522183
 31
0.0
  0
LINE
  5
11C
330
1F
100
AcDbEntity
  8
C-A
  6
Continuous
 62
     3
370
     9
100
AcDbLine
 10
-249.5983820630209
 20
689.276836476437
 30
0.0
 11
-249.5983820630209
 21
833.2771416522183
 31
0.0
  0
LINE
  5
11D
330
1F
100
AcDbEntity
  8
C-A
  6
Continuous
 62
     3
370
     9
100
AcDbLine
 10
-227.5985651684897
 20
689.276836476437
 30
0.0
 11
-227.5985651684897
 21
833.2771416522183
 31
0.0
  0
LINE
  5
11E
330
1F
100
AcDbEntity
  8
C-A
  6
Continuous
 62
     3
370
     9
100
AcDbLine
 10
-235.598656721224
 20
689.276836476437
 30
0.0
 11
-235.598656721224
 21
833.2771416522183
 31
0.0
  0
LINE
  5
11F
330
1F
100
AcDbEntity
  8
C-A
  6
Continuous
 62
     3
370
     9
100
AcDbLine
 10
-213.5985956860677
 20
689.276836476437
 30
0.0
 11
-213.5985956860677
 21
833.2771416522183
 31
0.0
  0
LINE
  5
120
330
1F
100
AcDbEntity
  8
C-A
  6
Continuous
 62
     3
370
     9
100
AcDbLine
 10
-221.5986872388021
 20
689.276836476437
 30
0.0
 11
-221.5986872388021
 21
833.2771416522183
 31
0.0
  0
LINE
  5
121
330
1F
100
AcDbEntity
  8
C-A
  6
Continuous
 62
     3
370
     9
100
AcDbLine
 10
-199.5986567212239
 20
689.276836476437
 30
0.0
 11
-199.5986567212239
 21
833.2771416522183
 31
0.0
  0
LINE
  5
122
330
1F
100
AcDbEntity
  8
C-A
  6
Continuous
 62
     3
370
     9
100
AcDbLine
 10
-207.5984736157552
 20
689.276836476437
 30
0.0
 11
-207.5984736157552
 21
833.2771416522183
 31
0.0
  0
LINE
  5
123
330
1F
100
AcDbEntity
  8
C-A
  6
Continuous
 62
     3
370
     9
100
AcDbLine
 10
-185.5984430981772
 20
689.276836476437
 30
0.0
 11
-185.5984430981772
 21
833.2771416522183
 31
0.0
  0
LINE
  5
124
330
1F
100
AcDbEntity
  8
C-A
  6
Continuous
 62
     3
370
     9
100
AcDbLine
 10
-193.5982599927084
 20
689.276836476437
 30
0.0
 11
-193.5982599927084
 21
833.2771416522183
 31
0.0
  0
LINE
  5
125
330
1F
100
AcDbEntity
  8
C-A
  6
Continuous
 62
     3
370
     9
100
AcDbLine
 10
-171.5984736157552
 20
689.276836476437
 30
0.0
 11
-171.5984736157552
 21
833.2771416522183
 31
0.0
  0
LINE
  5
126
330
1F
100
AcDbEntity
  8
C-A
  6
Continuous
 62
     3
370
     9
100
AcDbLine
 10
-179.5982905102865
 20
689.276836476437
 30
0.0
 11
-179.5982905102865
 21
833.2771416522183
 31
0.0
  0
LINE
  5
127
330
1F
100
AcDbEntity
  8
C-A
  6
Continuous
 62
     3
370
     9
100
AcDbLine
 10
-157.5985041333334
 20
689.276836476437
 30
0.0
 11
-157.5985041333334
 21
833.2771416522183
 31
0.0
  0
LINE
  5
128
330
1F
100
AcDbEntity
  8
C-A
  6
Continuous
 62
     3
370
     9
100
AcDbLine
 10
-165.5985956860678
 20
689.276836476437
 30
0.0
 11
-165.5985956860678
 21
833.2771416522183
 31
0.0
  0
LINE
  5
129
330
1F
100
AcDbEntity
  8
C-A
  6
Continuous
 62
     3
370
     9
100
AcDbLine
 10
-143.5985346509115
 20
689.276836476437
 30
0.0
 11
-143.5985346509115
 21
833.2771416522183
 31
0.0
  0
LINE
  5
12A
330
1F
100
AcDbEntity
  8
C-A
  6
Continuous
 62
     3
370
     9
100
AcDbLine
 10
-151.5986262036458
 20
689.276836476437
 30
0.0
 11
-151.5986262036458
 21
833.2771416522183
 31
0.0
  0
LINE
  5
12B
330
1F
100
AcDbEntity
  8
C-A
  6
Continuous
 62
     3
370
     9
100
AcDbLine
 10
-137.598656721224
 20
689.276836476437
 30
0.0
 11
-137.598656721224
 21
833.2771416522183
 31
0.0
  0
LINE
  5
12C
330
1F
100
AcDbEntity
  8
C-A
  6
Continuous
 62
     3
370
     9
100
AcDbLine
 10
-115.5983515454426
 20
689.276836476437
 30
0.0
 11
-115.5983515454426
 21
833.2771416522183
 31
0.0
  0
LINE
  5
12D
330
1F
100
AcDbEntity
  8
C-A
  6
Continuous
 62
     3
370
     9
100
AcDbLine
 10
-109.59822947513
 20
689.276836476437
 30
0.0
 11
-109.59822947513
 21
833.2771416522183
 31
0.0
  0
LINE
  5
12E
330
1F
100
AcDbEntity
  8
C-A
  6
Continuous
 62
     3
370
     9
100
AcDbLine
 10
-101.5981379223956
 20
689.276836476437
 30
0.0
 11
-101.5981379223956
 21
833.2771416522183
 31
0.0
  0
LINE
  5
12F
330
1F
100
AcDbEntity
  8
C-A
  6
Continuous
 62
     3
370
     9
100
AcDbLine
 10
-95.59801585208305
 20
689.276836476437
 30
0.0
 11
-95.59801585208305
 21
833.2771416522183
 31
0.0
  0
LINE
  5
130
330
1F
100
AcDbEntity
  8
C-A
  6
Continuous
 62
     3
370
     9
100
AcDbLine
 10
-87.59792429934862
 20
689.276836476437
 30
0.0
 11
-87.59792429934862
 21
833.2771416522183
 31
0.0
  0
LINE
  5
131
330
1F
100
AcDbEntity
  8
C-A
  6
Continuous
 62
     3
370
     9
100
AcDbLine
 10
-81.59780222903606
 20
689.276836476437
 30
0.0
 11
-81.59780222903606
 21
833.2771416522183
 31
0.0
  0
LINE
  5
132
330
1F
100
AcDbEntity
  8
C-A
  6
Continuous
 62
     3
370
     9
100
AcDbLine
 10
-73.59771067630163
 20
689.276836476437
 30
0.0
 11
-73.59771067630163
 21
833.2771416522183
 31
0.0
  0
LINE
  5
133
330
1F
100
AcDbEntity
  8
C-A
  6
Continuous
 62
     3
370
     9
100
AcDbLine
 10
-67.59758860598907
 20
689.276836476437
 30
0.0
 11
-67.59758860598907
 21
833.2771416522183
 31
0.0
  0
LINE
  5
134
330
1F
100
AcDbEntity
  8
C-A
  6
Continuous
 62
     3
370
     9
100
AcDbLine
 10
-1290.598900861849
 20
833.2771416522183
 30
0.0
 11
-1540.59905344974
 21
833.2771416522183
 31
0.0
  0
LINE
  5
135
330
1F
100
AcDbEntity
  8
C-A
  6
Continuous
 62
     3
370
     9
100
AcDbLine
 10
-1298.59871775638
 20
833.2771416522183
 30
0.0
 11
-1298.59871775638
 21
689.276836476437
 31
0.0
  0
LINE
  5
136
330
1F
100
AcDbEntity
  8
C-A
  6
Continuous
 62
     3
370
     9
100
AcDbLine
 10
-1312.598443098177
 20
833.2771416522183
 30
0.0
 11
-1312.598443098177
 21
689.276836476437
 31
0.0
  0
LINE
  5
137
330
1F
100
AcDbEntity
  8
C-A
  6
Continuous
 62
     3
370
     9
100
AcDbLine
 10
-1304.598595686068
 20
833.2771416522183
 30
0.0
 11
-1304.598595686068
 21
689.276836476437
 31
0.0
  0
LINE
  5
138
330
1F
100
AcDbEntity
  8
C-A
  6
Continuous
 62
     3
370
     9
100
AcDbLine
 10
-1326.598656721224
 20
833.2771416522183
 30
0.0
 11
-1326.598656721224
 21
689.276836476437
 31
0.0
  0
LINE
  5
139
330
1F
100
AcDbEntity
  8
C-A
  6
Continuous
 62
     3
370
     9
100
AcDbLine
 10
-1318.59856516849
 20
833.2771416522183
 30
0.0
 11
-1318.59856516849
 21
689.276836476437
 31
0.0
  0
LINE
  5
13A
330
1F
100
AcDbEntity
  8
C-A
  6
Continuous
 62
     3
370
     9
100
AcDbLine
 10
-1340.598626203646
 20
833.2771416522183
 30
0.0
 11
-1340.598626203646
 21
689.276836476437
 31
0.0
  0
LINE
  5
13B
330
1F
100
AcDbEntity
  8
C-A
  6
Continuous
 62
     3
370
     9
100
AcDbLine
 10
-1332.598794050326
 20
833.2771416522183
 30
0.0
 11
-1332.598794050326
 21
689.276836476437
 31
0.0
  0
LINE
  5
13C
330
1F
100
AcDbEntity
  8
C-A
  6
Continuous
 62
     3
370
     9
100
AcDbLine
 10
-1354.598595686068
 20
833.2771416522183
 30
0.0
 11
-1354.598595686068
 21
689.276836476437
 31
0.0
  0
LINE
  5
13D
330
1F
100
AcDbEntity
  8
C-A
  6
Continuous
 62
     3
370
     9
100
AcDbLine
 10
-1346.598748273958
 20
833.2771416522183
 30
0.0
 11
-1346.598748273958
 21
689.276836476437
 31
0.0
  0
LINE
  5
13E
330
1F
100
AcDbEntity
  8
C-A
  6
Continuous
 62
     3
370
     9
100
AcDbLine
 10
-1368.598809309115
 20
833.2771416522183
 30
0.0
 11
-1368.598809309115
 21
689.276836476437
 31
0.0
  0
LINE
  5
13F
330
1F
100
AcDbEntity
  8
C-A
  6
Continuous
 62
     3
370
     9
100
AcDbLine
 10
-1360.59871775638
 20
833.2771416522183
 30
0.0
 11
-1360.59871775638
 21
689.276836476437
 31
0.0
  0
LINE
  5
140
330
1F
100
AcDbEntity
  8
C-A
  6
Continuous
 62
     3
370
     9
100
AcDbLine
 10
-1382.598519392122
 20
833.2771416522183
 30
0.0
 11
-1382.598519392122
 21
689.276836476437
 31
0.0
  0
LINE
  5
141
330
1F
100
AcDbEntity
  8
C-A
  6
Continuous
 62
     3
370
     9
100
AcDbLine
 10
-1374.598687238802
 20
833.2771416522183
 30
0.0
 11
-1374.598687238802
 21
689.276836476437
 31
0.0
  0
LINE
  5
142
330
1F
100
AcDbEntity
  8
C-A
  6
Continuous
 62
     3
370
     9
100
AcDbLine
 10
-1396.598733015169
 20
833.2771416522183
 30
0.0
 11
-1396.598733015169
 21
689.276836476437
 31
0.0
  0
LINE
  5
143
330
1F
100
AcDbEntity
  8
C-A
  6
Continuous
 62
     3
370
     9
100
AcDbLine
 10
-1388.598900861849
 20
833.2771416522183
 30
0.0
 11
-1388.598900861849
 21
689.276836476437
 31
0.0
  0
LINE
  5
144
330
1F
100
AcDbEntity
  8
C-A
  6
Continuous
 62
     3
370
     9
100
AcDbLine
 10
-1410.598702497591
 20
833.2771416522183
 30
0.0
 11
-1410.598702497591
 21
689.276836476437
 31
0.0
  0
LINE
  5
145
330
1F
100
AcDbEntity
  8
C-A
  6
Continuous
 62
     3
370
     9
100
AcDbLine
 10
-1402.598870344271
 20
833.2771416522183
 30
0.0
 11
-1402.598870344271
 21
689.276836476437
 31
0.0
  0
LINE
  5
146
330
1F
100
AcDbEntity
  8
C-A
  6
Continuous
 62
     3
370
     9
100
AcDbLine
 10
-1424.598671980013
 20
833.2771416522183
 30
0.0
 11
-1424.598671980013
 21
689.276836476437
 31
0.0
  0
LINE
  5
147
330
1F
100
AcDbEntity
  8
C-A
  6
Continuous
 62
     3
370
     9
100
AcDbLine
 10
-1416.598580427279
 20
833.2771416522183
 30
0.0
 11
-1416.598580427279
 21
689.276836476437
 31
0.0
  0
LINE
  5
148
330
1F
100
AcDbEntity
  8
C-A
  6
Continuous
 62
     3
370
     9
100
AcDbLine
 10
-1438.598641462435
 20
833.2771416522183
 30
0.0
 11
-1438.598641462435
 21
689.276836476437
 31
0.0
  0
LINE
  5
149
330
1F
100
AcDbEntity
  8
C-A
  6
Continuous
 62
     3
370
     9
100
AcDbLine
 10
-1430.598549909701
 20
833.2771416522183
 30
0.0
 11
-1430.598549909701
 21
689.276836476437
 31
0.0
  0
LINE
  5
14A
330
1F
100
AcDbEntity
  8
C-A
  6
Continuous
 62
     3
370
     9
100
AcDbLine
 10
-1514.597100324739
 20
689.276836476437
 30
0.0
 11
-1514.597100324739
 21
833.2771416522183
 31
0.0
  0
LINE
  5
14B
330
1F
100
AcDbEntity
  8
C-A
  6
Continuous
 62
     3
370
     9
100
AcDbLine
 10
-1508.596978254426
 20
689.276836476437
 30
0.0
 11
-1508.596978254426
 21
833.2771416522183
 31
0.0
  0
LINE
  5
14C
330
1F
100
AcDbEntity
  8
C-A
  6
Continuous
 62
     3
370
     9
100
AcDbLine
 10
-1500.596886701692
 20
689.276836476437
 30
0.0
 11
-1500.596886701692
 21
833.2771416522183
 31
0.0
  0
LINE
  5
14D
330
1F
100
AcDbEntity
  8
C-A
  6
Continuous
 62
     3
370
     9
100
AcDbLine
 10
-1494.596764631379
 20
689.276836476437
 30
0.0
 11
-1494.596764631379
 21
833.2771416522183
 31
0.0
  0
LINE
  5
14E
330
1F
100
AcDbEntity
  8
C-A
  6
Continuous
 62
     3
370
     9
100
AcDbLine
 10
-1486.596673078645
 20
689.276836476437
 30
0.0
 11
-1486.596673078645
 21
833.2771416522183
 31
0.0
  0
LINE
  5
14F
330
1F
100
AcDbEntity
  8
C-A
  6
Continuous
 62
     3
370
     9
100
AcDbLine
 10
-1480.596551008332
 20
689.276836476437
 30
0.0
 11
-1480.596551008332
 21
833.2771416522183
 31
0.0
  0
LINE
  5
150
330
1F
100
AcDbEntity
  8
C-A
  6
Continuous
 62
     3
370
     9
100
AcDbLine
 10
-1472.596459455598
 20
689.276836476437
 30
0.0
 11
-1472.596459455598
 21
833.2771416522183
 31
0.0
  0
LINE
  5
151
330
1F
100
AcDbEntity
  8
C-A
  6
Continuous
 62
     3
370
     9
100
AcDbLine
 10
-1466.596337385285
 20
689.276836476437
 30
0.0
 11
-1466.596337385285
 21
833.2771416522183
 31
0.0
  0
LINE
  5
152
330
1F
100
AcDbEntity
  8
C-A
  6
Continuous
 62
     3
370
     9
100
AcDbLine
 10
-1458.596245832551
 20
689.276836476437
 30
0.0
 11
-1458.596245832551
 21
833.2771416522183
 31
0.0
  0
LINE
  5
153
330
1F
100
AcDbEntity
  8
C-A
  6
Continuous
 62
     3
370
     9
100
AcDbLine
 10
-1452.596123762238
 20
689.276836476437
 30
0.0
 11
-1452.596123762238
 21
833.2771416522183
 31
0.0
  0
LINE
  5
154
330
1F
100
AcDbEntity
  8
C-A
  6
Continuous
 62
     3
370
     9
100
AcDbLine
 10
-1444.599007673372
 20
689.276836476437
 30
0.0
 11
-1444.599007673372
 21
833.2771416522183
 31
0.0
  0
LINE
  5
155
330
1F
100
AcDbEntity
  8
C-A
  6
Continuous
 62
     3
370
     9
100
AcDbLine
 10
-291.5985346509115
 20
833.2771416522183
 30
0.0
 11
-42.59877879153635
 21
833.2771416522183
 31
0.0
  0
LINE
  5
156
330
1F
100
AcDbEntity
  8
C-A
  6
Continuous
 62
     3
370
     9
100
AcDbLine
 10
-1290.598900861849
 20
689.276836476437
 30
0.0
 11
-1540.59905344974
 21
689.276836476437
 31
0.0
  0
LINE
  5
157
330
1F
100
AcDbEntity
  8
C-2
  6
Continuous
 62
     3
370
     9
100
AcDbLine
 10
-1540.59905344974
 20
776.2775383807339
 30
0.0
 11
-1540.59905344974
 21
850.2721410290449
 31
0.0
  0
LINE
  5
158
330
1F
100
AcDbEntity
  8
C-2
  6
Continuous
 62
     3
370
     9
100
AcDbLine
 10
-1540.59905344974
 20
667.7638384311483
 30
0.0
 11
-1540.59905344974
 21
746.2768975115932
 31
0.0
  0
LINE
  5
159
330
1F
100
AcDbEntity
  8
C-A
  6
Continuous
 62
     3
370
     9
100
AcDbLine
 10
-42.59877879153635
 20
851.7522385803925
 30
0.0
 11
-42.59877879153635
 21
776.2775383807339
 31
0.0
  0
LINE
  5
15A
330
1F
100
AcDbEntity
  8
C-2
  6
Continuous
 62
     3
370
     9
100
AcDbLine
 10
-42.59877879153635
 20
746.2768975115932
 30
0.0
 11
-42.59877879153635
 21
655.2498860957467
 31
0.0
  0
LINE
  5
15B
330
1F
100
AcDbEntity
  8
C-A
  6
Continuous
 62
     3
370
     9
100
AcDbLine
 10
-1127.599175520052
 20
758.2840083713872
 30
0.0
 11
-1121.59905344974
 21
758.2840083713872
 31
0.0
  0
LINE
  5
15C
330
1F
100
AcDbEntity
  8
C-A
  6
Continuous
 62
     3
370
     9
100
AcDbLine
 10
-1127.599175520052
 20
764.2702749330566
 30
0.0
 11
-1121.59905344974
 21
764.2702749330566
 31
0.0
  0
LINE
  5
15D
330
1F
100
AcDbEntity
  8
C-A
  6
Continuous
 62
     3
370
     9
100
AcDbLine
 10
-945.5991297436849
 20
758.2840083713872
 30
0.0
 11
-939.5990076733724
 21
758.2840083713872
 31
0.0
  0
LINE
  5
15E
330
1F
100
AcDbEntity
  8
C-A
  6
Continuous
 62
     3
370
     9
100
AcDbLine
 10
-931.5991755200521
 20
758.2840083713872
 30
0.0
 11
-925.5990381909505
 21
758.2840083713872
 31
0.0
  0
LINE
  5
15F
330
1F
100
AcDbEntity
  8
C-A
  6
Continuous
 62
     3
370
     9
100
AcDbLine
 10
-917.5992060376302
 20
758.2840083713872
 30
0.0
 11
-911.5990687085286
 21
758.2840083713872
 31
0.0
  0
LINE
  5
160
330
1F
100
AcDbEntity
  8
C-A
  6
Continuous
 62
     3
370
     9
100
AcDbLine
 10
-903.5992365552083
 20
758.2840083713872
 30
0.0
 11
-897.5991144848958
 21
758.2840083713872
 31
0.0
  0
LINE
  5
161
330
1F
100
AcDbEntity
  8
C-A
  6
Continuous
 62
     3
370
     9
100
AcDbLine
 10
-889.5992670727865
 20
758.2840083713872
 30
0.0
 11
-883.599145002474
 21
758.2840083713872
 31
0.0
  0
LINE
  5
162
330
1F
100
AcDbEntity
  8
C-A
  6
Continuous
 62
     3
370
     9
100
AcDbLine
 10
-875.5990534497396
 20
758.2840083713872
 30
0.0
 11
-869.5991755200521
 21
758.2840083713872
 31
0.0
  0
LINE
  5
163
330
1F
100
AcDbEntity
  8
C-A
  6
Continuous
 62
     3
370
     9
100
AcDbLine
 10
-861.5990839673177
 20
758.2840083713872
 30
0.0
 11
-855.5989618970052
 21
758.2840083713872
 31
0.0
  0
LINE
  5
164
330
1F
100
AcDbEntity
  8
C-A
  6
Continuous
 62
     3
370
     9
100
AcDbLine
 10
-847.5991297436849
 20
758.2840083713872
 30
0.0
 11
-841.5989924145833
 21
758.2840083713872
 31
0.0
  0
LINE
  5
165
330
1F
100
AcDbEntity
  8
C-A
  6
Continuous
 62
     3
370
     9
100
AcDbLine
 10
-833.599160261263
 20
758.2840083713872
 30
0.0
 11
-827.5990381909505
 21
758.2840083713872
 31
0.0
  0
LINE
  5
166
330
1F
100
AcDbEntity
  8
C-A
  6
Continuous
 62
     3
370
     9
100
AcDbLine
 10
-819.5992060376302
 20
758.2840083713872
 30
0.0
 11
-813.5990534497396
 21
758.2840083713872
 31
0.0
  0
LINE
  5
167
330
1F
100
AcDbEntity
  8
C-A
  6
Continuous
 62
     3
370
     9
100
AcDbLine
 10
-805.5992365552083
 20
758.2840083713872
 30
0.0
 11
-799.5990839673177
 21
758.2840083713872
 31
0.0
  0
LINE
  5
168
330
1F
100
AcDbEntity
  8
C-A
  6
Continuous
 62
     3
370
     9
100
AcDbLine
 10
-945.5991297436849
 20
764.2702749330566
 30
0.0
 11
-939.5990076733724
 21
764.2702749330566
 31
0.0
  0
LINE
  5
169
330
1F
100
AcDbEntity
  8
C-A
  6
Continuous
 62
     3
370
     9
100
AcDbLine
 10
-931.5991755200521
 20
764.2702749330566
 30
0.0
 11
-925.5990381909505
 21
764.2702749330566
 31
0.0
  0
LINE
  5
16A
330
1F
100
AcDbEntity
  8
C-A
  6
Continuous
 62
     3
370
     9
100
AcDbLine
 10
-917.5992060376302
 20
764.2702749330566
 30
0.0
 11
-911.5990687085286
 21
764.2702749330566
 31
0.0
  0
LINE
  5
16B
330
1F
100
AcDbEntity
  8
C-A
  6
Continuous
 62
     3
370
     9
100
AcDbLine
 10
-903.5992365552083
 20
764.2702749330566
 30
0.0
 11
-897.5991144848958
 21
764.2702749330566
 31
0.0
  0
LINE
  5
16C
330
1F
100
AcDbEntity
  8
C-A
  6
Continuous
 62
     3
370
     9
100
AcDbLine
 10
-889.5992670727865
 20
764.2702749330566
 30
0.0
 11
-883.599145002474
 21
764.2702749330566
 31
0.0
  0
LINE
  5
16D
330
1F
100
AcDbEntity
  8
C-A
  6
Continuous
 62
     3
370
     9
100
AcDbLine
 10
-875.5990534497396
 20
764.2702749330566
 30
0.0
 11
-869.5991755200521
 21
764.2702749330566
 31
0.0
  0
LINE
  5
16E
330
1F
100
AcDbEntity
  8
C-A
  6
Continuous
 62
     3
370
     9
100
AcDbLine
 10
-861.5990839673177
 20
764.2702749330566
 30
0.0
 11
-855.5989618970052
 21
764.2702749330566
 31
0.0
  0
LINE
  5
16F
330
1F
100
AcDbEntity
  8
C-A
  6
Continuous
 62
     3
370
     9
100
AcDbLine
 10
-847.5991297436849
 20
764.2702749330566
 30
0.0
 11
-841.5989924145833
 21
764.2702749330566
 31
0.0
  0
LINE
  5
170
330
1F
100
AcDbEntity
  8
C-A
  6
Continuous
 62
     3
370
     9
100
AcDbLine
 10
-833.599160261263
 20
764.2702749330566
 30
0.0
 11
-827.5990381909505
 21
764.2702749330566
 31
0.0
  0
LINE
  5
171
330
1F
100
AcDbEntity
  8
C-A
  6
Continuous
 62
     3
370
     9
100
AcDbLine
 10
-819.5992060376302
 20
764.2702749330566
 30
0.0
 11
-813.5990534497396
 21
764.2702749330566
 31
0.0
  0
LINE
  5
172
330
1F
100
AcDbEntity
  8
C-A
  6
Continuous
 62
     3
370
     9
100
AcDbLine
 10
-805.5992365552083
 20
764.2702749330566
 30
0.0
 11
-799.5990839673177
 21
764.2702749330566
 31
0.0
  0
LINE
  5
173
330
1F
100
AcDbEntity
  8
C-A
  6
Continuous
 62
     3
370
     9
100
AcDbLine
 10
-1141.599389143099
 20
758.2840083713872
 30
0.0
 11
-1135.599022932161
 21
758.2840083713872
 31
0.0
  0
LINE
  5
174
330
1F
100
AcDbEntity
  8
C-A
  6
Continuous
 62
     3
370
     9
100
AcDbLine
 10
-1155.599358625521
 20
758.2840083713872
 30
0.0
 11
-1149.599236555208
 21
758.2840083713872
 31
0.0
  0
LINE
  5
175
330
1F
100
AcDbEntity
  8
C-A
  6
Continuous
 62
     3
370
     9
100
AcDbLine
 10
-1169.599328107943
 20
758.2840083713872
 30
0.0
 11
-1163.59920603763
 21
758.2840083713872
 31
0.0
  0
LINE
  5
176
330
1F
100
AcDbEntity
  8
C-A
  6
Continuous
 62
     3
370
     9
100
AcDbLine
 10
-1183.599297590365
 20
758.2840083713872
 30
0.0
 11
-1177.599175520052
 21
758.2840083713872
 31
0.0
  0
LINE
  5
177
330
1F
100
AcDbEntity
  8
C-A
  6
Continuous
 62
     3
370
     9
100
AcDbLine
 10
-1197.599267072786
 20
758.2840083713872
 30
0.0
 11
-1191.599114484896
 21
758.2840083713872
 31
0.0
  0
LINE
  5
178
330
1F
100
AcDbEntity
  8
C-A
  6
Continuous
 62
     3
370
     9
100
AcDbLine
 10
-1211.599480695833
 20
758.2840083713872
 30
0.0
 11
-1205.599083967318
 21
758.2840083713872
 31
0.0
  0
LINE
  5
179
330
1F
100
AcDbEntity
  8
C-A
  6
Continuous
 62
     3
370
     9
100
AcDbLine
 10
-1225.599175520052
 20
758.2840083713872
 30
0.0
 11
-1219.59905344974
 21
758.2840083713872
 31
0.0
  0
LINE
  5
17A
330
1F
100
AcDbEntity
  8
C-A
  6
Continuous
 62
     3
370
     9
100
AcDbLine
 10
-1239.599145002474
 20
758.2840083713872
 30
0.0
 11
-1233.599022932161
 21
758.2840083713872
 31
0.0
  0
LINE
  5
17B
330
1F
100
AcDbEntity
  8
C-A
  6
Continuous
 62
     3
370
     9
100
AcDbLine
 10
-1253.599358625521
 20
758.2840083713872
 30
0.0
 11
-1247.599236555208
 21
758.2840083713872
 31
0.0
  0
LINE
  5
17C
330
1F
100
AcDbEntity
  8
C-A
  6
Continuous
 62
     3
370
     9
100
AcDbLine
 10
-1267.599328107943
 20
758.2840083713872
 30
0.0
 11
-1261.59920603763
 21
758.2840083713872
 31
0.0
  0
LINE
  5
17D
330
1F
100
AcDbEntity
  8
C-A
  6
Continuous
 62
     3
370
     9
100
AcDbLine
 10
-1281.599297590365
 20
758.2840083713872
 30
0.0
 11
-1275.599175520052
 21
758.2840083713872
 31
0.0
  0
LINE
  5
17E
330
1F
100
AcDbEntity
  8
C-A
  6
Continuous
 62
     3
370
     9
100
AcDbLine
 10
-1141.599389143099
 20
764.2702749330566
 30
0.0
 11
-1135.599022932161
 21
764.2702749330566
 31
0.0
  0
LINE
  5
17F
330
1F
100
AcDbEntity
  8
C-A
  6
Continuous
 62
     3
370
     9
100
AcDbLine
 10
-1155.599358625521
 20
764.2702749330566
 30
0.0
 11
-1149.599236555208
 21
764.2702749330566
 31
0.0
  0
LINE
  5
180
330
1F
100
AcDbEntity
  8
C-A
  6
Continuous
 62
     3
370
     9
100
AcDbLine
 10
-1169.599328107943
 20
764.2702749330566
 30
0.0
 11
-1163.59920603763
 21
764.2702749330566
 31
0.0
  0
LINE
  5
181
330
1F
100
AcDbEntity
  8
C-A
  6
Continuous
 62
     3
370
     9
100
AcDbLine
 10
-1183.599297590365
 20
764.2702749330566
 30
0.0
 11
-1177.599175520052
 21
764.2702749330566
 31
0.0
  0
LINE
  5
182
330
1F
100
AcDbEntity
  8
C-A
  6
Continuous
 62
     3
370
     9
100
AcDbLine
 10
-1197.599267072786
 20
764.2702749330566
 30
0.0
 11
-1191.599114484896
 21
764.2702749330566
 31
0.0
  0
LINE
  5
183
330
1F
100
AcDbEntity
  8
C-A
  6
Continuous
 62
     3
370
     9
100
AcDbLine
 10
-1211.599480695833
 20
764.2702749330566
 30
0.0
 11
-1205.599083967318
 21
764.2702749330566
 31
0.0
  0
LINE
  5
184
330
1F
100
AcDbEntity
  8
C-A
  6
Continuous
 62
     3
370
     9
100
AcDbLine
 10
-1225.599175520052
 20
764.2702749330566
 30
0.0
 11
-1219.59905344974
 21
764.2702749330566
 31
0.0
  0
LINE
  5
185
330
1F
100
AcDbEntity
  8
C-A
  6
Continuous
 62
     3
370
     9
100
AcDbLine
 10
-1239.599145002474
 20
764.2702749330566
 30
0.0
 11
-1233.599022932161
 21
764.2702749330566
 31
0.0
  0
LINE
  5
186
330
1F
100
AcDbEntity
  8
C-A
  6
Continuous
 62
     3
370
     9
100
AcDbLine
 10
-1253.599358625521
 20
764.2702749330566
 30
0.0
 11
-1247.599236555208
 21
764.2702749330566
 31
0.0
  0
LINE
  5
187
330
1F
100
AcDbEntity
  8
C-A
  6
Continuous
 62
     3
370
     9
100
AcDbLine
 10
-1267.599328107943
 20
764.2702749330566
 30
0.0
 11
-1261.59920603763
 21
764.2702749330566
 31
0.0
  0
LINE
  5
188
330
1F
100
AcDbEntity
  8
C-A
  6
Continuous
 62
     3
370
     9
100
AcDbLine
 10
-1281.599297590365
 20
764.2702749330566
 30
0.0
 11
-1275.599175520052
 21
764.2702749330566
 31
0.0
  0
LINE
  5
189
330
1F
100
AcDbEntity
  8
C-A
  6
Continuous
 62
     3
370
     9
100
AcDbLine
 10
-1113.598961897005
 20
758.2840083713872
 30
0.0
 11
-1107.598839826692
 21
758.2840083713872
 31
0.0
  0
LINE
  5
18A
330
1F
100
AcDbEntity
  8
C-A
  6
Continuous
 62
     3
370
     9
100
AcDbLine
 10
-1113.598961897005
 20
764.2702749330566
 30
0.0
 11
-1107.598839826692
 21
764.2702749330566
 31
0.0
  0
LINE
  5
18B
330
1F
100
AcDbEntity
  8
C-A
  6
Continuous
 62
     3
370
     9
100
AcDbLine
 10
-1099.598748273958
 20
758.2840083713872
 30
0.0
 11
-1093.598626203646
 21
758.2840083713872
 31
0.0
  0
LINE
  5
18C
330
1F
100
AcDbEntity
  8
C-A
  6
Continuous
 62
     3
370
     9
100
AcDbLine
 10
-1099.598748273958
 20
764.2702749330566
 30
0.0
 11
-1093.598626203646
 21
764.2702749330566
 31
0.0
  0
LINE
  5
18D
330
1F
100
AcDbEntity
  8
C-A
  6
Continuous
 62
     3
370
     9
100
AcDbLine
 10
-1085.598534650911
 20
758.2840083713872
 30
0.0
 11
-1079.598412580599
 21
758.2840083713872
 31
0.0
  0
LINE
  5
18E
330
1F
100
AcDbEntity
  8
C-A
  6
Continuous
 62
     3
370
     9
100
AcDbLine
 10
-1085.598534650911
 20
764.2702749330566
 30
0.0
 11
-1079.598412580599
 21
764.2702749330566
 31
0.0
  0
LINE
  5
18F
330
1F
100
AcDbEntity
  8
C-A
  6
Continuous
 62
     3
370
     9
100
AcDbLine
 10
-1071.598321027864
 20
758.2840083713872
 30
0.0
 11
-1065.598198957552
 21
758.2840083713872
 31
0.0
  0
LINE
  5
190
330
1F
100
AcDbEntity
  8
C-A
  6
Continuous
 62
     3
370
     9
100
AcDbLine
 10
-1071.598321027864
 20
764.2702749330566
 30
0.0
 11
-1065.598198957552
 21
764.2702749330566
 31
0.0
  0
LINE
  5
191
330
1F
100
AcDbEntity
  8
C-A
  6
Continuous
 62
     3
370
     9
100
AcDbLine
 10
-1057.598107404817
 20
758.2840083713872
 30
0.0
 11
-1051.597985334505
 21
758.2840083713872
 31
0.0
  0
LINE
  5
192
330
1F
100
AcDbEntity
  8
C-A
  6
Continuous
 62
     3
370
     9
100
AcDbLine
 10
-1057.598107404817
 20
764.2702749330566
 30
0.0
 11
-1051.597985334505
 21
764.2702749330566
 31
0.0
  0
LINE
  5
193
330
1F
100
AcDbEntity
  8
C-A
  6
Continuous
 62
     3
370
     9
100
AcDbLine
 10
-1043.59789378177
 20
758.2840083713872
 30
0.0
 11
-1037.597771711458
 21
758.2840083713872
 31
0.0
  0
LINE
  5
194
330
1F
100
AcDbEntity
  8
C-A
  6
Continuous
 62
     3
370
     9
100
AcDbLine
 10
-1043.59789378177
 20
764.2702749330566
 30
0.0
 11
-1037.597771711458
 21
764.2702749330566
 31
0.0
  0
LINE
  5
195
330
1F
100
AcDbEntity
  8
C-A
  6
Continuous
 62
     3
370
     9
100
AcDbLine
 10
-1029.597680158723
 20
758.2840083713872
 30
0.0
 11
-1023.597558088411
 21
758.2840083713872
 31
0.0
  0
LINE
  5
196
330
1F
100
AcDbEntity
  8
C-A
  6
Continuous
 62
     3
370
     9
100
AcDbLine
 10
-1029.597680158723
 20
764.2702749330566
 30
0.0
 11
-1023.597558088411
 21
764.2702749330566
 31
0.0
  0
LINE
  5
197
330
1F
100
AcDbEntity
  8
C-A
  6
Continuous
 62
     3
370
     9
100
AcDbLine
 10
-1015.597466535676
 20
758.2840083713872
 30
0.0
 11
-1009.597344465364
 21
758.2840083713872
 31
0.0
  0
LINE
  5
198
330
1F
100
AcDbEntity
  8
C-A
  6
Continuous
 62
     3
370
     9
100
AcDbLine
 10
-1015.597466535676
 20
764.2702749330566
 30
0.0
 11
-1009.597344465364
 21
764.2702749330566
 31
0.0
  0
LINE
  5
199
330
1F
100
AcDbEntity
  8
C-A
  6
Continuous
 62
     3
370
     9
100
AcDbLine
 10
-1001.597252912629
 20
758.2840083713872
 30
0.0
 11
-995.5971308423166
 21
758.2840083713872
 31
0.0
  0
LINE
  5
19A
330
1F
100
AcDbEntity
  8
C-A
  6
Continuous
 62
     3
370
     9
100
AcDbLine
 10
-1001.597252912629
 20
764.2702749330566
 30
0.0
 11
-995.5971308423166
 21
764.2702749330566
 31
0.0
  0
LINE
  5
19B
330
1F
100
AcDbEntity
  8
C-A
  6
Continuous
 62
     3
370
     9
100
AcDbLine
 10
-987.597039289582
 20
758.2840083713872
 30
0.0
 11
-981.5969172192696
 21
758.2840083713872
 31
0.0
  0
LINE
  5
19C
330
1F
100
AcDbEntity
  8
C-A
  6
Continuous
 62
     3
370
     9
100
AcDbLine
 10
-987.597039289582
 20
764.2702749330566
 30
0.0
 11
-981.5969172192696
 21
764.2702749330566
 31
0.0
  0
LINE
  5
19D
330
1F
100
AcDbEntity
  8
C-A
  6
Continuous
 62
     3
370
     9
100
AcDbLine
 10
-973.5968256665351
 20
758.2840083713872
 30
0.0
 11
-967.5967035962226
 21
758.2840083713872
 31
0.0
  0
LINE
  5
19E
330
1F
100
AcDbEntity
  8
C-A
  6
Continuous
 62
     3
370
     9
100
AcDbLine
 10
-973.5968256665351
 20
764.2702749330566
 30
0.0
 11
-967.5967035962226
 21
764.2702749330566
 31
0.0
  0
LINE
  5
19F
330
1F
100
AcDbEntity
  8
C-A
  6
Continuous
 62
     3
370
     9
100
AcDbLine
 10
-959.596612043488
 20
758.2840083713872
 30
0.0
 11
-953.5964899731756
 21
758.2840083713872
 31
0.0
  0
LINE
  5
1A0
330
1F
100
AcDbEntity
  8
C-A
  6
Continuous
 62
     3
370
     9
100
AcDbLine
 10
-959.596612043488
 20
764.2702749330566
 30
0.0
 11
-953.5964899731756
 21
764.2702749330566
 31
0.0
  0
LINE
  5
1A1
330
1F
100
AcDbEntity
  8
C-A
  6
Continuous
 62
     3
370
     9
100
AcDbLine
 10
-628.5988398266926
 20
758.2840083713872
 30
0.0
 11
-622.5987177563802
 21
758.2840083713872
 31
0.0
  0
LINE
  5
1A2
330
1F
100
AcDbEntity
  8
C-A
  6
Continuous
 62
     3
370
     9
100
AcDbLine
 10
-628.5988398266926
 20
764.2702749330566
 30
0.0
 11
-622.5987177563802
 21
764.2702749330566
 31
0.0
  0
LINE
  5
1A3
330
1F
100
AcDbEntity
  8
C-A
  6
Continuous
 62
     3
370
     9
100
AcDbLine
 10
-446.5987940503255
 20
758.2840083713872
 30
0.0
 11
-440.5986719800131
 21
758.2840083713872
 31
0.0
  0
LINE
  5
1A4
330
1F
100
AcDbEntity
  8
C-A
  6
Continuous
 62
     3
370
     9
100
AcDbLine
 10
-432.5988398266928
 20
758.2840083713872
 30
0.0
 11
-426.5987024975913
 21
758.2840083713872
 31
0.0
  0
LINE
  5
1A5
330
1F
100
AcDbEntity
  8
C-A
  6
Continuous
 62
     3
370
     9
100
AcDbLine
 10
-418.5988703442709
 20
758.2840083713872
 30
0.0
 11
-412.5987330151693
 21
758.2840083713872
 31
0.0
  0
LINE
  5
1A6
330
1F
100
AcDbEntity
  8
C-A
  6
Continuous
 62
     3
370
     9
100
AcDbLine
 10
-404.598900861849
 20
758.2840083713872
 30
0.0
 11
-398.5987787915366
 21
758.2840083713872
 31
0.0
  0
LINE
  5
1A7
330
1F
100
AcDbEntity
  8
C-A
  6
Continuous
 62
     3
370
     9
100
AcDbLine
 10
-390.5989313794271
 20
758.2840083713872
 30
0.0
 11
-384.5988093091147
 21
758.2840083713872
 31
0.0
  0
LINE
  5
1A8
330
1F
100
AcDbEntity
  8
C-A
  6
Continuous
 62
     3
370
     9
100
AcDbLine
 10
-376.5987177563802
 20
758.2840083713872
 30
0.0
 11
-370.5988398266928
 21
758.2840083713872
 31
0.0
  0
LINE
  5
1A9
330
1F
100
AcDbEntity
  8
C-A
  6
Continuous
 62
     3
370
     9
100
AcDbLine
 10
-362.5987482739583
 20
758.2840083713872
 30
0.0
 11
-356.5986262036459
 21
758.2840083713872
 31
0.0
  0
LINE
  5
1AA
330
1F
100
AcDbEntity
  8
C-A
  6
Continuous
 62
     3
370
     9
100
AcDbLine
 10
-348.5987940503256
 20
758.2840083713872
 30
0.0
 11
-342.598656721224
 21
758.2840083713872
 31
0.0
  0
LINE
  5
1AB
330
1F
100
AcDbEntity
  8
C-A
  6
Continuous
 62
     3
370
     9
100
AcDbLine
 10
-334.5988245679036
 20
758.2840083713872
 30
0.0
 11
-328.5987024975913
 21
758.2840083713872
 31
0.0
  0
LINE
  5
1AC
330
1F
100
AcDbEntity
  8
C-A
  6
Continuous
 62
     3
370
     9
100
AcDbLine
 10
-320.5988703442709
 20
758.2840083713872
 30
0.0
 11
-314.5987177563802
 21
758.2840083713872
 31
0.0
  0
LINE
  5
1AD
330
1F
100
AcDbEntity
  8
C-A
  6
Continuous
 62
     3
370
     9
100
AcDbLine
 10
-306.598900861849
 20
758.2840083713872
 30
0.0
 11
-300.5987482739584
 21
758.2840083713872
 31
0.0
  0
LINE
  5
1AE
330
1F
100
AcDbEntity
  8
C-A
  6
Continuous
 62
     3
370
     9
100
AcDbLine
 10
-446.5987940503255
 20
764.2702749330566
 30
0.0
 11
-440.5986719800131
 21
764.2702749330566
 31
0.0
  0
LINE
  5
1AF
330
1F
100
AcDbEntity
  8
C-A
  6
Continuous
 62
     3
370
     9
100
AcDbLine
 10
-432.5988398266928
 20
764.2702749330566
 30
0.0
 11
-426.5987024975913
 21
764.2702749330566
 31
0.0
  0
LINE
  5
1B0
330
1F
100
AcDbEntity
  8
C-A
  6
Continuous
 62
     3
370
     9
100
AcDbLine
 10
-418.5988703442709
 20
764.2702749330566
 30
0.0
 11
-412.5987330151693
 21
764.2702749330566
 31
0.0
  0
LINE
  5
1B1
330
1F
100
AcDbEntity
  8
C-A
  6
Continuous
 62
     3
370
     9
100
AcDbLine
 10
-404.598900861849
 20
764.2702749330566
 30
0.0
 11
-398.5987787915366
 21
764.2702749330566
 31
0.0
  0
LINE
  5
1B2
330
1F
100
AcDbEntity
  8
C-A
  6
Continuous
 62
     3
370
     9
100
AcDbLine
 10
-390.5989313794271
 20
764.2702749330566
 30
0.0
 11
-384.5988093091147
 21
764.2702749330566
 31
0.0
  0
LINE
  5
1B3
330
1F
100
AcDbEntity
  8
C-A
  6
Continuous
 62
     3
370
     9
100
AcDbLine
 10
-376.5987177563802
 20
764.2702749330566
 30
0.0
 11
-370.5988398266928
 21
764.2702749330566
 31
0.0
  0
LINE
  5
1B4
330
1F
100
AcDbEntity
  8
C-A
  6
Continuous
 62
     3
370
     9
100
AcDbLine
 10
-362.5987482739583
 20
764.2702749330566
 30
0.0
 11
-356.5986262036459
 21
764.2702749330566
 31
0.0
  0
LINE
  5
1B5
330
1F
100
AcDbEntity
  8
C-A
  6
Continuous
 62
     3
370
     9
100
AcDbLine
 10
-348.5987940503256
 20
764.2702749330566
 30
0.0
 11
-342.598656721224
 21
764.2702749330566
 31
0.0
  0
LINE
  5
1B6
330
1F
100
AcDbEntity
  8
C-A
  6
Continuous
 62
     3
370
     9
100
AcDbLine
 10
-334.5988245679036
 20
764.2702749330566
 30
0.0
 11
-328.5987024975913
 21
764.2702749330566
 31
0.0
  0
LINE
  5
1B7
330
1F
100
AcDbEntity
  8
C-A
  6
Continuous
 62
     3
370
     9
100
AcDbLine
 10
-320.5988703442709
 20
764.2702749330566
 30
0.0
 11
-314.5987177563802
 21
764.2702749330566
 31
0.0
  0
LINE
  5
1B8
330
1F
100
AcDbEntity
  8
C-A
  6
Continuous
 62
     3
370
     9
100
AcDbLine
 10
-306.598900861849
 20
764.2702749330566
 30
0.0
 11
-300.5987482739584
 21
764.2702749330566
 31
0.0
  0
LINE
  5
1B9
330
1F
100
AcDbEntity
  8
C-A
  6
Continuous
 62
     3
370
     9
100
AcDbLine
 10
-642.5990534497396
 20
758.2840083713872
 30
0.0
 11
-636.5986872388021
 21
758.2840083713872
 31
0.0
  0
LINE
  5
1BA
330
1F
100
AcDbEntity
  8
C-A
  6
Continuous
 62
     3
370
     9
100
AcDbLine
 10
-656.5990229321613
 20
758.2840083713872
 30
0.0
 11
-650.598900861849
 21
758.2840083713872
 31
0.0
  0
LINE
  5
1BB
330
1F
100
AcDbEntity
  8
C-A
  6
Continuous
 62
     3
370
     9
100
AcDbLine
 10
-670.5989924145833
 20
758.2840083713872
 30
0.0
 11
-664.5988703442708
 21
758.2840083713872
 31
0.0
  0
LINE
  5
1BC
330
1F
100
AcDbEntity
  8
C-A
  6
Continuous
 62
     3
370
     9
100
AcDbLine
 10
-684.5989618970052
 20
758.2840083713872
 30
0.0
 11
-678.5988398266926
 21
758.2840083713872
 31
0.0
  0
LINE
  5
1BD
330
1F
100
AcDbEntity
  8
C-A
  6
Continuous
 62
     3
370
     9
100
AcDbLine
 10
-698.5989313794271
 20
758.2840083713872
 30
0.0
 11
-692.5987787915363
 21
758.2840083713872
 31
0.0
  0
LINE
  5
1BE
330
1F
100
AcDbEntity
  8
C-A
  6
Continuous
 62
     3
370
     9
100
AcDbLine
 10
-712.599145002474
 20
758.2840083713872
 30
0.0
 11
-706.5987482739583
 21
758.2840083713872
 31
0.0
  0
LINE
  5
1BF
330
1F
100
AcDbEntity
  8
C-A
  6
Continuous
 62
     3
370
     9
100
AcDbLine
 10
-726.5988398266927
 20
758.2840083713872
 30
0.0
 11
-720.5987177563802
 21
758.2840083713872
 31
0.0
  0
LINE
  5
1C0
330
1F
100
AcDbEntity
  8
C-A
  6
Continuous
 62
     3
370
     9
100
AcDbLine
 10
-740.5988093091145
 20
758.2840083713872
 30
0.0
 11
-734.5986872388021
 21
758.2840083713872
 31
0.0
  0
LINE
  5
1C1
330
1F
100
AcDbEntity
  8
C-A
  6
Continuous
 62
     3
370
     9
100
AcDbLine
 10
-754.5990229321615
 20
758.2840083713872
 30
0.0
 11
-748.598900861849
 21
758.2840083713872
 31
0.0
  0
LINE
  5
1C2
330
1F
100
AcDbEntity
  8
C-A
  6
Continuous
 62
     3
370
     9
100
AcDbLine
 10
-768.5989924145833
 20
758.2840083713872
 30
0.0
 11
-762.5988703442708
 21
758.2840083713872
 31
0.0
  0
LINE
  5
1C3
330
1F
100
AcDbEntity
  8
C-A
  6
Continuous
 62
     3
370
     9
100
AcDbLine
 10
-782.5989618970052
 20
758.2840083713872
 30
0.0
 11
-776.5988398266927
 21
758.2840083713872
 31
0.0
  0
LINE
  5
1C4
330
1F
100
AcDbEntity
  8
C-A
  6
Continuous
 62
     3
370
     9
100
AcDbLine
 10
-642.5990534497396
 20
764.2702749330566
 30
0.0
 11
-636.5986872388021
 21
764.2702749330566
 31
0.0
  0
LINE
  5
1C5
330
1F
100
AcDbEntity
  8
C-A
  6
Continuous
 62
     3
370
     9
100
AcDbLine
 10
-656.5990229321613
 20
764.2702749330566
 30
0.0
 11
-650.598900861849
 21
764.2702749330566
 31
0.0
  0
LINE
  5
1C6
330
1F
100
AcDbEntity
  8
C-A
  6
Continuous
 62
     3
370
     9
100
AcDbLine
 10
-670.5989924145833
 20
764.2702749330566
 30
0.0
 11
-664.5988703442708
 21
764.2702749330566
 31
0.0
  0
LINE
  5
1C7
330
1F
100
AcDbEntity
  8
C-A
  6
Continuous
 62
     3
370
     9
100
AcDbLine
 10
-684.5989618970052
 20
764.2702749330566
 30
0.0
 11
-678.5988398266926
 21
764.2702749330566
 31
0.0
  0
LINE
  5
1C8
330
1F
100
AcDbEntity
  8
C-A
  6
Continuous
 62
     3
370
     9
100
AcDbLine
 10
-698.5989313794271
 20
764.2702749330566
 30
0.0
 11
-692.5987787915363
 21
764.2702749330566
 31
0.0
  0
LINE
  5
1C9
330
1F
100
AcDbEntity
  8
C-A
  6
Continuous
 62
     3
370
     9
100
AcDbLine
 10
-712.599145002474
 20
764.2702749330566
 30
0.0
 11
-706.5987482739583
 21
764.2702749330566
 31
0.0
  0
LINE
  5
1CA
330
1F
100
AcDbEntity
  8
C-A
  6
Continuous
 62
     3
370
     9
100
AcDbLine
 10
-726.5988398266927
 20
764.2702749330566
 30
0.0
 11
-720.5987177563802
 21
764.2702749330566
 31
0.0
  0
LINE
  5
1CB
330
1F
100
AcDbEntity
  8
C-A
  6
Continuous
 62
     3
370
     9
100
AcDbLine
 10
-740.5988093091145
 20
764.2702749330566
 30
0.0
 11
-734.5986872388021
 21
764.2702749330566
 31
0.0
  0
LINE
  5
1CC
330
1F
100
AcDbEntity
  8
C-A
  6
Continuous
 62
     3
370
     9
100
AcDbLine
 10
-754.5990229321615
 20
764.2702749330566
 30
0.0
 11
-748.598900861849
 21
764.2702749330566
 31
0.0
  0
LINE
  5
1CD
330
1F
100
AcDbEntity
  8
C-A
  6
Continuous
 62
     3
370
     9
100
AcDbLine
 10
-768.5989924145833
 20
764.2702749330566
 30
0.0
 11
-762.5988703442708
 21
764.2702749330566
 31
0.0
  0
LINE
  5
1CE
330
1F
100
AcDbEntity
  8
C-A
  6
Continuous
 62
     3
370
     9
100
AcDbLine
 10
-782.5989618970052
 20
764.2702749330566
 30
0.0
 11
-776.5988398266927
 21
764.2702749330566
 31
0.0
  0
LINE
  5
1CF
330
1F
100
AcDbEntity
  8
C-A
  6
Continuous
 62
     3
370
     9
100
AcDbLine
 10
-614.5986262036456
 20
758.2840083713872
 30
0.0
 11
-608.5985041333332
 21
758.2840083713872
 31
0.0
  0
LINE
  5
1D0
330
1F
100
AcDbEntity
  8
C-A
  6
Continuous
 62
     3
370
     9
100
AcDbLine
 10
-614.5986262036456
 20
764.2702749330566
 30
0.0
 11
-608.5985041333332
 21
764.2702749330566
 31
0.0
  0
LINE
  5
1D1
330
1F
100
AcDbEntity
  8
C-A
  6
Continuous
 62
     3
370
     9
100
AcDbLine
 10
-600.5984125805986
 20
758.2840083713872
 30
0.0
 11
-594.5982905102862
 21
758.2840083713872
 31
0.0
  0
LINE
  5
1D2
330
1F
100
AcDbEntity
  8
C-A
  6
Continuous
 62
     3
370
     9
100
AcDbLine
 10
-600.5984125805986
 20
764.2702749330566
 30
0.0
 11
-594.5982905102862
 21
764.2702749330566
 31
0.0
  0
LINE
  5
1D3
330
1F
100
AcDbEntity
  8
C-A
  6
Continuous
 62
     3
370
     9
100
AcDbLine
 10
-586.5981989575516
 20
758.2840083713872
 30
0.0
 11
-580.5980768872392
 21
758.2840083713872
 31
0.0
  0
LINE
  5
1D4
330
1F
100
AcDbEntity
  8
C-A
  6
Continuous
 62
     3
370
     9
100
AcDbLine
 10
-586.5981989575516
 20
764.2702749330566
 30
0.0
 11
-580.5980768872392
 21
764.2702749330566
 31
0.0
  0
LINE
  5
1D5
330
1F
100
AcDbEntity
  8
C-A
  6
Continuous
 62
     3
370
     9
100
AcDbLine
 10
-572.5979853345046
 20
758.2840083713872
 30
0.0
 11
-566.5978632641923
 21
758.2840083713872
 31
0.0
  0
LINE
  5
1D6
330
1F
100
AcDbEntity
  8
C-A
  6
Continuous
 62
     3
370
     9
100
AcDbLine
 10
-572.5979853345046
 20
764.2702749330566
 30
0.0
 11
-566.5978632641923
 21
764.2702749330566
 31
0.0
  0
LINE
  5
1D7
330
1F
100
AcDbEntity
  8
C-A
  6
Continuous
 62
     3
370
     9
100
AcDbLine
 10
-558.5977717114577
 20
758.2840083713872
 30
0.0
 11
-552.5976496411453
 21
758.2840083713872
 31
0.0
  0
LINE
  5
1D8
330
1F
100
AcDbEntity
  8
C-A
  6
Continuous
 62
     3
370
     9
100
AcDbLine
 10
-558.5977717114577
 20
764.2702749330566
 30
0.0
 11
-552.5976496411453
 21
764.2702749330566
 31
0.0
  0
LINE
  5
1D9
330
1F
100
AcDbEntity
  8
C-A
  6
Continuous
 62
     3
370
     9
100
AcDbLine
 10
-544.5975580884107
 20
758.2840083713872
 30
0.0
 11
-538.5974360180983
 21
758.2840083713872
 31
0.0
  0
LINE
  5
1DA
330
1F
100
AcDbEntity
  8
C-A
  6
Continuous
 62
     3
370
     9
100
AcDbLine
 10
-544.5975580884107
 20
764.2702749330566
 30
0.0
 11
-538.5974360180983
 21
764.2702749330566
 31
0.0
  0
LINE
  5
1DB
330
1F
100
AcDbEntity
  8
C-A
  6
Continuous
 62
     3
370
     9
100
AcDbLine
 10
-530.5973444653637
 20
758.2840083713872
 30
0.0
 11
-524.5972223950513
 21
758.2840083713872
 31
0.0
  0
LINE
  5
1DC
330
1F
100
AcDbEntity
  8
C-A
  6
Continuous
 62
     3
370
     9
100
AcDbLine
 10
-530.5973444653637
 20
764.2702749330566
 30
0.0
 11
-524.5972223950513
 21
764.2702749330566
 31
0.0
  0
LINE
  5
1DD
330
1F
100
AcDbEntity
  8
C-A
  6
Continuous
 62
     3
370
     9
100
AcDbLine
 10
-516.5971308423167
 20
758.2840083713872
 30
0.0
 11
-510.5970087720043
 21
758.2840083713872
 31
0.0
  0
LINE
  5
1DE
330
1F
100
AcDbEntity
  8
C-A
  6
Continuous
 62
     3
370
     9
100
AcDbLine
 10
-516.5971308423167
 20
764.2702749330566
 30
0.0
 11
-510.5970087720043
 21
764.2702749330566
 31
0.0
  0
LINE
  5
1DF
330
1F
100
AcDbEntity
  8
C-A
  6
Continuous
 62
     3
370
     9
100
AcDbLine
 10
-502.5969172192697
 20
758.2840083713872
 30
0.0
 11
-496.5967951489573
 21
758.2840083713872
 31
0.0
  0
LINE
  5
1E0
330
1F
100
AcDbEntity
  8
C-A
  6
Continuous
 62
     3
370
     9
100
AcDbLine
 10
-502.5969172192697
 20
764.2702749330566
 30
0.0
 11
-496.5967951489573
 21
764.2702749330566
 31
0.0
  0
LINE
  5
1E1
330
1F
100
AcDbEntity
  8
C-A
  6
Continuous
 62
     3
370
     9
100
AcDbLine
 10
-488.5967035962227
 20
758.2840083713872
 30
0.0
 11
-482.5965815259103
 21
758.2840083713872
 31
0.0
  0
LINE
  5
1E2
330
1F
100
AcDbEntity
  8
C-A
  6
Continuous
 62
     3
370
     9
100
AcDbLine
 10
-488.5967035962227
 20
764.2702749330566
 30
0.0
 11
-482.5965815259103
 21
764.2702749330566
 31
0.0
  0
LINE
  5
1E3
330
1F
100
AcDbEntity
  8
C-A
  6
Continuous
 62
     3
370
     9
100
AcDbLine
 10
-474.5964899731757
 20
758.2840083713872
 30
0.0
 11
-468.5963679028633
 21
758.2840083713872
 31
0.0
  0
LINE
  5
1E4
330
1F
100
AcDbEntity
  8
C-A
  6
Continuous
 62
     3
370
     9
100
AcDbLine
 10
-474.5964899731757
 20
764.2702749330566
 30
0.0
 11
-468.5963679028633
 21
764.2702749330566
 31
0.0
  0
LINE
  5
1E5
330
1F
100
AcDbEntity
  8
C-A
  6
Continuous
 62
     3
370
     9
100
AcDbLine
 10
-460.5962763501287
 20
758.2840083713872
 30
0.0
 11
-454.5961542798163
 21
758.2840083713872
 31
0.0
  0
LINE
  5
1E6
330
1F
100
AcDbEntity
  8
C-A
  6
Continuous
 62
     3
370
     9
100
AcDbLine
 10
-460.5962763501287
 20
764.2702749330566
 30
0.0
 11
-454.5961542798163
 21
764.2702749330566
 31
0.0
  0
LINE
  5
1E7
330
1F
100
AcDbEntity
  8
C-A
  6
Continuous
 62
     3
370
     9
100
AcDbLine
 10
-129.5988093091145
 20
758.2840083713872
 30
0.0
 11
-123.5986872388021
 21
758.2840083713872
 31
0.0
  0
LINE
  5
1E8
330
1F
100
AcDbEntity
  8
C-A
  6
Continuous
 62
     3
370
     9
100
AcDbLine
 10
-129.5988093091145
 20
764.2702749330566
 30
0.0
 11
-123.5986872388021
 21
764.2702749330566
 31
0.0
  0
LINE
  5
1E9
330
1F
100
AcDbEntity
  8
C-A
  6
Continuous
 62
     3
370
     9
100
AcDbLine
 10
-143.5990229321615
 20
758.2840083713872
 30
0.0
 11
-137.598656721224
 21
758.2840083713872
 31
0.0
  0
LINE
  5
1EA
330
1F
100
AcDbEntity
  8
C-A
  6
Continuous
 62
     3
370
     9
100
AcDbLine
 10
-157.5989924145833
 20
758.2840083713872
 30
0.0
 11
-151.5988703442709
 21
758.2840083713872
 31
0.0
  0
LINE
  5
1EB
330
1F
100
AcDbEntity
  8
C-A
  6
Continuous
 62
     3
370
     9
100
AcDbLine
 10
-171.5989618970053
 20
758.2840083713872
 30
0.0
 11
-165.5988398266928
 21
758.2840083713872
 31
0.0
  0
LINE
  5
1EC
330
1F
100
AcDbEntity
  8
C-A
  6
Continuous
 62
     3
370
     9
100
AcDbLine
 10
-185.5989313794271
 20
758.2840083713872
 30
0.0
 11
-179.5988093091145
 21
758.2840083713872
 31
0.0
  0
LINE
  5
1ED
330
1F
100
AcDbEntity
  8
C-A
  6
Continuous
 62
     3
370
     9
100
AcDbLine
 10
-199.598900861849
 20
758.2840083713872
 30
0.0
 11
-193.5987482739583
 21
758.2840083713872
 31
0.0
  0
LINE
  5
1EE
330
1F
100
AcDbEntity
  8
C-A
  6
Continuous
 62
     3
370
     9
100
AcDbLine
 10
-213.5991144848958
 20
758.2840083713872
 30
0.0
 11
-207.5987177563803
 21
758.2840083713872
 31
0.0
  0
LINE
  5
1EF
330
1F
100
AcDbEntity
  8
C-A
  6
Continuous
 62
     3
370
     9
100
AcDbLine
 10
-227.5988093091146
 20
758.2840083713872
 30
0.0
 11
-221.5986872388021
 21
758.2840083713872
 31
0.0
  0
LINE
  5
1F0
330
1F
100
AcDbEntity
  8
C-A
  6
Continuous
 62
     3
370
     9
100
AcDbLine
 10
-241.5987787915364
 20
758.2840083713872
 30
0.0
 11
-235.598656721224
 21
758.2840083713872
 31
0.0
  0
LINE
  5
1F1
330
1F
100
AcDbEntity
  8
C-A
  6
Continuous
 62
     3
370
     9
100
AcDbLine
 10
-255.5989924145834
 20
758.2840083713872
 30
0.0
 11
-249.5988703442708
 21
758.2840083713872
 31
0.0
  0
LINE
  5
1F2
330
1F
100
AcDbEntity
  8
C-A
  6
Continuous
 62
     3
370
     9
100
AcDbLine
 10
-269.5989618970053
 20
758.2840083713872
 30
0.0
 11
-263.5988398266927
 21
758.2840083713872
 31
0.0
  0
LINE
  5
1F3
330
1F
100
AcDbEntity
  8
C-A
  6
Continuous
 62
     3
370
     9
100
AcDbLine
 10
-283.5989313794272
 20
758.2840083713872
 30
0.0
 11
-277.5988093091146
 21
758.2840083713872
 31
0.0
  0
LINE
  5
1F4
330
1F
100
AcDbEntity
  8
C-A
  6
Continuous
 62
     3
370
     9
100
AcDbLine
 10
-143.5990229321615
 20
764.2702749330566
 30
0.0
 11
-137.598656721224
 21
764.2702749330566
 31
0.0
  0
LINE
  5
1F5
330
1F
100
AcDbEntity
  8
C-A
  6
Continuous
 62
     3
370
     9
100
AcDbLine
 10
-157.5989924145833
 20
764.2702749330566
 30
0.0
 11
-151.5988703442709
 21
764.2702749330566
 31
0.0
  0
LINE
  5
1F6
330
1F
100
AcDbEntity
  8
C-A
  6
Continuous
 62
     3
370
     9
100
AcDbLine
 10
-171.5989618970053
 20
764.2702749330566
 30
0.0
 11
-165.5988398266928
 21
764.2702749330566
 31
0.0
  0
LINE
  5
1F7
330
1F
100
AcDbEntity
  8
C-A
  6
Continuous
 62
     3
370
     9
100
AcDbLine
 10
-185.5989313794271
 20
764.2702749330566
 30
0.0
 11
-179.5988093091145
 21
764.2702749330566
 31
0.0
  0
LINE
  5
1F8
330
1F
100
AcDbEntity
  8
C-A
  6
Continuous
 62
     3
370
     9
100
AcDbLine
 10
-199.598900861849
 20
764.2702749330566
 30
0.0
 11
-193.5987482739583
 21
764.2702749330566
 31
0.0
  0
LINE
  5
1F9
330
1F
100
AcDbEntity
  8
C-A
  6
Continuous
 62
     3
370
     9
100
AcDbLine
 10
-213.5991144848958
 20
764.2702749330566
 30
0.0
 11
-207.5987177563803
 21
764.2702749330566
 31
0.0
  0
LINE
  5
1FA
330
1F
100
AcDbEntity
  8
C-A
  6
Continuous
 62
     3
370
     9
100
AcDbLine
 10
-227.5988093091146
 20
764.2702749330566
 30
0.0
 11
-221.5986872388021
 21
764.2702749330566
 31
0.0
  0
LINE
  5
1FB
330
1F
100
AcDbEntity
  8
C-A
  6
Continuous
 62
     3
370
     9
100
AcDbLine
 10
-241.5987787915364
 20
764.2702749330566
 30
0.0
 11
-235.598656721224
 21
764.2702749330566
 31
0.0
  0
LINE
  5
1FC
330
1F
100
AcDbEntity
  8
C-A
  6
Continuous
 62
     3
370
     9
100
AcDbLine
 10
-255.5989924145834
 20
764.2702749330566
 30
0.0
 11
-249.5988703442708
 21
764.2702749330566
 31
0.0
  0
LINE
  5
1FD
330
1F
100
AcDbEntity
  8
C-A
  6
Continuous
 62
     3
370
     9
100
AcDbLine
 10
-269.5989618970053
 20
764.2702749330566
 30
0.0
 11
-263.5988398266927
 21
764.2702749330566
 31
0.0
  0
LINE
  5
1FE
330
1F
100
AcDbEntity
  8
C-A
  6
Continuous
 62
     3
370
     9
100
AcDbLine
 10
-283.5989313794272
 20
764.2702749330566
 30
0.0
 11
-277.5988093091146
 21
764.2702749330566
 31
0.0
  0
LINE
  5
1FF
330
1F
100
AcDbEntity
  8
C-A
  6
Continuous
 62
     3
370
     9
100
AcDbLine
 10
-115.5985956860675
 20
758.2840083713872
 30
0.0
 11
-109.5984736157551
 21
758.2840083713872
 31
0.0
  0
LINE
  5
200
330
1F
100
AcDbEntity
  8
C-A
  6
Continuous
 62
     3
370
     9
100
AcDbLine
 10
-115.5985956860675
 20
764.2702749330566
 30
0.0
 11
-109.5984736157551
 21
764.2702749330566
 31
0.0
  0
LINE
  5
201
330
1F
100
AcDbEntity
  8
C-A
  6
Continuous
 62
     3
370
     9
100
AcDbLine
 10
-101.5983820630206
 20
758.2840083713872
 30
0.0
 11
-95.59825999270814
 21
758.2840083713872
 31
0.0
  0
LINE
  5
202
330
1F
100
AcDbEntity
  8
C-A
  6
Continuous
 62
     3
370
     9
100
AcDbLine
 10
-101.5983820630206
 20
764.2702749330566
 30
0.0
 11
-95.59825999270814
 21
764.2702749330566
 31
0.0
  0
LINE
  5
203
330
1F
100
AcDbEntity
  8
C-A
  6
Continuous
 62
     3
370
     9
100
AcDbLine
 10
-87.59816843997356
 20
758.2840083713872
 30
0.0
 11
-81.59804636966115
 21
758.2840083713872
 31
0.0
  0
LINE
  5
204
330
1F
100
AcDbEntity
  8
C-A
  6
Continuous
 62
     3
370
     9
100
AcDbLine
 10
-87.59816843997356
 20
764.2702749330566
 30
0.0
 11
-81.59804636966115
 21
764.2702749330566
 31
0.0
  0
LINE
  5
205
330
1F
100
AcDbEntity
  8
C-A
  6
Continuous
 62
     3
370
     9
100
AcDbLine
 10
-73.59795481692657
 20
758.2840083713872
 30
0.0
 11
-67.59783274661416
 21
758.2840083713872
 31
0.0
  0
LINE
  5
206
330
1F
100
AcDbEntity
  8
C-A
  6
Continuous
 62
     3
370
     9
100
AcDbLine
 10
-73.59795481692657
 20
764.2702749330566
 30
0.0
 11
-67.59783274661416
 21
764.2702749330566
 31
0.0
  0
LINE
  5
207
330
1F
100
AcDbEntity
  8
C-A
  6
Continuous
 62
     3
370
     9
100
AcDbLine
 10
-59.59774119387959
 20
758.2840083713872
 30
0.0
 11
-53.59761912356717
 21
758.2840083713872
 31
0.0
  0
LINE
  5
208
330
1F
100
AcDbEntity
  8
C-A
  6
Continuous
 62
     3
370
     9
100
AcDbLine
 10
-59.59774119387959
 20
764.2702749330566
 30
0.0
 11
-53.59761912356717
 21
764.2702749330566
 31
0.0
  0
LINE
  5
209
330
1F
100
AcDbEntity
  8
C-A
  6
Continuous
 62
     3
370
     9
100
AcDbLine
 10
-1444.599007673372
 20
758.2840083713872
 30
0.0
 11
-1438.59888560306
 21
758.2840083713872
 31
0.0
  0
LINE
  5
20A
330
1F
100
AcDbEntity
  8
C-A
  6
Continuous
 62
     3
370
     9
100
AcDbLine
 10
-1430.59905344974
 20
758.2840083713872
 30
0.0
 11
-1424.598916120638
 21
758.2840083713872
 31
0.0
  0
LINE
  5
20B
330
1F
100
AcDbEntity
  8
C-A
  6
Continuous
 62
     3
370
     9
100
AcDbLine
 10
-1416.599083967318
 20
758.2840083713872
 30
0.0
 11
-1410.598946638216
 21
758.2840083713872
 31
0.0
  0
LINE
  5
20C
330
1F
100
AcDbEntity
  8
C-A
  6
Continuous
 62
     3
370
     9
100
AcDbLine
 10
-1402.599114484896
 20
758.2840083713872
 30
0.0
 11
-1396.598992414583
 21
758.2840083713872
 31
0.0
  0
LINE
  5
20D
330
1F
100
AcDbEntity
  8
C-A
  6
Continuous
 62
     3
370
     9
100
AcDbLine
 10
-1388.599145002474
 20
758.2840083713872
 30
0.0
 11
-1382.599022932161
 21
758.2840083713872
 31
0.0
  0
LINE
  5
20E
330
1F
100
AcDbEntity
  8
C-A
  6
Continuous
 62
     3
370
     9
100
AcDbLine
 10
-1374.598931379427
 20
758.2840083713872
 30
0.0
 11
-1368.59905344974
 21
758.2840083713872
 31
0.0
  0
LINE
  5
20F
330
1F
100
AcDbEntity
  8
C-A
  6
Continuous
 62
     3
370
     9
100
AcDbLine
 10
-1360.598961897005
 20
758.2840083713872
 30
0.0
 11
-1354.598839826693
 21
758.2840083713872
 31
0.0
  0
LINE
  5
210
330
1F
100
AcDbEntity
  8
C-A
  6
Continuous
 62
     3
370
     9
100
AcDbLine
 10
-1346.599007673373
 20
758.2840083713872
 30
0.0
 11
-1340.598870344271
 21
758.2840083713872
 31
0.0
  0
LINE
  5
211
330
1F
100
AcDbEntity
  8
C-A
  6
Continuous
 62
     3
370
     9
100
AcDbLine
 10
-1332.599038190951
 20
758.2840083713872
 30
0.0
 11
-1326.598916120638
 21
758.2840083713872
 31
0.0
  0
LINE
  5
212
330
1F
100
AcDbEntity
  8
C-A
  6
Continuous
 62
     3
370
     9
100
AcDbLine
 10
-1318.599083967318
 20
758.2840083713872
 30
0.0
 11
-1312.598931379427
 21
758.2840083713872
 31
0.0
  0
LINE
  5
213
330
1F
100
AcDbEntity
  8
C-A
  6
Continuous
 62
     3
370
     9
100
AcDbLine
 10
-1304.599114484896
 20
758.2840083713872
 30
0.0
 11
-1298.598961897005
 21
758.2840083713872
 31
0.0
  0
LINE
  5
214
330
1F
100
AcDbEntity
  8
C-A
  6
Continuous
 62
     3
370
     9
100
AcDbLine
 10
-1444.599007673372
 20
764.2702749330566
 30
0.0
 11
-1438.59888560306
 21
764.2702749330566
 31
0.0
  0
LINE
  5
215
330
1F
100
AcDbEntity
  8
C-A
  6
Continuous
 62
     3
370
     9
100
AcDbLine
 10
-1430.59905344974
 20
764.2702749330566
 30
0.0
 11
-1424.598916120638
 21
764.2702749330566
 31
0.0
  0
LINE
  5
216
330
1F
100
AcDbEntity
  8
C-A
  6
Continuous
 62
     3
370
     9
100
AcDbLine
 10
-1416.599083967318
 20
764.2702749330566
 30
0.0
 11
-1410.598946638216
 21
764.2702749330566
 31
0.0
  0
LINE
  5
217
330
1F
100
AcDbEntity
  8
C-A
  6
Continuous
 62
     3
370
     9
100
AcDbLine
 10
-1402.599114484896
 20
764.2702749330566
 30
0.0
 11
-1396.598992414583
 21
764.2702749330566
 31
0.0
  0
LINE
  5
218
330
1F
100
AcDbEntity
  8
C-A
  6
Continuous
 62
     3
370
     9
100
AcDbLine
 10
-1388.599145002474
 20
764.2702749330566
 30
0.0
 11
-1382.599022932161
 21
764.2702749330566
 31
0.0
  0
LINE
  5
219
330
1F
100
AcDbEntity
  8
C-A
  6
Continuous
 62
     3
370
     9
100
AcDbLine
 10
-1374.598931379427
 20
764.2702749330566
 30
0.0
 11
-1368.59905344974
 21
764.2702749330566
 31
0.0
  0
LINE
  5
21A
330
1F
100
AcDbEntity
  8
C-A
  6
Continuous
 62
     3
370
     9
100
AcDbLine
 10
-1360.598961897005
 20
764.2702749330566
 30
0.0
 11
-1354.598839826693
 21
764.2702749330566
 31
0.0
  0
LINE
  5
21B
330
1F
100
AcDbEntity
  8
C-A
  6
Continuous
 62
     3
370
     9
100
AcDbLine
 10
-1346.599007673373
 20
764.2702749330566
 30
0.0
 11
-1340.598870344271
 21
764.2702749330566
 31
0.0
  0
LINE
  5
21C
330
1F
100
AcDbEntity
  8
C-A
  6
Continuous
 62
     3
370
     9
100
AcDbLine
 10
-1332.599038190951
 20
764.2702749330566
 30
0.0
 11
-1326.598916120638
 21
764.2702749330566
 31
0.0
  0
LINE
  5
21D
330
1F
100
AcDbEntity
  8
C-A
  6
Continuous
 62
     3
370
     9
100
AcDbLine
 10
-1318.599083967318
 20
764.2702749330566
 30
0.0
 11
-1312.598931379427
 21
764.2702749330566
 31
0.0
  0
LINE
  5
21E
330
1F
100
AcDbEntity
  8
C-A
  6
Continuous
 62
     3
370
     9
100
AcDbLine
 10
-1304.599114484896
 20
764.2702749330566
 30
0.0
 11
-1298.598961897005
 21
764.2702749330566
 31
0.0
  0
LINE
  5
21F
330
1F
100
AcDbEntity
  8
C-A
  6
Continuous
 62
     3
370
     9
100
AcDbLine
 10
-1528.597558088411
 20
758.2840083713872
 30
0.0
 11
-1522.597436018098
 21
758.2840083713872
 31
0.0
  0
LINE
  5
220
330
1F
100
AcDbEntity
  8
C-A
  6
Continuous
 62
     3
370
     9
100
AcDbLine
 10
-1528.597558088411
 20
764.2702749330566
 30
0.0
 11
-1522.597436018098
 21
764.2702749330566
 31
0.0
  0
LINE
  5
221
330
1F
100
AcDbEntity
  8
C-A
  6
Continuous
 62
     3
370
     9
100
AcDbLine
 10
-1514.597344465363
 20
758.2840083713872
 30
0.0
 11
-1508.597222395051
 21
758.2840083713872
 31
0.0
  0
LINE
  5
222
330
1F
100
AcDbEntity
  8
C-A
  6
Continuous
 62
     3
370
     9
100
AcDbLine
 10
-1514.597344465363
 20
764.2702749330566
 30
0.0
 11
-1508.597222395051
 21
764.2702749330566
 31
0.0
  0
LINE
  5
223
330
1F
100
AcDbEntity
  8
C-A
  6
Continuous
 62
     3
370
     9
100
AcDbLine
 10
-1500.597130842316
 20
758.2840083713872
 30
0.0
 11
-1494.597008772004
 21
758.2840083713872
 31
0.0
  0
LINE
  5
224
330
1F
100
AcDbEntity
  8
C-A
  6
Continuous
 62
     3
370
     9
100
AcDbLine
 10
-1500.597130842316
 20
764.2702749330566
 30
0.0
 11
-1494.597008772004
 21
764.2702749330566
 31
0.0
  0
LINE
  5
225
330
1F
100
AcDbEntity
  8
C-A
  6
Continuous
 62
     3
370
     9
100
AcDbLine
 10
-1486.596917219269
 20
758.2840083713872
 30
0.0
 11
-1480.596795148957
 21
758.2840083713872
 31
0.0
  0
LINE
  5
226
330
1F
100
AcDbEntity
  8
C-A
  6
Continuous
 62
     3
370
     9
100
AcDbLine
 10
-1486.596917219269
 20
764.2702749330566
 30
0.0
 11
-1480.596795148957
 21
764.2702749330566
 31
0.0
  0
LINE
  5
227
330
1F
100
AcDbEntity
  8
C-A
  6
Continuous
 62
     3
370
     9
100
AcDbLine
 10
-1472.596703596223
 20
758.2840083713872
 30
0.0
 11
-1466.59658152591
 21
758.2840083713872
 31
0.0
  0
LINE
  5
228
330
1F
100
AcDbEntity
  8
C-A
  6
Continuous
 62
     3
370
     9
100
AcDbLine
 10
-1472.596703596223
 20
764.2702749330566
 30
0.0
 11
-1466.59658152591
 21
764.2702749330566
 31
0.0
  0
LINE
  5
229
330
1F
100
AcDbEntity
  8
C-A
  6
Continuous
 62
     3
370
     9
100
AcDbLine
 10
-1458.596489973175
 20
758.2840083713872
 30
0.0
 11
-1452.596367902863
 21
758.2840083713872
 31
0.0
  0
LINE
  5
22A
330
1F
100
AcDbEntity
  8
C-A
  6
Continuous
 62
     3
370
     9
100
AcDbLine
 10
-1458.596489973175
 20
764.2702749330566
 30
0.0
 11
-1452.596367902863
 21
764.2702749330566
 31
0.0
  0
LINE
  5
22B
330
1F
100
AcDbEntity
  8
C-A
  6
Continuous
 62
     3
370
     9
100
AcDbLine
 10
-59.59749705325464
 20
689.276836476437
 30
0.0
 11
-59.59749705325464
 21
746.2768975115932
 31
0.0
  0
LINE
  5
22C
330
1F
100
AcDbEntity
  8
C-A
  6
Continuous
 62
     3
370
     9
100
AcDbLine
 10
-53.59737498294209
 20
689.276836476437
 30
0.0
 11
-53.59737498294209
 21
746.2768975115932
 31
0.0
  0
LINE
  5
22D
330
1F
100
AcDbEntity
  8
C-A
  6
Continuous
 62
     3
370
     9
100
AcDbLine
 10
-53.59737498294209
 20
753.0279263502944
 30
0.0
 11
-53.59737498294209
 21
833.2771416522183
 31
0.0
  0
LINE
  5
22E
330
1F
100
AcDbEntity
  8
C-A
  6
Continuous
 62
     3
370
     9
100
AcDbLine
 10
-59.59749705325464
 20
748.5277592653631
 30
0.0
 11
-59.59749705325464
 21
833.2771416522183
 31
0.0
  0
LINE
  5
22F
330
1F
100
AcDbEntity
  8
C-2
  6
Continuous
 62
     3
370
     9
100
AcDbLine
 10
-1560.598656721224
 20
746.2768975115932
 30
0.0
 11
-1520.598473615755
 21
776.2775383807339
 31
0.0
  0
LINE
  5
230
330
1F
100
AcDbEntity
  8
C-A
  6
Continuous
 62
     3
370
     9
100
AcDbLine
 10
-1522.597191877473
 20
689.276836476437
 30
0.0
 11
-1522.597191877473
 21
774.7784745236941
 31
0.0
  0
LINE
  5
231
330
1F
100
AcDbEntity
  8
C-A
  6
Continuous
 62
     3
370
     9
100
AcDbLine
 10
-1528.597313947786
 20
689.276836476437
 30
0.0
 11
-1528.597313947786
 21
770.2783074387626
 31
0.0
  0
LINE
  5
232
330
1F
100
AcDbEntity
  8
C-A
  6
Continuous
 62
     3
370
     9
100
AcDbLine
 10
-1528.597313947786
 20
776.2775383807339
 30
0.0
 11
-1528.597313947786
 21
833.2771416522183
 31
0.0
  0
LINE
  5
233
330
1F
100
AcDbEntity
  8
C-A
  6
Continuous
 62
     3
370
     9
100
AcDbLine
 10
-1522.597191877473
 20
776.2775383807339
 30
0.0
 11
-1522.597191877473
 21
833.2771416522183
 31
0.0
  0
LINE
  5
234
330
1F
100
AcDbEntity
  8
C-A
  6
Continuous
 62
     3
370
     9
100
AcDbLine
 10
-1536.59740550052
 20
689.276836476437
 30
0.0
 11
-1536.59740550052
 21
764.2781380655126
 31
0.0
  0
LINE
  5
235
330
1F
100
AcDbEntity
  8
C-A
  6
Continuous
 62
     3
370
     9
100
AcDbLine
 10
-1536.59740550052
 20
776.2775383807339
 30
0.0
 11
-1536.59740550052
 21
833.2771416522183
 31
0.0
  0
LINE
  5
236
330
1F
100
AcDbEntity
  8
C-A
  6
Continuous
 62
     3
370
     9
100
AcDbLine
 10
-1556.59774119388
 20
746.2768975115932
 30
0.0
 11
-1556.59774119388
 21
749.2776345223997
 31
0.0
  0
LINE
  5
237
330
1F
100
AcDbEntity
  8
C-A
  6
Continuous
 62
     3
370
     9
100
AcDbLine
 10
-1550.597619123567
 20
746.2768975115932
 30
0.0
 11
-1550.597619123567
 21
753.7778016073312
 31
0.0
  0
LINE
  5
238
330
1F
100
AcDbEntity
  8
C-A
  6
Continuous
 62
     3
370
     9
100
AcDbLine
 10
-1542.597527570833
 20
746.2768975115932
 30
0.0
 11
-1542.597527570833
 21
759.7779709805811
 31
0.0
  0
LINE
  5
239
330
1F
100
AcDbEntity
  8
C-A
  6
Continuous
 62
     3
370
     9
100
AcDbLine
 10
-45.5975275708326
 20
764.2702749330566
 30
0.0
 11
-39.59740550052018
 21
764.2702749330566
 31
0.0
  0
LINE
  5
23A
330
1F
100
AcDbEntity
  8
C-A
  6
Continuous
 62
     3
370
     9
100
AcDbLine
 10
-31.59706980716066
 20
769.5284321817259
 30
0.0
 11
-31.59706980716066
 21
776.2775383807339
 31
0.0
  0
LINE
  5
23B
330
1F
100
AcDbEntity
  8
C-A
  6
Continuous
 62
     3
370
     9
100
AcDbLine
 10
-25.59694773684811
 20
774.0285992666571
 30
0.0
 11
-25.59694773684811
 21
776.2775383807339
 31
0.0
  0
LINE
  5
23C
330
1F
100
AcDbEntity
  8
C-A
  6
Continuous
 62
     3
370
     9
100
AcDbLine
 10
-45.59728343020765
 20
759.0280957235445
 30
0.0
 11
-45.59728343020765
 21
833.2771416522183
 31
0.0
  0
LINE
  5
23D
330
1F
100
AcDbEntity
  8
C-A
  6
Continuous
 62
     3
370
     9
100
AcDbLine
 10
-45.59728343020765
 20
689.276836476437
 30
0.0
 11
-45.59728343020765
 21
746.2768975115932
 31
0.0
  0
LINE
  5
23E
330
1F
100
AcDbEntity
  8
C-A
  6
Continuous
 62
     3
370
     9
100
AcDbLine
 10
-39.5971613598951
 20
763.5282628084757
 30
0.0
 11
-39.5971613598951
 21
776.2775383807339
 31
0.0
  0
LINE
  5
23F
330
1F
100
AcDbEntity
  8
D-2
  6
Continuous
 62
     3
370
     9
100
AcDbLine
 10
-1593.650068842428
 20
-323.0355303878343
 30
0.0
 11
-1608.650923334616
 21
-323.0355303878343
 31
0.0
  0
LINE
  5
240
330
1F
100
AcDbEntity
  8
D-2
  6
Continuous
 62
     3
370
     9
100
AcDbLine
 10
-1593.650068842428
 20
-323.0355303878343
 30
0.0
 11
-1623.651045404929
 21
-343.036613761858
 31
0.0
  0
LINE
  5
241
330
1F
100
AcDbEntity
  8
D-2
  6
Continuous
 62
     3
370
     9
100
AcDbLine
 10
-1608.650923334616
 20
-378.2066885728577
 30
0.0
 11
-1608.650923334616
 21
-343.036613761858
 31
0.0
  0
LINE
  5
242
330
1F
100
AcDbEntity
  8
D-2
  6
Continuous
 62
     3
370
     9
100
AcDbLine
 10
-1608.650923334616
 20
-343.036613761858
 30
0.0
 11
-1623.651045404929
 21
-343.036613761858
 31
0.0
  0
LINE
  5
243
330
1F
100
AcDbEntity
  8
D-2
  6
Continuous
 62
     3
370
     9
100
AcDbLine
 10
-1099.023794959763
 20
-295.5360715533055
 30
0.0
 11
-1099.023794959763
 21
-370.5360725963868
 31
0.0
  0
LINE
  5
244
330
1F
100
AcDbEntity
  8
D-2
  6
Continuous
 62
     3
370
     9
100
AcDbLine
 10
-1114.024610351304
 20
-370.5360725963868
 30
0.0
 11
-1114.024610351304
 21
-295.5360715533055
 31
0.0
  0
LINE
  5
245
330
1F
100
AcDbEntity
  8
D-2
  6
JWW_CENTER1
 62
     3
370
     9
100
AcDbLine
 10
-1509.673142265061
 20
-336.5361097896851
 30
0.0
 11
-1438.251824210862
 21
-336.5361097896851
 31
0.0
  0
LINE
  5
246
330
1F
100
AcDbEntity
  8
D-2
  6
JWW_CENTER1
 62
     3
370
     9
100
AcDbLine
 10
-1474.085106681565
 20
-372.1241406048096
 30
0.0
 11
-1474.085106681565
 21
-300.7026151264466
 31
0.0
  0
CIRCLE
  5
247
330
1F
100
AcDbEntity
  8
D-2
  6
Continuous
 62
     3
370
     9
100
AcDbCircle
 10
-1474.085106681565
 20
-336.5361097896851
 30
0.0
 40
15.0
  0
LINE
  5
248
330
1F
100
AcDbEntity
  8
D-2
  6
Continuous
 62
     3
370
     9
100
AcDbLine
 10
-1099.023794959763
 20
-370.5360725963868
 30
0.0
 11
-1608.650923334616
 21
-370.5360725963868
 31
0.0
  0
LINE
  5
249
330
1F
100
AcDbEntity
  8
D-2
  6
Continuous
 62
     3
370
     9
100
AcDbLine
 10
-1099.023794959763
 20
-295.5360715533055
 30
0.0
 11
-1608.650923334616
 21
-295.5360715533055
 31
0.0
  0
LINE
  5
24A
330
1F
100
AcDbEntity
  8
D-2
  6
Continuous
 62
     3
370
     9
100
AcDbLine
 10
-1114.024610351304
 20
-301.5358966434753
 30
0.0
 11
-1608.650923334616
 21
-301.5358966434753
 31
0.0
  0
LINE
  5
24B
330
1F
100
AcDbEntity
  8
D-2
  6
Continuous
 62
     3
370
     9
100
AcDbLine
 10
-1608.650923334616
 20
-323.0355303878343
 30
0.0
 11
-1608.650923334616
 21
-288.0360715533055
 31
0.0
  0
TEXT
  5
24C
330
1F
100
AcDbEntity
  8
D-5
  6
Continuous
 62
     7
370
     9
100
AcDbText
 10
1307.426043498874
 20
424.9089298405277
 30
0.0
 40
22.86
  1
メインバー
 41
1.133333333333333
  7
ＭＳ ゴシック
100
AcDbText
  0
LINE
  5
24D
330
1F
100
AcDbEntity
  8
D-5
  6
Continuous
 62
     7
370
     9
100
AcDbLine
 10
564.4446704057997
 20
-114.688759908254
 30
0.0
 11
1210.074877863839
 21
-114.688759908254
 31
0.0
  0
TEXT
  5
24E
330
1F
100
AcDbEntity
  8
D-5
  6
Continuous
 62
     2
370
     9
100
AcDbText
 10
579.4451586870501
 20
-94.04875990825403
 30
0.0
 40
30.48
  1
メインバー詳細図　Ｓ＝１：２
 41
1.116071428571427
  7
ＭＳ ゴシック
100
AcDbText
  0
LINE
  5
24F
330
1F
100
AcDbEntity
  8
D-2
  6
Continuous
 62
     3
370
     9
100
AcDbLine
 10
429.6477553696478
 20
346.7603761904709
 30
0.0
 11
429.6477553696478
 21
339.7603151553144
 31
0.0
  0
LINE
  5
250
330
1F
100
AcDbEntity
  8
D-A
  6
JWW_CENTER1
 62
     3
370
     9
100
AcDbLine
 10
400.2448988080513
 20
306.2605858957204
 30
0.0
 11
446.1472670883983
 21
306.2605858957204
 31
0.0
  0
LINE
  5
251
330
1F
100
AcDbEntity
  8
D-2
  6
Continuous
 62
     3
370
     9
100
AcDbLine
 10
453.6476332993356
 20
291.2605858957204
 30
0.0
 11
516.0476577133976
 21
291.2605858957204
 31
0.0
  0
LINE
  5
252
330
1F
100
AcDbEntity
  8
D-2
  6
Continuous
 62
     3
370
     9
100
AcDbLine
 10
523.047657713398
 20
291.2605858957204
 30
0.0
 11
585.9475600571476
 21
291.2605858957204
 31
0.0
  0
LINE
  5
253
330
1F
100
AcDbEntity
  8
D-2
  6
Continuous
 62
     3
370
     9
100
AcDbLine
 10
592.9479262680853
 20
291.2605858957204
 30
0.0
 11
638.5722500096925
 21
291.2605858957204
 31
0.0
  0
LINE
  5
254
330
1F
100
AcDbEntity
  8
D-2
  6
Continuous
 62
     3
370
     9
100
AcDbLine
 10
398.6178201770291
 20
291.2605858957204
 30
0.0
 11
446.1472670883983
 21
291.2605858957204
 31
0.0
  0
LINE
  5
255
330
1F
100
AcDbEntity
  8
D-2
  6
Continuous
 62
     3
370
     9
100
AcDbLine
 10
453.6476332993356
 20
321.2605858957204
 30
0.0
 11
516.0476577133976
 21
321.2605858957204
 31
0.0
  0
LINE
  5
256
330
1F
100
AcDbEntity
  8
D-2
  6
Continuous
 62
     3
370
     9
100
AcDbLine
 10
523.047657713398
 20
321.2605858957204
 30
0.0
 11
585.9475600571476
 21
321.2605858957204
 31
0.0
  0
LINE
  5
257
330
1F
100
AcDbEntity
  8
D-2
  6
Continuous
 62
     3
370
     9
100
AcDbLine
 10
592.9479262680853
 20
321.2605858957204
 30
0.0
 11
638.5722500096925
 21
321.2605858957204
 31
0.0
  0
LINE
  5
258
330
1F
100
AcDbEntity
  8
D-2
  6
Continuous
 62
     3
370
     9
100
AcDbLine
 10
398.6178201770291
 20
321.2605858957204
 30
0.0
 11
446.1472670883983
 21
321.2605858957204
 31
0.0
  0
LINE
  5
259
330
1F
100
AcDbEntity
  8
D-A
  6
JWW_CENTER1
 62
     3
370
     9
100
AcDbLine
 10
523.0480239243353
 20
306.2605858957204
 30
0.0
 11
585.9475600571476
 21
306.2605858957204
 31
0.0
  0
LINE
  5
25A
330
1F
100
AcDbEntity
  8
D-A
  6
JWW_CENTER1
 62
     3
370
     9
100
AcDbLine
 10
453.147633299336
 20
306.2605858957204
 30
0.0
 11
516.0476577133976
 21
306.2605858957204
 31
0.0
  0
LINE
  5
25B
330
1F
100
AcDbEntity
  8
D-A
  6
JWW_CENTER1
 62
     3
370
     9
100
AcDbLine
 10
592.9479262680853
 20
306.2605858957204
 30
0.0
 11
641.985019648436
 21
306.2605858957204
 31
0.0
  0
LINE
  5
25C
330
1F
100
AcDbEntity
  8
D-5
  6
Continuous
 62
     7
370
     9
100
AcDbLine
 10
417.7892526298148
 20
58.00794283975939
 30
0.0
 11
635.7276729778731
 21
58.00794283975939
 31
0.0
  0
TEXT
  5
25D
330
1F
100
AcDbEntity
  8
D-5
  6
Continuous
 62
     2
370
     9
100
AcDbText
 10
428.0084628038434
 20
78.6479428397594
 30
0.0
 40
30.48
  1
B-B断面図
 41
1.097222222222222
  7
ＭＳ ゴシック
100
AcDbText
  0
TEXT
  5
25E
330
1F
100
AcDbEntity
  8
D-5
  6
Continuous
 62
     2
370
     9
100
AcDbText
 10
1068.817575332622
 20
78.6479428397594
 30
0.0
 40
30.48
  1
C-C断面図
 41
1.097222222222219
  7
ＭＳ ゴシック
100
AcDbText
  0
LINE
  5
25F
330
1F
100
AcDbEntity
  8
D-5
  6
Continuous
 62
     7
370
     9
100
AcDbLine
 10
1066.580460899731
 20
58.00794283975939
 30
0.0
 11
1265.884210843762
 21
58.00794283975939
 31
0.0
  0
LINE
  5
260
330
1F
100
AcDbEntity
  8
D-2
  6
Continuous
 62
     3
370
     9
100
AcDbLine
 10
470.1475112290233
 20
346.7603761904709
 30
0.0
 11
499.5474135727726
 21
346.7603761904709
 31
0.0
  0
LINE
  5
261
330
1F
100
AcDbEntity
  8
D-2
  6
Continuous
 62
     3
370
     9
100
AcDbLine
 10
539.5475356430858
 20
346.7603761904709
 30
0.0
 11
499.5481459946483
 21
346.7603761904709
 31
0.0
  0
LINE
  5
262
330
1F
100
AcDbEntity
  8
D-2
  6
Continuous
 62
     3
370
     9
100
AcDbLine
 10
499.5481459946483
 20
346.7603761904709
 30
0.0
 11
499.5481459946483
 21
339.7603151553144
 31
0.0
  0
LINE
  5
263
330
1F
100
AcDbEntity
  8
D-2
  6
Continuous
 62
     3
370
     9
100
AcDbLine
 10
539.5475356430858
 20
346.7603761904709
 30
0.0
 11
539.5475356430858
 21
339.7603151553144
 31
0.0
  0
LINE
  5
264
330
1F
100
AcDbEntity
  8
D-2
  6
Continuous
 62
     3
370
     9
100
AcDbLine
 10
469.6471450180853
 20
346.7603761904709
 30
0.0
 11
398.6178201770291
 21
346.7603761904709
 31
0.0
  0
LINE
  5
265
330
1F
100
AcDbEntity
  8
D-2
  6
Continuous
 62
     3
370
     9
100
AcDbLine
 10
469.6471450180853
 20
346.7603761904709
 30
0.0
 11
469.6471450180853
 21
339.7603151553144
 31
0.0
  0
LINE
  5
266
330
1F
100
AcDbEntity
  8
D-2
  6
Continuous
 62
     3
370
     9
100
AcDbLine
 10
429.6477553696478
 20
339.7603151553144
 30
0.0
 11
469.6471450180853
 21
339.7603151553144
 31
0.0
  0
LINE
  5
267
330
1F
100
AcDbEntity
  8
D-2
  6
Continuous
 62
     3
370
     9
100
AcDbLine
 10
569.4480483383983
 20
339.7603151553144
 30
0.0
 11
569.4480483383983
 21
346.7603761904709
 31
0.0
  0
LINE
  5
268
330
1F
100
AcDbEntity
  8
D-2
  6
Continuous
 62
     3
370
     9
100
AcDbLine
 10
638.5722500096925
 20
346.7603761904709
 30
0.0
 11
569.4480483383983
 21
346.7603761904709
 31
0.0
  0
LINE
  5
269
330
1F
100
AcDbEntity
  8
D-2
  6
Continuous
 62
     3
370
     9
100
AcDbLine
 10
609.4474379868358
 20
346.7603761904709
 30
0.0
 11
609.4474379868358
 21
339.7603151553144
 31
0.0
  0
LINE
  5
26A
330
1F
100
AcDbEntity
  8
D-2
  6
Continuous
 62
     3
370
     9
100
AcDbLine
 10
609.4474379868358
 20
339.7603151553144
 30
0.0
 11
569.4480483383983
 21
339.7603151553144
 31
0.0
  0
LINE
  5
26B
330
1F
100
AcDbEntity
  8
D-2
  6
Continuous
 62
     3
370
     9
100
AcDbLine
 10
539.5475356430858
 20
346.7603761904709
 30
0.0
 11
569.4480483383983
 21
346.7603761904709
 31
0.0
  0
LINE
  5
26C
330
1F
100
AcDbEntity
  8
D-2
  6
Continuous
 62
     3
370
     9
100
AcDbLine
 10
499.5481459946483
 20
339.7603151553144
 30
0.0
 11
539.5475356430858
 21
339.7603151553144
 31
0.0
  0
ARC
  5
26D
330
1F
100
AcDbEntity
  8
D-2
  6
Continuous
 62
     3
370
     9
100
AcDbCircle
 10
511.0476577133976
 20
334.7603151553144
 30
0.0
 40
5.0
100
AcDbArc
 50
0.0
 51
90.0
  0
ARC
  5
26E
330
1F
100
AcDbEntity
  8
D-2
  6
Continuous
 62
     3
370
     9
100
AcDbCircle
 10
528.0480239243353
 20
334.7603151553144
 30
0.0
 40
5.0
100
AcDbArc
 50
90.0
 51
180.0
  0
ARC
  5
26F
330
1F
100
AcDbEntity
  8
D-2
  6
Continuous
 62
     3
370
     9
100
AcDbCircle
 10
441.1472670883983
 20
334.7603151553144
 30
0.0
 40
5.0
100
AcDbArc
 50
0.0
 51
90.0
  0
ARC
  5
270
330
1F
100
AcDbEntity
  8
D-2
  6
Continuous
 62
     3
370
     9
100
AcDbCircle
 10
458.147633299336
 20
334.7603151553144
 30
0.0
 40
5.0
100
AcDbArc
 50
90.0
 51
180.0
  0
ARC
  5
271
330
1F
100
AcDbEntity
  8
D-2
  6
Continuous
 62
     3
370
     9
100
AcDbCircle
 10
580.9475600571476
 20
334.7603151553144
 30
0.0
 40
5.0
100
AcDbArc
 50
0.0
 51
90.0
  0
ARC
  5
272
330
1F
100
AcDbEntity
  8
D-2
  6
Continuous
 62
     3
370
     9
100
AcDbCircle
 10
597.9479262680853
 20
334.7603151553144
 30
0.0
 40
5.0
100
AcDbArc
 50
90.0
 51
180.0
  0
LINE
  5
273
330
1F
100
AcDbEntity
  8
D-2
  6
Continuous
 62
     3
370
     9
100
AcDbLine
 10
446.1472670883983
 20
339.7603151553144
 30
0.0
 11
446.1472670883983
 21
271.9195422687807
 31
0.0
  0
LINE
  5
274
330
1F
100
AcDbEntity
  8
D-2
  6
Continuous
 62
     3
370
     9
100
AcDbLine
 10
516.0476577133976
 20
339.7603151553144
 30
0.0
 11
516.0476577133976
 21
271.9195422687807
 31
0.0
  0
LINE
  5
275
330
1F
100
AcDbEntity
  8
D-2
  6
Continuous
 62
     3
370
     9
100
AcDbLine
 10
523.0480239243353
 20
339.7603151553144
 30
0.0
 11
523.0480239243353
 21
271.9195422687807
 31
0.0
  0
LINE
  5
276
330
1F
100
AcDbEntity
  8
D-2
  6
Continuous
 62
     3
370
     9
100
AcDbLine
 10
453.147633299336
 20
339.7603151553144
 30
0.0
 11
453.147633299336
 21
271.9195422687807
 31
0.0
  0
LINE
  5
277
330
1F
100
AcDbEntity
  8
D-2
  6
Continuous
 62
     3
370
     9
100
AcDbLine
 10
585.9475600571476
 20
339.7603151553144
 30
0.0
 11
585.9475600571476
 21
271.9195422687807
 31
0.0
  0
LINE
  5
278
330
1F
100
AcDbEntity
  8
D-2
  6
Continuous
 62
     3
370
     9
100
AcDbLine
 10
592.9479262680853
 20
339.7603151553144
 30
0.0
 11
592.9479262680853
 21
271.9195422687807
 31
0.0
  0
LINE
  5
279
330
1F
100
AcDbEntity
  8
D-2
  6
Continuous
 62
     3
370
     9
100
AcDbLine
 10
398.6178201770291
 20
271.7604999103822
 30
0.0
 11
638.5722500096925
 21
271.7604999103822
 31
0.0
  0
LINE
  5
27A
330
1F
100
AcDbEntity
  8
D-4
  6
Continuous
 62
     7
370
     9
100
AcDbLine
 10
749.8551273501771
 20
346.7603761904709
 30
0.0
 11
749.8551273501771
 21
271.7604999103822
 31
0.0
  0
LWPOLYLINE
  5
27B
330
1F
100
AcDbEntity
  8
D-4
  6
Continuous
 62
     7
370
     9
100
AcDbPolyline
 90
        4
 70
     1
 43
1.0
 10
750.3551273501771
 20
346.7603761904709
 42
0.4142135623731
 10
749.8551273501771
 20
347.2603761904708
 42
0.4142135623731
 10
749.3551273501771
 20
346.7603761904709
 42
0.4142135623731
 10
749.8551273501771
 20
346.2603761904709
 42
0.4142135623731
  0
LWPOLYLINE
  5
27C
330
1F
100
AcDbEntity
  8
D-4
  6
Continuous
 62
     7
370
     9
100
AcDbPolyline
 90
        4
 70
     1
 43
1.0
 10
750.3551273501771
 20
271.7604999103822
 42
0.4142135623731
 10
749.8551273501771
 20
272.2604999103822
 42
0.4142135623731
 10
749.3551273501771
 20
271.7604999103822
 42
0.4142135623731
 10
749.8551273501771
 20
271.2604999103822
 42
0.4142135623731
  0
LINE
  5
27D
330
1F
100
AcDbEntity
  8
D-4
  6
Continuous
 62
     7
370
     9
100
AcDbLine
 10
752.8551273501772
 20
346.7603761904709
 30
0.0
 11
665.7458251815113
 21
346.7603761904709
 31
0.0
  0
LINE
  5
27E
330
1F
100
AcDbEntity
  8
D-4
  6
Continuous
 62
     7
370
     9
100
AcDbLine
 10
752.8551273501772
 20
271.7604999103822
 30
0.0
 11
665.7458251815113
 21
271.7604999103822
 31
0.0
  0
TEXT
  5
27F
330
1F
100
AcDbEntity
  8
D-4
  6
Continuous
 62
     2
370
   211
100
AcDbText
 10
738.2151273501775
 20
288.0104380504266
 30
0.0
 40
30.48
  1
15
 50
90.0
 41
1.0625
  7
ＭＳ ゴシック
100
AcDbText
  0
LINE
  5
280
330
1F
100
AcDbEntity
  8
D-2
  6
Continuous
 62
     3
370
     9
100
AcDbLine
 10
1023.274754530543
 20
306.8769212699686
 30
0.0
 11
1023.274754530543
 21
365.8894365543329
 31
0.0
  0
LINE
  5
281
330
1F
100
AcDbEntity
  8
D-2
  6
Continuous
 62
     3
370
     9
100
AcDbLine
 10
1038.27560902273
 20
306.8769212699686
 30
0.0
 11
1023.274754530543
 21
306.8769212699686
 31
0.0
  0
LINE
  5
282
330
1F
100
AcDbEntity
  8
D-2
  6
Continuous
 62
     3
370
     9
100
AcDbLine
 10
1038.27560902273
 20
306.8769212699686
 30
0.0
 11
1008.274632460229
 21
286.8758378959449
 31
0.0
  0
LINE
  5
283
330
1F
100
AcDbEntity
  8
D-2
  6
Continuous
 62
     3
370
     9
100
AcDbLine
 10
1023.274754530543
 20
286.8758378959449
 30
0.0
 11
1008.274632460229
 21
286.8758378959449
 31
0.0
  0
LINE
  5
284
330
1F
100
AcDbEntity
  8
D-2
  6
Continuous
 62
     3
370
     9
100
AcDbLine
 10
1023.274754530543
 20
251.7057630849451
 30
0.0
 11
1023.274754530543
 21
286.8758378959449
 31
0.0
  0
LINE
  5
285
330
1F
100
AcDbEntity
  8
D-4
  6
Continuous
 62
     7
370
     9
100
AcDbLine
 10
1117.799657729255
 20
531.6327302479126
 30
0.0
 11
1492.799564939321
 21
531.6327302479126
 31
0.0
  0
LWPOLYLINE
  5
286
330
1F
100
AcDbEntity
  8
D-4
  6
Continuous
 62
     7
370
     9
100
AcDbPolyline
 90
        4
 70
     1
 43
1.0
 10
1118.299657729255
 20
531.6327302479126
 42
0.4142135623731
 10
1117.799657729255
 20
532.1327302479126
 42
0.4142135623731
 10
1117.299657729255
 20
531.6327302479126
 42
0.4142135623731
 10
1117.799657729255
 20
531.1327302479127
 42
0.4142135623731
  0
LWPOLYLINE
  5
287
330
1F
100
AcDbEntity
  8
D-4
  6
Continuous
 62
     7
370
     9
100
AcDbPolyline
 90
        4
 70
     1
 43
1.0
 10
1493.299564939322
 20
531.6327302479126
 42
0.4142135623731
 10
1492.799564939321
 20
532.1327302479126
 42
0.4142135623731
 10
1492.299564939321
 20
531.6327302479126
 42
0.4142135623731
 10
1492.799564939321
 20
531.1327302479127
 42
0.4142135623731
  0
LINE
  5
288
330
1F
100
AcDbEntity
  8
D-4
  6
Continuous
 62
     7
370
     9
100
AcDbLine
 10
1492.799564939321
 20
534.6327302479126
 30
0.0
 11
1492.799564939321
 21
366.7607473502047
 31
0.0
  0
TEXT
  5
289
330
1F
100
AcDbEntity
  8
D-4
  6
Continuous
 62
     2
370
   211
100
AcDbText
 10
1284.049611334288
 20
543.2727302479127
 30
0.0
 40
30.48
  1
75
 41
1.0625
  7
ＭＳ ゴシック
100
AcDbText
  0
LINE
  5
28A
330
1F
100
AcDbEntity
  8
D-2
  6
Continuous
 62
     3
370
     9
100
AcDbLine
 10
569.6345888900065
 20
1030.970210193064
 30
0.0
 11
572.2732948735909
 21
1033.184344995787
 31
0.0
  0
LINE
  5
28B
330
1F
100
AcDbEntity
  8
D-2
  6
Continuous
 62
     3
370
     9
100
AcDbLine
 10
573.1069319263672
 20
1033.184344995787
 30
0.0
 11
609.6342451553322
 21
1002.532934835937
 31
0.0
  0
LINE
  5
28C
330
1F
100
AcDbEntity
  8
D-2
  6
Continuous
 62
     3
370
     9
100
AcDbLine
 10
569.634230798129
 20
1020.716112318058
 30
0.0
 11
584.4933080914295
 21
1033.184344995787
 31
0.0
  0
LINE
  5
28D
330
1F
100
AcDbEntity
  8
D-2
  6
Continuous
 62
     3
370
     9
100
AcDbLine
 10
585.3271077364996
 20
1033.184344995787
 30
0.0
 11
609.6346032472097
 21
1012.787032710943
 31
0.0
  0
LINE
  5
28E
330
1F
100
AcDbEntity
  8
D-2
  6
Continuous
 62
     3
370
     9
100
AcDbLine
 10
569.6338727062515
 20
1010.462014443051
 30
0.0
 11
596.7133213092682
 21
1033.184344995787
 31
0.0
  0
LINE
  5
28F
330
1F
100
AcDbEntity
  8
D-2
  6
Continuous
 62
     3
370
     9
100
AcDbLine
 10
597.5472835466313
 20
1033.184344995787
 30
0.0
 11
609.6349613390878
 21
1023.04113058595
 31
0.0
  0
LINE
  5
290
330
1F
100
AcDbEntity
  8
D-2
  6
Continuous
 62
     3
370
     9
100
AcDbLine
 10
569.6335146143734
 20
1000.207916568045
 30
0.0
 11
608.933334527108
 21
1033.184344995787
 31
0.0
  0
LINE
  5
291
330
1F
100
AcDbEntity
  8
D-2
  6
Continuous
 62
     3
370
     9
100
AcDbLine
 10
569.6374536250322
 20
1025.841313307538
 30
0.0
 11
609.6342451553322
 21
992.2785364728834
 31
0.0
  0
LINE
  5
292
330
1F
100
AcDbEntity
  8
D-2
  6
Continuous
 62
     3
370
     9
100
AcDbLine
 10
569.6327984306173
 20
979.6997208180336
 30
0.0
 11
609.6342451553322
 21
1013.264883402818
 31
0.0
  0
LINE
  5
293
330
1F
100
AcDbEntity
  8
D-2
  6
Continuous
 62
     3
370
     9
100
AcDbLine
 10
569.6331565224954
 20
989.9538186930396
 30
0.0
 11
609.6342451553322
 21
1023.518680803389
 31
0.0
  0
LINE
  5
294
330
1F
100
AcDbEntity
  8
D-2
  6
Continuous
 62
     3
370
     9
100
AcDbLine
 10
569.6374536250322
 20
1015.586914944484
 30
0.0
 11
609.6342451553322
 21
982.02413810983
 31
0.0
  0
LINE
  5
295
330
1F
100
AcDbEntity
  8
D-2
  6
Continuous
 62
     3
370
     9
100
AcDbLine
 10
569.6374536250322
 20
1005.332516581431
 30
0.0
 11
609.6342451553322
 21
971.7697397467766
 31
0.0
  0
LINE
  5
296
330
1F
100
AcDbEntity
  8
D-2
  6
Continuous
 62
     3
370
     9
100
AcDbLine
 10
569.6295756037147
 20
887.4128399429788
 30
0.0
 11
609.6342451553322
 21
920.9807067976793
 31
0.0
  0
LINE
  5
297
330
1F
100
AcDbEntity
  8
D-2
  6
Continuous
 62
     3
370
     9
100
AcDbLine
 10
569.6264281691707
 20
923.3065815419753
 30
0.0
 11
609.6342451553322
 21
889.7345528423484
 31
0.0
  0
LINE
  5
298
330
1F
100
AcDbEntity
  8
D-2
  6
Continuous
 62
     3
370
     9
100
AcDbLine
 10
569.6299336955927
 20
897.6669378179851
 30
0.0
 11
609.6342451553322
 21
931.2345041982503
 31
0.0
  0
LINE
  5
299
330
1F
100
AcDbEntity
  8
D-2
  6
Continuous
 62
     3
370
     9
100
AcDbLine
 10
569.6267862610488
 20
933.5606794169815
 30
0.0
 11
609.6342451553322
 21
899.9889512054018
 31
0.0
  0
LINE
  5
29A
330
1F
100
AcDbEntity
  8
D-2
  6
Continuous
 62
     3
370
     9
100
AcDbLine
 10
569.6302917874708
 20
907.921035692991
 30
0.0
 11
609.6342451553322
 21
941.4883015988211
 31
0.0
  0
LINE
  5
29B
330
1F
100
AcDbEntity
  8
D-2
  6
Continuous
 62
     3
370
     9
100
AcDbLine
 10
569.6271443529268
 20
943.8147772919875
 30
0.0
 11
609.6342451553322
 21
910.2433495684555
 31
0.0
  0
LINE
  5
29C
330
1F
100
AcDbEntity
  8
D-2
  6
Continuous
 62
     3
370
     9
100
AcDbLine
 10
569.6306498793489
 20
918.1751335679969
 30
0.0
 11
609.6342451553322
 21
951.7420989993922
 31
0.0
  0
LINE
  5
29D
330
1F
100
AcDbEntity
  8
D-2
  6
Continuous
 62
     3
370
     9
100
AcDbLine
 10
569.6275024448049
 20
954.0688751669934
 30
0.0
 11
609.6342451553322
 21
920.4977479315091
 31
0.0
  0
LINE
  5
29E
330
1F
100
AcDbEntity
  8
D-2
  6
Continuous
 62
     3
370
     9
100
AcDbLine
 10
569.631007971227
 20
928.4292314430031
 30
0.0
 11
609.6342451553322
 21
961.9958963999632
 31
0.0
  0
LINE
  5
29F
330
1F
100
AcDbEntity
  8
D-2
  6
Continuous
 62
     3
370
     9
100
AcDbLine
 10
569.627860536683
 20
964.3229730419996
 30
0.0
 11
609.6342451553322
 21
930.7521462945625
 31
0.0
  0
LINE
  5
2A0
330
1F
100
AcDbEntity
  8
D-2
  6
Continuous
 62
     3
370
     9
100
AcDbLine
 10
569.631366063105
 20
938.6833293180093
 30
0.0
 11
609.6342451553322
 21
972.2496938005339
 31
0.0
  0
LINE
  5
2A1
330
1F
100
AcDbEntity
  8
D-2
  6
Continuous
 62
     3
370
     9
100
AcDbLine
 10
569.6282186285611
 20
974.5770709170058
 30
0.0
 11
609.6342451553322
 21
941.0065446576159
 31
0.0
  0
LINE
  5
2A2
330
1F
100
AcDbEntity
  8
D-2
  6
Continuous
 62
     3
370
     9
100
AcDbLine
 10
569.6317241549831
 20
948.9374271930153
 30
0.0
 11
609.6342451553322
 21
982.5034912011052
 31
0.0
  0
LINE
  5
2A3
330
1F
100
AcDbEntity
  8
D-2
  6
Continuous
 62
     3
370
     9
100
AcDbLine
 10
569.6285767204391
 20
984.8311687920118
 30
0.0
 11
609.6342451553322
 21
951.2609430206693
 31
0.0
  0
LINE
  5
2A4
330
1F
100
AcDbEntity
  8
D-2
  6
Continuous
 62
     3
370
     9
100
AcDbLine
 10
569.6320822468612
 20
959.1915250680212
 30
0.0
 11
609.6342451553322
 21
992.757288601676
 31
0.0
  0
LINE
  5
2A5
330
1F
100
AcDbEntity
  8
D-2
  6
Continuous
 62
     3
370
     9
100
AcDbLine
 10
569.6289348123172
 20
995.0852666670177
 30
0.0
 11
609.6342451553322
 21
961.515341383723
 31
0.0
  0
LINE
  5
2A6
330
1F
100
AcDbEntity
  8
D-2
  6
Continuous
 62
     3
370
     9
100
AcDbLine
 10
569.6324403387392
 20
969.4456229430274
 30
0.0
 11
609.6342451553322
 21
1003.011086002247
 31
0.0
  0
LINE
  5
2A7
330
1F
100
AcDbEntity
  8
D-2
  6
Continuous
 62
     3
370
     9
100
AcDbLine
 10
499.6375746638658
 20
1030.970210193064
 30
0.0
 11
502.2762806474502
 21
1033.184344995787
 31
0.0
  0
LINE
  5
2A8
330
1F
100
AcDbEntity
  8
D-2
  6
Continuous
 62
     3
370
     9
100
AcDbLine
 10
503.1099177002266
 20
1033.184344995787
 30
0.0
 11
539.6372309291916
 21
1002.532934835937
 31
0.0
  0
LINE
  5
2A9
330
1F
100
AcDbEntity
  8
D-2
  6
Continuous
 62
     3
370
     9
100
AcDbLine
 10
499.6372165719883
 20
1020.716112318058
 30
0.0
 11
514.4962938652889
 21
1033.184344995787
 31
0.0
  0
LINE
  5
2AA
330
1F
100
AcDbEntity
  8
D-2
  6
Continuous
 62
     3
370
     9
100
AcDbLine
 10
515.3300935103589
 20
1033.184344995787
 30
0.0
 11
539.6375890210691
 21
1012.787032710943
 31
0.0
  0
LINE
  5
2AB
330
1F
100
AcDbEntity
  8
D-2
  6
Continuous
 62
     3
370
     9
100
AcDbLine
 10
499.6368584801108
 20
1010.462014443051
 30
0.0
 11
526.7163070831275
 21
1033.184344995787
 31
0.0
  0
LINE
  5
2AC
330
1F
100
AcDbEntity
  8
D-2
  6
Continuous
 62
     3
370
     9
100
AcDbLine
 10
527.5502693204907
 20
1033.184344995787
 30
0.0
 11
539.6379471129471
 21
1023.04113058595
 31
0.0
  0
LINE
  5
2AD
330
1F
100
AcDbEntity
  8
D-2
  6
Continuous
 62
     3
370
     9
100
AcDbLine
 10
499.6365003882328
 20
1000.207916568045
 30
0.0
 11
538.9363203009673
 21
1033.184344995787
 31
0.0
  0
LINE
  5
2AE
330
1F
100
AcDbEntity
  8
D-2
  6
Continuous
 62
     3
370
     9
100
AcDbLine
 10
499.6404393988915
 20
1025.841313307538
 30
0.0
 11
539.6372309291916
 21
992.2785364728834
 31
0.0
  0
LINE
  5
2AF
330
1F
100
AcDbEntity
  8
D-2
  6
Continuous
 62
     3
370
     9
100
AcDbLine
 10
499.6357842044766
 20
979.6997208180336
 30
0.0
 11
539.6372309291916
 21
1013.264883402818
 31
0.0
  0
LINE
  5
2B0
330
1F
100
AcDbEntity
  8
D-2
  6
Continuous
 62
     3
370
     9
100
AcDbLine
 10
499.6361422963547
 20
989.9538186930396
 30
0.0
 11
539.6372309291916
 21
1023.518680803389
 31
0.0
  0
LINE
  5
2B1
330
1F
100
AcDbEntity
  8
D-2
  6
Continuous
 62
     3
370
     9
100
AcDbLine
 10
499.6404393988915
 20
1015.586914944484
 30
0.0
 11
539.6372309291916
 21
982.02413810983
 31
0.0
  0
LINE
  5
2B2
330
1F
100
AcDbEntity
  8
D-2
  6
Continuous
 62
     3
370
     9
100
AcDbLine
 10
499.6404393988915
 20
1005.332516581431
 30
0.0
 11
539.6372309291916
 21
971.7697397467766
 31
0.0
  0
LINE
  5
2B3
330
1F
100
AcDbEntity
  8
D-2
  6
Continuous
 62
     3
370
     9
100
AcDbLine
 10
499.632561377574
 20
887.4128399429788
 30
0.0
 11
539.6372309291916
 21
920.9807067976793
 31
0.0
  0
LINE
  5
2B4
330
1F
100
AcDbEntity
  8
D-2
  6
Continuous
 62
     3
370
     9
100
AcDbLine
 10
499.62941394303
 20
923.3065815419753
 30
0.0
 11
539.6372309291916
 21
889.7345528423484
 31
0.0
  0
LINE
  5
2B5
330
1F
100
AcDbEntity
  8
D-2
  6
Continuous
 62
     3
370
     9
100
AcDbLine
 10
499.6329194694521
 20
897.6669378179851
 30
0.0
 11
539.6372309291916
 21
931.2345041982503
 31
0.0
  0
LINE
  5
2B6
330
1F
100
AcDbEntity
  8
D-2
  6
Continuous
 62
     3
370
     9
100
AcDbLine
 10
499.6297720349081
 20
933.5606794169815
 30
0.0
 11
539.6372309291916
 21
899.9889512054018
 31
0.0
  0
LINE
  5
2B7
330
1F
100
AcDbEntity
  8
D-2
  6
Continuous
 62
     3
370
     9
100
AcDbLine
 10
499.6332775613301
 20
907.921035692991
 30
0.0
 11
539.6372309291916
 21
941.4883015988211
 31
0.0
  0
LINE
  5
2B8
330
1F
100
AcDbEntity
  8
D-2
  6
Continuous
 62
     3
370
     9
100
AcDbLine
 10
499.6301301267862
 20
943.8147772919875
 30
0.0
 11
539.6372309291916
 21
910.2433495684555
 31
0.0
  0
LINE
  5
2B9
330
1F
100
AcDbEntity
  8
D-2
  6
Continuous
 62
     3
370
     9
100
AcDbLine
 10
499.6336356532082
 20
918.1751335679969
 30
0.0
 11
539.6372309291916
 21
951.7420989993922
 31
0.0
  0
LINE
  5
2BA
330
1F
100
AcDbEntity
  8
D-2
  6
Continuous
 62
     3
370
     9
100
AcDbLine
 10
499.6304882186643
 20
954.0688751669934
 30
0.0
 11
539.6372309291916
 21
920.4977479315091
 31
0.0
  0
LINE
  5
2BB
330
1F
100
AcDbEntity
  8
D-2
  6
Continuous
 62
     3
370
     9
100
AcDbLine
 10
499.6339937450863
 20
928.4292314430031
 30
0.0
 11
539.6372309291916
 21
961.9958963999632
 31
0.0
  0
LINE
  5
2BC
330
1F
100
AcDbEntity
  8
D-2
  6
Continuous
 62
     3
370
     9
100
AcDbLine
 10
499.6308463105423
 20
964.3229730419996
 30
0.0
 11
539.6372309291916
 21
930.7521462945625
 31
0.0
  0
LINE
  5
2BD
330
1F
100
AcDbEntity
  8
D-2
  6
Continuous
 62
     3
370
     9
100
AcDbLine
 10
499.6343518369644
 20
938.6833293180093
 30
0.0
 11
539.6372309291916
 21
972.2496938005339
 31
0.0
  0
LINE
  5
2BE
330
1F
100
AcDbEntity
  8
D-2
  6
Continuous
 62
     3
370
     9
100
AcDbLine
 10
499.6312044024204
 20
974.5770709170058
 30
0.0
 11
539.6372309291916
 21
941.0065446576159
 31
0.0
  0
LINE
  5
2BF
330
1F
100
AcDbEntity
  8
D-2
  6
Continuous
 62
     3
370
     9
100
AcDbLine
 10
499.6347099288424
 20
948.9374271930153
 30
0.0
 11
539.6372309291916
 21
982.5034912011052
 31
0.0
  0
LINE
  5
2C0
330
1F
100
AcDbEntity
  8
D-2
  6
Continuous
 62
     3
370
     9
100
AcDbLine
 10
499.6315624942985
 20
984.8311687920118
 30
0.0
 11
539.6372309291916
 21
951.2609430206693
 31
0.0
  0
LINE
  5
2C1
330
1F
100
AcDbEntity
  8
D-2
  6
Continuous
 62
     3
370
     9
100
AcDbLine
 10
499.6350680207205
 20
959.1915250680212
 30
0.0
 11
539.6372309291916
 21
992.757288601676
 31
0.0
  0
LINE
  5
2C2
330
1F
100
AcDbEntity
  8
D-2
  6
Continuous
 62
     3
370
     9
100
AcDbLine
 10
499.6319205861765
 20
995.0852666670177
 30
0.0
 11
539.6372309291916
 21
961.515341383723
 31
0.0
  0
LINE
  5
2C3
330
1F
100
AcDbEntity
  8
D-2
  6
Continuous
 62
     3
370
     9
100
AcDbLine
 10
499.6354261125986
 20
969.4456229430274
 30
0.0
 11
539.6372309291916
 21
1003.011086002247
 31
0.0
  0
LINE
  5
2C4
330
1F
100
AcDbEntity
  8
D-2
  6
Continuous
 62
     3
370
     9
100
AcDbLine
 10
429.6448906346221
 20
1030.970210193064
 30
0.0
 11
432.2835966182065
 21
1033.184344995787
 31
0.0
  0
LINE
  5
2C5
330
1F
100
AcDbEntity
  8
D-2
  6
Continuous
 62
     3
370
     9
100
AcDbLine
 10
433.1172336709828
 20
1033.184344995787
 30
0.0
 11
469.6445468999478
 21
1002.532934835937
 31
0.0
  0
LINE
  5
2C6
330
1F
100
AcDbEntity
  8
D-2
  6
Continuous
 62
     3
370
     9
100
AcDbLine
 10
429.6445325427446
 20
1020.716112318058
 30
0.0
 11
444.5036098360451
 21
1033.184344995787
 31
0.0
  0
LINE
  5
2C7
330
1F
100
AcDbEntity
  8
D-2
  6
Continuous
 62
     3
370
     9
100
AcDbLine
 10
445.3374094811152
 20
1033.184344995787
 30
0.0
 11
469.6449049918253
 21
1012.787032710943
 31
0.0
  0
LINE
  5
2C8
330
1F
100
AcDbEntity
  8
D-2
  6
Continuous
 62
     3
370
     9
100
AcDbLine
 10
429.6441744508671
 20
1010.462014443051
 30
0.0
 11
456.7236230538838
 21
1033.184344995787
 31
0.0
  0
LINE
  5
2C9
330
1F
100
AcDbEntity
  8
D-2
  6
Continuous
 62
     3
370
     9
100
AcDbLine
 10
457.5575852912469
 20
1033.184344995787
 30
0.0
 11
469.6452630837034
 21
1023.04113058595
 31
0.0
  0
LINE
  5
2CA
330
1F
100
AcDbEntity
  8
D-2
  6
Continuous
 62
     3
370
     9
100
AcDbLine
 10
429.6438163589891
 20
1000.207916568045
 30
0.0
 11
468.9436362717236
 21
1033.184344995787
 31
0.0
  0
LINE
  5
2CB
330
1F
100
AcDbEntity
  8
D-2
  6
Continuous
 62
     3
370
     9
100
AcDbLine
 10
429.6477553696478
 20
1025.841313307538
 30
0.0
 11
469.6445468999478
 21
992.2785364728834
 31
0.0
  0
LINE
  5
2CC
330
1F
100
AcDbEntity
  8
D-2
  6
Continuous
 62
     3
370
     9
100
AcDbLine
 10
429.6431001752329
 20
979.6997208180336
 30
0.0
 11
469.6445468999478
 21
1013.264883402818
 31
0.0
  0
LINE
  5
2CD
330
1F
100
AcDbEntity
  8
D-2
  6
Continuous
 62
     3
370
     9
100
AcDbLine
 10
429.643458267111
 20
989.9538186930396
 30
0.0
 11
469.6445468999478
 21
1023.518680803389
 31
0.0
  0
LINE
  5
2CE
330
1F
100
AcDbEntity
  8
D-2
  6
Continuous
 62
     3
370
     9
100
AcDbLine
 10
429.6477553696478
 20
1015.586914944484
 30
0.0
 11
469.6445468999478
 21
982.02413810983
 31
0.0
  0
LINE
  5
2CF
330
1F
100
AcDbEntity
  8
D-2
  6
Continuous
 62
     3
370
     9
100
AcDbLine
 10
429.6477553696478
 20
1005.332516581431
 30
0.0
 11
469.6445468999478
 21
971.7697397467766
 31
0.0
  0
LINE
  5
2D0
330
1F
100
AcDbEntity
  8
D-2
  6
Continuous
 62
     3
370
     9
100
AcDbLine
 10
429.6398773483303
 20
887.4128399429788
 30
0.0
 11
469.6445468999478
 21
920.9807067976793
 31
0.0
  0
LINE
  5
2D1
330
1F
100
AcDbEntity
  8
D-2
  6
Continuous
 62
     3
370
     9
100
AcDbLine
 10
429.6367299137863
 20
923.3065815419753
 30
0.0
 11
469.6445468999478
 21
889.7345528423484
 31
0.0
  0
LINE
  5
2D2
330
1F
100
AcDbEntity
  8
D-2
  6
Continuous
 62
     3
370
     9
100
AcDbLine
 10
429.6402354402084
 20
897.6669378179851
 30
0.0
 11
469.6445468999478
 21
931.2345041982503
 31
0.0
  0
LINE
  5
2D3
330
1F
100
AcDbEntity
  8
D-2
  6
Continuous
 62
     3
370
     9
100
AcDbLine
 10
429.6370880056644
 20
933.5606794169815
 30
0.0
 11
469.6445468999478
 21
899.9889512054018
 31
0.0
  0
LINE
  5
2D4
330
1F
100
AcDbEntity
  8
D-2
  6
Continuous
 62
     3
370
     9
100
AcDbLine
 10
429.6405935320864
 20
907.921035692991
 30
0.0
 11
469.6445468999478
 21
941.4883015988211
 31
0.0
  0
LINE
  5
2D5
330
1F
100
AcDbEntity
  8
D-2
  6
Continuous
 62
     3
370
     9
100
AcDbLine
 10
429.6374460975425
 20
943.8147772919875
 30
0.0
 11
469.6445468999478
 21
910.2433495684555
 31
0.0
  0
LINE
  5
2D6
330
1F
100
AcDbEntity
  8
D-2
  6
Continuous
 62
     3
370
     9
100
AcDbLine
 10
429.6409516239645
 20
918.1751335679969
 30
0.0
 11
469.6445468999478
 21
951.7420989993922
 31
0.0
  0
LINE
  5
2D7
330
1F
100
AcDbEntity
  8
D-2
  6
Continuous
 62
     3
370
     9
100
AcDbLine
 10
429.6378041894205
 20
954.0688751669934
 30
0.0
 11
469.6445468999478
 21
920.4977479315091
 31
0.0
  0
LINE
  5
2D8
330
1F
100
AcDbEntity
  8
D-2
  6
Continuous
 62
     3
370
     9
100
AcDbLine
 10
429.6413097158426
 20
928.4292314430031
 30
0.0
 11
469.6445468999478
 21
961.9958963999632
 31
0.0
  0
LINE
  5
2D9
330
1F
100
AcDbEntity
  8
D-2
  6
Continuous
 62
     3
370
     9
100
AcDbLine
 10
429.6381622812986
 20
964.3229730419996
 30
0.0
 11
469.6445468999478
 21
930.7521462945625
 31
0.0
  0
LINE
  5
2DA
330
1F
100
AcDbEntity
  8
D-2
  6
Continuous
 62
     3
370
     9
100
AcDbLine
 10
429.6416678077206
 20
938.6833293180093
 30
0.0
 11
469.6445468999478
 21
972.2496938005339
 31
0.0
  0
LINE
  5
2DB
330
1F
100
AcDbEntity
  8
D-2
  6
Continuous
 62
     3
370
     9
100
AcDbLine
 10
429.6385203731767
 20
974.5770709170058
 30
0.0
 11
469.6445468999478
 21
941.0065446576159
 31
0.0
  0
LINE
  5
2DC
330
1F
100
AcDbEntity
  8
D-2
  6
Continuous
 62
     3
370
     9
100
AcDbLine
 10
429.6420258995987
 20
948.9374271930153
 30
0.0
 11
469.6445468999478
 21
982.5034912011052
 31
0.0
  0
LINE
  5
2DD
330
1F
100
AcDbEntity
  8
D-2
  6
Continuous
 62
     3
370
     9
100
AcDbLine
 10
429.6388784650547
 20
984.8311687920118
 30
0.0
 11
469.6445468999478
 21
951.2609430206693
 31
0.0
  0
LINE
  5
2DE
330
1F
100
AcDbEntity
  8
D-2
  6
Continuous
 62
     3
370
     9
100
AcDbLine
 10
429.6423839914768
 20
959.1915250680212
 30
0.0
 11
469.6445468999478
 21
992.757288601676
 31
0.0
  0
LINE
  5
2DF
330
1F
100
AcDbEntity
  8
D-2
  6
Continuous
 62
     3
370
     9
100
AcDbLine
 10
429.6392365569328
 20
995.0852666670177
 30
0.0
 11
469.6445468999478
 21
961.515341383723
 31
0.0
  0
LINE
  5
2E0
330
1F
100
AcDbEntity
  8
D-2
  6
Continuous
 62
     3
370
     9
100
AcDbLine
 10
429.6427420833548
 20
969.4456229430274
 30
0.0
 11
469.6445468999478
 21
1003.011086002247
 31
0.0
  0
LINE
  5
2E1
330
1F
100
AcDbEntity
  8
D-4
  6
Continuous
 62
     7
370
     9
100
AcDbLine
 10
589.6358493901822
 20
1131.620027211922
 30
0.0
 11
589.6358493901822
 21
1068.184147043929
 31
0.0
  0
LINE
  5
2E2
330
1F
100
AcDbEntity
  8
D-4
  6
Continuous
 62
     7
370
     9
100
AcDbLine
 10
519.6388351640416
 20
1131.620027211922
 30
0.0
 11
519.6388351640416
 21
1068.184147043929
 31
0.0
  0
LINE
  5
2E3
330
1F
100
AcDbEntity
  8
D-4
  6
Continuous
 62
     7
370
     9
100
AcDbLine
 10
449.6461511347978
 20
1131.620027211922
 30
0.0
 11
449.6461511347978
 21
1068.184147043929
 31
0.0
  0
TEXT
  5
2E4
330
1F
100
AcDbEntity
  8
D-5
  6
Continuous
 62
     2
370
     9
100
AcDbText
 10
551.1667293046706
 20
1245.557555074196
 30
0.0
 40
30.48
  1
C
 41
0.9999999999999998
  7
ＭＳ ゴシック
100
AcDbText
  0
LINE
  5
2E5
330
1F
100
AcDbEntity
  8
D-5
  6
JWW_CENTER1
 62
     4
370
     9
100
AcDbLine
 10
484.5404756900665
 20
1236.781740220926
 30
0.0
 11
484.5404756900665
 21
1199.478415399442
 31
0.0
  0
LINE
  5
2E6
330
1F
100
AcDbEntity
  8
D-5
  6
Continuous
 62
     4
370
     9
100
AcDbLine
 10
494.2065654877784
 20
1257.762737094399
 30
0.0
 11
518.9926870221244
 21
1261.025891899901
 31
0.0
  0
LINE
  5
2E7
330
1F
100
AcDbEntity
  8
D-5
  6
Continuous
 62
     4
370
     9
100
AcDbLine
 10
494.2065654877784
 20
1257.762737094399
 30
0.0
 11
518.9926870221244
 21
1254.499582288898
 31
0.0
  0
LINE
  5
2E8
330
1F
100
AcDbEntity
  8
D-5
  6
Continuous
 62
     4
370
     9
100
AcDbLine
 10
494.2065654877784
 20
1257.762737094399
 30
0.0
 11
543.4559581707207
 21
1257.762737094399
 31
0.0
  0
SOLID
  5
2E9
330
1F
100
AcDbEntity
  8
D-5
  6
Continuous
 62
     4
370
     9
100
AcDbTrace
 10
486.540475690067
 20
1236.781740220926
 30
0.0
 11
486.540475690067
 21
1276.781740220926
 31
0.0
 12
482.5404756900672
 22
1236.781740220926
 32
0.0
 13
482.5404756900672
 23
1276.781740220926
 33
0.0
  0
TEXT
  5
2EA
330
1F
100
AcDbEntity
  8
D-4
  6
Continuous
 62
     2
370
   211
100
AcDbText
 10
533.3873422771119
 20
1140.260027211923
 30
0.0
 40
30.48
  1
14
 41
1.0625
  7
ＭＳ ゴシック
100
AcDbText
  0
LWPOLYLINE
  5
2EB
330
1F
100
AcDbEntity
  8
D-4
  6
Continuous
 62
     7
370
     9
100
AcDbPolyline
 90
        4
 70
     1
 43
1.0
 10
590.1358493901821
 20
1128.620027211922
 42
0.4142135623731
 10
589.6358493901822
 20
1129.120027211922
 42
0.4142135623731
 10
589.1358493901822
 20
1128.620027211922
 42
0.4142135623731
 10
589.6358493901822
 20
1128.120027211922
 42
0.4142135623731
  0
LINE
  5
2EC
330
1F
100
AcDbEntity
  8
D-4
  6
Continuous
 62
     7
370
     9
100
AcDbLine
 10
519.6388351640416
 20
1128.620027211922
 30
0.0
 11
589.6358493901822
 21
1128.620027211922
 31
0.0
  0
TEXT
  5
2ED
330
1F
100
AcDbEntity
  8
D-4
  6
Continuous
 62
     2
370
   211
100
AcDbText
 10
463.3924931494197
 20
1140.260027211923
 30
0.0
 40
30.48
  1
14
 41
1.0625
  7
ＭＳ ゴシック
100
AcDbText
  0
LWPOLYLINE
  5
2EE
330
1F
100
AcDbEntity
  8
D-4
  6
Continuous
 62
     7
370
     9
100
AcDbPolyline
 90
        4
 70
     1
 43
1.0
 10
520.1388351640414
 20
1128.620027211922
 42
0.4142135623731
 10
519.6388351640416
 20
1129.120027211922
 42
0.4142135623731
 10
519.1388351640416
 20
1128.620027211922
 42
0.4142135623731
 10
519.6388351640416
 20
1128.120027211922
 42
0.4142135623731
  0
LWPOLYLINE
  5
2EF
330
1F
100
AcDbEntity
  8
D-4
  6
Continuous
 62
     7
370
     9
100
AcDbPolyline
 90
        4
 70
     1
 43
1.0
 10
450.1461511347978
 20
1128.620027211922
 42
0.4142135623731
 10
449.6461511347978
 20
1129.120027211922
 42
0.4142135623731
 10
449.1461511347978
 20
1128.620027211922
 42
0.4142135623731
 10
449.6461511347978
 20
1128.120027211922
 42
0.4142135623731
  0
LINE
  5
2F0
330
1F
100
AcDbEntity
  8
D-4
  6
Continuous
 62
     7
370
     9
100
AcDbLine
 10
449.6461511347978
 20
1128.620027211922
 30
0.0
 11
519.6388351640416
 21
1128.620027211922
 31
0.0
  0
LINE
  5
2F1
330
1F
100
AcDbEntity
  8
D-A
  6
Continuous
 62
     3
370
     9
100
AcDbLine
 10
639.6375608489551
 20
1033.184344995787
 30
0.0
 11
399.6831310162917
 21
1033.184344995787
 31
0.0
  0
LINE
  5
2F2
330
1F
100
AcDbEntity
  8
D-2
  6
Continuous
 62
     3
370
     9
100
AcDbLine
 10
639.6375608489551
 20
1048.184147043929
 30
0.0
 11
399.6831310162917
 21
1048.184147043929
 31
0.0
  0
TEXT
  5
2F3
330
1F
100
AcDbEntity
  8
D-5
  6
Continuous
 62
     7
370
     9
100
AcDbText
 10
664.8064676480702
 20
995.6105829406861
 30
0.0
 40
22.86
  1
ローレット模様
 41
1.142857142857143
  7
ＭＳ ゴシック
100
AcDbText
  0
LINE
  5
2F4
330
1F
100
AcDbEntity
  8
D-5
  6
Continuous
 62
     7
370
     9
100
AcDbLine
 10
664.8064676480702
 20
986.380582940686
 30
0.0
 11
903.723695964445
 21
986.380582940686
 31
0.0
  0
LINE
  5
2F5
330
1F
100
AcDbEntity
  8
D-5
  6
Continuous
 62
     7
370
     9
100
AcDbLine
 10
609.6342451553322
 20
931.2083604479483
 30
0.0
 11
664.8064676480702
 21
986.380582940686
 31
0.0
  0
LINE
  5
2F6
330
1F
100
AcDbEntity
  8
D-5
  6
Continuous
 62
     7
370
     9
100
AcDbLine
 10
609.6342451553322
 20
931.2083604479483
 30
0.0
 11
629.4680786626133
 21
946.4273961731664
 31
0.0
  0
LINE
  5
2F7
330
1F
100
AcDbEntity
  8
D-5
  6
Continuous
 62
     7
370
     9
100
AcDbLine
 10
609.6342451553322
 20
931.2083604479483
 30
0.0
 11
624.8532808805503
 21
951.0421939552288
 31
0.0
  0
LINE
  5
2F8
330
1F
100
AcDbEntity
  8
D-2
  6
Continuous
 62
     3
370
     9
100
AcDbLine
 10
499.6318451938179
 20
866.9046441929664
 30
0.0
 11
539.6372309291916
 21
900.4731119965375
 31
0.0
  0
LINE
  5
2F9
330
1F
100
AcDbEntity
  8
D-2
  6
Continuous
 62
     3
370
     9
100
AcDbLine
 10
429.6391611645741
 20
866.9046441929664
 30
0.0
 11
469.6445468999478
 21
900.4731119965375
 31
0.0
  0
LINE
  5
2FA
330
1F
100
AcDbEntity
  8
D-2
  6
Continuous
 62
     3
370
     9
100
AcDbLine
 10
569.6288594199585
 20
866.9046441929664
 30
0.0
 11
609.6342451553322
 21
900.4731119965375
 31
0.0
  0
LINE
  5
2FB
330
1F
100
AcDbEntity
  8
D-2
  6
Continuous
 62
     3
370
     9
100
AcDbLine
 10
569.6257119854146
 20
902.7983857919633
 30
0.0
 11
609.6342451553322
 21
869.2257561162417
 31
0.0
  0
LINE
  5
2FC
330
1F
100
AcDbEntity
  8
D-2
  6
Continuous
 62
     3
370
     9
100
AcDbLine
 10
569.6292175118366
 20
877.1587420679726
 30
0.0
 11
609.6342451553322
 21
910.7269093971082
 31
0.0
  0
LINE
  5
2FD
330
1F
100
AcDbEntity
  8
D-2
  6
Continuous
 62
     3
370
     9
100
AcDbLine
 10
569.6260700772926
 20
913.0524836669691
 30
0.0
 11
609.6342451553322
 21
879.480154479295
 31
0.0
  0
LINE
  5
2FE
330
1F
100
AcDbEntity
  8
D-2
  6
Continuous
 62
     3
370
     9
100
AcDbLine
 10
499.6286977592739
 20
902.7983857919633
 30
0.0
 11
539.6372309291916
 21
869.2257561162417
 31
0.0
  0
LINE
  5
2FF
330
1F
100
AcDbEntity
  8
D-2
  6
Continuous
 62
     3
370
     9
100
AcDbLine
 10
499.6322032856959
 20
877.1587420679726
 30
0.0
 11
539.6372309291916
 21
910.7269093971082
 31
0.0
  0
LINE
  5
300
330
1F
100
AcDbEntity
  8
D-2
  6
Continuous
 62
     3
370
     9
100
AcDbLine
 10
499.629055851152
 20
913.0524836669691
 30
0.0
 11
539.6372309291916
 21
879.480154479295
 31
0.0
  0
LINE
  5
301
330
1F
100
AcDbEntity
  8
D-2
  6
Continuous
 62
     3
370
     9
100
AcDbLine
 10
429.6360137300302
 20
902.7983857919633
 30
0.0
 11
469.6445468999478
 21
869.2257561162417
 31
0.0
  0
LINE
  5
302
330
1F
100
AcDbEntity
  8
D-2
  6
Continuous
 62
     3
370
     9
100
AcDbLine
 10
429.6395192564522
 20
877.1587420679726
 30
0.0
 11
469.6445468999478
 21
910.7269093971082
 31
0.0
  0
LINE
  5
303
330
1F
100
AcDbEntity
  8
D-2
  6
Continuous
 62
     3
370
     9
100
AcDbLine
 10
429.6363718219083
 20
913.0524836669691
 30
0.0
 11
469.6445468999478
 21
879.480154479295
 31
0.0
  0
LINE
  5
304
330
1F
100
AcDbEntity
  8
D-2
  6
Continuous
 62
     3
370
     9
100
AcDbLine
 10
499.6269072998836
 20
851.527896416933
 30
0.0
 11
539.6372309291916
 21
817.9537643009742
 31
0.0
  0
LINE
  5
305
330
1F
100
AcDbEntity
  8
D-2
  6
Continuous
 62
     3
370
     9
100
AcDbLine
 10
499.6272653917616
 20
861.7819942919386
 30
0.0
 11
539.6372309291916
 21
828.2081626640276
 31
0.0
  0
LINE
  5
306
330
1F
100
AcDbEntity
  8
D-2
  6
Continuous
 62
     3
370
     9
100
AcDbLine
 10
499.6311290100617
 20
846.3964484429546
 30
0.0
 11
539.6372309291916
 21
879.9655171953954
 31
0.0
  0
LINE
  5
307
330
1F
100
AcDbEntity
  8
D-2
  6
Continuous
 62
     3
370
     9
100
AcDbLine
 10
499.6314871019398
 20
856.6505463179608
 30
0.0
 11
539.6372309291916
 21
890.2193145959661
 31
0.0
  0
LINE
  5
308
330
1F
100
AcDbEntity
  8
D-2
  6
Continuous
 62
     3
370
     9
100
AcDbLine
 10
429.6373707051838
 20
815.6341548179365
 30
0.0
 11
469.6445468999478
 21
849.2041249936825
 31
0.0
  0
LINE
  5
309
330
1F
100
AcDbEntity
  8
D-2
  6
Continuous
 62
     3
370
     9
100
AcDbLine
 10
429.6342232706398
 20
851.527896416933
 30
0.0
 11
469.6445468999478
 21
817.9537643009742
 31
0.0
  0
LINE
  5
30A
330
1F
100
AcDbEntity
  8
D-2
  6
Continuous
 62
     3
370
     9
100
AcDbLine
 10
429.6377287970619
 20
825.8882526929422
 30
0.0
 11
469.6445468999478
 21
859.4579223942533
 31
0.0
  0
LINE
  5
30B
330
1F
100
AcDbEntity
  8
D-2
  6
Continuous
 62
     3
370
     9
100
AcDbLine
 10
429.6345813625179
 20
861.7819942919386
 30
0.0
 11
469.6445468999478
 21
828.2081626640276
 31
0.0
  0
LINE
  5
30C
330
1F
100
AcDbEntity
  8
D-2
  6
Continuous
 62
     3
370
     9
100
AcDbLine
 10
429.6380868889399
 20
836.1423505679484
 30
0.0
 11
469.6445468999478
 21
869.711719794824
 31
0.0
  0
LINE
  5
30D
330
1F
100
AcDbEntity
  8
D-2
  6
Continuous
 62
     3
370
     9
100
AcDbLine
 10
429.634939454396
 20
872.0360921669449
 30
0.0
 11
469.6445468999478
 21
838.4625610270809
 31
0.0
  0
LINE
  5
30E
330
1F
100
AcDbEntity
  8
D-2
  6
Continuous
 62
     3
370
     9
100
AcDbLine
 10
429.638444980818
 20
846.3964484429546
 30
0.0
 11
469.6445468999478
 21
879.9655171953954
 31
0.0
  0
LINE
  5
30F
330
1F
100
AcDbEntity
  8
D-2
  6
Continuous
 62
     3
370
     9
100
AcDbLine
 10
429.635297546274
 20
882.2901900419511
 30
0.0
 11
469.6445468999478
 21
848.7169593901343
 31
0.0
  0
LINE
  5
310
330
1F
100
AcDbEntity
  8
D-2
  6
Continuous
 62
     3
370
     9
100
AcDbLine
 10
429.6388030726961
 20
856.6505463179608
 30
0.0
 11
469.6445468999478
 21
890.2193145959661
 31
0.0
  0
LINE
  5
311
330
1F
100
AcDbEntity
  8
D-2
  6
Continuous
 62
     3
370
     9
100
AcDbLine
 10
429.6356556381521
 20
892.5442879169573
 30
0.0
 11
469.6445468999478
 21
858.9713577531883
 31
0.0
  0
LINE
  5
312
330
1F
100
AcDbEntity
  8
D-2
  6
Continuous
 62
     3
370
     9
100
AcDbLine
 10
569.6232053422681
 20
831.0197006669206
 30
0.0
 11
609.6342451553322
 21
797.4449675748668
 31
0.0
  0
LINE
  5
313
330
1F
100
AcDbEntity
  8
D-2
  6
Continuous
 62
     3
370
     9
100
AcDbLine
 10
569.62284725039
 20
820.7656027919144
 30
0.0
 11
609.6342451553322
 21
787.1905692118135
 31
0.0
  0
LINE
  5
314
330
1F
100
AcDbEntity
  8
D-2
  6
Continuous
 62
     3
370
     9
100
AcDbLine
 10
569.6224891585119
 20
810.5115049169087
 30
0.0
 11
609.6342451553322
 21
776.9361708487601
 31
0.0
  0
LINE
  5
315
330
1F
100
AcDbEntity
  8
D-2
  6
Continuous
 62
     3
370
     9
100
AcDbLine
 10
569.6256365930559
 20
774.6177633179122
 30
0.0
 11
609.6342451553322
 21
808.1889353913983
 31
0.0
  0
LINE
  5
316
330
1F
100
AcDbEntity
  8
D-2
  6
Continuous
 62
     3
370
     9
100
AcDbLine
 10
569.625994684934
 20
784.8718611929179
 30
0.0
 11
609.6342451553322
 21
818.4427327919697
 31
0.0
  0
LINE
  5
317
330
1F
100
AcDbEntity
  8
D-2
  6
Continuous
 62
     3
370
     9
100
AcDbLine
 10
569.626352776812
 20
795.1259590679241
 30
0.0
 11
609.6342451553322
 21
828.6965301925404
 31
0.0
  0
LINE
  5
318
330
1F
100
AcDbEntity
  8
D-2
  6
Continuous
 62
     3
370
     9
100
AcDbLine
 10
569.6267108686901
 20
805.3800569429303
 30
0.0
 11
609.6342451553322
 21
838.9503275931112
 31
0.0
  0
LINE
  5
319
330
1F
100
AcDbEntity
  8
D-2
  6
Continuous
 62
     3
370
     9
100
AcDbLine
 10
569.6235634341461
 20
841.2737985419268
 30
0.0
 11
609.6342451553322
 21
807.6993659379208
 31
0.0
  0
LINE
  5
31A
330
1F
100
AcDbEntity
  8
D-2
  6
Continuous
 62
     3
370
     9
100
AcDbLine
 10
569.6270689605682
 20
815.6341548179365
 30
0.0
 11
609.6342451553322
 21
849.2041249936825
 31
0.0
  0
LINE
  5
31B
330
1F
100
AcDbEntity
  8
D-2
  6
Continuous
 62
     3
370
     9
100
AcDbLine
 10
569.6239215260242
 20
851.527896416933
 30
0.0
 11
609.6342451553322
 21
817.9537643009742
 31
0.0
  0
LINE
  5
31C
330
1F
100
AcDbEntity
  8
D-2
  6
Continuous
 62
     3
370
     9
100
AcDbLine
 10
569.6274270524463
 20
825.8882526929422
 30
0.0
 11
609.6342451553322
 21
859.4579223942533
 31
0.0
  0
LINE
  5
31D
330
1F
100
AcDbEntity
  8
D-2
  6
Continuous
 62
     3
370
     9
100
AcDbLine
 10
569.6242796179023
 20
861.7819942919386
 30
0.0
 11
609.6342451553322
 21
828.2081626640276
 31
0.0
  0
LINE
  5
31E
330
1F
100
AcDbEntity
  8
D-2
  6
Continuous
 62
     3
370
     9
100
AcDbLine
 10
569.6277851443243
 20
836.1423505679484
 30
0.0
 11
609.6342451553322
 21
869.711719794824
 31
0.0
  0
LINE
  5
31F
330
1F
100
AcDbEntity
  8
D-2
  6
Continuous
 62
     3
370
     9
100
AcDbLine
 10
569.6246377097804
 20
872.0360921669449
 30
0.0
 11
609.6342451553322
 21
838.4625610270809
 31
0.0
  0
LINE
  5
320
330
1F
100
AcDbEntity
  8
D-2
  6
Continuous
 62
     3
370
     9
100
AcDbLine
 10
569.6281432362024
 20
846.3964484429546
 30
0.0
 11
609.6342451553322
 21
879.9655171953954
 31
0.0
  0
LINE
  5
321
330
1F
100
AcDbEntity
  8
D-2
  6
Continuous
 62
     3
370
     9
100
AcDbLine
 10
569.6249958016584
 20
882.2901900419511
 30
0.0
 11
609.6342451553322
 21
848.7169593901343
 31
0.0
  0
LINE
  5
322
330
1F
100
AcDbEntity
  8
D-2
  6
Continuous
 62
     3
370
     9
100
AcDbLine
 10
569.6285013280805
 20
856.6505463179608
 30
0.0
 11
609.6342451553322
 21
890.2193145959661
 31
0.0
  0
LINE
  5
323
330
1F
100
AcDbEntity
  8
D-2
  6
Continuous
 62
     3
370
     9
100
AcDbLine
 10
569.6253538935365
 20
892.5442879169573
 30
0.0
 11
609.6342451553322
 21
858.9713577531883
 31
0.0
  0
LINE
  5
324
330
1F
100
AcDbEntity
  8
D-2
  6
Continuous
 62
     3
370
     9
100
AcDbLine
 10
499.6261911161274
 20
831.0197006669206
 30
0.0
 11
539.6372309291916
 21
797.4449675748668
 31
0.0
  0
LINE
  5
325
330
1F
100
AcDbEntity
  8
D-2
  6
Continuous
 62
     3
370
     9
100
AcDbLine
 10
499.6258330242493
 20
820.7656027919144
 30
0.0
 11
539.6372309291916
 21
787.1905692118135
 31
0.0
  0
LINE
  5
326
330
1F
100
AcDbEntity
  8
D-2
  6
Continuous
 62
     3
370
     9
100
AcDbLine
 10
499.6254749323713
 20
810.5115049169087
 30
0.0
 11
539.6372309291916
 21
776.9361708487601
 31
0.0
  0
LINE
  5
327
330
1F
100
AcDbEntity
  8
D-2
  6
Continuous
 62
     3
370
     9
100
AcDbLine
 10
499.6286223669152
 20
774.6177633179122
 30
0.0
 11
539.6372309291916
 21
808.1889353913983
 31
0.0
  0
LINE
  5
328
330
1F
100
AcDbEntity
  8
D-2
  6
Continuous
 62
     3
370
     9
100
AcDbLine
 10
499.6289804587933
 20
784.8718611929179
 30
0.0
 11
539.6372309291916
 21
818.4427327919697
 31
0.0
  0
LINE
  5
329
330
1F
100
AcDbEntity
  8
D-2
  6
Continuous
 62
     3
370
     9
100
AcDbLine
 10
499.6293385506714
 20
795.1259590679241
 30
0.0
 11
539.6372309291916
 21
828.6965301925404
 31
0.0
  0
LINE
  5
32A
330
1F
100
AcDbEntity
  8
D-2
  6
Continuous
 62
     3
370
     9
100
AcDbLine
 10
499.6296966425494
 20
805.3800569429303
 30
0.0
 11
539.6372309291916
 21
838.9503275931112
 31
0.0
  0
LINE
  5
32B
330
1F
100
AcDbEntity
  8
D-2
  6
Continuous
 62
     3
370
     9
100
AcDbLine
 10
499.6265492080055
 20
841.2737985419268
 30
0.0
 11
539.6372309291916
 21
807.6993659379208
 31
0.0
  0
LINE
  5
32C
330
1F
100
AcDbEntity
  8
D-2
  6
Continuous
 62
     3
370
     9
100
AcDbLine
 10
499.6300547344275
 20
815.6341548179365
 30
0.0
 11
539.6372309291916
 21
849.2041249936825
 31
0.0
  0
LINE
  5
32D
330
1F
100
AcDbEntity
  8
D-2
  6
Continuous
 62
     3
370
     9
100
AcDbLine
 10
499.6304128263056
 20
825.8882526929422
 30
0.0
 11
539.6372309291916
 21
859.4579223942533
 31
0.0
  0
LINE
  5
32E
330
1F
100
AcDbEntity
  8
D-2
  6
Continuous
 62
     3
370
     9
100
AcDbLine
 10
499.6307709181837
 20
836.1423505679484
 30
0.0
 11
539.6372309291916
 21
869.711719794824
 31
0.0
  0
LINE
  5
32F
330
1F
100
AcDbEntity
  8
D-2
  6
Continuous
 62
     3
370
     9
100
AcDbLine
 10
499.6276234836397
 20
872.0360921669449
 30
0.0
 11
539.6372309291916
 21
838.4625610270809
 31
0.0
  0
LINE
  5
330
330
1F
100
AcDbEntity
  8
D-2
  6
Continuous
 62
     3
370
     9
100
AcDbLine
 10
499.6279815755178
 20
882.2901900419511
 30
0.0
 11
539.6372309291916
 21
848.7169593901343
 31
0.0
  0
LINE
  5
331
330
1F
100
AcDbEntity
  8
D-2
  6
Continuous
 62
     3
370
     9
100
AcDbLine
 10
499.6283396673958
 20
892.5442879169573
 30
0.0
 11
539.6372309291916
 21
858.9713577531883
 31
0.0
  0
LINE
  5
332
330
1F
100
AcDbEntity
  8
D-2
  6
Continuous
 62
     3
370
     9
100
AcDbLine
 10
429.6335070868837
 20
831.0197006669206
 30
0.0
 11
469.6445468999478
 21
797.4449675748668
 31
0.0
  0
LINE
  5
333
330
1F
100
AcDbEntity
  8
D-2
  6
Continuous
 62
     3
370
     9
100
AcDbLine
 10
429.6331489950056
 20
820.7656027919144
 30
0.0
 11
469.6445468999478
 21
787.1905692118135
 31
0.0
  0
LINE
  5
334
330
1F
100
AcDbEntity
  8
D-2
  6
Continuous
 62
     3
370
     9
100
AcDbLine
 10
429.6362964295496
 20
784.8718611929179
 30
0.0
 11
469.6445468999478
 21
818.4427327919697
 31
0.0
  0
LINE
  5
335
330
1F
100
AcDbEntity
  8
D-2
  6
Continuous
 62
     3
370
     9
100
AcDbLine
 10
429.6366545214277
 20
795.1259590679241
 30
0.0
 11
469.6445468999478
 21
828.6965301925404
 31
0.0
  0
LINE
  5
336
330
1F
100
AcDbEntity
  8
D-2
  6
Continuous
 62
     3
370
     9
100
AcDbLine
 10
429.6370126133057
 20
805.3800569429303
 30
0.0
 11
469.6445468999478
 21
838.9503275931112
 31
0.0
  0
LINE
  5
337
330
1F
100
AcDbEntity
  8
D-2
  6
Continuous
 62
     3
370
     9
100
AcDbLine
 10
429.6338651787618
 20
841.2737985419268
 30
0.0
 11
469.6445468999478
 21
807.6993659379208
 31
0.0
  0
LINE
  5
338
330
1F
100
AcDbEntity
  8
D-A
  6
Continuous
 62
     3
370
     9
100
AcDbLine
 10
398.1181863879657
 20
658.1843449957871
 30
0.0
 11
429.6420725017207
 21
658.1843449957871
 31
0.0
  0
LINE
  5
339
330
1F
100
AcDbEntity
  8
D-A
  6
JWW_CENTER1
 62
     3
370
     9
100
AcDbLine
 10
374.8625773972063
 20
672.073866280212
 30
0.0
 11
429.6477553696478
 21
672.073866280212
 31
0.0
  0
LINE
  5
33A
330
1F
100
AcDbEntity
  8
D-A
  6
Continuous
 62
     3
370
     9
100
AcDbLine
 10
398.1181863879657
 20
687.073866280212
 30
0.0
 11
429.6420725017207
 21
687.073866280212
 31
0.0
  0
LINE
  5
33B
330
1F
100
AcDbEntity
  8
D-A
  6
Continuous
 62
     3
370
     9
100
AcDbLine
 10
469.6420725017207
 20
658.1843449957871
 30
0.0
 11
499.6404393988927
 21
658.1843449957871
 31
0.0
  0
LINE
  5
33C
330
1F
100
AcDbEntity
  8
D-A
  6
JWW_CENTER1
 62
     3
370
     9
100
AcDbLine
 10
469.6445468999478
 20
672.073866280212
 30
0.0
 11
499.6404393988915
 21
672.073866280212
 31
0.0
  0
LINE
  5
33D
330
1F
100
AcDbEntity
  8
D-A
  6
Continuous
 62
     3
370
     9
100
AcDbLine
 10
469.6420725017207
 20
687.073866280212
 30
0.0
 11
499.6404393988927
 21
687.073866280212
 31
0.0
  0
LINE
  5
33E
330
1F
100
AcDbEntity
  8
D-A
  6
Continuous
 62
     3
370
     9
100
AcDbLine
 10
609.6342451553322
 20
658.1843449957871
 30
0.0
 11
638.0726162206291
 21
658.1843449957871
 31
0.0
  0
LINE
  5
33F
330
1F
100
AcDbEntity
  8
D-A
  6
JWW_CENTER1
 62
     3
370
     9
100
AcDbLine
 10
609.6342451553322
 20
672.073866280212
 30
0.0
 11
656.87482753786
 21
672.073866280212
 31
0.0
  0
LINE
  5
340
330
1F
100
AcDbEntity
  8
D-A
  6
Continuous
 62
     3
370
     9
100
AcDbLine
 10
609.6342451553322
 20
687.073866280212
 30
0.0
 11
638.0726162206291
 21
687.073866280212
 31
0.0
  0
LINE
  5
341
330
1F
100
AcDbEntity
  8
D-A
  6
Continuous
 62
     3
370
     9
100
AcDbLine
 10
539.6372309291916
 20
658.1843449957871
 30
0.0
 11
569.6349792268062
 21
658.1843449957871
 31
0.0
  0
LINE
  5
342
330
1F
100
AcDbEntity
  8
D-A
  6
JWW_CENTER1
 62
     3
370
     9
100
AcDbLine
 10
539.6372309291916
 20
672.073866280212
 30
0.0
 11
569.6374536250322
 21
672.073866280212
 31
0.0
  0
LINE
  5
343
330
1F
100
AcDbEntity
  8
D-A
  6
Continuous
 62
     3
370
     9
100
AcDbLine
 10
539.6372309291916
 20
687.073866280212
 30
0.0
 11
569.6349792268062
 21
687.073866280212
 31
0.0
  0
LINE
  5
344
330
1F
100
AcDbEntity
  8
D-A
  6
Continuous
 62
     3
370
     9
100
AcDbLine
 10
429.6477553696478
 20
597.9434682327819
 30
0.0
 11
429.6477553696478
 21
1033.184344995787
 31
0.0
  0
LINE
  5
345
330
1F
100
AcDbEntity
  8
D-A
  6
Continuous
 62
     3
370
     9
100
AcDbLine
 10
469.6445468999478
 20
597.9434682327819
 30
0.0
 11
469.6445468999478
 21
1033.183498457528
 31
0.0
  0
LINE
  5
346
330
1F
100
AcDbEntity
  8
D-A
  6
Continuous
 62
     3
370
     9
100
AcDbLine
 10
499.6404393988915
 20
597.9434682327819
 30
0.0
 11
499.6404393988915
 21
1033.184344995787
 31
0.0
  0
LINE
  5
347
330
1F
100
AcDbEntity
  8
D-A
  6
Continuous
 62
     3
370
     9
100
AcDbLine
 10
539.6372309291916
 20
597.9434682327819
 30
0.0
 11
539.6372309291916
 21
1033.183498457528
 31
0.0
  0
LINE
  5
348
330
1F
100
AcDbEntity
  8
D-A
  6
Continuous
 62
     3
370
     9
100
AcDbLine
 10
569.6374536250322
 20
597.9434682327819
 30
0.0
 11
569.6374536250322
 21
1033.184344995787
 31
0.0
  0
LINE
  5
349
330
1F
100
AcDbEntity
  8
D-A
  6
Continuous
 62
     3
370
     9
100
AcDbLine
 10
609.6342451553322
 20
597.9434682327819
 30
0.0
 11
609.6342451553322
 21
1033.183498457528
 31
0.0
  0
LINE
  5
34A
330
1F
100
AcDbEntity
  8
D-5
  6
JWW_CENTER1
 62
     4
370
     9
100
AcDbLine
 10
484.5404756900665
 20
565.2769379372005
 30
0.0
 11
484.5404756900665
 21
646.0803866639422
 31
0.0
  0
SOLID
  5
34B
330
1F
100
AcDbEntity
  8
D-5
  6
Continuous
 62
     4
370
     9
100
AcDbTrace
 10
486.540475690067
 20
565.2769379372005
 30
0.0
 11
486.540475690067
 21
525.2769379372005
 31
0.0
 12
482.5404756900672
 22
565.2769379372005
 32
0.0
 13
482.5404756900672
 23
525.2769379372005
 33
0.0
  0
LINE
  5
34C
330
1F
100
AcDbEntity
  8
D-5
  6
Continuous
 62
     4
370
     9
100
AcDbLine
 10
494.2065654877784
 20
544.2959410637268
 30
0.0
 11
518.9926870221244
 21
541.0327862582254
 31
0.0
  0
LINE
  5
34D
330
1F
100
AcDbEntity
  8
D-5
  6
Continuous
 62
     4
370
     9
100
AcDbLine
 10
494.2065654877784
 20
544.2959410637268
 30
0.0
 11
518.9926870221244
 21
547.5590958692281
 31
0.0
  0
LINE
  5
34E
330
1F
100
AcDbEntity
  8
D-5
  6
Continuous
 62
     4
370
     9
100
AcDbLine
 10
494.2065654877784
 20
544.2959410637268
 30
0.0
 11
543.4559581707207
 21
544.2959410637268
 31
0.0
  0
TEXT
  5
34F
330
1F
100
AcDbEntity
  8
D-5
  6
Continuous
 62
     2
370
     9
100
AcDbText
 10
551.1667293046706
 20
532.0907590435231
 30
0.0
 40
30.48
  1
C
 41
0.9999999999999998
  7
ＭＳ ゴシック
100
AcDbText
  0
LINE
  5
350
330
1F
100
AcDbEntity
  8
D-2
  6
Continuous
 62
     3
370
     9
100
AcDbLine
 10
429.6327909031276
 20
810.5115049169083
 30
0.0
 11
469.6441888080698
 21
776.9364713368075
 31
0.0
  0
LINE
  5
351
330
1F
100
AcDbEntity
  8
D-2
  6
Continuous
 62
     3
370
     9
100
AcDbLine
 10
429.6359383376715
 20
774.6177633179118
 30
0.0
 11
469.6441888080698
 21
808.1886349169636
 31
0.0
  0
LINE
  5
352
330
1F
100
AcDbEntity
  8
D-2
  6
Continuous
 62
     3
370
     9
100
AcDbLine
 10
429.6324328112495
 20
800.2574070419023
 30
0.0
 11
469.6438307161917
 21
766.6823734618014
 31
0.0
  0
LINE
  5
353
330
1F
100
AcDbEntity
  8
D-2
  6
Continuous
 62
     3
370
     9
100
AcDbLine
 10
429.6355802457934
 20
764.3636654429058
 30
0.0
 11
469.6438307161917
 21
797.9345370419576
 31
0.0
  0
LINE
  5
354
330
1F
100
AcDbEntity
  8
D-2
  6
Continuous
 62
     3
370
     9
100
AcDbLine
 10
429.6320747193714
 20
790.0033091668962
 30
0.0
 11
469.6434726243136
 21
756.4282755867953
 31
0.0
  0
LINE
  5
355
330
1F
100
AcDbEntity
  8
D-2
  6
Continuous
 62
     3
370
     9
100
AcDbLine
 10
429.6352221539154
 20
754.1095675678997
 30
0.0
 11
469.6434726243136
 21
787.6804391669515
 31
0.0
  0
LINE
  5
356
330
1F
100
AcDbEntity
  8
D-2
  6
Continuous
 62
     3
370
     9
100
AcDbLine
 10
429.6317166274933
 20
779.7492112918901
 30
0.0
 11
469.6431145324356
 21
746.1741777117892
 31
0.0
  0
LINE
  5
357
330
1F
100
AcDbEntity
  8
D-2
  6
Continuous
 62
     3
370
     9
100
AcDbLine
 10
429.6348640620373
 20
743.8554696928936
 30
0.0
 11
469.6431145324356
 21
777.4263412919454
 31
0.0
  0
LINE
  5
358
330
1F
100
AcDbEntity
  8
D-2
  6
Continuous
 62
     3
370
     9
100
AcDbLine
 10
429.6313585356153
 20
769.4951134168841
 30
0.0
 11
469.6427564405575
 21
735.9200798367831
 31
0.0
  0
LINE
  5
359
330
1F
100
AcDbEntity
  8
D-2
  6
Continuous
 62
     3
370
     9
100
AcDbLine
 10
429.6345059701592
 20
733.6013718178876
 30
0.0
 11
469.6427564405575
 21
767.1722434169394
 31
0.0
  0
LINE
  5
35A
330
1F
100
AcDbEntity
  8
D-2
  6
Continuous
 62
     3
370
     9
100
AcDbLine
 10
429.6310004437372
 20
759.241015541878
 30
0.0
 11
469.6423983486794
 21
725.6659819617771
 31
0.0
  0
LINE
  5
35B
330
1F
100
AcDbEntity
  8
D-2
  6
Continuous
 62
     3
370
     9
100
AcDbLine
 10
429.6341478782812
 20
723.3472739428815
 30
0.0
 11
469.6423983486794
 21
756.9181455419333
 31
0.0
  0
LINE
  5
35C
330
1F
100
AcDbEntity
  8
D-2
  6
Continuous
 62
     3
370
     9
100
AcDbLine
 10
429.6306423518591
 20
748.9869176668719
 30
0.0
 11
469.6420402568014
 21
715.411884086771
 31
0.0
  0
LINE
  5
35D
330
1F
100
AcDbEntity
  8
D-2
  6
Continuous
 62
     3
370
     9
100
AcDbLine
 10
429.6337897864031
 20
713.0931760678754
 30
0.0
 11
469.6420402568014
 21
746.6640476669272
 31
0.0
  0
LINE
  5
35E
330
1F
100
AcDbEntity
  8
D-2
  6
Continuous
 62
     3
370
     9
100
AcDbLine
 10
429.6302842599811
 20
738.7328197918658
 30
0.0
 11
469.6416821649233
 21
705.1577862117649
 31
0.0
  0
LINE
  5
35F
330
1F
100
AcDbEntity
  8
D-2
  6
Continuous
 62
     3
370
     9
100
AcDbLine
 10
429.633431694525
 20
702.8390781928694
 30
0.0
 11
469.6416821649233
 21
736.4099497919211
 31
0.0
  0
LINE
  5
360
330
1F
100
AcDbEntity
  8
D-2
  6
Continuous
 62
     3
370
     9
100
AcDbLine
 10
429.629926168103
 20
728.4787219168597
 30
0.0
 11
469.6413240730452
 21
694.9036883367589
 31
0.0
  0
LINE
  5
361
330
1F
100
AcDbEntity
  8
D-2
  6
Continuous
 62
     3
370
     9
100
AcDbLine
 10
429.633073602647
 20
692.5849803178633
 30
0.0
 11
469.6413240730452
 21
726.155851916915
 31
0.0
  0
LINE
  5
362
330
1F
100
AcDbEntity
  8
D-2
  6
Continuous
 62
     3
370
     9
100
AcDbLine
 10
429.6295680762249
 20
718.2246240418538
 30
0.0
 11
469.6409659811671
 21
684.6495904617528
 31
0.0
  0
LINE
  5
363
330
1F
100
AcDbEntity
  8
D-2
  6
Continuous
 62
     3
370
     9
100
AcDbLine
 10
429.6327155107689
 20
682.3308824428573
 30
0.0
 11
469.6409659811671
 21
715.901754041909
 31
0.0
  0
LINE
  5
364
330
1F
100
AcDbEntity
  8
D-2
  6
Continuous
 62
     3
370
     9
100
AcDbLine
 10
429.6292099843469
 20
707.9705261668477
 30
0.0
 11
469.6406078892891
 21
674.3954925867467
 31
0.0
  0
LINE
  5
365
330
1F
100
AcDbEntity
  8
D-2
  6
Continuous
 62
     3
370
     9
100
AcDbLine
 10
429.6323574188908
 20
672.0767845678512
 30
0.0
 11
469.6406078892891
 21
705.647656166903
 31
0.0
  0
LINE
  5
366
330
1F
100
AcDbEntity
  8
D-2
  6
Continuous
 62
     3
370
     9
100
AcDbLine
 10
429.6288518924688
 20
697.7164282918416
 30
0.0
 11
469.640249797411
 21
664.1413947117406
 31
0.0
  0
LINE
  5
367
330
1F
100
AcDbEntity
  8
D-2
  6
Continuous
 62
     3
370
     9
100
AcDbLine
 10
429.6319993270127
 20
661.8226866928451
 30
0.0
 11
469.640249797411
 21
695.3935582918969
 31
0.0
  0
LINE
  5
368
330
1F
100
AcDbEntity
  8
D-2
  6
Continuous
 62
     3
370
     9
100
AcDbLine
 10
429.6284938005907
 20
687.4623304168356
 30
0.0
 11
469.6398917055329
 21
653.8872968367345
 31
0.0
  0
LINE
  5
369
330
1F
100
AcDbEntity
  8
D-2
  6
Continuous
 62
     3
370
     9
100
AcDbLine
 10
429.6316412351347
 20
651.5685888178391
 30
0.0
 11
469.6398917055329
 21
685.1394604168909
 31
0.0
  0
LINE
  5
36A
330
1F
100
AcDbEntity
  8
D-2
  6
Continuous
 62
     3
370
     9
100
AcDbLine
 10
429.6281357087126
 20
677.2082325418295
 30
0.0
 11
469.6395336136549
 21
643.6331989617286
 31
0.0
  0
LINE
  5
36B
330
1F
100
AcDbEntity
  8
D-2
  6
Continuous
 62
     3
370
     9
100
AcDbLine
 10
429.6312831432566
 20
641.314490942833
 30
0.0
 11
469.6395336136549
 21
674.8853625418848
 31
0.0
  0
LINE
  5
36C
330
1F
100
AcDbEntity
  8
D-2
  6
Continuous
 62
     3
370
     9
100
AcDbLine
 10
429.6277776168346
 20
666.9541346668234
 30
0.0
 11
469.6391755217768
 21
633.3791010867225
 31
0.0
  0
LINE
  5
36D
330
1F
100
AcDbEntity
  8
D-2
  6
Continuous
 62
     3
370
     9
100
AcDbLine
 10
429.6309250513785
 20
631.0603930678269
 30
0.0
 11
469.6391755217768
 21
664.6312646668787
 31
0.0
  0
LINE
  5
36E
330
1F
100
AcDbEntity
  8
D-2
  6
Continuous
 62
     3
370
     9
100
AcDbLine
 10
429.6274195249565
 20
656.7000367918173
 30
0.0
 11
469.6388174298987
 21
623.1250032117164
 31
0.0
  0
LINE
  5
36F
330
1F
100
AcDbEntity
  8
D-2
  6
Continuous
 62
     3
370
     9
100
AcDbLine
 10
429.6305669595005
 20
620.8062951928208
 30
0.0
 11
469.6388174298987
 21
654.3771667918726
 31
0.0
  0
LINE
  5
370
330
1F
100
AcDbEntity
  8
D-2
  6
Continuous
 62
     3
370
     9
100
AcDbLine
 10
429.6270614330784
 20
646.4459389168112
 30
0.0
 11
469.6384593380207
 21
612.8709053367104
 31
0.0
  0
LINE
  5
371
330
1F
100
AcDbEntity
  8
D-2
  6
Continuous
 62
     3
370
     9
100
AcDbLine
 10
429.6302088676224
 20
610.5521973178147
 30
0.0
 11
469.6384593380207
 21
644.1230689168665
 31
0.0
  0
LINE
  5
372
330
1F
100
AcDbEntity
  8
D-2
  6
Continuous
 62
     3
370
     9
100
AcDbLine
 10
429.6267033412004
 20
636.1918410418052
 30
0.0
 11
469.6381012461426
 21
602.6168074617043
 31
0.0
  0
LINE
  5
373
330
1F
100
AcDbEntity
  8
D-2
  6
Continuous
 62
     3
370
     9
100
AcDbLine
 10
429.6298507757443
 20
600.2980994428087
 30
0.0
 11
469.6381012461426
 21
633.8689710418605
 31
0.0
  0
LINE
  5
374
330
1F
100
AcDbEntity
  8
D-2
  6
Continuous
 62
     3
370
     9
100
AcDbLine
 10
499.6251168404933
 20
800.2574070419029
 30
0.0
 11
539.6368728373136
 21
766.6820729737542
 31
0.0
  0
LINE
  5
375
330
1F
100
AcDbEntity
  8
D-2
  6
Continuous
 62
     3
370
     9
100
AcDbLine
 10
499.6282642750373
 20
764.3636654429064
 30
0.0
 11
539.6368728373136
 21
797.9348375163925
 31
0.0
  0
LINE
  5
376
330
1F
100
AcDbEntity
  8
D-2
  6
Continuous
 62
     3
370
     9
100
AcDbLine
 10
499.6247587486154
 20
790.0033091668969
 30
0.0
 11
539.6365147454356
 21
756.4279750987482
 31
0.0
  0
LINE
  5
377
330
1F
100
AcDbEntity
  8
D-2
  6
Continuous
 62
     3
370
     9
100
AcDbLine
 10
499.6279061831593
 20
754.1095675679004
 30
0.0
 11
539.6365147454356
 21
787.6807396413865
 31
0.0
  0
LINE
  5
378
330
1F
100
AcDbEntity
  8
D-2
  6
Continuous
 62
     3
370
     9
100
AcDbLine
 10
499.6244006567375
 20
779.749211291891
 30
0.0
 11
539.6361566535577
 21
746.1738772237424
 31
0.0
  0
LINE
  5
379
330
1F
100
AcDbEntity
  8
D-2
  6
Continuous
 62
     3
370
     9
100
AcDbLine
 10
499.6275480912814
 20
743.8554696928945
 30
0.0
 11
539.6361566535577
 21
777.4266417663806
 31
0.0
  0
LINE
  5
37A
330
1F
100
AcDbEntity
  8
D-2
  6
Continuous
 62
     3
370
     9
100
AcDbLine
 10
499.6240425648596
 20
769.495113416885
 30
0.0
 11
539.6357985616798
 21
735.9197793487364
 31
0.0
  0
LINE
  5
37B
330
1F
100
AcDbEntity
  8
D-2
  6
Continuous
 62
     3
370
     9
100
AcDbLine
 10
499.6271899994035
 20
733.6013718178885
 30
0.0
 11
539.6357985616798
 21
767.1725438913746
 31
0.0
  0
LINE
  5
37C
330
1F
100
AcDbEntity
  8
D-2
  6
Continuous
 62
     3
370
     9
100
AcDbLine
 10
499.6236844729816
 20
759.2410155418792
 30
0.0
 11
539.6354404698019
 21
725.6656814737305
 31
0.0
  0
LINE
  5
37D
330
1F
100
AcDbEntity
  8
D-2
  6
Continuous
 62
     3
370
     9
100
AcDbLine
 10
499.6268319075256
 20
723.3472739428827
 30
0.0
 11
539.6354404698019
 21
756.9184460163688
 31
0.0
  0
LINE
  5
37E
330
1F
100
AcDbEntity
  8
D-2
  6
Continuous
 62
     3
370
     9
100
AcDbLine
 10
499.6233263811037
 20
748.9869176668732
 30
0.0
 11
539.6350823779239
 21
715.4115835987245
 31
0.0
  0
LINE
  5
37F
330
1F
100
AcDbEntity
  8
D-2
  6
Continuous
 62
     3
370
     9
100
AcDbLine
 10
499.6264738156476
 20
713.0931760678767
 30
0.0
 11
539.6350823779239
 21
746.6643481413628
 31
0.0
  0
LINE
  5
380
330
1F
100
AcDbEntity
  8
D-2
  6
Continuous
 62
     3
370
     9
100
AcDbLine
 10
499.6229682892258
 20
738.7328197918673
 30
0.0
 11
539.6347242860461
 21
705.1574857237187
 31
0.0
  0
LINE
  5
381
330
1F
100
AcDbEntity
  8
D-2
  6
Continuous
 62
     3
370
     9
100
AcDbLine
 10
499.6261157237697
 20
702.8390781928708
 30
0.0
 11
539.6347242860461
 21
736.4102502663569
 31
0.0
  0
LINE
  5
382
330
1F
100
AcDbEntity
  8
D-2
  6
Continuous
 62
     3
370
     9
100
AcDbLine
 10
499.6226101973479
 20
728.4787219168613
 30
0.0
 11
539.6343661941681
 21
694.9033878487127
 31
0.0
  0
LINE
  5
383
330
1F
100
AcDbEntity
  8
D-2
  6
Continuous
 62
     3
370
     9
100
AcDbLine
 10
499.6257576318918
 20
692.5849803178648
 30
0.0
 11
539.6343661941681
 21
726.1561523913509
 31
0.0
  0
LINE
  5
384
330
1F
100
AcDbEntity
  8
D-2
  6
Continuous
 62
     3
370
     9
100
AcDbLine
 10
499.6222521054699
 20
718.2246240418555
 30
0.0
 11
539.6340081022902
 21
684.6492899737068
 31
0.0
  0
LINE
  5
385
330
1F
100
AcDbEntity
  8
D-2
  6
Continuous
 62
     3
370
     9
100
AcDbLine
 10
499.6253995400139
 20
682.330882442859
 30
0.0
 11
539.6340081022902
 21
715.9020545163451
 31
0.0
  0
LINE
  5
386
330
1F
100
AcDbEntity
  8
D-2
  6
Continuous
 62
     3
370
     9
100
AcDbLine
 10
499.6218940135919
 20
707.9705261668495
 30
0.0
 11
539.6336500104122
 21
674.3951920987008
 31
0.0
  0
LINE
  5
387
330
1F
100
AcDbEntity
  8
D-2
  6
Continuous
 62
     3
370
     9
100
AcDbLine
 10
499.6250414481359
 20
672.076784567853
 30
0.0
 11
539.6336500104122
 21
705.6479566413391
 31
0.0
  0
LINE
  5
388
330
1F
100
AcDbEntity
  8
D-2
  6
Continuous
 62
     3
370
     9
100
AcDbLine
 10
499.621535921714
 20
697.7164282918436
 30
0.0
 11
539.6332919185343
 21
664.141094223695
 31
0.0
  0
LINE
  5
389
330
1F
100
AcDbEntity
  8
D-2
  6
Continuous
 62
     3
370
     9
100
AcDbLine
 10
499.624683356258
 20
661.8226866928471
 30
0.0
 11
539.6332919185343
 21
695.3938587663332
 31
0.0
  0
LINE
  5
38A
330
1F
100
AcDbEntity
  8
D-2
  6
Continuous
 62
     3
370
     9
100
AcDbLine
 10
499.6211778298361
 20
687.4623304168376
 30
0.0
 11
539.6329338266564
 21
653.886996348689
 31
0.0
  0
LINE
  5
38B
330
1F
100
AcDbEntity
  8
D-2
  6
Continuous
 62
     3
370
     9
100
AcDbLine
 10
499.6243252643801
 20
651.5685888178411
 30
0.0
 11
539.6329338266564
 21
685.1397608913272
 31
0.0
  0
LINE
  5
38C
330
1F
100
AcDbEntity
  8
D-2
  6
Continuous
 62
     3
370
     9
100
AcDbLine
 10
499.6208197379582
 20
677.2082325418318
 30
0.0
 11
539.6325757347785
 21
643.6328984736831
 31
0.0
  0
LINE
  5
38D
330
1F
100
AcDbEntity
  8
D-2
  6
Continuous
 62
     3
370
     9
100
AcDbLine
 10
499.6239671725021
 20
641.3144909428353
 30
0.0
 11
539.6325757347785
 21
674.8856630163214
 31
0.0
  0
LINE
  5
38E
330
1F
100
AcDbEntity
  8
D-2
  6
Continuous
 62
     3
370
     9
100
AcDbLine
 10
499.6204616460802
 20
666.9541346668258
 30
0.0
 11
539.6322176429005
 21
633.3788005986771
 31
0.0
  0
LINE
  5
38F
330
1F
100
AcDbEntity
  8
D-2
  6
Continuous
 62
     3
370
     9
100
AcDbLine
 10
499.6236090806242
 20
631.0603930678293
 30
0.0
 11
539.6322176429005
 21
664.6315651413154
 31
0.0
  0
LINE
  5
390
330
1F
100
AcDbEntity
  8
D-2
  6
Continuous
 62
     3
370
     9
100
AcDbLine
 10
499.6201035542023
 20
656.7000367918199
 30
0.0
 11
539.6318595510227
 21
623.1247027236712
 31
0.0
  0
LINE
  5
391
330
1F
100
AcDbEntity
  8
D-2
  6
Continuous
 62
     3
370
     9
100
AcDbLine
 10
499.6232509887463
 20
620.8062951928234
 30
0.0
 11
539.6318595510227
 21
654.3774672663095
 31
0.0
  0
LINE
  5
392
330
1F
100
AcDbEntity
  8
D-2
  6
Continuous
 62
     3
370
     9
100
AcDbLine
 10
499.6197454623244
 20
646.4459389168139
 30
0.0
 11
539.6315014591447
 21
612.8706048486653
 31
0.0
  0
LINE
  5
393
330
1F
100
AcDbEntity
  8
D-2
  6
Continuous
 62
     3
370
     9
100
AcDbLine
 10
499.6228928968684
 20
610.5521973178174
 30
0.0
 11
539.6315014591447
 21
644.1233693913035
 31
0.0
  0
LINE
  5
394
330
1F
100
AcDbEntity
  8
D-2
  6
Continuous
 62
     3
370
     9
100
AcDbLine
 10
499.6193873704465
 20
636.1918410418081
 30
0.0
 11
539.6311433672668
 21
602.6165069736594
 31
0.0
  0
LINE
  5
395
330
1F
100
AcDbEntity
  8
D-2
  6
Continuous
 62
     3
370
     9
100
AcDbLine
 10
499.6225348049904
 20
600.2980994428116
 30
0.0
 11
539.6311433672668
 21
633.8692715162977
 31
0.0
  0
LINE
  5
396
330
1F
100
AcDbEntity
  8
D-2
  6
Continuous
 62
     3
370
     9
100
AcDbLine
 10
569.622131066634
 20
800.2574070419029
 30
0.0
 11
609.6338870634543
 21
766.6820729737542
 31
0.0
  0
LINE
  5
397
330
1F
100
AcDbEntity
  8
D-2
  6
Continuous
 62
     3
370
     9
100
AcDbLine
 10
569.625278501178
 20
764.3636654429064
 30
0.0
 11
609.6338870634543
 21
797.9348375163925
 31
0.0
  0
LINE
  5
398
330
1F
100
AcDbEntity
  8
D-2
  6
Continuous
 62
     3
370
     9
100
AcDbLine
 10
569.621772974756
 20
790.0033091668969
 30
0.0
 11
609.6335289715763
 21
756.4279750987482
 31
0.0
  0
LINE
  5
399
330
1F
100
AcDbEntity
  8
D-2
  6
Continuous
 62
     3
370
     9
100
AcDbLine
 10
569.6249204093
 20
754.1095675679004
 30
0.0
 11
609.6335289715763
 21
787.6807396413865
 31
0.0
  0
LINE
  5
39A
330
1F
100
AcDbEntity
  8
D-2
  6
Continuous
 62
     3
370
     9
100
AcDbLine
 10
569.6214148828781
 20
779.749211291891
 30
0.0
 11
609.6331708796984
 21
746.1738772237424
 31
0.0
  0
LINE
  5
39B
330
1F
100
AcDbEntity
  8
D-2
  6
Continuous
 62
     3
370
     9
100
AcDbLine
 10
569.624562317422
 20
743.8554696928945
 30
0.0
 11
609.6331708796984
 21
777.4266417663806
 31
0.0
  0
LINE
  5
39C
330
1F
100
AcDbEntity
  8
D-2
  6
Continuous
 62
     3
370
     9
100
AcDbLine
 10
569.6210567910002
 20
769.495113416885
 30
0.0
 11
609.6328127878205
 21
735.9197793487364
 31
0.0
  0
LINE
  5
39D
330
1F
100
AcDbEntity
  8
D-2
  6
Continuous
 62
     3
370
     9
100
AcDbLine
 10
569.6242042255442
 20
733.6013718178885
 30
0.0
 11
609.6328127878205
 21
767.1725438913746
 31
0.0
  0
LINE
  5
39E
330
1F
100
AcDbEntity
  8
D-2
  6
Continuous
 62
     3
370
     9
100
AcDbLine
 10
569.6206986991223
 20
759.2410155418792
 30
0.0
 11
609.6324546959426
 21
725.6656814737305
 31
0.0
  0
LINE
  5
39F
330
1F
100
AcDbEntity
  8
D-2
  6
Continuous
 62
     3
370
     9
100
AcDbLine
 10
569.6238461336662
 20
723.3472739428827
 30
0.0
 11
609.6324546959426
 21
756.9184460163688
 31
0.0
  0
LINE
  5
3A0
330
1F
100
AcDbEntity
  8
D-2
  6
Continuous
 62
     3
370
     9
100
AcDbLine
 10
569.6203406072443
 20
748.9869176668732
 30
0.0
 11
609.6320966040646
 21
715.4115835987245
 31
0.0
  0
LINE
  5
3A1
330
1F
100
AcDbEntity
  8
D-2
  6
Continuous
 62
     3
370
     9
100
AcDbLine
 10
569.6234880417883
 20
713.0931760678767
 30
0.0
 11
609.6320966040646
 21
746.6643481413628
 31
0.0
  0
LINE
  5
3A2
330
1F
100
AcDbEntity
  8
D-2
  6
Continuous
 62
     3
370
     9
100
AcDbLine
 10
569.6199825153665
 20
738.7328197918673
 30
0.0
 11
609.6317385121868
 21
705.1574857237187
 31
0.0
  0
LINE
  5
3A3
330
1F
100
AcDbEntity
  8
D-2
  6
Continuous
 62
     3
370
     9
100
AcDbLine
 10
569.6231299499104
 20
702.8390781928708
 30
0.0
 11
609.6317385121868
 21
736.4102502663569
 31
0.0
  0
LINE
  5
3A4
330
1F
100
AcDbEntity
  8
D-2
  6
Continuous
 62
     3
370
     9
100
AcDbLine
 10
569.6196244234885
 20
728.4787219168613
 30
0.0
 11
609.6313804203088
 21
694.9033878487127
 31
0.0
  0
LINE
  5
3A5
330
1F
100
AcDbEntity
  8
D-2
  6
Continuous
 62
     3
370
     9
100
AcDbLine
 10
569.6227718580325
 20
692.5849803178648
 30
0.0
 11
609.6313804203088
 21
726.1561523913509
 31
0.0
  0
LINE
  5
3A6
330
1F
100
AcDbEntity
  8
D-2
  6
Continuous
 62
     3
370
     9
100
AcDbLine
 10
569.6192663316106
 20
718.2246240418555
 30
0.0
 11
609.6310223284308
 21
684.6492899737068
 31
0.0
  0
LINE
  5
3A7
330
1F
100
AcDbEntity
  8
D-2
  6
Continuous
 62
     3
370
     9
100
AcDbLine
 10
569.6224137661545
 20
682.330882442859
 30
0.0
 11
609.6310223284308
 21
715.9020545163451
 31
0.0
  0
LINE
  5
3A8
330
1F
100
AcDbEntity
  8
D-2
  6
Continuous
 62
     3
370
     9
100
AcDbLine
 10
569.6189082397326
 20
707.9705261668495
 30
0.0
 11
609.6306642365529
 21
674.3951920987008
 31
0.0
  0
LINE
  5
3A9
330
1F
100
AcDbEntity
  8
D-2
  6
Continuous
 62
     3
370
     9
100
AcDbLine
 10
569.6220556742766
 20
672.076784567853
 30
0.0
 11
609.6306642365529
 21
705.6479566413391
 31
0.0
  0
LINE
  5
3AA
330
1F
100
AcDbEntity
  8
D-2
  6
Continuous
 62
     3
370
     9
100
AcDbLine
 10
569.6185501478546
 20
697.7164282918436
 30
0.0
 11
609.6303061446749
 21
664.141094223695
 31
0.0
  0
LINE
  5
3AB
330
1F
100
AcDbEntity
  8
D-2
  6
Continuous
 62
     3
370
     9
100
AcDbLine
 10
569.6216975823986
 20
661.8226866928471
 30
0.0
 11
609.6303061446749
 21
695.3938587663332
 31
0.0
  0
LINE
  5
3AC
330
1F
100
AcDbEntity
  8
D-2
  6
Continuous
 62
     3
370
     9
100
AcDbLine
 10
569.6181920559768
 20
687.4623304168376
 30
0.0
 11
609.6299480527971
 21
653.886996348689
 31
0.0
  0
LINE
  5
3AD
330
1F
100
AcDbEntity
  8
D-2
  6
Continuous
 62
     3
370
     9
100
AcDbLine
 10
569.6213394905208
 20
651.5685888178411
 30
0.0
 11
609.6299480527971
 21
685.1397608913272
 31
0.0
  0
LINE
  5
3AE
330
1F
100
AcDbEntity
  8
D-2
  6
Continuous
 62
     3
370
     9
100
AcDbLine
 10
569.6178339640988
 20
677.2082325418318
 30
0.0
 11
609.6295899609191
 21
643.6328984736831
 31
0.0
  0
LINE
  5
3AF
330
1F
100
AcDbEntity
  8
D-2
  6
Continuous
 62
     3
370
     9
100
AcDbLine
 10
569.6209813986428
 20
641.3144909428353
 30
0.0
 11
609.6295899609191
 21
674.8856630163214
 31
0.0
  0
LINE
  5
3B0
330
1F
100
AcDbEntity
  8
D-2
  6
Continuous
 62
     3
370
     9
100
AcDbLine
 10
569.6174758722209
 20
666.9541346668258
 30
0.0
 11
609.6292318690412
 21
633.3788005986771
 31
0.0
  0
LINE
  5
3B1
330
1F
100
AcDbEntity
  8
D-2
  6
Continuous
 62
     3
370
     9
100
AcDbLine
 10
569.6206233067649
 20
631.0603930678293
 30
0.0
 11
609.6292318690412
 21
664.6315651413154
 31
0.0
  0
LINE
  5
3B2
330
1F
100
AcDbEntity
  8
D-2
  6
Continuous
 62
     3
370
     9
100
AcDbLine
 10
569.617117780343
 20
656.7000367918199
 30
0.0
 11
609.6288737771633
 21
623.1247027236712
 31
0.0
  0
LINE
  5
3B3
330
1F
100
AcDbEntity
  8
D-2
  6
Continuous
 62
     3
370
     9
100
AcDbLine
 10
569.620265214887
 20
620.8062951928234
 30
0.0
 11
609.6288737771633
 21
654.3774672663095
 31
0.0
  0
LINE
  5
3B4
330
1F
100
AcDbEntity
  8
D-2
  6
Continuous
 62
     3
370
     9
100
AcDbLine
 10
569.6167596884651
 20
646.4459389168139
 30
0.0
 11
609.6285156852854
 21
612.8706048486653
 31
0.0
  0
LINE
  5
3B5
330
1F
100
AcDbEntity
  8
D-2
  6
Continuous
 62
     3
370
     9
100
AcDbLine
 10
569.619907123009
 20
610.5521973178174
 30
0.0
 11
609.6285156852854
 21
644.1233693913035
 31
0.0
  0
LINE
  5
3B6
330
1F
100
AcDbEntity
  8
D-2
  6
Continuous
 62
     3
370
     9
100
AcDbLine
 10
569.6164015965871
 20
636.1918410418081
 30
0.0
 11
609.6281575934074
 21
602.6165069736594
 31
0.0
  0
LINE
  5
3B7
330
1F
100
AcDbEntity
  8
D-2
  6
Continuous
 62
     3
370
     9
100
AcDbLine
 10
569.6195490311311
 20
600.2980994428116
 30
0.0
 11
609.6281575934074
 21
633.8692715162977
 31
0.0
  0
LINE
  5
3B8
330
1F
100
AcDbEntity
  8
D-2
  6
Continuous
 62
     3
370
     9
100
AcDbLine
 10
439.0437207292279
 20
597.9434682327819
 30
0.0
 11
469.6381012461428
 21
623.6151736412897
 31
0.0
  0
LINE
  5
3B9
330
1F
100
AcDbEntity
  8
D-2
  6
Continuous
 62
     3
370
     9
100
AcDbLine
 10
509.0364047584716
 20
597.9434682327819
 30
0.0
 11
539.6307852753888
 21
623.6151736412917
 31
0.0
  0
LINE
  5
3BA
330
1F
100
AcDbEntity
  8
D-2
  6
Continuous
 62
     3
370
     9
100
AcDbLine
 10
521.2564179763101
 20
597.9434682327819
 30
0.0
 11
539.6304271835108
 21
613.3610757662858
 31
0.0
  0
LINE
  5
3BB
330
1F
100
AcDbEntity
  8
D-2
  6
Continuous
 62
     3
370
     9
100
AcDbLine
 10
499.6190292785685
 20
625.9377431668021
 30
0.0
 11
532.9798320540353
 21
597.9434682327819
 31
0.0
  0
LINE
  5
3BC
330
1F
100
AcDbEntity
  8
D-2
  6
Continuous
 62
     3
370
     9
100
AcDbLine
 10
579.0334189846122
 20
597.9434682327819
 30
0.0
 11
609.6277995015295
 21
623.6151736412917
 31
0.0
  0
TEXT
  5
3BD
330
1F
100
AcDbEntity
  8
D-5
  6
Continuous
 62
     2
370
     9
100
AcDbText
 10
704.8183353169974
 20
534.281424744862
 30
0.0
 40
30.48
  1
B
 41
0.9999999999999998
  7
ＭＳ ゴシック
100
AcDbText
  0
LINE
  5
3BE
330
1F
100
AcDbEntity
  8
D-5
  6
Continuous
 62
     4
370
     9
100
AcDbLine
 10
714.8183353169974
 20
624.576124479105
 30
0.0
 11
711.5551805114966
 21
599.7900029447596
 31
0.0
  0
LINE
  5
3BF
330
1F
100
AcDbEntity
  8
D-5
  6
Continuous
 62
     4
370
     9
100
AcDbLine
 10
714.8183353169974
 20
624.576124479105
 30
0.0
 11
718.0814901224993
 21
599.7900029447596
 31
0.0
  0
LINE
  5
3C0
330
1F
100
AcDbEntity
  8
D-5
  6
Continuous
 62
     4
370
     9
100
AcDbLine
 10
714.8183353169974
 20
624.576124479105
 30
0.0
 11
714.8183353169974
 21
575.3267317961628
 31
0.0
  0
SOLID
  5
3C1
330
1F
100
AcDbEntity
  8
D-5
  6
Continuous
 62
     4
370
     9
100
AcDbTrace
 10
696.7741894937784
 20
633.2334423182152
 30
0.0
 11
736.7741894937784
 21
633.2334423182152
 31
0.0
 12
696.7741894937784
 22
629.2334423182156
 32
0.0
 13
736.7741894937784
 23
629.2334423182156
 33
0.0
  0
LINE
  5
3C2
330
1F
100
AcDbEntity
  8
D-5
  6
JWW_CENTER1
 62
     4
370
     9
100
AcDbLine
 10
696.7741894937784
 20
631.2334423182155
 30
0.0
 11
659.6574859923975
 21
631.2334423182155
 31
0.0
  0
TEXT
  5
3C3
330
1F
100
AcDbEntity
  8
D-5
  6
Continuous
 62
     2
370
     9
100
AcDbText
 10
317.3626529758495
 20
531.9918600001494
 30
0.0
 40
30.48
  1
B
 41
0.9999999999999998
  7
ＭＳ ゴシック
100
AcDbText
  0
LINE
  5
3C4
330
1F
100
AcDbEntity
  8
D-5
  6
Continuous
 62
     4
370
     9
100
AcDbLine
 10
327.3626529758495
 20
621.5673525205035
 30
0.0
 11
324.0994981703482
 21
596.7812309861581
 31
0.0
  0
LINE
  5
3C5
330
1F
100
AcDbEntity
  8
D-5
  6
Continuous
 62
     4
370
     9
100
AcDbLine
 10
327.3626529758495
 20
621.5673525205035
 30
0.0
 11
330.6258077813509
 21
596.7812309861581
 31
0.0
  0
LINE
  5
3C6
330
1F
100
AcDbEntity
  8
D-5
  6
Continuous
 62
     4
370
     9
100
AcDbLine
 10
327.3626529758495
 20
621.5673525205035
 30
0.0
 11
327.3626529758495
 21
572.3179598375613
 31
0.0
  0
SOLID
  5
3C7
330
1F
100
AcDbEntity
  8
D-5
  6
Continuous
 62
     4
370
     9
100
AcDbTrace
 10
348.3436498493232
 20
629.2334423182156
 30
0.0
 11
308.3436498493232
 21
629.2334423182156
 31
0.0
 12
348.3436498493232
 22
633.2334423182152
 32
0.0
 13
308.3436498493232
 23
633.2334423182152
 33
0.0
  0
LINE
  5
3C8
330
1F
100
AcDbEntity
  8
D-5
  6
JWW_CENTER1
 62
     4
370
     9
100
AcDbLine
 10
348.3436498493232
 20
631.2334423182155
 30
0.0
 11
385.4603533507047
 21
631.2334423182155
 31
0.0
  0
LINE
  5
3C9
330
1F
100
AcDbEntity
  8
D-2
  6
Continuous
 62
     3
370
     9
100
AcDbLine
 10
569.6160435047092
 20
625.9377431668021
 30
0.0
 11
602.9768462801762
 21
597.943468232782
 31
0.0
  0
LINE
  5
3CA
330
1F
100
AcDbEntity
  8
D-2
  6
Continuous
 62
     3
370
     9
100
AcDbLine
 10
569.6370955331541
 20
615.6656792734503
 30
0.0
 11
590.7566704700444
 21
597.9434682327819
 31
0.0
  0
LINE
  5
3CB
330
1F
100
AcDbEntity
  8
D-2
  6
Continuous
 62
     3
370
     9
100
AcDbLine
 10
569.6367374412761
 20
605.4115813984442
 30
0.0
 11
578.5364946599121
 21
597.9434682327819
 31
0.0
  0
LINE
  5
3CC
330
1F
100
AcDbEntity
  8
D-2
  6
Continuous
 62
     3
370
     9
100
AcDbLine
 10
499.6186711866906
 20
615.6836452917962
 30
0.0
 11
520.7596562439039
 21
597.9434682327819
 31
0.0
  0
LINE
  5
3CD
330
1F
100
AcDbEntity
  8
D-2
  6
Continuous
 62
     3
370
     9
100
AcDbLine
 10
499.6183130948125
 20
605.4295474167901
 30
0.0
 11
508.5394804337719
 21
597.9434682327819
 31
0.0
  0
LINE
  5
3CE
330
1F
100
AcDbEntity
  8
D-2
  6
Continuous
 62
     3
370
     9
100
AcDbLine
 10
429.6263452493223
 20
625.9377431667991
 30
0.0
 11
462.9871480247858
 21
597.9434682327819
 31
0.0
  0
LINE
  5
3CF
330
1F
100
AcDbEntity
  8
D-2
  6
Continuous
 62
     3
370
     9
100
AcDbLine
 10
429.6473972777698
 20
615.6656792734452
 30
0.0
 11
450.7669722146538
 21
597.9434682327819
 31
0.0
  0
LINE
  5
3D0
330
1F
100
AcDbEntity
  8
D-2
  6
Continuous
 62
     3
370
     9
100
AcDbLine
 10
590.9619201887315
 20
597.6988608763721
 30
0.0
 11
609.6274414096515
 21
613.3610757662858
 31
0.0
  0
LINE
  5
3D1
330
1F
100
AcDbEntity
  8
D-2
  6
Continuous
 62
     3
370
     9
100
AcDbLine
 10
603.1820288197304
 20
597.6989409374324
 30
0.0
 11
609.6270833177737
 21
603.1069778912798
 31
0.0
  0
LINE
  5
3D2
330
1F
100
AcDbEntity
  8
D-2
  6
Continuous
 62
     3
370
     9
100
AcDbLine
 10
451.2637339470663
 20
597.9434682327819
 30
0.0
 11
469.6377431542649
 21
613.3610757662838
 31
0.0
  0
LINE
  5
3D3
330
1F
100
AcDbEntity
  8
D-2
  6
Continuous
 62
     3
370
     9
100
AcDbLine
 10
463.4837471649047
 20
597.9434682327819
 30
0.0
 11
469.6373850623869
 21
603.1069778912779
 31
0.0
  0
LINE
  5
3D4
330
1F
100
AcDbEntity
  8
D-2
  6
Continuous
 62
     3
370
     9
100
AcDbLine
 10
429.6470391858917
 20
605.4115813984391
 30
0.0
 11
438.5467964045217
 21
597.9434682327819
 31
0.0
  0
TEXT
  5
3D5
330
1F
100
AcDbEntity
  8
D-5
  6
Continuous
 62
     7
370
     9
100
AcDbText
 10
821.0784819336903
 20
187.9463177631754
 30
0.0
 40
22.86
  1
クロスバー
 41
1.133333333333337
  7
ＭＳ ゴシック
100
AcDbText
  0
LINE
  5
3D6
330
1F
100
AcDbEntity
  8
C-5
  6
Continuous
 62
     7
370
     9
100
AcDbLine
 10
-504.5985041333333
 20
455.8030604714873
 30
0.0
 11
-1079.598931379427
 21
455.8030604714873
 31
0.0
  0
TEXT
  5
3D7
330
1F
100
AcDbEntity
  8
C-5
  6
Continuous
 62
     2
370
     9
100
AcDbText
 10
-1059.598849363436
 20
473.9427305001739
 30
0.0
 40
30.48
  1
平面詳細図　Ｓ＝１：１０
 41
1.114583333333333
  7
ＭＳ ゴシック
100
AcDbText
  0
TEXT
  5
3D8
330
1F
100
AcDbEntity
  8
D-5
  6
Continuous
 62
     7
370
     9
100
AcDbText
 10
1561.717747429646
 20
390.3690560810165
 30
0.0
 40
22.86
  1
サイドバー
 41
1.133333333333333
  7
ＭＳ ゴシック
100
AcDbText
  0
LINE
  5
3D9
330
1F
100
AcDbEntity
  8
C-A
  6
JWW_CENTER1
 62
     3
370
     9
100
AcDbLine
 10
-1546.700214834076
 20
761.2771416522219
 30
0.0
 11
-35.70918194122783
 21
761.2771416522219
 31
0.0
  0
LINE
  5
3DA
330
1F
100
AcDbEntity
  8
C-1
  6
Continuous
 62
     2
370
     9
100
AcDbLine
 10
-1540.59905344974
 20
838.2772026873744
 30
0.0
 11
-42.59877879153635
 21
838.2772026873744
 31
0.0
  0
LINE
  5
3DB
330
1F
100
AcDbEntity
  8
C-1
  6
Continuous
 62
     2
370
     9
100
AcDbLine
 10
-1540.59905344974
 20
841.2772026873745
 30
0.0
 11
-42.5987787915362
 21
841.2772026873745
 31
0.0
  0
LINE
  5
3DC
330
1F
100
AcDbEntity
  8
C-1
  6
Continuous
 62
     2
370
     9
100
AcDbLine
 10
-1540.59905344974
 20
684.2770806170694
 30
0.0
 11
-42.59877879153635
 21
684.2770806170694
 31
0.0
  0
LINE
  5
3DD
330
1F
100
AcDbEntity
  8
C-1
  6
Continuous
 62
     2
370
     9
100
AcDbLine
 10
-1540.59905344974
 20
681.2770806170693
 30
0.0
 11
-42.5987787915362
 21
681.2770806170693
 31
0.0
  0
LINE
  5
3DE
330
1F
100
AcDbEntity
  8
C-9
  6
Continuous
 62
     3
370
     9
100
AcDbLine
 10
-1032.348885603058
 20
676.2771103299731
 30
0.0
 11
-1033.598885603058
 21
676.2771103299731
 31
0.0
  0
LINE
  5
3DF
330
1F
100
AcDbEntity
  8
C-9
  6
Continuous
 62
     3
370
     9
100
AcDbLine
 10
-1032.348885603058
 20
676.2771103299731
 30
0.0
 11
-1032.348885603058
 21
647.2771255887626
 31
0.0
  0
LINE
  5
3E0
330
1F
100
AcDbEntity
  8
C-9
  6
Continuous
 62
     3
370
     9
100
AcDbLine
 10
-1033.60355479251
 20
680.2771255887621
 30
0.0
 11
-1033.090401716338
 21
680.2771255887621
 31
0.0
  0
LINE
  5
3E1
330
1F
100
AcDbEntity
  8
C-9
  6
Continuous
 62
     3
370
     9
100
AcDbLine
 10
-1049.0988245679
 20
680.2771255887621
 30
0.0
 11
-1048.598855085479
 21
680.2771255887621
 31
0.0
  0
LINE
  5
3E2
330
1F
100
AcDbEntity
  8
C-9
  6
Continuous
 62
     3
370
     9
100
AcDbLine
 10
-1049.848946638213
 20
676.2771103299731
 30
0.0
 11
-1048.598977155791
 21
676.2771103299731
 31
0.0
  0
LINE
  5
3E3
330
1F
100
AcDbEntity
  8
C-9
  6
Continuous
 62
     3
370
     9
100
AcDbLine
 10
-1049.848946638213
 20
676.2771103299731
 30
0.0
 11
-1049.848946638213
 21
647.2771255887626
 31
0.0
  0
LINE
  5
3E4
330
1F
100
AcDbEntity
  8
C-9
  6
Continuous
 62
     3
370
     9
100
AcDbLine
 10
-1032.348885603058
 20
647.2771255887626
 30
0.0
 11
-1049.848946638213
 21
647.2771255887626
 31
0.0
  0
LINE
  5
3E5
330
1F
100
AcDbEntity
  8
C-9
  6
JWW_DASHED2
 62
     3
370
     9
100
AcDbLine
 10
-1034.348916120635
 20
676.4230148709892
 30
0.0
 11
-1034.348916120635
 21
647.2771255887626
 31
0.0
  0
LINE
  5
3E6
330
1F
100
AcDbEntity
  8
C-9
  6
JWW_DASHED2
 62
     3
370
     9
100
AcDbLine
 10
-1047.848946638215
 20
676.4230148709892
 30
0.0
 11
-1047.848946638215
 21
647.2771255887626
 31
0.0
  0
LINE
  5
3E7
330
1F
100
AcDbEntity
  8
C-9
  6
Continuous
 62
     3
370
     9
100
AcDbLine
 10
-1032.348885603058
 20
846.2773587621343
 30
0.0
 11
-1033.598885603058
 21
846.2773587621343
 31
0.0
  0
LINE
  5
3E8
330
1F
100
AcDbEntity
  8
C-9
  6
Continuous
 62
     3
370
     9
100
AcDbLine
 10
-1032.348885603058
 20
846.2773587621343
 30
0.0
 11
-1032.348885603058
 21
875.2773430265081
 31
0.0
  0
LINE
  5
3E9
330
1F
100
AcDbEntity
  8
C-9
  6
Continuous
 62
     3
370
     9
100
AcDbLine
 10
-1033.60355479251
 20
842.2773454106921
 30
0.0
 11
-1033.090401716338
 21
842.2773454106921
 31
0.0
  0
LINE
  5
3EA
330
1F
100
AcDbEntity
  8
C-9
  6
Continuous
 62
     3
370
     9
100
AcDbLine
 10
-1049.0988245679
 20
842.2773454106921
 30
0.0
 11
-1048.598855085479
 21
842.2773454106921
 31
0.0
  0
LINE
  5
3EB
330
1F
100
AcDbEntity
  8
C-9
  6
Continuous
 62
     3
370
     9
100
AcDbLine
 10
-1049.848946638213
 20
846.2773587621343
 30
0.0
 11
-1048.598977155791
 21
846.2773587621343
 31
0.0
  0
LINE
  5
3EC
330
1F
100
AcDbEntity
  8
C-9
  6
Continuous
 62
     3
370
     9
100
AcDbLine
 10
-1049.848946638213
 20
846.2773587621343
 30
0.0
 11
-1049.848946638213
 21
875.2773430265081
 31
0.0
  0
LINE
  5
3ED
330
1F
100
AcDbEntity
  8
C-9
  6
Continuous
 62
     3
370
     9
100
AcDbLine
 10
-1032.348885603058
 20
875.2773430265081
 30
0.0
 11
-1049.848946638213
 21
875.2773430265081
 31
0.0
  0
LINE
  5
3EE
330
1F
100
AcDbEntity
  8
C-9
  6
JWW_DASHED2
 62
     3
370
     9
100
AcDbLine
 10
-1034.348916120635
 20
846.1314432538627
 30
0.0
 11
-1034.348916120635
 21
875.2773430265081
 31
0.0
  0
LINE
  5
3EF
330
1F
100
AcDbEntity
  8
C-9
  6
JWW_DASHED2
 62
     3
370
     9
100
AcDbLine
 10
-1047.848946638215
 20
846.1314432538627
 30
0.0
 11
-1047.848946638215
 21
875.2773430265081
 31
0.0
  0
LINE
  5
3F0
330
1F
100
AcDbEntity
  8
C-9
  6
Continuous
 62
     3
370
     9
100
AcDbLine
 10
-532.3489161206364
 20
676.2771103299731
 30
0.0
 11
-533.5989161206364
 21
676.2771103299731
 31
0.0
  0
LINE
  5
3F1
330
1F
100
AcDbEntity
  8
C-9
  6
Continuous
 62
     3
370
     9
100
AcDbLine
 10
-532.3489161206364
 20
676.2771103299731
 30
0.0
 11
-532.3489161206364
 21
647.2771255887626
 31
0.0
  0
LINE
  5
3F2
330
1F
100
AcDbEntity
  8
C-9
  6
Continuous
 62
     3
370
     9
100
AcDbLine
 10
-533.6035547925101
 20
680.2771255887621
 30
0.0
 11
-533.0903711987596
 21
680.2771255887621
 31
0.0
  0
LINE
  5
3F3
330
1F
100
AcDbEntity
  8
C-9
  6
Continuous
 62
     3
370
     9
100
AcDbLine
 10
-549.0987940503239
 20
680.2771255887621
 30
0.0
 11
-548.5988550854793
 21
680.2771255887621
 31
0.0
  0
LINE
  5
3F4
330
1F
100
AcDbEntity
  8
C-9
  6
Continuous
 62
     3
370
     9
100
AcDbLine
 10
-549.8489771557913
 20
676.2771103299731
 30
0.0
 11
-548.5989771557913
 21
676.2771103299731
 31
0.0
  0
LINE
  5
3F5
330
1F
100
AcDbEntity
  8
C-9
  6
Continuous
 62
     3
370
     9
100
AcDbLine
 10
-549.8489771557913
 20
676.2771103299731
 30
0.0
 11
-549.8489771557913
 21
647.2771255887626
 31
0.0
  0
LINE
  5
3F6
330
1F
100
AcDbEntity
  8
C-9
  6
Continuous
 62
     3
370
     9
100
AcDbLine
 10
-532.3489161206364
 20
647.2771255887626
 30
0.0
 11
-549.8489771557913
 21
647.2771255887626
 31
0.0
  0
LINE
  5
3F7
330
1F
100
AcDbEntity
  8
C-9
  6
JWW_DASHED2
 62
     3
370
     9
100
AcDbLine
 10
-534.3489161206346
 20
676.4230148709892
 30
0.0
 11
-534.3489161206346
 21
647.2771255887626
 31
0.0
  0
LINE
  5
3F8
330
1F
100
AcDbEntity
  8
C-9
  6
JWW_DASHED2
 62
     3
370
     9
100
AcDbLine
 10
-547.848916120636
 20
676.4230148709892
 30
0.0
 11
-547.848916120636
 21
647.2771255887626
 31
0.0
  0
LINE
  5
3F9
330
1F
100
AcDbEntity
  8
C-9
  6
Continuous
 62
     3
370
     9
100
AcDbLine
 10
-532.3489161206364
 20
846.2773587621343
 30
0.0
 11
-533.5989161206364
 21
846.2773587621343
 31
0.0
  0
LINE
  5
3FA
330
1F
100
AcDbEntity
  8
C-9
  6
Continuous
 62
     3
370
     9
100
AcDbLine
 10
-532.3489161206364
 20
846.2773587621343
 30
0.0
 11
-532.3489161206364
 21
875.2773430265081
 31
0.0
  0
LINE
  5
3FB
330
1F
100
AcDbEntity
  8
C-9
  6
Continuous
 62
     3
370
     9
100
AcDbLine
 10
-533.6035547925101
 20
842.2773454106921
 30
0.0
 11
-533.0903711987596
 21
842.2773454106921
 31
0.0
  0
LINE
  5
3FC
330
1F
100
AcDbEntity
  8
C-9
  6
Continuous
 62
     3
370
     9
100
AcDbLine
 10
-549.0987940503239
 20
842.2773454106921
 30
0.0
 11
-548.5988550854793
 21
842.2773454106921
 31
0.0
  0
LINE
  5
3FD
330
1F
100
AcDbEntity
  8
C-9
  6
Continuous
 62
     3
370
     9
100
AcDbLine
 10
-549.8489771557913
 20
846.2773587621343
 30
0.0
 11
-548.5989771557913
 21
846.2773587621343
 31
0.0
  0
LINE
  5
3FE
330
1F
100
AcDbEntity
  8
C-9
  6
Continuous
 62
     3
370
     9
100
AcDbLine
 10
-549.8489771557913
 20
846.2773587621343
 30
0.0
 11
-549.8489771557913
 21
875.2773430265081
 31
0.0
  0
LINE
  5
3FF
330
1F
100
AcDbEntity
  8
C-9
  6
Continuous
 62
     3
370
     9
100
AcDbLine
 10
-532.3489161206364
 20
875.2773430265081
 30
0.0
 11
-549.8489771557913
 21
875.2773430265081
 31
0.0
  0
LINE
  5
400
330
1F
100
AcDbEntity
  8
C-9
  6
JWW_DASHED2
 62
     3
370
     9
100
AcDbLine
 10
-534.3489161206346
 20
846.1314432538627
 30
0.0
 11
-534.3489161206346
 21
875.2773430265081
 31
0.0
  0
LINE
  5
401
330
1F
100
AcDbEntity
  8
C-9
  6
JWW_DASHED2
 62
     3
370
     9
100
AcDbLine
 10
-547.848916120636
 20
846.1314432538627
 30
0.0
 11
-547.848916120636
 21
875.2773430265081
 31
0.0
  0
LINE
  5
402
330
1F
100
AcDbEntity
  8
C-9
  6
JWW_CENTER2
 62
     7
370
     9
100
AcDbLine
 10
-1041.098885603058
 20
832.8091642774218
 30
0.0
 11
-1041.098885603058
 21
880.209563485492
 31
0.0
  0
LINE
  5
403
330
1F
100
AcDbEntity
  8
C-9
  6
JWW_CENTER2
 62
     7
370
     9
100
AcDbLine
 10
-1046.874886579619
 20
865.2772972501391
 30
0.0
 11
-1035.322854108918
 21
865.2772972501391
 31
0.0
  0
LINE
  5
404
330
1F
100
AcDbEntity
  8
C-9
  6
JWW_CENTER2
 62
     7
370
     9
100
AcDbLine
 10
-546.874917097198
 20
865.2772972501391
 30
0.0
 11
-535.3228541089177
 21
865.2772972501391
 31
0.0
  0
LINE
  5
405
330
1F
100
AcDbEntity
  8
C-9
  6
JWW_CENTER2
 62
     7
370
     9
100
AcDbLine
 10
-541.0988550854793
 20
832.8091642774218
 30
0.0
 11
-541.0988550854793
 21
880.209563485492
 31
0.0
  0
LINE
  5
406
330
1F
100
AcDbEntity
  8
C-9
  6
JWW_CENTER2
 62
     7
370
     9
100
AcDbLine
 10
-546.874917097198
 20
657.2771713651293
 30
0.0
 11
-535.3228541089177
 21
657.2771713651293
 31
0.0
  0
LINE
  5
407
330
1F
100
AcDbEntity
  8
C-9
  6
JWW_CENTER2
 62
     7
370
     9
100
AcDbLine
 10
-541.0988550854793
 20
689.7452957547791
 30
0.0
 11
-541.0988550854793
 21
642.3449051297787
 31
0.0
  0
LINE
  5
408
330
1F
100
AcDbEntity
  8
C-9
  6
JWW_CENTER2
 62
     7
370
     9
100
AcDbLine
 10
-1046.874886579619
 20
657.2771713651293
 30
0.0
 11
-1035.322854108918
 21
657.2771713651293
 31
0.0
  0
LINE
  5
409
330
1F
100
AcDbEntity
  8
C-9
  6
JWW_CENTER2
 62
     7
370
     9
100
AcDbLine
 10
-1041.098885603058
 20
689.7452957547791
 30
0.0
 11
-1041.098885603058
 21
642.3449051297787
 31
0.0
  0
ARC
  5
40A
330
1F
100
AcDbEntity
  8
C-9
  6
Continuous
 62
     3
370
     9
100
AcDbCircle
 10
-1033.098824567901
 20
682.277095071184
 30
0.0
 40
1.999999642372131
100
AcDbArc
 50
270.2416229248047
 51
330.0007171630859
  0
ARC
  5
40B
330
1F
100
AcDbEntity
  8
C-9
  6
Continuous
 62
     3
370
     9
100
AcDbCircle
 10
-1033.598885603058
 20
678.277125588764
 30
0.0
 40
1.999999642372131
100
AcDbArc
 50
90.13328552246094
 51
270.0
  0
ARC
  5
40C
330
1F
100
AcDbEntity
  8
C-9
  6
Continuous
 62
     3
370
     9
100
AcDbCircle
 10
-1049.0988245679
 20
682.277095071184
 30
0.0
 40
1.999999642372131
100
AcDbArc
 50
209.99951171875
 51
269.7240295410156
  0
ARC
  5
40D
330
1F
100
AcDbEntity
  8
C-9
  6
Continuous
 62
     3
370
     9
100
AcDbCircle
 10
-1048.598977155791
 20
678.277125588764
 30
0.0
 40
1.999999642372131
100
AcDbArc
 50
270.0
 51
90.0
  0
CIRCLE
  5
40E
330
1F
100
AcDbEntity
  8
C-9
  6
Continuous
 62
     3
370
     9
100
AcDbCircle
 10
-1041.098885603058
 20
657.2771713651293
 30
0.0
 40
4.249999523162842
  0
ARC
  5
40F
330
1F
100
AcDbEntity
  8
C-9
  6
Continuous
 62
     3
370
     9
100
AcDbCircle
 10
-1033.098824567901
 20
840.2773635305045
 30
0.0
 40
1.999999642372131
100
AcDbArc
 50
29.99926757812499
 51
89.75836181640622
  0
ARC
  5
410
330
1F
100
AcDbEntity
  8
C-9
  6
Continuous
 62
     3
370
     9
100
AcDbCircle
 10
-1033.598885603058
 20
844.2773396886475
 30
0.0
 40
1.999999642372131
100
AcDbArc
 50
90.0
 51
269.86669921875
  0
ARC
  5
411
330
1F
100
AcDbEntity
  8
C-9
  6
Continuous
 62
     3
370
     9
100
AcDbCircle
 10
-1049.0988245679
 20
840.2773635305045
 30
0.0
 40
1.999999642372131
100
AcDbArc
 50
90.27595520019531
 51
150.0004730224609
  0
ARC
  5
412
330
1F
100
AcDbEntity
  8
C-9
  6
Continuous
 62
     3
370
     9
100
AcDbCircle
 10
-1048.598977155791
 20
844.2773396886475
 30
0.0
 40
1.999999642372131
100
AcDbArc
 50
270.0
 51
90.0
  0
CIRCLE
  5
413
330
1F
100
AcDbEntity
  8
C-9
  6
Continuous
 62
     3
370
     9
100
AcDbCircle
 10
-1041.098885603058
 20
865.2772972501391
 30
0.0
 40
4.249999523162842
  0
ARC
  5
414
330
1F
100
AcDbEntity
  8
C-9
  6
Continuous
 62
     3
370
     9
100
AcDbCircle
 10
-533.0988550854797
 20
682.277095071184
 30
0.0
 40
1.999999642372131
100
AcDbArc
 50
270.2416229248047
 51
330.0007171630859
  0
ARC
  5
415
330
1F
100
AcDbEntity
  8
C-9
  6
Continuous
 62
     3
370
     9
100
AcDbCircle
 10
-533.5989161206364
 20
678.277125588764
 30
0.0
 40
1.999999642372131
100
AcDbArc
 50
90.13328552246094
 51
270.0
  0
ARC
  5
416
330
1F
100
AcDbEntity
  8
C-9
  6
Continuous
 62
     3
370
     9
100
AcDbCircle
 10
-549.0987940503239
 20
682.277095071184
 30
0.0
 40
1.999999642372131
100
AcDbArc
 50
209.99951171875
 51
269.7240295410156
  0
ARC
  5
417
330
1F
100
AcDbEntity
  8
C-9
  6
Continuous
 62
     3
370
     9
100
AcDbCircle
 10
-548.5989771557913
 20
678.277125588764
 30
0.0
 40
1.999999642372131
100
AcDbArc
 50
270.0
 51
90.0
  0
CIRCLE
  5
418
330
1F
100
AcDbEntity
  8
C-9
  6
Continuous
 62
     3
370
     9
100
AcDbCircle
 10
-541.0988550854793
 20
657.2771713651293
 30
0.0
 40
4.249999523162842
  0
ARC
  5
419
330
1F
100
AcDbEntity
  8
C-9
  6
Continuous
 62
     3
370
     9
100
AcDbCircle
 10
-533.0988550854797
 20
840.2773635305045
 30
0.0
 40
1.999999642372131
100
AcDbArc
 50
29.99926757812499
 51
89.75836181640622
  0
ARC
  5
41A
330
1F
100
AcDbEntity
  8
C-9
  6
Continuous
 62
     3
370
     9
100
AcDbCircle
 10
-533.5989161206364
 20
844.2773396886475
 30
0.0
 40
1.999999642372131
100
AcDbArc
 50
90.0
 51
269.86669921875
  0
ARC
  5
41B
330
1F
100
AcDbEntity
  8
C-9
  6
Continuous
 62
     3
370
     9
100
AcDbCircle
 10
-549.0987940503239
 20
840.2773635305045
 30
0.0
 40
1.999999642372131
100
AcDbArc
 50
90.27595520019531
 51
150.0004730224609
  0
ARC
  5
41C
330
1F
100
AcDbEntity
  8
C-9
  6
Continuous
 62
     3
370
     9
100
AcDbCircle
 10
-548.5989771557913
 20
844.2773396886475
 30
0.0
 40
1.999999642372131
100
AcDbArc
 50
270.0
 51
90.0
  0
CIRCLE
  5
41D
330
1F
100
AcDbEntity
  8
C-9
  6
Continuous
 62
     3
370
     9
100
AcDbCircle
 10
-541.0988550854793
 20
865.2772972501391
 30
0.0
 40
4.249999523162842
  0
LINE
  5
41E
330
1F
100
AcDbEntity
  8
C-4
  6
Continuous
 62
     7
370
     9
100
AcDbLine
 10
-541.0987940503221
 20
636.5580704129827
 30
0.0
 11
-541.0987940503221
 21
593.276896706928
 31
0.0
  0
LINE
  5
41F
330
1F
100
AcDbEntity
  8
C-4
  6
Continuous
 62
     7
370
     9
100
AcDbLine
 10
-1041.098885603058
 20
636.5580704129827
 30
0.0
 11
-1041.098885603058
 21
593.276896706928
 31
0.0
  0
LINE
  5
420
330
1F
100
AcDbEntity
  8
C-4
  6
Continuous
 62
     7
370
     9
100
AcDbLine
 10
-1041.098885603058
 20
596.2769577420825
 30
0.0
 11
-541.0987940503221
 21
596.2769577420825
 31
0.0
  0
LWPOLYLINE
  5
421
330
1F
100
AcDbEntity
  8
C-4
  6
Continuous
 62
     7
370
     9
100
AcDbPolyline
 90
        4
 70
     1
 43
1.0
 10
-540.5987940503222
 20
596.2769577420825
 42
0.4142135623731
 10
-541.0987940503221
 20
596.7769577420825
 42
0.4142135623731
 10
-541.5987940503221
 20
596.2769577420825
 42
0.4142135623731
 10
-541.0987940503221
 20
595.7769577420825
 42
0.4142135623731
  0
LWPOLYLINE
  5
422
330
1F
100
AcDbEntity
  8
C-4
  6
Continuous
 62
     7
370
     9
100
AcDbPolyline
 90
        4
 70
     1
 43
1.0
 10
-1040.598885603058
 20
596.2769577420825
 42
0.4142135623731
 10
-1041.098885603058
 20
596.7769577420825
 42
0.4142135623731
 10
-1041.598885603058
 20
596.2769577420825
 42
0.4142135623731
 10
-1041.098885603058
 20
595.7769577420825
 42
0.4142135623731
  0
TEXT
  5
423
330
1F
100
AcDbEntity
  8
C-4
  6
Continuous
 62
     2
370
     9
100
AcDbText
 10
-823.5988550854793
 20
606.9167288602465
 30
0.0
 40
30.48
  1
500
 41
1.083333333333333
  7
ＭＳ ゴシック
100
AcDbText
  0
SOLID
  5
424
330
1F
100
AcDbEntity
  8
C-5
  6
Continuous
 62
     4
370
     9
100
AcDbTrace
 10
-469.5961847973946
 20
854.6472996418992
 30
0.0
 11
-469.5961847973946
 21
894.6472996418992
 31
0.0
 12
-473.5961847973948
 22
854.6472996418992
 32
0.0
 13
-473.5961847973948
 23
894.6472996418992
 33
0.0
  0
LINE
  5
425
330
1F
100
AcDbEntity
  8
C-5
  6
Continuous
 62
     4
370
     9
100
AcDbLine
 10
-461.9300949996825
 20
875.6282965153729
 30
0.0
 11
-412.6807023167408
 21
875.6282965153729
 31
0.0
  0
LINE
  5
426
330
1F
100
AcDbEntity
  8
C-5
  6
Continuous
 62
     4
370
     9
100
AcDbLine
 10
-461.9300949996825
 20
875.6282965153729
 30
0.0
 11
-437.1439734653375
 21
872.3651417098715
 31
0.0
  0
LINE
  5
427
330
1F
100
AcDbEntity
  8
C-5
  6
Continuous
 62
     4
370
     9
100
AcDbLine
 10
-461.9300949996825
 20
875.6282965153729
 30
0.0
 11
-437.1439734653375
 21
878.8914513208742
 31
0.0
  0
TEXT
  5
428
330
1F
100
AcDbEntity
  8
C-5
  6
Continuous
 62
     2
370
     9
100
AcDbText
 10
-404.9699311827903
 20
863.4231144951692
 30
0.0
 40
30.48
  1
A
 41
0.9999999999999998
  7
ＭＳ ゴシック
100
AcDbText
  0
LINE
  5
429
330
1F
100
AcDbEntity
  8
C-5
  6
JWW_CENTER1
 62
     4
370
     9
100
AcDbLine
 10
-471.5961847973945
 20
854.6472996418992
 30
0.0
 11
-471.5961847973945
 21
756.3764891429145
 31
0.0
  0
LINE
  5
42A
330
1F
100
AcDbEntity
  8
D-5
  6
Continuous
 62
     7
370
     9
100
AcDbLine
 10
-991.0181759106905
 20
-991.4782254839695
 30
0.0
 11
-1566.019072364548
 21
-991.4782254839695
 31
0.0
  0
LINE
  5
42B
330
1F
100
AcDbEntity
  8
D-4
  6
Continuous
 62
     7
370
     9
100
AcDbLine
 10
-1543.070207395107
 20
-370.5360725963868
 30
0.0
 11
-1543.070207395107
 21
-295.5360715533055
 31
0.0
  0
LWPOLYLINE
  5
42C
330
1F
100
AcDbEntity
  8
D-4
  6
Continuous
 62
     7
370
     9
100
AcDbPolyline
 90
        4
 70
     1
 43
1.0
 10
-1542.570207395106
 20
-295.5360715533055
 42
0.4142135623731
 10
-1543.070207395107
 20
-295.0360715533055
 42
0.4142135623731
 10
-1543.570207395107
 20
-295.5360715533055
 42
0.4142135623731
 10
-1543.070207395107
 20
-296.0360715533055
 42
0.4142135623731
  0
LWPOLYLINE
  5
42D
330
1F
100
AcDbEntity
  8
D-4
  6
Continuous
 62
     7
370
     9
100
AcDbPolyline
 90
        4
 70
     1
 43
1.0
 10
-1542.570207395106
 20
-370.5360725963868
 42
0.4142135623731
 10
-1543.070207395107
 20
-370.0360725963868
 42
0.4142135623731
 10
-1543.570207395107
 20
-370.5360725963868
 42
0.4142135623731
 10
-1543.070207395107
 20
-371.0360725963867
 42
0.4142135623731
  0
TEXT
  5
42E
330
1F
100
AcDbEntity
  8
D-4
  6
Continuous
 62
     2
370
     9
100
AcDbText
 10
-1553.709482602626
 20
-354.2862015889517
 30
0.0
 40
30.48
  1
15
 50
90.00000250447827
 41
1.062500000000001
  7
ＭＳ ゴシック
100
AcDbText
  0
LINE
  5
42F
330
1F
100
AcDbEntity
  8
D-5
  6
Continuous
 62
     2
370
     9
100
AcDbLine
 10
105.3380645874726
 20
-344.0941953701329
 30
0.0
 11
-119.6617065306914
 21
-344.0941953701329
 31
0.0
  0
LINE
  5
430
330
1F
100
AcDbEntity
  8
D-5
  6
Continuous
 62
     2
370
     9
100
AcDbLine
 10
105.3380645874726
 20
-294.0940320534062
 30
0.0
 11
105.3380645874726
 21
-344.0941953701329
 31
0.0
  0
LINE
  5
431
330
1F
100
AcDbEntity
  8
D-5
  6
Continuous
 62
     2
370
     9
100
AcDbLine
 10
-119.6617065306914
 20
-294.0940320534062
 30
0.0
 11
105.3380645874726
 21
-294.0940320534062
 31
0.0
  0
LINE
  5
432
330
1F
100
AcDbEntity
  8
D-5
  6
Continuous
 62
     2
370
     9
100
AcDbLine
 10
-119.6617065306914
 20
-344.0941953701329
 30
0.0
 11
-119.6617065306914
 21
-294.0940320534062
 31
0.0
  0
TEXT
  5
433
330
1F
100
AcDbEntity
  8
D-5
  6
Continuous
 62
     2
370
     9
100
AcDbText
 10
42.1400512818084
 20
-656.3742829460454
 30
0.0
 40
30.48
  1
　　　サイドバー　ＳＵＳ３０４
 41
1.116666666666667
  7
ＭＳ ゴシック
100
AcDbText
  0
TEXT
  5
434
330
1F
100
AcDbEntity
  8
D-5
  6
Continuous
 62
     2
370
     9
100
AcDbText
 10
-72.16216429436332
 20
-333.4539307255101
 30
0.0
 40
30.48
  1
仕　様
 41
1.083333333333333
  7
ＭＳ ゴシック
100
AcDbText
  0
TEXT
  5
435
330
1F
100
AcDbEntity
  8
D-5
  6
Continuous
 62
     2
370
     9
100
AcDbText
 10
42.1400512818084
 20
-526.3743401665043
 30
0.0
 40
30.48
  1
材質：メインバー　ＳＵＳ３０４　＠１４
 41
1.118421052631579
  7
ＭＳ ゴシック
100
AcDbText
  0
TEXT
  5
436
330
1F
100
AcDbEntity
  8
D-5
  6
Continuous
 62
     2
370
     9
100
AcDbText
 10
42.1400512818084
 20
-714.6661378044438
 30
0.0
 40
30.48
  1
定尺：４９８
 41
1.104166666666669
  7
ＭＳ ゴシック
100
AcDbText
  0
TEXT
  5
437
330
1F
100
AcDbEntity
  8
D-5
  6
Continuous
 62
     2
370
     9
100
AcDbText
 10
-17.5718627806916
 20
-461.3743783134769
 30
0.0
 40
30.48
  1
グレーチング（すきま６mm）　ＺＱ－Ｈ－１５　１５０×５００×１５
 41
1.12109375
  7
ＭＳ ゴシック
100
AcDbText
  0
TEXT
  5
438
330
1F
100
AcDbEntity
  8
D-5
  6
Continuous
 62
     2
370
     9
100
AcDbText
 10
-17.5718627806916
 20
-396.3744116920781
 30
0.0
 40
30.48
  1
ステンレス製　細目ノンスリップタイプ（ローレット模様）
 41
1.12037037037037
  7
ＭＳ ゴシック
100
AcDbText
  0
TEXT
  5
439
330
1F
100
AcDbEntity
  8
D-5
  6
Continuous
 62
     2
370
     9
100
AcDbText
 10
42.1400512818084
 20
-591.3740731376957
 30
0.0
 40
30.48
  1
　　　クロスバー　ＳＵＳ３０４
 41
1.116666666666667
  7
ＭＳ ゴシック
100
AcDbText
  0
TEXT
  5
43A
330
1F
100
AcDbEntity
  8
D-5
  6
Continuous
 62
     2
370
     9
100
AcDbText
 10
-1534.768767188767
 20
-973.3379966021333
 30
0.0
 40
30.48
  1
A断面詳細図　Ｓ＝１：２
 41
1.114130434782609
  7
ＭＳ ゴシック
100
AcDbText
  0
LINE
  5
43B
330
1F
100
AcDbEntity
  8
D-4
  6
Continuous
 62
     7
370
     9
100
AcDbLine
 10
1117.799657729255
 20
534.6327302479126
 30
0.0
 11
1117.799657729255
 21
366.7607473502047
 31
0.0
  0
LINE
  5
43C
330
1F
100
AcDbEntity
  8
D-1
  6
Continuous
 62
     2
370
     9
100
AcDbLine
 10
-1094.024150799493
 20
-385.5347554827488
 30
0.0
 11
-1224.033179115037
 21
-385.5357473040379
 31
0.0
  0
LINE
  5
43D
330
1F
100
AcDbEntity
  8
D-1
  6
Continuous
 62
     2
370
     9
100
AcDbLine
 10
-1224.032187293748
 20
-370.5349319124974
 30
0.0
 11
-1094.024150799493
 21
-370.5359237337864
 31
0.0
  0
LINE
  5
43E
330
1F
100
AcDbEntity
  8
D-1
  6
Continuous
 62
     2
370
     9
100
AcDbLine
 10
-1089.023880194405
 20
-295.5358235979832
 30
0.0
 11
-1074.024059604386
 21
-295.5358235979832
 31
0.0
  0
LINE
  5
43F
330
1F
100
AcDbEntity
  8
D-1
  6
Continuous
 62
     2
370
     9
100
AcDbLine
 10
-1224.024262260178
 20
-385.5357473040379
 30
0.0
 11
-1224.024262260178
 21
-370.5359237337864
 31
0.0
  0
LINE
  5
440
330
1F
100
AcDbEntity
  8
D-1
  6
Continuous
 62
     2
370
     9
100
AcDbLine
 10
-1089.024870823602
 20
-365.5356519366063
 30
0.0
 11
-1089.023880194405
 21
-295.5358235979832
 31
0.0
  0
LINE
  5
441
330
1F
100
AcDbEntity
  8
D-1
  6
Continuous
 62
     2
370
     9
100
AcDbLine
 10
-1074.024059604386
 20
-295.5358235979832
 30
0.0
 11
-1074.025049041489
 21
-365.5346648836888
 31
0.0
  0
LINE
  5
442
330
1F
100
AcDbEntity
  8
D-4
  6
Continuous
 62
     7
370
     9
100
AcDbLine
 10
-1224.024262260178
 20
-177.1168058062352
 30
0.0
 11
-1099.02442140458
 21
-177.1168058062352
 31
0.0
  0
LINE
  5
443
330
1F
100
AcDbEntity
  8
D-4
  6
Continuous
 62
     7
370
     9
100
AcDbLine
 10
-1099.02442140458
 20
-282.5803058291233
 30
0.0
 11
-1099.02442140458
 21
-65.36481071956523
 31
0.0
  0
LINE
  5
444
330
1F
100
AcDbEntity
  8
D-4
  6
Continuous
 62
     7
370
     9
100
AcDbLine
 10
-1089.023880194405
 20
-282.5803058291233
 30
0.0
 11
-1089.023880194405
 21
-65.36481071956523
 31
0.0
  0
LINE
  5
445
330
1F
100
AcDbEntity
  8
D-4
  6
Continuous
 62
     7
370
     9
100
AcDbLine
 10
-1074.025049041489
 20
-282.5803058291233
 30
0.0
 11
-1074.025049041489
 21
45.33181022159688
 31
0.0
  0
LINE
  5
446
330
1F
100
AcDbEntity
  8
D-4
  6
Continuous
 62
     7
370
     9
100
AcDbLine
 10
-1224.024262260178
 20
-830.6188123369969
 30
0.0
 11
-824.0233944165504
 21
-830.6188123369969
 31
0.0
  0
LINE
  5
447
330
1F
100
AcDbEntity
  8
D-4
  6
Continuous
 62
     7
370
     9
100
AcDbLine
 10
-1224.024262260178
 20
-676.1539380694188
 30
0.0
 11
-1074.024059604386
 21
-676.1539380694188
 31
0.0
  0
LINE
  5
448
330
1F
100
AcDbEntity
  8
D-4
  6
Continuous
 62
     7
370
     9
100
AcDbLine
 10
-647.9942081677711
 20
-295.5358235979832
 30
0.0
 11
-549.3394611584938
 21
-295.5358235979832
 31
0.0
  0
LINE
  5
449
330
1F
100
AcDbEntity
  8
D-6
  6
Continuous
 62
     6
370
     9
100
AcDbLine
 10
-824.0243862378395
 20
-420.5356614733495
 30
0.0
 11
-659.0233753430641
 21
-420.5356614733495
 31
0.0
  0
LINE
  5
44A
330
1F
100
AcDbEntity
  8
D-6
  6
Continuous
 62
     6
370
     9
100
AcDbLine
 10
-1224.024262260178
 20
-385.5357473040379
 30
0.0
 11
-1224.024262260178
 21
-770.5348127032079
 31
0.0
  0
LINE
  5
44B
330
1F
100
AcDbEntity
  8
D-6
  6
Continuous
 62
     6
370
     9
100
AcDbLine
 10
-1074.024059604386
 20
-595.5352323199071
 30
0.0
 11
-1074.024059604386
 21
-770.5348127032079
 31
0.0
  0
LINE
  5
44C
330
1F
100
AcDbEntity
  8
D-6
  6
Continuous
 62
     6
370
     9
100
AcDbLine
 10
-824.0243862378395
 20
-420.5356614733495
 30
0.0
 11
-824.0243862378395
 21
-595.5352323199071
 31
0.0
  0
LINE
  5
44D
330
1F
100
AcDbEntity
  8
D-6
  6
Continuous
 62
     6
370
     9
100
AcDbLine
 10
-1074.024059604386
 20
-595.5352323199071
 30
0.0
 11
-824.0243862378395
 21
-595.5352323199071
 31
0.0
  0
LINE
  5
44E
330
1F
100
AcDbEntity
  8
D-4
  6
Continuous
 62
     7
370
     9
100
AcDbLine
 10
-552.3390339124
 20
-595.5357282305516
 30
0.0
 11
-552.3390339124
 21
-295.5358235979832
 31
0.0
  0
LINE
  5
44F
330
1F
100
AcDbEntity
  8
D-4
  6
Continuous
 62
     7
370
     9
100
AcDbLine
 10
-801.7877529370583
 20
-595.5357282305516
 30
0.0
 11
-549.3394611584938
 21
-595.5357282305516
 31
0.0
  0
LINE
  5
450
330
1F
100
AcDbEntity
  8
D-4
  6
Continuous
 62
     7
370
     9
100
AcDbLine
 10
-1224.024262260178
 20
-282.5803058291233
 30
0.0
 11
-1224.024262260178
 21
-174.116250767783
 31
0.0
  0
LINE
  5
451
330
1F
100
AcDbEntity
  8
D-6
  6
Continuous
 62
     6
370
     9
100
AcDbLine
 10
-1074.024059604386
 20
-295.5358235979832
 30
0.0
 11
-659.0233753430641
 21
-295.5358235979832
 31
0.0
  0
LINE
  5
452
330
1F
100
AcDbEntity
  8
D-4
  6
Continuous
 62
     7
370
     9
100
AcDbLine
 10
-1224.024262260178
 20
-795.5351560259618
 30
0.0
 11
-1224.024262260178
 21
-833.6183850909032
 31
0.0
  0
LINE
  5
453
330
1F
100
AcDbEntity
  8
D-0
  6
Continuous
 62
     7
370
     9
100
AcDbLine
 10
-912.3283146130836
 20
-544.2477719927587
 30
0.0
 11
-912.3283146130836
 21
-542.747489705161
 31
0.0
  0
LINE
  5
454
330
1F
100
AcDbEntity
  8
D-0
  6
Continuous
 62
     7
370
     9
100
AcDbLine
 10
-912.3283146130836
 20
-542.747489705161
 30
0.0
 11
-910.8280513989723
 21
-542.747489705161
 31
0.0
  0
LINE
  5
455
330
1F
100
AcDbEntity
  8
D-0
  6
Continuous
 62
     7
370
     9
100
AcDbLine
 10
-910.8280513989723
 20
-542.747489705161
 30
0.0
 11
-910.8280513989723
 21
-544.2477719927587
 31
0.0
  0
LINE
  5
456
330
1F
100
AcDbEntity
  8
D-0
  6
Continuous
 62
     7
370
     9
100
AcDbLine
 10
-910.8280513989723
 20
-544.2477719927587
 30
0.0
 11
-912.3283146130836
 21
-544.2477719927587
 31
0.0
  0
LINE
  5
457
330
1F
100
AcDbEntity
  8
D-0
  6
Continuous
 62
     7
370
     9
100
AcDbLine
 10
-879.1551922070778
 20
-528.5522573138036
 30
0.0
 11
-879.1551922070778
 21
-527.0519750262059
 31
0.0
  0
LINE
  5
458
330
1F
100
AcDbEntity
  8
D-0
  6
Continuous
 62
     7
370
     9
100
AcDbLine
 10
-879.1551922070778
 20
-527.0519750262059
 30
0.0
 11
-877.6549289929665
 21
-527.0519750262059
 31
0.0
  0
LINE
  5
459
330
1F
100
AcDbEntity
  8
D-0
  6
Continuous
 62
     7
370
     9
100
AcDbLine
 10
-877.6549289929665
 20
-527.0519750262059
 30
0.0
 11
-877.6549289929665
 21
-528.5522573138036
 31
0.0
  0
LINE
  5
45A
330
1F
100
AcDbEntity
  8
D-0
  6
Continuous
 62
     7
370
     9
100
AcDbLine
 10
-877.6549289929665
 20
-528.5522573138036
 30
0.0
 11
-879.1551922070778
 21
-528.5522573138036
 31
0.0
  0
LINE
  5
45B
330
1F
100
AcDbEntity
  8
D-0
  6
Continuous
 62
     7
370
     9
100
AcDbLine
 10
-843.9134929883278
 20
-513.5871045733251
 30
0.0
 11
-843.9134929883278
 21
-512.0868413592137
 31
0.0
  0
LINE
  5
45C
330
1F
100
AcDbEntity
  8
D-0
  6
Continuous
 62
     7
370
     9
100
AcDbLine
 10
-843.9134929883278
 20
-512.0868413592137
 30
0.0
 11
-842.4142025220192
 21
-512.0868413592137
 31
0.0
  0
LINE
  5
45D
330
1F
100
AcDbEntity
  8
D-0
  6
Continuous
 62
     7
370
     9
100
AcDbLine
 10
-842.4142025220192
 20
-512.0868413592137
 30
0.0
 11
-842.4142025220192
 21
-513.5871045733251
 31
0.0
  0
LINE
  5
45E
330
1F
100
AcDbEntity
  8
D-0
  6
Continuous
 62
     7
370
     9
100
AcDbLine
 10
-842.4142025220192
 20
-513.5871045733251
 30
0.0
 11
-843.9134929883278
 21
-513.5871045733251
 31
0.0
  0
LINE
  5
45F
330
1F
100
AcDbEntity
  8
D-0
  6
Continuous
 62
     7
370
     9
100
AcDbLine
 10
-882.5382564770973
 20
-564.419738545493
 30
0.0
 11
-882.5382564770973
 21
-562.9194562578954
 31
0.0
  0
LINE
  5
460
330
1F
100
AcDbEntity
  8
D-0
  6
Continuous
 62
     7
370
     9
100
AcDbLine
 10
-882.5382564770973
 20
-562.9194562578954
 30
0.0
 11
-881.0389660107887
 21
-562.9194562578954
 31
0.0
  0
LINE
  5
461
330
1F
100
AcDbEntity
  8
D-0
  6
Continuous
 62
     7
370
     9
100
AcDbLine
 10
-881.0389660107887
 20
-562.9194562578954
 30
0.0
 11
-881.0389660107887
 21
-564.419738545493
 31
0.0
  0
LINE
  5
462
330
1F
100
AcDbEntity
  8
D-0
  6
Continuous
 62
     7
370
     9
100
AcDbLine
 10
-881.0389660107887
 20
-564.419738545493
 30
0.0
 11
-882.5382564770973
 21
-564.419738545493
 31
0.0
  0
LINE
  5
463
330
1F
100
AcDbEntity
  8
D-0
  6
Continuous
 62
     7
370
     9
100
AcDbLine
 10
-929.3253849255836
 20
-580.4532926226415
 30
0.0
 11
-929.3253849255836
 21
-578.9530103350438
 31
0.0
  0
LINE
  5
464
330
1F
100
AcDbEntity
  8
D-0
  6
Continuous
 62
     7
370
     9
100
AcDbLine
 10
-929.3253849255836
 20
-578.9530103350438
 30
0.0
 11
-927.825102637986
 21
-578.9530103350438
 31
0.0
  0
LINE
  5
465
330
1F
100
AcDbEntity
  8
D-0
  6
Continuous
 62
     7
370
     9
100
AcDbLine
 10
-927.825102637986
 20
-578.9530103350438
 30
0.0
 11
-927.825102637986
 21
-580.4532926226415
 31
0.0
  0
LINE
  5
466
330
1F
100
AcDbEntity
  8
D-0
  6
Continuous
 62
     7
370
     9
100
AcDbLine
 10
-927.825102637986
 20
-580.4532926226415
 30
0.0
 11
-929.3253849255836
 21
-580.4532926226415
 31
0.0
  0
LINE
  5
467
330
1F
100
AcDbEntity
  8
D-0
  6
Continuous
 62
     7
370
     9
100
AcDbLine
 10
-850.681605170945
 20
-575.1709096575536
 30
0.0
 11
-850.681605170945
 21
-573.6706273699559
 31
0.0
  0
LINE
  5
468
330
1F
100
AcDbEntity
  8
D-0
  6
Continuous
 62
     7
370
     9
100
AcDbLine
 10
-850.681605170945
 20
-573.6706273699559
 30
0.0
 11
-849.1813228833473
 21
-573.6706273699559
 31
0.0
  0
LINE
  5
469
330
1F
100
AcDbEntity
  8
D-0
  6
Continuous
 62
     7
370
     9
100
AcDbLine
 10
-849.1813228833473
 20
-573.6706273699559
 30
0.0
 11
-849.1813228833473
 21
-575.1709096575536
 31
0.0
  0
LINE
  5
46A
330
1F
100
AcDbEntity
  8
D-0
  6
Continuous
 62
     7
370
     9
100
AcDbLine
 10
-849.1813228833473
 20
-575.1709096575536
 30
0.0
 11
-850.681605170945
 21
-575.1709096575536
 31
0.0
  0
LINE
  5
46B
330
1F
100
AcDbEntity
  8
D-0
  6
Continuous
 62
     7
370
     9
100
AcDbLine
 10
-1046.898131202439
 20
-316.4847390795506
 30
0.0
 11
-1046.898131202439
 21
-314.9844591761387
 31
0.0
  0
LINE
  5
46C
330
1F
100
AcDbEntity
  8
D-0
  6
Continuous
 62
     7
370
     9
100
AcDbLine
 10
-1046.898131202439
 20
-314.9844591761387
 30
0.0
 11
-1045.398840736131
 21
-314.9844591761387
 31
0.0
  0
LINE
  5
46D
330
1F
100
AcDbEntity
  8
D-0
  6
Continuous
 62
     7
370
     9
100
AcDbLine
 10
-1045.398840736131
 20
-314.9844591761387
 30
0.0
 11
-1045.398840736131
 21
-316.4847390795506
 31
0.0
  0
LINE
  5
46E
330
1F
100
AcDbEntity
  8
D-0
  6
Continuous
 62
     7
370
     9
100
AcDbLine
 10
-1045.398840736131
 20
-316.4847390795506
 30
0.0
 11
-1046.898131202439
 21
-316.4847390795506
 31
0.0
  0
LINE
  5
46F
330
1F
100
AcDbEntity
  8
D-0
  6
Continuous
 62
     7
370
     9
100
AcDbLine
 10
-1008.509707282761
 20
-309.2448871279515
 30
0.0
 11
-1008.509707282761
 21
-307.7446072245396
 31
0.0
  0
LINE
  5
470
330
1F
100
AcDbEntity
  8
D-0
  6
Continuous
 62
     7
370
     9
100
AcDbLine
 10
-1008.509707282761
 20
-307.7446072245396
 30
0.0
 11
-1007.010426353196
 21
-307.7446072245396
 31
0.0
  0
LINE
  5
471
330
1F
100
AcDbEntity
  8
D-0
  6
Continuous
 62
     7
370
     9
100
AcDbLine
 10
-1007.010426353196
 20
-307.7446072245396
 30
0.0
 11
-1007.010426353196
 21
-309.2448871279515
 31
0.0
  0
LINE
  5
472
330
1F
100
AcDbEntity
  8
D-0
  6
Continuous
 62
     7
370
     9
100
AcDbLine
 10
-1007.010426353196
 20
-309.2448871279515
 30
0.0
 11
-1008.509707282761
 21
-309.2448871279515
 31
0.0
  0
LINE
  5
473
330
1F
100
AcDbEntity
  8
D-0
  6
Continuous
 62
     7
370
     9
100
AcDbLine
 10
-950.1241634595192
 20
-339.4943111086644
 30
0.0
 11
-950.1241634595192
 21
-337.9940335894383
 31
0.0
  0
LINE
  5
474
330
1F
100
AcDbEntity
  8
D-0
  6
Continuous
 62
     7
370
     9
100
AcDbLine
 10
-950.1241634595192
 20
-337.9940335894383
 30
0.0
 11
-948.6238907086647
 21
-337.9940335894383
 31
0.0
  0
LINE
  5
475
330
1F
100
AcDbEntity
  8
D-0
  6
Continuous
 62
     7
370
     9
100
AcDbLine
 10
-948.6238907086647
 20
-337.9940335894383
 30
0.0
 11
-948.6238907086647
 21
-339.4943111086644
 31
0.0
  0
LINE
  5
476
330
1F
100
AcDbEntity
  8
D-0
  6
Continuous
 62
     7
370
     9
100
AcDbLine
 10
-948.6238907086647
 20
-339.4943111086644
 30
0.0
 11
-950.1241634595192
 21
-339.4943111086644
 31
0.0
  0
LINE
  5
477
330
1F
100
AcDbEntity
  8
D-0
  6
Continuous
 62
     7
370
     9
100
AcDbLine
 10
-926.4377926099098
 20
-318.5151689196385
 30
0.0
 11
-926.4377926099098
 21
-317.0148890162266
 31
0.0
  0
LINE
  5
478
330
1F
100
AcDbEntity
  8
D-0
  6
Continuous
 62
     7
370
     9
100
AcDbLine
 10
-926.4377926099098
 20
-317.0148890162266
 30
0.0
 11
-924.9375103223122
 21
-317.0148890162266
 31
0.0
  0
LINE
  5
479
330
1F
100
AcDbEntity
  8
D-0
  6
Continuous
 62
     7
370
     9
100
AcDbLine
 10
-924.9375103223122
 20
-317.0148890162266
 30
0.0
 11
-924.9375103223122
 21
-318.5151689196385
 31
0.0
  0
LINE
  5
47A
330
1F
100
AcDbEntity
  8
D-0
  6
Continuous
 62
     7
370
     9
100
AcDbLine
 10
-924.9375103223122
 20
-318.5151689196385
 30
0.0
 11
-926.4377926099098
 21
-318.5151689196385
 31
0.0
  0
LINE
  5
47B
330
1F
100
AcDbEntity
  8
D-0
  6
Continuous
 62
     7
370
     9
100
AcDbLine
 10
-918.8194607007301
 20
-471.4314191485204
 30
0.0
 11
-918.8194607007301
 21
-469.9311368609227
 31
0.0
  0
LINE
  5
47C
330
1F
100
AcDbEntity
  8
D-0
  6
Continuous
 62
     7
370
     9
100
AcDbLine
 10
-918.8194607007301
 20
-469.9311368609227
 30
0.0
 11
-917.3191784131325
 21
-469.9311368609227
 31
0.0
  0
LINE
  5
47D
330
1F
100
AcDbEntity
  8
D-0
  6
Continuous
 62
     7
370
     9
100
AcDbLine
 10
-917.3191784131325
 20
-469.9311368609227
 30
0.0
 11
-917.3191784131325
 21
-471.4314191485204
 31
0.0
  0
LINE
  5
47E
330
1F
100
AcDbEntity
  8
D-0
  6
Continuous
 62
     7
370
     9
100
AcDbLine
 10
-917.3191784131325
 20
-471.4314191485204
 30
0.0
 11
-918.8194607007301
 21
-471.4314191485204
 31
0.0
  0
LINE
  5
47F
330
1F
100
AcDbEntity
  8
D-0
  6
Continuous
 62
     7
370
     9
100
AcDbLine
 10
-797.1788929211891
 20
-316.4847390795506
 30
0.0
 11
-797.1788929211891
 21
-314.9844591761387
 31
0.0
  0
LINE
  5
480
330
1F
100
AcDbEntity
  8
D-0
  6
Continuous
 62
     7
370
     9
100
AcDbLine
 10
-797.1788929211891
 20
-314.9844591761387
 30
0.0
 11
-795.6786297070778
 21
-314.9844591761387
 31
0.0
  0
LINE
  5
481
330
1F
100
AcDbEntity
  8
D-0
  6
Continuous
 62
     7
370
     9
100
AcDbLine
 10
-795.6786297070778
 20
-314.9844591761387
 30
0.0
 11
-795.6786297070778
 21
-316.4847390795506
 31
0.0
  0
LINE
  5
482
330
1F
100
AcDbEntity
  8
D-0
  6
Continuous
 62
     7
370
     9
100
AcDbLine
 10
-795.6786297070778
 20
-316.4847390795506
 30
0.0
 11
-797.1788929211891
 21
-316.4847390795506
 31
0.0
  0
LINE
  5
483
330
1F
100
AcDbEntity
  8
D-0
  6
Continuous
 62
     7
370
     9
100
AcDbLine
 10
-746.4230488049782
 20
-319.191979661063
 30
0.0
 11
-746.4230488049782
 21
-317.6916997576512
 31
0.0
  0
LINE
  5
484
330
1F
100
AcDbEntity
  8
D-0
  6
Continuous
 62
     7
370
     9
100
AcDbLine
 10
-746.4230488049782
 20
-317.6916997576512
 30
0.0
 11
-744.9227665173805
 21
-317.6916997576512
 31
0.0
  0
LINE
  5
485
330
1F
100
AcDbEntity
  8
D-0
  6
Continuous
 62
     7
370
     9
100
AcDbLine
 10
-744.9227665173805
 20
-317.6916997576512
 30
0.0
 11
-744.9227665173805
 21
-319.191979661063
 31
0.0
  0
LINE
  5
486
330
1F
100
AcDbEntity
  8
D-0
  6
Continuous
 62
     7
370
     9
100
AcDbLine
 10
-744.9227665173805
 20
-319.191979661063
 30
0.0
 11
-746.4230488049782
 21
-319.191979661063
 31
0.0
  0
LINE
  5
487
330
1F
100
AcDbEntity
  8
D-0
  6
Continuous
 62
     7
370
     9
100
AcDbLine
 10
-681.4552067029274
 20
-317.1615498209752
 30
0.0
 11
-681.4552067029274
 21
-315.6612699175633
 31
0.0
  0
LINE
  5
488
330
1F
100
AcDbEntity
  8
D-0
  6
Continuous
 62
     7
370
     9
100
AcDbLine
 10
-681.4552067029274
 20
-315.6612699175633
 30
0.0
 11
-679.9549244153297
 21
-315.6612699175633
 31
0.0
  0
LINE
  5
489
330
1F
100
AcDbEntity
  8
D-0
  6
Continuous
 62
     7
370
     9
100
AcDbLine
 10
-679.9549244153297
 20
-315.6612699175633
 30
0.0
 11
-679.9549244153297
 21
-317.1615498209752
 31
0.0
  0
LINE
  5
48A
330
1F
100
AcDbEntity
  8
D-0
  6
Continuous
 62
     7
370
     9
100
AcDbLine
 10
-679.9549244153297
 20
-317.1615498209752
 30
0.0
 11
-681.4552067029274
 21
-317.1615498209752
 31
0.0
  0
LINE
  5
48B
330
1F
100
AcDbEntity
  8
D-0
  6
Continuous
 62
     7
370
     9
100
AcDbLine
 10
-716.2291858899391
 20
-347.9103725100316
 30
0.0
 11
-716.2291858899391
 21
-346.4100949908055
 31
0.0
  0
LINE
  5
48C
330
1F
100
AcDbEntity
  8
D-0
  6
Continuous
 62
     7
370
     9
100
AcDbLine
 10
-716.2291858899391
 20
-346.4100949908055
 30
0.0
 11
-714.7289036023415
 21
-346.4100949908055
 31
0.0
  0
LINE
  5
48D
330
1F
100
AcDbEntity
  8
D-0
  6
Continuous
 62
     7
370
     9
100
AcDbLine
 10
-714.7289036023415
 20
-346.4100949908055
 30
0.0
 11
-714.7289036023415
 21
-347.9103725100316
 31
0.0
  0
LINE
  5
48E
330
1F
100
AcDbEntity
  8
D-0
  6
Continuous
 62
     7
370
     9
100
AcDbLine
 10
-714.7289036023415
 20
-347.9103725100316
 30
0.0
 11
-716.2291858899391
 21
-347.9103725100316
 31
0.0
  0
LINE
  5
48F
330
1F
100
AcDbEntity
  8
D-0
  6
Continuous
 62
     7
370
     9
100
AcDbLine
 10
-745.746245216111
 20
-373.3313577318943
 30
0.0
 11
-745.746245216111
 21
-371.8310802126683
 31
0.0
  0
LINE
  5
490
330
1F
100
AcDbEntity
  8
D-0
  6
Continuous
 62
     7
370
     9
100
AcDbLine
 10
-745.746245216111
 20
-371.8310802126683
 30
0.0
 11
-744.2459629285133
 21
-371.8310802126683
 31
0.0
  0
LINE
  5
491
330
1F
100
AcDbEntity
  8
D-0
  6
Continuous
 62
     7
370
     9
100
AcDbLine
 10
-744.2459629285133
 20
-371.8310802126683
 30
0.0
 11
-744.2459629285133
 21
-373.3313577318943
 31
0.0
  0
LINE
  5
492
330
1F
100
AcDbEntity
  8
D-0
  6
Continuous
 62
     7
370
     9
100
AcDbLine
 10
-744.2459629285133
 20
-373.3313577318943
 30
0.0
 11
-745.746245216111
 21
-373.3313577318943
 31
0.0
  0
LINE
  5
493
330
1F
100
AcDbEntity
  8
D-0
  6
Continuous
 62
     7
370
     9
100
AcDbLine
 10
-783.5787723767555
 20
-394.7479837084569
 30
0.0
 11
-783.5787723767555
 21
-393.2477014208592
 31
0.0
  0
LINE
  5
494
330
1F
100
AcDbEntity
  8
D-0
  6
Continuous
 62
     7
370
     9
100
AcDbLine
 10
-783.5787723767555
 20
-393.2477014208592
 30
0.0
 11
-782.0794819104469
 21
-393.2477014208592
 31
0.0
  0
LINE
  5
495
330
1F
100
AcDbEntity
  8
D-0
  6
Continuous
 62
     7
370
     9
100
AcDbLine
 10
-782.0794819104469
 20
-393.2477014208592
 30
0.0
 11
-782.0794819104469
 21
-394.7479837084569
 31
0.0
  0
LINE
  5
496
330
1F
100
AcDbEntity
  8
D-0
  6
Continuous
 62
     7
370
     9
100
AcDbLine
 10
-782.0794819104469
 20
-394.7479837084569
 30
0.0
 11
-783.5787723767555
 21
-394.7479837084569
 31
0.0
  0
LINE
  5
497
330
1F
100
AcDbEntity
  8
D-0
  6
Continuous
 62
     7
370
     9
100
AcDbLine
 10
-798.5325191724098
 20
-358.4430186892308
 30
0.0
 11
-798.5325191724098
 21
-356.9427411700047
 31
0.0
  0
LINE
  5
498
330
1F
100
AcDbEntity
  8
D-0
  6
Continuous
 62
     7
370
     9
100
AcDbLine
 10
-798.5325191724098
 20
-356.9427411700047
 30
0.0
 11
-797.0322368848122
 21
-356.9427411700047
 31
0.0
  0
LINE
  5
499
330
1F
100
AcDbEntity
  8
D-0
  6
Continuous
 62
     7
370
     9
100
AcDbLine
 10
-797.0322368848122
 20
-356.9427411700047
 30
0.0
 11
-797.0322368848122
 21
-358.4430186892308
 31
0.0
  0
LINE
  5
49A
330
1F
100
AcDbEntity
  8
D-0
  6
Continuous
 62
     7
370
     9
100
AcDbLine
 10
-797.0322368848122
 20
-358.4430186892308
 30
0.0
 11
-798.5325191724098
 21
-358.4430186892308
 31
0.0
  0
LINE
  5
49B
330
1F
100
AcDbEntity
  8
D-0
  6
Continuous
 62
     7
370
     9
100
AcDbLine
 10
-714.9424503552711
 20
-404.0894239092626
 30
0.0
 11
-714.9424503552711
 21
-402.5891511584081
 31
0.0
  0
LINE
  5
49C
330
1F
100
AcDbEntity
  8
D-0
  6
Continuous
 62
     7
370
     9
100
AcDbLine
 10
-714.9424503552711
 20
-402.5891511584081
 30
0.0
 11
-713.4431598889626
 21
-402.5891511584081
 31
0.0
  0
LINE
  5
49D
330
1F
100
AcDbEntity
  8
D-0
  6
Continuous
 62
     7
370
     9
100
AcDbLine
 10
-713.4431598889626
 20
-402.5891511584081
 30
0.0
 11
-713.4431598889626
 21
-404.0894239092626
 31
0.0
  0
LINE
  5
49E
330
1F
100
AcDbEntity
  8
D-0
  6
Continuous
 62
     7
370
     9
100
AcDbLine
 10
-713.4431598889626
 20
-404.0894239092626
 30
0.0
 11
-714.9424503552711
 21
-404.0894239092626
 31
0.0
  0
LINE
  5
49F
330
1F
100
AcDbEntity
  8
D-0
  6
Continuous
 62
     7
370
     9
100
AcDbLine
 10
-672.0244739758766
 20
-405.5739896441258
 30
0.0
 11
-672.0244739758766
 21
-404.0737073565282
 31
0.0
  0
LINE
  5
4A0
330
1F
100
AcDbEntity
  8
D-0
  6
Continuous
 62
     7
370
     9
100
AcDbLine
 10
-672.0244739758766
 20
-404.0737073565282
 30
0.0
 11
-670.524191688279
 21
-404.0737073565282
 31
0.0
  0
LINE
  5
4A1
330
1F
100
AcDbEntity
  8
D-0
  6
Continuous
 62
     7
370
     9
100
AcDbLine
 10
-670.524191688279
 20
-404.0737073565282
 30
0.0
 11
-670.524191688279
 21
-405.5739896441258
 31
0.0
  0
LINE
  5
4A2
330
1F
100
AcDbEntity
  8
D-0
  6
Continuous
 62
     7
370
     9
100
AcDbLine
 10
-670.524191688279
 20
-405.5739896441258
 30
0.0
 11
-672.0244739758766
 21
-405.5739896441258
 31
0.0
  0
LINE
  5
4A3
330
1F
100
AcDbEntity
  8
D-0
  6
Continuous
 62
     7
370
     9
100
AcDbLine
 10
-672.6789615857399
 20
-367.0870607043065
 30
0.0
 11
-672.6789615857399
 21
-365.5867784167088
 31
0.0
  0
LINE
  5
4A4
330
1F
100
AcDbEntity
  8
D-0
  6
Continuous
 62
     7
370
     9
100
AcDbLine
 10
-672.6789615857399
 20
-365.5867784167088
 30
0.0
 11
-671.1786792981422
 21
-365.5867784167088
 31
0.0
  0
LINE
  5
4A5
330
1F
100
AcDbEntity
  8
D-0
  6
Continuous
 62
     7
370
     9
100
AcDbLine
 10
-671.1786792981422
 20
-365.5867784167088
 30
0.0
 11
-671.1786792981422
 21
-367.0870607043065
 31
0.0
  0
LINE
  5
4A6
330
1F
100
AcDbEntity
  8
D-0
  6
Continuous
 62
     7
370
     9
100
AcDbLine
 10
-671.1786792981422
 20
-367.0870607043065
 30
0.0
 11
-672.6789615857399
 21
-367.0870607043065
 31
0.0
  0
LINE
  5
4A7
330
1F
100
AcDbEntity
  8
D-0
  6
Continuous
 62
     7
370
     9
100
AcDbLine
 10
-1201.238646339158
 20
-427.0854966784276
 30
0.0
 11
-1201.238646339158
 21
-425.5852143908299
 31
0.0
  0
LINE
  5
4A8
330
1F
100
AcDbEntity
  8
D-0
  6
Continuous
 62
     7
370
     9
100
AcDbLine
 10
-1201.238646339158
 20
-425.5852143908299
 30
0.0
 11
-1199.739355872849
 21
-425.5852143908299
 31
0.0
  0
LINE
  5
4A9
330
1F
100
AcDbEntity
  8
D-0
  6
Continuous
 62
     7
370
     9
100
AcDbLine
 10
-1199.739355872849
 20
-425.5852143908299
 30
0.0
 11
-1199.739355872849
 21
-427.0854966784276
 31
0.0
  0
LINE
  5
4AA
330
1F
100
AcDbEntity
  8
D-0
  6
Continuous
 62
     7
370
     9
100
AcDbLine
 10
-1199.739355872849
 20
-427.0854966784276
 30
0.0
 11
-1201.238646339158
 21
-427.0854966784276
 31
0.0
  0
LINE
  5
4AB
330
1F
100
AcDbEntity
  8
D-0
  6
Continuous
 62
     7
370
     9
100
AcDbLine
 10
-1160.887660812119
 20
-443.4542958880223
 30
0.0
 11
-1160.887660812119
 21
-441.9540136004247
 31
0.0
  0
LINE
  5
4AC
330
1F
100
AcDbEntity
  8
D-0
  6
Continuous
 62
     7
370
     9
100
AcDbLine
 10
-1160.887660812119
 20
-441.9540136004247
 30
0.0
 11
-1159.388370345811
 21
-441.9540136004247
 31
0.0
  0
LINE
  5
4AD
330
1F
100
AcDbEntity
  8
D-0
  6
Continuous
 62
     7
370
     9
100
AcDbLine
 10
-1159.388370345811
 20
-441.9540136004247
 30
0.0
 11
-1159.388370345811
 21
-443.4542958880223
 31
0.0
  0
LINE
  5
4AE
330
1F
100
AcDbEntity
  8
D-0
  6
Continuous
 62
     7
370
     9
100
AcDbLine
 10
-1159.388370345811
 20
-443.4542958880223
 30
0.0
 11
-1160.887660812119
 21
-443.4542958880223
 31
0.0
  0
LINE
  5
4AF
330
1F
100
AcDbEntity
  8
D-0
  6
Continuous
 62
     7
370
     9
100
AcDbLine
 10
-1107.594049404839
 20
-450.6866567278661
 30
0.0
 11
-1107.594049404839
 21
-449.1863744402684
 31
0.0
  0
LINE
  5
4B0
330
1F
100
AcDbEntity
  8
D-0
  6
Continuous
 62
     7
370
     9
100
AcDbLine
 10
-1107.594049404839
 20
-449.1863744402684
 30
0.0
 11
-1106.093770097474
 21
-449.1863744402684
 31
0.0
  0
LINE
  5
4B1
330
1F
100
AcDbEntity
  8
D-0
  6
Continuous
 62
     7
370
     9
100
AcDbLine
 10
-1106.093770097474
 20
-449.1863744402684
 30
0.0
 11
-1106.093770097474
 21
-450.6866567278661
 31
0.0
  0
LINE
  5
4B2
330
1F
100
AcDbEntity
  8
D-0
  6
Continuous
 62
     7
370
     9
100
AcDbLine
 10
-1106.093770097474
 20
-450.6866567278661
 30
0.0
 11
-1107.594049404839
 21
-450.6866567278661
 31
0.0
  0
LINE
  5
4B3
330
1F
100
AcDbEntity
  8
D-0
  6
Continuous
 62
     7
370
     9
100
AcDbLine
 10
-1106.451498101929
 20
-589.130718007163
 30
0.0
 11
-1106.451498101929
 21
-587.6304357195653
 31
0.0
  0
LINE
  5
4B4
330
1F
100
AcDbEntity
  8
D-0
  6
Continuous
 62
     7
370
     9
100
AcDbLine
 10
-1106.451498101929
 20
-587.6304357195653
 30
0.0
 11
-1104.951218794564
 21
-587.6304357195653
 31
0.0
  0
LINE
  5
4B5
330
1F
100
AcDbEntity
  8
D-0
  6
Continuous
 62
     7
370
     9
100
AcDbLine
 10
-1104.951218794564
 20
-587.6304357195653
 30
0.0
 11
-1104.951218794564
 21
-589.130718007163
 31
0.0
  0
LINE
  5
4B6
330
1F
100
AcDbEntity
  8
D-0
  6
Continuous
 62
     7
370
     9
100
AcDbLine
 10
-1104.951218794564
 20
-589.130718007163
 30
0.0
 11
-1106.451498101929
 21
-589.130718007163
 31
0.0
  0
LINE
  5
4B7
330
1F
100
AcDbEntity
  8
D-0
  6
Continuous
 62
     7
370
     9
100
AcDbLine
 10
-1102.895023356656
 20
-542.3961942339696
 30
0.0
 11
-1102.895023356656
 21
-540.8959119463719
 31
0.0
  0
LINE
  5
4B8
330
1F
100
AcDbEntity
  8
D-0
  6
Continuous
 62
     7
370
     9
100
AcDbLine
 10
-1102.895023356656
 20
-540.8959119463719
 30
0.0
 11
-1101.39474404929
 21
-540.8959119463719
 31
0.0
  0
LINE
  5
4B9
330
1F
100
AcDbEntity
  8
D-0
  6
Continuous
 62
     7
370
     9
100
AcDbLine
 10
-1101.39474404929
 20
-540.8959119463719
 30
0.0
 11
-1101.39474404929
 21
-542.3961942339696
 31
0.0
  0
LINE
  5
4BA
330
1F
100
AcDbEntity
  8
D-0
  6
Continuous
 62
     7
370
     9
100
AcDbLine
 10
-1101.39474404929
 20
-542.3961942339696
 30
0.0
 11
-1102.895023356656
 21
-542.3961942339696
 31
0.0
  0
LINE
  5
4BB
330
1F
100
AcDbEntity
  8
D-0
  6
Continuous
 62
     7
370
     9
100
AcDbLine
 10
-1202.761711906174
 20
-592.6771276140965
 30
0.0
 11
-1202.761711906174
 21
-591.1768453264989
 31
0.0
  0
LINE
  5
4BC
330
1F
100
AcDbEntity
  8
D-0
  6
Continuous
 62
     7
370
     9
100
AcDbLine
 10
-1202.761711906174
 20
-591.1768453264989
 30
0.0
 11
-1201.261429618577
 21
-591.1768453264989
 31
0.0
  0
LINE
  5
4BD
330
1F
100
AcDbEntity
  8
D-0
  6
Continuous
 62
     7
370
     9
100
AcDbLine
 10
-1201.261429618577
 20
-591.1768453264989
 30
0.0
 11
-1201.261429618577
 21
-592.6771276140965
 31
0.0
  0
LINE
  5
4BE
330
1F
100
AcDbEntity
  8
D-0
  6
Continuous
 62
     7
370
     9
100
AcDbLine
 10
-1201.261429618577
 20
-592.6771276140965
 30
0.0
 11
-1202.761711906174
 21
-592.6771276140965
 31
0.0
  0
LINE
  5
4BF
330
1F
100
AcDbEntity
  8
D-0
  6
Continuous
 62
     7
370
     9
100
AcDbLine
 10
-1155.237335990647
 20
-596.5637891436376
 30
0.0
 11
-1155.237335990647
 21
-595.0635068560399
 31
0.0
  0
LINE
  5
4C0
330
1F
100
AcDbEntity
  8
D-0
  6
Continuous
 62
     7
370
     9
100
AcDbLine
 10
-1155.237335990647
 20
-595.0635068560399
 30
0.0
 11
-1153.738045524339
 21
-595.0635068560399
 31
0.0
  0
LINE
  5
4C1
330
1F
100
AcDbEntity
  8
D-0
  6
Continuous
 62
     7
370
     9
100
AcDbLine
 10
-1153.738045524339
 20
-595.0635068560399
 30
0.0
 11
-1153.738045524339
 21
-596.5637891436376
 31
0.0
  0
LINE
  5
4C2
330
1F
100
AcDbEntity
  8
D-0
  6
Continuous
 62
     7
370
     9
100
AcDbLine
 10
-1153.738045524339
 20
-596.5637891436376
 30
0.0
 11
-1155.237335990647
 21
-596.5637891436376
 31
0.0
  0
LINE
  5
4C3
330
1F
100
AcDbEntity
  8
D-0
  6
Continuous
 62
     7
370
     9
100
AcDbLine
 10
-1205.177616904954
 20
-538.2508580828465
 30
0.0
 11
-1205.177616904954
 21
-536.7505757952489
 31
0.0
  0
LINE
  5
4C4
330
1F
100
AcDbEntity
  8
D-0
  6
Continuous
 62
     7
370
     9
100
AcDbLine
 10
-1205.177616904954
 20
-536.7505757952489
 30
0.0
 11
-1203.677334617356
 21
-536.7505757952489
 31
0.0
  0
LINE
  5
4C5
330
1F
100
AcDbEntity
  8
D-0
  6
Continuous
 62
     7
370
     9
100
AcDbLine
 10
-1203.677334617356
 20
-536.7505757952489
 30
0.0
 11
-1203.677334617356
 21
-538.2508580828465
 31
0.0
  0
LINE
  5
4C6
330
1F
100
AcDbEntity
  8
D-0
  6
Continuous
 62
     7
370
     9
100
AcDbLine
 10
-1203.677334617356
 20
-538.2508580828465
 30
0.0
 11
-1205.177616904954
 21
-538.2508580828465
 31
0.0
  0
LINE
  5
4C7
330
1F
100
AcDbEntity
  8
D-0
  6
Continuous
 62
     7
370
     9
100
AcDbLine
 10
-1196.288904975632
 20
-701.6535108233251
 30
0.0
 11
-1196.288904975632
 21
-700.1532666827001
 31
0.0
  0
LINE
  5
4C8
330
1F
100
AcDbEntity
  8
D-0
  6
Continuous
 62
     7
370
     9
100
AcDbLine
 10
-1196.288904975632
 20
-700.1532666827001
 30
0.0
 11
-1194.788632224778
 21
-700.1532666827001
 31
0.0
  0
LINE
  5
4C9
330
1F
100
AcDbEntity
  8
D-0
  6
Continuous
 62
     7
370
     9
100
AcDbLine
 10
-1194.788632224778
 20
-700.1532666827001
 30
0.0
 11
-1194.788632224778
 21
-701.6535108233251
 31
0.0
  0
LINE
  5
4CA
330
1F
100
AcDbEntity
  8
D-0
  6
Continuous
 62
     7
370
     9
100
AcDbLine
 10
-1194.788632224778
 20
-701.6535108233251
 30
0.0
 11
-1196.288904975632
 21
-701.6535108233251
 31
0.0
  0
LINE
  5
4CB
330
1F
100
AcDbEntity
  8
D-0
  6
Continuous
 62
     7
370
     9
100
AcDbLine
 10
-1144.517373870591
 20
-697.8463285113133
 30
0.0
 11
-1144.517373870591
 21
-696.3460843706883
 31
0.0
  0
LINE
  5
4CC
330
1F
100
AcDbEntity
  8
D-0
  6
Continuous
 62
     7
370
     9
100
AcDbLine
 10
-1144.517373870591
 20
-696.3460843706883
 30
0.0
 11
-1143.018083404282
 21
-696.3460843706883
 31
0.0
  0
LINE
  5
4CD
330
1F
100
AcDbEntity
  8
D-0
  6
Continuous
 62
     7
370
     9
100
AcDbLine
 10
-1143.018083404282
 20
-696.3460843706883
 30
0.0
 11
-1143.018083404282
 21
-697.8463285113133
 31
0.0
  0
LINE
  5
4CE
330
1F
100
AcDbEntity
  8
D-0
  6
Continuous
 62
     7
370
     9
100
AcDbLine
 10
-1143.018083404282
 20
-697.8463285113133
 30
0.0
 11
-1144.517373870591
 21
-697.8463285113133
 31
0.0
  0
LINE
  5
4CF
330
1F
100
AcDbEntity
  8
D-0
  6
Continuous
 62
     7
370
     9
100
AcDbLine
 10
-1094.649432133416
 20
-699.7499387408055
 30
0.0
 11
-1094.649432133416
 21
-698.2496564532079
 31
0.0
  0
LINE
  5
4D0
330
1F
100
AcDbEntity
  8
D-0
  6
Continuous
 62
     7
370
     9
100
AcDbLine
 10
-1094.649432133416
 20
-698.2496564532079
 30
0.0
 11
-1093.150143455247
 21
-698.2496564532079
 31
0.0
  0
LINE
  5
4D1
330
1F
100
AcDbEntity
  8
D-0
  6
Continuous
 62
     7
370
     9
100
AcDbLine
 10
-1093.150143455247
 20
-698.2496564532079
 30
0.0
 11
-1093.150143455247
 21
-699.7499387408055
 31
0.0
  0
LINE
  5
4D2
330
1F
100
AcDbEntity
  8
D-0
  6
Continuous
 62
     7
370
     9
100
AcDbLine
 10
-1093.150143455247
 20
-699.7499387408055
 30
0.0
 11
-1094.649432133416
 21
-699.7499387408055
 31
0.0
  0
LINE
  5
4D3
330
1F
100
AcDbEntity
  8
D-0
  6
Continuous
 62
     7
370
     9
100
AcDbLine
 10
-1119.393143485764
 20
-725.6352155352391
 30
0.0
 11
-1119.393143485764
 21
-724.1349332476415
 31
0.0
  0
LINE
  5
4D4
330
1F
100
AcDbEntity
  8
D-0
  6
Continuous
 62
     7
370
     9
100
AcDbLine
 10
-1119.393143485764
 20
-724.1349332476415
 30
0.0
 11
-1117.892863582352
 21
-724.1349332476415
 31
0.0
  0
LINE
  5
4D5
330
1F
100
AcDbEntity
  8
D-0
  6
Continuous
 62
     7
370
     9
100
AcDbLine
 10
-1117.892863582352
 20
-724.1349332476415
 30
0.0
 11
-1117.892863582352
 21
-725.6352155352391
 31
0.0
  0
LINE
  5
4D6
330
1F
100
AcDbEntity
  8
D-0
  6
Continuous
 62
     7
370
     9
100
AcDbLine
 10
-1117.892863582352
 20
-725.6352155352391
 30
0.0
 11
-1119.393143485764
 21
-725.6352155352391
 31
0.0
  0
LINE
  5
4D7
330
1F
100
AcDbEntity
  8
D-0
  6
Continuous
 62
     7
370
     9
100
AcDbLine
 10
-1159.74411947606
 20
-737.4362867022313
 30
0.0
 11
-1159.74411947606
 21
-735.9360044146337
 31
0.0
  0
LINE
  5
4D8
330
1F
100
AcDbEntity
  8
D-0
  6
Continuous
 62
     7
370
     9
100
AcDbLine
 10
-1159.74411947606
 20
-735.9360044146337
 30
0.0
 11
-1158.244829009751
 21
-735.9360044146337
 31
0.0
  0
LINE
  5
4D9
330
1F
100
AcDbEntity
  8
D-0
  6
Continuous
 62
     7
370
     9
100
AcDbLine
 10
-1158.244829009751
 20
-735.9360044146337
 30
0.0
 11
-1158.244829009751
 21
-737.4362867022313
 31
0.0
  0
LINE
  5
4DA
330
1F
100
AcDbEntity
  8
D-0
  6
Continuous
 62
     7
370
     9
100
AcDbLine
 10
-1158.244829009751
 20
-737.4362867022313
 30
0.0
 11
-1159.74411947606
 21
-737.4362867022313
 31
0.0
  0
LINE
  5
4DB
330
1F
100
AcDbEntity
  8
D-0
  6
Continuous
 62
     7
370
     9
100
AcDbLine
 10
-1206.947436164597
 20
-735.152160420493
 30
0.0
 11
-1206.947436164597
 21
-733.6518781328954
 31
0.0
  0
LINE
  5
4DC
330
1F
100
AcDbEntity
  8
D-0
  6
Continuous
 62
     7
370
     9
100
AcDbLine
 10
-1206.947436164597
 20
-733.6518781328954
 30
0.0
 11
-1205.447153877
 21
-733.6518781328954
 31
0.0
  0
LINE
  5
4DD
330
1F
100
AcDbEntity
  8
D-0
  6
Continuous
 62
     7
370
     9
100
AcDbLine
 10
-1205.447153877
 20
-733.6518781328954
 30
0.0
 11
-1205.447153877
 21
-735.152160420493
 31
0.0
  0
LINE
  5
4DE
330
1F
100
AcDbEntity
  8
D-0
  6
Continuous
 62
     7
370
     9
100
AcDbLine
 10
-1205.447153877
 20
-735.152160420493
 30
0.0
 11
-1206.947436164597
 21
-735.152160420493
 31
0.0
  0
LINE
  5
4DF
330
1F
100
AcDbEntity
  8
D-0
  6
Continuous
 62
     7
370
     9
100
AcDbLine
 10
-1190.579123328904
 20
-763.7025754595555
 30
0.0
 11
-1190.579123328904
 21
-762.2022931719579
 31
0.0
  0
LINE
  5
4E0
330
1F
100
AcDbEntity
  8
D-0
  6
Continuous
 62
     7
370
     9
100
AcDbLine
 10
-1190.579123328904
 20
-762.2022931719579
 30
0.0
 11
-1189.078850578049
 21
-762.2022931719579
 31
0.0
  0
LINE
  5
4E1
330
1F
100
AcDbEntity
  8
D-0
  6
Continuous
 62
     7
370
     9
100
AcDbLine
 10
-1189.078850578049
 20
-762.2022931719579
 30
0.0
 11
-1189.078850578049
 21
-763.7025754595555
 31
0.0
  0
LINE
  5
4E2
330
1F
100
AcDbEntity
  8
D-0
  6
Continuous
 62
     7
370
     9
100
AcDbLine
 10
-1189.078850578049
 20
-763.7025754595555
 30
0.0
 11
-1190.579123328904
 21
-763.7025754595555
 31
0.0
  0
LINE
  5
4E3
330
1F
100
AcDbEntity
  8
D-0
  6
Continuous
 62
     7
370
     9
100
AcDbLine
 10
-1138.807592223862
 20
-762.179977192954
 30
0.0
 11
-1138.807592223862
 21
-760.6796949053563
 31
0.0
  0
LINE
  5
4E4
330
1F
100
AcDbEntity
  8
D-0
  6
Continuous
 62
     7
370
     9
100
AcDbLine
 10
-1138.807592223862
 20
-760.6796949053563
 30
0.0
 11
-1137.307312320451
 21
-760.6796949053563
 31
0.0
  0
LINE
  5
4E5
330
1F
100
AcDbEntity
  8
D-0
  6
Continuous
 62
     7
370
     9
100
AcDbLine
 10
-1137.307312320451
 20
-760.6796949053563
 30
0.0
 11
-1137.307312320451
 21
-762.179977192954
 31
0.0
  0
LINE
  5
4E6
330
1F
100
AcDbEntity
  8
D-0
  6
Continuous
 62
     7
370
     9
100
AcDbLine
 10
-1137.307312320451
 20
-762.179977192954
 30
0.0
 11
-1138.807592223862
 21
-762.179977192954
 31
0.0
  0
LINE
  5
4E7
330
1F
100
AcDbEntity
  8
D-0
  6
Continuous
 62
     7
370
     9
100
AcDbLine
 10
-1100.740725229958
 20
-762.179977192954
 30
0.0
 11
-1100.740725229958
 21
-760.6796949053563
 31
0.0
  0
LINE
  5
4E8
330
1F
100
AcDbEntity
  8
D-0
  6
Continuous
 62
     7
370
     9
100
AcDbLine
 10
-1100.740725229958
 20
-760.6796949053563
 30
0.0
 11
-1099.240445792208
 21
-760.6796949053563
 31
0.0
  0
LINE
  5
4E9
330
1F
100
AcDbEntity
  8
D-0
  6
Continuous
 62
     7
370
     9
100
AcDbLine
 10
-1099.240445792208
 20
-760.6796949053563
 30
0.0
 11
-1099.240445792208
 21
-762.179977192954
 31
0.0
  0
LINE
  5
4EA
330
1F
100
AcDbEntity
  8
D-0
  6
Continuous
 62
     7
370
     9
100
AcDbLine
 10
-1099.240445792208
 20
-762.179977192954
 30
0.0
 11
-1100.740725229958
 21
-762.179977192954
 31
0.0
  0
LINE
  5
4EB
330
1F
100
AcDbEntity
  8
D-0
  6
Continuous
 62
     7
370
     9
100
AcDbLine
 10
-1041.240372489671
 20
-519.2963521624364
 30
0.0
 11
-1041.240372489671
 21
-517.7955739641942
 31
0.0
  0
LINE
  5
4EC
330
1F
100
AcDbEntity
  8
D-0
  6
Continuous
 62
     7
370
     9
100
AcDbLine
 10
-1041.240372489671
 20
-517.7955739641942
 30
0.0
 11
-1039.740094970444
 21
-517.7955739641942
 31
0.0
  0
LINE
  5
4ED
330
1F
100
AcDbEntity
  8
D-0
  6
Continuous
 62
     7
370
     9
100
AcDbLine
 10
-1039.740094970444
 20
-517.7955739641942
 30
0.0
 11
-1039.740094970444
 21
-519.2963521624364
 31
0.0
  0
LINE
  5
4EE
330
1F
100
AcDbEntity
  8
D-0
  6
Continuous
 62
     7
370
     9
100
AcDbLine
 10
-1039.740094970444
 20
-519.2963521624364
 30
0.0
 11
-1041.240372489671
 21
-519.2963521624364
 31
0.0
  0
LINE
  5
4EF
330
1F
100
AcDbEntity
  8
D-0
  6
Continuous
 62
     7
370
     9
100
AcDbLine
 10
-1034.994988273362
 20
-449.5148866320409
 30
0.0
 11
-1034.994988273362
 21
-448.0146043444432
 31
0.0
  0
LINE
  5
4F0
330
1F
100
AcDbEntity
  8
D-0
  6
Continuous
 62
     7
370
     9
100
AcDbLine
 10
-1034.994988273362
 20
-448.0146043444432
 30
0.0
 11
-1033.495702575425
 21
-448.0146043444432
 31
0.0
  0
LINE
  5
4F1
330
1F
100
AcDbEntity
  8
D-0
  6
Continuous
 62
     7
370
     9
100
AcDbLine
 10
-1033.495702575425
 20
-448.0146043444432
 30
0.0
 11
-1033.495702575425
 21
-449.5148866320409
 31
0.0
  0
LINE
  5
4F2
330
1F
100
AcDbEntity
  8
D-0
  6
Continuous
 62
     7
370
     9
100
AcDbLine
 10
-1033.495702575425
 20
-449.5148866320409
 30
0.0
 11
-1034.994988273362
 21
-449.5148866320409
 31
0.0
  0
LINE
  5
4F3
330
1F
100
AcDbEntity
  8
D-0
  6
Continuous
 62
     7
370
     9
100
AcDbLine
 10
-1181.326746772507
 20
-619.2566602373876
 30
0.0
 11
-1181.326746772507
 21
-617.7563779497899
 31
0.0
  0
LINE
  5
4F4
330
1F
100
AcDbEntity
  8
D-0
  6
Continuous
 62
     7
370
     9
100
AcDbLine
 10
-1181.326746772507
 20
-617.7563779497899
 30
0.0
 11
-1179.82646448491
 21
-617.7563779497899
 31
0.0
  0
LINE
  5
4F5
330
1F
100
AcDbEntity
  8
D-0
  6
Continuous
 62
     7
370
     9
100
AcDbLine
 10
-1179.82646448491
 20
-617.7563779497899
 30
0.0
 11
-1179.82646448491
 21
-619.2566602373876
 31
0.0
  0
LINE
  5
4F6
330
1F
100
AcDbEntity
  8
D-0
  6
Continuous
 62
     7
370
     9
100
AcDbLine
 10
-1179.82646448491
 20
-619.2566602373876
 30
0.0
 11
-1181.326746772507
 21
-619.2566602373876
 31
0.0
  0
LINE
  5
4F7
330
1F
100
AcDbEntity
  8
D-0
  6
Continuous
 62
     7
370
     9
100
AcDbLine
 10
-1124.309184383134
 20
-621.8289106035985
 30
0.0
 11
-1124.309184383134
 21
-620.3286283160008
 31
0.0
  0
LINE
  5
4F8
330
1F
100
AcDbEntity
  8
D-0
  6
Continuous
 62
     7
370
     9
100
AcDbLine
 10
-1124.309184383134
 20
-620.3286283160008
 30
0.0
 11
-1122.808904479722
 21
-620.3286283160008
 31
0.0
  0
LINE
  5
4F9
330
1F
100
AcDbEntity
  8
D-0
  6
Continuous
 62
     7
370
     9
100
AcDbLine
 10
-1122.808904479722
 20
-620.3286283160008
 30
0.0
 11
-1122.808904479722
 21
-621.8289106035985
 31
0.0
  0
LINE
  5
4FA
330
1F
100
AcDbEntity
  8
D-0
  6
Continuous
 62
     7
370
     9
100
AcDbLine
 10
-1122.808904479722
 20
-621.8289106035985
 30
0.0
 11
-1124.309184383134
 21
-621.8289106035985
 31
0.0
  0
LINE
  5
4FB
330
1F
100
AcDbEntity
  8
D-4
  6
Continuous
 62
     7
370
     9
100
AcDbLine
 10
-824.0233944165504
 20
-614.6794812823094
 30
0.0
 11
-824.0233944165504
 21
-833.6183850909032
 31
0.0
  0
LINE
  5
4FC
330
1F
100
AcDbEntity
  8
D-0
  6
Continuous
 62
     7
370
     9
100
AcDbLine
 10
-1046.739086936692
 20
-349.1527335787571
 30
0.0
 11
-1046.739086936692
 21
-347.6524512911595
 31
0.0
  0
LINE
  5
4FD
330
1F
100
AcDbEntity
  8
D-0
  6
Continuous
 62
     7
370
     9
100
AcDbLine
 10
-1046.739086936692
 20
-347.6524512911595
 30
0.0
 11
-1045.238804649094
 21
-347.6524512911595
 31
0.0
  0
LINE
  5
4FE
330
1F
100
AcDbEntity
  8
D-0
  6
Continuous
 62
     7
370
     9
100
AcDbLine
 10
-1045.238804649094
 20
-347.6524512911595
 30
0.0
 11
-1045.238804649094
 21
-349.1527335787571
 31
0.0
  0
LINE
  5
4FF
330
1F
100
AcDbEntity
  8
D-0
  6
Continuous
 62
     7
370
     9
100
AcDbLine
 10
-1045.238804649094
 20
-349.1527335787571
 30
0.0
 11
-1046.739086936692
 21
-349.1527335787571
 31
0.0
  0
LINE
  5
500
330
1F
100
AcDbEntity
  8
D-0
  6
Continuous
 62
     7
370
     9
100
AcDbLine
 10
-926.4972446667946
 20
-364.433838620261
 30
0.0
 11
-926.4972446667946
 21
-362.933561101035
 31
0.0
  0
LINE
  5
501
330
1F
100
AcDbEntity
  8
D-0
  6
Continuous
 62
     7
370
     9
100
AcDbLine
 10
-926.4972446667946
 20
-362.933561101035
 30
0.0
 11
-924.9969623791969
 21
-362.933561101035
 31
0.0
  0
LINE
  5
502
330
1F
100
AcDbEntity
  8
D-0
  6
Continuous
 62
     7
370
     9
100
AcDbLine
 10
-924.9969623791969
 20
-362.933561101035
 30
0.0
 11
-924.9969623791969
 21
-364.433838620261
 31
0.0
  0
LINE
  5
503
330
1F
100
AcDbEntity
  8
D-0
  6
Continuous
 62
     7
370
     9
100
AcDbLine
 10
-924.9969623791969
 20
-364.433838620261
 30
0.0
 11
-926.4972446667946
 21
-364.433838620261
 31
0.0
  0
LINE
  5
504
330
1F
100
AcDbEntity
  8
D-0
  6
Continuous
 62
     7
370
     9
100
AcDbLine
 10
-976.3765762555397
 20
-317.8362839365757
 30
0.0
 11
-976.3765762555397
 21
-316.3360040331639
 31
0.0
  0
LINE
  5
505
330
1F
100
AcDbEntity
  8
D-0
  6
Continuous
 62
     7
370
     9
100
AcDbLine
 10
-976.3765762555397
 20
-316.3360040331639
 30
0.0
 11
-974.8763035046852
 21
-316.3360040331639
 31
0.0
  0
LINE
  5
506
330
1F
100
AcDbEntity
  8
D-0
  6
Continuous
 62
     7
370
     9
100
AcDbLine
 10
-974.8763035046852
 20
-316.3360040331639
 30
0.0
 11
-974.8763035046852
 21
-317.8362839365757
 31
0.0
  0
LINE
  5
507
330
1F
100
AcDbEntity
  8
D-0
  6
Continuous
 62
     7
370
     9
100
AcDbLine
 10
-974.8763035046852
 20
-317.8362839365757
 30
0.0
 11
-976.3765762555397
 21
-317.8362839365757
 31
0.0
  0
LINE
  5
508
330
1F
100
AcDbEntity
  8
D-6
  6
Continuous
 62
     6
370
     9
100
AcDbLine
 10
-824.0243862378395
 20
-516.5446202898778
 30
0.0
 11
-728.0134342419899
 21
-420.5346696520604
 31
0.0
  0
LINE
  5
509
330
1F
100
AcDbEntity
  8
D-6
  6
Continuous
 62
     6
370
     9
100
AcDbLine
 10
-824.0243862378395
 20
-530.6862943316258
 30
0.0
 11
-713.8727329480446
 21
-420.5346696520604
 31
0.0
  0
LINE
  5
50A
330
1F
100
AcDbEntity
  8
D-6
  6
Continuous
 62
     6
370
     9
100
AcDbLine
 10
-1074.024059604386
 20
-766.5433042193212
 30
0.0
 11
-903.0149982678688
 21
-595.5352323199071
 31
0.0
  0
LINE
  5
50B
330
1F
100
AcDbEntity
  8
D-6
  6
Continuous
 62
     6
370
     9
100
AcDbLine
 10
-1063.873884509782
 20
-770.5348127032079
 30
0.0
 11
-888.8743160474098
 21
-595.5352323199071
 31
0.0
  0
LINE
  5
50C
330
1F
100
AcDbEntity
  8
D-6
  6
Continuous
 62
     6
370
     9
100
AcDbLine
 10
-824.0243862378395
 20
-544.8269765520848
 30
0.0
 11
-699.7320698010719
 21
-420.5346696520604
 31
0.0
  0
LINE
  5
50D
330
1F
100
AcDbEntity
  8
D-6
  6
Continuous
 62
     6
370
     9
100
AcDbLine
 10
-1049.734196494798
 20
-770.5348127032079
 30
0.0
 11
-874.7336338269508
 21
-595.5352323199071
 31
0.0
  0
LINE
  5
50E
330
1F
100
AcDbEntity
  8
D-4
  6
Continuous
 62
     7
370
     9
100
AcDbLine
 10
-1224.024262260178
 20
-503.6380307818212
 30
0.0
 11
-1074.024150203446
 21
-503.6380307818212
 31
0.0
  0
LINE
  5
50F
330
1F
100
AcDbEntity
  8
D-4
  6
Continuous
 62
     7
370
     9
100
AcDbLine
 10
-1074.024150203446
 20
-503.6380307818212
 30
0.0
 11
-904.0239284741676
 21
-503.6380307818212
 31
0.0
  0
LINE
  5
510
330
1F
100
AcDbEntity
  8
D-4
  6
Continuous
 62
     7
370
     9
100
AcDbLine
 10
-904.0239284741676
 20
-506.638042225913
 30
0.0
 11
-904.0239284741676
 21
-422.0343606615819
 31
0.0
  0
LINE
  5
511
330
1F
100
AcDbEntity
  8
D-4
  6
Continuous
 62
     7
370
     9
100
AcDbLine
 10
-1040.022015403489
 20
-385.5352513933934
 30
0.0
 11
-841.0673855054176
 21
-385.5352513933934
 31
0.0
  0
LINE
  5
512
330
1F
100
AcDbEntity
  8
D-4
  6
Continuous
 62
     7
370
     9
100
AcDbLine
 10
-844.067950080613
 20
-295.5358235979832
 30
0.0
 11
-844.067950080613
 21
-385.5352513933934
 31
0.0
  0
LINE
  5
513
330
1F
100
AcDbEntity
  8
D-4
  6
Continuous
 62
     7
370
     9
100
AcDbLine
 10
-841.0679577100075
 20
-417.034427418784
 30
0.0
 11
-899.0239284741676
 21
-417.034427418784
 31
0.0
  0
LINE
  5
514
330
1F
100
AcDbEntity
  8
D-4
  6
Continuous
 62
     7
370
     9
100
AcDbLine
 10
-844.067950080613
 20
-385.5352513933934
 30
0.0
 11
-844.067950080613
 21
-502.2853772784032
 31
0.0
  0
LINE
  5
515
330
1F
100
AcDbEntity
  8
D-4
  6
Continuous
 62
     7
370
     9
100
AcDbLine
 10
-1074.024150203446
 20
-506.638042225913
 30
0.0
 11
-1074.024150203446
 21
-422.0343606615819
 31
0.0
  0
LINE
  5
516
330
1F
100
AcDbEntity
  8
D-5
  6
Continuous
 62
     7
370
     9
100
AcDbLine
 10
-1055.905213187913
 20
-388.0343930865086
 30
0.0
 11
-1042.093524764756
 21
-367.19597031124
 31
0.0
  0
LINE
  5
517
330
1F
100
AcDbEntity
  8
D-5
  6
Continuous
 62
     7
370
     9
100
AcDbLine
 10
-1055.905213187913
 20
-388.0343930865086
 30
0.0
 11
-1037.171535323838
 21
-371.480285420493
 31
0.0
  0
LINE
  5
518
330
1F
100
AcDbEntity
  8
D-5
  6
Continuous
 62
     7
370
     9
100
AcDbLine
 10
-881.3560817944801
 20
-187.4869649554051
 30
0.0
 11
-1055.905213187913
 21
-388.0343930865086
 31
0.0
  0
LINE
  5
519
330
1F
100
AcDbEntity
  8
D-9
  6
Continuous
 62
     4
370
     9
100
AcDbLine
 10
-1034.023971389512
 20
-417.034427418784
 30
0.0
 11
-919.0239284741676
 21
-417.034427418784
 31
0.0
  0
LINE
  5
51A
330
1F
100
AcDbEntity
  8
D-9
  6
Continuous
 62
     4
370
     9
100
AcDbLine
 10
-1049.024042915086
 20
-402.0343606615819
 30
0.0
 11
-1049.024042915086
 21
-388.0343930865086
 31
0.0
  0
LINE
  5
51B
330
1F
100
AcDbEntity
  8
D-9
  6
Continuous
 62
     4
370
     9
100
AcDbLine
 10
-904.0241192090309
 20
-402.0343606615819
 30
0.0
 11
-904.0241192090309
 21
-388.0343930865086
 31
0.0
  0
LINE
  5
51C
330
1F
100
AcDbEntity
  8
D-9
  6
Continuous
 62
     4
370
     9
100
AcDbLine
 10
-1069.024135898331
 20
-398.0344407702245
 30
0.0
 11
-1069.024135898331
 21
-388.0343930865086
 31
0.0
  0
LINE
  5
51D
330
1F
100
AcDbEntity
  8
D-9
  6
Continuous
 62
     4
370
     9
100
AcDbLine
 10
-1048.999018501023
 20
-398.0344407702245
 30
0.0
 11
-1099.023846880242
 21
-398.0344407702245
 31
0.0
  0
LINE
  5
51E
330
1F
100
AcDbEntity
  8
D-9
  6
Continuous
 62
     4
370
     9
100
AcDbLine
 10
-904.0241192090309
 20
-388.0343930865086
 30
0.0
 11
-1099.023846880242
 21
-388.0343930865086
 31
0.0
  0
LINE
  5
51F
330
1F
100
AcDbEntity
  8
D-9
  6
Continuous
 62
     3
370
     9
100
AcDbLine
 10
-1199.02417642949
 20
-385.5357473040379
 30
0.0
 11
-1199.02417642949
 21
-408.0357282305516
 31
0.0
  0
LINE
  5
520
330
1F
100
AcDbEntity
  8
D-9
  6
Continuous
 62
     3
370
     9
100
AcDbLine
 10
-1099.023846880242
 20
-408.0357282305516
 30
0.0
 11
-1199.02417642949
 21
-408.0357282305516
 31
0.0
  0
LINE
  5
521
330
1F
100
AcDbEntity
  8
D-9
  6
Continuous
 62
     3
370
     9
100
AcDbLine
 10
-1099.023846880242
 20
-385.5357473040379
 30
0.0
 11
-1199.02417642949
 21
-385.5357473040379
 31
0.0
  0
LINE
  5
522
330
1F
100
AcDbEntity
  8
D-9
  6
Continuous
 62
     2
370
     9
100
AcDbLine
 10
-1135.274276565293
 20
-410.5343740130223
 30
0.0
 11
-1135.274276565293
 21
-408.0357282305516
 31
0.0
  0
LINE
  5
523
330
1F
100
AcDbEntity
  8
D-9
  6
Continuous
 62
     2
370
     9
100
AcDbLine
 10
-1144.024987052659
 20
-418.0337827349462
 30
0.0
 11
-1135.274276565293
 21
-410.5343740130223
 31
0.0
  0
LINE
  5
524
330
1F
100
AcDbEntity
  8
D-9
  6
Continuous
 62
     2
370
     9
100
AcDbLine
 10
-1154.02390463231
 20
-418.0337827349462
 30
0.0
 11
-1144.024987052659
 21
-418.0337827349462
 31
0.0
  0
LINE
  5
525
330
1F
100
AcDbEntity
  8
D-9
  6
Continuous
 62
     2
370
     9
100
AcDbLine
 10
-1162.774367164353
 20
-410.5343740130223
 30
0.0
 11
-1154.02390463231
 21
-418.0337827349462
 31
0.0
  0
LINE
  5
526
330
1F
100
AcDbEntity
  8
D-9
  6
Continuous
 62
     2
370
     9
100
AcDbLine
 10
-1162.774367164353
 20
-410.5343740130223
 30
0.0
 11
-1162.774367164353
 21
-408.0357282305516
 31
0.0
  0
LINE
  5
527
330
1F
100
AcDbEntity
  8
D-9
  6
Continuous
 62
     2
370
     9
100
AcDbLine
 10
-1162.774367164353
 20
-410.5343740130223
 30
0.0
 11
-1135.274276565293
 21
-410.5343740130223
 31
0.0
  0
LINE
  5
528
330
1F
100
AcDbEntity
  8
D-9
  6
Continuous
 62
     3
370
     9
100
AcDbLine
 10
-1099.023846880242
 20
-385.5357473040379
 30
0.0
 11
-1099.023846880242
 21
-408.0357282305516
 31
0.0
  0
LINE
  5
529
330
1F
100
AcDbEntity
  8
D-9
  6
Continuous
 62
     3
370
     9
100
AcDbLine
 10
-1099.023846880242
 20
-395.535747304038
 30
0.0
 11
-1199.02417642949
 21
-395.535747304038
 31
0.0
  0
LINE
  5
52A
330
1F
100
AcDbEntity
  8
D-9
  6
JWW_DASHED2
 62
     3
370
     9
100
AcDbLine
 10
-1099.023846880242
 20
-398.0357282305516
 30
0.0
 11
-1199.02417642949
 21
-398.0357282305516
 31
0.0
  0
LINE
  5
52B
330
1F
100
AcDbEntity
  8
D-9
  6
JWW_CENTER1
 62
     4
370
     9
100
AcDbLine
 10
-1149.024009536485
 20
-425.7747476244725
 30
0.0
 11
-1149.024009536485
 21
-385.5357473040379
 31
0.0
  0
ARC
  5
52C
330
1F
100
AcDbEntity
  8
D-1
  6
Continuous
 62
     2
370
     9
100
AcDbCircle
 10
-1094.026132355908
 20
-365.5366437578953
 30
0.0
 40
5.0
100
AcDbArc
 50
270.0244750976562
 51
0.0107421875000158
  0
ARC
  5
52D
330
1F
100
AcDbEntity
  8
D-1
  6
Continuous
 62
     2
370
     9
100
AcDbCircle
 10
-1094.024150799493
 20
-365.5346648836888
 30
0.0
 40
20.0
100
AcDbArc
 50
270.0
 51
0.0002441406249917
  0
ARC
  5
52E
330
1F
100
AcDbEntity
  8
D-1
  6
Continuous
 62
     2
370
     9
100
AcDbCircle
 10
-1094.024150799493
 20
-365.5356519366063
 30
0.0
 40
5.0
100
AcDbArc
 50
270.0
 51
0.0001983642578153
  0
ARC
  5
52F
330
1F
100
AcDbEntity
  8
D-9
  6
Continuous
 62
     4
370
     9
100
AcDbCircle
 10
-1034.023971389512
 20
-402.0343606615819
 30
0.0
 40
15.00000238418579
100
AcDbArc
 50
180.0
 51
270.0
  0
ARC
  5
530
330
1F
100
AcDbEntity
  8
D-9
  6
Continuous
 62
     4
370
     9
100
AcDbCircle
 10
-919.0239284741676
 20
-402.0343606615819
 30
0.0
 40
15.00000238418579
100
AcDbArc
 50
270.0
 51
0.0
  0
LWPOLYLINE
  5
531
330
1F
100
AcDbEntity
  8
D-4
  6
Continuous
 62
     7
370
     9
100
AcDbPolyline
 90
        4
 70
     1
 43
1.0
 10
-1073.525049041489
 20
42.33128379337423
 42
0.4142135623731
 10
-1074.025049041489
 20
42.83128379337423
 42
0.4142135623731
 10
-1074.525049041489
 20
42.33128379337423
 42
0.4142135623731
 10
-1074.025049041489
 20
41.83128379337423
 42
0.4142135623731
  0
LWPOLYLINE
  5
532
330
1F
100
AcDbEntity
  8
D-4
  6
Continuous
 62
     7
370
     9
100
AcDbPolyline
 90
        4
 70
     1
 43
1.0
 10
-1223.524262260178
 20
-177.1168058062352
 42
0.4142135623731
 10
-1224.024262260178
 20
-176.6168058062351
 42
0.4142135623731
 10
-1224.524262260178
 20
-177.1168058062352
 42
0.4142135623731
 10
-1224.024262260178
 20
-177.6168058062352
 42
0.4142135623731
  0
LWPOLYLINE
  5
533
330
1F
100
AcDbEntity
  8
D-4
  6
Continuous
 62
     7
370
     9
100
AcDbPolyline
 90
        4
 70
     1
 43
1.0
 10
-1098.52442140458
 20
-177.1168058062352
 42
0.4142135623731
 10
-1099.02442140458
 20
-176.6168058062351
 42
0.4142135623731
 10
-1099.52442140458
 20
-177.1168058062352
 42
0.4142135623731
 10
-1099.02442140458
 20
-177.6168058062352
 42
0.4142135623731
  0
LWPOLYLINE
  5
534
330
1F
100
AcDbEntity
  8
D-4
  6
Continuous
 62
     7
370
     9
100
AcDbPolyline
 90
        4
 70
     1
 43
1.0
 10
-1098.52442140458
 20
-68.36438347347148
 42
0.4142135623731
 10
-1099.02442140458
 20
-67.86438347347148
 42
0.4142135623731
 10
-1099.52442140458
 20
-68.36438347347148
 42
0.4142135623731
 10
-1099.02442140458
 20
-68.86438347347148
 42
0.4142135623731
  0
LWPOLYLINE
  5
535
330
1F
100
AcDbEntity
  8
D-4
  6
Continuous
 62
     7
370
     9
100
AcDbPolyline
 90
        4
 70
     1
 43
1.0
 10
-1088.523880194405
 20
-68.36438347347148
 42
0.4142135623731
 10
-1089.023880194405
 20
-67.86438347347148
 42
0.4142135623731
 10
-1089.523880194405
 20
-68.36438347347148
 42
0.4142135623731
 10
-1089.023880194405
 20
-68.86438347347148
 42
0.4142135623731
  0
LWPOLYLINE
  5
536
330
1F
100
AcDbEntity
  8
D-4
  6
Continuous
 62
     7
370
     9
100
AcDbPolyline
 90
        4
 70
     1
 43
1.0
 10
-1073.525049041489
 20
-68.36438347347148
 42
0.4142135623731
 10
-1074.025049041489
 20
-67.86438347347148
 42
0.4142135623731
 10
-1074.525049041489
 20
-68.36438347347148
 42
0.4142135623731
 10
-1074.025049041489
 20
-68.86438347347148
 42
0.4142135623731
  0
LWPOLYLINE
  5
537
330
1F
100
AcDbEntity
  8
D-4
  6
Continuous
 62
     7
370
     9
100
AcDbPolyline
 90
        4
 70
     1
 43
1.0
 10
-1223.524262260178
 20
-676.1539380694188
 42
0.4142135623731
 10
-1224.024262260178
 20
-675.6539380694188
 42
0.4142135623731
 10
-1224.524262260178
 20
-676.1539380694188
 42
0.4142135623731
 10
-1224.024262260178
 20
-676.6539380694188
 42
0.4142135623731
  0
LWPOLYLINE
  5
538
330
1F
100
AcDbEntity
  8
D-4
  6
Continuous
 62
     7
370
     9
100
AcDbPolyline
 90
        4
 70
     1
 43
1.0
 10
-1073.524059604386
 20
-676.1539380694188
 42
0.4142135623731
 10
-1074.024059604386
 20
-675.6539380694188
 42
0.4142135623731
 10
-1074.524059604386
 20
-676.1539380694188
 42
0.4142135623731
 10
-1074.024059604386
 20
-676.6539380694188
 42
0.4142135623731
  0
LWPOLYLINE
  5
539
330
1F
100
AcDbEntity
  8
D-4
  6
Continuous
 62
     7
370
     9
100
AcDbPolyline
 90
        4
 70
     1
 43
1.0
 10
-1223.524262260178
 20
-830.6188123369969
 42
0.4142135623731
 10
-1224.024262260178
 20
-830.1188123369969
 42
0.4142135623731
 10
-1224.524262260178
 20
-830.6188123369969
 42
0.4142135623731
 10
-1224.024262260178
 20
-831.1188123369969
 42
0.4142135623731
  0
LWPOLYLINE
  5
53A
330
1F
100
AcDbEntity
  8
D-4
  6
Continuous
 62
     7
370
     9
100
AcDbPolyline
 90
        4
 70
     1
 43
1.0
 10
-823.5233944165504
 20
-830.6188123369969
 42
0.4142135623731
 10
-824.0233944165504
 20
-830.1188123369969
 42
0.4142135623731
 10
-824.5233944165504
 20
-830.6188123369969
 42
0.4142135623731
 10
-824.0233944165504
 20
-831.1188123369969
 42
0.4142135623731
  0
LWPOLYLINE
  5
53B
330
1F
100
AcDbEntity
  8
D-4
  6
Continuous
 62
     7
370
     9
100
AcDbPolyline
 90
        4
 70
     1
 43
1.0
 10
-551.8390339124
 20
-595.5357282305516
 42
0.4142135623731
 10
-552.3390339124
 20
-595.0357282305516
 42
0.4142135623731
 10
-552.8390339124
 20
-595.5357282305516
 42
0.4142135623731
 10
-552.3390339124
 20
-596.0357282305516
 42
0.4142135623731
  0
LWPOLYLINE
  5
53C
330
1F
100
AcDbEntity
  8
D-4
  6
Continuous
 62
     7
370
     9
100
AcDbPolyline
 90
        4
 70
     1
 43
1.0
 10
-551.8390339124
 20
-295.5358235979832
 42
0.4142135623731
 10
-552.3390339124
 20
-295.0358235979832
 42
0.4142135623731
 10
-552.8390339124
 20
-295.5358235979832
 42
0.4142135623731
 10
-552.3390339124
 20
-296.0358235979832
 42
0.4142135623731
  0
LWPOLYLINE
  5
53D
330
1F
100
AcDbEntity
  8
D-4
  6
Continuous
 62
     7
370
     9
100
AcDbPolyline
 90
        4
 70
     1
 43
1.0
 10
-1223.524262260178
 20
-503.6380307818212
 42
0.4142135623731
 10
-1224.024262260178
 20
-503.1380307818212
 42
0.4142135623731
 10
-1224.524262260178
 20
-503.6380307818212
 42
0.4142135623731
 10
-1224.024262260178
 20
-504.1380307818212
 42
0.4142135623731
  0
LWPOLYLINE
  5
53E
330
1F
100
AcDbEntity
  8
D-4
  6
Continuous
 62
     7
370
     9
100
AcDbPolyline
 90
        4
 70
     1
 43
1.0
 10
-1073.524150203446
 20
-503.6380307818212
 42
0.4142135623731
 10
-1074.024150203446
 20
-503.1380307818212
 42
0.4142135623731
 10
-1074.524150203446
 20
-503.6380307818212
 42
0.4142135623731
 10
-1074.024150203446
 20
-504.1380307818212
 42
0.4142135623731
  0
LWPOLYLINE
  5
53F
330
1F
100
AcDbEntity
  8
D-4
  6
Continuous
 62
     7
370
     9
100
AcDbPolyline
 90
        4
 70
     1
 43
1.0
 10
-903.5239284741676
 20
-503.6380307818212
 42
0.4142135623731
 10
-904.0239284741676
 20
-503.1380307818212
 42
0.4142135623731
 10
-904.5239284741676
 20
-503.6380307818212
 42
0.4142135623731
 10
-904.0239284741676
 20
-504.1380307818212
 42
0.4142135623731
  0
LWPOLYLINE
  5
540
330
1F
100
AcDbEntity
  8
D-4
  6
Continuous
 62
     7
370
     9
100
AcDbPolyline
 90
        4
 70
     1
 43
1.0
 10
-843.567950080613
 20
-295.5353282833851
 42
0.4142135623731
 10
-844.067950080613
 20
-295.0353282833851
 42
0.4142135623731
 10
-844.567950080613
 20
-295.5353282833851
 42
0.4142135623731
 10
-844.067950080613
 20
-296.0353282833851
 42
0.4142135623731
  0
LWPOLYLINE
  5
541
330
1F
100
AcDbEntity
  8
D-4
  6
Continuous
 62
     7
370
     9
100
AcDbPolyline
 90
        4
 70
     1
 43
1.0
 10
-843.567950080613
 20
-385.5352513933934
 42
0.4142135623731
 10
-844.067950080613
 20
-385.0352513933934
 42
0.4142135623731
 10
-844.567950080613
 20
-385.5352513933934
 42
0.4142135623731
 10
-844.067950080613
 20
-386.0352513933933
 42
0.4142135623731
  0
LWPOLYLINE
  5
542
330
1F
100
AcDbEntity
  8
D-4
  6
Continuous
 62
     7
370
     9
100
AcDbPolyline
 90
        4
 70
     1
 43
1.0
 10
-843.567950080613
 20
-417.034427418784
 42
0.4142135623731
 10
-844.067950080613
 20
-416.534427418784
 42
0.4142135623731
 10
-844.567950080613
 20
-417.034427418784
 42
0.4142135623731
 10
-844.067950080613
 20
-417.534427418784
 42
0.4142135623731
  0
TEXT
  5
543
330
1F
100
AcDbEntity
  8
D-4
  6
Continuous
 62
     2
370
     9
100
AcDbText
 10
-1182.773508857468
 20
-166.4765387774266
 30
0.0
 40
30.48
  1
25
 41
1.0625
  7
ＭＳ ゴシック
100
AcDbText
  0
TEXT
  5
544
330
1F
100
AcDbEntity
  8
D-4
  6
Continuous
 62
     2
370
     9
100
AcDbText
 10
-1215.274281333665
 20
-665.5146628618993
 30
0.0
 40
30.48
  1
25～30
 41
1.104166666666667
  7
ＭＳ ゴシック
100
AcDbText
  0
TEXT
  5
545
330
1F
100
AcDbEntity
  8
D-4
  6
Continuous
 62
     2
370
     9
100
AcDbText
 10
-1091.892665107792
 20
-819.9785453082278
 30
0.0
 40
30.48
  1
75～80
 50
0.0002144421685898
 41
1.104166666666669
  7
ＭＳ ゴシック
100
AcDbText
  0
TEXT
  5
546
330
1F
100
AcDbEntity
  8
D-4
  6
Continuous
 62
     2
370
     9
100
AcDbText
 10
-568.5097345959938
 20
-511.7856521831385
 30
0.0
 40
30.48
  1
55～65
 50
90.00000250447853
 41
1.104166666666667
  7
ＭＳ ゴシック
100
AcDbText
  0
TEXT
  5
547
330
1F
100
AcDbEntity
  8
D-4
  6
Continuous
 62
     2
370
     9
100
AcDbText
 10
-1131.969132255296
 20
-57.72510826595195
 30
0.0
 40
30.48
  1
2
 41
0.9999999999999998
  7
ＭＳ ゴシック
100
AcDbText
  0
TEXT
  5
548
330
1F
100
AcDbEntity
  8
D-4
  6
Continuous
 62
     2
370
     9
100
AcDbText
 10
-1060.722698386887
 20
-57.72510826595451
 30
0.0
 40
30.48
  1
3
 50
359.9999453584866
 41
0.9999999999999998
  7
ＭＳ ゴシック
100
AcDbText
  0
TEXT
  5
549
330
1F
100
AcDbEntity
  8
D-4
  6
Continuous
 62
     2
370
     9
100
AcDbText
 10
-1170.274205039719
 20
-491.9980269671239
 30
0.0
 40
30.48
  1
30
 41
1.0625
  7
ＭＳ ゴシック
100
AcDbText
  0
TEXT
  5
54A
330
1F
100
AcDbEntity
  8
D-4
  6
Continuous
 62
     2
370
     9
100
AcDbText
 10
-1063.657958339433
 20
-491.9980269671239
 30
0.0
 40
30.48
  1
34
 41
1.0625
  7
ＭＳ ゴシック
100
AcDbText
  0
TEXT
  5
54B
330
1F
100
AcDbEntity
  8
D-4
  6
Continuous
 62
     2
370
     9
100
AcDbText
 10
-854.7082171094215
 20
-361.7849560008875
 30
0.0
 40
30.48
  1
18
 50
90.00000250447789
 41
1.062500000000001
  7
ＭＳ ゴシック
100
AcDbText
  0
TEXT
  5
54C
330
1F
100
AcDbEntity
  8
D-4
  6
Continuous
 62
     2
370
     9
100
AcDbText
 10
-855.7079538953102
 20
-488.7296409831874
 30
0.0
 40
30.48
  1
6.5
 50
90.00000250447877
 41
1.083333333333337
  7
ＭＳ ゴシック
100
AcDbText
  0
TEXT
  5
54D
330
1F
100
AcDbEntity
  8
D-5
  6
Continuous
 62
     7
370
     9
100
AcDbText
 10
-867.7118442761696
 20
-178.5980751848973
 30
0.0
 40
22.86
  1
アンカー＠５００
 41
1.145833333333333
  7
ＭＳ ゴシック
100
AcDbText
  0
LINE
  5
54E
330
1F
100
AcDbEntity
  8
D-5
  6
Continuous
 62
     7
370
     9
100
AcDbLine
 10
-1133.260303313767
 20
-294.4028499373774
 30
0.0
 11
-1119.4496067119
 21
-273.5649189004283
 31
0.0
  0
LINE
  5
54F
330
1F
100
AcDbEntity
  8
D-5
  6
Continuous
 62
     7
370
     9
100
AcDbLine
 10
-1133.260303313767
 20
-294.4028499373774
 30
0.0
 11
-1114.526627833878
 21
-277.8492381820063
 31
0.0
  0
LINE
  5
550
330
1F
100
AcDbEntity
  8
D-5
  6
Continuous
 62
     7
370
     9
100
AcDbLine
 10
-890.761367081742
 20
-15.78553526176329
 30
0.0
 11
-1133.260303313767
 21
-294.4028499373774
 31
0.0
  0
TEXT
  5
551
330
1F
100
AcDbEntity
  8
D-5
  6
Continuous
 62
     7
370
     9
100
AcDbText
 10
-879.5472552316382
 20
-97.30808530105573
 30
0.0
 40
22.86
  1
ステンレス製受枠ＲＬ－１５
 50
359.9999368586928
 41
1.153846153846155
  7
ＭＳ ゴシック
100
AcDbText
  0
LINE
  5
552
330
1F
100
AcDbEntity
  8
D-5
  6
Continuous
 62
     7
370
     9
100
AcDbLine
 10
-1074.024059604386
 20
-324.6988413966772
 30
0.0
 11
-1060.213363002518
 21
-303.8609103597281
 31
0.0
  0
LINE
  5
553
330
1F
100
AcDbEntity
  8
D-5
  6
Continuous
 62
     7
370
     9
100
AcDbLine
 10
-1074.024059604386
 20
-324.6988413966772
 30
0.0
 11
-1055.290384124497
 21
-308.1452296413061
 31
0.0
  0
LINE
  5
554
330
1F
100
AcDbEntity
  8
D-5
  6
Continuous
 62
     7
370
     9
100
AcDbLine
 10
-883.9346487565524
 20
-106.2970536543246
 30
0.0
 11
-1074.024059604386
 21
-324.6988413966772
 31
0.0
  0
LINE
  5
555
330
1F
100
AcDbEntity
  8
D-5
  6
Continuous
 62
     7
370
     9
100
AcDbLine
 10
-883.9346487565524
 20
-106.2970536543246
 30
0.0
 11
-429.3375850579935
 21
-106.2970536543246
 31
0.0
  0
TEXT
  5
556
330
1F
100
AcDbEntity
  8
D-5
  6
Continuous
 62
     7
370
     9
100
AcDbText
 10
-867.7118442761696
 20
-217.9159977770604
 30
0.0
 40
22.86
  1
ｔ＝２．０（ＳＥＣＣまたはＳＧＨＣ）
 41
1.157407407407407
  7
ＭＳ ゴシック
100
AcDbText
  0
LINE
  5
557
330
1F
100
AcDbEntity
  8
D-5
  6
Continuous
 62
     7
370
     9
100
AcDbLine
 10
-881.3560817944801
 20
-187.4869649554051
 30
0.0
 11
-263.6177017755119
 21
-187.4869649554051
 31
0.0
  0
LINE
  5
558
330
1F
100
AcDbEntity
  8
D-6
  6
JWW_DASHED3
 62
     6
370
     9
100
AcDbLine
 10
-976.5243480908669
 20
-708.8677518511571
 30
0.0
 11
-976.5243480908669
 21
-595.5352323199071
 31
0.0
  0
LINE
  5
559
330
1F
100
AcDbEntity
  8
D-6
  6
JWW_DASHED3
 62
     6
370
     9
100
AcDbLine
 10
-931.523890327195
 20
-595.5352323199071
 30
0.0
 11
-931.523890327195
 21
-708.8677518511571
 31
0.0
  0
LINE
  5
55A
330
1F
100
AcDbEntity
  8
D-6
  6
Continuous
 62
     6
370
     9
100
AcDbLine
 10
-976.5243480908669
 20
-595.5352323199071
 30
0.0
 11
-976.5243480908669
 21
-417.034427418784
 31
0.0
  0
LINE
  5
55B
330
1F
100
AcDbEntity
  8
D-6
  6
Continuous
 62
     6
370
     9
100
AcDbLine
 10
-931.523890327195
 20
-595.5352323199071
 30
0.0
 11
-931.523890327195
 21
-417.034427418784
 31
0.0
  0
LINE
  5
55C
330
1F
100
AcDbEntity
  8
D-6
  6
Continuous
 62
     6
370
     9
100
AcDbLine
 10
-976.5243480908669
 20
-353.0343930865086
 30
0.0
 11
-931.523890327195
 21
-353.0343930865086
 31
0.0
  0
LINE
  5
55D
330
1F
100
AcDbEntity
  8
D-6
  6
JWW_CENTER2
 62
     6
370
     9
100
AcDbLine
 10
-954.0241192090309
 20
-344.5707910204686
 30
0.0
 11
-954.0241192090309
 21
-708.8677518511571
 31
0.0
  0
LINE
  5
55E
330
1F
100
AcDbEntity
  8
D-6
  6
Continuous
 62
     6
370
     9
100
AcDbLine
 10
-931.523890327195
 20
-388.0343930865086
 30
0.0
 11
-931.523890327195
 21
-353.0343930865086
 31
0.0
  0
LINE
  5
55F
330
1F
100
AcDbEntity
  8
D-6
  6
Continuous
 62
     6
370
     9
100
AcDbLine
 10
-976.5243480908669
 20
-388.0343930865086
 30
0.0
 11
-976.5243480908669
 21
-353.0343930865086
 31
0.0
  0
TEXT
  5
560
330
1F
100
AcDbEntity
  8
D-5
  6
Continuous
 62
     7
370
     9
100
AcDbText
 10
-771.238310383302
 20
-686.5734384613955
 30
0.0
 40
22.86
  1
差筋φ9程度
 41
1.136363636363636
  7
ＭＳ ゴシック
100
AcDbText
  0
LINE
  5
561
330
1F
100
AcDbEntity
  8
D-5
  6
Continuous
 62
     7
370
     9
100
AcDbLine
 10
-771.6802621350109
 20
-698.2671797638858
 30
0.0
 11
-583.3560517721901
 21
-698.2671797638858
 31
0.0
  0
TEXT
  5
562
330
1F
100
AcDbEntity
  8
D-5
  6
Continuous
 62
     7
370
     9
100
AcDbText
 10
-771.238310383302
 20
-727.7969358521426
 30
0.0
 40
22.86
  1
＠500
 41
1.133333333333333
  7
ＭＳ ゴシック
100
AcDbText
  0
LINE
  5
563
330
1F
100
AcDbEntity
  8
D-5
  6
Continuous
 62
     7
370
     9
100
AcDbLine
 10
-931.523890327195
 20
-538.4235515716995
 30
0.0
 11
-771.6802621350109
 21
-698.2671797638858
 31
0.0
  0
LINE
  5
564
330
1F
100
AcDbEntity
  8
D-5
  6
Continuous
 62
     7
370
     9
100
AcDbLine
 10
-931.523890327195
 20
-538.4235515716995
 30
0.0
 11
-916.3048546019775
 21
-558.2573850789817
 31
0.0
  0
LINE
  5
565
330
1F
100
AcDbEntity
  8
D-5
  6
Continuous
 62
     7
370
     9
100
AcDbLine
 10
-931.523890327195
 20
-538.4235515716995
 30
0.0
 11
-911.6900568199151
 21
-553.642587296917
 31
0.0
  0
LINE
  5
566
330
1F
100
AcDbEntity
  8
D-5
  6
Continuous
 62
     7
370
     9
100
AcDbLine
 10
-890.761367081742
 20
-15.78553526176329
 30
0.0
 11
80.53109092152788
 21
-15.78553526176329
 31
0.0
  0
TEXT
  5
567
330
1F
100
AcDbEntity
  8
D-5
  6
Continuous
 62
     7
370
     9
100
AcDbText
 10
-873.137001466944
 20
29.07656007515078
 30
0.0
 40
22.86
  1
ステンレス製　細目ノンスリップタイプ（ローレット模様）
 41
1.160493827160494
  7
ＭＳ ゴシック
100
AcDbText
  0
TEXT
  5
568
330
1F
100
AcDbEntity
  8
D-5
  6
Continuous
 62
     7
370
     9
100
AcDbText
 10
-876.777585762634
 20
-3.628663968256714
 30
0.0
 40
22.86
  1
グレーチング（すきま6mm）ＺＱｰＨ-１５
 50
0.00003714194476
 41
1.157657657657658
  7
ＭＳ ゴシック
100
AcDbText
  0
LINE
  5
569
330
1F
100
AcDbEntity
  8
D-4
  6
Continuous
 62
     7
370
     9
100
AcDbLine
 10
-1608.650923334616
 20
42.33128379337423
 30
0.0
 11
-1074.025049041489
 21
42.33128379337423
 31
0.0
  0
LINE
  5
56A
330
1F
100
AcDbEntity
  8
D-4
  6
Continuous
 62
     7
370
     9
100
AcDbLine
 10
-1608.650923334616
 20
-68.36438347347148
 30
0.0
 11
-1028.338861297349
 21
-68.36438347347148
 31
0.0
  0
LINE
  5
56B
330
1F
100
AcDbEntity
  8
D-4
  6
Continuous
 62
     7
370
     9
100
AcDbLine
 10
-1608.650923334616
 20
-177.1168058062352
 30
0.0
 11
-1224.024262260178
 21
-177.1168058062352
 31
0.0
  0
TEXT
  5
56C
330
1F
100
AcDbEntity
  8
D-4
  6
Continuous
 62
     2
370
     9
100
AcDbText
 10
-1506.585106681565
 20
-165.7422435767693
 30
0.0
 40
30.48
  1
100
 41
1.083333333333333
  7
ＭＳ ゴシック
100
AcDbText
  0
TEXT
  5
56D
330
1F
100
AcDbEntity
  8
D-4
  6
Continuous
 62
     2
370
     9
100
AcDbText
 10
-1506.585106681565
 20
-56.9900908503125
 30
0.0
 40
30.48
  1
150
 41
1.083333333333333
  7
ＭＳ ゴシック
100
AcDbText
  0
TEXT
  5
56E
330
1F
100
AcDbEntity
  8
D-5
  6
Continuous
 62
     2
370
     9
100
AcDbText
 10
-17.57186278069156
 20
-791.5276495613285
 30
0.0
 40
30.48
  1
ステンレス製受枠　ＲＬ－１５
 41
1.116071428571428
  7
ＭＳ ゴシック
100
AcDbText
  0
TEXT
  5
56F
330
1F
100
AcDbEntity
  8
D-5
  6
Continuous
 62
     2
370
     9
100
AcDbText
 10
42.14005128180844
 20
-846.5276877083012
 30
0.0
 40
30.48
  1
材質：ステンレス鋼板ｔ＝３．０（ＳＵＳ３０４）
 41
1.119565217391304
  7
ＭＳ ゴシック
100
AcDbText
  0
TEXT
  5
570
330
1F
100
AcDbEntity
  8
D-5
  6
Continuous
 62
     2
370
     9
100
AcDbText
 10
42.14005128180844
 20
-901.5276877083012
 30
0.0
 40
30.48
  1
定尺：２０００
 41
1.107142857142857
  7
ＭＳ ゴシック
100
AcDbText
  0
TEXT
  5
571
330
1F
100
AcDbEntity
  8
D-5
  6
Continuous
 62
     2
370
     9
100
AcDbText
 10
42.14005128180844
 20
-956.5277258552738
 30
0.0
 40
30.48
  1
施工場所の状況に合わせて、アンカーをプライヤー等で折り曲げてご使用ください。
 41
1.121710526315789
  7
ＭＳ ゴシック
100
AcDbText
  0
TEXT
  5
572
330
1F
100
AcDbEntity
  8
D-4
  6
Continuous
 62
     2
370
     9
100
AcDbText
 10
-1506.585106681565
 20
53.70582540285497
 30
0.0
 40
30.48
  1
160
 41
1.083333333333333
  7
ＭＳ ゴシック
100
AcDbText
  0
LINE
  5
573
330
1F
100
AcDbEntity
  8
D-4
  6
Continuous
 62
     7
370
     9
100
AcDbLine
 10
429.6477553696478
 20
420.5732072317053
 30
0.0
 11
429.6477553696478
 21
361.7603761904709
 31
0.0
  0
LINE
  5
574
330
1F
100
AcDbEntity
  8
D-4
  6
Continuous
 62
     7
370
     9
100
AcDbLine
 10
469.6477553696478
 20
420.5732072317053
 30
0.0
 11
469.6477553696478
 21
361.7603761904709
 31
0.0
  0
LINE
  5
575
330
1F
100
AcDbEntity
  8
D-4
  6
Continuous
 62
     7
370
     9
100
AcDbLine
 10
499.6461222668198
 20
420.5732072317053
 30
0.0
 11
499.6461222668198
 21
361.7603761904709
 31
0.0
  0
LINE
  5
576
330
1F
100
AcDbEntity
  8
D-4
  6
Continuous
 62
     7
370
     9
100
AcDbLine
 10
539.6453881953458
 20
420.5732072317053
 30
0.0
 11
539.6453881953458
 21
361.7603761904709
 31
0.0
  0
LINE
  5
577
330
1F
100
AcDbEntity
  8
D-4
  6
Continuous
 62
     7
370
     9
100
AcDbLine
 10
569.6456108911865
 20
420.5732072317053
 30
0.0
 11
569.6456108911865
 21
361.7603761904709
 31
0.0
  0
LINE
  5
578
330
1F
100
AcDbEntity
  8
D-4
  6
Continuous
 62
     7
370
     9
100
AcDbLine
 10
609.6424024214865
 20
420.5732072317053
 30
0.0
 11
609.6424024214865
 21
361.7603761904709
 31
0.0
  0
TEXT
  5
579
330
1F
100
AcDbEntity
  8
D-4
  6
Continuous
 62
     2
370
   211
100
AcDbText
 10
439.6477553696478
 20
429.2132072317048
 30
0.0
 40
30.48
  1
8
 41
0.9999999999999998
  7
ＭＳ ゴシック
100
AcDbText
  0
LWPOLYLINE
  5
57A
330
1F
100
AcDbEntity
  8
D-4
  6
Continuous
 62
     7
370
     9
100
AcDbPolyline
 90
        4
 70
     1
 43
1.0
 10
430.1477553696478
 20
417.5732072317052
 42
0.4142135623731
 10
429.6477553696478
 20
418.0732072317051
 42
0.4142135623731
 10
429.1477553696478
 20
417.5732072317052
 42
0.4142135623731
 10
429.6477553696478
 20
417.0732072317052
 42
0.4142135623731
  0
LINE
  5
57B
330
1F
100
AcDbEntity
  8
D-4
  6
Continuous
 62
     7
370
     9
100
AcDbLine
 10
469.6477553696478
 20
417.5732072317052
 30
0.0
 11
429.6477553696478
 21
417.5732072317052
 31
0.0
  0
TEXT
  5
57C
330
1F
100
AcDbEntity
  8
D-4
  6
Continuous
 62
     2
370
   211
100
AcDbText
 10
474.6469388182333
 20
429.2132072317048
 30
0.0
 40
30.48
  1
6
 41
0.9999999999999998
  7
ＭＳ ゴシック
100
AcDbText
  0
LWPOLYLINE
  5
57D
330
1F
100
AcDbEntity
  8
D-4
  6
Continuous
 62
     7
370
     9
100
AcDbPolyline
 90
        4
 70
     1
 43
1.0
 10
470.1477553696478
 20
417.5732072317052
 42
0.4142135623731
 10
469.6477553696478
 20
418.0732072317051
 42
0.4142135623731
 10
469.1477553696478
 20
417.5732072317052
 42
0.4142135623731
 10
469.6477553696478
 20
417.0732072317052
 42
0.4142135623731
  0
LINE
  5
57E
330
1F
100
AcDbEntity
  8
D-4
  6
Continuous
 62
     7
370
     9
100
AcDbLine
 10
499.6461222668198
 20
417.5732072317052
 30
0.0
 11
469.6477553696478
 21
417.5732072317052
 31
0.0
  0
TEXT
  5
57F
330
1F
100
AcDbEntity
  8
D-4
  6
Continuous
 62
     2
370
   211
100
AcDbText
 10
509.6457552310823
 20
429.2132072317048
 30
0.0
 40
30.48
  1
8
 41
0.9999999999999998
  7
ＭＳ ゴシック
100
AcDbText
  0
LWPOLYLINE
  5
580
330
1F
100
AcDbEntity
  8
D-4
  6
Continuous
 62
     7
370
     9
100
AcDbPolyline
 90
        4
 70
     1
 43
1.0
 10
500.1461222668198
 20
417.5732072317052
 42
0.4142135623731
 10
499.6461222668198
 20
418.0732072317051
 42
0.4142135623731
 10
499.1461222668198
 20
417.5732072317052
 42
0.4142135623731
 10
499.6461222668198
 20
417.0732072317052
 42
0.4142135623731
  0
LINE
  5
581
330
1F
100
AcDbEntity
  8
D-4
  6
Continuous
 62
     7
370
     9
100
AcDbLine
 10
539.6453881953458
 20
417.5732072317052
 30
0.0
 11
499.6461222668198
 21
417.5732072317052
 31
0.0
  0
TEXT
  5
582
330
1F
100
AcDbEntity
  8
D-4
  6
Continuous
 62
     2
370
   211
100
AcDbText
 10
544.6454995432656
 20
429.2132072317048
 30
0.0
 40
30.48
  1
6
 41
0.9999999999999998
  7
ＭＳ ゴシック
100
AcDbText
  0
LWPOLYLINE
  5
583
330
1F
100
AcDbEntity
  8
D-4
  6
Continuous
 62
     7
370
     9
100
AcDbPolyline
 90
        4
 70
     1
 43
1.0
 10
540.1453881953457
 20
417.5732072317052
 42
0.4142135623731
 10
539.6453881953458
 20
418.0732072317051
 42
0.4142135623731
 10
539.1453881953458
 20
417.5732072317052
 42
0.4142135623731
 10
539.6453881953458
 20
417.0732072317052
 42
0.4142135623731
  0
LINE
  5
584
330
1F
100
AcDbEntity
  8
D-4
  6
Continuous
 62
     7
370
     9
100
AcDbLine
 10
569.6456108911865
 20
417.5732072317052
 30
0.0
 11
539.6453881953458
 21
417.5732072317052
 31
0.0
  0
TEXT
  5
585
330
1F
100
AcDbEntity
  8
D-4
  6
Continuous
 62
     2
370
   211
100
AcDbText
 10
579.6440066563365
 20
429.2132072317048
 30
0.0
 40
30.48
  1
8
 41
0.9999999999999998
  7
ＭＳ ゴシック
100
AcDbText
  0
LWPOLYLINE
  5
586
330
1F
100
AcDbEntity
  8
D-4
  6
Continuous
 62
     7
370
     9
100
AcDbPolyline
 90
        4
 70
     1
 43
1.0
 10
570.1456108911864
 20
417.5732072317052
 42
0.4142135623731
 10
569.6456108911865
 20
418.0732072317051
 42
0.4142135623731
 10
569.1456108911865
 20
417.5732072317052
 42
0.4142135623731
 10
569.6456108911865
 20
417.0732072317052
 42
0.4142135623731
  0
LWPOLYLINE
  5
587
330
1F
100
AcDbEntity
  8
D-4
  6
Continuous
 62
     7
370
     9
100
AcDbPolyline
 90
        4
 70
     1
 43
1.0
 10
610.1424024214864
 20
417.5732072317052
 42
0.4142135623731
 10
609.6424024214865
 20
418.0732072317051
 42
0.4142135623731
 10
609.1424024214865
 20
417.5732072317052
 42
0.4142135623731
 10
609.6424024214865
 20
417.0732072317052
 42
0.4142135623731
  0
LINE
  5
588
330
1F
100
AcDbEntity
  8
D-4
  6
Continuous
 62
     7
370
     9
100
AcDbLine
 10
609.6424024214865
 20
417.5732072317052
 30
0.0
 11
569.6456108911865
 21
417.5732072317052
 31
0.0
  0
LINE
  5
589
330
1F
100
AcDbEntity
  8
D-2
  6
Continuous
 62
     3
370
     9
100
AcDbLine
 10
1492.799564939321
 20
346.7607473502047
 30
0.0
 11
1023.274901014918
 21
346.7607473502047
 31
0.0
  0
LINE
  5
58A
330
1F
100
AcDbEntity
  8
D-2
  6
Continuous
 62
     3
370
     9
100
AcDbLine
 10
1023.274901014918
 20
339.7606747678565
 30
0.0
 11
1477.799515451358
 21
339.7606747678565
 31
0.0
  0
LINE
  5
58B
330
1F
100
AcDbEntity
  8
D-2
  6
Continuous
 62
     3
370
     9
100
AcDbLine
 10
1492.799564939321
 20
271.7604999103822
 30
0.0
 11
1023.274901014918
 21
271.7604999103822
 31
0.0
  0
LINE
  5
58C
330
1F
100
AcDbEntity
  8
D-2
  6
Continuous
 62
     3
370
     9
100
AcDbLine
 10
1477.799515451358
 20
346.7607473502047
 30
0.0
 11
1477.799515451358
 21
271.7604999103822
 31
0.0
  0
LINE
  5
58D
330
1F
100
AcDbEntity
  8
D-2
  6
Continuous
 62
     3
370
     9
100
AcDbLine
 10
1492.799564939321
 20
346.7607473502047
 30
0.0
 11
1492.799564939321
 21
271.7604999103822
 31
0.0
  0
CIRCLE
  5
58E
330
1F
100
AcDbEntity
  8
D-2
  6
Continuous
 62
     3
370
     9
100
AcDbCircle
 10
1117.799657729255
 20
306.2607473502047
 30
0.0
 40
15.0
  0
LINE
  5
58F
330
1F
100
AcDbEntity
  8
D-5
  6
Continuous
 62
     7
370
     9
100
AcDbLine
 10
1476.723712260783
 20
415.6789298405277
 30
0.0
 11
1308.172277046265
 21
415.6789298405277
 31
0.0
  0
LINE
  5
590
330
1F
100
AcDbEntity
  8
D-5
  6
Continuous
 62
     7
370
     9
100
AcDbLine
 10
1239.254094555941
 20
346.7607473502047
 30
0.0
 11
1308.172277046265
 21
415.6789298405277
 31
0.0
  0
LINE
  5
591
330
1F
100
AcDbEntity
  8
D-5
  6
Continuous
 62
     7
370
     9
100
AcDbLine
 10
1239.254094555941
 20
346.7607473502047
 30
0.0
 11
1259.087928063222
 21
361.9797830754228
 31
0.0
  0
LINE
  5
592
330
1F
100
AcDbEntity
  8
D-5
  6
Continuous
 62
     7
370
     9
100
AcDbLine
 10
1239.254094555941
 20
346.7607473502047
 30
0.0
 11
1254.47313028116
 21
366.5945808574855
 31
0.0
  0
LINE
  5
593
330
1F
100
AcDbEntity
  8
D-5
  6
Continuous
 62
     7
370
     9
100
AcDbLine
 10
1107.262996354009
 20
295.5846634678352
 30
0.0
 11
990.3223379331058
 21
178.6440050469325
 31
0.0
  0
LINE
  5
594
330
1F
100
AcDbEntity
  8
D-5
  6
Continuous
 62
     7
370
     9
100
AcDbLine
 10
819.0868600285172
 20
178.7163177631755
 30
0.0
 11
990.3946506493487
 21
178.7163177631755
 31
0.0
  0
LINE
  5
595
330
1F
100
AcDbEntity
  8
D-5
  6
Continuous
 62
     7
370
     9
100
AcDbLine
 10
1107.262996354009
 20
295.5846634678352
 30
0.0
 11
1092.043960628791
 21
275.7508299605547
 31
0.0
  0
LINE
  5
596
330
1F
100
AcDbEntity
  8
D-5
  6
Continuous
 62
     7
370
     9
100
AcDbLine
 10
1107.262996354009
 20
295.5846634678352
 30
0.0
 11
1087.429162846728
 21
280.3656277426171
 31
0.0
  0
LINE
  5
597
330
1F
100
AcDbEntity
  8
D-5
  6
Continuous
 62
     7
370
     9
100
AcDbLine
 10
1561.717747429646
 20
381.1390560810165
 30
0.0
 11
1731.76338937212
 21
381.1390560810165
 31
0.0
  0
LINE
  5
598
330
1F
100
AcDbEntity
  8
D-5
  6
Continuous
 62
     7
370
     9
100
AcDbLine
 10
1492.799564939321
 20
312.2208735906935
 30
0.0
 11
1561.717747429646
 21
381.1390560810165
 31
0.0
  0
LINE
  5
599
330
1F
100
AcDbEntity
  8
D-5
  6
Continuous
 62
     7
370
     9
100
AcDbLine
 10
1492.799564939321
 20
312.2208735906935
 30
0.0
 11
1512.633398446604
 21
327.4399093159116
 31
0.0
  0
LINE
  5
59A
330
1F
100
AcDbEntity
  8
D-5
  6
Continuous
 62
     7
370
     9
100
AcDbLine
 10
1492.799564939321
 20
312.2208735906935
 30
0.0
 11
1508.01860066454
 21
332.0547070979743
 31
0.0
  0
TEXT
  5
59B
330
1F
100
AcDbEntity
  8
F-5ﾚｲﾔ
  6
Continuous
 62
     2
370
     9
100
AcDbText
 10
-849.1367180389157
 20
-1370.93982645808
 30
0.0
 40
30.48
  1
ＺＱ－Ｈ－１５　１５０×５００×１５　ステンレス製受枠ＲＬ－１５
 41
0.77421875
  7
ＭＳ ゴシック
100
AcDbText
  0
LINE
  5
59C
330
1F
100
AcDbEntity
  8
D-A
  6
JWW_CENTER1
 62
     3
370
     9
100
AcDbLine
 10
1144.30714360869
 20
306.2607473502047
 30
0.0
 11
1091.291800690087
 21
306.2607473502047
 31
0.0
  0
LINE
  5
59D
330
1F
100
AcDbEntity
  8
D-A
  6
JWW_CENTER1
 62
     3
370
     9
100
AcDbLine
 10
1117.799657729255
 20
279.7536326305047
 30
0.0
 11
1117.799657729255
 21
332.7689755491068
 31
0.0
  0
ENDSEC
  0
SECTION
  2
OBJECTS
  0
DICTIONARY
  5
C
330
0
100
AcDbDictionary
281
     1
  3
ACAD_GROUP
350
D
  3
ACAD_LAYOUT
350
1A
  3
ACAD_MLEADERSTYLE
350
59F
  3
ACAD_MLINESTYLE
350
17
  3
ACAD_PLOTSETTINGS
350
19
  3
ACAD_PLOTSTYLENAME
350
E
  3
ACAD_TABLESTYLE
350
59E
  3
ACAD_VISUALSTYLE
350
2A
  0
DICTIONARY
  5
D
102
{ACAD_REACTORS
330
C
102
}
330
C
100
AcDbDictionary
281
     1
  0
DICTIONARY
  5
1A
102
{ACAD_REACTORS
330
C
102
}
330
C
100
AcDbDictionary
281
     1
  3
Layout1
350
1E
  3
Layout2
350
26
  3
Model
350
22
  0
DICTIONARY
  5
59F
102
{ACAD_REACTORS
330
C
102
}
330
C
100
AcDbDictionary
281
     1
  0
DICTIONARY
  5
17
102
{ACAD_REACTORS
330
C
102
}
330
C
100
AcDbDictionary
281
     1
  3
Standard
350
18
  0
DICTIONARY
  5
19
102
{ACAD_REACTORS
330
C
102
}
330
C
100
AcDbDictionary
281
     1
  0
ACDBDICTIONARYWDFLT
  5
E
102
{ACAD_REACTORS
330
C
102
}
330
C
100
AcDbDictionary
281
     1
  3
Normal
350
F
100
AcDbDictionaryWithDefault
340
F
  0
DICTIONARY
  5
59E
102
{ACAD_REACTORS
330
C
102
}
330
C
100
AcDbDictionary
281
     1
  0
DICTIONARY
  5
2A
102
{ACAD_REACTORS
330
C
102
}
330
C
100
AcDbDictionary
281
     1
  3
2dWireframe
350
2F
  3
3D Hidden
350
31
  3
3dWireframe
350
30
  3
Basic
350
32
  3
Brighten
350
36
  3
ColorChange
350
3A
  3
Conceptual
350
34
  3
Dim
350
35
  3
Facepattern
350
39
  3
Flat
350
2B
  3
FlatWithEdges
350
2C
  3
Gouraud
350
2D
  3
GouraudWithEdges
350
2E
  3
Linepattern
350
38
  3
Realistic
350
33
  3
Thicken
350
37
  0
LAYOUT
  5
1E
102
{ACAD_REACTORS
330
1A
102
}
330
1A
100
AcDbPlotSettings
  1

  2
none_device
  4

  6

 40
0.0
 41
0.0
 42
0.0
 43
0.0
 44
0.0
 45
0.0
 46
0.0
 47
0.0
 48
0.0
 49
0.0
140
0.0
141
0.0
142
1.0
143
1.0
 70
   688
 72
     0
 73
     0
 74
     5
  7

 75
    16
 76
     0
 77
     5
 78
   300
147
1.0
148
0.0
149
0.0
100
AcDbLayout
  1
Layout1
 70
     1
 71
     1
 10
0.0
 20
0.0
 11
420.0
 21
297.0
 12
0.0
 22
0.0
 32
0.0
 14
1.000000000000000E+20
 24
1.000000000000000E+20
 34
1.000000000000000E+20
 15
-1.000000000000000E+20
 25
-1.000000000000000E+20
 35
-1.000000000000000E+20
146
0.0
 13
0.0
 23
0.0
 33
0.0
 16
1.0
 26
0.0
 36
0.0
 17
0.0
 27
1.0
 37
0.0
 76
     0
330
1B
  0
LAYOUT
  5
26
102
{ACAD_REACTORS
330
1A
102
}
330
1A
100
AcDbPlotSettings
  1

  2
none_device
  4

  6

 40
0.0
 41
0.0
 42
0.0
 43
0.0
 44
0.0
 45
0.0
 46
0.0
 47
0.0
 48
0.0
 49
0.0
140
0.0
141
0.0
142
1.0
143
1.0
 70
   688
 72
     0
 73
     0
 74
     5
  7

 75
    16
 76
     0
 77
     5
 78
   300
147
1.0
148
0.0
149
0.0
100
AcDbLayout
  1
Layout2
 70
     1
 71
     2
 10
0.0
 20
0.0
 11
0.0
 21
0.0
 12
0.0
 22
0.0
 32
0.0
 14
0.0
 24
0.0
 34
0.0
 15
0.0
 25
0.0
 35
0.0
146
0.0
 13
0.0
 23
0.0
 33
0.0
 16
1.0
 26
0.0
 36
0.0
 17
0.0
 27
1.0
 37
0.0
 76
     0
330
23
  0
LAYOUT
  5
22
102
{ACAD_REACTORS
330
1A
102
}
330
1A
100
AcDbPlotSettings
  1

  2
none_device
  4

  6

 40
0.0
 41
0.0
 42
0.0
 43
0.0
 44
0.0
 45
0.0
 46
0.0
 47
0.0
 48
0.0
 49
0.0
140
0.0
141
0.0
142
1.0
143
1.0
 70
  1712
 72
     0
 73
     0
 74
     0
  7

 75
     0
 76
     0
 77
     5
 78
   300
147
1.0
148
0.0
149
0.0
100
AcDbLayout
  1
Model
 70
     1
 71
     0
 10
-2100.0
 20
-1485.0
 11
2100.0
 21
1485.0
 12
0.0
 22
0.0
 32
0.0
 14
-2100.0
 24
-1485.0
 34
0.0
 15
2100.0
 25
1485.0
 35
0.0
146
0.0
 13
0.0
 23
0.0
 33
0.0
 16
1.0
 26
0.0
 36
0.0
 17
0.0
 27
1.0
 37
0.0
 76
     0
330
1F
331
29
  0
MLINESTYLE
  5
18
102
{ACAD_REACTORS
330
17
102
}
330
17
100
AcDbMlineStyle
  2
Standard
 70
     0
  3

 62
   256
 51
90.0
 52
90.0
 71
     2
 49
0.5
 62
   256
  6
BYLAYER
 49
-0.5
 62
   256
  6
BYLAYER
  0
ACDBPLACEHOLDER
  5
F
102
{ACAD_REACTORS
330
E
102
}
330
E
  0
VISUALSTYLE
  5
2F
102
{ACAD_REACTORS
330
2A
102
}
330
2A
100
AcDbVisualStyle
  2
2dWireframe
 70
     4
 71
     0
 72
     2
 73
     0
 90
        0
 40
-0.6
 41
-30.0
 62
     5
 63
     7
421
 16777215
 74
     1
 91
        4
 64
     7
 65
   257
 75
     1
175
     1
 42
1.0
 92
        0
 66
   257
 43
1.0
 76
     1
 77
     6
 78
     2
 67
     7
 79
     5
170
     0
171
     0
290
     0
174
     0
 93
        1
 44
0.0
173
     0
291
     0
 45
0.0
1001
ACAD
1000
AcDbSavedByObjectVersion
1070
     0
  0
VISUALSTYLE
  5
31
102
{ACAD_REACTORS
330
2A
102
}
330
2A
100
AcDbVisualStyle
  2
3D Hidden
 70
     6
 71
     1
 72
     2
 73
     2
 90
        0
 40
-0.6
 41
-30.0
 62
     5
 63
     7
421
 16777215
 74
     2
 91
        2
 64
     7
 65
   257
 75
     2
175
     1
 42
40.0
 92
        0
 66
   257
 43
1.0
 76
     1
 77
     6
 78
     2
 67
     7
 79
     3
170
     0
171
     0
290
     0
174
     0
 93
        1
 44
0.0
173
     0
291
     0
 45
0.0
1001
ACAD
1000
AcDbSavedByObjectVersion
1070
     0
  0
VISUALSTYLE
  5
30
102
{ACAD_REACTORS
330
2A
102
}
330
2A
100
AcDbVisualStyle
  2
3dWireframe
 70
     5
 71
     0
 72
     2
 73
     0
 90
        0
 40
-0.6
 41
-30.0
 62
     5
 63
     7
421
 16777215
 74
     1
 91
        4
 64
     7
 65
   257
 75
     1
175
     1
 42
1.0
 92
        0
 66
   257
 43
1.0
 76
     1
 77
     6
 78
     2
 67
     7
 79
     5
170
     0
171
     0
290
     0
174
     0
 93
        1
 44
0.0
173
     0
291
     0
 45
0.0
1001
ACAD
1000
AcDbSavedByObjectVersion
1070
     0
  0
VISUALSTYLE
  5
32
102
{ACAD_REACTORS
330
2A
102
}
330
2A
100
AcDbVisualStyle
  2
Basic
 70
     7
 71
     1
 72
     0
 73
     1
 90
        0
 40
-0.6
 41
-30.0
 62
     5
 63
     7
421
 16777215
 74
     0
 91
        4
 64
     7
 65
   257
 75
     1
175
     1
 42
1.0
 92
        8
 66
     7
 43
1.0
 76
     1
 77
     6
 78
     2
 67
     7
 79
     5
170
     0
171
     0
290
     0
174
     0
 93
        1
 44
0.0
173
     0
291
     1
 45
0.0
1001
ACAD
1000
AcDbSavedByObjectVersion
1070
     0
  0
VISUALSTYLE
  5
36
102
{ACAD_REACTORS
330
2A
102
}
330
2A
100
AcDbVisualStyle
  2
Brighten
 70
    12
 71
     2
 72
     2
 73
     0
 90
        0
 40
-0.6
 41
-30.0
 62
     5
 63
     7
421
 16777215
 74
     1
 91
        4
 64
     7
 65
   257
 75
     1
175
     1
 42
1.0
 92
        8
 66
     7
 43
1.0
 76
     1
 77
     6
 78
     2
 67
     7
 79
     5
170
     0
171
     0
290
     0
174
     0
 93
        1
 44
50.0
173
     0
291
     1
 45
0.0
1001
ACAD
1000
AcDbSavedByObjectVersion
1070
     0
  0
VISUALSTYLE
  5
3A
102
{ACAD_REACTORS
330
2A
102
}
330
2A
100
AcDbVisualStyle
  2
ColorChange
 70
    16
 71
     2
 72
     2
 73
     3
 90
        0
 40
-0.6
 41
-30.0
 62
     5
 63
     8
421
  8421504
 74
     1
 91
        4
 64
     7
 65
   257
 75
     1
175
     1
 42
1.0
 92
        8
 66
     8
424
  8421504
 43
1.0
 76
     1
 77
     6
 78
     2
 67
     7
 79
     5
170
     0
171
     0
290
     0
174
     0
 93
        1
 44
0.0
173
     0
291
     1
 45
0.0
1001
ACAD
1000
AcDbSavedByObjectVersion
1070
     0
  0
VISUALSTYLE
  5
34
102
{ACAD_REACTORS
330
2A
102
}
330
2A
100
AcDbVisualStyle
  2
Conceptual
 70
     9
 71
     3
 72
     2
 73
     0
 90
        0
 40
-0.6
 41
-30.0
 62
     5
 63
     7
421
 16777215
 74
     2
 91
        2
 64
     7
 65
   257
 75
     1
175
     1
 42
40.0
 92
        8
 66
     7
 43
1.0
 76
     1
 77
     6
 78
     2
 67
     7
 79
     3
170
     0
171
     0
290
     0
174
     0
 93
        1
 44
0.0
173
     0
291
     0
 45
0.0
1001
ACAD
1000
AcDbSavedByObjectVersion
1070
     0
  0
VISUALSTYLE
  5
35
102
{ACAD_REACTORS
330
2A
102
}
330
2A
100
AcDbVisualStyle
  2
Dim
 70
    11
 71
     2
 72
     2
 73
     0
 90
        0
 40
-0.6
 41
-30.0
 62
     5
 63
     7
421
 16777215
 74
     1
 91
        4
 64
     7
 65
   257
 75
     1
175
     1
 42
1.0
 92
        8
 66
     7
 43
1.0
 76
     1
 77
     6
 78
     2
 67
     7
 79
     5
170
     0
171
     0
290
     0
174
     0
 93
        1
 44
-50.0
173
     0
291
     1
 45
0.0
1001
ACAD
1000
AcDbSavedByObjectVersion
1070
     0
  0
VISUALSTYLE
  5
39
102
{ACAD_REACTORS
330
2A
102
}
330
2A
100
AcDbVisualStyle
  2
Facepattern
 70
    15
 71
     2
 72
     2
 73
     0
 90
        0
 40
-0.6
 41
-30.0
 62
     5
 63
     7
421
 16777215
 74
     1
 91
        4
 64
     7
 65
   257
 75
     1
175
     1
 42
1.0
 92
        8
 66
     7
 43
1.0
 76
     1
 77
     6
 78
     2
 67
     7
 79
     5
170
     0
171
     0
290
     0
174
     0
 93
        1
 44
0.0
173
     0
291
     1
 45
0.0
1001
ACAD
1000
AcDbSavedByObjectVersion
1070
     0
  0
VISUALSTYLE
  5
2B
102
{ACAD_REACTORS
330
2A
102
}
330
2A
100
AcDbVisualStyle
  2
Flat
 70
     0
 71
     2
 72
     1
 73
     1
 90
        2
 40
-0.6
 41
30.0
 62
     5
 63
     7
421
 16777215
 74
     0
 91
        4
 64
     7
 65
   257
 75
     1
175
     1
 42
1.0
 92
        8
 66
     7
 43
1.0
 76
     1
 77
     6
 78
     2
 67
     7
 79
     5
170
     0
171
     0
290
     0
174
     0
 93
       13
 44
0.0
173
     0
291
     1
 45
0.0
1001
ACAD
1000
AcDbSavedByObjectVersion
1070
     0
  0
VISUALSTYLE
  5
2C
102
{ACAD_REACTORS
330
2A
102
}
330
2A
100
AcDbVisualStyle
  2
FlatWithEdges
 70
     1
 71
     2
 72
     1
 73
     1
 90
        2
 40
-0.6
 41
30.0
 62
     5
 63
     7
421
 16777215
 74
     1
 91
        4
 64
     7
 65
   257
 75
     1
175
     1
 42
1.0
 92
        0
 66
   257
 43
1.0
 76
     1
 77
     6
 78
     2
 67
     7
 79
     5
170
     0
171
     0
290
     0
174
     0
 93
       13
 44
0.0
173
     0
291
     1
 45
0.0
1001
ACAD
1000
AcDbSavedByObjectVersion
1070
     0
  0
VISUALSTYLE
  5
2D
102
{ACAD_REACTORS
330
2A
102
}
330
2A
100
AcDbVisualStyle
  2
Gouraud
 70
     2
 71
     2
 72
     2
 73
     1
 90
        2
 40
-0.6
 41
30.0
 62
     5
 63
     7
421
 16777215
 74
     0
 91
        4
 64
     7
 65
   257
 75
     1
175
     1
 42
1.0
 92
        0
 66
     7
 43
1.0
 76
     1
 77
     6
 78
     2
 67
     7
 79
     5
170
     0
171
     0
290
     0
174
     0
 93
       13
 44
0.0
173
     0
291
     1
 45
0.0
1001
ACAD
1000
AcDbSavedByObjectVersion
1070
     0
  0
VISUALSTYLE
  5
2E
102
{ACAD_REACTORS
330
2A
102
}
330
2A
100
AcDbVisualStyle
  2
GouraudWithEdges
 70
     3
 71
     2
 72
     2
 73
     1
 90
        2
 40
-0.6
 41
30.0
 62
     5
 63
     7
421
 16777215
 74
     1
 91
        4
 64
     7
 65
   257
 75
     1
175
     1
 42
1.0
 92
        0
 66
   257
 43
1.0
 76
     1
 77
     6
 78
     2
 67
     7
 79
     5
170
     0
171
     0
290
     0
174
     0
 93
       13
 44
0.0
173
     0
291
     1
 45
0.0
1001
ACAD
1000
AcDbSavedByObjectVersion
1070
     0
  0
VISUALSTYLE
  5
38
102
{ACAD_REACTORS
330
2A
102
}
330
2A
100
AcDbVisualStyle
  2
Linepattern
 70
    14
 71
     2
 72
     2
 73
     0
 90
        0
 40
-0.6
 41
-30.0
 62
     5
 63
     7
421
 16777215
 74
     1
 91
        4
 64
     7
 65
   257
 75
     7
175
     7
 42
1.0
 92
        8
 66
     7
 43
1.0
 76
     1
 77
     6
 78
     2
 67
     7
 79
     5
170
     0
171
     0
290
     0
174
     0
 93
        1
 44
0.0
173
     0
291
     1
 45
0.0
1001
ACAD
1000
AcDbSavedByObjectVersion
1070
     0
  0
VISUALSTYLE
  5
33
102
{ACAD_REACTORS
330
2A
102
}
330
2A
100
AcDbVisualStyle
  2
Realistic
 70
     8
 71
     2
 72
     2
 73
     0
 90
        0
 40
-0.6
 41
-30.0
 62
     5
 63
     7
421
 16777215
 74
     1
 91
        0
 64
     7
 65
   257
 75
     1
175
     1
 42
1.0
 92
        8
 66
     8
424
  7895160
 43
1.0
 76
     1
 77
     6
 78
     2
 67
     7
 79
     5
170
     0
171
     0
290
     0
174
     0
 93
       13
 44
0.0
173
     0
291
     0
 45
0.0
1001
ACAD
1000
AcDbSavedByObjectVersion
1070
     0
  0
VISUALSTYLE
  5
37
102
{ACAD_REACTORS
330
2A
102
}
330
2A
100
AcDbVisualStyle
  2
Thicken
 70
    13
 71
     2
 72
     2
 73
     0
 90
        0
 40
-0.6
 41
-30.0
 62
     5
 63
     7
421
 16777215
 74
     1
 91
        4
 64
     7
 65
   257
 75
     1
175
     1
 42
1.0
 92
       12
 66
     7
 43
1.0
 76
     1
 77
     6
 78
     2
 67
     7
 79
     5
170
     0
171
     0
290
     0
174
     0
 93
        1
 44
0.0
173
     0
291
     1
 45
0.0
1001
ACAD
1000
AcDbSavedByObjectVersion
1070
     0
  0
ENDSEC
  0
EOF
