  0
SECTION
  2
HEADER
  9
$ACADVER
  1
AC1018
  9
$ACADMAINTVER
 70
     0
  9
$DWGCODEPAGE
  3
ANSI_932
  9
$INSBASE
 10
0.0
 20
0.0
 30
0.0
  9
$EXTMIN
 10
-1680.0
 20
-1188.0
 30
0.0
  9
$EXTMAX
 10
1680.0
 20
1188.0
 30
0.0
  9
$LIMMIN
 10
-1680.0
 20
-1188.0
  9
$LIMMAX
 10
1680.0
 20
1188.0
  9
$ORTHOMODE
 70
     0
  9
$REGENMODE
 70
     1
  9
$FILLMODE
 70
     1
  9
$QTEXTMODE
 70
     0
  9
$MIRRTEXT
 70
     1
  9
$LTSCALE
 40
8.0
  9
$ATTMODE
 70
     1
  9
$TEXTSIZE
 40
2.5
  9
$TRACEWID
 40
1.0
  9
$TEXTSTYLE
  7
Standard
  9
$CLAYER
  8
0
  9
$CELTYPE
  6
ByLayer
  9
$CECOLOR
 62
   256
  9
$CELTSCALE
 40
1.0
  9
$DISPSILH
 70
     0
  9
$DIMSCALE
 40
1.0
  9
$DIMASZ
 40
2.5
  9
$DIMEXO
 40
0.625
  9
$DIMDLI
 40
3.75
  9
$DIMRND
 40
0.0
  9
$DIMDLE
 40
0.0
  9
$DIMEXE
 40
1.25
  9
$DIMTP
 40
0.0
  9
$DIMTM
 40
0.0
  9
$DIMTXT
 40
2.5
  9
$DIMCEN
 40
2.5
  9
$DIMTSZ
 40
0.0
  9
$DIMTOL
 70
     0
  9
$DIMLIM
 70
     0
  9
$DIMTIH
 70
     0
  9
$DIMTOH
 70
     0
  9
$DIMSE1
 70
     0
  9
$DIMSE2
 70
     0
  9
$DIMTAD
 70
     1
  9
$DIMZIN
 70
     8
  9
$DIMBLK
  1

  9
$DIMASO
 70
     1
  9
$DIMSHO
 70
     1
  9
$DIMPOST
  1

  9
$DIMAPOST
  1

  9
$DIMALT
 70
     0
  9
$DIMALTD
 70
     3
  9
$DIMALTF
 40
0.03937007874016
  9
$DIMLFAC
 40
1.0
  9
$DIMTOFL
 70
     1
  9
$DIMTVP
 40
0.0
  9
$DIMTIX
 70
     0
  9
$DIMSOXD
 70
     0
  9
$DIMSAH
 70
     0
  9
$DIMBLK1
  1

  9
$DIMBLK2
  1

  9
$DIMSTYLE
  2
ISO-25
  9
$DIMCLRD
 70
     0
  9
$DIMCLRE
 70
     0
  9
$DIMCLRT
 70
     0
  9
$DIMTFAC
 40
1.0
  9
$DIMGAP
 40
0.625
  9
$DIMJUST
 70
     0
  9
$DIMSD1
 70
     0
  9
$DIMSD2
 70
     0
  9
$DIMTOLJ
 70
     0
  9
$DIMTZIN
 70
     8
  9
$DIMALTZ
 70
     0
  9
$DIMALTTZ
 70
     0
  9
$DIMUPT
 70
     0
  9
$DIMDEC
 70
     2
  9
$DIMTDEC
 70
     2
  9
$DIMALTU
 70
     2
  9
$DIMALTTD
 70
     3
  9
$DIMTXSTY
  7
Standard
  9
$DIMAUNIT
 70
     0
  9
$DIMADEC
 70
     0
  9
$DIMALTRND
 40
0.0
  9
$DIMAZIN
 70
     0
  9
$DIMDSEP
 70
    44
  9
$DIMATFIT
 70
     3
  9
$DIMFRAC
 70
     0
  9
$DIMLDRBLK
  1

  9
$DIMLUNIT
 70
     2
  9
$DIMLWD
 70
    -2
  9
$DIMLWE
 70
    -2
  9
$DIMTMOVE
 70
     0
  9
$LUNITS
 70
     2
  9
$LUPREC
 70
     4
  9
$SKETCHINC
 40
1.0
  9
$FILLETRAD
 40
10.0
  9
$AUNITS
 70
     0
  9
$AUPREC
 70
     0
  9
$MENU
  1
.
  9
$ELEVATION
 40
0.0
  9
$PELEVATION
 40
0.0
  9
$THICKNESS
 40
0.0
  9
$LIMCHECK
 70
     0
  9
$CHAMFERA
 40
10.0
  9
$CHAMFERB
 40
10.0
  9
$CHAMFERC
 40
20.0
  9
$CHAMFERD
 40
0.0
  9
$SKPOLY
 70
     0
  9
$TDCREATE
 40
2457539.730694618
  9
$TDUCREATE
 40
2457539.355694618
  9
$TDUPDATE
 40
2457539.73069463
  9
$TDUUPDATE
 40
2457539.35569463
  9
$TDINDWG
 40
0.0000000116
  9
$TDUSRTIMER
 40
0.0000000116
  9
$USRTIMER
 70
     1
  9
$ANGBASE
 50
0.0
  9
$ANGDIR
 70
     0
  9
$PDMODE
 70
     0
  9
$PDSIZE
 40
0.0
  9
$PLINEWID
 40
0.0
  9
$SPLFRAME
 70
     0
  9
$SPLINETYPE
 70
     6
  9
$SPLINESEGS
 70
     8
  9
$HANDSEED
  5
45F
  9
$SURFTAB1
 70
     6
  9
$SURFTAB2
 70
     6
  9
$SURFTYPE
 70
     6
  9
$SURFU
 70
     6
  9
$SURFV
 70
     6
  9
$UCSBASE
  2

  9
$UCSNAME
  2

  9
$UCSORG
 10
0.0
 20
0.0
 30
0.0
  9
$UCSXDIR
 10
1.0
 20
0.0
 30
0.0
  9
$UCSYDIR
 10
0.0
 20
1.0
 30
0.0
  9
$UCSORTHOREF
  2

  9
$UCSORTHOVIEW
 70
     0
  9
$UCSORGTOP
 10
0.0
 20
0.0
 30
0.0
  9
$UCSORGBOTTOM
 10
0.0
 20
0.0
 30
0.0
  9
$UCSORGLEFT
 10
0.0
 20
0.0
 30
0.0
  9
$UCSORGRIGHT
 10
0.0
 20
0.0
 30
0.0
  9
$UCSORGFRONT
 10
0.0
 20
0.0
 30
0.0
  9
$UCSORGBACK
 10
0.0
 20
0.0
 30
0.0
  9
$PUCSBASE
  2

  9
$PUCSNAME
  2

  9
$PUCSORG
 10
0.0
 20
0.0
 30
0.0
  9
$PUCSXDIR
 10
1.0
 20
0.0
 30
0.0
  9
$PUCSYDIR
 10
0.0
 20
1.0
 30
0.0
  9
$PUCSORTHOREF
  2

  9
$PUCSORTHOVIEW
 70
     0
  9
$PUCSORGTOP
 10
0.0
 20
0.0
 30
0.0
  9
$PUCSORGBOTTOM
 10
0.0
 20
0.0
 30
0.0
  9
$PUCSORGLEFT
 10
0.0
 20
0.0
 30
0.0
  9
$PUCSORGRIGHT
 10
0.0
 20
0.0
 30
0.0
  9
$PUCSORGFRONT
 10
0.0
 20
0.0
 30
0.0
  9
$PUCSORGBACK
 10
0.0
 20
0.0
 30
0.0
  9
$USERI1
 70
     0
  9
$USERI2
 70
     0
  9
$USERI3
 70
     0
  9
$USERI4
 70
     0
  9
$USERI5
 70
     0
  9
$USERR1
 40
0.0
  9
$USERR2
 40
0.0
  9
$USERR3
 40
0.0
  9
$USERR4
 40
0.0
  9
$USERR5
 40
0.0
  9
$WORLDVIEW
 70
     1
  9
$SHADEDGE
 70
     3
  9
$SHADEDIF
 70
    70
  9
$TILEMODE
 70
     1
  9
$MAXACTVP
 70
    64
  9
$PINSBASE
 10
0.0
 20
0.0
 30
0.0
  9
$PLIMCHECK
 70
     0
  9
$PEXTMIN
 10
1.000000000000000E+20
 20
1.000000000000000E+20
 30
1.000000000000000E+20
  9
$PEXTMAX
 10
-1.000000000000000E+20
 20
-1.000000000000000E+20
 30
-1.000000000000000E+20
  9
$PLIMMIN
 10
0.0
 20
0.0
  9
$PLIMMAX
 10
420.0
 20
297.0
  9
$UNITMODE
 70
     0
  9
$VISRETAIN
 70
     1
  9
$PLINEGEN
 70
     0
  9
$PSLTSCALE
 70
     1
  9
$TREEDEPTH
 70
  3020
  9
$CMLSTYLE
  2
Standard
  9
$CMLJUST
 70
     0
  9
$CMLSCALE
 40
20.0
  9
$PROXYGRAPHICS
 70
     1
  9
$MEASUREMENT
 70
     1
  9
$CELWEIGHT
370
    -1
  9
$ENDCAPS
280
     0
  9
$JOINSTYLE
280
     0
  9
$LWDISPLAY
290
     0
  9
$INSUNITS
 70
     4
  9
$HYPERLINKBASE
  1

  9
$STYLESHEET
  1

  9
$XEDIT
290
     1
  9
$CEPSNTYPE
380
     0
  9
$PSTYLEMODE
290
     1
  9
$FINGERPRINTGUID
  2
{29FDB067-509C-47F4-A0AB-DBF588A03BCE}
  9
$VERSIONGUID
  2
{FAEB1C32-E019-11D5-929B-00C0DF256EC4}
  9
$EXTNAMES
290
     1
  9
$PSVPSCALE
 40
0.0
  9
$OLESTARTUP
290
     0
  9
$SORTENTS
280
   127
  9
$INDEXCTL
280
     0
  9
$HIDETEXT
280
     1
  9
$XCLIPFRAME
290
     0
  9
$HALOGAP
280
     0
  9
$OBSCOLOR
 70
   257
  9
$OBSLTYPE
280
     0
  9
$INTERSECTIONDISPLAY
280
     0
  9
$INTERSECTIONCOLOR
 70
   257
  9
$DIMASSOC
280
     2
  9
$PROJECTNAME
  1

  0
ENDSEC
  0
SECTION
  2
CLASSES
  0
CLASS
  1
ACDBDICTIONARYWDFLT
  2
AcDbDictionaryWithDefault
  3
ObjectDBX Classes
 90
        0
 91
        4
280
     0
281
     0
  0
CLASS
  1
VISUALSTYLE
  2
AcDbVisualStyle
  3
ObjectDBX Classes
 90
     4095
 91
        4
280
     0
281
     0
  0
ENDSEC
  0
SECTION
  2
TABLES
  0
TABLE
  2
VPORT
  5
8
330
0
100
AcDbSymbolTable
 70
     1
  0
VPORT
  5
29
330
8
100
AcDbSymbolTableRecord
100
AcDbViewportTableRecord
  2
*Active
 70
     0
 10
0.0
 20
0.0
 11
1.0
 21
1.0
 12
0.0
 22
0.0
 13
0.0
 23
0.0
 14
10.0
 24
10.0
 15
10.0
 25
10.0
 16
0.0
 26
0.0
 36
1.0
 17
0.0
 27
0.0
 37
0.0
 40
2613.6
 41
1.414141414141414
 42
50.0
 43
0.0
 44
0.0
 50
0.0
 51
0.0
 71
     0
 72
 10000
 73
     1
 74
     3
 75
     0
 76
     0
 77
     0
 78
     0
281
     0
 65
     1
110
0.0
120
0.0
130
0.0
111
1.0
121
0.0
131
0.0
112
0.0
122
1.0
132
0.0
 79
     0
146
0.0
  0
ENDTAB
  0
TABLE
  2
LTYPE
  5
5
330
0
100
AcDbSymbolTable
 70
     5
  0
LTYPE
  5
14
330
5
100
AcDbSymbolTableRecord
100
AcDbLinetypeTableRecord
  2
ByBlock
 70
     0
  3

 72
    65
 73
     0
 40
0.0
  0
LTYPE
  5
15
330
5
100
AcDbSymbolTableRecord
100
AcDbLinetypeTableRecord
  2
ByLayer
 70
     0
  3

 72
    65
 73
     0
 40
0.0
  0
LTYPE
  5
16
330
5
100
AcDbSymbolTableRecord
100
AcDbLinetypeTableRecord
  2
Continuous
 70
     0
  3
Solid line
 72
    65
 73
     0
 40
0.0
  0
LTYPE
  5
3C
330
5
100
AcDbSymbolTableRecord
100
AcDbLinetypeTableRecord
  2
JWW_DASHED1
 70
     0
  3
-  --  --  --  --  --  --  --  -
 72
    65
 73
     2
 40
1.693333333333333
 49
0.8466666666666667
 74
     0
 49
-0.8466666666666667
 74
     0
  0
LTYPE
  5
3D
330
5
100
AcDbSymbolTableRecord
100
AcDbLinetypeTableRecord
  2
JWW_PHANTOM2
 70
     0
  3
------------  -  -  ------------
 72
    65
 73
     6
 40
13.54666666666667
 49
10.16
 74
     0
 49
-0.8466666666666667
 74
     0
 49
0.4233333333333333
 74
     0
 49
-0.8466666666666667
 74
     0
 49
0.4233333333333333
 74
     0
 49
-0.8466666666666667
 74
     0
  0
LTYPE
  5
3E
330
5
100
AcDbSymbolTableRecord
100
AcDbLinetypeTableRecord
  2
JWW_CENTER2
 70
     0
  3
-------------  --  -------------
 72
    65
 73
     4
 40
13.54666666666667
 49
11.00666666666667
 74
     0
 49
-0.8466666666666667
 74
     0
 49
0.8466666666666667
 74
     0
 49
-0.8466666666666667
 74
     0
  0
LTYPE
  5
3F
330
5
100
AcDbSymbolTableRecord
100
AcDbLinetypeTableRecord
  2
JWW_CENTER1
 70
     0
  3
-----  --  ----------  --  -----
 72
    65
 73
     4
 40
6.773333333333333
 49
4.233333333333333
 74
     0
 49
-0.8466666666666667
 74
     0
 49
0.8466666666666667
 74
     0
 49
-0.8466666666666667
 74
     0
  0
ENDTAB
  0
TABLE
  2
LAYER
  5
2
330
0
100
AcDbSymbolTable
 70
    11
  0
LAYER
  5
10
330
2
100
AcDbSymbolTableRecord
100
AcDbLayerTableRecord
  2
0
 70
     0
 62
     7
  6
Continuous
370
    -3
390
F
  0
LAYER
  5
40
330
2
100
AcDbSymbolTableRecord
100
AcDbLayerTableRecord
  2
建具
 70
     0
 62
     7
  6
Continuous
370
    -3
390
F
  0
LAYER
  5
41
330
2
100
AcDbSymbolTableRecord
100
AcDbLayerTableRecord
  2
通り芯
 70
     0
 62
     7
  6
Continuous
370
    -3
390
F
  0
LAYER
  5
42
330
2
100
AcDbSymbolTableRecord
100
AcDbLayerTableRecord
  2
0-F
 70
     0
 62
     7
  6
Continuous
370
    -3
390
F
  0
LAYER
  5
43
330
2
100
AcDbSymbolTableRecord
100
AcDbLayerTableRecord
  2
仕上
 70
     0
 62
     7
  6
Continuous
370
    -3
390
F
  0
LAYER
  5
44
330
2
100
AcDbSymbolTableRecord
100
AcDbLayerTableRecord
  2
躯体
 70
     0
 62
     7
  6
Continuous
370
    -3
390
F
  0
LAYER
  5
45
330
2
100
AcDbSymbolTableRecord
100
AcDbLayerTableRecord
  2
その他
 70
     0
 62
     7
  6
Continuous
370
    -3
390
F
  0
LAYER
  5
46
330
2
100
AcDbSymbolTableRecord
100
AcDbLayerTableRecord
  2
寸法
 70
     0
 62
     7
  6
Continuous
370
    -3
390
F
  0
LAYER
  5
47
330
2
100
AcDbSymbolTableRecord
100
AcDbLayerTableRecord
  2
0-A
 70
     0
 62
     7
  6
Continuous
370
    -3
390
F
  0
LAYER
  5
48
330
2
100
AcDbSymbolTableRecord
100
AcDbLayerTableRecord
  2
F-0ﾚｲﾔ
 70
     0
 62
     7
  6
Continuous
370
    -3
390
F
  0
LAYER
  5
49
330
2
100
AcDbSymbolTableRecord
100
AcDbLayerTableRecord
  2
F-Fﾚｲﾔ
 70
     0
 62
     7
  6
Continuous
370
    -3
390
F
  0
ENDTAB
  0
TABLE
  2
STYLE
  5
3
330
0
100
AcDbSymbolTable
 70
     2
  0
STYLE
  5
11
330
3
100
AcDbSymbolTableRecord
100
AcDbTextStyleTableRecord
  2
Standard
 70
     0
 40
0.0
 41
1.0
 50
0.0
 71
     0
 42
2.5
  3
txt
  4

1001
ACAD
1000

1071
        0
  0
STYLE
  5
3B
330
3
100
AcDbSymbolTableRecord
100
AcDbTextStyleTableRecord
  2
ＭＳ ゴシック
 70
     0
 40
1.0
 41
1.0
 50
0.0
 71
     0
 42
10.0
  3

  4

1001
ACAD
1000
MS Gothic
1071
    32817
  0
ENDTAB
  0
TABLE
  2
VIEW
  5
6
330
0
100
AcDbSymbolTable
 70
     0
  0
ENDTAB
  0
TABLE
  2
UCS
  5
7
330
0
100
AcDbSymbolTable
 70
     0
  0
ENDTAB
  0
TABLE
  2
APPID
  5
9
330
0
100
AcDbSymbolTable
 70
     1
  0
APPID
  5
12
330
9
100
AcDbSymbolTableRecord
100
AcDbRegAppTableRecord
  2
ACAD
 70
     0
  0
ENDTAB
  0
TABLE
  2
DIMSTYLE
  5
A
330
0
100
AcDbSymbolTable
 70
     1
100
AcDbDimStyleTable
  0
DIMSTYLE
105
27
330
A
100
AcDbSymbolTableRecord
100
AcDbDimStyleTableRecord
  2
ISO-25
 70
     0
 41
2.5
 42
0.625
 43
3.75
 44
1.25
 73
     0
 74
     0
 77
     1
 78
     8
140
2.5
141
2.5
143
0.03937007874016
147
0.625
171
     3
172
     1
271
     2
272
     2
274
     3
278
    44
283
     0
284
     8
340
11
  0
ENDTAB
  0
TABLE
  2
BLOCK_RECORD
  5
1
330
0
100
AcDbSymbolTable
 70
     1
  0
BLOCK_RECORD
  5
1F
330
1
100
AcDbSymbolTableRecord
100
AcDbBlockTableRecord
  2
*Model_Space
340
22
  0
BLOCK_RECORD
  5
1B
330
1
100
AcDbSymbolTableRecord
100
AcDbBlockTableRecord
  2
*Paper_Space
340
1E
  0
BLOCK_RECORD
  5
23
330
1
100
AcDbSymbolTableRecord
100
AcDbBlockTableRecord
  2
*Paper_Space0
340
26
  0
ENDTAB
  0
ENDSEC
  0
SECTION
  2
BLOCKS
  0
BLOCK
  5
20
330
1F
100
AcDbEntity
  8
0
100
AcDbBlockBegin
  2
*Model_Space
 70
     0
 10
0.0
 20
0.0
 30
0.0
  3
*Model_Space
  1

  0
ENDBLK
  5
21
330
1F
100
AcDbEntity
  8
0
100
AcDbBlockEnd
  0
BLOCK
  5
1C
330
1B
100
AcDbEntity
 67
     1
  8
0
100
AcDbBlockBegin
  2
*Paper_Space
 70
     0
 10
0.0
 20
0.0
 30
0.0
  3
*Paper_Space
  1

  0
ENDBLK
  5
1D
330
1B
100
AcDbEntity
 67
     1
  8
0
100
AcDbBlockEnd
  0
BLOCK
  5
24
330
23
100
AcDbEntity
  8
0
100
AcDbBlockBegin
  2
*Paper_Space0
 70
     0
 10
0.0
 20
0.0
 30
0.0
  3
*Paper_Space0
  1

  0
ENDBLK
  5
25
330
23
100
AcDbEntity
  8
0
100
AcDbBlockEnd
  0
ENDSEC
  0
SECTION
  2
ENTITIES
  0
LINE
  5
4A
330
1F
100
AcDbEntity
  8
建具
  6
Continuous
 62
     2
370
     9
100
AcDbLine
 10
-1182.220755912162
 20
498.7295713682433
 30
0.0
 11
-1182.220755912162
 21
440.0293232685813
 31
0.0
  0
LINE
  5
4B
330
1F
100
AcDbEntity
  8
建具
  6
Continuous
 62
     2
370
     9
100
AcDbLine
 10
-1217.221019847973
 20
500.5289537584461
 30
0.0
 11
-1247.221514727618
 21
500.5289537584461
 31
0.0
  0
LINE
  5
4C
330
1F
100
AcDbEntity
  8
建具
  6
Continuous
 62
     2
370
     9
100
AcDbLine
 10
-1247.221514727618
 20
500.5289537584461
 30
0.0
 11
-1247.221514727618
 21
438.2295449746623
 31
0.0
  0
LINE
  5
4D
330
1F
100
AcDbEntity
  8
建具
  6
Continuous
 62
     2
370
     9
100
AcDbLine
 10
-1217.221019847973
 20
438.2295449746623
 30
0.0
 11
-1247.221514727618
 21
438.2295449746623
 31
0.0
  0
LINE
  5
4E
330
1F
100
AcDbEntity
  8
建具
  6
Continuous
 62
     2
370
     9
100
AcDbLine
 10
-1217.221019847973
 20
500.5289537584461
 30
0.0
 11
-1212.22095386402
 21
498.7295713682433
 31
0.0
  0
LINE
  5
4F
330
1F
100
AcDbEntity
  8
建具
  6
Continuous
 62
     2
370
     9
100
AcDbLine
 10
-1212.22095386402
 20
440.0293232685813
 30
0.0
 11
-1217.221019847973
 21
438.2295449746623
 31
0.0
  0
LINE
  5
50
330
1F
100
AcDbEntity
  8
建具
  6
Continuous
 62
     2
370
     9
100
AcDbLine
 10
-1182.220755912162
 20
440.0293232685813
 30
0.0
 11
-1212.22095386402
 21
440.0293232685813
 31
0.0
  0
LINE
  5
51
330
1F
100
AcDbEntity
  8
建具
  6
Continuous
 62
     2
370
     9
100
AcDbLine
 10
-1212.22095386402
 20
498.7295713682433
 30
0.0
 11
-1212.22095386402
 21
440.0293232685813
 31
0.0
  0
LINE
  5
52
330
1F
100
AcDbEntity
  8
建具
  6
Continuous
 62
     2
370
     9
100
AcDbLine
 10
-1182.220755912162
 20
498.7295713682433
 30
0.0
 11
-1212.22095386402
 21
498.7295713682433
 31
0.0
  0
LINE
  5
53
330
1F
100
AcDbEntity
  8
建具
  6
Continuous
 62
     2
370
     9
100
AcDbLine
 10
-1182.220755912162
 20
498.1289854307433
 30
0.0
 11
-1212.325670396959
 21
498.1289854307433
 31
0.0
  0
LINE
  5
54
330
1F
100
AcDbEntity
  8
建具
  6
Continuous
 62
     2
370
     9
100
AcDbLine
 10
-1217.325736380912
 20
499.9291596283786
 30
0.0
 11
-1212.325670396959
 21
498.1289854307433
 31
0.0
  0
LINE
  5
55
330
1F
100
AcDbEntity
  8
建具
  6
Continuous
 62
     2
370
     9
100
AcDbLine
 10
-1217.325736380912
 20
499.9291596283786
 30
0.0
 11
-1247.221514727618
 21
499.9291596283786
 31
0.0
  0
LINE
  5
56
330
1F
100
AcDbEntity
  8
建具
  6
Continuous
 62
     2
370
     9
100
AcDbLine
 10
-1182.220755912162
 20
440.6291173986488
 30
0.0
 11
-1212.325670396959
 21
440.6291173986488
 31
0.0
  0
LINE
  5
57
330
1F
100
AcDbEntity
  8
建具
  6
Continuous
 62
     2
370
     9
100
AcDbLine
 10
-1212.325670396959
 20
440.6291173986488
 30
0.0
 11
-1217.325736380912
 21
438.8293391047298
 31
0.0
  0
LINE
  5
58
330
1F
100
AcDbEntity
  8
建具
  6
Continuous
 62
     2
370
     9
100
AcDbLine
 10
-1217.325736380912
 20
438.8293391047298
 30
0.0
 11
-1247.221514727618
 21
438.8293391047298
 31
0.0
  0
LINE
  5
59
330
1F
100
AcDbEntity
  8
通り芯
  6
Continuous
 62
     2
370
     9
100
AcDbLine
 10
-1087.221481735642
 20
-680.6208826013512
 30
0.0
 11
-1047.221448743665
 21
-680.6208826013512
 31
0.0
  0
LINE
  5
5A
330
1F
100
AcDbEntity
  8
通り芯
  6
Continuous
 62
     2
370
     9
100
AcDbLine
 10
-1087.221481735642
 20
-280.6207506334459
 30
0.0
 11
-1087.221481735642
 21
-680.6208826013512
 31
0.0
  0
LINE
  5
5B
330
1F
100
AcDbEntity
  8
通り芯
  6
Continuous
 62
     2
370
     9
100
AcDbLine
 10
-1087.221481735642
 20
-280.6207506334459
 30
0.0
 11
-1047.221448743665
 21
-280.6207506334459
 31
0.0
  0
LINE
  5
5C
330
1F
100
AcDbEntity
  8
通り芯
  6
Continuous
 62
     2
370
     9
100
AcDbLine
 10
-1047.221448743665
 20
-280.6207506334459
 30
0.0
 11
-1047.221448743665
 21
-680.6208826013512
 31
0.0
  0
LINE
  5
5D
330
1F
100
AcDbEntity
  8
通り芯
  6
Continuous
 62
     2
370
     9
100
AcDbLine
 10
-687.2213497677365
 20
-280.6207506334459
 30
0.0
 11
-687.2213497677365
 21
-680.6208826013512
 31
0.0
  0
LINE
  5
5E
330
1F
100
AcDbEntity
  8
通り芯
  6
Continuous
 62
     2
370
     9
100
AcDbLine
 10
-727.2214817356419
 20
-680.6208826013512
 30
0.0
 11
-687.2213497677365
 21
-680.6208826013512
 31
0.0
  0
LINE
  5
5F
330
1F
100
AcDbEntity
  8
0-F
  6
Continuous
 62
     7
370
     9
100
AcDbLine
 10
-1047.221448743665
 20
-680.6208826013512
 30
0.0
 11
-996.0108081714527
 21
-680.6208826013512
 31
0.0
  0
LINE
  5
60
330
1F
100
AcDbEntity
  8
0-F
  6
Continuous
 62
     7
370
     9
100
AcDbLine
 10
-996.0108081714527
 20
-677.6209221917229
 30
0.0
 11
-996.0108081714527
 21
-680.6208826013512
 31
0.0
  0
LINE
  5
61
330
1F
100
AcDbEntity
  8
0-F
  6
Continuous
 62
     7
370
     9
100
AcDbLine
 10
-1047.221448743665
 20
-677.6209221917229
 30
0.0
 11
-996.0108081714527
 21
-677.6209221917229
 31
0.0
  0
LINE
  5
62
330
1F
100
AcDbEntity
  8
0-F
  6
Continuous
 62
     7
370
     9
100
AcDbLine
 10
-727.2214817356419
 20
-680.6208826013512
 30
0.0
 11
-778.4320233319256
 21
-680.6208826013512
 31
0.0
  0
LINE
  5
63
330
1F
100
AcDbEntity
  8
0-F
  6
Continuous
 62
     7
370
     9
100
AcDbLine
 10
-778.4320233319256
 20
-677.6209221917229
 30
0.0
 11
-778.4320233319256
 21
-680.6208826013512
 31
0.0
  0
LINE
  5
64
330
1F
100
AcDbEntity
  8
0-F
  6
Continuous
 62
     7
370
     9
100
AcDbLine
 10
-727.2214817356419
 20
-677.6209221917229
 30
0.0
 11
-778.4320233319256
 21
-677.6209221917229
 31
0.0
  0
LINE
  5
65
330
1F
100
AcDbEntity
  8
建具
  6
Continuous
 62
     2
370
     9
100
AcDbLine
 10
-1217.221019847973
 20
499.6290646114867
 30
0.0
 11
-1217.221019847973
 21
439.1294341216217
 31
0.0
  0
LINE
  5
66
330
1F
100
AcDbEntity
  8
仕上
  6
Continuous
 62
     6
370
     9
100
AcDbLine
 10
-1194.721118823902
 20
620.8793285472973
 30
0.0
 11
-1194.721118823902
 21
590.8793285472973
 31
0.0
  0
LINE
  5
67
330
1F
100
AcDbEntity
  8
通り芯
  6
Continuous
 62
     2
370
     9
100
AcDbLine
 10
-1190.22107923353
 20
619.3792493665542
 30
0.0
 11
-1190.22107923353
 21
599.3793813344596
 31
0.0
  0
LINE
  5
68
330
1F
100
AcDbEntity
  8
通り芯
  6
Continuous
 62
     2
370
     9
100
AcDbLine
 10
-1190.22107923353
 20
599.3793813344596
 30
0.0
 11
-1187.221118823902
 21
599.3793813344596
 31
0.0
  0
LINE
  5
69
330
1F
100
AcDbEntity
  8
通り芯
  6
Continuous
 62
     2
370
     9
100
AcDbLine
 10
-1187.221118823902
 20
619.3792493665542
 30
0.0
 11
-1187.221118823902
 21
599.3793813344596
 31
0.0
  0
LINE
  5
6A
330
1F
100
AcDbEntity
  8
通り芯
  6
Continuous
 62
     2
370
     9
100
AcDbLine
 10
-1190.22107923353
 20
619.3792493665542
 30
0.0
 11
-1187.221118823902
 21
619.3792493665542
 31
0.0
  0
LINE
  5
6B
330
1F
100
AcDbEntity
  8
通り芯
  6
Continuous
 62
     2
370
     9
100
AcDbLine
 10
-584.2211584142735
 20
619.3792493665542
 30
0.0
 11
-584.2211584142735
 21
599.3793813344596
 31
0.0
  0
LINE
  5
6C
330
1F
100
AcDbEntity
  8
通り芯
  6
Continuous
 62
     2
370
     9
100
AcDbLine
 10
-584.2211584142735
 20
599.3793813344596
 30
0.0
 11
-587.221217799831
 21
599.3793813344596
 31
0.0
  0
LINE
  5
6D
330
1F
100
AcDbEntity
  8
通り芯
  6
Continuous
 62
     2
370
     9
100
AcDbLine
 10
-587.221217799831
 20
619.3792493665542
 30
0.0
 11
-587.221217799831
 21
599.3793813344596
 31
0.0
  0
LINE
  5
6E
330
1F
100
AcDbEntity
  8
通り芯
  6
Continuous
 62
     2
370
     9
100
AcDbLine
 10
-584.2211584142735
 20
619.3792493665542
 30
0.0
 11
-587.221217799831
 21
619.3792493665542
 31
0.0
  0
LINE
  5
6F
330
1F
100
AcDbEntity
  8
仕上
  6
Continuous
 62
     6
370
     9
100
AcDbLine
 10
-1194.721118823902
 20
590.8793285472973
 30
0.0
 11
-1187.221118823902
 21
590.8793285472973
 31
0.0
  0
LINE
  5
70
330
1F
100
AcDbEntity
  8
仕上
  6
Continuous
 62
     6
370
     9
100
AcDbLine
 10
-587.221217799831
 20
590.8793285472973
 30
0.0
 11
-579.7210198479729
 21
590.8793285472973
 31
0.0
  0
LINE
  5
71
330
1F
100
AcDbEntity
  8
躯体
  6
Continuous
 62
     3
370
     9
100
AcDbLine
 10
-1187.221118823902
 20
619.3792493665542
 30
0.0
 11
-1136.571473817567
 21
619.3792493665542
 31
0.0
  0
LINE
  5
72
330
1F
100
AcDbEntity
  8
仕上
  6
Continuous
 62
     6
370
     9
100
AcDbLine
 10
-1194.721118823902
 20
619.3792493665542
 30
0.0
 11
-1146.571011929899
 21
619.3792493665542
 31
0.0
  0
LINE
  5
73
330
1F
100
AcDbEntity
  8
通り芯
  6
Continuous
 62
     2
370
     9
100
AcDbLine
 10
-1047.221448743665
 20
-465.6206186655405
 30
0.0
 11
-727.2214817356419
 21
-465.6206186655405
 31
0.0
  0
LINE
  5
74
330
1F
100
AcDbEntity
  8
躯体
  6
Continuous
 62
     3
370
     9
100
AcDbLine
 10
-1185.72094066723
 20
619.3792493665542
 30
0.0
 11
-1185.72094066723
 21
498.7295713682433
 31
0.0
  0
LINE
  5
75
330
1F
100
AcDbEntity
  8
躯体
  6
Continuous
 62
     3
370
     9
100
AcDbLine
 10
-1185.72094066723
 20
440.0293232685813
 30
0.0
 11
-1185.72094066723
 21
-280.6207506334459
 31
0.0
  0
LINE
  5
76
330
1F
100
AcDbEntity
  8
躯体
  6
Continuous
 62
     3
370
     9
100
AcDbLine
 10
-1187.221118823902
 20
619.3792493665542
 30
0.0
 11
-1187.221118823902
 21
498.7295713682433
 31
0.0
  0
LINE
  5
77
330
1F
100
AcDbEntity
  8
躯体
  6
Continuous
 62
     3
370
     9
100
AcDbLine
 10
-1187.221118823902
 20
440.0293232685813
 30
0.0
 11
-1187.221118823902
 21
-280.6207506334459
 31
0.0
  0
LINE
  5
78
330
1F
100
AcDbEntity
  8
建具
  6
Continuous
 62
     2
370
     9
100
AcDbLine
 10
-1076.071249472128
 20
652.3794077280406
 30
0.0
 11
-1076.071249472128
 21
682.3794077280406
 31
0.0
  0
LINE
  5
79
330
1F
100
AcDbEntity
  8
建具
  6
Continuous
 62
     2
370
     9
100
AcDbLine
 10
-1076.071249472128
 20
682.3794077280406
 30
0.0
 11
-1138.370460304054
 21
682.3794077280406
 31
0.0
  0
LINE
  5
7A
330
1F
100
AcDbEntity
  8
建具
  6
Continuous
 62
     2
370
     9
100
AcDbLine
 10
-1138.370460304054
 20
652.3794077280406
 30
0.0
 11
-1138.370460304054
 21
682.3794077280406
 31
0.0
  0
LINE
  5
7B
330
1F
100
AcDbEntity
  8
建具
  6
Continuous
 62
     2
370
     9
100
AcDbLine
 10
-1076.071249472128
 20
652.3794077280406
 30
0.0
 11
-1138.370460304054
 21
652.3794077280406
 31
0.0
  0
LINE
  5
7C
330
1F
100
AcDbEntity
  8
建具
  6
Continuous
 62
     2
370
     9
100
AcDbLine
 10
-1076.071249472128
 20
652.3794077280406
 30
0.0
 11
-1077.870829814189
 21
647.3791437922298
 31
0.0
  0
LINE
  5
7D
330
1F
100
AcDbEntity
  8
建具
  6
Continuous
 62
     2
370
     9
100
AcDbLine
 10
-1136.571473817567
 20
647.3791437922298
 30
0.0
 11
-1138.370460304054
 21
652.3794077280406
 31
0.0
  0
LINE
  5
7E
330
1F
100
AcDbEntity
  8
建具
  6
Continuous
 62
     2
370
     9
100
AcDbLine
 10
-1077.870829814189
 20
647.3791437922298
 30
0.0
 11
-1136.571473817567
 21
647.3791437922298
 31
0.0
  0
LINE
  5
7F
330
1F
100
AcDbEntity
  8
建具
  6
Continuous
 62
     2
370
     9
100
AcDbLine
 10
-1076.671142578125
 20
652.4839263091217
 30
0.0
 11
-1078.471415751689
 21
647.4836623733108
 31
0.0
  0
LINE
  5
80
330
1F
100
AcDbEntity
  8
建具
  6
Continuous
 62
     2
370
     9
100
AcDbLine
 10
-1076.671142578125
 20
652.4839263091217
 30
0.0
 11
-1076.671142578125
 21
682.3794077280406
 31
0.0
  0
LINE
  5
81
330
1F
100
AcDbEntity
  8
建具
  6
Continuous
 62
     2
370
     9
100
AcDbLine
 10
-1135.970887880067
 20
647.4836623733108
 30
0.0
 11
-1137.771260029561
 21
652.4839263091217
 31
0.0
  0
LINE
  5
82
330
1F
100
AcDbEntity
  8
建具
  6
Continuous
 62
     2
370
     9
100
AcDbLine
 10
-1137.771260029561
 20
652.4839263091217
 30
0.0
 11
-1137.771260029561
 21
682.3794077280406
 31
0.0
  0
LINE
  5
83
330
1F
100
AcDbEntity
  8
建具
  6
Continuous
 62
     2
370
     9
100
AcDbLine
 10
-1045.721072635135
 20
619.3792493665542
 30
0.0
 11
-1045.721072635135
 21
617.379539695946
 31
0.0
  0
LINE
  5
84
330
1F
100
AcDbEntity
  8
建具
  6
Continuous
 62
     2
370
     9
100
AcDbLine
 10
-1185.721138619088
 20
619.3792493665542
 30
0.0
 11
-1185.721138619088
 21
617.379539695946
 31
0.0
  0
LINE
  5
85
330
1F
100
AcDbEntity
  8
建具
  6
JWW_DASHED1
 62
     2
370
     9
100
AcDbLine
 10
-1045.721072635135
 20
619.3792493665542
 30
0.0
 11
-1045.721072635135
 21
617.379539695946
 31
0.0
  0
LINE
  5
86
330
1F
100
AcDbEntity
  8
建具
  6
JWW_DASHED1
 62
     2
370
     9
100
AcDbLine
 10
-1175.350143845017
 20
617.379539695946
 30
0.0
 11
-1045.721072635135
 21
617.379539695946
 31
0.0
  0
LINE
  5
87
330
1F
100
AcDbEntity
  8
建具
  6
JWW_DASHED1
 62
     2
370
     9
100
AcDbLine
 10
-1136.571473817567
 20
622.3794077280406
 30
0.0
 11
-1136.571473817567
 21
617.379539695946
 31
0.0
  0
LINE
  5
88
330
1F
100
AcDbEntity
  8
建具
  6
JWW_DASHED1
 62
     2
370
     9
100
AcDbLine
 10
-1077.870829814189
 20
622.3794077280406
 30
0.0
 11
-1077.870829814189
 21
617.379539695946
 31
0.0
  0
LINE
  5
89
330
1F
100
AcDbEntity
  8
建具
  6
Continuous
 62
     2
370
     9
100
AcDbLine
 10
-1185.721138619088
 20
617.379539695946
 30
0.0
 11
-1045.721072635135
 21
617.379539695946
 31
0.0
  0
LINE
  5
8A
330
1F
100
AcDbEntity
  8
建具
  6
Continuous
 62
     2
370
     9
100
AcDbLine
 10
-1185.721138619088
 20
619.3792493665542
 30
0.0
 11
-1136.571473817567
 21
619.3792493665542
 31
0.0
  0
LINE
  5
8B
330
1F
100
AcDbEntity
  8
建具
  6
Continuous
 62
     2
370
     9
100
AcDbLine
 10
-1136.571473817567
 20
617.379539695946
 30
0.0
 11
-1136.571473817567
 21
647.3791437922298
 31
0.0
  0
LINE
  5
8C
330
1F
100
AcDbEntity
  8
建具
  6
Continuous
 62
     2
370
     9
100
AcDbLine
 10
-1135.970887880067
 20
617.379539695946
 30
0.0
 11
-1135.970887880067
 21
647.4836623733108
 31
0.0
  0
LINE
  5
8D
330
1F
100
AcDbEntity
  8
建具
  6
Continuous
 62
     2
370
     9
100
AcDbLine
 10
-1078.471415751689
 20
617.379539695946
 30
0.0
 11
-1078.471415751689
 21
647.4836623733108
 31
0.0
  0
LINE
  5
8E
330
1F
100
AcDbEntity
  8
建具
  6
Continuous
 62
     2
370
     9
100
AcDbLine
 10
-1077.870829814189
 20
617.379539695946
 30
0.0
 11
-1077.870829814189
 21
647.3791437922298
 31
0.0
  0
LINE
  5
8F
330
1F
100
AcDbEntity
  8
躯体
  6
Continuous
 62
     3
370
     9
100
AcDbLine
 10
-1077.870829814189
 20
619.3792493665542
 30
0.0
 11
-587.221217799831
 21
619.3792493665542
 31
0.0
  0
LINE
  5
90
330
1F
100
AcDbEntity
  8
躯体
  6
Continuous
 62
     3
370
     9
100
AcDbLine
 10
-1155.761520798142
 20
617.379539695946
 30
0.0
 11
-1055.761487806165
 21
617.379539695946
 31
0.0
  0
LINE
  5
91
330
1F
100
AcDbEntity
  8
躯体
  6
JWW_DASHED1
 62
     3
370
     9
100
AcDbLine
 10
-1155.761520798142
 20
613.3793285472973
 30
0.0
 11
-1055.761487806165
 21
613.3793285472973
 31
0.0
  0
LINE
  5
92
330
1F
100
AcDbEntity
  8
躯体
  6
JWW_DASHED1
 62
     3
370
     9
100
AcDbLine
 10
-1155.761520798142
 20
610.3795660895271
 30
0.0
 11
-1055.761487806165
 21
610.3795660895271
 31
0.0
  0
LINE
  5
93
330
1F
100
AcDbEntity
  8
仕上
  6
Continuous
 62
     6
370
     9
100
AcDbLine
 10
-1194.721118823902
 20
620.8793285472973
 30
0.0
 11
-1136.571473817567
 21
620.8793285472973
 31
0.0
  0
LINE
  5
94
330
1F
100
AcDbEntity
  8
仕上
  6
Continuous
 62
     6
370
     9
100
AcDbLine
 10
-1077.870829814189
 20
620.8793285472973
 30
0.0
 11
-579.7210198479729
 21
620.8793285472973
 31
0.0
  0
LINE
  5
95
330
1F
100
AcDbEntity
  8
建具
  6
Continuous
 62
     2
370
     9
100
AcDbLine
 10
-1077.870829814189
 20
619.3792493665542
 30
0.0
 11
-1045.721072635135
 21
619.3792493665542
 31
0.0
  0
LINE
  5
96
330
1F
100
AcDbEntity
  8
仕上
  6
Continuous
 62
     6
370
     9
100
AcDbLine
 10
-1077.870829814189
 20
619.3792493665542
 30
0.0
 11
-579.7210198479729
 21
619.3792493665542
 31
0.0
  0
LINE
  5
97
330
1F
100
AcDbEntity
  8
躯体
  6
Continuous
 62
     3
370
     9
100
AcDbLine
 10
-1185.72094066723
 20
-278.6206450591216
 30
0.0
 11
-588.7209010768581
 21
-278.6206450591216
 31
0.0
  0
LINE
  5
98
330
1F
100
AcDbEntity
  8
建具
  6
Continuous
 62
     2
370
     9
100
AcDbLine
 10
-765.0746278505067
 20
-330.6206186655405
 30
0.0
 11
-704.5747994087837
 21
-330.6206186655405
 31
0.0
  0
LINE
  5
99
330
1F
100
AcDbEntity
  8
建具
  6
Continuous
 62
     2
370
     9
100
AcDbLine
 10
-765.0746278505067
 20
-335.6204866976351
 30
0.0
 11
-704.5747994087837
 21
-335.6204866976351
 31
0.0
  0
LINE
  5
9A
330
1F
100
AcDbEntity
  8
通り芯
  6
Continuous
 62
     2
370
     9
100
AcDbLine
 10
-727.2214817356419
 20
-345.6210145692567
 30
0.0
 11
-727.2214817356419
 21
-680.6208826013512
 31
0.0
  0
LINE
  5
9B
330
1F
100
AcDbEntity
  8
建具
  6
Continuous
 62
     2
370
     9
100
AcDbLine
 10
-765.0746278505067
 20
-278.6206450591216
 30
0.0
 11
-765.0746278505067
 21
-335.6204866976351
 31
0.0
  0
LINE
  5
9C
330
1F
100
AcDbEntity
  8
建具
  6
Continuous
 62
     2
370
     9
100
AcDbLine
 10
-704.5747994087837
 20
-278.6206450591216
 30
0.0
 11
-704.5747994087837
 21
-335.6204866976351
 31
0.0
  0
LINE
  5
9D
330
1F
100
AcDbEntity
  8
建具
  6
Continuous
 62
     2
370
     9
100
AcDbLine
 10
-765.0746278505067
 20
-278.6206450591216
 30
0.0
 11
-704.5747994087837
 21
-278.6206450591216
 31
0.0
  0
LINE
  5
9E
330
1F
100
AcDbEntity
  8
躯体
  6
Continuous
 62
     3
370
     9
100
AcDbLine
 10
-1187.221118823902
 20
-280.6207506334459
 30
0.0
 11
-765.0746278505067
 21
-280.6207506334459
 31
0.0
  0
LINE
  5
9F
330
1F
100
AcDbEntity
  8
躯体
  6
Continuous
 62
     3
370
     9
100
AcDbLine
 10
-704.5747994087837
 20
-280.6207506334459
 30
0.0
 11
-587.221217799831
 21
-280.6207506334459
 31
0.0
  0
LINE
  5
A0
330
1F
100
AcDbEntity
  8
建具
  6
Continuous
 62
     2
370
     9
100
AcDbLine
 10
-761.0747136296452
 20
-318.5574324324324
 30
0.0
 11
-708.5747136296452
 21
-318.5574324324324
 31
0.0
  0
LINE
  5
A1
330
1F
100
AcDbEntity
  8
建具
  6
Continuous
 62
     2
370
     9
100
AcDbLine
 10
-761.0747136296452
 20
-278.6206450591216
 30
0.0
 11
-761.0747136296452
 21
-330.6206186655405
 31
0.0
  0
LINE
  5
A2
330
1F
100
AcDbEntity
  8
建具
  6
Continuous
 62
     2
370
     9
100
AcDbLine
 10
-708.5747136296452
 20
-278.6206450591216
 30
0.0
 11
-708.5747136296452
 21
-330.6206186655405
 31
0.0
  0
LINE
  5
A3
330
1F
100
AcDbEntity
  8
通り芯
  6
Continuous
 62
     2
370
     9
100
AcDbLine
 10
-704.5747994087837
 20
-280.6207506334459
 30
0.0
 11
-687.2213497677365
 21
-280.6207506334459
 31
0.0
  0
LINE
  5
A4
330
1F
100
AcDbEntity
  8
建具
  6
Continuous
 62
     2
370
     9
100
AcDbLine
 10
-759.07470703125
 20
-278.6206450591216
 30
0.0
 11
-759.07470703125
 21
-330.6206186655405
 31
0.0
  0
LINE
  5
A5
330
1F
100
AcDbEntity
  8
建具
  6
Continuous
 62
     2
370
     9
100
AcDbLine
 10
-710.5748192039696
 20
-278.6206450591216
 30
0.0
 11
-710.5748192039696
 21
-330.6206186655405
 31
0.0
  0
LINE
  5
A6
330
1F
100
AcDbEntity
  8
通り芯
  6
Continuous
 62
     2
370
     9
100
AcDbLine
 10
-1047.221448743665
 20
-283.6209089949324
 30
0.0
 11
-765.0746278505067
 21
-283.6209089949324
 31
0.0
  0
LINE
  5
A7
330
1F
100
AcDbEntity
  8
躯体
  6
Continuous
 62
     3
370
     9
100
AcDbLine
 10
-588.7209010768581
 20
619.3792493665542
 30
0.0
 11
-588.7209010768581
 21
-280.6207506334459
 31
0.0
  0
LINE
  5
A8
330
1F
100
AcDbEntity
  8
0-F
  6
JWW_PHANTOM2
 62
     7
370
     9
100
AcDbLine
 10
-1185.72094066723
 20
436.3790910050677
 30
0.0
 11
-588.7209010768581
 21
436.3790910050677
 31
0.0
  0
LINE
  5
A9
330
1F
100
AcDbEntity
  8
建具
  6
JWW_CENTER2
 62
     2
370
     9
100
AcDbLine
 10
-1165.401974239865
 20
469.3792493665542
 30
0.0
 11
-1264.312579180743
 21
469.3792493665542
 31
0.0
  0
LINE
  5
AA
330
1F
100
AcDbEntity
  8
0-F
  6
Continuous
 62
     7
370
     9
100
AcDbLine
 10
-883.2210066511824
 20
656.8792493665542
 30
0.0
 11
-883.2210066511824
 21
620.8793285472973
 31
0.0
  0
LINE
  5
AB
330
1F
100
AcDbEntity
  8
0-F
  6
Continuous
 62
     7
370
     9
100
AcDbLine
 10
-891.2210330447634
 20
656.8792493665542
 30
0.0
 11
-891.2210330447634
 21
620.8793285472973
 31
0.0
  0
LINE
  5
AC
330
1F
100
AcDbEntity
  8
仕上
  6
Continuous
 62
     6
370
     9
100
AcDbLine
 10
-1193.221138619088
 20
619.3792493665542
 30
0.0
 11
-1193.221138619088
 21
590.8793285472973
 31
0.0
  0
LINE
  5
AD
330
1F
100
AcDbEntity
  8
通り芯
  6
Continuous
 62
     2
370
     9
100
AcDbLine
 10
-502.7209142736485
 20
-231.6209353885134
 30
0.0
 11
-502.7209142736485
 21
-269.6209617820946
 31
0.0
  0
LINE
  5
AE
330
1F
100
AcDbEntity
  8
通り芯
  6
Continuous
 62
     2
370
     9
100
AcDbLine
 10
-502.7209142736485
 20
-231.6209353885134
 30
0.0
 11
-573.7210990287163
 21
-231.6209353885134
 31
0.0
  0
LINE
  5
AF
330
1F
100
AcDbEntity
  8
通り芯
  6
Continuous
 62
     2
370
     9
100
AcDbLine
 10
-573.7210990287163
 20
-231.6209353885134
 30
0.0
 11
-573.7210990287163
 21
-269.6209617820946
 31
0.0
  0
LINE
  5
B0
330
1F
100
AcDbEntity
  8
通り芯
  6
Continuous
 62
     2
370
     9
100
AcDbLine
 10
-517.7210132495777
 20
-231.6209353885134
 30
0.0
 11
-517.7210132495777
 21
-269.6209617820946
 31
0.0
  0
LINE
  5
B1
330
1F
100
AcDbEntity
  8
通り芯
  6
Continuous
 62
     2
370
     9
100
AcDbLine
 10
-558.7210990287163
 20
-231.6209353885134
 30
0.0
 11
-558.7210990287163
 21
-269.6209617820946
 31
0.0
  0
LINE
  5
B2
330
1F
100
AcDbEntity
  8
通り芯
  6
Continuous
 62
     2
370
     9
100
AcDbLine
 10
-502.7209142736485
 20
-269.6209617820946
 30
0.0
 11
-517.7210132495777
 21
-269.6209617820946
 31
0.0
  0
LINE
  5
B3
330
1F
100
AcDbEntity
  8
通り芯
  6
Continuous
 62
     2
370
     9
100
AcDbLine
 10
-558.7210990287163
 20
-269.6209617820946
 30
0.0
 11
-573.7210990287163
 21
-269.6209617820946
 31
0.0
  0
LINE
  5
B4
330
1F
100
AcDbEntity
  8
通り芯
  6
Continuous
 62
     2
370
     9
100
AcDbLine
 10
-531.7209604624154
 20
-241.6210673564188
 30
0.0
 11
-544.7210528399492
 21
-241.6210673564188
 31
0.0
  0
LINE
  5
B5
330
1F
100
AcDbEntity
  8
通り芯
  6
Continuous
 62
     2
370
     9
100
AcDbLine
 10
-542.721046241554
 20
-266.620803420608
 30
0.0
 11
-533.7209670608108
 21
-266.620803420608
 31
0.0
  0
LINE
  5
B6
330
1F
100
AcDbEntity
  8
通り芯
  6
Continuous
 62
     2
370
     9
100
AcDbLine
 10
-517.7210132495777
 20
-268.6209089949324
 30
0.0
 11
-531.7209604624154
 21
-268.6209089949324
 31
0.0
  0
LINE
  5
B7
330
1F
100
AcDbEntity
  8
通り芯
  6
Continuous
 62
     2
370
     9
100
AcDbLine
 10
-544.7210528399492
 20
-268.6209089949324
 30
0.0
 11
-558.7210990287163
 21
-268.6209089949324
 31
0.0
  0
LINE
  5
B8
330
1F
100
AcDbEntity
  8
通り芯
  6
Continuous
 62
     2
370
     9
100
AcDbLine
 10
-544.7210528399492
 20
-241.6210673564188
 30
0.0
 11
-544.7210528399492
 21
-268.6209089949324
 31
0.0
  0
LINE
  5
B9
330
1F
100
AcDbEntity
  8
通り芯
  6
Continuous
 62
     2
370
     9
100
AcDbLine
 10
-531.7209604624154
 20
-241.6210673564188
 30
0.0
 11
-531.7209604624154
 21
-268.6209089949324
 31
0.0
  0
LINE
  5
BA
330
1F
100
AcDbEntity
  8
建具
  6
Continuous
 62
     2
370
     9
100
AcDbLine
 10
-528.4211029877533
 20
-217.5659575591216
 30
0.0
 11
-528.4211029877533
 21
-224.6708456503378
 31
0.0
  0
LINE
  5
BB
330
1F
100
AcDbEntity
  8
建具
  6
Continuous
 62
     2
370
     9
100
AcDbLine
 10
-548.0210092905404
 20
-217.5659575591216
 30
0.0
 11
-548.0210092905404
 21
-224.6708456503378
 31
0.0
  0
LINE
  5
BC
330
1F
100
AcDbEntity
  8
建具
  6
Continuous
 62
     2
370
     9
100
AcDbLine
 10
-533.3285275021115
 20
-217.5659575591216
 30
0.0
 11
-533.3285275021115
 21
-224.6708456503378
 31
0.0
  0
LINE
  5
BD
330
1F
100
AcDbEntity
  8
建具
  6
Continuous
 62
     2
370
     9
100
AcDbLine
 10
-543.1133868243242
 20
-217.5659575591216
 30
0.0
 11
-543.1133868243242
 21
-224.6708456503378
 31
0.0
  0
LINE
  5
BE
330
1F
100
AcDbEntity
  8
建具
  6
Continuous
 62
     2
370
     9
100
AcDbLine
 10
-530.8747162690033
 20
-216.6712151604729
 30
0.0
 11
-545.5672970333615
 21
-216.6712151604729
 31
0.0
  0
LINE
  5
BF
330
1F
100
AcDbEntity
  8
通り芯
  6
Continuous
 62
     2
370
     9
100
AcDbLine
 10
-533.2210396431587
 20
-214.6212257179053
 30
0.0
 11
-543.220973659206
 21
-214.6212257179053
 31
0.0
  0
LINE
  5
C0
330
1F
100
AcDbEntity
  8
通り芯
  6
Continuous
 62
     2
370
     9
100
AcDbLine
 10
-527.721046241554
 20
-224.6708456503378
 30
0.0
 11
-527.721046241554
 21
-226.6709512246621
 31
0.0
  0
LINE
  5
C1
330
1F
100
AcDbEntity
  8
建具
  6
Continuous
 62
     2
370
     9
100
AcDbLine
 10
-528.4211029877533
 20
-224.6708456503378
 30
0.0
 11
-548.7209670608108
 21
-224.6708456503378
 31
0.0
  0
LINE
  5
C2
330
1F
100
AcDbEntity
  8
通り芯
  6
Continuous
 62
     2
370
     9
100
AcDbLine
 10
-522.5830078125
 20
-226.6709512246621
 30
0.0
 11
-552.3995064400337
 21
-226.6709512246621
 31
0.0
  0
LINE
  5
C3
330
1F
100
AcDbEntity
  8
通り芯
  6
Continuous
 62
     2
370
     9
100
AcDbLine
 10
-527.721046241554
 20
-224.6708456503378
 30
0.0
 11
-548.7209670608108
 21
-224.6708456503378
 31
0.0
  0
LINE
  5
C4
330
1F
100
AcDbEntity
  8
通り芯
  6
Continuous
 62
     2
370
     9
100
AcDbLine
 10
-548.7209670608108
 20
-224.6708456503378
 30
0.0
 11
-548.7209670608108
 21
-226.6709512246621
 31
0.0
  0
LINE
  5
C5
330
1F
100
AcDbEntity
  8
通り芯
  6
Continuous
 62
     2
370
     9
100
AcDbLine
 10
-533.2210396431587
 20
-214.6212257179053
 30
0.0
 11
-533.2210396431587
 21
-216.6712151604729
 31
0.0
  0
LINE
  5
C6
330
1F
100
AcDbEntity
  8
通り芯
  6
Continuous
 62
     2
370
     9
100
AcDbLine
 10
-543.220973659206
 20
-214.6212257179053
 30
0.0
 11
-543.220973659206
 21
-216.6712151604729
 31
0.0
  0
LINE
  5
C7
330
1F
100
AcDbEntity
  8
通り芯
  6
Continuous
 62
     2
370
     9
100
AcDbLine
 10
-527.721046241554
 20
-229.6711095861486
 30
0.0
 11
-527.721046241554
 21
-231.6209353885134
 31
0.0
  0
LINE
  5
C8
330
1F
100
AcDbEntity
  8
通り芯
  6
Continuous
 62
     2
370
     9
100
AcDbLine
 10
-548.7209670608108
 20
-229.6711095861486
 30
0.0
 11
-548.7209670608108
 21
-231.6209353885134
 31
0.0
  0
LINE
  5
C9
330
1F
100
AcDbEntity
  8
通り芯
  6
Continuous
 62
     2
370
     9
100
AcDbLine
 10
-552.3995064400337
 20
-226.6709512246621
 30
0.0
 11
-552.3995064400337
 21
-229.6711095861486
 31
0.0
  0
LINE
  5
CA
330
1F
100
AcDbEntity
  8
通り芯
  6
Continuous
 62
     2
370
     9
100
AcDbLine
 10
-520.2810256545608
 20
-229.6711095861486
 30
0.0
 11
-552.3995064400337
 21
-229.6711095861486
 31
0.0
  0
LINE
  5
CB
330
1F
100
AcDbEntity
  8
通り芯
  6
Continuous
 62
     2
370
     9
100
AcDbLine
 10
-517.3303552576012
 20
-207.0681746199324
 30
0.0
 11
-522.5830078125
 21
-226.6709512246621
 31
0.0
  0
LINE
  5
CC
330
1F
100
AcDbEntity
  8
通り芯
  6
Continuous
 62
     2
370
     9
100
AcDbLine
 10
-512.8979162267735
 20
-209.8442514780405
 30
0.0
 11
-515.7575287690033
 21
-220.5170238597973
 31
0.0
  0
LINE
  5
CD
330
1F
100
AcDbEntity
  8
通り芯
  6
Continuous
 62
     2
370
     9
100
AcDbLine
 10
-517.6893409522804
 20
-219.9991817989865
 30
0.0
 11
-515.7575287690033
 21
-220.5170238597973
 31
0.0
  0
LINE
  5
CE
330
1F
100
AcDbEntity
  8
通り芯
  6
Continuous
 62
     2
370
     9
100
AcDbLine
 10
-520.2810256545608
 20
-229.6711095861486
 30
0.0
 11
-517.6893409522804
 21
-219.9991817989865
 31
0.0
  0
LINE
  5
CF
330
1F
100
AcDbEntity
  8
通り芯
  6
Continuous
 62
     2
370
     9
100
AcDbLine
 10
-511.5347207559121
 20
-202.6209881756756
 30
0.0
 11
-438.220973659206
 21
-202.6209881756756
 31
0.0
  0
LINE
  5
D0
330
1F
100
AcDbEntity
  8
通り芯
  6
Continuous
 62
     2
370
     9
100
AcDbLine
 10
-438.220973659206
 20
-202.6209881756756
 30
0.0
 11
-438.220973659206
 21
-207.6208562077702
 31
0.0
  0
LINE
  5
D1
330
1F
100
AcDbEntity
  8
通り芯
  6
Continuous
 62
     2
370
     9
100
AcDbLine
 10
-510.0001979518581
 20
-207.6208562077702
 30
0.0
 11
-438.220973659206
 21
-207.6208562077702
 31
0.0
  0
LINE
  5
D2
330
1F
100
AcDbEntity
  8
躯体
  6
Continuous
 62
     3
370
     9
100
AcDbLine
 10
-587.221217799831
 20
619.3792493665542
 30
0.0
 11
-587.221217799831
 21
-233.9959617820946
 31
0.0
  0
LINE
  5
D3
330
1F
100
AcDbEntity
  8
躯体
  6
Continuous
 62
     3
370
     9
100
AcDbLine
 10
-587.221217799831
 20
-267.2459353885134
 30
0.0
 11
-587.221217799831
 21
-280.6207506334459
 31
0.0
  0
LINE
  5
D4
330
1F
100
AcDbEntity
  8
建具
  6
Continuous
 62
     2
370
     9
100
AcDbLine
 10
-588.7209010768581
 20
-233.9959617820946
 30
0.0
 11
-588.7209010768581
 21
-267.2459353885134
 31
0.0
  0
LINE
  5
D5
330
1F
100
AcDbEntity
  8
建具
  6
Continuous
 62
     2
370
     9
100
AcDbLine
 10
-588.7209010768581
 20
-234.7208614864865
 30
0.0
 11
-573.7210990287163
 21
-234.7208614864865
 31
0.0
  0
LINE
  5
D6
330
1F
100
AcDbEntity
  8
建具
  6
Continuous
 62
     2
370
     9
100
AcDbLine
 10
-588.7209010768581
 20
-266.5210356841216
 30
0.0
 11
-573.7210990287163
 21
-266.5210356841216
 31
0.0
  0
LINE
  5
D7
330
1F
100
AcDbEntity
  8
建具
  6
Continuous
 62
     2
370
     9
100
AcDbLine
 10
-573.7210990287163
 20
-233.9959617820946
 30
0.0
 11
-588.7209010768581
 21
-233.9959617820946
 31
0.0
  0
LINE
  5
D8
330
1F
100
AcDbEntity
  8
建具
  6
Continuous
 62
     2
370
     9
100
AcDbLine
 10
-573.7210990287163
 20
-267.2459353885134
 30
0.0
 11
-588.7209010768581
 21
-267.2459353885134
 31
0.0
  0
LINE
  5
D9
330
1F
100
AcDbEntity
  8
建具
  6
Continuous
 62
     2
370
     9
100
AcDbLine
 10
-502.7209142736485
 20
-266.7435335726351
 30
0.0
 11
-502.7209142736485
 21
-234.4983635979729
 31
0.0
  0
LINE
  5
DA
330
1F
100
AcDbEntity
  8
建具
  6
Continuous
 62
     2
370
     9
100
AcDbLine
 10
-495.7209406672296
 20
-266.7435335726351
 30
0.0
 11
-495.7209406672296
 21
-234.4983635979729
 31
0.0
  0
LINE
  5
DB
330
1F
100
AcDbEntity
  8
建具
  6
Continuous
 62
     2
370
     9
100
AcDbLine
 10
-500.6149044552365
 20
-272.1206978462837
 30
0.0
 11
-497.8270494615708
 21
-272.1206978462837
 31
0.0
  0
LINE
  5
DC
330
1F
100
AcDbEntity
  8
建具
  6
Continuous
 62
     2
370
     9
100
AcDbLine
 10
-500.6149044552365
 20
-229.120803420608
 30
0.0
 11
-497.8270494615708
 21
-229.120803420608
 31
0.0
  0
LINE
  5
DD
330
1F
100
AcDbEntity
  8
建具
  6
Continuous
 62
     2
370
     9
100
AcDbLine
 10
-500.6149044552365
 20
-261.3659733952702
 30
0.0
 11
-497.8271484375
 21
-261.3659733952702
 31
0.0
  0
LINE
  5
DE
330
1F
100
AcDbEntity
  8
建具
  6
Continuous
 62
     2
370
     9
100
AcDbLine
 10
-500.6149044552365
 20
-239.8759237753378
 30
0.0
 11
-497.8271484375
 21
-239.8759237753378
 31
0.0
  0
LINE
  5
DF
330
1F
100
AcDbEntity
  8
0-F
  6
Continuous
 62
     7
370
     9
100
AcDbLine
 10
-666.2213299725506
 20
-680.6208826013512
 30
0.0
 11
-271.5081952069256
 21
-680.6208826013512
 31
0.0
  0
LINE
  5
E0
330
1F
100
AcDbEntity
  8
0-F
  6
Continuous
 62
     7
370
     9
100
AcDbLine
 10
-558.7209010768581
 20
620.8793285472973
 30
0.0
 11
-271.5081952069256
 21
620.8793285472973
 31
0.0
  0
LINE
  5
E1
330
1F
100
AcDbEntity
  8
0-F
  6
Continuous
 62
     7
370
     9
100
AcDbLine
 10
-1187.221019847973
 20
-39.53043179898646
 30
0.0
 11
-587.2214157516892
 21
-39.53043179898646
 31
0.0
  0
LINE
  5
E2
330
1F
100
AcDbEntity
  8
0-F
  6
Continuous
 62
     7
370
     9
100
AcDbLine
 10
-1187.221019847973
 20
-39.53043179898646
 30
0.0
 11
-1166.400839315878
 21
-36.78959037162167
 31
0.0
  0
LINE
  5
E3
330
1F
100
AcDbEntity
  8
0-F
  6
Continuous
 62
     7
370
     9
100
AcDbLine
 10
-1187.221019847973
 20
-39.53043179898646
 30
0.0
 11
-1166.400839315878
 21
-42.27166913006749
 31
0.0
  0
LINE
  5
E4
330
1F
100
AcDbEntity
  8
0-F
  6
Continuous
 62
     7
370
     9
100
AcDbLine
 10
-587.2214157516892
 20
-39.53043179898646
 30
0.0
 11
-608.0417942356419
 21
-36.78959037162167
 31
0.0
  0
LINE
  5
E5
330
1F
100
AcDbEntity
  8
0-F
  6
Continuous
 62
     7
370
     9
100
AcDbLine
 10
-587.2214157516892
 20
-39.53043179898646
 30
0.0
 11
-608.0417942356419
 21
-42.27166913006749
 31
0.0
  0
LINE
  5
E6
330
1F
100
AcDbEntity
  8
0-F
  6
Continuous
 62
     7
370
     9
100
AcDbLine
 10
-1087.221481735642
 20
-846.5944098395271
 30
0.0
 11
-687.2213497677365
 21
-846.5944098395271
 31
0.0
  0
LINE
  5
E7
330
1F
100
AcDbEntity
  8
0-F
  6
Continuous
 62
     7
370
     9
100
AcDbLine
 10
-1087.221481735642
 20
-701.6210013724663
 30
0.0
 11
-1087.221481735642
 21
-848.6944811021959
 31
0.0
  0
LINE
  5
E8
330
1F
100
AcDbEntity
  8
0-F
  6
Continuous
 62
     7
370
     9
100
AcDbLine
 10
-687.2213497677365
 20
-701.6210013724663
 30
0.0
 11
-687.2213497677365
 21
-848.6944811021959
 31
0.0
  0
LINE
  5
E9
330
1F
100
AcDbEntity
  8
0-F
  6
Continuous
 62
     7
370
     9
100
AcDbLine
 10
-1087.221481735642
 20
-846.5944098395271
 30
0.0
 11
-1063.426777607686
 21
-843.4618216849663
 31
0.0
  0
LINE
  5
EA
330
1F
100
AcDbEntity
  8
0-F
  6
Continuous
 62
     7
370
     9
100
AcDbLine
 10
-1087.221481735642
 20
-846.5944098395271
 30
0.0
 11
-1063.426777607686
 21
-849.7269979940878
 31
0.0
  0
LINE
  5
EB
330
1F
100
AcDbEntity
  8
0-F
  6
Continuous
 62
     7
370
     9
100
AcDbLine
 10
-687.2213497677365
 20
-846.5944098395271
 30
0.0
 11
-711.0161528716216
 21
-843.4618216849663
 31
0.0
  0
LINE
  5
EC
330
1F
100
AcDbEntity
  8
0-F
  6
Continuous
 62
     7
370
     9
100
AcDbLine
 10
-687.2213497677365
 20
-846.5944098395271
 30
0.0
 11
-711.0161528716216
 21
-849.7269979940878
 31
0.0
  0
LINE
  5
ED
330
1F
100
AcDbEntity
  8
0-F
  6
Continuous
 62
     7
370
     9
100
AcDbLine
 10
-798.0156975823479
 20
-278.6206450591216
 30
0.0
 11
-798.0156975823479
 21
436.3790910050677
 31
0.0
  0
LINE
  5
EE
330
1F
100
AcDbEntity
  8
0-F
  6
Continuous
 62
     7
370
     9
100
AcDbLine
 10
-798.0156975823479
 20
-278.6206450591216
 30
0.0
 11
-800.7568359375
 21
-257.800464527027
 31
0.0
  0
LINE
  5
EF
330
1F
100
AcDbEntity
  8
0-F
  6
Continuous
 62
     7
370
     9
100
AcDbLine
 10
-798.0156975823479
 20
-278.6206450591216
 30
0.0
 11
-795.274757179054
 21
-257.800464527027
 31
0.0
  0
LINE
  5
F0
330
1F
100
AcDbEntity
  8
0-F
  6
Continuous
 62
     7
370
     9
100
AcDbLine
 10
-798.0156975823479
 20
436.3790910050677
 30
0.0
 11
-800.7568359375
 21
415.5585145692569
 31
0.0
  0
LINE
  5
F1
330
1F
100
AcDbEntity
  8
0-F
  6
Continuous
 62
     7
370
     9
100
AcDbLine
 10
-798.0156975823479
 20
436.3790910050677
 30
0.0
 11
-795.274757179054
 21
415.5585145692569
 31
0.0
  0
LINE
  5
F2
330
1F
100
AcDbEntity
  8
0-F
  6
Continuous
 62
     7
370
     9
100
AcDbLine
 10
-1194.721118823902
 20
905.0657464104729
 30
0.0
 11
-579.7210198479729
 21
905.0657464104729
 31
0.0
  0
LINE
  5
F3
330
1F
100
AcDbEntity
  8
0-F
  6
Continuous
 62
     7
370
     9
100
AcDbLine
 10
-1194.721118823902
 20
641.8792493665542
 30
0.0
 11
-1194.721118823902
 21
907.1656197212837
 31
0.0
  0
LINE
  5
F4
330
1F
100
AcDbEntity
  8
0-F
  6
Continuous
 62
     7
370
     9
100
AcDbLine
 10
-579.7210198479729
 20
641.8792493665542
 30
0.0
 11
-579.7210198479729
 21
907.1656197212837
 31
0.0
  0
LINE
  5
F5
330
1F
100
AcDbEntity
  8
0-F
  6
Continuous
 62
     7
370
     9
100
AcDbLine
 10
-1194.721118823902
 20
905.0657464104729
 30
0.0
 11
-1170.926315720017
 21
908.1981366131758
 31
0.0
  0
LINE
  5
F6
330
1F
100
AcDbEntity
  8
0-F
  6
Continuous
 62
     7
370
     9
100
AcDbLine
 10
-1194.721118823902
 20
905.0657464104729
 30
0.0
 11
-1170.926612647804
 21
901.9333562077704
 31
0.0
  0
LINE
  5
F7
330
1F
100
AcDbEntity
  8
0-F
  6
Continuous
 62
     7
370
     9
100
AcDbLine
 10
-579.7210198479729
 20
905.0657464104729
 30
0.0
 11
-603.515723975929
 21
908.1981366131758
 31
0.0
  0
LINE
  5
F8
330
1F
100
AcDbEntity
  8
0-F
  6
Continuous
 62
     7
370
     9
100
AcDbLine
 10
-579.7210198479729
 20
905.0657464104729
 30
0.0
 11
-603.515723975929
 21
901.9333562077704
 31
0.0
  0
LINE
  5
F9
330
1F
100
AcDbEntity
  8
0-F
  6
Continuous
 62
     7
370
     9
100
AcDbLine
 10
-1247.221514727618
 20
364.5898701435813
 30
0.0
 11
-1187.221019847973
 21
364.5898701435813
 31
0.0
  0
LINE
  5
FA
330
1F
100
AcDbEntity
  8
0-F
  6
Continuous
 62
     7
370
     9
100
AcDbLine
 10
-1247.221514727618
 20
427.2297561233108
 30
0.0
 11
-1247.221514727618
 21
362.4899968327704
 31
0.0
  0
LINE
  5
FB
330
1F
100
AcDbEntity
  8
0-F
  6
Continuous
 62
     7
370
     9
100
AcDbLine
 10
-1247.221514727618
 20
364.5898701435813
 30
0.0
 11
-1226.401136243665
 21
367.3311074746623
 31
0.0
  0
LINE
  5
FC
330
1F
100
AcDbEntity
  8
0-F
  6
Continuous
 62
     7
370
     9
100
AcDbLine
 10
-1247.221514727618
 20
364.5898701435813
 30
0.0
 11
-1226.401136243665
 21
361.8486328125
 31
0.0
  0
LINE
  5
FD
330
1F
100
AcDbEntity
  8
0-F
  6
Continuous
 62
     7
370
     9
100
AcDbLine
 10
-1187.221019847973
 20
364.5898701435813
 30
0.0
 11
-1208.041596283784
 21
367.3311074746623
 31
0.0
  0
LINE
  5
FE
330
1F
100
AcDbEntity
  8
0-F
  6
Continuous
 62
     7
370
     9
100
AcDbLine
 10
-1187.221019847973
 20
364.5898701435813
 30
0.0
 11
-1208.041596283784
 21
361.8486328125
 31
0.0
  0
LINE
  5
FF
330
1F
100
AcDbEntity
  8
0-F
  6
Continuous
 62
     7
370
     9
100
AcDbLine
 10
-273.6081674936654
 20
-680.6208826013512
 30
0.0
 11
-273.6081674936654
 21
620.8793285472973
 31
0.0
  0
LINE
  5
100
330
1F
100
AcDbEntity
  8
0-F
  6
Continuous
 62
     7
370
     9
100
AcDbLine
 10
-1278.598467852618
 20
620.8793285472973
 30
0.0
 11
-1278.598467852618
 21
682.3794077280406
 31
0.0
  0
LINE
  5
101
330
1F
100
AcDbEntity
  8
0-F
  6
Continuous
 62
     7
370
     9
100
AcDbLine
 10
-1215.721138619088
 20
620.8793285472973
 30
0.0
 11
-1280.698440139358
 21
620.8793285472973
 31
0.0
  0
LINE
  5
102
330
1F
100
AcDbEntity
  8
0-F
  6
Continuous
 62
     7
370
     9
100
AcDbLine
 10
-1158.771378800676
 20
682.3794077280406
 30
0.0
 11
-1412.950670396959
 21
682.3794077280406
 31
0.0
  0
LINE
  5
103
330
1F
100
AcDbEntity
  8
0-F
  6
Continuous
 62
     7
370
     9
100
AcDbLine
 10
-1278.598467852618
 20
620.8793285472973
 30
0.0
 11
-1281.730858055321
 21
644.6739336993244
 31
0.0
  0
LINE
  5
104
330
1F
100
AcDbEntity
  8
0-F
  6
Continuous
 62
     7
370
     9
100
AcDbLine
 10
-1278.598467852618
 20
620.8793285472973
 30
0.0
 11
-1275.465681746199
 21
644.6739336993244
 31
0.0
  0
LINE
  5
105
330
1F
100
AcDbEntity
  8
0-F
  6
Continuous
 62
     7
370
     9
100
AcDbLine
 10
-1278.598467852618
 20
682.3794077280406
 30
0.0
 11
-1281.730858055321
 21
658.5848025760135
 31
0.0
  0
LINE
  5
106
330
1F
100
AcDbEntity
  8
0-F
  6
Continuous
 62
     7
370
     9
100
AcDbLine
 10
-1278.598467852618
 20
682.3794077280406
 30
0.0
 11
-1275.465681746199
 21
658.5848025760135
 31
0.0
  0
LINE
  5
107
330
1F
100
AcDbEntity
  8
0-F
  6
Continuous
 62
     7
370
     9
100
AcDbLine
 10
-1410.85069811022
 20
-680.6208826013512
 30
0.0
 11
-1410.85069811022
 21
682.3794077280406
 31
0.0
  0
LINE
  5
108
330
1F
100
AcDbEntity
  8
0-F
  6
Continuous
 62
     7
370
     9
100
AcDbLine
 10
-1108.221402554899
 20
-680.6208826013512
 30
0.0
 11
-1412.950670396959
 21
-680.6208826013512
 31
0.0
  0
LINE
  5
109
330
1F
100
AcDbEntity
  8
0-F
  6
Continuous
 62
     7
370
     9
100
AcDbLine
 10
-1410.85069811022
 20
-680.6208826013512
 30
0.0
 11
-1413.983088312922
 21
-656.8260794974661
 31
0.0
  0
LINE
  5
10A
330
1F
100
AcDbEntity
  8
0-F
  6
Continuous
 62
     7
370
     9
100
AcDbLine
 10
-1410.85069811022
 20
-680.6208826013512
 30
0.0
 11
-1407.717912003801
 21
-656.8262774493243
 31
0.0
  0
LINE
  5
10B
330
1F
100
AcDbEntity
  8
0-F
  6
Continuous
 62
     7
370
     9
100
AcDbLine
 10
-1410.85069811022
 20
682.3794077280406
 30
0.0
 11
-1413.983088312922
 21
658.5848025760135
 31
0.0
  0
LINE
  5
10C
330
1F
100
AcDbEntity
  8
0-F
  6
Continuous
 62
     7
370
     9
100
AcDbLine
 10
-1410.85069811022
 20
682.3794077280406
 30
0.0
 11
-1407.717912003801
 21
658.5848025760135
 31
0.0
  0
LINE
  5
10D
330
1F
100
AcDbEntity
  8
躯体
  6
Continuous
 62
     3
370
     9
100
AcDbLine
 10
-455.7208086993242
 20
-257.621120143581
 30
0.0
 11
-452.7208482896958
 21
-257.621120143581
 31
0.0
  0
LINE
  5
10E
330
1F
100
AcDbEntity
  8
躯体
  6
Continuous
 62
     3
370
     9
100
AcDbLine
 10
-452.7208482896958
 20
-243.6211729307432
 30
0.0
 11
-452.7208482896958
 21
-257.621120143581
 31
0.0
  0
LINE
  5
10F
330
1F
100
AcDbEntity
  8
躯体
  6
Continuous
 62
     3
370
     9
100
AcDbLine
 10
-455.7208086993242
 20
-243.6211729307432
 30
0.0
 11
-452.7208482896958
 21
-243.6211729307432
 31
0.0
  0
LINE
  5
110
330
1F
100
AcDbEntity
  8
躯体
  6
Continuous
 62
     3
370
     9
100
AcDbLine
 10
-463.7209340688344
 20
-243.1207506334459
 30
0.0
 11
-463.7209340688344
 21
-258.1207506334459
 31
0.0
  0
LINE
  5
111
330
1F
100
AcDbEntity
  8
躯体
  6
Continuous
 62
     3
370
     9
100
AcDbLine
 10
-455.7208086993242
 20
-257.621120143581
 30
0.0
 11
-463.7209340688344
 21
-258.1207506334459
 31
0.0
  0
LINE
  5
112
330
1F
100
AcDbEntity
  8
躯体
  6
Continuous
 62
     3
370
     9
100
AcDbLine
 10
-463.7209340688344
 20
-243.1207506334459
 30
0.0
 11
-455.7208086993242
 21
-243.6211729307432
 31
0.0
  0
LINE
  5
113
330
1F
100
AcDbEntity
  8
躯体
  6
Continuous
 62
     3
370
     9
100
AcDbLine
 10
-468.7209010768581
 20
-243.6211729307432
 30
0.0
 11
-468.7209010768581
 21
-257.621120143581
 31
0.0
  0
LINE
  5
114
330
1F
100
AcDbEntity
  8
躯体
  6
Continuous
 62
     3
370
     9
100
AcDbLine
 10
-470.2209802576012
 20
-243.6211729307432
 30
0.0
 11
-470.2209802576012
 21
-257.621120143581
 31
0.0
  0
LINE
  5
115
330
1F
100
AcDbEntity
  8
躯体
  6
Continuous
 62
     3
370
     9
100
AcDbLine
 10
-475.2208482896958
 20
-243.6211729307432
 30
0.0
 11
-475.2208482896958
 21
-257.621120143581
 31
0.0
  0
LINE
  5
116
330
1F
100
AcDbEntity
  8
躯体
  6
Continuous
 62
     3
370
     9
100
AcDbLine
 10
-476.7210264463681
 20
-243.6211729307432
 30
0.0
 11
-476.7210264463681
 21
-257.621120143581
 31
0.0
  0
LINE
  5
117
330
1F
100
AcDbEntity
  8
躯体
  6
Continuous
 62
     3
370
     9
100
AcDbLine
 10
-482.7210462415539
 20
-238.1561180320946
 30
0.0
 11
-491.7209274704392
 21
-238.1561180320946
 31
0.0
  0
LINE
  5
118
330
1F
100
AcDbEntity
  8
躯体
  6
Continuous
 62
     3
370
     9
100
AcDbLine
 10
-482.7210462415539
 20
-238.1561180320946
 30
0.0
 11
-482.7210462415539
 21
-263.1210145692567
 31
0.0
  0
LINE
  5
119
330
1F
100
AcDbEntity
  8
躯体
  6
Continuous
 62
     3
370
     9
100
AcDbLine
 10
-482.7210462415539
 20
-263.1210145692567
 30
0.0
 11
-491.7209274704392
 21
-263.1210145692567
 31
0.0
  0
LINE
  5
11A
330
1F
100
AcDbEntity
  8
躯体
  6
Continuous
 62
     3
370
     9
100
AcDbLine
 10
-491.7209274704392
 20
-238.1561180320946
 30
0.0
 11
-491.7209274704392
 21
-263.1210145692567
 31
0.0
  0
LINE
  5
11B
330
1F
100
AcDbEntity
  8
躯体
  6
Continuous
 62
     3
370
     9
100
AcDbLine
 10
-482.7210462415539
 20
-243.6211729307432
 30
0.0
 11
-463.7209340688344
 21
-243.6211729307432
 31
0.0
  0
LINE
  5
11C
330
1F
100
AcDbEntity
  8
躯体
  6
Continuous
 62
     3
370
     9
100
AcDbLine
 10
-482.7210462415539
 20
-257.621120143581
 30
0.0
 11
-463.7209340688344
 21
-257.621120143581
 31
0.0
  0
LINE
  5
11D
330
1F
100
AcDbEntity
  8
躯体
  6
Continuous
 62
     3
370
     9
100
AcDbLine
 10
-482.7210462415539
 20
-256.8506915118243
 30
0.0
 11
-491.7209274704392
 21
-256.8506915118243
 31
0.0
  0
LINE
  5
11E
330
1F
100
AcDbEntity
  8
躯体
  6
Continuous
 62
     3
370
     9
100
AcDbLine
 10
-482.7210462415539
 20
-244.3916015625
 30
0.0
 11
-491.7209274704392
 21
-244.3916015625
 31
0.0
  0
LINE
  5
11F
330
1F
100
AcDbEntity
  8
躯体
  6
Continuous
 62
     3
370
     9
100
AcDbLine
 10
-495.7209406672296
 20
-240.1205922719594
 30
0.0
 11
-491.7209274704392
 21
-240.1205922719594
 31
0.0
  0
LINE
  5
120
330
1F
100
AcDbEntity
  8
躯体
  6
Continuous
 62
     3
370
     9
100
AcDbLine
 10
-495.7209406672296
 20
-261.1209089949324
 30
0.0
 11
-491.7209274704392
 21
-261.1209089949324
 31
0.0
  0
LINE
  5
121
330
1F
100
AcDbEntity
  8
建具
  6
JWW_CENTER1
 62
     2
370
     9
100
AcDbLine
 10
-602.9670014252533
 20
-250.6207506334459
 30
0.0
 11
-423.8238360430742
 21
-250.6207506334459
 31
0.0
  0
LINE
  5
122
330
1F
100
AcDbEntity
  8
0-F
  6
Continuous
 62
     7
370
     9
100
AcDbLine
 10
-1351.541847022804
 20
-680.6208826013512
 30
0.0
 11
-1351.541847022804
 21
469.3792493665542
 31
0.0
  0
LINE
  5
123
330
1F
100
AcDbEntity
  8
0-F
  6
Continuous
 62
     7
370
     9
100
AcDbLine
 10
-1351.541847022804
 20
-680.6208826013512
 30
0.0
 11
-1354.674435177365
 21
-656.8262774493243
 31
0.0
  0
LINE
  5
124
330
1F
100
AcDbEntity
  8
0-F
  6
Continuous
 62
     7
370
     9
100
AcDbLine
 10
-1351.541847022804
 20
-680.6208826013512
 30
0.0
 11
-1348.409159892314
 21
-656.8262774493243
 31
0.0
  0
LINE
  5
125
330
1F
100
AcDbEntity
  8
0-F
  6
Continuous
 62
     7
370
     9
100
AcDbLine
 10
-1351.541847022804
 20
469.3792493665542
 30
0.0
 11
-1354.674534153294
 21
445.5846442145271
 31
0.0
  0
LINE
  5
126
330
1F
100
AcDbEntity
  8
0-F
  6
Continuous
 62
     7
370
     9
100
AcDbLine
 10
-1351.541847022804
 20
469.3792493665542
 30
0.0
 11
-1348.409159892314
 21
445.5846442145271
 31
0.0
  0
LINE
  5
127
330
1F
100
AcDbEntity
  8
0-F
  6
Continuous
 62
     7
370
     9
100
AcDbLine
 10
-394.1844053526181
 20
-680.6208826013512
 30
0.0
 11
-394.1844053526181
 21
-250.6207506334459
 31
0.0
  0
LINE
  5
128
330
1F
100
AcDbEntity
  8
0-F
  6
Continuous
 62
     7
370
     9
100
AcDbLine
 10
-431.72082849451
 20
-250.6207506334459
 30
0.0
 11
-392.0844330658783
 21
-250.6207506334459
 31
0.0
  0
LINE
  5
129
330
1F
100
AcDbEntity
  8
0-F
  6
Continuous
 62
     7
370
     9
100
AcDbLine
 10
-567.7209802576012
 20
-280.6207506334459
 30
0.0
 11
-408.7306007179054
 21
-280.6207506334459
 31
0.0
  0
LINE
  5
12A
330
1F
100
AcDbEntity
  8
0-F
  6
Continuous
 62
     7
370
     9
100
AcDbLine
 10
-381.8633868243242
 20
-280.6207506334459
 30
0.0
 11
-323.5794314822635
 21
-280.6207506334459
 31
0.0
  0
LINE
  5
12B
330
1F
100
AcDbEntity
  8
躯体
  6
JWW_CENTER2
 62
     3
370
     9
100
AcDbLine
 10
159.7726852829394
 20
62.31065244932438
 30
0.0
 11
159.7726852829394
 21
746.7941300675677
 31
0.0
  0
LINE
  5
12C
330
1F
100
AcDbEntity
  8
通り芯
  6
Continuous
 62
     2
370
     9
100
AcDbLine
 10
-143.2273741026181
 20
402.7787426097973
 30
0.0
 11
-140.2275126689187
 21
402.7787426097973
 31
0.0
  0
LINE
  5
12D
330
1F
100
AcDbEntity
  8
建具
  6
Continuous
 62
     2
370
     9
100
AcDbLine
 10
-170.2275126689187
 20
433.9288429054054
 30
0.0
 11
-200.2280075485642
 21
433.9288429054054
 31
0.0
  0
LINE
  5
12E
330
1F
100
AcDbEntity
  8
建具
  6
Continuous
 62
     2
370
     9
100
AcDbLine
 10
-200.2280075485642
 20
433.9288429054054
 30
0.0
 11
-200.2280075485642
 21
371.6286423141892
 31
0.0
  0
LINE
  5
12F
330
1F
100
AcDbEntity
  8
建具
  6
Continuous
 62
     2
370
     9
100
AcDbLine
 10
-170.2275126689187
 20
371.6286423141892
 30
0.0
 11
-200.2280075485642
 21
371.6286423141892
 31
0.0
  0
LINE
  5
130
330
1F
100
AcDbEntity
  8
建具
  6
Continuous
 62
     2
370
     9
100
AcDbLine
 10
-170.2275126689187
 20
433.9288429054054
 30
0.0
 11
-165.2275456608952
 21
432.1286687077704
 31
0.0
  0
LINE
  5
131
330
1F
100
AcDbEntity
  8
建具
  6
Continuous
 62
     2
370
     9
100
AcDbLine
 10
-165.2275456608952
 20
373.4284206081081
 30
0.0
 11
-170.2275126689187
 21
371.6286423141892
 31
0.0
  0
LINE
  5
132
330
1F
100
AcDbEntity
  8
建具
  6
Continuous
 62
     2
370
     9
100
AcDbLine
 10
-165.2275456608952
 20
432.1286687077704
 30
0.0
 11
-165.2275456608952
 21
373.4284206081081
 31
0.0
  0
LINE
  5
133
330
1F
100
AcDbEntity
  8
建具
  6
Continuous
 62
     2
370
     9
100
AcDbLine
 10
-170.2275126689187
 20
433.9288429054054
 30
0.0
 11
-170.2275126689187
 21
371.6286423141892
 31
0.0
  0
LINE
  5
134
330
1F
100
AcDbEntity
  8
建具
  6
Continuous
 62
     2
370
     9
100
AcDbLine
 10
-141.8027145798142
 20
432.1286687077704
 30
0.0
 11
-165.2275456608952
 21
432.1286687077704
 31
0.0
  0
LINE
  5
135
330
1F
100
AcDbEntity
  8
建具
  6
Continuous
 62
     2
370
     9
100
AcDbLine
 10
-141.8027145798142
 20
373.4284206081081
 30
0.0
 11
-165.2275456608952
 21
373.4284206081081
 31
0.0
  0
LINE
  5
136
330
1F
100
AcDbEntity
  8
躯体
  6
JWW_CENTER2
 62
     3
370
     9
100
AcDbLine
 10
-60.22764463682415
 20
355.3954022381758
 30
0.0
 11
-60.22764463682415
 21
450.1616870777027
 31
0.0
  0
LINE
  5
137
330
1F
100
AcDbEntity
  8
仕上
  6
Continuous
 62
     6
370
     9
100
AcDbLine
 10
-145.1146471178208
 20
362.7786106418919
 30
0.0
 11
-62.72738070101332
 21
362.7786106418919
 31
0.0
  0
LINE
  5
138
330
1F
100
AcDbEntity
  8
仕上
  6
Continuous
 62
     6
370
     9
100
AcDbLine
 10
-145.1146471178208
 20
442.7784786739867
 30
0.0
 11
-62.72738070101332
 21
442.7784786739867
 31
0.0
  0
LINE
  5
139
330
1F
100
AcDbEntity
  8
建具
  6
Continuous
 62
     2
370
     9
100
AcDbLine
 10
-63.7277304159627
 20
484.3052153716217
 30
0.0
 11
-63.7277304159627
 21
482.2789801520271
 31
0.0
  0
LINE
  5
13A
330
1F
100
AcDbEntity
  8
建具
  6
Continuous
 62
     2
370
     9
100
AcDbLine
 10
-56.72775680954373
 20
482.2789801520271
 30
0.0
 11
-56.72775680954373
 21
484.3052153716217
 31
0.0
  0
LINE
  5
13B
330
1F
100
AcDbEntity
  8
建具
  6
Continuous
 62
     2
370
     9
100
AcDbLine
 10
-63.7277304159627
 20
501.2526657516894
 30
0.0
 11
-63.7277304159627
 21
503.278900971284
 31
0.0
  0
LINE
  5
13C
330
1F
100
AcDbEntity
  8
建具
  6
Continuous
 62
     2
370
     9
100
AcDbLine
 10
-56.72775680954373
 20
503.278900971284
 30
0.0
 11
-56.72775680954373
 21
501.2526657516894
 31
0.0
  0
LINE
  5
13D
330
1F
100
AcDbEntity
  8
建具
  6
Continuous
 62
     2
370
     9
100
AcDbLine
 10
-62.52774625211146
 20
501.2526657516894
 30
0.0
 11
-62.52774625211146
 21
503.278900971284
 31
0.0
  0
LINE
  5
13E
330
1F
100
AcDbEntity
  8
建具
  6
Continuous
 62
     2
370
     9
100
AcDbLine
 10
-57.9277409733952
 20
503.278900971284
 30
0.0
 11
-57.9277409733952
 21
501.2526657516894
 31
0.0
  0
LINE
  5
13F
330
1F
100
AcDbEntity
  8
建具
  6
Continuous
 62
     2
370
     9
100
AcDbLine
 10
-57.9277409733952
 20
482.2789801520271
 30
0.0
 11
-57.9277409733952
 21
484.3052153716217
 31
0.0
  0
LINE
  5
140
330
1F
100
AcDbEntity
  8
建具
  6
Continuous
 62
     2
370
     9
100
AcDbLine
 10
-62.52774625211146
 20
484.3052153716217
 30
0.0
 11
-62.52774625211146
 21
482.2789801520271
 31
0.0
  0
LINE
  5
141
330
1F
100
AcDbEntity
  8
建具
  6
JWW_CENTER2
 62
     2
370
     9
100
AcDbLine
 10
-60.22764463682415
 20
472.6276393581081
 30
0.0
 11
-60.22764463682415
 21
511.5817937077704
 31
0.0
  0
LINE
  5
142
330
1F
100
AcDbEntity
  8
建具
  6
JWW_CENTER2
 62
     2
370
     9
100
AcDbLine
 10
-77.6144491659627
 20
492.7787426097973
 30
0.0
 11
-40.73384052998313
 21
492.7787426097973
 31
0.0
  0
LINE
  5
143
330
1F
100
AcDbEntity
  8
建具
  6
Continuous
 62
     2
370
     9
100
AcDbLine
 10
-69.2277238175675
 20
497.7790065456081
 30
0.0
 11
-67.10162188555728
 21
497.7790065456081
 31
0.0
  0
LINE
  5
144
330
1F
100
AcDbEntity
  8
建具
  6
Continuous
 62
     2
370
     9
100
AcDbLine
 10
-53.35386533994915
 20
497.7790065456081
 30
0.0
 11
-51.22786238386811
 21
497.7790065456081
 31
0.0
  0
LINE
  5
145
330
1F
100
AcDbEntity
  8
建具
  6
Continuous
 62
     2
370
     9
100
AcDbLine
 10
-69.2277238175675
 20
487.7788745777027
 30
0.0
 11
-67.10162188555728
 21
487.7788745777027
 31
0.0
  0
LINE
  5
146
330
1F
100
AcDbEntity
  8
建具
  6
Continuous
 62
     2
370
     9
100
AcDbLine
 10
-53.35386533994915
 20
487.7788745777027
 30
0.0
 11
-51.22786238386811
 21
487.7788745777027
 31
0.0
  0
LINE
  5
147
330
1F
100
AcDbEntity
  8
建具
  6
Continuous
 62
     2
370
     9
100
AcDbLine
 10
-63.7277304159627
 20
321.2518739442569
 30
0.0
 11
-63.7277304159627
 21
323.2785050675677
 31
0.0
  0
LINE
  5
148
330
1F
100
AcDbEntity
  8
建具
  6
Continuous
 62
     2
370
     9
100
AcDbLine
 10
-56.72775680954373
 20
323.2785050675677
 30
0.0
 11
-56.72775680954373
 21
321.2518739442569
 31
0.0
  0
LINE
  5
149
330
1F
100
AcDbEntity
  8
建具
  6
Continuous
 62
     2
370
     9
100
AcDbLine
 10
-63.7277304159627
 20
304.3048194679054
 30
0.0
 11
-63.7277304159627
 21
302.2785842483108
 31
0.0
  0
LINE
  5
14A
330
1F
100
AcDbEntity
  8
建具
  6
Continuous
 62
     2
370
     9
100
AcDbLine
 10
-56.72775680954373
 20
302.2785842483108
 30
0.0
 11
-56.72775680954373
 21
304.3048194679054
 31
0.0
  0
LINE
  5
14B
330
1F
100
AcDbEntity
  8
建具
  6
Continuous
 62
     2
370
     9
100
AcDbLine
 10
-62.52774625211146
 20
304.3048194679054
 30
0.0
 11
-62.52774625211146
 21
302.2785842483108
 31
0.0
  0
LINE
  5
14C
330
1F
100
AcDbEntity
  8
建具
  6
Continuous
 62
     2
370
     9
100
AcDbLine
 10
-57.9277409733952
 20
302.2785842483108
 30
0.0
 11
-57.9277409733952
 21
304.3048194679054
 31
0.0
  0
LINE
  5
14D
330
1F
100
AcDbEntity
  8
建具
  6
Continuous
 62
     2
370
     9
100
AcDbLine
 10
-57.9277409733952
 20
323.2785050675677
 30
0.0
 11
-57.9277409733952
 21
321.2518739442569
 31
0.0
  0
LINE
  5
14E
330
1F
100
AcDbEntity
  8
建具
  6
Continuous
 62
     2
370
     9
100
AcDbLine
 10
-62.52774625211146
 20
321.2518739442569
 30
0.0
 11
-62.52774625211146
 21
323.2785050675677
 31
0.0
  0
LINE
  5
14F
330
1F
100
AcDbEntity
  8
建具
  6
JWW_CENTER2
 62
     2
370
     9
100
AcDbLine
 10
-60.22764463682415
 20
332.9294499577704
 30
0.0
 11
-60.22764463682415
 21
293.9756915118244
 31
0.0
  0
LINE
  5
150
330
1F
100
AcDbEntity
  8
建具
  6
JWW_CENTER2
 62
     2
370
     9
100
AcDbLine
 10
-77.6144491659627
 20
312.7783467060813
 30
0.0
 11
-40.73384052998313
 21
312.7783467060813
 31
0.0
  0
LINE
  5
151
330
1F
100
AcDbEntity
  8
建具
  6
Continuous
 62
     2
370
     9
100
AcDbLine
 10
-69.2277238175675
 20
307.7784786739867
 30
0.0
 11
-67.10162188555728
 21
307.7784786739867
 31
0.0
  0
LINE
  5
152
330
1F
100
AcDbEntity
  8
建具
  6
Continuous
 62
     2
370
     9
100
AcDbLine
 10
-53.35386533994915
 20
307.7784786739867
 30
0.0
 11
-51.22786238386811
 21
307.7784786739867
 31
0.0
  0
LINE
  5
153
330
1F
100
AcDbEntity
  8
建具
  6
Continuous
 62
     2
370
     9
100
AcDbLine
 10
-69.2277238175675
 20
317.7782147381758
 30
0.0
 11
-67.10162188555728
 21
317.7782147381758
 31
0.0
  0
LINE
  5
154
330
1F
100
AcDbEntity
  8
建具
  6
Continuous
 62
     2
370
     9
100
AcDbLine
 10
-53.35386533994915
 20
317.7782147381758
 30
0.0
 11
-51.22786238386811
 21
317.7782147381758
 31
0.0
  0
LINE
  5
155
330
1F
100
AcDbEntity
  8
建具
  6
JWW_DASHED1
 62
     2
370
     9
100
AcDbLine
 10
466.8229386613175
 20
419.4035314611488
 30
0.0
 11
459.3128431165542
 21
419.4035314611488
 31
0.0
  0
LINE
  5
156
330
1F
100
AcDbEntity
  8
0-F
  6
Continuous
 62
     7
370
     9
100
AcDbLine
 10
155.7726720861488
 20
341.7786898226352
 30
0.0
 11
155.7726720861488
 21
463.7787953969596
 31
0.0
  0
LINE
  5
157
330
1F
100
AcDbEntity
  8
0-F
  6
Continuous
 62
     7
370
     9
100
AcDbLine
 10
163.7726984797298
 20
341.7786898226352
 30
0.0
 11
163.7726984797298
 21
463.7787953969596
 31
0.0
  0
LINE
  5
158
330
1F
100
AcDbEntity
  8
建具
  6
JWW_DASHED1
 62
     2
370
     9
100
AcDbLine
 10
466.8229386613175
 20
386.1535578547298
 30
0.0
 11
459.3128431165542
 21
386.1535578547298
 31
0.0
  0
LINE
  5
159
330
1F
100
AcDbEntity
  8
建具
  6
Continuous
 62
     2
370
     9
100
AcDbLine
 10
518.5727011190879
 20
402.7787426097973
 30
0.0
 11
513.66527660473
 21
411.2787953969596
 31
0.0
  0
LINE
  5
15A
330
1F
100
AcDbEntity
  8
建具
  6
Continuous
 62
     2
370
     9
100
AcDbLine
 10
518.5727011190879
 20
402.7787426097973
 30
0.0
 11
513.66527660473
 21
394.2786898226352
 31
0.0
  0
LINE
  5
15B
330
1F
100
AcDbEntity
  8
建具
  6
Continuous
 62
     2
370
     9
100
AcDbLine
 10
513.66527660473
 20
394.2786898226352
 30
0.0
 11
503.88012035473
 21
394.2786898226352
 31
0.0
  0
LINE
  5
15C
330
1F
100
AcDbEntity
  8
建具
  6
Continuous
 62
     2
370
     9
100
AcDbLine
 10
498.9726958403717
 20
402.7787426097973
 30
0.0
 11
503.88012035473
 21
394.2786898226352
 31
0.0
  0
LINE
  5
15D
330
1F
100
AcDbEntity
  8
建具
  6
Continuous
 62
     2
370
     9
100
AcDbLine
 10
498.9726958403717
 20
402.7787426097973
 30
0.0
 11
503.88012035473
 21
411.2787953969596
 31
0.0
  0
LINE
  5
15E
330
1F
100
AcDbEntity
  8
建具
  6
Continuous
 62
     2
370
     9
100
AcDbLine
 10
513.66527660473
 20
411.2787953969596
 30
0.0
 11
503.88012035473
 21
411.2787953969596
 31
0.0
  0
LINE
  5
15F
330
1F
100
AcDbEntity
  8
通り芯
  6
Continuous
 62
     2
370
     9
100
AcDbLine
 10
502.2725533150337
 20
383.7785314611488
 30
0.0
 11
502.2725533150337
 21
385.7786370354731
 31
0.0
  0
LINE
  5
160
330
1F
100
AcDbEntity
  8
通り芯
  6
Continuous
 62
     2
370
     9
100
AcDbLine
 10
502.2725533150337
 20
383.7785314611488
 30
0.0
 11
488.2726061021963
 21
383.7785314611488
 31
0.0
  0
LINE
  5
161
330
1F
100
AcDbEntity
  8
通り芯
  6
Continuous
 62
     2
370
     9
100
AcDbLine
 10
515.2728436444258
 20
383.7785314611488
 30
0.0
 11
529.2727908572638
 21
383.7785314611488
 31
0.0
  0
LINE
  5
162
330
1F
100
AcDbEntity
  8
通り芯
  6
Continuous
 62
     2
370
     9
100
AcDbLine
 10
515.2728436444258
 20
383.7785314611488
 30
0.0
 11
515.2728436444258
 21
385.7786370354731
 31
0.0
  0
LINE
  5
163
330
1F
100
AcDbEntity
  8
通り芯
  6
Continuous
 62
     2
370
     9
100
AcDbLine
 10
515.2728436444258
 20
385.7786370354731
 30
0.0
 11
502.2725533150337
 21
385.7786370354731
 31
0.0
  0
LINE
  5
164
330
1F
100
AcDbEntity
  8
通り芯
  6
Continuous
 62
     2
370
     9
100
AcDbLine
 10
544.2727908572638
 20
381.7784258868244
 30
0.0
 11
529.2727908572638
 21
381.7784258868244
 31
0.0
  0
LINE
  5
165
330
1F
100
AcDbEntity
  8
通り芯
  6
Continuous
 62
     2
370
     9
100
AcDbLine
 10
488.2726061021963
 20
381.7784258868244
 30
0.0
 11
473.2726061021963
 21
381.7784258868244
 31
0.0
  0
LINE
  5
166
330
1F
100
AcDbEntity
  8
通り芯
  6
Continuous
 62
     2
370
     9
100
AcDbLine
 10
529.2727908572638
 20
381.7784258868244
 30
0.0
 11
529.2727908572638
 21
387.5522856841217
 31
0.0
  0
LINE
  5
167
330
1F
100
AcDbEntity
  8
通り芯
  6
Continuous
 62
     2
370
     9
100
AcDbLine
 10
488.2726061021963
 20
381.7784258868244
 30
0.0
 11
488.2726061021963
 21
387.5522856841217
 31
0.0
  0
LINE
  5
168
330
1F
100
AcDbEntity
  8
通り芯
  6
Continuous
 62
     2
370
     9
100
AcDbLine
 10
502.2725533150337
 20
421.7781619510135
 30
0.0
 11
502.2725533150337
 21
419.7788481841217
 31
0.0
  0
LINE
  5
169
330
1F
100
AcDbEntity
  8
通り芯
  6
Continuous
 62
     2
370
     9
100
AcDbLine
 10
502.2725533150337
 20
421.7781619510135
 30
0.0
 11
488.2726061021963
 21
421.7781619510135
 31
0.0
  0
LINE
  5
16A
330
1F
100
AcDbEntity
  8
通り芯
  6
Continuous
 62
     2
370
     9
100
AcDbLine
 10
515.2728436444258
 20
421.7781619510135
 30
0.0
 11
529.2727908572638
 21
421.7781619510135
 31
0.0
  0
LINE
  5
16B
330
1F
100
AcDbEntity
  8
通り芯
  6
Continuous
 62
     2
370
     9
100
AcDbLine
 10
515.2728436444258
 20
421.7781619510135
 30
0.0
 11
515.2728436444258
 21
419.7788481841217
 31
0.0
  0
LINE
  5
16C
330
1F
100
AcDbEntity
  8
通り芯
  6
Continuous
 62
     2
370
     9
100
AcDbLine
 10
515.2728436444258
 20
419.7788481841217
 30
0.0
 11
502.2725533150337
 21
419.7788481841217
 31
0.0
  0
LINE
  5
16D
330
1F
100
AcDbEntity
  8
通り芯
  6
Continuous
 62
     2
370
     9
100
AcDbLine
 10
544.2727908572638
 20
423.7786634290542
 30
0.0
 11
529.2727908572638
 21
423.7786634290542
 31
0.0
  0
LINE
  5
16E
330
1F
100
AcDbEntity
  8
通り芯
  6
Continuous
 62
     2
370
     9
100
AcDbLine
 10
488.2726061021963
 20
423.7786634290542
 30
0.0
 11
473.2726061021963
 21
423.7786634290542
 31
0.0
  0
LINE
  5
16F
330
1F
100
AcDbEntity
  8
通り芯
  6
Continuous
 62
     2
370
     9
100
AcDbLine
 10
529.2727908572638
 20
423.7786634290542
 30
0.0
 11
529.2727908572638
 21
418.0051995354731
 31
0.0
  0
LINE
  5
170
330
1F
100
AcDbEntity
  8
通り芯
  6
Continuous
 62
     2
370
     9
100
AcDbLine
 10
605.9599345439192
 20
410.8773490287163
 30
0.0
 11
559.5356709248313
 21
413.7785314611488
 31
0.0
  0
LINE
  5
171
330
1F
100
AcDbEntity
  8
通り芯
  6
Continuous
 62
     2
370
     9
100
AcDbLine
 10
608.7728304476354
 20
397.6739600929054
 30
0.0
 11
608.7728304476354
 21
407.8831292229731
 31
0.0
  0
LINE
  5
172
330
1F
100
AcDbEntity
  8
通り芯
  6
Continuous
 62
     2
370
     9
100
AcDbLine
 10
605.9599345439192
 20
394.6801361908786
 30
0.0
 11
559.5356709248313
 21
391.7789537584461
 31
0.0
  0
LINE
  5
173
330
1F
100
AcDbEntity
  8
通り芯
  6
Continuous
 62
     2
370
     9
100
AcDbLine
 10
544.2727908572638
 20
423.7786634290542
 30
0.0
 11
544.2727908572638
 21
413.7785314611488
 31
0.0
  0
LINE
  5
174
330
1F
100
AcDbEntity
  8
通り芯
  6
Continuous
 62
     2
370
     9
100
AcDbLine
 10
544.2727908572638
 20
391.7789537584461
 30
0.0
 11
544.2727908572638
 21
381.7784258868244
 31
0.0
  0
LINE
  5
175
330
1F
100
AcDbEntity
  8
通り芯
  6
Continuous
 62
     2
370
     9
100
AcDbLine
 10
494.5943966427367
 20
391.7789537584461
 30
0.0
 11
494.5943966427367
 21
412.6593116554054
 31
0.0
  0
LINE
  5
176
330
1F
100
AcDbEntity
  8
通り芯
  6
Continuous
 62
     2
370
     9
100
AcDbLine
 10
498.0090661951017
 20
397.7147381756758
 30
0.0
 11
494.5943966427367
 21
397.7147381756758
 31
0.0
  0
LINE
  5
177
330
1F
100
AcDbEntity
  8
通り芯
  6
Continuous
 62
     2
370
     9
100
AcDbLine
 10
498.0090661951017
 20
413.7785314611488
 30
0.0
 11
498.0090661951017
 21
397.7147381756758
 31
0.0
  0
LINE
  5
178
330
1F
100
AcDbEntity
  8
通り芯
  6
Continuous
 62
     2
370
     9
100
AcDbLine
 10
498.0090661951017
 20
413.278900971284
 30
0.0
 11
473.2726061021963
 21
413.278900971284
 31
0.0
  0
LINE
  5
179
330
1F
100
AcDbEntity
  8
通り芯
  6
Continuous
 62
     2
370
     9
100
AcDbLine
 10
498.0090661951017
 20
392.2785842483108
 30
0.0
 11
473.2726061021963
 21
392.2785842483108
 31
0.0
  0
LINE
  5
17A
330
1F
100
AcDbEntity
  8
通り芯
  6
Continuous
 62
     2
370
     9
100
AcDbLine
 10
497.7451963682433
 20
412.6593116554054
 30
0.0
 11
497.7451963682433
 21
397.7147381756758
 31
0.0
  0
LINE
  5
17B
330
1F
100
AcDbEntity
  8
通り芯
  6
Continuous
 62
     2
370
     9
100
AcDbLine
 10
494.5943966427367
 20
412.6593116554054
 30
0.0
 11
497.7451963682433
 21
412.6593116554054
 31
0.0
  0
LINE
  5
17C
330
1F
100
AcDbEntity
  8
建具
  6
JWW_CENTER2
 62
     2
370
     9
100
AcDbLine
 10
508.77269847973
 20
424.9252005912163
 30
0.0
 11
508.77269847973
 21
380.6318887246623
 31
0.0
  0
LINE
  5
17D
330
1F
100
AcDbEntity
  8
通り芯
  6
Continuous
 62
     2
370
     9
100
AcDbLine
 10
498.0090661951017
 20
413.7785314611488
 30
0.0
 11
559.5356709248313
 21
413.7785314611488
 31
0.0
  0
LINE
  5
17E
330
1F
100
AcDbEntity
  8
通り芯
  6
Continuous
 62
     2
370
     9
100
AcDbLine
 10
494.5943966427367
 20
391.7789537584461
 30
0.0
 11
559.5356709248313
 21
391.7789537584461
 31
0.0
  0
LINE
  5
17F
330
1F
100
AcDbEntity
  8
通り芯
  6
Continuous
 62
     2
370
     9
100
AcDbLine
 10
530.8550200591217
 20
393.7782675253379
 30
0.0
 11
530.8550200591217
 21
411.7784258868244
 31
0.0
  0
LINE
  5
180
330
1F
100
AcDbEntity
  8
建具
  6
Continuous
 62
     2
370
     9
100
AcDbLine
 10
466.8229386613175
 20
419.4035314611488
 30
0.0
 11
473.2726061021963
 21
419.4035314611488
 31
0.0
  0
LINE
  5
181
330
1F
100
AcDbEntity
  8
建具
  6
Continuous
 62
     2
370
     9
100
AcDbLine
 10
466.8613413217909
 20
418.6786317567569
 30
0.0
 11
473.2726061021963
 21
418.6786317567569
 31
0.0
  0
LINE
  5
182
330
1F
100
AcDbEntity
  8
建具
  6
Continuous
 62
     2
370
     9
100
AcDbLine
 10
466.8613413217909
 20
386.8784575591217
 30
0.0
 11
473.2726061021963
 21
386.8784575591217
 31
0.0
  0
LINE
  5
183
330
1F
100
AcDbEntity
  8
建具
  6
Continuous
 62
     2
370
     9
100
AcDbLine
 10
466.8229386613175
 20
386.1535578547298
 30
0.0
 11
473.2726061021963
 21
386.1535578547298
 31
0.0
  0
LINE
  5
184
330
1F
100
AcDbEntity
  8
建具
  6
Continuous
 62
     2
370
     9
100
AcDbLine
 10
546.3789986275337
 20
381.2787953969596
 30
0.0
 11
549.1665566934121
 21
381.2787953969596
 31
0.0
  0
LINE
  5
185
330
1F
100
AcDbEntity
  8
建具
  6
Continuous
 62
     2
370
     9
100
AcDbLine
 10
546.3789986275337
 20
424.278293918919
 30
0.0
 11
549.1665566934121
 21
424.278293918919
 31
0.0
  0
LINE
  5
186
330
1F
100
AcDbEntity
  8
建具
  6
Continuous
 62
     2
370
     9
100
AcDbLine
 10
551.2727644636825
 20
413.7785314611488
 30
0.0
 11
551.2727644636825
 21
418.9011296452704
 31
0.0
  0
LINE
  5
187
330
1F
100
AcDbEntity
  8
建具
  6
Continuous
 62
     2
370
     9
100
AcDbLine
 10
551.2727644636825
 20
386.6559596706081
 30
0.0
 11
551.2727644636825
 21
391.7789537584461
 31
0.0
  0
LINE
  5
188
330
1F
100
AcDbEntity
  8
建具
  6
Continuous
 62
     2
370
     9
100
AcDbLine
 10
544.2727908572638
 20
386.6559596706081
 30
0.0
 11
544.2727908572638
 21
391.7789537584461
 31
0.0
  0
LINE
  5
189
330
1F
100
AcDbEntity
  8
建具
  6
Continuous
 62
     2
370
     9
100
AcDbLine
 10
544.2727908572638
 20
413.7785314611488
 30
0.0
 11
544.2727908572638
 21
418.9011296452704
 31
0.0
  0
LINE
  5
18A
330
1F
100
AcDbEntity
  8
躯体
  6
JWW_CENTER2
 62
     3
370
     9
100
AcDbLine
 10
-210.472412109375
 20
402.7787426097973
 30
0.0
 11
629.2452095650337
 21
402.7787426097973
 31
0.0
  0
LINE
  5
18B
330
1F
100
AcDbEntity
  8
躯体
  6
JWW_CENTER2
 62
     3
370
     9
100
AcDbLine
 10
1080.853964315878
 20
61.9551309121623
 30
0.0
 11
1080.853964315878
 21
746.4390044341217
 31
0.0
  0
LINE
  5
18C
330
1F
100
AcDbEntity
  8
通り芯
  6
Continuous
 62
     2
370
     9
100
AcDbLine
 10
880.8538983319258
 20
602.4230891047298
 30
0.0
 11
880.8538983319258
 21
202.4229571368244
 31
0.0
  0
LINE
  5
18D
330
1F
100
AcDbEntity
  8
通り芯
  6
Continuous
 62
     2
370
     9
100
AcDbLine
 10
883.8536607896963
 20
242.4226932010135
 30
0.0
 11
880.8538983319258
 21
242.4230891047298
 31
0.0
  0
LINE
  5
18E
330
1F
100
AcDbEntity
  8
通り芯
  6
Continuous
 62
     2
370
     9
100
AcDbLine
 10
883.8536607896963
 20
240.4229835304054
 30
0.0
 11
883.8536607896963
 21
209.9229571368244
 31
0.0
  0
LINE
  5
18F
330
1F
100
AcDbEntity
  8
通り芯
  6
Continuous
 62
     2
370
     9
100
AcDbLine
 10
918.8537267736488
 20
205.4231154983108
 30
0.0
 11
888.3542942356421
 21
205.4227195945946
 31
0.0
  0
LINE
  5
190
330
1F
100
AcDbEntity
  8
通り芯
  6
Continuous
 62
     2
370
     9
100
AcDbLine
 10
920.8540302998313
 20
205.4231154983108
 30
0.0
 11
920.8540302998313
 21
202.4229571368244
 31
0.0
  0
LINE
  5
191
330
1F
100
AcDbEntity
  8
通り芯
  6
Continuous
 62
     2
370
     9
100
AcDbLine
 10
883.8536607896963
 20
562.4241448479731
 30
0.0
 11
880.8533044763517
 21
562.4233530405406
 31
0.0
  0
LINE
  5
192
330
1F
100
AcDbEntity
  8
通り芯
  6
Continuous
 62
     2
370
     9
100
AcDbLine
 10
883.85326488598
 20
564.423458614865
 30
0.0
 11
883.85326488598
 21
594.9230891047298
 31
0.0
  0
LINE
  5
193
330
1F
100
AcDbEntity
  8
通り芯
  6
Continuous
 62
     2
370
     9
100
AcDbLine
 10
918.8537267736488
 20
599.4233266469596
 30
0.0
 11
888.3535024282096
 21
599.4237225506758
 31
0.0
  0
LINE
  5
194
330
1F
100
AcDbEntity
  8
通り芯
  6
Continuous
 62
     2
370
     9
100
AcDbLine
 10
920.8534364442571
 20
599.4233266469596
 30
0.0
 11
920.8534364442571
 21
602.4230891047298
 31
0.0
  0
LINE
  5
195
330
1F
100
AcDbEntity
  8
通り芯
  6
Continuous
 62
     2
370
     9
100
AcDbLine
 10
883.8536607896963
 20
242.4230891047298
 30
0.0
 11
883.8536607896963
 21
562.4233530405406
 31
0.0
  0
LINE
  5
196
330
1F
100
AcDbEntity
  8
通り芯
  6
Continuous
 62
     2
370
     9
100
AcDbLine
 10
920.8534364442571
 20
205.4231154983108
 30
0.0
 11
1240.854096283784
 21
205.4231154983108
 31
0.0
  0
LINE
  5
197
330
1F
100
AcDbEntity
  8
通り芯
  6
Continuous
 62
     2
370
     9
100
AcDbLine
 10
1277.853673986487
 20
562.4241448479731
 30
0.0
 11
1280.854822107264
 21
562.4233530405406
 31
0.0
  0
LINE
  5
198
330
1F
100
AcDbEntity
  8
通り芯
  6
Continuous
 62
     2
370
     9
100
AcDbLine
 10
1277.854663745777
 20
564.423458614865
 30
0.0
 11
1277.854267842061
 21
594.9230891047298
 31
0.0
  0
LINE
  5
199
330
1F
100
AcDbEntity
  8
通り芯
  6
Continuous
 62
     2
370
     9
100
AcDbLine
 10
1242.854399809966
 20
599.4233266469596
 30
0.0
 11
1273.354030299831
 21
599.4237225506758
 31
0.0
  0
LINE
  5
19A
330
1F
100
AcDbEntity
  8
通り芯
  6
Continuous
 62
     2
370
     9
100
AcDbLine
 10
1240.854096283784
 20
599.4233266469596
 30
0.0
 11
1240.854096283784
 21
602.4238809121623
 31
0.0
  0
LINE
  5
19B
330
1F
100
AcDbEntity
  8
通り芯
  6
Continuous
 62
     2
370
     9
100
AcDbLine
 10
1277.853673986487
 20
242.4230891047298
 30
0.0
 11
1277.854267842061
 21
562.4233530405406
 31
0.0
  0
LINE
  5
19C
330
1F
100
AcDbEntity
  8
通り芯
  6
Continuous
 62
     2
370
     9
100
AcDbLine
 10
920.8534364442571
 20
599.4233266469596
 30
0.0
 11
1240.854096283784
 21
599.4237225506758
 31
0.0
  0
LINE
  5
19D
330
1F
100
AcDbEntity
  8
0-F
  6
Continuous
 62
     7
370
     9
100
AcDbLine
 10
883.8536607896963
 20
564.423458614865
 30
0.0
 11
937.0641100084463
 21
511.2128114442569
 31
0.0
  0
LINE
  5
19E
330
1F
100
AcDbEntity
  8
0-F
  6
Continuous
 62
     7
370
     9
100
AcDbLine
 10
937.0641100084463
 20
511.2128114442569
 30
0.0
 11
972.4196975295608
 21
546.5682010135135
 31
0.0
  0
LINE
  5
19F
330
1F
100
AcDbEntity
  8
0-F
  6
Continuous
 62
     7
370
     9
100
AcDbLine
 10
919.5647698479729
 20
599.4233266469596
 30
0.0
 11
972.4196975295608
 21
546.5682010135135
 31
0.0
  0
LINE
  5
1A0
330
1F
100
AcDbEntity
  8
0-F
  6
Continuous
 62
     7
370
     9
100
AcDbLine
 10
883.8536607896963
 20
592.3524862753379
 30
0.0
 11
883.8536607896963
 21
564.423458614865
 31
0.0
  0
LINE
  5
1A1
330
1F
100
AcDbEntity
  8
0-F
  6
Continuous
 62
     7
370
     9
100
AcDbLine
 10
890.9246991131758
 20
599.4237225506758
 30
0.0
 11
919.5647698479729
 21
599.4237225506758
 31
0.0
  0
LINE
  5
1A2
330
1F
100
AcDbEntity
  8
0-F
  6
Continuous
 62
     7
370
     9
100
AcDbLine
 10
883.8536607896963
 20
592.3524862753379
 30
0.0
 11
890.9246991131758
 21
599.4237225506758
 31
0.0
  0
LINE
  5
1A3
330
1F
100
AcDbEntity
  8
0-F
  6
JWW_CENTER1
 62
     7
370
     9
100
AcDbLine
 10
929.7278161951017
 20
539.2313133445946
 30
0.0
 11
944.400997677365
 21
553.9046927787163
 31
0.0
  0
LINE
  5
1A4
330
1F
100
AcDbEntity
  8
0-F
  6
JWW_CENTER1
 62
     7
370
     9
100
AcDbLine
 10
929.7278161951017
 20
553.9046927787163
 30
0.0
 11
944.400997677365
 21
539.2313133445946
 31
0.0
  0
LINE
  5
1A5
330
1F
100
AcDbEntity
  8
0-F
  6
Continuous
 62
     7
370
     9
100
AcDbLine
 10
918.8543206292229
 20
205.4227195945946
 30
0.0
 11
972.064571896115
 21
258.6329708614865
 31
0.0
  0
LINE
  5
1A6
330
1F
100
AcDbEntity
  8
0-F
  6
Continuous
 62
     7
370
     9
100
AcDbLine
 10
972.064571896115
 20
258.6329708614865
 30
0.0
 11
936.7087864231421
 21
293.9891522381758
 31
0.0
  0
LINE
  5
1A7
330
1F
100
AcDbEntity
  8
0-F
  6
Continuous
 62
     7
370
     9
100
AcDbLine
 10
883.8542546452704
 20
241.1340266047298
 30
0.0
 11
936.7093802787163
 21
293.9887563344596
 31
0.0
  0
LINE
  5
1A8
330
1F
100
AcDbEntity
  8
0-F
  6
Continuous
 62
     7
370
     9
100
AcDbLine
 10
890.92529296875
 20
205.4227195945946
 30
0.0
 11
918.8543206292229
 21
205.4227195945946
 31
0.0
  0
LINE
  5
1A9
330
1F
100
AcDbEntity
  8
0-F
  6
Continuous
 62
     7
370
     9
100
AcDbLine
 10
883.8536607896963
 20
212.4931640625
 30
0.0
 11
883.8536607896963
 21
241.1340266047298
 31
0.0
  0
LINE
  5
1AA
330
1F
100
AcDbEntity
  8
0-F
  6
Continuous
 62
     7
370
     9
100
AcDbLine
 10
890.92529296875
 20
205.4227195945946
 30
0.0
 11
883.8530669341217
 21
212.4939558699325
 31
0.0
  0
LINE
  5
1AB
330
1F
100
AcDbEntity
  8
0-F
  6
JWW_CENTER1
 62
     7
370
     9
100
AcDbLine
 10
944.0462679476354
 20
251.296479096284
 30
0.0
 11
929.3722946579392
 21
265.9702544341217
 31
0.0
  0
LINE
  5
1AC
330
1F
100
AcDbEntity
  8
0-F
  6
JWW_CENTER1
 62
     7
370
     9
100
AcDbLine
 10
929.3730864653717
 20
251.296479096284
 30
0.0
 11
944.0462679476354
 21
265.9698585304054
 31
0.0
  0
LINE
  5
1AD
330
1F
100
AcDbEntity
  8
0-F
  6
Continuous
 62
     7
370
     9
100
AcDbLine
 10
1242.854795713683
 20
599.4237225506758
 30
0.0
 11
1189.643356735642
 21
546.2126794763515
 31
0.0
  0
LINE
  5
1AE
330
1F
100
AcDbEntity
  8
0-F
  6
Continuous
 62
     7
370
     9
100
AcDbLine
 10
1189.643752639358
 20
546.213471283784
 30
0.0
 11
1224.999538112331
 21
510.8576858108108
 31
0.0
  0
LINE
  5
1AF
330
1F
100
AcDbEntity
  8
0-F
  6
Continuous
 62
     7
370
     9
100
AcDbLine
 10
1277.854267842061
 20
563.7124155405406
 30
0.0
 11
1224.998746304899
 21
510.8568940033786
 31
0.0
  0
LINE
  5
1B0
330
1F
100
AcDbEntity
  8
0-F
  6
Continuous
 62
     7
370
     9
100
AcDbLine
 10
1270.784021326014
 20
599.4237225506758
 30
0.0
 11
1242.854201858108
 21
599.4237225506758
 31
0.0
  0
LINE
  5
1B1
330
1F
100
AcDbEntity
  8
0-F
  6
Continuous
 62
     7
370
     9
100
AcDbLine
 10
1277.854663745777
 20
592.3528821790542
 30
0.0
 11
1277.854663745777
 21
563.7124155405406
 31
0.0
  0
LINE
  5
1B2
330
1F
100
AcDbEntity
  8
0-F
  6
Continuous
 62
     7
370
     9
100
AcDbLine
 10
1270.784021326014
 20
599.4237225506758
 30
0.0
 11
1277.854663745777
 21
592.3528821790542
 31
0.0
  0
LINE
  5
1B3
330
1F
100
AcDbEntity
  8
0-F
  6
JWW_CENTER1
 62
     7
370
     9
100
AcDbLine
 10
1217.662650443413
 20
553.5499630489867
 30
0.0
 11
1232.335831925676
 21
538.876583614865
 31
0.0
  0
LINE
  5
1B4
330
1F
100
AcDbEntity
  8
0-F
  6
JWW_CENTER1
 62
     7
370
     9
100
AcDbLine
 10
1232.335831925676
 20
553.5499630489867
 30
0.0
 11
1217.662056587838
 21
538.8757918074325
 31
0.0
  0
LINE
  5
1B5
330
1F
100
AcDbEntity
  8
通り芯
  6
Continuous
 62
     2
370
     9
100
AcDbLine
 10
920.8524466849663
 20
205.4231154983108
 30
0.0
 11
920.8534364442571
 21
202.4229571368244
 31
0.0
  0
LINE
  5
1B6
330
1F
100
AcDbEntity
  8
0-F
  6
Continuous
 62
     7
370
     9
100
AcDbLine
 10
918.8533308699325
 20
205.4231154983108
 30
0.0
 11
972.0641759923988
 21
258.6333667652027
 31
0.0
  0
LINE
  5
1B7
330
1F
100
AcDbEntity
  8
0-F
  6
Continuous
 62
     7
370
     9
100
AcDbLine
 10
883.8536607896963
 20
241.1344225084461
 30
0.0
 11
936.7087864231421
 21
293.9891522381758
 31
0.0
  0
LINE
  5
1B8
330
1F
100
AcDbEntity
  8
0-F
  6
Continuous
 62
     7
370
     9
100
AcDbLine
 10
890.9243032094596
 20
205.4231154983108
 30
0.0
 11
918.8533308699325
 21
205.4231154983108
 31
0.0
  0
LINE
  5
1B9
330
1F
100
AcDbEntity
  8
0-F
  6
JWW_CENTER1
 62
     7
370
     9
100
AcDbLine
 10
929.3722946579392
 20
251.2972709037163
 30
0.0
 11
944.0456740920608
 21
265.9702544341217
 31
0.0
  0
LINE
  5
1BA
330
1F
100
AcDbEntity
  8
通り芯
  6
Continuous
 62
     2
370
     9
100
AcDbLine
 10
1277.853476034628
 20
242.4219013935813
 30
0.0
 11
1280.854030299831
 21
242.4230891047298
 31
0.0
  0
LINE
  5
1BB
330
1F
100
AcDbEntity
  8
通り芯
  6
Continuous
 62
     2
370
     9
100
AcDbLine
 10
1277.854069890203
 20
240.4229835304054
 30
0.0
 11
1277.854069890203
 21
209.9233530405406
 31
0.0
  0
LINE
  5
1BC
330
1F
100
AcDbEntity
  8
通り芯
  6
Continuous
 62
     2
370
     9
100
AcDbLine
 10
1242.853608002534
 20
205.4231154983108
 30
0.0
 11
1273.353832347973
 21
205.4227195945946
 31
0.0
  0
LINE
  5
1BD
330
1F
100
AcDbEntity
  8
通り芯
  6
Continuous
 62
     2
370
     9
100
AcDbLine
 10
1240.853898331926
 20
205.4231154983108
 30
0.0
 11
1240.853898331926
 21
202.4229571368244
 31
0.0
  0
LINE
  5
1BE
330
1F
100
AcDbEntity
  8
0-F
  6
Continuous
 62
     7
370
     9
100
AcDbLine
 10
1277.853476034628
 20
240.4229835304054
 30
0.0
 11
1224.643224767737
 21
293.6340266047298
 31
0.0
  0
LINE
  5
1BF
330
1F
100
AcDbEntity
  8
0-F
  6
Continuous
 62
     7
370
     9
100
AcDbLine
 10
1224.643224767737
 20
293.6340266047298
 30
0.0
 11
1189.287439294764
 21
258.2782411317569
 31
0.0
  0
LINE
  5
1C0
330
1F
100
AcDbEntity
  8
0-F
  6
Continuous
 62
     7
370
     9
100
AcDbLine
 10
1242.142366976352
 20
205.4231154983108
 30
0.0
 11
1189.287439294764
 21
258.2782411317569
 31
0.0
  0
LINE
  5
1C1
330
1F
100
AcDbEntity
  8
0-F
  6
Continuous
 62
     7
370
     9
100
AcDbLine
 10
1277.853476034628
 20
212.4939558699325
 30
0.0
 11
1277.853476034628
 21
240.4229835304054
 31
0.0
  0
LINE
  5
1C2
330
1F
100
AcDbEntity
  8
0-F
  6
Continuous
 62
     7
370
     9
100
AcDbLine
 10
1270.782635663007
 20
205.4227195945946
 30
0.0
 11
1242.142366976352
 21
205.4227195945946
 31
0.0
  0
LINE
  5
1C3
330
1F
100
AcDbEntity
  8
0-F
  6
Continuous
 62
     7
370
     9
100
AcDbLine
 10
1277.853476034628
 20
212.4939558699325
 30
0.0
 11
1270.782635663007
 21
205.4227195945946
 31
0.0
  0
LINE
  5
1C4
330
1F
100
AcDbEntity
  8
0-F
  6
JWW_CENTER1
 62
     7
370
     9
100
AcDbLine
 10
1231.979716532939
 20
265.6151288006758
 30
0.0
 11
1217.306337098818
 21
250.9417493665542
 31
0.0
  0
LINE
  5
1C5
330
1F
100
AcDbEntity
  8
0-F
  6
JWW_CENTER1
 62
     7
370
     9
100
AcDbLine
 10
1231.979716532939
 20
250.9417493665542
 30
0.0
 11
1217.306337098818
 21
265.6151288006758
 31
0.0
  0
LINE
  5
1C6
330
1F
100
AcDbEntity
  8
通り芯
  6
Continuous
 62
     2
370
     9
100
AcDbLine
 10
1277.853476034628
 20
564.4230627111488
 30
0.0
 11
1277.854069890203
 21
594.923485008446
 31
0.0
  0
LINE
  5
1C7
330
1F
100
AcDbEntity
  8
通り芯
  6
Continuous
 62
     2
370
     9
100
AcDbLine
 10
1277.853476034628
 20
562.4233530405406
 30
0.0
 11
1280.853832347973
 21
562.4233530405406
 31
0.0
  0
LINE
  5
1C8
330
1F
100
AcDbEntity
  8
0-F
  6
Continuous
 62
     7
370
     9
100
AcDbLine
 10
1189.643158783784
 20
546.2126794763515
 30
0.0
 11
1224.998746304899
 21
510.8572899070946
 31
0.0
  0
LINE
  5
1C9
330
1F
100
AcDbEntity
  8
0-F
  6
Continuous
 62
     7
370
     9
100
AcDbLine
 10
1270.783031566723
 20
599.4233266469596
 30
0.0
 11
1277.854069890203
 21
592.3524862753379
 31
0.0
  0
LINE
  5
1CA
330
1F
100
AcDbEntity
  8
0-F
  6
JWW_CENTER1
 62
     7
370
     9
100
AcDbLine
 10
1217.661660684122
 20
553.5491712415542
 30
0.0
 11
1232.335040118243
 21
538.8757918074325
 31
0.0
  0
LINE
  5
1CB
330
1F
100
AcDbEntity
  8
通り芯
  6
Continuous
 62
     2
370
     9
100
AcDbLine
 10
880.8533044763517
 20
602.4230891047298
 30
0.0
 11
1280.854426203548
 21
602.4230891047298
 31
0.0
  0
LINE
  5
1CC
330
1F
100
AcDbEntity
  8
通り芯
  6
Continuous
 62
     2
370
     9
100
AcDbLine
 10
880.8538983319258
 20
202.4229571368244
 30
0.0
 11
1280.853832347973
 21
202.4229571368244
 31
0.0
  0
LINE
  5
1CD
330
1F
100
AcDbEntity
  8
通り芯
  6
Continuous
 62
     2
370
     9
100
AcDbLine
 10
1280.853832347973
 20
202.4229571368244
 30
0.0
 11
1280.854426203548
 21
602.4230891047298
 31
0.0
  0
LINE
  5
1CE
330
1F
100
AcDbEntity
  8
通り芯
  6
Continuous
 62
     2
370
     9
100
AcDbLine
 10
936.7087864231421
 20
293.9891522381758
 30
0.0
 11
1189.287439294764
 21
546.5682010135135
 31
0.0
  0
LINE
  5
1CF
330
1F
100
AcDbEntity
  8
通り芯
  6
Continuous
 62
     2
370
     9
100
AcDbLine
 10
1224.999538112331
 20
510.8576858108108
 30
0.0
 11
972.4196975295608
 21
258.2778452280406
 31
0.0
  0
LINE
  5
1D0
330
1F
100
AcDbEntity
  8
通り芯
  6
Continuous
 62
     2
370
     9
100
AcDbLine
 10
937.0641100084463
 20
511.2128114442569
 30
0.0
 11
1045.497980891048
 21
402.7787426097973
 31
0.0
  0
LINE
  5
1D1
330
1F
100
AcDbEntity
  8
通り芯
  6
Continuous
 62
     2
370
     9
100
AcDbLine
 10
1081.209287901183
 20
367.0674355996623
 30
0.0
 11
1189.642960831926
 21
258.6333667652027
 31
0.0
  0
LINE
  5
1D2
330
1F
100
AcDbEntity
  8
通り芯
  6
Continuous
 62
     2
370
     9
100
AcDbLine
 10
1224.643224767737
 20
293.6340266047298
 30
0.0
 11
1116.209353885135
 21
402.0676995354731
 31
0.0
  0
LINE
  5
1D3
330
1F
100
AcDbEntity
  8
通り芯
  6
Continuous
 62
     2
370
     9
100
AcDbLine
 10
1080.498244826858
 20
437.7790065456081
 30
0.0
 11
972.0643739442571
 21
546.2126794763515
 31
0.0
  0
LINE
  5
1D4
330
1F
100
AcDbEntity
  8
通り芯
  6
Continuous
 62
     2
370
     9
100
AcDbLine
 10
777.8538059543921
 20
402.4232210726352
 30
0.0
 11
780.8537663640204
 21
402.4232210726352
 31
0.0
  0
LINE
  5
1D5
330
1F
100
AcDbEntity
  8
建具
  6
Continuous
 62
     2
370
     9
100
AcDbLine
 10
750.8537663640204
 20
433.5733213682433
 30
0.0
 11
720.8531725084463
 21
433.5733213682433
 31
0.0
  0
LINE
  5
1D6
330
1F
100
AcDbEntity
  8
建具
  6
Continuous
 62
     2
370
     9
100
AcDbLine
 10
720.8531725084463
 20
433.5733213682433
 30
0.0
 11
720.8531725084463
 21
371.2735166807433
 31
0.0
  0
LINE
  5
1D7
330
1F
100
AcDbEntity
  8
建具
  6
Continuous
 62
     2
370
     9
100
AcDbLine
 10
750.8537663640204
 20
371.2735166807433
 30
0.0
 11
720.8531725084463
 21
371.2735166807433
 31
0.0
  0
LINE
  5
1D8
330
1F
100
AcDbEntity
  8
建具
  6
Continuous
 62
     2
370
     9
100
AcDbLine
 10
750.8537663640204
 20
433.5733213682433
 30
0.0
 11
755.853634396115
 21
431.7731471706081
 31
0.0
  0
LINE
  5
1D9
330
1F
100
AcDbEntity
  8
建具
  6
Continuous
 62
     2
370
     9
100
AcDbLine
 10
755.853634396115
 20
373.0732949746623
 30
0.0
 11
750.8537663640204
 21
371.2735166807433
 31
0.0
  0
LINE
  5
1DA
330
1F
100
AcDbEntity
  8
建具
  6
Continuous
 62
     2
370
     9
100
AcDbLine
 10
755.853634396115
 20
431.7731471706081
 30
0.0
 11
755.853634396115
 21
373.0732949746623
 31
0.0
  0
LINE
  5
1DB
330
1F
100
AcDbEntity
  8
建具
  6
Continuous
 62
     2
370
     9
100
AcDbLine
 10
750.8537663640204
 20
433.5733213682433
 30
0.0
 11
750.8537663640204
 21
371.2735166807433
 31
0.0
  0
LINE
  5
1DC
330
1F
100
AcDbEntity
  8
建具
  6
Continuous
 62
     2
370
     9
100
AcDbLine
 10
782.2928763724663
 20
373.0732949746623
 30
0.0
 11
755.853634396115
 21
373.0732949746623
 31
0.0
  0
LINE
  5
1DD
330
1F
100
AcDbEntity
  8
建具
  6
Continuous
 62
     2
370
     9
100
AcDbLine
 10
782.2928763724663
 20
431.7731471706081
 30
0.0
 11
755.853634396115
 21
431.7731471706081
 31
0.0
  0
LINE
  5
1DE
330
1F
100
AcDbEntity
  8
建具
  6
Continuous
 62
     2
370
     9
100
AcDbLine
 10
1394.353687183277
 20
419.0480099239867
 30
0.0
 11
1380.393924197635
 21
419.0480099239867
 31
0.0
  0
LINE
  5
1DF
330
1F
100
AcDbEntity
  8
建具
  6
Continuous
 62
     2
370
     9
100
AcDbLine
 10
1394.353687183277
 20
385.7980363175677
 30
0.0
 11
1380.393924197635
 21
385.7980363175677
 31
0.0
  0
LINE
  5
1E0
330
1F
100
AcDbEntity
  8
通り芯
  6
Continuous
 62
     2
370
     9
100
AcDbLine
 10
1394.353687183277
 20
381.4233002533786
 30
0.0
 11
1394.353687183277
 21
423.4235377956081
 31
0.0
  0
LINE
  5
1E1
330
1F
100
AcDbEntity
  8
通り芯
  6
Continuous
 62
     2
370
     9
100
AcDbLine
 10
1423.353832347973
 20
383.4230099239867
 30
0.0
 11
1423.353832347973
 21
385.4231154983108
 31
0.0
  0
LINE
  5
1E2
330
1F
100
AcDbEntity
  8
通り芯
  6
Continuous
 62
     2
370
     9
100
AcDbLine
 10
1423.353832347973
 20
383.4230099239867
 30
0.0
 11
1409.353687183277
 21
383.4230099239867
 31
0.0
  0
LINE
  5
1E3
330
1F
100
AcDbEntity
  8
通り芯
  6
Continuous
 62
     2
370
     9
100
AcDbLine
 10
1436.353924725507
 20
383.4230099239867
 30
0.0
 11
1450.353673986487
 21
383.4230099239867
 31
0.0
  0
LINE
  5
1E4
330
1F
100
AcDbEntity
  8
通り芯
  6
Continuous
 62
     2
370
     9
100
AcDbLine
 10
1436.353924725507
 20
383.4230099239867
 30
0.0
 11
1436.353924725507
 21
385.4231154983108
 31
0.0
  0
LINE
  5
1E5
330
1F
100
AcDbEntity
  8
通り芯
  6
Continuous
 62
     2
370
     9
100
AcDbLine
 10
1436.353924725507
 20
385.4231154983108
 30
0.0
 11
1423.353832347973
 21
385.4231154983108
 31
0.0
  0
LINE
  5
1E6
330
1F
100
AcDbEntity
  8
通り芯
  6
Continuous
 62
     2
370
     9
100
AcDbLine
 10
1465.353673986487
 20
381.4233002533786
 30
0.0
 11
1450.353673986487
 21
381.4233002533786
 31
0.0
  0
LINE
  5
1E7
330
1F
100
AcDbEntity
  8
通り芯
  6
Continuous
 62
     2
370
     9
100
AcDbLine
 10
1409.353687183277
 20
381.4233002533786
 30
0.0
 11
1394.353687183277
 21
381.4233002533786
 31
0.0
  0
LINE
  5
1E8
330
1F
100
AcDbEntity
  8
通り芯
  6
Continuous
 62
     2
370
     9
100
AcDbLine
 10
1450.353673986487
 20
381.4233002533786
 30
0.0
 11
1450.353673986487
 21
387.1967641469596
 31
0.0
  0
LINE
  5
1E9
330
1F
100
AcDbEntity
  8
通り芯
  6
Continuous
 62
     2
370
     9
100
AcDbLine
 10
1409.353687183277
 20
381.4233002533786
 30
0.0
 11
1409.353687183277
 21
387.1967641469596
 31
0.0
  0
LINE
  5
1EA
330
1F
100
AcDbEntity
  8
通り芯
  6
Continuous
 62
     2
370
     9
100
AcDbLine
 10
1423.353832347973
 20
421.4230363175677
 30
0.0
 11
1423.353832347973
 21
419.4233266469596
 31
0.0
  0
LINE
  5
1EB
330
1F
100
AcDbEntity
  8
通り芯
  6
Continuous
 62
     2
370
     9
100
AcDbLine
 10
1423.353832347973
 20
421.4230363175677
 30
0.0
 11
1409.353687183277
 21
421.4230363175677
 31
0.0
  0
LINE
  5
1EC
330
1F
100
AcDbEntity
  8
通り芯
  6
Continuous
 62
     2
370
     9
100
AcDbLine
 10
1436.353924725507
 20
421.4230363175677
 30
0.0
 11
1450.353673986487
 21
421.4230363175677
 31
0.0
  0
LINE
  5
1ED
330
1F
100
AcDbEntity
  8
通り芯
  6
Continuous
 62
     2
370
     9
100
AcDbLine
 10
1436.353924725507
 20
421.4230363175677
 30
0.0
 11
1436.353924725507
 21
419.4233266469596
 31
0.0
  0
LINE
  5
1EE
330
1F
100
AcDbEntity
  8
通り芯
  6
Continuous
 62
     2
370
     9
100
AcDbLine
 10
1436.353924725507
 20
419.4233266469596
 30
0.0
 11
1423.353832347973
 21
419.4233266469596
 31
0.0
  0
LINE
  5
1EF
330
1F
100
AcDbEntity
  8
通り芯
  6
Continuous
 62
     2
370
     9
100
AcDbLine
 10
1465.353673986487
 20
423.4235377956081
 30
0.0
 11
1450.353673986487
 21
423.4235377956081
 31
0.0
  0
LINE
  5
1F0
330
1F
100
AcDbEntity
  8
通り芯
  6
Continuous
 62
     2
370
     9
100
AcDbLine
 10
1409.353687183277
 20
423.4235377956081
 30
0.0
 11
1394.353687183277
 21
423.4235377956081
 31
0.0
  0
LINE
  5
1F1
330
1F
100
AcDbEntity
  8
通り芯
  6
Continuous
 62
     2
370
     9
100
AcDbLine
 10
1450.353673986487
 20
423.4235377956081
 30
0.0
 11
1450.353673986487
 21
417.6496779983108
 31
0.0
  0
LINE
  5
1F2
330
1F
100
AcDbEntity
  8
通り芯
  6
Continuous
 62
     2
370
     9
100
AcDbLine
 10
1465.353673986487
 20
423.4235377956081
 30
0.0
 11
1465.353673986487
 21
381.4233002533786
 31
0.0
  0
LINE
  5
1F3
330
1F
100
AcDbEntity
  8
建具
  6
Continuous
 62
     2
370
     9
100
AcDbLine
 10
1467.460277660473
 20
380.9232738597973
 30
0.0
 11
1470.247637774493
 21
380.9232738597973
 31
0.0
  0
LINE
  5
1F4
330
1F
100
AcDbEntity
  8
建具
  6
Continuous
 62
     2
370
     9
100
AcDbLine
 10
1467.460277660473
 20
423.9231682854731
 30
0.0
 11
1470.247637774493
 21
423.9231682854731
 31
0.0
  0
LINE
  5
1F5
330
1F
100
AcDbEntity
  8
建具
  6
Continuous
 62
     2
370
     9
100
AcDbLine
 10
1472.353845544764
 20
386.3004381334461
 30
0.0
 11
1472.353845544764
 21
418.5460040118244
 31
0.0
  0
LINE
  5
1F6
330
1F
100
AcDbEntity
  8
建具
  6
Continuous
 62
     2
370
     9
100
AcDbLine
 10
1465.353673986487
 20
386.3004381334461
 30
0.0
 11
1465.353673986487
 21
418.5460040118244
 31
0.0
  0
LINE
  5
1F7
330
1F
100
AcDbEntity
  8
建具
  6
Continuous
 62
     2
370
     9
100
AcDbLine
 10
1380.432326858108
 20
418.3231102195946
 30
0.0
 11
1394.353687183277
 21
418.3231102195946
 31
0.0
  0
LINE
  5
1F8
330
1F
100
AcDbEntity
  8
建具
  6
Continuous
 62
     2
370
     9
100
AcDbLine
 10
1380.432326858108
 20
386.5229360219596
 30
0.0
 11
1394.353687183277
 21
386.5229360219596
 31
0.0
  0
LINE
  5
1F9
330
1F
100
AcDbEntity
  8
通り芯
  6
Continuous
 62
     2
370
     9
100
AcDbLine
 10
1409.353687183277
 20
417.6496779983108
 30
0.0
 11
1409.353687183277
 21
423.4235377956081
 31
0.0
  0
LINE
  5
1FA
330
1F
100
AcDbEntity
  8
通り芯
  6
Continuous
 62
     2
370
     9
100
AcDbLine
 10
488.2726061021963
 20
418.0051995354731
 30
0.0
 11
488.2726061021963
 21
423.7786634290542
 31
0.0
  0
LINE
  5
1FB
330
1F
100
AcDbEntity
  8
通り芯
  6
Continuous
 62
     2
370
     9
100
AcDbLine
 10
1465.353673986487
 20
412.9233794341217
 30
0.0
 11
1394.353687183277
 21
412.9233794341217
 31
0.0
  0
LINE
  5
1FC
330
1F
100
AcDbEntity
  8
通り芯
  6
Continuous
 62
     2
370
     9
100
AcDbLine
 10
1465.353673986487
 20
391.923458614865
 30
0.0
 11
1394.353687183277
 21
391.923458614865
 31
0.0
  0
LINE
  5
1FD
330
1F
100
AcDbEntity
  8
建具
  6
Continuous
 62
     2
370
     9
100
AcDbLine
 10
1467.459881756757
 20
391.6783942145271
 30
0.0
 11
1470.247439822635
 21
391.6783942145271
 31
0.0
  0
LINE
  5
1FE
330
1F
100
AcDbEntity
  8
建具
  6
Continuous
 62
     2
370
     9
100
AcDbLine
 10
1467.459881756757
 20
413.1680479307433
 30
0.0
 11
1470.247439822635
 21
413.1680479307433
 31
0.0
  0
LINE
  5
1FF
330
1F
100
AcDbEntity
  8
躯体
  6
Continuous
 62
     3
370
     9
100
AcDbLine
 10
1512.353977512669
 20
395.4236433699325
 30
0.0
 11
1515.353937922298
 21
395.4236433699325
 31
0.0
  0
LINE
  5
200
330
1F
100
AcDbEntity
  8
躯体
  6
Continuous
 62
     3
370
     9
100
AcDbLine
 10
1515.353937922298
 20
409.4235905827704
 30
0.0
 11
1515.353937922298
 21
395.4236433699325
 31
0.0
  0
LINE
  5
201
330
1F
100
AcDbEntity
  8
躯体
  6
Continuous
 62
     3
370
     9
100
AcDbLine
 10
1512.353977512669
 20
409.4235905827704
 30
0.0
 11
1515.353937922298
 21
409.4235905827704
 31
0.0
  0
LINE
  5
202
330
1F
100
AcDbEntity
  8
躯体
  6
Continuous
 62
     3
370
     9
100
AcDbLine
 10
1504.353951119088
 20
409.9232210726352
 30
0.0
 11
1504.353951119088
 21
394.9232210726352
 31
0.0
  0
LINE
  5
203
330
1F
100
AcDbEntity
  8
躯体
  6
Continuous
 62
     3
370
     9
100
AcDbLine
 10
1512.353977512669
 20
395.4236433699325
 30
0.0
 11
1504.353951119088
 21
394.9232210726352
 31
0.0
  0
LINE
  5
204
330
1F
100
AcDbEntity
  8
躯体
  6
Continuous
 62
     3
370
     9
100
AcDbLine
 10
1504.353951119088
 20
409.9232210726352
 30
0.0
 11
1512.353977512669
 21
409.4235905827704
 31
0.0
  0
LINE
  5
205
330
1F
100
AcDbEntity
  8
躯体
  6
Continuous
 62
     3
370
     9
100
AcDbLine
 10
1499.353885135135
 20
409.4235905827704
 30
0.0
 11
1499.353885135135
 21
395.4236433699325
 31
0.0
  0
LINE
  5
206
330
1F
100
AcDbEntity
  8
躯体
  6
Continuous
 62
     3
370
     9
100
AcDbLine
 10
1497.853805954392
 20
409.4235905827704
 30
0.0
 11
1497.853805954392
 21
395.4236433699325
 31
0.0
  0
LINE
  5
207
330
1F
100
AcDbEntity
  8
躯体
  6
Continuous
 62
     3
370
     9
100
AcDbLine
 10
1492.853937922298
 20
409.4235905827704
 30
0.0
 11
1492.853937922298
 21
395.4236433699325
 31
0.0
  0
LINE
  5
208
330
1F
100
AcDbEntity
  8
躯体
  6
Continuous
 62
     3
370
     9
100
AcDbLine
 10
1491.353660789696
 20
409.4235905827704
 30
0.0
 11
1491.353660789696
 21
395.4236433699325
 31
0.0
  0
LINE
  5
209
330
1F
100
AcDbEntity
  8
躯体
  6
Continuous
 62
     3
370
     9
100
AcDbLine
 10
1485.353739970439
 20
414.8882495777027
 30
0.0
 11
1476.353660789696
 21
414.8882495777027
 31
0.0
  0
LINE
  5
20A
330
1F
100
AcDbEntity
  8
躯体
  6
Continuous
 62
     3
370
     9
100
AcDbLine
 10
1485.353739970439
 20
414.8882495777027
 30
0.0
 11
1485.353739970439
 21
389.9233530405406
 31
0.0
  0
LINE
  5
20B
330
1F
100
AcDbEntity
  8
躯体
  6
Continuous
 62
     3
370
     9
100
AcDbLine
 10
1485.353739970439
 20
389.9233530405406
 30
0.0
 11
1476.353660789696
 21
389.9233530405406
 31
0.0
  0
LINE
  5
20C
330
1F
100
AcDbEntity
  8
躯体
  6
Continuous
 62
     3
370
     9
100
AcDbLine
 10
1476.353660789696
 20
414.8882495777027
 30
0.0
 11
1476.353660789696
 21
389.9233530405406
 31
0.0
  0
LINE
  5
20D
330
1F
100
AcDbEntity
  8
躯体
  6
Continuous
 62
     3
370
     9
100
AcDbLine
 10
1485.353739970439
 20
409.4235905827704
 30
0.0
 11
1504.353951119088
 21
409.4235905827704
 31
0.0
  0
LINE
  5
20E
330
1F
100
AcDbEntity
  8
躯体
  6
Continuous
 62
     3
370
     9
100
AcDbLine
 10
1485.353739970439
 20
395.4236433699325
 30
0.0
 11
1504.353951119088
 21
395.4236433699325
 31
0.0
  0
LINE
  5
20F
330
1F
100
AcDbEntity
  8
躯体
  6
Continuous
 62
     3
370
     9
100
AcDbLine
 10
1485.353739970439
 20
396.1936760979731
 30
0.0
 11
1476.353660789696
 21
396.1936760979731
 31
0.0
  0
LINE
  5
210
330
1F
100
AcDbEntity
  8
躯体
  6
Continuous
 62
     3
370
     9
100
AcDbLine
 10
1485.353739970439
 20
408.6531619510135
 30
0.0
 11
1476.353660789696
 21
408.6531619510135
 31
0.0
  0
LINE
  5
211
330
1F
100
AcDbEntity
  8
躯体
  6
Continuous
 62
     3
370
     9
100
AcDbLine
 10
1472.353647592905
 20
412.9233794341217
 30
0.0
 11
1476.353660789696
 21
412.9233794341217
 31
0.0
  0
LINE
  5
212
330
1F
100
AcDbEntity
  8
躯体
  6
Continuous
 62
     3
370
     9
100
AcDbLine
 10
1472.353647592905
 20
391.923458614865
 30
0.0
 11
1476.353660789696
 21
391.923458614865
 31
0.0
  0
LINE
  5
213
330
1F
100
AcDbEntity
  8
通り芯
  6
Continuous
 62
     2
370
     9
100
AcDbLine
 10
1472.353845544764
 20
391.423432221284
 30
0.0
 11
1476.353660789696
 21
391.423432221284
 31
0.0
  0
LINE
  5
214
330
1F
100
AcDbEntity
  8
通り芯
  6
Continuous
 62
     2
370
     9
100
AcDbLine
 10
1472.353845544764
 20
413.4230099239867
 30
0.0
 11
1476.353660789696
 21
413.4230099239867
 31
0.0
  0
LINE
  5
215
330
1F
100
AcDbEntity
  8
0-F
  6
Continuous
 62
     7
370
     9
100
AcDbLine
 10
-394.1844053526181
 20
-680.6208826013512
 30
0.0
 11
-397.3169935071789
 21
-656.8262774493243
 31
0.0
  0
LINE
  5
216
330
1F
100
AcDbEntity
  8
0-F
  6
Continuous
 62
     7
370
     9
100
AcDbLine
 10
-394.1844053526181
 20
-680.6208826013512
 30
0.0
 11
-391.0518171980573
 21
-656.8262774493243
 31
0.0
  0
LINE
  5
217
330
1F
100
AcDbEntity
  8
0-F
  6
Continuous
 62
     7
370
     9
100
AcDbLine
 10
-325.6794037690033
 20
-680.6208826013512
 30
0.0
 11
-328.8119919235642
 21
-656.8262774493243
 31
0.0
  0
LINE
  5
218
330
1F
100
AcDbEntity
  8
0-F
  6
Continuous
 62
     7
370
     9
100
AcDbLine
 10
-325.6794037690033
 20
-680.6208826013512
 30
0.0
 11
-322.5468156144425
 21
-656.8262774493243
 31
0.0
  0
LINE
  5
219
330
1F
100
AcDbEntity
  8
0-F
  6
Continuous
 62
     7
370
     9
100
AcDbLine
 10
-273.6081674936654
 20
-680.6208826013512
 30
0.0
 11
-276.7407556482262
 21
-656.8262774493243
 31
0.0
  0
LINE
  5
21A
330
1F
100
AcDbEntity
  8
0-F
  6
Continuous
 62
     7
370
     9
100
AcDbLine
 10
-273.6081674936654
 20
-680.6208826013512
 30
0.0
 11
-270.4755793391046
 21
-656.8262774493243
 31
0.0
  0
LINE
  5
21B
330
1F
100
AcDbEntity
  8
0-F
  6
Continuous
 62
     7
370
     9
100
AcDbLine
 10
-325.6794037690033
 20
620.8793285472973
 30
0.0
 11
-322.5468156144425
 21
597.0847233952704
 31
0.0
  0
LINE
  5
21C
330
1F
100
AcDbEntity
  8
0-F
  6
Continuous
 62
     7
370
     9
100
AcDbLine
 10
-325.6794037690033
 20
620.8793285472973
 30
0.0
 11
-328.8119919235642
 21
597.0847233952704
 31
0.0
  0
LINE
  5
21D
330
1F
100
AcDbEntity
  8
0-F
  6
Continuous
 62
     7
370
     9
100
AcDbLine
 10
-273.6081674936654
 20
620.8793285472973
 30
0.0
 11
-270.4755793391046
 21
597.0847233952704
 31
0.0
  0
LINE
  5
21E
330
1F
100
AcDbEntity
  8
0-F
  6
Continuous
 62
     7
370
     9
100
AcDbLine
 10
-273.6081674936654
 20
620.8793285472973
 30
0.0
 11
-276.7407556482262
 21
597.0847233952704
 31
0.0
  0
LINE
  5
21F
330
1F
100
AcDbEntity
  8
0-F
  6
Continuous
 62
     7
370
     9
100
AcDbLine
 10
-325.6794037690033
 20
-680.6208826013512
 30
0.0
 11
-325.6794037690033
 21
620.8793285472973
 31
0.0
  0
LINE
  5
220
330
1F
100
AcDbEntity
  8
0-F
  6
Continuous
 62
     7
370
     9
100
AcDbLine
 10
-328.8119919235642
 20
-256.8261454814188
 30
0.0
 11
-322.5468156144425
 21
-304.4153557854729
 31
0.0
  0
LINE
  5
221
330
1F
100
AcDbEntity
  8
0-F
  6
Continuous
 62
     7
370
     9
100
AcDbLine
 10
-322.5468156144425
 20
-256.8261454814188
 30
0.0
 11
-328.8119919235642
 21
-304.4153557854729
 31
0.0
  0
LINE
  5
222
330
1F
100
AcDbEntity
  8
0-F
  6
Continuous
 62
     7
370
     9
100
AcDbLine
 10
-394.1844053526181
 20
-250.6207506334459
 30
0.0
 11
-391.0518171980573
 21
-274.4153557854729
 31
0.0
  0
LINE
  5
223
330
1F
100
AcDbEntity
  8
0-F
  6
Continuous
 62
     7
370
     9
100
AcDbLine
 10
-394.1844053526181
 20
-250.6207506334459
 30
0.0
 11
-397.3169935071789
 21
-274.4153557854729
 31
0.0
  0
LINE
  5
224
330
1F
100
AcDbEntity
  8
0-F
  6
Continuous
 62
     7
370
     9
100
AcDbLine
 10
-587.8221996410473
 20
208.4288165118244
 30
0.0
 11
-573.2119668496621
 21
227.4694098395271
 31
0.0
  0
LINE
  5
225
330
1F
100
AcDbEntity
  8
0-F
  6
Continuous
 62
     7
370
     9
100
AcDbLine
 10
-587.8221996410473
 20
208.4288165118244
 30
0.0
 11
-568.7817052892735
 21
223.0392472550677
 31
0.0
  0
LINE
  5
226
330
1F
100
AcDbEntity
  8
0-F
  6
Continuous
 62
     7
370
     9
100
AcDbLine
 10
-587.8221996410473
 20
208.4288165118244
 30
0.0
 11
-512.3758182010135
 21
283.8753959037163
 31
0.0
  0
LINE
  5
227
330
1F
100
AcDbEntity
  8
0-F
  6
Continuous
 62
     7
370
     9
100
AcDbLine
 10
-621.8198374155404
 20
620.8793285472973
 30
0.0
 11
-607.2096046241554
 21
639.919525971284
 31
0.0
  0
LINE
  5
228
330
1F
100
AcDbEntity
  8
0-F
  6
Continuous
 62
     7
370
     9
100
AcDbLine
 10
-621.8198374155404
 20
620.8793285472973
 30
0.0
 11
-602.7793430637669
 21
635.4893633868244
 31
0.0
  0
LINE
  5
229
330
1F
100
AcDbEntity
  8
0-F
  6
Continuous
 62
     7
370
     9
100
AcDbLine
 10
-688.3148358319256
 20
-493.8588471283783
 30
0.0
 11
-673.7047020164696
 21
-474.8184517525337
 31
0.0
  0
LINE
  5
22A
330
1F
100
AcDbEntity
  8
0-F
  6
Continuous
 62
     7
370
     9
100
AcDbLine
 10
-688.3148358319256
 20
-493.8588471283783
 30
0.0
 11
-669.274440456081
 21
-479.2486143369932
 31
0.0
  0
LINE
  5
22B
330
1F
100
AcDbEntity
  8
0-F
  6
Continuous
 62
     7
370
     9
100
AcDbLine
 10
-688.3148358319256
 20
-493.8588471283783
 30
0.0
 11
-612.8685533678208
 21
-418.4126636402027
 31
0.0
  0
LINE
  5
22C
330
1F
100
AcDbEntity
  8
0-F
  6
Continuous
 62
     7
370
     9
100
AcDbLine
 10
-1076.071249472128
 20
682.3794077280406
 30
0.0
 11
-1061.461016680743
 21
701.4200010557433
 31
0.0
  0
LINE
  5
22D
330
1F
100
AcDbEntity
  8
0-F
  6
Continuous
 62
     7
370
     9
100
AcDbLine
 10
-1076.071249472128
 20
682.3794077280406
 30
0.0
 11
-1057.030854096284
 21
696.989838471284
 31
0.0
  0
LINE
  5
22E
330
1F
100
AcDbEntity
  8
0-F
  6
Continuous
 62
     7
370
     9
100
AcDbLine
 10
-1076.071249472128
 20
682.3794077280406
 30
0.0
 11
-1000.624868032095
 21
757.8259871199325
 31
0.0
  0
LINE
  5
22F
330
1F
100
AcDbEntity
  8
0-F
  6
Continuous
 62
     7
370
     9
100
AcDbLine
 10
-1194.721118823902
 20
838.1010082347975
 30
0.0
 11
-1107.221547719595
 21
838.1010082347975
 31
0.0
  0
LINE
  5
230
330
1F
100
AcDbEntity
  8
0-F
  6
Continuous
 62
     7
370
     9
100
AcDbLine
 10
-1194.721118823902
 20
838.1010082347975
 30
0.0
 11
-1170.926612647804
 21
841.2337943412163
 31
0.0
  0
LINE
  5
231
330
1F
100
AcDbEntity
  8
0-F
  6
Continuous
 62
     7
370
     9
100
AcDbLine
 10
-1194.721118823902
 20
838.1010082347975
 30
0.0
 11
-1170.926612647804
 21
834.9686180320948
 31
0.0
  0
LINE
  5
232
330
1F
100
AcDbEntity
  8
0-F
  6
Continuous
 62
     7
370
     9
100
AcDbLine
 10
-1107.221547719595
 20
838.1010082347975
 30
0.0
 11
-1131.016251847551
 21
841.2337943412163
 31
0.0
  0
LINE
  5
233
330
1F
100
AcDbEntity
  8
0-F
  6
Continuous
 62
     7
370
     9
100
AcDbLine
 10
-1107.221547719595
 20
838.1010082347975
 30
0.0
 11
-1131.016251847551
 21
834.9686180320948
 31
0.0
  0
LINE
  5
234
330
1F
100
AcDbEntity
  8
0-F
  6
Continuous
 62
     7
370
     9
100
AcDbLine
 10
-1290.032365128801
 20
543.3400021114867
 30
0.0
 11
-1247.221514727618
 21
500.5289537584461
 31
0.0
  0
LINE
  5
235
330
1F
100
AcDbEntity
  8
0-F
  6
Continuous
 62
     7
370
     9
100
AcDbLine
 10
-1247.221514727618
 20
500.5289537584461
 30
0.0
 11
-1266.262108055321
 21
515.1393845016894
 31
0.0
  0
LINE
  5
236
330
1F
100
AcDbEntity
  8
0-F
  6
Continuous
 62
     7
370
     9
100
AcDbLine
 10
-1247.221514727618
 20
500.5289537584461
 30
0.0
 11
-1261.831747519003
 21
519.5695470861488
 31
0.0
  0
LINE
  5
237
330
1F
100
AcDbEntity
  8
0-F
  6
Continuous
 62
     7
370
     9
100
AcDbLine
 10
-407.1680677259289
 20
-148.8354888091217
 30
0.0
 11
-438.220973659206
 21
-202.6209881756756
 31
0.0
  0
LINE
  5
238
330
1F
100
AcDbEntity
  8
0-F
  6
Continuous
 62
     7
370
     9
100
AcDbLine
 10
-438.220973659206
 20
-202.6209881756756
 30
0.0
 11
-429.0366012985642
 21
-180.4476087415539
 31
0.0
  0
LINE
  5
239
330
1F
100
AcDbEntity
  8
0-F
  6
Continuous
 62
     7
370
     9
100
AcDbLine
 10
-438.220973659206
 20
-202.6209881756756
 30
0.0
 11
-423.6107408678208
 21
-183.5803948479729
 31
0.0
  0
LINE
  5
23A
330
1F
100
AcDbEntity
  8
躯体
  6
JWW_CENTER2
 62
     3
370
     9
100
AcDbLine
 10
-887.2210198479729
 20
-51.73495565878375
 30
0.0
 11
-887.2210198479729
 21
-311.1053367820946
 31
0.0
  0
LINE
  5
23B
330
1F
100
AcDbEntity
  8
0-F
  6
Continuous
 62
     7
370
     9
100
AcDbLine
 10
-765.0746278505067
 20
-330.6206186655405
 30
0.0
 11
-825.0853172508446
 21
-390.6313080658783
 31
0.0
  0
LINE
  5
23C
330
1F
100
AcDbEntity
  8
0-F
  6
Continuous
 62
     7
370
     9
100
AcDbLine
 10
-765.0746278505067
 20
-330.6206186655405
 30
0.0
 11
-779.6848606418919
 21
-349.6612119932432
 31
0.0
  0
LINE
  5
23D
330
1F
100
AcDbEntity
  8
0-F
  6
Continuous
 62
     7
370
     9
100
AcDbLine
 10
-765.0746278505067
 20
-330.6206186655405
 30
0.0
 11
-784.1151222022803
 21
-345.2306535050675
 31
0.0
  0
LINE
  5
23E
330
1F
100
AcDbEntity
  8
躯体
  6
JWW_CENTER2
 62
     3
370
     9
100
AcDbLine
 10
-887.2210198479729
 20
688.6845703125
 30
0.0
 11
-887.2210198479729
 21
15.84382918074334
 31
0.0
  0
LINE
  5
23F
330
1F
100
AcDbEntity
  8
0-F
  6
Continuous
 62
     7
370
     9
100
AcDbLine
 10
-883.2210066511824
 20
640.8791965793921
 30
0.0
 11
-868.6106748838682
 21
659.9197899070948
 31
0.0
  0
LINE
  5
240
330
1F
100
AcDbEntity
  8
0-F
  6
Continuous
 62
     7
370
     9
100
AcDbLine
 10
-883.2210066511824
 20
640.8791965793921
 30
0.0
 11
-864.1804133234797
 21
655.4896273226352
 31
0.0
  0
LINE
  5
241
330
1F
100
AcDbEntity
  8
0-F
  6
Continuous
 62
     7
370
     9
100
AcDbLine
 10
-883.2210066511824
 20
640.8791965793921
 30
0.0
 11
-765.6884765625
 21
758.4119246199325
 31
0.0
  0
LINE
  5
242
330
1F
100
AcDbEntity
  8
0-F
  6
Continuous
 62
     7
370
     9
100
AcDbLine
 10
-63.7277304159627
 20
503.278900971284
 30
0.0
 11
-119.4083218961148
 21
711.081635346284
 31
0.0
  0
LINE
  5
243
330
1F
100
AcDbEntity
  8
0-F
  6
Continuous
 62
     7
370
     9
100
AcDbLine
 10
-63.7277304159627
 20
503.278900971284
 30
0.0
 11
-72.91210277660457
 21
525.4518845016894
 31
0.0
  0
LINE
  5
244
330
1F
100
AcDbEntity
  8
0-F
  6
Continuous
 62
     7
370
     9
100
AcDbLine
 10
-63.7277304159627
 20
503.278900971284
 30
0.0
 11
-66.86031857052353
 21
527.0735061233108
 31
0.0
  0
LINE
  5
245
330
1F
100
AcDbEntity
  8
0-F
  6
Continuous
 62
     7
370
     9
100
AcDbLine
 10
-621.8198374155404
 20
620.8793285472973
 30
0.0
 11
-484.2872413429054
 21
758.4119246199325
 31
0.0
  0
LINE
  5
246
330
1F
100
AcDbEntity
  8
通り芯
  6
JWW_CENTER1
 62
     2
370
     9
100
AcDbLine
 10
-538.2210066511823
 20
-209.696975295608
 30
0.0
 11
-538.2210066511823
 21
-237.5539484797297
 31
0.0
  0
LINE
  5
247
330
1F
100
AcDbEntity
  8
0-F
  6
Continuous
 62
     7
370
     9
100
AcDbLine
 10
-463.7209340688344
 20
-258.1207506334459
 30
0.0
 11
-486.0145692567567
 21
-341.3215002111486
 31
0.0
  0
LINE
  5
248
330
1F
100
AcDbEntity
  8
0-F
  6
Continuous
 62
     7
370
     9
100
AcDbLine
 10
-463.7209340688344
 20
-258.1207506334459
 30
0.0
 11
-466.8536211993242
 21
-281.9153557854729
 31
0.0
  0
LINE
  5
249
330
1F
100
AcDbEntity
  8
0-F
  6
Continuous
 62
     7
370
     9
100
AcDbLine
 10
-463.7209340688344
 20
-258.1207506334459
 30
0.0
 11
-472.9053064294762
 21
-280.2937341638514
 31
0.0
  0
LINE
  5
24A
330
1F
100
AcDbEntity
  8
0-F
  6
Continuous
 62
     7
370
     9
100
AcDbLine
 10
937.0643079603042
 20
783.8392366976352
 30
0.0
 11
1224.999340160473
 21
783.8392366976352
 31
0.0
  0
LINE
  5
24B
330
1F
100
AcDbEntity
  8
0-F
  6
Continuous
 62
     7
370
     9
100
AcDbLine
 10
937.0643079603042
 20
570.5678842905406
 30
0.0
 11
937.0643079603042
 21
786.2392050253379
 31
0.0
  0
LINE
  5
24C
330
1F
100
AcDbEntity
  8
0-F
  6
Continuous
 62
     7
370
     9
100
AcDbLine
 10
1224.999340160473
 20
570.2131545608108
 30
0.0
 11
1224.999340160473
 21
786.2392050253379
 31
0.0
  0
LINE
  5
24D
330
1F
100
AcDbEntity
  8
0-F
  6
Continuous
 62
     7
370
     9
100
AcDbLine
 10
937.0643079603042
 20
783.8392366976352
 30
0.0
 11
960.8589131123313
 21
786.9716269003379
 31
0.0
  0
LINE
  5
24E
330
1F
100
AcDbEntity
  8
0-F
  6
Continuous
 62
     7
370
     9
100
AcDbLine
 10
937.0643079603042
 20
783.8392366976352
 30
0.0
 11
960.8589131123313
 21
780.7068464949325
 31
0.0
  0
LINE
  5
24F
330
1F
100
AcDbEntity
  8
0-F
  6
Continuous
 62
     7
370
     9
100
AcDbLine
 10
1224.999340160473
 20
783.8392366976352
 30
0.0
 11
1201.204537056588
 21
786.9716269003379
 31
0.0
  0
LINE
  5
250
330
1F
100
AcDbEntity
  8
0-F
  6
Continuous
 62
     7
370
     9
100
AcDbLine
 10
1224.999340160473
 20
783.8392366976352
 30
0.0
 11
1201.204537056588
 21
780.7068464949325
 31
0.0
  0
LINE
  5
251
330
1F
100
AcDbEntity
  8
0-F
  6
Continuous
 62
     7
370
     9
100
AcDbLine
 10
684.2441538217909
 20
258.6333667652027
 30
0.0
 11
684.2441538217909
 21
546.5678051097973
 31
0.0
  0
LINE
  5
252
330
1F
100
AcDbEntity
  8
0-F
  6
Continuous
 62
     7
370
     9
100
AcDbLine
 10
912.7094990498313
 20
258.6333667652027
 30
0.0
 11
681.8441854940879
 21
258.6333667652027
 31
0.0
  0
LINE
  5
253
330
1F
100
AcDbEntity
  8
0-F
  6
Continuous
 62
     7
370
     9
100
AcDbLine
 10
913.0642287795608
 20
546.5678051097973
 30
0.0
 11
681.8441854940879
 21
546.5678051097973
 31
0.0
  0
LINE
  5
254
330
1F
100
AcDbEntity
  8
0-F
  6
Continuous
 62
     7
370
     9
100
AcDbLine
 10
684.2441538217909
 20
258.6333667652027
 30
0.0
 11
681.11156566723
 21
282.4279719172298
 31
0.0
  0
LINE
  5
255
330
1F
100
AcDbEntity
  8
0-F
  6
Continuous
 62
     7
370
     9
100
AcDbLine
 10
684.2441538217909
 20
258.6333667652027
 30
0.0
 11
687.3767419763517
 21
282.4279719172298
 31
0.0
  0
LINE
  5
256
330
1F
100
AcDbEntity
  8
0-F
  6
Continuous
 62
     7
370
     9
100
AcDbLine
 10
684.2441538217909
 20
546.5678051097973
 30
0.0
 11
681.11156566723
 21
522.7731999577704
 31
0.0
  0
LINE
  5
257
330
1F
100
AcDbEntity
  8
0-F
  6
Continuous
 62
     7
370
     9
100
AcDbLine
 10
684.2441538217909
 20
546.5678051097973
 30
0.0
 11
687.3767419763517
 21
522.7731999577704
 31
0.0
  0
LINE
  5
258
330
1F
100
AcDbEntity
  8
0-F
  6
Continuous
 62
     7
370
     9
100
AcDbLine
 10
-185.4458535684121
 20
924.3193359375
 30
0.0
 11
73.14301361908792
 21
924.3193359375
 31
0.0
  0
LINE
  5
259
330
1F
100
AcDbEntity
  8
0-F
  6
Continuous
 62
     7
370
     9
100
AcDbLine
 10
-185.4458535684121
 20
860.3195206925675
 30
0.0
 11
73.14301361908792
 21
860.3195206925675
 31
0.0
  0
LINE
  5
25A
330
1F
100
AcDbEntity
  8
0-F
  6
Continuous
 62
     7
370
     9
100
AcDbLine
 10
-185.4458535684121
 20
924.3193359375
 30
0.0
 11
-185.4458535684121
 21
860.3195206925675
 31
0.0
  0
LINE
  5
25B
330
1F
100
AcDbEntity
  8
0-F
  6
Continuous
 62
     7
370
     9
100
AcDbLine
 10
73.14301361908792
 20
924.3193359375
 30
0.0
 11
73.14301361908792
 21
860.3195206925675
 31
0.0
  0
LINE
  5
25C
330
1F
100
AcDbEntity
  8
0-F
  6
Continuous
 62
     7
370
     9
100
AcDbLine
 10
735.6352275126692
 20
924.3193359375
 30
0.0
 11
994.2240947001692
 21
924.3193359375
 31
0.0
  0
LINE
  5
25D
330
1F
100
AcDbEntity
  8
0-F
  6
Continuous
 62
     7
370
     9
100
AcDbLine
 10
735.6352275126692
 20
860.3195206925675
 30
0.0
 11
994.2240947001692
 21
860.3195206925675
 31
0.0
  0
LINE
  5
25E
330
1F
100
AcDbEntity
  8
0-F
  6
Continuous
 62
     7
370
     9
100
AcDbLine
 10
735.6352275126692
 20
924.3193359375
 30
0.0
 11
735.6352275126692
 21
860.3195206925675
 31
0.0
  0
LINE
  5
25F
330
1F
100
AcDbEntity
  8
0-F
  6
Continuous
 62
     7
370
     9
100
AcDbLine
 10
994.2240947001692
 20
924.3193359375
 30
0.0
 11
994.2240947001692
 21
860.3195206925675
 31
0.0
  0
LINE
  5
260
330
1F
100
AcDbEntity
  8
0-F
  6
Continuous
 62
     7
370
     9
100
AcDbLine
 10
1226.551480679899
 20
552.0091057854731
 30
0.0
 11
1273.141430004223
 21
725.8844752956081
 31
0.0
  0
LINE
  5
261
330
1F
100
AcDbEntity
  8
0-F
  6
Continuous
 62
     7
370
     9
100
AcDbLine
 10
1226.551480679899
 20
552.0091057854731
 30
0.0
 11
1229.68406883446
 21
575.8037109375
 31
0.0
  0
LINE
  5
262
330
1F
100
AcDbEntity
  8
0-F
  6
Continuous
 62
     7
370
     9
100
AcDbLine
 10
1226.551480679899
 20
552.0091057854731
 30
0.0
 11
1235.735853040541
 21
574.1820893158786
 31
0.0
  0
LINE
  5
263
330
1F
100
AcDbEntity
  8
建具
  6
JWW_CENTER2
 62
     2
370
     9
100
AcDbLine
 10
1194.50366870777
 20
467.4230891047298
 30
0.0
 11
1273.49437816723
 21
467.4230891047298
 31
0.0
  0
LINE
  5
264
330
1F
100
AcDbEntity
  8
建具
  6
Continuous
 62
     2
370
     9
100
AcDbLine
 10
1223.353964315878
 20
454.9232210726352
 30
0.0
 11
1223.353964315878
 21
479.9229571368244
 31
0.0
  0
LINE
  5
265
330
1F
100
AcDbEntity
  8
建具
  6
Continuous
 62
     2
370
     9
100
AcDbLine
 10
1248.353898331926
 20
479.9229571368244
 30
0.0
 11
1248.353898331926
 21
454.9232210726352
 31
0.0
  0
LINE
  5
266
330
1F
100
AcDbEntity
  8
0-F
  6
Continuous
 62
     7
370
     9
100
AcDbLine
 10
1273.141430004223
 20
725.8844752956081
 30
0.0
 11
1371.036343961149
 21
725.8844752956081
 31
0.0
  0
LINE
  5
267
330
1F
100
AcDbEntity
  8
建具
  6
Continuous
 62
     2
370
     9
100
AcDbLine
 10
-749.8249115815033
 20
-335.6204866976351
 30
0.0
 11
-749.8249115815033
 21
-345.6210145692567
 31
0.0
  0
LINE
  5
268
330
1F
100
AcDbEntity
  8
建具
  6
Continuous
 62
     2
370
     9
100
AcDbLine
 10
-749.8249115815033
 20
-345.6210145692567
 30
0.0
 11
-719.8248126055743
 21
-345.6210145692567
 31
0.0
  0
LINE
  5
269
330
1F
100
AcDbEntity
  8
建具
  6
Continuous
 62
     2
370
     9
100
AcDbLine
 10
-719.8248126055743
 20
-335.6204866976351
 30
0.0
 11
-719.8248126055743
 21
-345.6210145692567
 31
0.0
  0
LINE
  5
26A
330
1F
100
AcDbEntity
  8
建具
  6
Continuous
 62
     2
370
     9
100
AcDbLine
 10
-732.824806007179
 20
-364.120803420608
 30
0.0
 11
-736.8248192039696
 21
-364.120803420608
 31
0.0
  0
LINE
  5
26B
330
1F
100
AcDbEntity
  8
建具
  6
Continuous
 62
     2
370
     9
100
AcDbLine
 10
-738.3247994087837
 20
-348.620777027027
 30
0.0
 11
-738.3247994087837
 21
-362.6207242398648
 31
0.0
  0
LINE
  5
26C
330
1F
100
AcDbEntity
  8
建具
  6
Continuous
 62
     2
370
     9
100
AcDbLine
 10
-732.824806007179
 20
-347.1206978462837
 30
0.0
 11
-736.8248192039696
 21
-347.1206978462837
 31
0.0
  0
LINE
  5
26D
330
1F
100
AcDbEntity
  8
建具
  6
Continuous
 62
     2
370
     9
100
AcDbLine
 10
-731.3248258023648
 20
-348.620777027027
 30
0.0
 11
-731.3248258023648
 21
-362.6207242398648
 31
0.0
  0
LINE
  5
26E
330
1F
100
AcDbEntity
  8
建具
  6
Continuous
 62
     2
370
     9
100
AcDbLine
 10
-732.824806007179
 20
-365.6204866976351
 30
0.0
 11
-736.8248192039696
 21
-365.6204866976351
 31
0.0
  0
LINE
  5
26F
330
1F
100
AcDbEntity
  8
建具
  6
Continuous
 62
     2
370
     9
100
AcDbLine
 10
-739.8247796135979
 20
-348.620777027027
 30
0.0
 11
-739.8247796135979
 21
-362.6207242398648
 31
0.0
  0
LINE
  5
270
330
1F
100
AcDbEntity
  8
建具
  6
Continuous
 62
     2
370
     9
100
AcDbLine
 10
-729.8248455975506
 20
-348.620777027027
 30
0.0
 11
-729.8248455975506
 21
-362.6207242398648
 31
0.0
  0
LINE
  5
271
330
1F
100
AcDbEntity
  8
建具
  6
JWW_CENTER1
 62
     2
370
     9
100
AcDbLine
 10
-734.8248126055743
 20
-271.5973131334459
 30
0.0
 11
-734.8248126055743
 21
-374.2963207347973
 31
0.0
  0
LINE
  5
272
330
1F
100
AcDbEntity
  8
建具
  6
Continuous
 62
     2
370
     9
100
AcDbLine
 10
1230.853964315878
 20
517.4229571368244
 30
0.0
 11
1240.853898331926
 21
517.4229571368244
 31
0.0
  0
LINE
  5
273
330
1F
100
AcDbEntity
  8
建具
  6
Continuous
 62
     2
370
     9
100
AcDbLine
 10
1240.853898331926
 20
417.4232210726352
 30
0.0
 11
1240.853898331926
 21
517.4229571368244
 31
0.0
  0
LINE
  5
274
330
1F
100
AcDbEntity
  8
建具
  6
Continuous
 62
     2
370
     9
100
AcDbLine
 10
1230.853964315878
 20
417.4232210726352
 30
0.0
 11
1240.853898331926
 21
417.4232210726352
 31
0.0
  0
LINE
  5
275
330
1F
100
AcDbEntity
  8
建具
  6
Continuous
 62
     2
370
     9
100
AcDbLine
 10
1230.853964315878
 20
417.4232210726352
 30
0.0
 11
1230.853964315878
 21
517.4229571368244
 31
0.0
  0
LINE
  5
276
330
1F
100
AcDbEntity
  8
建具
  6
JWW_CENTER2
 62
     2
370
     9
100
AcDbLine
 10
1235.853832347973
 20
414.8142155827704
 30
0.0
 11
1235.853832347973
 21
519.9238809121623
 31
0.0
  0
LINE
  5
277
330
1F
100
AcDbEntity
  8
建具
  6
Continuous
 62
     2
370
     9
100
AcDbLine
 10
1223.353964315878
 20
479.9229571368244
 30
0.0
 11
1230.853964315878
 21
479.9229571368244
 31
0.0
  0
LINE
  5
278
330
1F
100
AcDbEntity
  8
建具
  6
Continuous
 62
     2
370
     9
100
AcDbLine
 10
1240.853898331926
 20
479.9229571368244
 30
0.0
 11
1248.353898331926
 21
479.9229571368244
 31
0.0
  0
LINE
  5
279
330
1F
100
AcDbEntity
  8
建具
  6
Continuous
 62
     2
370
     9
100
AcDbLine
 10
1248.353898331926
 20
454.9232210726352
 30
0.0
 11
1240.853898331926
 21
454.9232210726352
 31
0.0
  0
LINE
  5
27A
330
1F
100
AcDbEntity
  8
建具
  6
Continuous
 62
     2
370
     9
100
AcDbLine
 10
1230.853964315878
 20
454.9232210726352
 30
0.0
 11
1223.353964315878
 21
454.9232210726352
 31
0.0
  0
LINE
  5
27B
330
1F
100
AcDbEntity
  8
建具
  6
Continuous
 62
     2
370
     9
100
AcDbLine
 10
-572.928103885135
 20
613.3793285472973
 30
0.0
 11
-584.2211584142735
 21
613.3793285472973
 31
0.0
  0
LINE
  5
27C
330
1F
100
AcDbEntity
  8
建具
  6
Continuous
 62
     2
370
     9
100
AcDbLine
 10
-572.928103885135
 20
613.3793285472973
 30
0.0
 11
-572.2211188239019
 21
612.6722445101352
 31
0.0
  0
LINE
  5
27D
330
1F
100
AcDbEntity
  8
建具
  6
Continuous
 62
     2
370
     9
100
AcDbLine
 10
-572.928103885135
 20
605.3393158783786
 30
0.0
 11
-584.2211584142735
 21
605.3393158783786
 31
0.0
  0
LINE
  5
27E
330
1F
100
AcDbEntity
  8
建具
  6
Continuous
 62
     2
370
     9
100
AcDbLine
 10
-572.2211188239019
 20
606.0463999155406
 30
0.0
 11
-572.2211188239019
 21
612.6722445101352
 31
0.0
  0
LINE
  5
27F
330
1F
100
AcDbEntity
  8
建具
  6
Continuous
 62
     2
370
     9
100
AcDbLine
 10
-572.928103885135
 20
605.3393158783786
 30
0.0
 11
-572.2211188239019
 21
606.0463999155406
 31
0.0
  0
LINE
  5
280
330
1F
100
AcDbEntity
  8
仕上
  6
Continuous
 62
     6
370
     9
100
AcDbLine
 10
-581.2210990287163
 20
604.3792493665542
 30
0.0
 11
-579.721217799831
 21
604.3792493665542
 31
0.0
  0
LINE
  5
281
330
1F
100
AcDbEntity
  8
仕上
  6
Continuous
 62
     6
370
     9
100
AcDbLine
 10
-581.2210990287163
 20
614.3793813344596
 30
0.0
 11
-579.721217799831
 21
614.3793813344596
 31
0.0
  0
LINE
  5
282
330
1F
100
AcDbEntity
  8
建具
  6
JWW_CENTER2
 62
     2
370
     9
100
AcDbLine
 10
-591.8492332664696
 20
609.379513302365
 30
0.0
 11
-570.2199245143581
 21
609.379513302365
 31
0.0
  0
LINE
  5
283
330
1F
100
AcDbEntity
  8
仕上
  6
Continuous
 62
     6
370
     9
100
AcDbLine
 10
-581.2210990287163
 20
619.3792493665542
 30
0.0
 11
-581.2210990287163
 21
613.3793285472973
 31
0.0
  0
LINE
  5
284
330
1F
100
AcDbEntity
  8
仕上
  6
Continuous
 62
     6
370
     9
100
AcDbLine
 10
-581.2210990287163
 20
605.3393158783786
 30
0.0
 11
-581.2210990287163
 21
590.8793285472973
 31
0.0
  0
LINE
  5
285
330
1F
100
AcDbEntity
  8
仕上
  6
Continuous
 62
     6
370
     9
100
AcDbLine
 10
-579.7210198479729
 20
620.8793285472973
 30
0.0
 11
-579.7210198479729
 21
613.3793285472973
 31
0.0
  0
LINE
  5
286
330
1F
100
AcDbEntity
  8
仕上
  6
Continuous
 62
     6
370
     9
100
AcDbLine
 10
-579.7210198479729
 20
605.3393158783786
 30
0.0
 11
-579.7210198479729
 21
590.8793285472973
 31
0.0
  0
LINE
  5
287
330
1F
100
AcDbEntity
  8
建具
  6
Continuous
 62
     2
370
     9
100
AcDbLine
 10
473.358517208615
 20
406.7785578547298
 30
0.0
 11
474.7728832347975
 21
405.3639938766892
 31
0.0
  0
LINE
  5
288
330
1F
100
AcDbEntity
  8
建具
  6
Continuous
 62
     2
370
     9
100
AcDbLine
 10
474.7728832347975
 20
400.1527132601352
 30
0.0
 11
474.7728832347975
 21
405.3639938766892
 31
0.0
  0
LINE
  5
289
330
1F
100
AcDbEntity
  8
建具
  6
Continuous
 62
     2
370
     9
100
AcDbLine
 10
473.358517208615
 20
398.7385451858108
 30
0.0
 11
474.7728832347975
 21
400.1527132601352
 31
0.0
  0
LINE
  5
28A
330
1F
100
AcDbEntity
  8
建具
  6
Continuous
 62
     2
370
     9
100
AcDbLine
 10
473.358517208615
 20
406.7785578547298
 30
0.0
 11
467.2467535895271
 21
406.7785578547298
 31
0.0
  0
LINE
  5
28B
330
1F
100
AcDbEntity
  8
建具
  6
Continuous
 62
     2
370
     9
100
AcDbLine
 10
473.358517208615
 20
398.7385451858108
 30
0.0
 11
467.2461597339529
 21
398.7385451858108
 31
0.0
  0
LINE
  5
28C
330
1F
100
AcDbEntity
  8
建具
  6
Continuous
 62
     2
370
     9
100
AcDbLine
 10
473.358517208615
 20
406.7785578547298
 30
0.0
 11
473.358517208615
 21
398.7385451858108
 31
0.0
  0
LINE
  5
28D
330
1F
100
AcDbEntity
  8
通り芯
  6
Continuous
 62
     2
370
     9
100
AcDbLine
 10
473.2726061021963
 20
381.7784258868244
 30
0.0
 11
473.2726061021963
 21
398.7385451858108
 31
0.0
  0
LINE
  5
28E
330
1F
100
AcDbEntity
  8
通り芯
  6
Continuous
 62
     2
370
     9
100
AcDbLine
 10
473.2726061021963
 20
406.7785578547298
 30
0.0
 11
473.2726061021963
 21
423.7786634290542
 31
0.0
  0
LINE
  5
28F
330
1F
100
AcDbEntity
  8
通り芯
  6
Continuous
 62
     2
370
     9
100
AcDbLine
 10
1529.853911528716
 20
397.3188344594596
 30
0.0
 11
1529.853911528716
 21
407.5280035895271
 31
0.0
  0
LINE
  5
290
330
1F
100
AcDbEntity
  8
通り芯
  6
Continuous
 62
     2
370
     9
100
AcDbLine
 10
1527.041015625
 20
394.3246146537163
 30
0.0
 11
1485.353739970439
 21
391.7195682010135
 31
0.0
  0
LINE
  5
291
330
1F
100
AcDbEntity
  8
通り芯
  6
Continuous
 62
     2
370
     9
100
AcDbLine
 10
1527.041015625
 20
410.5218274915542
 30
0.0
 11
1485.353739970439
 21
413.1272698479731
 31
0.0
  0
LINE
  5
292
330
1F
100
AcDbEntity
  8
0-F
  6
Continuous
 62
     7
370
     9
100
AcDbLine
 10
-488.2717153188344
 20
562.5076805320946
 30
0.0
 11
-572.2211188239019
 21
609.379513302365
 31
0.0
  0
LINE
  5
293
330
1F
100
AcDbEntity
  8
0-F
  6
Continuous
 62
     7
370
     9
100
AcDbLine
 10
-572.2211188239019
 20
609.379513302365
 30
0.0
 11
-549.9181798986485
 21
600.5144372888515
 31
0.0
  0
LINE
  5
294
330
1F
100
AcDbEntity
  8
0-F
  6
Continuous
 62
     7
370
     9
100
AcDbLine
 10
-572.2211188239019
 20
609.379513302365
 30
0.0
 11
-552.9724780933277
 21
595.0446315456081
 31
0.0
  0
LINE
  5
295
330
1F
100
AcDbEntity
  8
通り芯
  6
Continuous
 62
     2
370
     9
100
AcDbLine
 10
-10.38851351351332
 20
314.2784258868244
 30
0.0
 11
-10.38851351351332
 21
311.2786634290542
 31
0.0
  0
LINE
  5
296
330
1F
100
AcDbEntity
  8
通り芯
  6
Continuous
 62
     2
370
     9
100
AcDbLine
 10
-10.38851351351332
 20
314.2784258868244
 30
0.0
 11
-30.06730363175666
 21
314.2784258868244
 31
0.0
  0
LINE
  5
297
330
1F
100
AcDbEntity
  8
通り芯
  6
Continuous
 62
     2
370
     9
100
AcDbLine
 10
-30.06730363175666
 20
314.2784258868244
 30
0.0
 11
-30.06730363175666
 21
311.2786634290542
 31
0.0
  0
LINE
  5
298
330
1F
100
AcDbEntity
  8
通り芯
  6
Continuous
 62
     2
370
     9
100
AcDbLine
 10
-10.38851351351332
 20
311.2786634290542
 30
0.0
 11
-30.06730363175666
 21
311.2786634290542
 31
0.0
  0
LINE
  5
299
330
1F
100
AcDbEntity
  8
通り芯
  6
JWW_CENTER1
 62
     2
370
     9
100
AcDbLine
 10
-36.41067092483104
 20
312.777950802365
 30
0.0
 11
-3.383987014358127
 21
312.777950802365
 31
0.0
  0
LINE
  5
29A
330
1F
100
AcDbEntity
  8
通り芯
  6
JWW_CENTER1
 62
     2
370
     9
100
AcDbLine
 10
-20.22800754856416
 20
304.4881228885135
 30
0.0
 11
-20.22800754856416
 21
320.7851034628379
 31
0.0
  0
LINE
  5
29B
330
1F
100
AcDbEntity
  8
躯体
  6
JWW_CENTER2
 62
     3
370
     9
100
AcDbLine
 10
705.2013170396963
 20
402.4232210726352
 30
0.0
 11
1552.244642103041
 21
402.4232210726352
 31
0.0
  0
LINE
  5
29C
330
1F
100
AcDbEntity
  8
建具
  6
JWW_DASHED1
 62
     2
370
     9
100
AcDbLine
 10
-7.514252533783747
 20
521.5656936233108
 30
0.0
 11
-74.15118243243228
 21
588.2022276182433
 31
0.0
  0
LINE
  5
29D
330
1F
100
AcDbEntity
  8
建具
  6
JWW_DASHED1
 62
     2
370
     9
100
AcDbLine
 10
-7.514252533783747
 20
283.991791596284
 30
0.0
 11
-74.15118243243228
 21
217.3548616976352
 31
0.0
  0
LINE
  5
29E
330
1F
100
AcDbEntity
  8
建具
  6
JWW_DASHED1
 62
     2
370
     9
100
AcDbLine
 10
1.272632495777088
 20
305.2051045185813
 30
0.0
 11
1.272632495777088
 21
500.3523807010135
 31
0.0
  0
LINE
  5
29F
330
1F
100
AcDbEntity
  8
通り芯
  6
Continuous
 62
     2
370
     9
100
AcDbLine
 10
-1047.221448743665
 20
-515.6206846494932
 30
0.0
 11
-727.2214817356419
 21
-515.6206846494932
 31
0.0
  0
LINE
  5
2A0
330
1F
100
AcDbEntity
  8
その他
  6
Continuous
 62
     6
370
     9
100
AcDbLine
 10
-1182.221547719595
 20
614.8794077280406
 30
0.0
 11
-1182.221547719595
 21
613.3793285472973
 31
0.0
  0
LINE
  5
2A1
330
1F
100
AcDbEntity
  8
その他
  6
Continuous
 62
     6
370
     9
100
AcDbLine
 10
-1067.481326541385
 20
613.3793285472973
 30
0.0
 11
-1067.481326541385
 21
614.8794077280406
 31
0.0
  0
LINE
  5
2A2
330
1F
100
AcDbEntity
  8
その他
  6
Continuous
 62
     6
370
     9
100
AcDbLine
 10
-1147.481293549409
 20
613.3793285472973
 30
0.0
 11
-1147.481293549409
 21
614.8794077280406
 31
0.0
  0
LINE
  5
2A3
330
1F
100
AcDbEntity
  8
その他
  6
Continuous
 62
     6
370
     9
100
AcDbLine
 10
-1052.221514727618
 20
604.8792757601352
 30
0.0
 11
-1053.72169288429
 21
604.8792757601352
 31
0.0
  0
LINE
  5
2A4
330
1F
100
AcDbEntity
  8
その他
  6
Continuous
 62
     6
370
     9
100
AcDbLine
 10
-1055.221574113176
 20
614.8794077280406
 30
0.0
 11
-1182.221547719595
 21
614.8794077280406
 31
0.0
  0
LINE
  5
2A5
330
1F
100
AcDbEntity
  8
その他
  6
Continuous
 62
     6
370
     9
100
AcDbLine
 10
-1052.221514727618
 20
611.8792493665542
 30
0.0
 11
-1052.221514727618
 21
604.8792757601352
 31
0.0
  0
LINE
  5
2A6
330
1F
100
AcDbEntity
  8
その他
  6
Continuous
 62
     6
370
     9
100
AcDbLine
 10
-1055.221574113176
 20
613.3793285472973
 30
0.0
 11
-1182.221547719595
 21
613.3793285472973
 31
0.0
  0
LINE
  5
2A7
330
1F
100
AcDbEntity
  8
その他
  6
Continuous
 62
     6
370
     9
100
AcDbLine
 10
-1053.72169288429
 20
611.8792493665542
 30
0.0
 11
-1053.72169288429
 21
604.8792757601352
 31
0.0
  0
LINE
  5
2A8
330
1F
100
AcDbEntity
  8
建具
  6
Continuous
 62
     2
370
     9
100
AcDbLine
 10
-1150.221640097128
 20
613.380516258446
 30
0.0
 11
-1150.221640097128
 21
612.380463471284
 31
0.0
  0
LINE
  5
2A9
330
1F
100
AcDbEntity
  8
建具
  6
Continuous
 62
     2
370
     9
100
AcDbLine
 10
-1064.22155431799
 20
613.3781408361488
 30
0.0
 11
-1064.22155431799
 21
612.3780880489867
 31
0.0
  0
LINE
  5
2AA
330
1F
100
AcDbEntity
  8
建具
  6
Continuous
 62
     2
370
     9
100
AcDbLine
 10
-1150.221640097128
 20
613.380516258446
 30
0.0
 11
-1064.22155431799
 21
613.3781408361488
 31
0.0
  0
LINE
  5
2AB
330
1F
100
AcDbEntity
  8
建具
  6
Continuous
 62
     2
370
     9
100
AcDbLine
 10
-1143.162478885135
 20
612.380463471284
 30
0.0
 11
-1150.221640097128
 21
612.380463471284
 31
0.0
  0
LINE
  5
2AC
330
1F
100
AcDbEntity
  8
建具
  6
Continuous
 62
     2
370
     9
100
AcDbLine
 10
-1071.280616554054
 20
612.3780880489867
 30
0.0
 11
-1064.22155431799
 21
612.3780880489867
 31
0.0
  0
LINE
  5
2AD
330
1F
100
AcDbEntity
  8
建具
  6
Continuous
 62
     2
370
     9
100
AcDbLine
 10
-1123.637299408784
 20
613.3797244510135
 30
0.0
 11
-1140.993421399915
 21
596.0248891469596
 31
0.0
  0
LINE
  5
2AE
330
1F
100
AcDbEntity
  8
建具
  6
Continuous
 62
     2
370
     9
100
AcDbLine
 10
-1109.49561866554
 20
613.3793285472973
 30
0.0
 11
-1138.192204655828
 21
584.6838312922298
 31
0.0
  0
LINE
  5
2AF
330
1F
100
AcDbEntity
  8
建具
  6
Continuous
 62
     2
370
     9
100
AcDbLine
 10
-1095.352354307433
 20
613.3789326435813
 30
0.0
 11
-1133.995823215794
 21
574.737938133446
 31
0.0
  0
LINE
  5
2B0
330
1F
100
AcDbEntity
  8
建具
  6
Continuous
 62
     2
370
     9
100
AcDbLine
 10
-1081.210277660473
 20
613.3789326435813
 30
0.0
 11
-1128.373396589949
 21
566.2184860641894
 31
0.0
  0
LINE
  5
2B1
330
1F
100
AcDbEntity
  8
建具
  6
Continuous
 62
     2
370
     9
100
AcDbLine
 10
-1112.08740234375
 20
555.4178367820946
 30
0.0
 11
-1136.30750501478
 21
579.6392261402027
 31
0.0
  0
LINE
  5
2B2
330
1F
100
AcDbEntity
  8
建具
  6
Continuous
 62
     2
370
     9
100
AcDbLine
 10
-1098.975269214527
 20
556.4471864442569
 30
0.0
 11
-1141.434062236064
 21
598.907860008446
 31
0.0
  0
LINE
  5
2B3
330
1F
100
AcDbEntity
  8
建具
  6
Continuous
 62
     2
370
     9
100
AcDbLine
 10
-1090.256281672297
 20
561.8706714527027
 30
0.0
 11
-1141.763553103885
 21
613.3801203547298
 31
0.0
  0
LINE
  5
2B4
330
1F
100
AcDbEntity
  8
建具
  6
Continuous
 62
     2
370
     9
100
AcDbLine
 10
-1083.659239073058
 20
569.4162003800677
 30
0.0
 11
-1127.62108055321
 21
613.3797244510135
 31
0.0
  0
LINE
  5
2B5
330
1F
100
AcDbEntity
  8
建具
  6
Continuous
 62
     2
370
     9
100
AcDbLine
 10
-1078.619186813767
 20
578.5188186233108
 30
0.0
 11
-1113.478410050676
 21
613.3797244510135
 31
0.0
  0
LINE
  5
2B6
330
1F
100
AcDbEntity
  8
建具
  6
Continuous
 62
     2
370
     9
100
AcDbLine
 10
-1072.256519214527
 20
608.191010346284
 30
0.0
 11
-1121.040665910051
 21
559.4093380489867
 31
0.0
  0
LINE
  5
2B7
330
1F
100
AcDbEntity
  8
建具
  6
Continuous
 62
     2
370
     9
100
AcDbLine
 10
-1072.758525126689
 20
600.9435969172298
 30
0.0
 11
-1085.193464949324
 21
613.3789326435813
 31
0.0
  0
LINE
  5
2B8
330
1F
100
AcDbEntity
  8
建具
  6
Continuous
 62
     2
370
     9
100
AcDbLine
 10
-1074.222676045186
 20
592.0824799408786
 30
0.0
 11
-1111.09021985853
 21
555.2179054054054
 31
0.0
  0
LINE
  5
2B9
330
1F
100
AcDbEntity
  8
建具
  6
Continuous
 62
     2
370
     9
100
AcDbLine
 10
-1074.96826171875
 20
589.0110589104731
 30
0.0
 11
-1099.3359375
 21
613.3789326435813
 31
0.0
  0
LINE
  5
2BA
330
1F
100
AcDbEntity
  8
躯体
  6
JWW_DASHED1
 62
     3
370
     9
100
AcDbLine
 10
-1155.761520798142
 20
614.8794077280406
 30
0.0
 11
-1155.761520798142
 21
610.3795660895271
 31
0.0
  0
LINE
  5
2BB
330
1F
100
AcDbEntity
  8
躯体
  6
Continuous
 62
     3
370
     9
100
AcDbLine
 10
-1155.761520798142
 20
617.379539695946
 30
0.0
 11
-1155.761520798142
 21
614.8794077280406
 31
0.0
  0
LINE
  5
2BC
330
1F
100
AcDbEntity
  8
躯体
  6
JWW_DASHED1
 62
     3
370
     9
100
AcDbLine
 10
-1055.761487806165
 20
614.8794077280406
 30
0.0
 11
-1055.761487806165
 21
610.3795660895271
 31
0.0
  0
LINE
  5
2BD
330
1F
100
AcDbEntity
  8
躯体
  6
Continuous
 62
     3
370
     9
100
AcDbLine
 10
-1055.761487806165
 20
617.379539695946
 30
0.0
 11
-1055.761487806165
 21
614.8794077280406
 31
0.0
  0
LINE
  5
2BE
330
1F
100
AcDbEntity
  8
0-F
  6
Continuous
 62
     7
370
     9
100
AcDbLine
 10
-898.1295528927365
 20
755.526974239865
 30
0.0
 11
-1074.850480363176
 21
589.4623891469596
 31
0.0
  0
LINE
  5
2BF
330
1F
100
AcDbEntity
  8
その他
  6
Continuous
 62
     7
370
     9
100
AcDbLine
 10
-1074.850480363176
 20
589.4623891469596
 30
0.0
 11
-1059.655695734797
 21
608.0397751266894
 31
0.0
  0
LINE
  5
2C0
330
1F
100
AcDbEntity
  8
その他
  6
Continuous
 62
     7
370
     9
100
AcDbLine
 10
-1074.850480363176
 20
589.4623891469596
 30
0.0
 11
-1055.365287162162
 21
603.4738175675677
 31
0.0
  0
LINE
  5
2C1
330
1F
100
AcDbEntity
  8
寸法
  6
Continuous
 62
     2
370
     9
100
AcDbLine
 10
-1151.716176625845
 20
612.3796716638515
 30
0.0
 11
-1154.98119457348
 21
613.3793285472973
 31
0.0
  0
LINE
  5
2C2
330
1F
100
AcDbEntity
  8
寸法
  6
Continuous
 62
     2
370
     9
100
AcDbLine
 10
-1154.98119457348
 20
613.3793285472973
 30
0.0
 11
-1155.27416332348
 21
612.4232210726352
 31
0.0
  0
LINE
  5
2C3
330
1F
100
AcDbEntity
  8
寸法
  6
Continuous
 62
     2
370
     9
100
AcDbLine
 10
-1151.930855415963
 20
611.3994140625
 30
0.0
 11
-1155.27416332348
 21
612.4232210726352
 31
0.0
  0
LINE
  5
2C4
330
1F
100
AcDbEntity
  8
寸法
  6
Continuous
 62
     2
370
     9
100
AcDbLine
 10
-1144.799243823902
 20
610.4365762246623
 30
0.0
 11
-1151.930855415963
 21
611.3994140625
 31
0.0
  0
LINE
  5
2C5
330
1F
100
AcDbEntity
  8
寸法
  6
Continuous
 62
     2
370
     9
100
AcDbLine
 10
-1144.856649862753
 20
611.4532569679054
 30
0.0
 11
-1151.716176625845
 21
612.3796716638515
 31
0.0
  0
LINE
  5
2C6
330
1F
100
AcDbEntity
  8
寸法
  6
Continuous
 62
     2
370
     9
100
AcDbLine
 10
-1144.98145850929
 20
611.4698849239867
 30
0.0
 11
-1144.98145850929
 21
610.4611222550677
 31
0.0
  0
LINE
  5
2C7
330
1F
100
AcDbEntity
  8
寸法
  6
Continuous
 62
     2
370
     9
100
AcDbLine
 10
-1063.246443464949
 20
612.3796716638515
 30
0.0
 11
-1059.981425517314
 21
613.3793285472973
 31
0.0
  0
LINE
  5
2C8
330
1F
100
AcDbEntity
  8
寸法
  6
Continuous
 62
     2
370
     9
100
AcDbLine
 10
-1059.981425517314
 20
613.3793285472973
 30
0.0
 11
-1059.688555743243
 21
612.4232210726352
 31
0.0
  0
LINE
  5
2C9
330
1F
100
AcDbEntity
  8
寸法
  6
Continuous
 62
     2
370
     9
100
AcDbLine
 10
-1063.03186365076
 20
611.3994140625
 30
0.0
 11
-1059.688555743243
 21
612.4232210726352
 31
0.0
  0
LINE
  5
2CA
330
1F
100
AcDbEntity
  8
寸法
  6
Continuous
 62
     2
370
     9
100
AcDbLine
 10
-1070.16357421875
 20
610.4365762246623
 30
0.0
 11
-1063.03186365076
 21
611.3994140625
 31
0.0
  0
LINE
  5
2CB
330
1F
100
AcDbEntity
  8
寸法
  6
Continuous
 62
     2
370
     9
100
AcDbLine
 10
-1070.10597022804
 20
611.4532569679054
 30
0.0
 11
-1063.246443464949
 21
612.3796716638515
 31
0.0
  0
LINE
  5
2CC
330
1F
100
AcDbEntity
  8
寸法
  6
Continuous
 62
     2
370
     9
100
AcDbLine
 10
-1069.98145850929
 20
611.4698849239867
 30
0.0
 11
-1069.98145850929
 21
610.4611222550677
 31
0.0
  0
LINE
  5
2CD
330
1F
100
AcDbEntity
  8
建具
  6
JWW_CENTER2
 62
     2
370
     9
100
AcDbLine
 10
-1107.221547719595
 20
709.1979254645271
 30
0.0
 11
-1107.221547719595
 21
546.797825168919
 31
0.0
  0
LINE
  5
2CE
330
1F
100
AcDbEntity
  8
その他
  6
Continuous
 62
     7
370
     9
100
AcDbLine
 10
-1138.370460304054
 20
750.9507231841217
 30
0.0
 11
-1076.071249472128
 21
750.9507231841217
 31
0.0
  0
LINE
  5
2CF
330
1F
100
AcDbEntity
  8
その他
  6
Continuous
 62
     7
370
     9
100
AcDbLine
 10
-1138.370460304054
 20
694.3792493665542
 30
0.0
 11
-1138.370460304054
 21
753.3506915118244
 31
0.0
  0
LINE
  5
2D0
330
1F
100
AcDbEntity
  8
その他
  6
Continuous
 62
     7
370
     9
100
AcDbLine
 10
-1076.071249472128
 20
694.3792493665542
 30
0.0
 11
-1076.071249472128
 21
753.3506915118244
 31
0.0
  0
LINE
  5
2D1
330
1F
100
AcDbEntity
  8
その他
  6
Continuous
 62
     7
370
     9
100
AcDbLine
 10
-1138.370460304054
 20
750.9507231841217
 30
0.0
 11
-1114.575855152027
 21
754.0835092905406
 31
0.0
  0
LINE
  5
2D2
330
1F
100
AcDbEntity
  8
その他
  6
Continuous
 62
     7
370
     9
100
AcDbLine
 10
-1138.370460304054
 20
750.9507231841217
 30
0.0
 11
-1114.575855152027
 21
747.818332981419
 31
0.0
  0
LINE
  5
2D3
330
1F
100
AcDbEntity
  8
その他
  6
Continuous
 62
     7
370
     9
100
AcDbLine
 10
-1076.071249472128
 20
750.9507231841217
 30
0.0
 11
-1099.865953600085
 21
754.0835092905406
 31
0.0
  0
LINE
  5
2D4
330
1F
100
AcDbEntity
  8
その他
  6
Continuous
 62
     7
370
     9
100
AcDbLine
 10
-1076.071249472128
 20
750.9507231841217
 30
0.0
 11
-1099.865953600085
 21
747.818332981419
 31
0.0
  0
LINE
  5
2D5
330
1F
100
AcDbEntity
  8
0-F
  6
Continuous
 62
     7
370
     9
100
AcDbLine
 10
-1107.221547719595
 20
709.1979254645271
 30
0.0
 11
-1107.221547719595
 21
738.6056535050677
 31
0.0
  0
LINE
  5
2D6
330
1F
100
AcDbEntity
  8
0-F
  6
Continuous
 62
     7
370
     9
100
AcDbLine
 10
-1107.221547719595
 20
791.2537214949325
 30
0.0
 11
-1107.221547719595
 21
840.5009765625
 31
0.0
  0
LINE
  5
2D7
330
1F
100
AcDbEntity
  8
その他
  6
Continuous
 62
     7
370
     9
100
AcDbLine
 10
-1291.873713312922
 20
438.2295449746623
 30
0.0
 11
-1291.873713312922
 21
500.5289537584461
 31
0.0
  0
LINE
  5
2D8
330
1F
100
AcDbEntity
  8
その他
  6
Continuous
 62
     7
370
     9
100
AcDbLine
 10
-1259.221455342061
 20
438.2295449746623
 30
0.0
 11
-1294.273780616554
 21
438.2295449746623
 31
0.0
  0
LINE
  5
2D9
330
1F
100
AcDbEntity
  8
その他
  6
Continuous
 62
     7
370
     9
100
AcDbLine
 10
-1259.221455342061
 20
500.5289537584461
 30
0.0
 11
-1294.273780616554
 21
500.5289537584461
 31
0.0
  0
LINE
  5
2DA
330
1F
100
AcDbEntity
  8
その他
  6
Continuous
 62
     7
370
     9
100
AcDbLine
 10
-1291.873713312922
 20
438.2295449746623
 30
0.0
 11
-1295.006400443412
 21
462.0241501266894
 31
0.0
  0
LINE
  5
2DB
330
1F
100
AcDbEntity
  8
その他
  6
Continuous
 62
     7
370
     9
100
AcDbLine
 10
-1291.873713312922
 20
438.2295449746623
 30
0.0
 11
-1288.74122413429
 21
462.0241501266894
 31
0.0
  0
LINE
  5
2DC
330
1F
100
AcDbEntity
  8
その他
  6
Continuous
 62
     7
370
     9
100
AcDbLine
 10
-1291.873713312922
 20
500.5289537584461
 30
0.0
 11
-1295.006400443412
 21
476.734348606419
 31
0.0
  0
LINE
  5
2DD
330
1F
100
AcDbEntity
  8
その他
  6
Continuous
 62
     7
370
     9
100
AcDbLine
 10
-1291.873713312922
 20
500.5289537584461
 30
0.0
 11
-1288.74122413429
 21
476.734348606419
 31
0.0
  0
LINE
  5
2DE
330
1F
100
AcDbEntity
  8
0-F
  6
Continuous
 62
     7
370
     9
100
AcDbLine
 10
-1247.221514727618
 20
469.3792493665542
 30
0.0
 11
-1278.180195576436
 21
469.3792493665542
 31
0.0
  0
LINE
  5
2DF
330
1F
100
AcDbEntity
  8
0-F
  6
Continuous
 62
     7
370
     9
100
AcDbLine
 10
-1333.338194151183
 20
469.3792493665542
 30
0.0
 11
-1353.641819309544
 21
469.3792493665542
 31
0.0
  0
LINE
  5
2E0
330
1F
100
AcDbEntity
  8
0-F
  6
Continuous
 62
     2
370
     9
100
AcDbLine
 10
-1018.021570154138
 20
-675.3211175042229
 30
0.0
 11
-1018.021570154138
 21
-677.621120143581
 31
0.0
  0
LINE
  5
2E1
330
1F
100
AcDbEntity
  8
0-F
  6
Continuous
 62
     2
370
     9
100
AcDbLine
 10
-1044.021457981419
 20
-677.621120143581
 30
0.0
 11
-1018.021570154138
 21
-677.621120143581
 31
0.0
  0
LINE
  5
2E2
330
1F
100
AcDbEntity
  8
0-F
  6
Continuous
 62
     2
370
     9
100
AcDbLine
 10
-1044.021457981419
 20
-675.3211175042229
 30
0.0
 11
-1044.021457981419
 21
-677.621120143581
 31
0.0
  0
LINE
  5
2E3
330
1F
100
AcDbEntity
  8
0-F
  6
Continuous
 62
     2
370
     9
100
AcDbLine
 10
-1044.021457981419
 20
-675.3211175042229
 30
0.0
 11
-1018.021570154138
 21
-675.3211175042229
 31
0.0
  0
LINE
  5
2E4
330
1F
100
AcDbEntity
  8
0-F
  6
Continuous
 62
     2
370
     9
100
AcDbLine
 10
-1037.021484375
 20
-646.2681191934121
 30
0.0
 11
-1025.021741712415
 21
-646.2681191934121
 31
0.0
  0
LINE
  5
2E5
330
1F
100
AcDbEntity
  8
0-F
  6
Continuous
 62
     2
370
     9
100
AcDbLine
 10
-1036.074284733953
 20
-645.3209195523648
 30
0.0
 11
-1036.074284733953
 21
-665.3209855363175
 31
0.0
  0
LINE
  5
2E6
330
1F
100
AcDbEntity
  8
0-F
  6
Continuous
 62
     2
370
     9
100
AcDbLine
 10
-1025.968644425676
 20
-645.3209195523648
 30
0.0
 11
-1025.968644425676
 21
-665.3209855363175
 31
0.0
  0
LINE
  5
2E7
330
1F
100
AcDbEntity
  8
0-F
  6
Continuous
 62
     2
370
     9
100
AcDbLine
 10
-1036.074284733953
 20
-645.3209195523648
 30
0.0
 11
-1037.021484375
 21
-646.2681191934121
 31
0.0
  0
LINE
  5
2E8
330
1F
100
AcDbEntity
  8
0-F
  6
Continuous
 62
     2
370
     9
100
AcDbLine
 10
-1025.968644425676
 20
-645.3209195523648
 30
0.0
 11
-1025.021741712415
 21
-646.2681191934121
 31
0.0
  0
LINE
  5
2E9
330
1F
100
AcDbEntity
  8
0-F
  6
Continuous
 62
     2
370
     9
100
AcDbLine
 10
-1037.021484375
 20
-646.2681191934121
 30
0.0
 11
-1037.021484375
 21
-665.3209855363175
 31
0.0
  0
LINE
  5
2EA
330
1F
100
AcDbEntity
  8
0-F
  6
Continuous
 62
     2
370
     9
100
AcDbLine
 10
-1025.021741712415
 20
-646.2681191934121
 30
0.0
 11
-1025.021741712415
 21
-665.3209855363175
 31
0.0
  0
LINE
  5
2EB
330
1F
100
AcDbEntity
  8
0-F
  6
Continuous
 62
     2
370
     9
100
AcDbLine
 10
-1036.074284733953
 20
-645.3209195523648
 30
0.0
 11
-1025.968644425676
 21
-645.3209195523648
 31
0.0
  0
LINE
  5
2EC
330
1F
100
AcDbEntity
  8
0-F
  6
Continuous
 62
     2
370
     9
100
AcDbLine
 10
-1031.621555637669
 20
-711.3208403716217
 30
0.0
 11
-1030.421472497888
 21
-711.3208403716217
 31
0.0
  0
LINE
  5
2ED
330
1F
100
AcDbEntity
  8
0-F
  6
JWW_CENTER2
 62
     2
370
     9
100
AcDbLine
 10
-1031.021365603885
 20
-638.4818808065878
 30
0.0
 11
-1031.021365603885
 21
-740.7725137246621
 31
0.0
  0
LINE
  5
2EE
330
1F
100
AcDbEntity
  8
0-F
  6
Continuous
 62
     2
370
     9
100
AcDbLine
 10
-1025.021741712415
 20
-677.621120143581
 30
0.0
 11
-1025.021741712415
 21
-709.2936153927365
 31
0.0
  0
LINE
  5
2EF
330
1F
100
AcDbEntity
  8
0-F
  6
Continuous
 62
     2
370
     9
100
AcDbLine
 10
-1031.621555637669
 20
-711.3208403716217
 30
0.0
 11
-1033.713114970439
 21
-735.229663745777
 31
0.0
  0
LINE
  5
2F0
330
1F
100
AcDbEntity
  8
0-F
  6
Continuous
 62
     2
370
     9
100
AcDbLine
 10
-1033.713114970439
 20
-735.229663745777
 30
0.0
 11
-1039.092654666385
 21
-734.759132179054
 31
0.0
  0
LINE
  5
2F1
330
1F
100
AcDbEntity
  8
0-F
  6
Continuous
 62
     2
370
     9
100
AcDbLine
 10
-1033.329880173142
 20
-730.8464157516892
 30
0.0
 11
-1038.709122941301
 21
-730.3756862331081
 31
0.0
  0
LINE
  5
2F2
330
1F
100
AcDbEntity
  8
0-F
  6
Continuous
 62
     2
370
     9
100
AcDbLine
 10
-1032.946150496199
 20
-726.4631677576012
 30
0.0
 11
-1038.325888144003
 21
-725.9926361908783
 31
0.0
  0
LINE
  5
2F3
330
1F
100
AcDbEntity
  8
0-F
  6
Continuous
 62
     2
370
     9
100
AcDbLine
 10
-1032.562717747044
 20
-722.0799197635135
 30
0.0
 11
-1037.942158467061
 21
-721.6093881967905
 31
0.0
  0
LINE
  5
2F4
330
1F
100
AcDbEntity
  8
0-F
  6
Continuous
 62
     2
370
     9
100
AcDbLine
 10
-1032.179186021959
 20
-717.6968697212837
 30
0.0
 11
-1037.558725717905
 21
-717.2259422508446
 31
0.0
  0
LINE
  5
2F5
330
1F
100
AcDbEntity
  8
0-F
  6
Continuous
 62
     2
370
     9
100
AcDbLine
 10
-1031.795753272804
 20
-713.3134237753378
 30
0.0
 11
-1037.175095016892
 21
-712.8426942567567
 31
0.0
  0
LINE
  5
2F6
330
1F
100
AcDbEntity
  8
0-F
  6
Continuous
 62
     2
370
     9
100
AcDbLine
 10
-1038.11170423353
 20
-730.4281434755067
 30
0.0
 11
-1038.325888144003
 21
-725.9926361908783
 31
0.0
  0
LINE
  5
2F7
330
1F
100
AcDbEntity
  8
0-F
  6
Continuous
 62
     2
370
     9
100
AcDbLine
 10
-1037.727974556588
 20
-726.044895481419
 30
0.0
 11
-1037.942158467061
 21
-721.6093881967905
 31
0.0
  0
LINE
  5
2F8
330
1F
100
AcDbEntity
  8
0-F
  6
Continuous
 62
     2
370
     9
100
AcDbLine
 10
-1037.344442831503
 20
-721.661647487331
 30
0.0
 11
-1037.558725717905
 21
-717.2259422508446
 31
0.0
  0
LINE
  5
2F9
330
1F
100
AcDbEntity
  8
0-F
  6
Continuous
 62
     2
370
     9
100
AcDbLine
 10
-1036.961109058277
 20
-717.2782015413851
 30
0.0
 11
-1037.175095016892
 21
-712.8426942567567
 31
0.0
  0
LINE
  5
2FA
330
1F
100
AcDbEntity
  8
0-F
  6
Continuous
 62
     2
370
     9
100
AcDbLine
 10
-1038.709122941301
 20
-730.3756862331081
 30
0.0
 11
-1039.092654666385
 21
-734.759132179054
 31
0.0
  0
LINE
  5
2FB
330
1F
100
AcDbEntity
  8
0-F
  6
Continuous
 62
     2
370
     9
100
AcDbLine
 10
-1037.021484375
 20
-677.621120143581
 30
0.0
 11
-1037.021484375
 21
-709.2936153927365
 31
0.0
  0
LINE
  5
2FC
330
1F
100
AcDbEntity
  8
0-F
  6
Continuous
 62
     2
370
     9
100
AcDbLine
 10
-1030.421472497888
 20
-711.3208403716217
 30
0.0
 11
-1028.32971521326
 21
-735.229663745777
 31
0.0
  0
LINE
  5
2FD
330
1F
100
AcDbEntity
  8
0-F
  6
Continuous
 62
     2
370
     9
100
AcDbLine
 10
-1028.32971521326
 20
-735.229663745777
 30
0.0
 11
-1022.950175517314
 21
-734.759132179054
 31
0.0
  0
LINE
  5
2FE
330
1F
100
AcDbEntity
  8
0-F
  6
Continuous
 62
     2
370
     9
100
AcDbLine
 10
-1028.713147962415
 20
-730.8464157516892
 30
0.0
 11
-1023.334004170186
 21
-730.3756862331081
 31
0.0
  0
LINE
  5
2FF
330
1F
100
AcDbEntity
  8
0-F
  6
Continuous
 62
     2
370
     9
100
AcDbLine
 10
-1029.0966796875
 20
-726.4631677576012
 30
0.0
 11
-1023.717238967483
 21
-725.9926361908783
 31
0.0
  0
LINE
  5
300
330
1F
100
AcDbEntity
  8
0-F
  6
Continuous
 62
     2
370
     9
100
AcDbLine
 10
-1029.480211412584
 20
-722.0799197635135
 30
0.0
 11
-1024.100671716638
 21
-721.6093881967905
 31
0.0
  0
LINE
  5
301
330
1F
100
AcDbEntity
  8
0-F
  6
Continuous
 62
     2
370
     9
100
AcDbLine
 10
-1029.86364416174
 20
-717.6968697212837
 30
0.0
 11
-1024.484005489865
 21
-717.2259422508446
 31
0.0
  0
LINE
  5
302
330
1F
100
AcDbEntity
  8
0-F
  6
Continuous
 62
     2
370
     9
100
AcDbLine
 10
-1030.247076910895
 20
-713.3134237753378
 30
0.0
 11
-1024.867735166808
 21
-712.8426942567567
 31
0.0
  0
LINE
  5
303
330
1F
100
AcDbEntity
  8
0-F
  6
Continuous
 62
     2
370
     9
100
AcDbLine
 10
-1023.931323902027
 20
-730.4281434755067
 30
0.0
 11
-1023.717238967483
 21
-725.9926361908783
 31
0.0
  0
LINE
  5
304
330
1F
100
AcDbEntity
  8
0-F
  6
Continuous
 62
     2
370
     9
100
AcDbLine
 10
-1024.314756651183
 20
-726.044895481419
 30
0.0
 11
-1024.100671716638
 21
-721.6093881967905
 31
0.0
  0
LINE
  5
305
330
1F
100
AcDbEntity
  8
0-F
  6
Continuous
 62
     2
370
     9
100
AcDbLine
 10
-1024.698486328125
 20
-721.661647487331
 30
0.0
 11
-1024.484005489865
 21
-717.2259422508446
 31
0.0
  0
LINE
  5
306
330
1F
100
AcDbEntity
  8
0-F
  6
Continuous
 62
     2
370
     9
100
AcDbLine
 10
-1025.08191907728
 20
-717.2782015413851
 30
0.0
 11
-1024.867735166808
 21
-712.8426942567567
 31
0.0
  0
LINE
  5
307
330
1F
100
AcDbEntity
  8
0-F
  6
Continuous
 62
     2
370
     9
100
AcDbLine
 10
-1023.334004170186
 20
-730.3756862331081
 30
0.0
 11
-1022.950175517314
 21
-734.759132179054
 31
0.0
  0
LINE
  5
308
330
1F
100
AcDbEntity
  8
0-F
  6
Continuous
 62
     2
370
     9
100
AcDbLine
 10
-1041.971369562922
 20
-666.4469357052365
 30
0.0
 11
-1041.971369562922
 21
-675.3211175042229
 31
0.0
  0
LINE
  5
309
330
1F
100
AcDbEntity
  8
0-F
  6
Continuous
 62
     2
370
     9
100
AcDbLine
 10
-1020.071460620777
 20
-666.4469357052365
 30
0.0
 11
-1020.071460620777
 21
-675.3211175042229
 31
0.0
  0
LINE
  5
30A
330
1F
100
AcDbEntity
  8
0-F
  6
Continuous
 62
     2
370
     9
100
AcDbLine
 10
-1036.486519478463
 20
-666.4469357052365
 30
0.0
 11
-1036.486519478463
 21
-675.3211175042229
 31
0.0
  0
LINE
  5
30B
330
1F
100
AcDbEntity
  8
0-F
  6
Continuous
 62
     2
370
     9
100
AcDbLine
 10
-1025.556508657095
 20
-666.4469357052365
 30
0.0
 11
-1025.556508657095
 21
-675.3211175042229
 31
0.0
  0
LINE
  5
30C
330
1F
100
AcDbEntity
  8
0-F
  6
Continuous
 62
     2
370
     9
100
AcDbLine
 10
-1039.228845544763
 20
-665.3209855363175
 30
0.0
 11
-1022.813984638936
 21
-665.3209855363175
 31
0.0
  0
LINE
  5
30D
330
1F
100
AcDbEntity
  8
0-F
  6
Continuous
 62
     2
370
     9
100
AcDbLine
 10
-730.4207796663851
 20
-675.3211175042229
 30
0.0
 11
-730.4207796663851
 21
-677.621120143581
 31
0.0
  0
LINE
  5
30E
330
1F
100
AcDbEntity
  8
0-F
  6
Continuous
 62
     2
370
     9
100
AcDbLine
 10
-756.4206674936655
 20
-677.621120143581
 30
0.0
 11
-730.4207796663851
 21
-677.621120143581
 31
0.0
  0
LINE
  5
30F
330
1F
100
AcDbEntity
  8
0-F
  6
Continuous
 62
     2
370
     9
100
AcDbLine
 10
-756.4206674936655
 20
-675.3211175042229
 30
0.0
 11
-756.4206674936655
 21
-677.621120143581
 31
0.0
  0
LINE
  5
310
330
1F
100
AcDbEntity
  8
0-F
  6
Continuous
 62
     2
370
     9
100
AcDbLine
 10
-756.4206674936655
 20
-675.3211175042229
 30
0.0
 11
-730.4207796663851
 21
-675.3211175042229
 31
0.0
  0
LINE
  5
311
330
1F
100
AcDbEntity
  8
0-F
  6
Continuous
 62
     2
370
     9
100
AcDbLine
 10
-749.4206938872466
 20
-646.2681191934121
 30
0.0
 11
-737.420753272804
 21
-646.2681191934121
 31
0.0
  0
LINE
  5
312
330
1F
100
AcDbEntity
  8
0-F
  6
Continuous
 62
     2
370
     9
100
AcDbLine
 10
-748.4733952702702
 20
-645.3209195523648
 30
0.0
 11
-748.4733952702702
 21
-665.3209855363175
 31
0.0
  0
LINE
  5
313
330
1F
100
AcDbEntity
  8
0-F
  6
Continuous
 62
     2
370
     9
100
AcDbLine
 10
-738.3677549619932
 20
-645.3209195523648
 30
0.0
 11
-738.3677549619932
 21
-665.3209855363175
 31
0.0
  0
LINE
  5
314
330
1F
100
AcDbEntity
  8
0-F
  6
Continuous
 62
     2
370
     9
100
AcDbLine
 10
-748.4733952702702
 20
-645.3209195523648
 30
0.0
 11
-749.4206938872466
 21
-646.2681191934121
 31
0.0
  0
LINE
  5
315
330
1F
100
AcDbEntity
  8
0-F
  6
Continuous
 62
     2
370
     9
100
AcDbLine
 10
-738.3677549619932
 20
-645.3209195523648
 30
0.0
 11
-737.420753272804
 21
-646.2681191934121
 31
0.0
  0
LINE
  5
316
330
1F
100
AcDbEntity
  8
0-F
  6
Continuous
 62
     2
370
     9
100
AcDbLine
 10
-749.4206938872466
 20
-646.2681191934121
 30
0.0
 11
-749.4206938872466
 21
-665.3209855363175
 31
0.0
  0
LINE
  5
317
330
1F
100
AcDbEntity
  8
0-F
  6
Continuous
 62
     2
370
     9
100
AcDbLine
 10
-737.420753272804
 20
-646.2681191934121
 30
0.0
 11
-737.420753272804
 21
-665.3209855363175
 31
0.0
  0
LINE
  5
318
330
1F
100
AcDbEntity
  8
0-F
  6
Continuous
 62
     2
370
     9
100
AcDbLine
 10
-748.4733952702702
 20
-645.3209195523648
 30
0.0
 11
-738.3677549619932
 21
-645.3209195523648
 31
0.0
  0
LINE
  5
319
330
1F
100
AcDbEntity
  8
0-F
  6
Continuous
 62
     2
370
     9
100
AcDbLine
 10
-744.0206661739865
 20
-711.3208403716217
 30
0.0
 11
-742.8206820101351
 21
-711.3208403716217
 31
0.0
  0
LINE
  5
31A
330
1F
100
AcDbEntity
  8
0-F
  6
JWW_CENTER2
 62
     2
370
     9
100
AcDbLine
 10
-743.4205751161317
 20
-638.4818808065878
 30
0.0
 11
-743.4205751161317
 21
-740.7725137246621
 31
0.0
  0
LINE
  5
31B
330
1F
100
AcDbEntity
  8
0-F
  6
Continuous
 62
     2
370
     9
100
AcDbLine
 10
-737.420753272804
 20
-677.621120143581
 30
0.0
 11
-737.420753272804
 21
-709.2936153927365
 31
0.0
  0
LINE
  5
31C
330
1F
100
AcDbEntity
  8
0-F
  6
Continuous
 62
     2
370
     9
100
AcDbLine
 10
-744.0206661739865
 20
-711.3208403716217
 30
0.0
 11
-746.1122255067567
 21
-735.229663745777
 31
0.0
  0
LINE
  5
31D
330
1F
100
AcDbEntity
  8
0-F
  6
Continuous
 62
     2
370
     9
100
AcDbLine
 10
-746.1122255067567
 20
-735.229663745777
 30
0.0
 11
-751.4917652027026
 21
-734.759132179054
 31
0.0
  0
LINE
  5
31E
330
1F
100
AcDbEntity
  8
0-F
  6
Continuous
 62
     2
370
     9
100
AcDbLine
 10
-745.7289907094594
 20
-730.8464157516892
 30
0.0
 11
-751.1083324535473
 21
-730.3756862331081
 31
0.0
  0
LINE
  5
31F
330
1F
100
AcDbEntity
  8
0-F
  6
Continuous
 62
     2
370
     9
100
AcDbLine
 10
-745.3453600084459
 20
-726.4631677576012
 30
0.0
 11
-750.72509765625
 21
-725.9926361908783
 31
0.0
  0
LINE
  5
320
330
1F
100
AcDbEntity
  8
0-F
  6
Continuous
 62
     2
370
     9
100
AcDbLine
 10
-744.9619272592905
 20
-722.0799197635135
 30
0.0
 11
-750.3412690033783
 21
-721.6093881967905
 31
0.0
  0
LINE
  5
321
330
1F
100
AcDbEntity
  8
0-F
  6
Continuous
 62
     2
370
     9
100
AcDbLine
 10
-744.578296558277
 20
-717.6968697212837
 30
0.0
 11
-749.9578362542229
 21
-717.2259422508446
 31
0.0
  0
LINE
  5
322
330
1F
100
AcDbEntity
  8
0-F
  6
Continuous
 62
     2
370
     9
100
AcDbLine
 10
-744.1949627850506
 20
-713.3134237753378
 30
0.0
 11
-749.5742055532094
 21
-712.8426942567567
 31
0.0
  0
LINE
  5
323
330
1F
100
AcDbEntity
  8
0-F
  6
Continuous
 62
     2
370
     9
100
AcDbLine
 10
-750.5107157939188
 20
-730.4281434755067
 30
0.0
 11
-750.72509765625
 21
-725.9926361908783
 31
0.0
  0
LINE
  5
324
330
1F
100
AcDbEntity
  8
0-F
  6
Continuous
 62
     2
370
     9
100
AcDbLine
 10
-750.1271840688344
 20
-726.044895481419
 30
0.0
 11
-750.3412690033783
 21
-721.6093881967905
 31
0.0
  0
LINE
  5
325
330
1F
100
AcDbEntity
  8
0-F
  6
Continuous
 62
     2
370
     9
100
AcDbLine
 10
-749.74365234375
 20
-721.661647487331
 30
0.0
 11
-749.9578362542229
 21
-717.2259422508446
 31
0.0
  0
LINE
  5
326
330
1F
100
AcDbEntity
  8
0-F
  6
Continuous
 62
     2
370
     9
100
AcDbLine
 10
-749.3604175464526
 20
-717.2782015413851
 30
0.0
 11
-749.5742055532094
 21
-712.8426942567567
 31
0.0
  0
LINE
  5
327
330
1F
100
AcDbEntity
  8
0-F
  6
Continuous
 62
     2
370
     9
100
AcDbLine
 10
-751.1083324535473
 20
-730.3756862331081
 30
0.0
 11
-751.4917652027026
 21
-734.759132179054
 31
0.0
  0
LINE
  5
328
330
1F
100
AcDbEntity
  8
0-F
  6
Continuous
 62
     2
370
     9
100
AcDbLine
 10
-749.4206938872466
 20
-677.621120143581
 30
0.0
 11
-749.4206938872466
 21
-709.2936153927365
 31
0.0
  0
LINE
  5
329
330
1F
100
AcDbEntity
  8
0-F
  6
Continuous
 62
     2
370
     9
100
AcDbLine
 10
-742.8206820101351
 20
-711.3208403716217
 30
0.0
 11
-740.7289247255067
 21
-735.229663745777
 31
0.0
  0
LINE
  5
32A
330
1F
100
AcDbEntity
  8
0-F
  6
Continuous
 62
     2
370
     9
100
AcDbLine
 10
-740.7289247255067
 20
-735.229663745777
 30
0.0
 11
-735.3493850295607
 21
-734.759132179054
 31
0.0
  0
LINE
  5
32B
330
1F
100
AcDbEntity
  8
0-F
  6
Continuous
 62
     2
370
     9
100
AcDbLine
 10
-741.1123574746621
 20
-730.8464157516892
 30
0.0
 11
-735.7330157305743
 21
-730.3756862331081
 31
0.0
  0
LINE
  5
32C
330
1F
100
AcDbEntity
  8
0-F
  6
Continuous
 62
     2
370
     9
100
AcDbLine
 10
-741.4957902238175
 20
-726.4631677576012
 30
0.0
 11
-736.1164484797297
 21
-725.9926361908783
 31
0.0
  0
LINE
  5
32D
330
1F
100
AcDbEntity
  8
0-F
  6
Continuous
 62
     2
370
     9
100
AcDbLine
 10
-741.879420924831
 20
-722.0799197635135
 30
0.0
 11
-736.4998812288851
 21
-721.6093881967905
 31
0.0
  0
LINE
  5
32E
330
1F
100
AcDbEntity
  8
0-F
  6
Continuous
 62
     2
370
     9
100
AcDbLine
 10
-742.2628536739865
 20
-717.6968697212837
 30
0.0
 11
-736.8832150021115
 21
-717.2259422508446
 31
0.0
  0
LINE
  5
32F
330
1F
100
AcDbEntity
  8
0-F
  6
Continuous
 62
     2
370
     9
100
AcDbLine
 10
-742.6461874472128
 20
-713.3134237753378
 30
0.0
 11
-737.266944679054
 21
-712.8426942567567
 31
0.0
  0
LINE
  5
330
330
1F
100
AcDbEntity
  8
0-F
  6
Continuous
 62
     2
370
     9
100
AcDbLine
 10
-736.3306323902026
 20
-730.4281434755067
 30
0.0
 11
-736.1164484797297
 21
-725.9926361908783
 31
0.0
  0
LINE
  5
331
330
1F
100
AcDbEntity
  8
0-F
  6
Continuous
 62
     2
370
     9
100
AcDbLine
 10
-736.713966163429
 20
-726.044895481419
 30
0.0
 11
-736.4998812288851
 21
-721.6093881967905
 31
0.0
  0
LINE
  5
332
330
1F
100
AcDbEntity
  8
0-F
  6
Continuous
 62
     2
370
     9
100
AcDbLine
 10
-737.0976958403716
 20
-721.661647487331
 30
0.0
 11
-736.8832150021115
 21
-717.2259422508446
 31
0.0
  0
LINE
  5
333
330
1F
100
AcDbEntity
  8
0-F
  6
Continuous
 62
     2
370
     9
100
AcDbLine
 10
-737.481128589527
 20
-717.2782015413851
 30
0.0
 11
-737.266944679054
 21
-712.8426942567567
 31
0.0
  0
LINE
  5
334
330
1F
100
AcDbEntity
  8
0-F
  6
Continuous
 62
     2
370
     9
100
AcDbLine
 10
-735.7330157305743
 20
-730.3756862331081
 30
0.0
 11
-735.3493850295607
 21
-734.759132179054
 31
0.0
  0
LINE
  5
335
330
1F
100
AcDbEntity
  8
0-F
  6
Continuous
 62
     2
370
     9
100
AcDbLine
 10
-754.3705790751688
 20
-666.4469357052365
 30
0.0
 11
-754.3705790751688
 21
-675.3211175042229
 31
0.0
  0
LINE
  5
336
330
1F
100
AcDbEntity
  8
0-F
  6
Continuous
 62
     2
370
     9
100
AcDbLine
 10
-732.4705711570946
 20
-666.4469357052365
 30
0.0
 11
-732.4705711570946
 21
-675.3211175042229
 31
0.0
  0
LINE
  5
337
330
1F
100
AcDbEntity
  8
0-F
  6
Continuous
 62
     2
370
     9
100
AcDbLine
 10
-748.8857289907094
 20
-666.4469357052365
 30
0.0
 11
-748.8857289907094
 21
-675.3211175042229
 31
0.0
  0
LINE
  5
338
330
1F
100
AcDbEntity
  8
0-F
  6
Continuous
 62
     2
370
     9
100
AcDbLine
 10
-737.9556191934121
 20
-666.4469357052365
 30
0.0
 11
-737.9556191934121
 21
-675.3211175042229
 31
0.0
  0
LINE
  5
339
330
1F
100
AcDbEntity
  8
0-F
  6
Continuous
 62
     2
370
     9
100
AcDbLine
 10
-751.6281540329392
 20
-665.3209855363175
 30
0.0
 11
-735.2130951752533
 21
-665.3209855363175
 31
0.0
  0
LINE
  5
33A
330
1F
100
AcDbEntity
  8
0-F
  6
Continuous
 62
     7
370
     9
100
AcDbLine
 10
-638.8781408361485
 20
-861.7393105996621
 30
0.0
 11
-735.3493850295607
 21
-734.759132179054
 31
0.0
  0
LINE
  5
33B
330
1F
100
AcDbEntity
  8
0-F
  6
Continuous
 62
     7
370
     9
100
AcDbLine
 10
-632.6903637035473
 20
-755.7297561233108
 30
0.0
 11
-632.6903637035473
 21
-806.3280326224663
 31
0.0
  0
LINE
  5
33C
330
1F
100
AcDbEntity
  8
0-F
  6
Continuous
 62
     7
370
     9
100
AcDbLine
 10
-632.6903637035473
 20
-806.3280326224663
 30
0.0
 11
-476.5592008023648
 21
-806.3280326224663
 31
0.0
  0
LINE
  5
33D
330
1F
100
AcDbEntity
  8
0-F
  6
Continuous
 62
     7
370
     9
100
AcDbLine
 10
-476.5592008023648
 20
-806.3280326224663
 30
0.0
 11
-476.5592008023648
 21
-755.7297561233108
 31
0.0
  0
LINE
  5
33E
330
1F
100
AcDbEntity
  8
0-F
  6
Continuous
 62
     7
370
     9
100
AcDbLine
 10
-476.5592008023648
 20
-755.7297561233108
 30
0.0
 11
-632.6903637035473
 21
-755.7297561233108
 31
0.0
  0
LINE
  5
33F
330
1F
100
AcDbEntity
  8
0-F
  6
Continuous
 62
     7
370
     9
100
AcDbLine
 10
-638.8781408361485
 20
-861.7393105996621
 30
0.0
 11
-300.6237463048985
 21
-861.7393105996621
 31
0.0
  0
LINE
  5
340
330
1F
100
AcDbEntity
  8
0-A
  6
Continuous
 62
     6
370
     9
100
AcDbLine
 10
-1466.847517683699
 20
-680.6208826013512
 30
0.0
 11
-209.3081582559121
 21
-680.6208826013512
 31
0.0
  0
LINE
  5
341
330
1F
100
AcDbEntity
  8
仕上
  6
Continuous
 62
     6
370
     9
100
AcDbLine
 10
-360.1569758234796
 20
-680.6208826013512
 30
0.0
 11
-454.1076000316723
 21
-774.5716057854729
 31
0.0
  0
LINE
  5
342
330
1F
100
AcDbEntity
  8
仕上
  6
Continuous
 62
     6
370
     9
100
AcDbLine
 10
-320.1568438555742
 20
-680.6208826013512
 30
0.0
 11
-414.1074680637669
 21
-774.5716057854729
 31
0.0
  0
LINE
  5
343
330
1F
100
AcDbEntity
  8
仕上
  6
Continuous
 62
     6
370
     9
100
AcDbLine
 10
-340.1569098395269
 20
-680.6208826013512
 30
0.0
 11
-434.1074350717904
 21
-774.5716057854729
 31
0.0
  0
LINE
  5
344
330
1F
100
AcDbEntity
  8
その他
  6
Continuous
 62
     7
370
     9
100
AcDbLine
 10
-735.3493850295607
 20
-734.759132179054
 30
0.0
 11
-718.4604294235642
 21
-751.8109031883446
 31
0.0
  0
LINE
  5
345
330
1F
100
AcDbEntity
  8
その他
  6
Continuous
 62
     7
370
     9
100
AcDbLine
 10
-735.3493850295607
 20
-734.759132179054
 30
0.0
 11
-723.4491131756756
 21
-755.6010874155405
 31
0.0
  0
LINE
  5
346
330
1F
100
AcDbEntity
  8
仕上
  6
Continuous
 62
     6
370
     9
100
AcDbLine
 10
-1356.742537214949
 20
-680.6208826013512
 30
0.0
 11
-1450.693260399071
 21
-774.5716057854729
 31
0.0
  0
LINE
  5
347
330
1F
100
AcDbEntity
  8
仕上
  6
Continuous
 62
     6
370
     9
100
AcDbLine
 10
-1316.742405247044
 20
-680.6208826013512
 30
0.0
 11
-1410.693128431165
 21
-774.5716057854729
 31
0.0
  0
LINE
  5
348
330
1F
100
AcDbEntity
  8
仕上
  6
Continuous
 62
     6
370
     9
100
AcDbLine
 10
-1336.742570206926
 20
-680.6208826013512
 30
0.0
 11
-1430.69299646326
 21
-774.5716057854729
 31
0.0
  0
LINE
  5
349
330
1F
100
AcDbEntity
  8
その他
  6
Continuous
 62
     7
370
     9
100
AcDbLine
 10
-1107.221547719595
 20
826.101166596284
 30
0.0
 11
-1107.221547719595
 21
835.7010399070948
 31
0.0
  0
LINE
  5
34A
330
1F
100
AcDbEntity
  8
F-0ﾚｲﾔ
  6
Continuous
 62
     7
370
     9
100
AcDbLine
 10
1551.484902871622
 20
-885.4079193940033
 30
0.0
 11
351.4845069679054
 21
-885.4079193940033
 31
0.0
  0
LINE
  5
34B
330
1F
100
AcDbEntity
  8
F-0ﾚｲﾔ
  6
Continuous
 62
     7
370
     9
100
AcDbLine
 10
351.4845069679054
 20
-821.4079061972128
 30
0.0
 11
1551.484902871622
 21
-821.4079061972128
 31
0.0
  0
LINE
  5
34C
330
1F
100
AcDbEntity
  8
F-0ﾚｲﾔ
  6
Continuous
 62
     7
370
     9
100
AcDbLine
 10
351.4845069679054
 20
-757.4079424883869
 30
0.0
 11
1551.484902871622
 21
-757.4079424883869
 31
0.0
  0
LINE
  5
34D
330
1F
100
AcDbEntity
  8
F-0ﾚｲﾔ
  6
Continuous
 62
     7
370
     9
100
AcDbLine
 10
351.4845069679054
 20
-693.4080282675253
 30
0.0
 11
1551.484902871622
 21
-693.4080282675253
 31
0.0
  0
LINE
  5
34E
330
1F
100
AcDbEntity
  8
F-0ﾚｲﾔ
  6
Continuous
 62
     7
370
     9
100
AcDbLine
 10
351.4845069679054
 20
-629.4081140466639
 30
0.0
 11
1551.484902871622
 21
-629.4081140466639
 31
0.0
  0
LINE
  5
34F
330
1F
100
AcDbEntity
  8
F-0ﾚｲﾔ
  6
Continuous
 62
     7
370
     9
100
AcDbLine
 10
351.4845069679054
 20
-565.4081503378378
 30
0.0
 11
1551.484902871622
 21
-565.4081503378378
 31
0.0
  0
LINE
  5
350
330
1F
100
AcDbEntity
  8
F-0ﾚｲﾔ
  6
Continuous
 62
     7
370
     9
100
AcDbLine
 10
351.4845069679054
 20
-501.4081866290118
 30
0.0
 11
1551.484902871622
 21
-501.4081866290118
 31
0.0
  0
LINE
  5
351
330
1F
100
AcDbEntity
  8
F-0ﾚｲﾔ
  6
Continuous
 62
     7
370
     9
100
AcDbLine
 10
351.4845069679054
 20
-437.4081734322212
 30
0.0
 11
1551.484902871622
 21
-437.4081734322212
 31
0.0
  0
LINE
  5
352
330
1F
100
AcDbEntity
  8
F-0ﾚｲﾔ
  6
Continuous
 62
     7
370
     9
100
AcDbLine
 10
351.4845069679054
 20
-373.4084076752533
 30
0.0
 11
1551.484902871622
 21
-373.4084076752533
 31
0.0
  0
LINE
  5
353
330
1F
100
AcDbEntity
  8
F-0ﾚｲﾔ
  6
Continuous
 62
     7
370
     9
100
AcDbLine
 10
351.4845069679054
 20
-309.4082955025337
 30
0.0
 11
1551.484902871622
 21
-309.4082955025337
 31
0.0
  0
LINE
  5
354
330
1F
100
AcDbEntity
  8
F-0ﾚｲﾔ
  6
Continuous
 62
     7
370
     9
100
AcDbLine
 10
351.4845069679054
 20
-245.4082823057432
 30
0.0
 11
1551.484902871622
 21
-245.4082823057432
 31
0.0
  0
LINE
  5
355
330
1F
100
AcDbEntity
  8
F-0ﾚｲﾔ
  6
Continuous
 62
     7
370
     9
100
AcDbLine
 10
351.4845069679054
 20
-181.4082691089526
 30
0.0
 11
1551.484902871622
 21
-181.4082691089526
 31
0.0
  0
LINE
  5
356
330
1F
100
AcDbEntity
  8
F-0ﾚｲﾔ
  6
Continuous
 62
     7
370
     9
100
AcDbLine
 10
351.4845069679054
 20
-117.4084538640202
 30
0.0
 11
1551.484902871622
 21
-117.4084538640202
 31
0.0
  0
LINE
  5
357
330
1F
100
AcDbEntity
  8
F-0ﾚｲﾔ
  6
Continuous
 62
     7
370
     9
100
AcDbLine
 10
351.4845069679054
 20
-53.4086386190877
 30
0.0
 11
1551.484902871622
 21
-53.4086386190877
 31
0.0
  0
LINE
  5
358
330
1F
100
AcDbEntity
  8
仕上
  6
Continuous
 62
     6
370
     9
100
AcDbLine
 10
-11.22743348817562
 20
317.7790065456081
 30
0.0
 11
-29.22739389780395
 21
317.7790065456081
 31
0.0
  0
LINE
  5
359
330
1F
100
AcDbEntity
  8
仕上
  6
Continuous
 62
     6
370
     9
100
AcDbLine
 10
-11.22743348817562
 20
307.7784786739867
 30
0.0
 11
-29.22739389780395
 21
307.7784786739867
 31
0.0
  0
LINE
  5
35A
330
1F
100
AcDbEntity
  8
F-0ﾚｲﾔ
  6
Continuous
 62
     7
370
     9
100
AcDbLine
 10
351.4845069679054
 20
-885.4079193940033
 30
0.0
 11
351.4845069679054
 21
-53.4086386190877
 31
0.0
  0
LINE
  5
35B
330
1F
100
AcDbEntity
  8
F-0ﾚｲﾔ
  6
Continuous
 62
     7
370
     9
100
AcDbLine
 10
431.4847709037163
 20
-885.4079193940033
 30
0.0
 11
431.4847709037163
 21
-53.4086386190877
 31
0.0
  0
LINE
  5
35C
330
1F
100
AcDbEntity
  8
F-0ﾚｲﾔ
  6
Continuous
 62
     7
370
     9
100
AcDbLine
 10
671.4851668074325
 20
-885.4079193940033
 30
0.0
 11
671.4851668074325
 21
-53.4086386190877
 31
0.0
  0
LINE
  5
35D
330
1F
100
AcDbEntity
  8
F-0ﾚｲﾔ
  6
Continuous
 62
     7
370
     9
100
AcDbLine
 10
871.4846389358108
 20
-885.4079193940033
 30
0.0
 11
871.4846389358108
 21
-53.4086386190877
 31
0.0
  0
LINE
  5
35E
330
1F
100
AcDbEntity
  8
F-0ﾚｲﾔ
  6
Continuous
 62
     7
370
     9
100
AcDbLine
 10
1031.484968855575
 20
-885.4079193940033
 30
0.0
 11
1031.484968855575
 21
-53.4086386190877
 31
0.0
  0
LINE
  5
35F
330
1F
100
AcDbEntity
  8
F-0ﾚｲﾔ
  6
Continuous
 62
     7
370
     9
100
AcDbLine
 10
1271.484770903716
 20
-885.4079193940033
 30
0.0
 11
1271.484770903716
 21
-53.4086386190877
 31
0.0
  0
LINE
  5
360
330
1F
100
AcDbEntity
  8
F-0ﾚｲﾔ
  6
Continuous
 62
     7
370
     9
100
AcDbLine
 10
1351.485034839527
 20
-885.4079193940033
 30
0.0
 11
1351.485034839527
 21
-53.4086386190877
 31
0.0
  0
LINE
  5
361
330
1F
100
AcDbEntity
  8
F-0ﾚｲﾔ
  6
Continuous
 62
     7
370
     9
100
AcDbLine
 10
1551.484902871622
 20
-53.4086386190877
 30
0.0
 11
1551.484902871622
 21
-885.4079193940033
 31
0.0
  0
LINE
  5
362
330
1F
100
AcDbEntity
  8
その他
  6
Continuous
 62
     7
370
     9
100
AcDbLine
 10
-587.221217799831
 20
-88.67821605785457
 30
0.0
 11
-438.220973659206
 21
-88.67821605785457
 31
0.0
  0
LINE
  5
363
330
1F
100
AcDbEntity
  8
その他
  6
Continuous
 62
     7
370
     9
100
AcDbLine
 10
-587.221217799831
 20
-100.6782556482262
 30
0.0
 11
-587.221217799831
 21
-91.07818438555728
 31
0.0
  0
LINE
  5
364
330
1F
100
AcDbEntity
  8
その他
  6
Continuous
 62
     7
370
     9
100
AcDbLine
 10
-438.220973659206
 20
-190.6209485853039
 30
0.0
 11
-438.220973659206
 21
-86.27824773015186
 31
0.0
  0
LINE
  5
365
330
1F
100
AcDbEntity
  8
その他
  6
Continuous
 62
     7
370
     9
100
AcDbLine
 10
-587.221217799831
 20
-88.67821605785457
 30
0.0
 11
-563.426513671875
 21
-85.54562790329396
 31
0.0
  0
LINE
  5
366
330
1F
100
AcDbEntity
  8
その他
  6
Continuous
 62
     7
370
     9
100
AcDbLine
 10
-587.221217799831
 20
-88.67821605785457
 30
0.0
 11
-563.426513671875
 21
-91.8108042124154
 31
0.0
  0
LINE
  5
367
330
1F
100
AcDbEntity
  8
その他
  6
Continuous
 62
     7
370
     9
100
AcDbLine
 10
-438.220973659206
 20
-88.67821605785457
 30
0.0
 11
-462.0156777871621
 21
-85.54562790329396
 31
0.0
  0
LINE
  5
368
330
1F
100
AcDbEntity
  8
その他
  6
Continuous
 62
     7
370
     9
100
AcDbLine
 10
-438.220973659206
 20
-88.67821605785457
 30
0.0
 11
-462.0156777871621
 21
-91.8108042124154
 31
0.0
  0
CIRCLE
  5
369
330
1F
100
AcDbEntity
  8
0-F
  6
Continuous
 62
     7
370
     9
100
AcDbCircle
 10
-887.2210198479729
 20
656.8792493665542
 30
0.0
 40
4.000000051549963
  0
ARC
  5
36A
330
1F
100
AcDbEntity
  8
通り芯
  6
Continuous
 62
     2
370
     9
100
AcDbCircle
 10
-533.7209670608108
 20
-268.6209089949324
 30
0.0
 40
2.000000025774982
100
AcDbArc
 50
0.0
 51
90.0
  0
ARC
  5
36B
330
1F
100
AcDbEntity
  8
通り芯
  6
Continuous
 62
     2
370
     9
100
AcDbCircle
 10
-542.721046241554
 20
-268.6209089949324
 30
0.0
 40
2.000000025774982
100
AcDbArc
 50
90.0
 51
180.0
  0
ARC
  5
36C
330
1F
100
AcDbEntity
  8
建具
  6
Continuous
 62
     2
370
     9
100
AcDbCircle
 10
-530.8747162690033
 20
-220.4821843327702
 30
0.0
 40
3.811438921335581
100
AcDbArc
 50
49.92564392089844
 51
130.0743560791016
  0
ARC
  5
36D
330
1F
100
AcDbEntity
  8
建具
  6
Continuous
 62
     2
370
     9
100
AcDbCircle
 10
-538.2210066511823
 20
-230.4926097972973
 30
0.0
 40
13.82162351866026
100
AcDbArc
 50
69.26925659179688
 51
110.7307434082031
  0
ARC
  5
36E
330
1F
100
AcDbEntity
  8
建具
  6
Continuous
 62
     2
370
     9
100
AcDbCircle
 10
-545.5672970333615
 20
-220.4821843327702
 30
0.0
 40
3.811438921335581
100
AcDbArc
 50
49.92564392089844
 51
130.0743560791016
  0
ARC
  5
36F
330
1F
100
AcDbEntity
  8
通り芯
  6
Continuous
 62
     2
370
     9
100
AcDbCircle
 10
-511.5347207559121
 20
-208.6209089949324
 30
0.0
 40
6.000000077324945
100
AcDbArc
 50
90.0
 51
164.9998016357422
  0
ARC
  5
370
330
1F
100
AcDbEntity
  8
通り芯
  6
Continuous
 62
     2
370
     9
100
AcDbCircle
 10
-510.0001979518581
 20
-210.6206186655405
 30
0.0
 40
3.000000038662472
100
AcDbArc
 50
90.0
 51
165.0003204345703
  0
ARC
  5
371
330
1F
100
AcDbEntity
  8
建具
  6
Continuous
 62
     2
370
     9
100
AcDbCircle
 10
-494.8030379011823
 20
-266.7435335726351
 30
0.0
 40
7.917860134227857
100
AcDbArc
 50
137.22216796875
 51
222.77783203125
  0
ARC
  5
372
330
1F
100
AcDbEntity
  8
建具
  6
Continuous
 62
     2
370
     9
100
AcDbCircle
 10
-474.2592971389358
 20
-250.6207506334459
 30
0.0
 40
28.46158311173723
100
AcDbArc
 50
157.8193054199219
 51
202.1806182861328
  0
ARC
  5
373
330
1F
100
AcDbEntity
  8
建具
  6
Continuous
 62
     2
370
     9
100
AcDbCircle
 10
-494.8030379011823
 20
-234.4983635979729
 30
0.0
 40
7.917860134227857
100
AcDbArc
 50
137.22216796875
 51
222.77783203125
  0
ARC
  5
374
330
1F
100
AcDbEntity
  8
建具
  6
Continuous
 62
     2
370
     9
100
AcDbCircle
 10
-503.6387180637669
 20
-266.7435335726351
 30
0.0
 40
7.917860134227857
100
AcDbArc
 50
317.22216796875
 51
42.77783203124999
  0
ARC
  5
375
330
1F
100
AcDbEntity
  8
建具
  6
Continuous
 62
     2
370
     9
100
AcDbCircle
 10
-524.1825578019425
 20
-250.6207506334459
 30
0.0
 40
28.46158311173723
100
AcDbArc
 50
337.8193817138672
 51
22.18069458007817
  0
ARC
  5
376
330
1F
100
AcDbEntity
  8
建具
  6
Continuous
 62
     2
370
     9
100
AcDbCircle
 10
-503.6387180637669
 20
-234.4983635979729
 30
0.0
 40
7.917860134227857
100
AcDbArc
 50
317.22216796875
 51
42.77783203124999
  0
CIRCLE
  5
377
330
1F
100
AcDbEntity
  8
建具
  6
Continuous
 62
     2
370
     9
100
AcDbCircle
 10
-60.22764463682415
 20
402.7787426097973
 30
0.0
 40
31.14999822668127
  0
CIRCLE
  5
378
330
1F
100
AcDbEntity
  8
建具
  6
Continuous
 62
     2
370
     9
100
AcDbCircle
 10
-60.22764463682415
 20
402.7787426097973
 30
0.0
 40
30.54999995876003
  0
CIRCLE
  5
379
330
1F
100
AcDbEntity
  8
建具
  6
Continuous
 62
     2
370
     9
100
AcDbCircle
 10
-60.22764463682415
 20
402.7787426097973
 30
0.0
 40
28.75000824799409
  0
ARC
  5
37A
330
1F
100
AcDbEntity
  8
仕上
  6
Continuous
 62
     6
370
     9
100
AcDbCircle
 10
159.7726852829394
 20
402.7787426097973
 30
0.0
 40
307.5000247439823
100
AcDbArc
 50
187.4742736816406
 51
172.5257263183594
  0
ARC
  5
37B
330
1F
100
AcDbEntity
  8
躯体
  6
JWW_DASHED1
 62
     3
370
     9
100
AcDbCircle
 10
159.7726852829394
 20
402.7787426097973
 30
0.0
 40
298.5000445391681
100
AcDbArc
 50
187.7009735107422
 51
172.2990264892578
  0
ARC
  5
37C
330
1F
100
AcDbEntity
  8
躯体
  6
JWW_DASHED1
 62
     3
370
     9
100
AcDbCircle
 10
159.7726852829394
 20
402.7787426097973
 30
0.0
 40
300.0000742319468
100
AcDbArc
 50
187.6622467041016
 51
172.3377532958985
  0
ARC
  5
37D
330
1F
100
AcDbEntity
  8
通り芯
  6
Continuous
 62
     2
370
     9
100
AcDbCircle
 10
159.7726852829394
 20
402.7787426097973
 30
0.0
 40
303.0000346415752
100
AcDbArc
 50
172.4140625
 51
187.5859375
  0
ARC
  5
37E
330
1F
100
AcDbEntity
  8
躯体
  6
Continuous
 62
     3
370
     9
100
AcDbCircle
 10
159.7726852829394
 20
402.7787426097973
 30
0.0
 40
300.0000742319468
100
AcDbArc
 50
172.3377532958984
 51
187.6622467041016
  0
ARC
  5
37F
330
1F
100
AcDbEntity
  8
躯体
  6
Continuous
 62
     3
370
     9
100
AcDbCircle
 10
159.7726852829394
 20
402.7787426097973
 30
0.0
 40
298.5000445391681
100
AcDbArc
 50
172.2990264892578
 51
187.7009735107422
  0
ARC
  5
380
330
1F
100
AcDbEntity
  8
仕上
  6
Continuous
 62
     6
370
     9
100
AcDbCircle
 10
-62.72738070101332
 20
402.7787426097973
 30
0.0
 40
40.00000206199852
100
AcDbArc
 50
270.0
 51
90.0
  0
CIRCLE
  5
381
330
1F
100
AcDbEntity
  8
建具
  6
Continuous
 62
     2
370
     9
100
AcDbCircle
 10
-60.22764463682415
 20
492.7787426097973
 30
0.0
 40
4.000000051549963
  0
ARC
  5
382
330
1F
100
AcDbEntity
  8
建具
  6
Continuous
 62
     2
370
     9
100
AcDbCircle
 10
-69.2277238175675
 20
492.7787426097973
 30
0.0
 40
5.000000257749815
100
AcDbArc
 50
90.0
 51
270.0
  0
ARC
  5
383
330
1F
100
AcDbEntity
  8
建具
  6
Continuous
 62
     2
370
     9
100
AcDbCircle
 10
-51.22786238386811
 20
492.7787426097973
 30
0.0
 40
5.000000257749815
100
AcDbArc
 50
270.0
 51
90.0
  0
ARC
  5
384
330
1F
100
AcDbEntity
  8
建具
  6
Continuous
 62
     2
370
     9
100
AcDbCircle
 10
-60.22764463682415
 20
482.2789801520271
 30
0.0
 40
3.499999175200591
100
AcDbArc
 50
180.0
 51
0.0
  0
ARC
  5
385
330
1F
100
AcDbEntity
  8
建具
  6
Continuous
 62
     2
370
     9
100
AcDbCircle
 10
-64.92771457981416
 20
484.3052153716217
 30
0.0
 40
1.200000305433531
100
AcDbArc
 50
0.0
 51
53.96806335449219
  0
ARC
  5
386
330
1F
100
AcDbEntity
  8
建具
  6
Continuous
 62
     2
370
     9
100
AcDbCircle
 10
-55.52777264569249
 20
484.3052153716217
 30
0.0
 40
1.200000305433531
100
AcDbArc
 50
126.0319366455078
 51
180.0
  0
ARC
  5
387
330
1F
100
AcDbEntity
  8
建具
  6
Continuous
 62
     2
370
     9
100
AcDbCircle
 10
-60.22764463682415
 20
503.278900971284
 30
0.0
 40
3.499999175200591
100
AcDbArc
 50
0.0
 51
180.0
  0
ARC
  5
388
330
1F
100
AcDbEntity
  8
建具
  6
Continuous
 62
     2
370
     9
100
AcDbCircle
 10
-64.92771457981416
 20
501.2526657516894
 30
0.0
 40
1.200000305433531
100
AcDbArc
 50
306.0319366455078
 51
0.0000000000000318
  0
ARC
  5
389
330
1F
100
AcDbEntity
  8
建具
  6
Continuous
 62
     2
370
     9
100
AcDbCircle
 10
-55.52777264569249
 20
501.2526657516894
 30
0.0
 40
1.200000305433531
100
AcDbArc
 50
180.0
 51
233.9680633544922
  0
ARC
  5
38A
330
1F
100
AcDbEntity
  8
建具
  6
Continuous
 62
     2
370
     9
100
AcDbCircle
 10
-60.22764463682415
 20
492.7787426097973
 30
0.0
 40
8.500000206199852
100
AcDbArc
 50
118.0275573730469
 51
241.9724426269531
  0
ARC
  5
38B
330
1F
100
AcDbEntity
  8
建具
  6
Continuous
 62
     2
370
     9
100
AcDbCircle
 10
-60.22764463682415
 20
492.7787426097973
 30
0.0
 40
8.500000206199852
100
AcDbArc
 50
298.0275573730469
 51
61.97244262695312
  0
ARC
  5
38C
330
1F
100
AcDbEntity
  8
建具
  6
Continuous
 62
     2
370
     9
100
AcDbCircle
 10
-60.22764463682415
 20
503.278900971284
 30
0.0
 40
2.299999353047964
100
AcDbArc
 50
0.0
 51
180.0
  0
ARC
  5
38D
330
1F
100
AcDbEntity
  8
建具
  6
Continuous
 62
     2
370
     9
100
AcDbCircle
 10
-60.22764463682415
 20
482.2789801520271
 30
0.0
 40
2.299999353047964
100
AcDbArc
 50
180.0
 51
0.0
  0
ARC
  5
38E
330
1F
100
AcDbEntity
  8
建具
  6
Continuous
 62
     2
370
     9
100
AcDbCircle
 10
-64.92771457981416
 20
484.3052153716217
 30
0.0
 40
2.400000610867062
100
AcDbArc
 50
0.0
 51
53.96806335449219
  0
ARC
  5
38F
330
1F
100
AcDbEntity
  8
建具
  6
Continuous
 62
     2
370
     9
100
AcDbCircle
 10
-60.22764463682415
 20
492.7787426097973
 30
0.0
 40
7.300001350609032
100
AcDbArc
 50
118.0275573730469
 51
243.5666198730468
  0
ARC
  5
390
330
1F
100
AcDbEntity
  8
建具
  6
Continuous
 62
     2
370
     9
100
AcDbCircle
 10
-55.52777264569249
 20
484.3052153716217
 30
0.0
 40
2.400000610867062
100
AcDbArc
 50
122.0298156738281
 51
180.0
  0
ARC
  5
391
330
1F
100
AcDbEntity
  8
建具
  6
Continuous
 62
     2
370
     9
100
AcDbCircle
 10
-64.92771457981416
 20
501.2526657516894
 30
0.0
 40
2.400000610867062
100
AcDbArc
 50
302.0298156738281
 51
0.0000000000000127
  0
ARC
  5
392
330
1F
100
AcDbEntity
  8
建具
  6
Continuous
 62
     2
370
     9
100
AcDbCircle
 10
-60.22764463682415
 20
492.7787426097973
 30
0.0
 40
7.300001350609032
100
AcDbArc
 50
298.0275573730469
 51
61.97244262695312
  0
ARC
  5
393
330
1F
100
AcDbEntity
  8
建具
  6
Continuous
 62
     2
370
     9
100
AcDbCircle
 10
-55.52777264569249
 20
501.2526657516894
 30
0.0
 40
2.400000610867062
100
AcDbArc
 50
180.0
 51
237.9701843261718
  0
CIRCLE
  5
394
330
1F
100
AcDbEntity
  8
建具
  6
Continuous
 62
     2
370
     9
100
AcDbCircle
 10
-60.22764463682415
 20
492.7787426097973
 30
0.0
 40
5.000000257749815
  0
CIRCLE
  5
395
330
1F
100
AcDbEntity
  8
建具
  6
Continuous
 62
     2
370
     9
100
AcDbCircle
 10
-60.22764463682415
 20
492.7787426097973
 30
0.0
 40
3.799999855660104
  0
CIRCLE
  5
396
330
1F
100
AcDbEntity
  8
建具
  6
Continuous
 62
     2
370
     9
100
AcDbCircle
 10
-60.22764463682415
 20
312.7783467060813
 30
0.0
 40
4.000000051549963
  0
ARC
  5
397
330
1F
100
AcDbEntity
  8
建具
  6
Continuous
 62
     2
370
     9
100
AcDbCircle
 10
-69.2277238175675
 20
312.7783467060813
 30
0.0
 40
5.000000257749815
100
AcDbArc
 50
90.0
 51
270.0
  0
ARC
  5
398
330
1F
100
AcDbEntity
  8
建具
  6
Continuous
 62
     2
370
     9
100
AcDbCircle
 10
-51.22786238386811
 20
312.7783467060813
 30
0.0
 40
5.000000257749815
100
AcDbArc
 50
270.0
 51
90.0
  0
ARC
  5
399
330
1F
100
AcDbEntity
  8
建具
  6
Continuous
 62
     2
370
     9
100
AcDbCircle
 10
-60.22764463682415
 20
323.2785050675677
 30
0.0
 40
3.499999175200591
100
AcDbArc
 50
0.0
 51
180.0
  0
ARC
  5
39A
330
1F
100
AcDbEntity
  8
建具
  6
Continuous
 62
     2
370
     9
100
AcDbCircle
 10
-64.92771457981416
 20
321.2518739442569
 30
0.0
 40
1.200000305433531
100
AcDbArc
 50
306.0319366455078
 51
0.0000000000000318
  0
ARC
  5
39B
330
1F
100
AcDbEntity
  8
建具
  6
Continuous
 62
     2
370
     9
100
AcDbCircle
 10
-55.52777264569249
 20
321.2518739442569
 30
0.0
 40
1.200000305433531
100
AcDbArc
 50
180.0
 51
233.9680633544922
  0
ARC
  5
39C
330
1F
100
AcDbEntity
  8
建具
  6
Continuous
 62
     2
370
     9
100
AcDbCircle
 10
-60.22764463682415
 20
302.2785842483108
 30
0.0
 40
3.499999175200591
100
AcDbArc
 50
180.0
 51
0.0
  0
ARC
  5
39D
330
1F
100
AcDbEntity
  8
建具
  6
Continuous
 62
     2
370
     9
100
AcDbCircle
 10
-64.92771457981416
 20
304.3048194679054
 30
0.0
 40
1.200000305433531
100
AcDbArc
 50
0.0
 51
53.96806335449219
  0
ARC
  5
39E
330
1F
100
AcDbEntity
  8
建具
  6
Continuous
 62
     2
370
     9
100
AcDbCircle
 10
-55.52777264569249
 20
304.3048194679054
 30
0.0
 40
1.200000305433531
100
AcDbArc
 50
126.0319366455078
 51
180.0
  0
ARC
  5
39F
330
1F
100
AcDbEntity
  8
建具
  6
Continuous
 62
     2
370
     9
100
AcDbCircle
 10
-60.22764463682415
 20
312.7783467060813
 30
0.0
 40
8.500000206199852
100
AcDbArc
 50
118.0275573730469
 51
241.9724426269531
  0
ARC
  5
3A0
330
1F
100
AcDbEntity
  8
建具
  6
Continuous
 62
     2
370
     9
100
AcDbCircle
 10
-60.22764463682415
 20
312.7783467060813
 30
0.0
 40
8.500000206199852
100
AcDbArc
 50
298.0275573730469
 51
61.97244262695312
  0
ARC
  5
3A1
330
1F
100
AcDbEntity
  8
建具
  6
Continuous
 62
     2
370
     9
100
AcDbCircle
 10
-60.22764463682415
 20
302.2785842483108
 30
0.0
 40
2.299999353047964
100
AcDbArc
 50
180.0
 51
0.0
  0
ARC
  5
3A2
330
1F
100
AcDbEntity
  8
建具
  6
Continuous
 62
     2
370
     9
100
AcDbCircle
 10
-60.22764463682415
 20
323.2785050675677
 30
0.0
 40
2.299999353047964
100
AcDbArc
 50
0.0
 51
180.0
  0
ARC
  5
3A3
330
1F
100
AcDbEntity
  8
建具
  6
Continuous
 62
     2
370
     9
100
AcDbCircle
 10
-64.92771457981416
 20
321.2518739442569
 30
0.0
 40
2.400000610867062
100
AcDbArc
 50
306.0319366455078
 51
0.0000000000000318
  0
ARC
  5
3A4
330
1F
100
AcDbEntity
  8
建具
  6
Continuous
 62
     2
370
     9
100
AcDbCircle
 10
-60.22764463682415
 20
312.7783467060813
 30
0.0
 40
7.300001350609032
100
AcDbArc
 50
116.4333801269531
 51
241.9724426269531
  0
ARC
  5
3A5
330
1F
100
AcDbEntity
  8
建具
  6
Continuous
 62
     2
370
     9
100
AcDbCircle
 10
-55.52777264569249
 20
321.2518739442569
 30
0.0
 40
2.400000610867062
100
AcDbArc
 50
180.0
 51
237.9701843261718
  0
ARC
  5
3A6
330
1F
100
AcDbEntity
  8
建具
  6
Continuous
 62
     2
370
     9
100
AcDbCircle
 10
-64.92771457981416
 20
304.3048194679054
 30
0.0
 40
2.400000610867062
100
AcDbArc
 50
0.0
 51
57.97018432617188
  0
ARC
  5
3A7
330
1F
100
AcDbEntity
  8
建具
  6
Continuous
 62
     2
370
     9
100
AcDbCircle
 10
-60.22764463682415
 20
312.7783467060813
 30
0.0
 40
7.300001350609032
100
AcDbArc
 50
298.0275573730469
 51
61.97244262695312
  0
ARC
  5
3A8
330
1F
100
AcDbEntity
  8
建具
  6
Continuous
 62
     2
370
     9
100
AcDbCircle
 10
-55.52777264569249
 20
304.3048194679054
 30
0.0
 40
2.400000610867062
100
AcDbArc
 50
122.0298156738281
 51
180.0
  0
CIRCLE
  5
3A9
330
1F
100
AcDbEntity
  8
建具
  6
Continuous
 62
     2
370
     9
100
AcDbCircle
 10
-60.22764463682415
 20
312.7783467060813
 30
0.0
 40
5.000000257749815
  0
CIRCLE
  5
3AA
330
1F
100
AcDbEntity
  8
建具
  6
Continuous
 62
     2
370
     9
100
AcDbCircle
 10
-60.22764463682415
 20
312.7783467060813
 30
0.0
 40
3.799999855660104
  0
ARC
  5
3AB
330
1F
100
AcDbEntity
  8
0-F
  6
Continuous
 62
     7
370
     9
100
AcDbCircle
 10
159.7726852829394
 20
463.7787953969596
 30
0.0
 40
4.000000051549963
100
AcDbArc
 50
0.0
 51
180.0
  0
ARC
  5
3AC
330
1F
100
AcDbEntity
  8
0-F
  6
Continuous
 62
     7
370
     9
100
AcDbCircle
 10
159.7726852829394
 20
341.7786898226352
 30
0.0
 40
4.000000051549963
100
AcDbArc
 50
180.0
 51
0.0
  0
CIRCLE
  5
3AD
330
1F
100
AcDbEntity
  8
建具
  6
Continuous
 62
     2
370
     9
100
AcDbCircle
 10
508.7576541385138
 20
402.7787426097973
 30
0.0
 40
8.499991700455949
  0
CIRCLE
  5
3AE
330
1F
100
AcDbEntity
  8
建具
  6
Continuous
 62
     2
370
     9
100
AcDbCircle
 10
508.77269847973
 20
402.7787426097973
 30
0.0
 40
5.000000257749815
  0
CIRCLE
  5
3AF
330
1F
100
AcDbEntity
  8
建具
  6
Continuous
 62
     2
370
     9
100
AcDbCircle
 10
508.77269847973
 20
402.7787426097973
 30
0.0
 40
4.188000189291465
  0
CIRCLE
  5
3B0
330
1F
100
AcDbEntity
  8
通り芯
  6
Continuous
 62
     2
370
     9
100
AcDbCircle
 10
508.77269847973
 20
402.7787426097973
 30
0.0
 40
9.799963976885822
  0
ARC
  5
3B1
330
1F
100
AcDbEntity
  8
通り芯
  6
Continuous
 62
     2
370
     9
100
AcDbCircle
 10
605.7728700380067
 20
407.8831292229731
 30
0.0
 40
3.000000038662472
100
AcDbArc
 50
0.0
 51
86.42323303222658
  0
ARC
  5
3B2
330
1F
100
AcDbEntity
  8
通り芯
  6
Continuous
 62
     2
370
     9
100
AcDbCircle
 10
605.7728700380067
 20
397.6739600929054
 30
0.0
 40
3.000000038662472
100
AcDbArc
 50
273.5767669677734
 51
0.0000000000000254
  0
ARC
  5
3B3
330
1F
100
AcDbEntity
  8
通り芯
  6
Continuous
 62
     2
370
     9
100
AcDbCircle
 10
532.8551256334463
 20
411.7784258868244
 30
0.0
 40
2.000000025774982
100
AcDbArc
 50
90.0
 51
180.0
  0
ARC
  5
3B4
330
1F
100
AcDbEntity
  8
通り芯
  6
Continuous
 62
     2
370
     9
100
AcDbCircle
 10
532.8551256334463
 20
393.7782675253379
 30
0.0
 40
2.000000025774982
100
AcDbArc
 50
180.0
 51
270.0
  0
ARC
  5
3B5
330
1F
100
AcDbEntity
  8
建具
  6
Continuous
 62
     2
370
     9
100
AcDbCircle
 10
552.19066722973
 20
386.6559596706081
 30
0.0
 40
7.917860134227857
100
AcDbArc
 50
137.22216796875
 51
222.77783203125
  0
ARC
  5
3B6
330
1F
100
AcDbEntity
  8
建具
  6
Continuous
 62
     2
370
     9
100
AcDbCircle
 10
552.19066722973
 20
418.9011296452704
 30
0.0
 40
7.917860134227857
100
AcDbArc
 50
137.22216796875
 51
222.77783203125
  0
ARC
  5
3B7
330
1F
100
AcDbEntity
  8
建具
  6
Continuous
 62
     2
370
     9
100
AcDbCircle
 10
543.3548880912163
 20
418.9011296452704
 30
0.0
 40
7.917860134227857
100
AcDbArc
 50
319.6880645751953
 51
42.77783203125001
  0
ARC
  5
3B8
330
1F
100
AcDbEntity
  8
建具
  6
Continuous
 62
     2
370
     9
100
AcDbCircle
 10
543.3548880912163
 20
386.6559596706081
 30
0.0
 40
7.917860134227857
100
AcDbArc
 50
317.22216796875
 51
40.31442260742188
  0
CIRCLE
  5
3B9
330
1F
100
AcDbEntity
  8
躯体
  6
Continuous
 62
     3
370
     9
100
AcDbCircle
 10
1080.853964315878
 20
402.4232210726352
 30
0.0
 40
300.0000742319468
  0
ARC
  5
3BA
330
1F
100
AcDbEntity
  8
通り芯
  6
Continuous
 62
     2
370
     9
100
AcDbCircle
 10
888.3542942356421
 20
209.9229571368244
 30
0.0
 40
4.500000154649889
100
AcDbArc
 50
179.9988861083984
 51
270.0
  0
ARC
  5
3BB
330
1F
100
AcDbEntity
  8
通り芯
  6
Continuous
 62
     2
370
     9
100
AcDbCircle
 10
881.8541490709463
 20
240.4229835304054
 30
0.0
 40
2.000000025774982
100
AcDbArc
 50
0.0
 51
90.00250244140625
  0
ARC
  5
3BC
330
1F
100
AcDbEntity
  8
通り芯
  6
Continuous
 62
     2
370
     9
100
AcDbCircle
 10
918.8537267736488
 20
203.4230099239865
 30
0.0
 40
2.000000025774982
100
AcDbArc
 50
0.0
 51
90.00250244140625
  0
ARC
  5
3BD
330
1F
100
AcDbEntity
  8
通り芯
  6
Continuous
 62
     2
370
     9
100
AcDbCircle
 10
888.3535024282096
 20
594.923485008446
 30
0.0
 40
4.500000154649889
100
AcDbArc
 50
90.0
 51
180.0
  0
ARC
  5
3BE
330
1F
100
AcDbEntity
  8
通り芯
  6
Continuous
 62
     2
370
     9
100
AcDbCircle
 10
881.8535552153717
 20
564.423458614865
 30
0.0
 40
2.000000025774982
100
AcDbArc
 50
270.0
 51
0.0
  0
ARC
  5
3BF
330
1F
100
AcDbEntity
  8
通り芯
  6
Continuous
 62
     2
370
     9
100
AcDbCircle
 10
918.8537267736488
 20
601.423432221284
 30
0.0
 40
2.000000025774982
100
AcDbArc
 50
270.0
 51
0.0
  0
ARC
  5
3C0
330
1F
100
AcDbEntity
  8
通り芯
  6
Continuous
 62
     2
370
     9
100
AcDbCircle
 10
1279.854571368243
 20
564.423458614865
 30
0.0
 40
2.000000025774982
100
AcDbArc
 50
180.0
 51
270.0
  0
ARC
  5
3C1
330
1F
100
AcDbEntity
  8
通り芯
  6
Continuous
 62
     2
370
     9
100
AcDbCircle
 10
1242.854399809966
 20
601.423432221284
 30
0.0
 40
2.000000025774982
100
AcDbArc
 50
180.0
 51
270.0
  0
CIRCLE
  5
3C2
330
1F
100
AcDbEntity
  8
0-F
  6
Continuous
 62
     7
370
     9
100
AcDbCircle
 10
937.0641100084463
 20
546.5682010135135
 30
0.0
 40
6.000000463949668
  0
CIRCLE
  5
3C3
330
1F
100
AcDbEntity
  8
0-F
  6
Continuous
 62
     7
370
     9
100
AcDbCircle
 10
936.7093802787163
 20
258.6329708614865
 30
0.0
 40
6.000000463949668
  0
CIRCLE
  5
3C4
330
1F
100
AcDbEntity
  8
0-F
  6
Continuous
 62
     7
370
     9
100
AcDbCircle
 10
1224.998944256757
 20
546.213471283784
 30
0.0
 40
6.000000463949668
  0
ARC
  5
3C5
330
1F
100
AcDbEntity
  8
通り芯
  6
Continuous
 62
     2
370
     9
100
AcDbCircle
 10
888.3535024282096
 20
209.9229571368244
 30
0.0
 40
4.500000154649889
100
AcDbArc
 50
180.0
 51
270.0
  0
ARC
  5
3C6
330
1F
100
AcDbEntity
  8
通り芯
  6
Continuous
 62
     2
370
     9
100
AcDbCircle
 10
1273.353832347973
 20
209.9229571368244
 30
0.0
 40
4.500000154649889
100
AcDbArc
 50
270.0
 51
0.0
  0
ARC
  5
3C7
330
1F
100
AcDbEntity
  8
通り芯
  6
Continuous
 62
     2
370
     9
100
AcDbCircle
 10
1279.853779560811
 20
240.4229835304054
 30
0.0
 40
2.000000025774982
100
AcDbArc
 50
90.0
 51
180.0
  0
ARC
  5
3C8
330
1F
100
AcDbEntity
  8
通り芯
  6
Continuous
 62
     2
370
     9
100
AcDbCircle
 10
1242.853608002534
 20
203.4230099239865
 30
0.0
 40
2.000000025774982
100
AcDbArc
 50
90.0
 51
180.0
  0
CIRCLE
  5
3C9
330
1F
100
AcDbEntity
  8
0-F
  6
Continuous
 62
     7
370
     9
100
AcDbCircle
 10
1224.643224767737
 20
258.2786370354731
 30
0.0
 40
6.000000463949668
  0
ARC
  5
3CA
330
1F
100
AcDbEntity
  8
通り芯
  6
Continuous
 62
     2
370
     9
100
AcDbCircle
 10
1273.354030299831
 20
594.923485008446
 30
0.0
 40
4.500000154649889
100
AcDbArc
 50
0.0
 51
90.0
  0
ARC
  5
3CB
330
1F
100
AcDbEntity
  8
通り芯
  6
Continuous
 62
     2
370
     9
100
AcDbCircle
 10
1279.853779560811
 20
564.4230627111488
 30
0.0
 40
2.000000025774982
100
AcDbArc
 50
180.0
 51
270.0
  0
ARC
  5
3CC
330
1F
100
AcDbEntity
  8
通り芯
  6
Continuous
 62
     2
370
     9
100
AcDbCircle
 10
1080.853964315878
 20
402.4232210726352
 30
0.0
 40
303.0000346415752
100
AcDbArc
 50
3.145278930664062
 51
356.8546752929688
  0
ARC
  5
3CD
330
1F
100
AcDbEntity
  8
建具
  6
Continuous
 62
     2
370
     9
100
AcDbCircle
 10
1473.271748310811
 20
386.3004381334461
 30
0.0
 40
7.917860134227857
100
AcDbArc
 50
137.22216796875
 51
222.77783203125
  0
ARC
  5
3CE
330
1F
100
AcDbEntity
  8
建具
  6
Continuous
 62
     2
370
     9
100
AcDbCircle
 10
1473.271748310811
 20
418.5460040118244
 30
0.0
 40
7.917860134227857
100
AcDbArc
 50
137.22216796875
 51
222.77783203125
  0
ARC
  5
3CF
330
1F
100
AcDbEntity
  8
建具
  6
Continuous
 62
     2
370
     9
100
AcDbCircle
 10
1464.435969172298
 20
418.5460040118244
 30
0.0
 40
7.917860134227857
100
AcDbArc
 50
317.22216796875
 51
42.77783203124999
  0
ARC
  5
3D0
330
1F
100
AcDbEntity
  8
建具
  6
Continuous
 62
     2
370
     9
100
AcDbCircle
 10
1464.435969172298
 20
386.3004381334461
 30
0.0
 40
7.917860134227857
100
AcDbArc
 50
317.22216796875
 51
42.77783203124999
  0
ARC
  5
3D1
330
1F
100
AcDbEntity
  8
仕上
  6
Continuous
 62
     6
370
     9
100
AcDbCircle
 10
1080.853964315878
 20
402.4232210726352
 30
0.0
 40
306.0000940271326
100
AcDbArc
 50
185.5039978027344
 51
356.8855438232422
  0
ARC
  5
3D2
330
1F
100
AcDbEntity
  8
仕上
  6
Continuous
 62
     6
370
     9
100
AcDbCircle
 10
1080.853964315878
 20
402.4232210726352
 30
0.0
 40
306.0000940271326
100
AcDbArc
 50
3.114410400390625
 51
174.4959716796875
  0
ARC
  5
3D3
330
1F
100
AcDbEntity
  8
仕上
  6
Continuous
 62
     6
370
     9
100
AcDbCircle
 10
1080.853964315878
 20
402.4232210726352
 30
0.0
 40
307.5000989759291
100
AcDbArc
 50
185.4770660400391
 51
356.9007568359376
  0
ARC
  5
3D4
330
1F
100
AcDbEntity
  8
仕上
  6
Continuous
 62
     6
370
     9
100
AcDbCircle
 10
1080.853964315878
 20
402.4232210726352
 30
0.0
 40
307.5000989759291
100
AcDbArc
 50
3.099212646484375
 51
174.5229034423828
  0
ARC
  5
3D5
330
1F
100
AcDbEntity
  8
建具
  6
Continuous
 62
     2
370
     9
100
AcDbCircle
 10
1493.815588048987
 20
402.4232210726352
 30
0.0
 40
28.46158311173723
100
AcDbArc
 50
157.8193054199219
 51
202.1806182861328
  0
ARC
  5
3D6
330
1F
100
AcDbEntity
  8
建具
  6
Continuous
 62
     2
370
     9
100
AcDbCircle
 10
1443.892129434122
 20
402.4232210726352
 30
0.0
 40
28.46158311173723
100
AcDbArc
 50
337.8193817138672
 51
22.18069458007817
  0
CIRCLE
  5
3D7
330
1F
100
AcDbEntity
  8
0-F
  6
Continuous
 62
     7
370
     9
100
AcDbCircle
 10
-495.4052074535473
 20
300.8462046030406
 30
0.0
 40
24.00000030929978
  0
CIRCLE
  5
3D8
330
1F
100
AcDbEntity
  8
0-F
  6
Continuous
 62
     7
370
     9
100
AcDbCircle
 10
-467.3166305954392
 20
775.3827333192569
 30
0.0
 40
24.00000030929978
  0
CIRCLE
  5
3D9
330
1F
100
AcDbEntity
  8
0-F
  6
Continuous
 62
     7
370
     9
100
AcDbCircle
 10
-595.8980415962837
 20
-400.8559174408783
 30
0.0
 40
24.00000030929978
  0
CIRCLE
  5
3DA
330
1F
100
AcDbEntity
  8
0-F
  6
Continuous
 62
     7
370
     9
100
AcDbCircle
 10
-983.6542572846283
 20
775.3827333192569
 30
0.0
 40
24.00000030929978
  0
CIRCLE
  5
3DB
330
1F
100
AcDbEntity
  8
0-F
  6
Continuous
 62
     7
370
     9
100
AcDbCircle
 10
-1307.003074852196
 20
560.3104149070946
 30
0.0
 40
24.00000030929978
  0
CIRCLE
  5
3DC
330
1F
100
AcDbEntity
  8
0-F
  6
Continuous
 62
     7
370
     9
100
AcDbCircle
 10
-395.1680281355573
 20
-128.0509396114865
 30
0.0
 40
24.00000030929978
  0
CIRCLE
  5
3DD
330
1F
100
AcDbEntity
  8
0-F
  6
Continuous
 62
     7
370
     9
100
AcDbCircle
 10
-842.0559279983107
 20
-407.6021167652027
 30
0.0
 40
24.00000030929978
  0
CIRCLE
  5
3DE
330
1F
100
AcDbEntity
  8
0-F
  6
Continuous
 62
     7
370
     9
100
AcDbCircle
 10
-884.6478436444256
 20
775.3827333192569
 30
0.0
 40
24.00000030929978
  0
CIRCLE
  5
3DF
330
1F
100
AcDbEntity
  8
0-F
  6
Continuous
 62
     7
370
     9
100
AcDbCircle
 10
-748.7178658150337
 20
775.3827333192569
 30
0.0
 40
24.00000030929978
  0
CIRCLE
  5
3E0
330
1F
100
AcDbEntity
  8
0-F
  6
Continuous
 62
     7
370
     9
100
AcDbCircle
 10
-125.6199522276181
 20
734.2637774493244
 30
0.0
 40
24.00000030929978
  0
CIRCLE
  5
3E1
330
1F
100
AcDbEntity
  8
0-F
  6
Continuous
 62
     7
370
     9
100
AcDbCircle
 10
-492.22619958826
 20
-364.5040382179053
 30
0.0
 40
24.00000030929978
  0
ARC
  5
3E2
330
1F
100
AcDbEntity
  8
建具
  6
Continuous
 62
     2
370
     9
100
AcDbCircle
 10
-736.8248192039696
 20
-362.6207242398648
 30
0.0
 40
1.500000019331236
100
AcDbArc
 50
180.0
 51
270.0
  0
ARC
  5
3E3
330
1F
100
AcDbEntity
  8
建具
  6
Continuous
 62
     2
370
     9
100
AcDbCircle
 10
-732.824806007179
 20
-362.6207242398648
 30
0.0
 40
1.500000019331236
100
AcDbArc
 50
270.0
 51
0.0
  0
ARC
  5
3E4
330
1F
100
AcDbEntity
  8
建具
  6
Continuous
 62
     2
370
     9
100
AcDbCircle
 10
-736.8248192039696
 20
-348.620777027027
 30
0.0
 40
1.500000019331236
100
AcDbArc
 50
90.0
 51
180.0
  0
ARC
  5
3E5
330
1F
100
AcDbEntity
  8
建具
  6
Continuous
 62
     2
370
     9
100
AcDbCircle
 10
-732.824806007179
 20
-348.620777027027
 30
0.0
 40
1.500000019331236
100
AcDbArc
 50
0.0
 51
90.0
  0
ARC
  5
3E6
330
1F
100
AcDbEntity
  8
建具
  6
Continuous
 62
     2
370
     9
100
AcDbCircle
 10
-736.8248192039696
 20
-362.6207242398648
 30
0.0
 40
3.000000038662472
100
AcDbArc
 50
180.0
 51
270.0
  0
ARC
  5
3E7
330
1F
100
AcDbEntity
  8
建具
  6
Continuous
 62
     2
370
     9
100
AcDbCircle
 10
-732.824806007179
 20
-362.6207242398648
 30
0.0
 40
3.000000038662472
100
AcDbArc
 50
270.0
 51
0.0
  0
ARC
  5
3E8
330
1F
100
AcDbEntity
  8
建具
  6
Continuous
 62
     2
370
     9
100
AcDbCircle
 10
-736.8248192039696
 20
-348.620777027027
 30
0.0
 40
3.000000038662472
100
AcDbArc
 50
90.0
 51
180.0
  0
ARC
  5
3E9
330
1F
100
AcDbEntity
  8
建具
  6
Continuous
 62
     2
370
     9
100
AcDbCircle
 10
-732.824806007179
 20
-348.620777027027
 30
0.0
 40
3.000000038662472
100
AcDbArc
 50
0.0
 51
90.0
  0
ARC
  5
3EA
330
1F
100
AcDbEntity
  8
建具
  6
Continuous
 62
     2
370
     9
100
AcDbCircle
 10
1235.853832347973
 20
467.4230891047298
 30
0.0
 40
30.25000082479941
100
AcDbArc
 50
99.51416015625001
 51
260.48583984375
  0
ARC
  5
3EB
330
1F
100
AcDbEntity
  8
建具
  6
Continuous
 62
     2
370
     9
100
AcDbCircle
 10
1235.853832347973
 20
467.4230891047298
 30
0.0
 40
30.25000082479941
100
AcDbArc
 50
279.51416015625
 51
80.48583984375
  0
ARC
  5
3EC
330
1F
100
AcDbEntity
  8
通り芯
  6
Continuous
 62
     2
370
     9
100
AcDbCircle
 10
1526.853951119088
 20
397.3188344594596
 30
0.0
 40
3.000000038662472
100
AcDbArc
 50
273.5747985839844
 51
0.0000000000000382
  0
ARC
  5
3ED
330
1F
100
AcDbEntity
  8
通り芯
  6
Continuous
 62
     2
370
     9
100
AcDbCircle
 10
1526.853951119088
 20
407.5280035895271
 30
0.0
 40
3.000000038662472
100
AcDbArc
 50
0.0
 51
86.4247283935547
  0
CIRCLE
  5
3EE
330
1F
100
AcDbEntity
  8
0-F
  6
Continuous
 62
     7
370
     9
100
AcDbCircle
 10
-467.3166305954392
 20
550.8079339104731
 30
0.0
 40
24.00000030929978
  0
ARC
  5
3EF
330
1F
100
AcDbEntity
  8
仕上
  6
Continuous
 62
     6
370
     9
100
AcDbCircle
 10
-11.22743348817562
 20
312.7783467060813
 30
0.0
 40
4.999999484500369
100
AcDbArc
 50
270.0
 51
90.0
  0
ARC
  5
3F0
330
1F
100
AcDbEntity
  8
仕上
  6
Continuous
 62
     6
370
     9
100
AcDbCircle
 10
-29.22739389780395
 20
312.7783467060813
 30
0.0
 40
4.999999484500369
100
AcDbArc
 50
90.0
 51
270.0
  0
ARC
  5
3F1
330
1F
100
AcDbEntity
  8
建具
  6
JWW_DASHED1
 62
     2
370
     9
100
AcDbCircle
 10
-28.72736750422291
 20
500.3523807010135
 30
0.0
 40
30.0
100
AcDbArc
 50
0.0
 51
45.00027465820312
  0
ARC
  5
3F2
330
1F
100
AcDbEntity
  8
建具
  6
JWW_DASHED1
 62
     2
370
     9
100
AcDbCircle
 10
-28.72736750422291
 20
305.2051045185813
 30
0.0
 40
30.0
100
AcDbArc
 50
314.9998626708984
 51
0.0
  0
ARC
  5
3F3
330
1F
100
AcDbEntity
  8
その他
  6
Continuous
 62
     6
370
     9
100
AcDbCircle
 10
-1055.221574113176
 20
611.8792493665542
 30
0.0
 40
3.000000038662472
100
AcDbArc
 50
0.0
 51
90.0
  0
ARC
  5
3F4
330
1F
100
AcDbEntity
  8
その他
  6
Continuous
 62
     6
370
     9
100
AcDbCircle
 10
-1055.221574113176
 20
611.8792493665542
 30
0.0
 40
1.500000019331236
100
AcDbArc
 50
0.0
 51
90.0
  0
ARC
  5
3F5
330
1F
100
AcDbEntity
  8
建具
  6
Continuous
 62
     2
370
     9
100
AcDbCircle
 10
-1143.335983688767
 20
611.1737489442569
 30
0.0
 40
1.218774222038888
100
AcDbArc
 50
336.1244659423828
 51
81.81095886230469
  0
ARC
  5
3F6
330
1F
100
AcDbEntity
  8
建具
  6
Continuous
 62
     2
370
     9
100
AcDbCircle
 10
-1071.107012774493
 20
611.1721653293921
 30
0.0
 40
1.218774222038888
100
AcDbArc
 50
98.1865692138672
 51
203.8670349121094
  0
ELLIPSE
  5
3F7
330
1F
100
AcDbEntity
  8
建具
  6
Continuous
 62
     2
370
     9
100
AcDbEllipse
 10
-1107.221547719595
 20
610.679661106419
 30
0.0
 11
-0.001292940732959613
 21
-55.80356287102773
 31
0.0
210
0.0
220
0.0
230
1.0
 40
0.6272000000000001
 41
4.71238898038469
 42
7.853981633974483
  0
ARC
  5
3F8
330
1F
100
AcDbEntity
  8
0-F
  6
Continuous
 62
     2
370
     9
100
AcDbCircle
 10
-1079.48829444679
 20
-709.2312605574324
 30
0.0
 40
42.46665542190139
100
AcDbArc
 50
355.12158203125
 51
359.9159088134766
  0
ARC
  5
3F9
330
1F
100
AcDbEntity
  8
0-F
  6
Continuous
 62
     2
370
     9
100
AcDbCircle
 10
-982.554931640625
 20
-709.2312605574324
 30
0.0
 40
42.46665542190139
100
AcDbArc
 50
180.0840911865235
 51
184.87841796875
  0
ARC
  5
3FA
330
1F
100
AcDbEntity
  8
0-F
  6
Continuous
 62
     2
370
     9
100
AcDbCircle
 10
-1039.228845544763
 20
-669.2240023226351
 30
0.0
 40
3.903030318182868
100
AcDbArc
 50
45.36129760742188
 51
134.6389617919922
  0
ARC
  5
3FB
330
1F
100
AcDbEntity
  8
0-F
  6
Continuous
 62
     2
370
     9
100
AcDbCircle
 10
-1031.021365603885
 20
-679.1489125844594
 30
0.0
 40
13.82789921116185
100
AcDbArc
 50
66.71980285644531
 51
113.2803039550781
  0
ARC
  5
3FC
330
1F
100
AcDbEntity
  8
0-F
  6
Continuous
 62
     2
370
     9
100
AcDbCircle
 10
-1022.813984638936
 20
-669.2242002744932
 30
0.0
 40
3.903060861535975
100
AcDbArc
 50
45.36129760742188
 51
134.63818359375
  0
ARC
  5
3FD
330
1F
100
AcDbEntity
  8
0-F
  6
Continuous
 62
     2
370
     9
100
AcDbCircle
 10
-791.887404983108
 20
-709.2312605574324
 30
0.0
 40
42.46665542190139
100
AcDbArc
 50
355.12158203125
 51
359.9159088134766
  0
ARC
  5
3FE
330
1F
100
AcDbEntity
  8
0-F
  6
Continuous
 62
     2
370
     9
100
AcDbCircle
 10
-694.9541411528716
 20
-709.2312605574324
 30
0.0
 40
42.46665542190139
100
AcDbArc
 50
180.0840911865235
 51
184.87841796875
  0
ARC
  5
3FF
330
1F
100
AcDbEntity
  8
0-F
  6
Continuous
 62
     2
370
     9
100
AcDbCircle
 10
-751.6281540329392
 20
-669.2240023226351
 30
0.0
 40
3.903030318182868
100
AcDbArc
 50
45.36129760742188
 51
134.6389617919922
  0
ARC
  5
400
330
1F
100
AcDbEntity
  8
0-F
  6
Continuous
 62
     2
370
     9
100
AcDbCircle
 10
-743.4205751161317
 20
-679.1489125844594
 30
0.0
 40
13.82789921116185
100
AcDbArc
 50
66.71980285644531
 51
113.2803039550781
  0
ARC
  5
401
330
1F
100
AcDbEntity
  8
0-F
  6
Continuous
 62
     2
370
     9
100
AcDbCircle
 10
-735.2130951752533
 20
-669.2242002744932
 30
0.0
 40
3.903060861535975
100
AcDbArc
 50
45.36129760742188
 51
134.63818359375
  0
TEXT
  5
402
330
1F
100
AcDbEntity
  8
0-F
  6
Continuous
 62
     7
370
     9
100
AcDbText
 10
-333.6914895481419
 20
-506.6207918734164
 30
0.0
 40
24.384
  1
400
 50
90.0
 41
1.083333333333333
  7
ＭＳ ゴシック
100
AcDbText
  0
TEXT
  5
403
330
1F
100
AcDbEntity
  8
0-F
  6
Continuous
 62
     7
370
     9
100
AcDbText
 10
-333.6914895481419
 20
144.1292889569257
 30
0.0
 40
24.384
  1
900
 50
90.0
 41
1.083333333333333
  7
ＭＳ ゴシック
100
AcDbText
  0
TEXT
  5
404
330
1F
100
AcDbEntity
  8
0-F
  6
Continuous
 62
     7
370
     9
100
AcDbText
 10
-931.2212672877956
 20
-31.51864294763499
 30
0.0
 40
24.384
  1
Φ600
 41
1.1
  7
ＭＳ ゴシック
100
AcDbText
  0
TEXT
  5
405
330
1F
100
AcDbEntity
  8
0-F
  6
Continuous
 62
     7
370
     9
100
AcDbText
 10
-806.0277833614864
 20
52.8790250211149
 30
0.0
 40
24.384
  1
715
 50
90.0
 41
1.083333333333333
  7
ＭＳ ゴシック
100
AcDbText
  0
TEXT
  5
406
330
1F
100
AcDbEntity
  8
0-F
  6
Continuous
 62
     7
370
     9
100
AcDbText
 10
-931.2210693359375
 20
913.0775352618246
 30
0.0
 40
24.384
  1
Φ615
 41
1.1
  7
ＭＳ ゴシック
100
AcDbText
  0
TEXT
  5
407
330
1F
100
AcDbEntity
  8
0-F
  6
Continuous
 62
     7
370
     9
100
AcDbText
 10
-1234.22131677576
 20
372.6016589949325
 30
0.0
 40
24.384
  1
60
 41
1.0625
  7
ＭＳ ゴシック
100
AcDbText
  0
TEXT
  5
408
330
1F
100
AcDbEntity
  8
0-F
  6
Continuous
 62
     7
370
     9
100
AcDbText
 10
-281.620154296875
 20
-64.87062856313344
 30
0.0
 40
24.384
  1
1300
 50
90.0
 41
1.09375
  7
ＭＳ ゴシック
100
AcDbText
  0
TEXT
  5
409
330
1F
100
AcDbEntity
  8
0-F
  6
Continuous
 62
     7
370
     9
100
AcDbText
 10
-1286.610355679899
 20
634.629467113598
 30
0.0
 40
24.384
  1
60
 50
90.0
 41
1.0625
  7
ＭＳ ゴシック
100
AcDbText
  0
TEXT
  5
40A
330
1F
100
AcDbEntity
  8
0-F
  6
Continuous
 62
     7
370
     9
100
AcDbText
 10
-1418.8625859375
 20
-34.12078692461989
 30
0.0
 40
24.384
  1
1360
 50
90.0
 41
1.09375
  7
ＭＳ ゴシック
100
AcDbText
  0
TEXT
  5
40B
330
1F
100
AcDbEntity
  8
0-F
  6
Continuous
 62
     7
370
     9
100
AcDbText
 10
-1359.553734850084
 20
-135.6206021695523
 30
0.0
 40
24.384
  1
1150
 50
90.0
 41
1.09375
  7
ＭＳ ゴシック
100
AcDbText
  0
TEXT
  5
40C
330
1F
100
AcDbEntity
  8
0-F
  6
Continuous
 62
     7
370
     9
100
AcDbText
 10
-507.4052569415118
 20
292.2299670608108
 30
0.0
 40
18.288
  1
１
  7
ＭＳ ゴシック
100
AcDbText
  0
TEXT
  5
40D
330
1F
100
AcDbEntity
  8
0-F
  6
Continuous
 62
     7
370
     9
100
AcDbText
 10
-607.8979362842165
 20
-410.057696579689
 30
0.0
 40
18.288
  1
３
 50
359.9990548487191
 41
0.9999999999999996
  7
ＭＳ ゴシック
100
AcDbText
  0
TEXT
  5
40E
330
1F
100
AcDbEntity
  8
0-F
  6
Continuous
 62
     7
370
     9
100
AcDbText
 10
-1167.971382759713
 20
846.613219383446
 30
0.0
 40
24.384
  1
87
 41
1.0625
  7
ＭＳ ゴシック
100
AcDbText
  0
TEXT
  5
40F
330
1F
100
AcDbEntity
  8
0-F
  6
Continuous
 62
     7
370
     9
100
AcDbText
 10
-1319.002957168195
 20
551.10863576808
 30
0.0
 40
18.288
  1
５
 50
359.9990548496936
 41
1.000000000000004
  7
ＭＳ ゴシック
100
AcDbText
  0
TEXT
  5
410
330
1F
100
AcDbEntity
  8
0-F
  6
Continuous
 62
     7
370
     9
100
AcDbText
 10
-407.1680344684302
 20
-136.6671771543399
 30
0.0
 40
18.288
  1
６
 50
0.0009451512808384
 41
0.9999999999999996
  7
ＭＳ ゴシック
100
AcDbText
  0
TEXT
  5
411
330
1F
100
AcDbEntity
  8
0-F
  6
Continuous
 62
     7
370
     9
100
AcDbText
 10
-854.0559774862753
 20
-416.8042918074324
 30
0.0
 40
18.288
  1
７
  7
ＭＳ ゴシック
100
AcDbText
  0
TEXT
  5
412
330
1F
100
AcDbEntity
  8
0-F
  6
Continuous
 62
     7
370
     9
100
AcDbText
 10
-479.3165811074746
 20
766.7664957770271
 30
0.0
 40
18.288
  1
２
  7
ＭＳ ゴシック
100
AcDbText
  0
TEXT
  5
413
330
1F
100
AcDbEntity
  8
0-F
  6
Continuous
 62
     7
370
     9
100
AcDbText
 10
-896.6478931323902
 20
766.1801623733108
 30
0.0
 40
18.288
  1
８
  7
ＭＳ ゴシック
100
AcDbText
  0
TEXT
  5
414
330
1F
100
AcDbEntity
  8
0-F
  6
Continuous
 62
     7
370
     9
100
AcDbText
 10
-760.7179711238356
 20
766.1801623726872
 30
0.0
 40
18.288
  1
９
 50
0.0009451512808384
 41
0.9999999999999996
  7
ＭＳ ゴシック
100
AcDbText
  0
TEXT
  5
415
330
1F
100
AcDbEntity
  8
0-F
  6
Continuous
 62
     7
370
     9
100
AcDbText
 10
-505.2261995882601
 20
-373.7062132601351
 30
0.0
 40
18.288
  1
11
 41
1.083333333333333
  7
ＭＳ ゴシック
100
AcDbText
  0
TEXT
  5
416
330
1F
100
AcDbEntity
  8
0-F
  6
Continuous
 62
     7
370
     9
100
AcDbText
 10
1055.03195738935
 20
792.3514478462537
 30
0.0
 40
24.384
  1
288
 50
359.9995637764703
 41
1.083333333333335
  7
ＭＳ ゴシック
100
AcDbText
  0
TEXT
  5
417
330
1F
100
AcDbEntity
  8
0-F
  6
Continuous
 62
     7
370
     9
100
AcDbText
 10
675.732140625
 20
376.600387985642
 30
0.0
 40
24.384
  1
288
 50
90.0
 41
1.083333333333333
  7
ＭＳ ゴシック
100
AcDbText
  0
TEXT
  5
418
330
1F
100
AcDbEntity
  8
0-F
  6
Continuous
 62
     7
370
     9
100
AcDbText
 10
-120.1515684385556
 20
877.9593623310813
 30
0.0
 40
30.48
  1
上面図
 41
1.066666666666666
  7
ＭＳ ゴシック
100
AcDbText
  0
TEXT
  5
419
330
1F
100
AcDbEntity
  8
0-F
  6
Continuous
 62
     7
370
     9
100
AcDbText
 10
800.929661106419
 20
877.9593623310813
 30
0.0
 40
30.48
  1
下面図
 41
1.066666666666666
  7
ＭＳ ゴシック
100
AcDbText
  0
TEXT
  5
41A
330
1F
100
AcDbEntity
  8
0-F
  6
Continuous
 62
     7
370
     9
100
AcDbText
 10
-931.2213662637246
 20
-838.5824230363176
 30
0.0
 40
24.384
  1
□400
 41
1.1
  7
ＭＳ ゴシック
100
AcDbText
  0
TEXT
  5
41B
330
1F
100
AcDbEntity
  8
0-F
  6
Continuous
 62
     7
370
     9
100
AcDbText
 10
1284.790072054476
 20
734.0831307010135
 30
0.0
 40
24.384
  1
Φ12
 41
1.09375
  7
ＭＳ ゴシック
100
AcDbText
  0
TEXT
  5
41C
330
1F
100
AcDbEntity
  8
0-F
  6
Continuous
 62
     7
370
     9
100
AcDbText
 10
-829.4879528016186
 20
447.4330040118103
 30
0.0
 40
24.384
  1
２００㍑水位
 50
359.9998930018334
 41
1.104166666666667
  7
ＭＳ ゴシック
100
AcDbText
  0
TEXT
  5
41D
330
1F
100
AcDbEntity
  8
0-F
  6
Continuous
 62
     7
370
     9
100
AcDbText
 10
-995.6543625934303
 20
766.1801623726872
 30
0.0
 40
18.288
  1
４
 50
0.0009451512808384
 41
0.9999999999999996
  7
ＭＳ ゴシック
100
AcDbText
  0
TEXT
  5
41E
330
1F
100
AcDbEntity
  8
0-F
  6
Continuous
 62
     7
370
     9
100
AcDbText
 10
-480.3165790655145
 20
542.1920922716677
 30
0.0
 40
18.288
  1
12
 50
359.9991275529406
 41
1.083333333333333
  7
ＭＳ ゴシック
100
AcDbText
  0
TEXT
  5
41F
330
1F
100
AcDbEntity
  8
0-F
  6
Continuous
 62
     7
370
     9
100
AcDbText
 10
-138.6199522276181
 20
725.6475399070948
 30
0.0
 40
18.288
  1
10
 41
1.083333333333333
  7
ＭＳ ゴシック
100
AcDbText
  0
TEXT
  5
420
330
1F
100
AcDbEntity
  8
0-F
  6
Continuous
 62
     7
370
     9
100
AcDbText
 10
-402.6964185494087
 20
-491.6207918734163
 30
0.0
 40
24.384
  1
430
 50
90.0
 41
1.083333333333333
  7
ＭＳ ゴシック
100
AcDbText
  0
TEXT
  5
421
330
1F
100
AcDbEntity
  8
その他
  6
Continuous
 62
     7
370
     9
100
AcDbText
 10
-1160.221077583932
 20
759.4629343327704
 30
0.0
 40
24.384
  1
Φ62.3
 41
1.104166666666667
  7
ＭＳ ゴシック
100
AcDbText
  0
TEXT
  5
422
330
1F
100
AcDbEntity
  8
その他
  6
Continuous
 62
     7
370
     9
100
AcDbText
 10
-1300.385726509713
 20
416.3792493665542
 30
0.0
 40
24.384
  1
Φ62.3
 50
90.0
 41
1.104166666666667
  7
ＭＳ ゴシック
100
AcDbText
  0
TEXT
  5
423
330
1F
100
AcDbEntity
  8
0-F
  6
Continuous
 62
     7
370
     9
100
AcDbText
 10
-632.6903307115709
 20
-847.9734571368244
 30
0.0
 40
24.384
  1
ホールインアンカー
 41
1.111111111111111
  7
ＭＳ ゴシック
100
AcDbText
  0
TEXT
  5
424
330
1F
100
AcDbEntity
  8
0-F
  6
Continuous
 62
     7
370
     9
100
AcDbText
 10
-606.6248317409205
 20
-792.5168481841217
 30
0.0
 40
24.384
  1
別　途
 41
1.083333333333333
  7
ＭＳ ゴシック
100
AcDbText
  0
TEXT
  5
425
330
1F
100
AcDbEntity
  8
0-F
  6
Continuous
 62
     7
370
     9
100
AcDbText
 10
-632.6903406091639
 20
-897.3357222339528
 30
0.0
 40
24.384
  1
呼び１０　４箇所
 41
1.109375
  7
ＭＳ ゴシック
100
AcDbText
  0
TEXT
  5
426
330
1F
100
AcDbEntity
  8
F-0ﾚｲﾔ
  6
Continuous
 62
     7
370
     9
100
AcDbText
 10
481.4852657833617
 20
-864.8960645586994
 30
0.0
 40
24.384
  1
品　　名
 41
1.09375
  7
ＭＳ ゴシック
100
AcDbText
  0
TEXT
  5
427
330
1F
100
AcDbEntity
  8
F-0ﾚｲﾔ
  6
Continuous
 62
     7
370
     9
100
AcDbText
 10
683.4853977512669
 20
-864.8960645586994
 30
0.0
 40
24.384
  1
図番・規格
 41
1.1
  7
ＭＳ ゴシック
100
AcDbText
  0
TEXT
  5
428
330
1F
100
AcDbEntity
  8
F-0ﾚｲﾔ
  6
Continuous
 62
     7
370
     9
100
AcDbText
 10
917.4845069679056
 20
-864.8960645586994
 30
0.0
 40
24.384
  1
材質
 41
1.0625
  7
ＭＳ ゴシック
100
AcDbText
  0
TEXT
  5
429
330
1F
100
AcDbEntity
  8
F-0ﾚｲﾔ
  6
Continuous
 62
     7
370
     9
100
AcDbText
 10
357.4848368876691
 20
-864.8960645586994
 30
0.0
 40
24.384
  1
部番
 41
1.0625
  7
ＭＳ ゴシック
100
AcDbText
  0
TEXT
  5
42A
330
1F
100
AcDbEntity
  8
F-Fﾚｲﾔ
  6
Continuous
 62
     7
370
     9
100
AcDbText
 10
375.4845399598819
 20
-800.8959523859796
 30
0.0
 40
24.384
  1
１
  7
ＭＳ ゴシック
100
AcDbText
  0
TEXT
  5
42B
330
1F
100
AcDbEntity
  8
F-Fﾚｲﾔ
  6
Continuous
 62
     7
370
     9
100
AcDbText
 10
375.4845399598819
 20
-736.8959886771538
 30
0.0
 40
24.384
  1
２
  7
ＭＳ ゴシック
100
AcDbText
  0
TEXT
  5
42C
330
1F
100
AcDbEntity
  8
F-Fﾚｲﾔ
  6
Continuous
 62
     7
370
     9
100
AcDbText
 10
898.4847049197635
 20
-800.8959523859796
 30
0.0
 40
24.384
  1
SUS304
 41
1.104166666666667
  7
ＭＳ ゴシック
100
AcDbText
  0
TEXT
  5
42D
330
1F
100
AcDbEntity
  8
F-Fﾚｲﾔ
  6
Continuous
 62
     7
370
     9
100
AcDbText
 10
898.4847049197635
 20
-736.8959886771538
 30
0.0
 40
24.384
  1
SUS304
 41
1.104166666666667
  7
ＭＳ ゴシック
100
AcDbText
  0
TEXT
  5
42E
330
1F
100
AcDbEntity
  8
F-Fﾚｲﾔ
  6
Continuous
 62
     7
370
     9
100
AcDbText
 10
1363.484869879645
 20
-800.8959523859796
 30
0.0
 40
24.384
  1
ｔ＝１．５
 41
1.1
  7
ＭＳ ゴシック
100
AcDbText
  0
TEXT
  5
42F
330
1F
100
AcDbEntity
  8
F-Fﾚｲﾔ
  6
Continuous
 62
     7
370
     9
100
AcDbText
 10
898.4847049197635
 20
-672.8960744562921
 30
0.0
 40
24.384
  1
SUS304
 41
1.104166666666667
  7
ＭＳ ゴシック
100
AcDbText
  0
TEXT
  5
430
330
1F
100
AcDbEntity
  8
F-Fﾚｲﾔ
  6
Continuous
 62
     7
370
     9
100
AcDbText
 10
375.4845399598819
 20
-672.8960744562921
 30
0.0
 40
24.384
  1
３
  7
ＭＳ ゴシック
100
AcDbText
  0
TEXT
  5
431
330
1F
100
AcDbEntity
  8
F-Fﾚｲﾔ
  6
Continuous
 62
     7
370
     9
100
AcDbText
 10
898.4847049197635
 20
-608.8962097233953
 30
0.0
 40
24.384
  1
SUS304
 41
1.104166666666667
  7
ＭＳ ゴシック
100
AcDbText
  0
TEXT
  5
432
330
1F
100
AcDbEntity
  8
F-Fﾚｲﾔ
  6
Continuous
 62
     7
370
     9
100
AcDbText
 10
898.4847049197635
 20
-544.8961470386403
 30
0.0
 40
24.384
  1
SUS304
 41
1.104166666666667
  7
ＭＳ ゴシック
100
AcDbText
  0
TEXT
  5
433
330
1F
100
AcDbEntity
  8
F-Fﾚｲﾔ
  6
Continuous
 62
     7
370
     9
100
AcDbText
 10
898.4847049197635
 20
-480.8962328177786
 30
0.0
 40
24.384
  1
SUS304
 41
1.104166666666667
  7
ＭＳ ゴシック
100
AcDbText
  0
TEXT
  5
434
330
1F
100
AcDbEntity
  8
F-Fﾚｲﾔ
  6
Continuous
 62
     7
370
     9
100
AcDbText
 10
898.4847049197635
 20
-416.8963185969172
 30
0.0
 40
24.384
  1
SUS304
 41
1.104166666666667
  7
ＭＳ ゴシック
100
AcDbText
  0
TEXT
  5
435
330
1F
100
AcDbEntity
  8
F-Fﾚｲﾔ
  6
Continuous
 62
     7
370
     9
100
AcDbText
 10
898.4847049197635
 20
-352.8962559121621
 30
0.0
 40
24.384
  1
SUS304
 41
1.104166666666667
  7
ＭＳ ゴシック
100
AcDbText
  0
TEXT
  5
436
330
1F
100
AcDbEntity
  8
F-Fﾚｲﾔ
  6
Continuous
 62
     7
370
     9
100
AcDbText
 10
898.4847049197635
 20
-288.8962427153716
 30
0.0
 40
24.384
  1
SUS304
 41
1.104166666666667
  7
ＭＳ ゴシック
100
AcDbText
  0
TEXT
  5
437
330
1F
100
AcDbEntity
  8
F-Fﾚｲﾔ
  6
Continuous
 62
     7
370
     9
100
AcDbText
 10
517.4849688555744
 20
-800.8959523859796
 30
0.0
 40
24.384
  1
本体
 41
1.0625
  7
ＭＳ ゴシック
100
AcDbText
  0
TEXT
  5
438
330
1F
100
AcDbEntity
  8
F-Fﾚｲﾔ
  6
Continuous
 62
     7
370
     9
100
AcDbText
 10
535.4850678315036
 20
-736.8959886771538
 30
0.0
 40
24.384
  1
蓋
  7
ＭＳ ゴシック
100
AcDbText
  0
TEXT
  5
439
330
1F
100
AcDbEntity
  8
F-Fﾚｲﾔ
  6
Continuous
 62
     7
370
     9
100
AcDbText
 10
499.4849688555744
 20
-672.8960249683278
 30
0.0
 40
24.384
  1
支持脚
 41
1.083333333333333
  7
ＭＳ ゴシック
100
AcDbText
  0
TEXT
  5
43A
330
1F
100
AcDbEntity
  8
F-Fﾚｲﾔ
  6
Continuous
 62
     7
370
     9
100
AcDbText
 10
499.4849688555744
 20
-608.8960612595017
 30
0.0
 40
24.384
  1
取水口
 41
1.083333333333333
  7
ＭＳ ゴシック
100
AcDbText
  0
TEXT
  5
43B
330
1F
100
AcDbEntity
  8
F-Fﾚｲﾔ
  6
Continuous
 62
     7
370
     9
100
AcDbText
 10
453.4849688555744
 20
-544.8961470386403
 30
0.0
 40
24.384
  1
オーバーフロー口
 41
0.765625
  7
ＭＳ ゴシック
100
AcDbText
  0
TEXT
  5
43C
330
1F
100
AcDbEntity
  8
F-Fﾚｲﾔ
  6
Continuous
 62
     7
370
     9
100
AcDbText
 10
463.4848698796454
 20
-480.8961338418496
 30
0.0
 40
24.384
  1
取水バルブ
 41
1.1
  7
ＭＳ ゴシック
100
AcDbText
  0
TEXT
  5
43D
330
1F
100
AcDbEntity
  8
F-Fﾚｲﾔ
  6
Continuous
 62
     7
370
     9
100
AcDbText
 10
375.4845399598819
 20
-608.8960612595017
 30
0.0
 40
24.384
  1
４
  7
ＭＳ ゴシック
100
AcDbText
  0
TEXT
  5
43E
330
1F
100
AcDbEntity
  8
F-Fﾚｲﾔ
  6
Continuous
 62
     7
370
     9
100
AcDbText
 10
375.4845399598819
 20
-544.8961470386403
 30
0.0
 40
24.384
  1
５
  7
ＭＳ ゴシック
100
AcDbText
  0
TEXT
  5
43F
330
1F
100
AcDbEntity
  8
F-Fﾚｲﾔ
  6
Continuous
 62
     7
370
     9
100
AcDbText
 10
375.4845399598819
 20
-480.8962328177786
 30
0.0
 40
24.384
  1
６
  7
ＭＳ ゴシック
100
AcDbText
  0
TEXT
  5
440
330
1F
100
AcDbEntity
  8
F-Fﾚｲﾔ
  6
Continuous
 62
     7
370
     9
100
AcDbText
 10
375.4845399598819
 20
-416.8963185969172
 30
0.0
 40
24.384
  1
７
  7
ＭＳ ゴシック
100
AcDbText
  0
TEXT
  5
441
330
1F
100
AcDbEntity
  8
F-Fﾚｲﾔ
  6
Continuous
 62
     7
370
     9
100
AcDbText
 10
375.4845399598819
 20
-352.8962559121621
 30
0.0
 40
24.384
  1
８
  7
ＭＳ ゴシック
100
AcDbText
  0
TEXT
  5
442
330
1F
100
AcDbEntity
  8
F-Fﾚｲﾔ
  6
Continuous
 62
     7
370
     9
100
AcDbText
 10
375.4845399598819
 20
-288.8962427153716
 30
0.0
 40
24.384
  1
９
  7
ＭＳ ゴシック
100
AcDbText
  0
TEXT
  5
443
330
1F
100
AcDbEntity
  8
F-Fﾚｲﾔ
  6
Continuous
 62
     7
370
     9
100
AcDbText
 10
898.4847049197635
 20
-224.896229518581
 30
0.0
 40
24.384
  1
SUS304
 41
1.104166666666667
  7
ＭＳ ゴシック
100
AcDbText
  0
TEXT
  5
444
330
1F
100
AcDbEntity
  8
F-Fﾚｲﾔ
  6
Continuous
 62
     7
370
     9
100
AcDbText
 10
374.4845399598819
 20
-160.8964142736486
 30
0.0
 40
24.384
  1
11
 41
1.0625
  7
ＭＳ ゴシック
100
AcDbText
  0
TEXT
  5
445
330
1F
100
AcDbEntity
  8
F-Fﾚｲﾔ
  6
Continuous
 62
     7
370
     9
100
AcDbText
 10
374.4845399598819
 20
-224.896229518581
 30
0.0
 40
24.384
  1
10
 41
1.0625
  7
ＭＳ ゴシック
100
AcDbText
  0
TEXT
  5
446
330
1F
100
AcDbEntity
  8
F-Fﾚｲﾔ
  6
Continuous
 62
     7
370
     9
100
AcDbText
 10
499.4849688555744
 20
-416.8961206450591
 30
0.0
 40
24.384
  1
排水口
 41
1.083333333333333
  7
ＭＳ ゴシック
100
AcDbText
  0
TEXT
  5
447
330
1F
100
AcDbEntity
  8
F-Fﾚｲﾔ
  6
Continuous
 62
     7
370
     9
100
AcDbText
 10
463.4848698796454
 20
-352.8960579603041
 30
0.0
 40
24.384
  1
バスケット
 41
1.1
  7
ＭＳ ゴシック
100
AcDbText
  0
TEXT
  5
448
330
1F
100
AcDbEntity
  8
F-Fﾚｲﾔ
  6
Continuous
 62
     7
370
     9
100
AcDbText
 10
517.4849688555744
 20
-288.8960447635134
 30
0.0
 40
24.384
  1
把手
 41
1.0625
  7
ＭＳ ゴシック
100
AcDbText
  0
TEXT
  5
449
330
1F
100
AcDbEntity
  8
F-Fﾚｲﾔ
  6
Continuous
 62
     7
370
     9
100
AcDbText
 10
481.4850678315036
 20
-224.8960315667229
 30
0.0
 40
24.384
  1
蝶ナット
 41
1.09375
  7
ＭＳ ゴシック
100
AcDbText
  0
TEXT
  5
44A
330
1F
100
AcDbEntity
  8
F-Fﾚｲﾔ
  6
Continuous
 62
     7
370
     9
100
AcDbText
 10
441.0850678315035
 20
-160.8964142736486
 30
0.0
 40
24.384
  1
ホース接続ソケット
 41
0.7666666666666667
  7
ＭＳ ゴシック
100
AcDbText
  0
TEXT
  5
44B
330
1F
100
AcDbEntity
  8
F-0ﾚｲﾔ
  6
Continuous
 62
     7
370
     9
100
AcDbText
 10
1381.485067831504
 20
-864.8960645586994
 30
0.0
 40
24.384
  1
備　　考
 41
1.09375
  7
ＭＳ ゴシック
100
AcDbText
  0
TEXT
  5
44C
330
1F
100
AcDbEntity
  8
F-Fﾚｲﾔ
  6
Continuous
 62
     7
370
     9
100
AcDbText
 10
1363.484869879645
 20
-736.8959886771538
 30
0.0
 40
24.384
  1
ｔ＝１．５
 41
1.1
  7
ＭＳ ゴシック
100
AcDbText
  0
TEXT
  5
44D
330
1F
100
AcDbEntity
  8
F-Fﾚｲﾔ
  6
Continuous
 62
     7
370
     9
100
AcDbText
 10
917.4847049197635
 20
-160.8964142736486
 30
0.0
 40
24.384
  1
塩ビ
 41
1.0625
  7
ＭＳ ゴシック
100
AcDbText
  0
TEXT
  5
44E
330
1F
100
AcDbEntity
  8
F-Fﾚｲﾔ
  6
Continuous
 62
     7
370
     9
100
AcDbText
 10
719.4849028716219
 20
-608.8961107474661
 30
0.0
 40
24.384
  1
５０Ａ
 41
1.083333333333333
  7
ＭＳ ゴシック
100
AcDbText
  0
TEXT
  5
44F
330
1F
100
AcDbEntity
  8
F-Fﾚｲﾔ
  6
Continuous
 62
     7
370
     9
100
AcDbText
 10
719.4849028716219
 20
-544.8961470386403
 30
0.0
 40
24.384
  1
５０Ａ
 41
1.083333333333333
  7
ＭＳ ゴシック
100
AcDbText
  0
TEXT
  5
450
330
1F
100
AcDbEntity
  8
F-Fﾚｲﾔ
  6
Continuous
 62
     7
370
     9
100
AcDbText
 10
719.4849028716219
 20
-480.8961833298142
 30
0.0
 40
24.384
  1
２５Ａ
 41
1.083333333333333
  7
ＭＳ ゴシック
100
AcDbText
  0
TEXT
  5
451
330
1F
100
AcDbEntity
  8
F-Fﾚｲﾔ
  6
Continuous
 62
     7
370
     9
100
AcDbText
 10
719.4849028716219
 20
-416.8961206450591
 30
0.0
 40
24.384
  1
５０Ａ
 41
1.083333333333333
  7
ＭＳ ゴシック
100
AcDbText
  0
TEXT
  5
452
330
1F
100
AcDbEntity
  8
F-Fﾚｲﾔ
  6
Continuous
 62
     7
370
     9
100
AcDbText
 10
719.4849028716219
 20
-160.8962163217905
 30
0.0
 40
24.384
  1
１５Ａ
 41
1.083333333333333
  7
ＭＳ ゴシック
100
AcDbText
  0
TEXT
  5
453
330
1F
100
AcDbEntity
  8
F-0ﾚｲﾔ
  6
Continuous
 62
     7
370
     9
100
AcDbText
 10
1277.48510082348
 20
-864.8960645586994
 30
0.0
 40
24.384
  1
数量
 41
1.0625
  7
ＭＳ ゴシック
100
AcDbText
  0
TEXT
  5
454
330
1F
100
AcDbEntity
  8
F-0ﾚｲﾔ
  6
Continuous
 62
     7
370
     9
100
AcDbText
 10
1081.484869879645
 20
-864.8960645586994
 30
0.0
 40
24.384
  1
処　　理
 41
1.09375
  7
ＭＳ ゴシック
100
AcDbText
  0
TEXT
  5
455
330
1F
100
AcDbEntity
  8
F-Fﾚｲﾔ
  6
Continuous
 62
     7
370
     9
100
AcDbText
 10
682.4850018475506
 20
-672.8960249683278
 30
0.0
 40
24.384
  1
L40×40×3
 41
1.1125
  7
ＭＳ ゴシック
100
AcDbText
  0
TEXT
  5
456
330
1F
100
AcDbEntity
  8
F-Fﾚｲﾔ
  6
Continuous
 62
     7
370
     9
100
AcDbText
 10
1378.284968855575
 20
-480.8961833298142
 30
0.0
 40
24.384
  1
ボールバルブ
 41
0.7625000000000005
  7
ＭＳ ゴシック
100
AcDbText
  0
TEXT
  5
457
330
1F
100
AcDbEntity
  8
F-Fﾚｲﾔ
  6
Continuous
 62
     7
370
     9
100
AcDbText
 10
374.4845399598819
 20
-96.89659902871625
 30
0.0
 40
24.384
  1
12
 41
1.0625
  7
ＭＳ ゴシック
100
AcDbText
  0
TEXT
  5
458
330
1F
100
AcDbEntity
  8
F-Fﾚｲﾔ
  6
Continuous
 62
     7
370
     9
100
AcDbText
 10
481.4850678315036
 20
-96.89650005278708
 30
0.0
 40
24.384
  1
蓋止ピン
 41
1.09375
  7
ＭＳ ゴシック
100
AcDbText
  0
TEXT
  5
459
330
1F
100
AcDbEntity
  8
F-Fﾚｲﾔ
  6
Continuous
 62
     7
370
     9
100
AcDbText
 10
737.4849028716217
 20
-96.89650005278708
 30
0.0
 40
24.384
  1
Φ８
 41
1.0625
  7
ＭＳ ゴシック
100
AcDbText
  0
TEXT
  5
45A
330
1F
100
AcDbEntity
  8
F-Fﾚｲﾔ
  6
Continuous
 62
     7
370
     9
100
AcDbText
 10
898.4847049197635
 20
-96.89640107685813
 30
0.0
 40
24.384
  1
SUS304
 41
1.104166666666667
  7
ＭＳ ゴシック
100
AcDbText
  0
TEXT
  5
45B
330
1F
100
AcDbEntity
  8
F-Fﾚｲﾔ
  6
Continuous
 62
     7
370
     9
100
AcDbText
 10
-485.0319032411317
 20
-1053.758344502217
 30
0.0
 40
24.384
  1
雨ボトル（雨水貯水タンク）　ＡＢ２００
 41
1.118421052631579
  7
ＭＳ ゴシック
100
AcDbText
  0
TEXT
  5
45C
330
1F
100
AcDbEntity
  8
その他
  6
Continuous
 62
     7
370
     9
100
AcDbText
 10
-538.721145217483
 20
-80.16620286106416
 30
0.0
 40
24.384
  1
150
 41
1.083333333333333
  7
ＭＳ ゴシック
100
AcDbText
  0
ENDSEC
  0
SECTION
  2
OBJECTS
  0
DICTIONARY
  5
C
330
0
100
AcDbDictionary
281
     1
  3
ACAD_GROUP
350
D
  3
ACAD_LAYOUT
350
1A
  3
ACAD_MLEADERSTYLE
350
45E
  3
ACAD_MLINESTYLE
350
17
  3
ACAD_PLOTSETTINGS
350
19
  3
ACAD_PLOTSTYLENAME
350
E
  3
ACAD_TABLESTYLE
350
45D
  3
ACAD_VISUALSTYLE
350
2A
  0
DICTIONARY
  5
D
102
{ACAD_REACTORS
330
C
102
}
330
C
100
AcDbDictionary
281
     1
  0
DICTIONARY
  5
1A
102
{ACAD_REACTORS
330
C
102
}
330
C
100
AcDbDictionary
281
     1
  3
Layout1
350
1E
  3
Layout2
350
26
  3
Model
350
22
  0
DICTIONARY
  5
45E
102
{ACAD_REACTORS
330
C
102
}
330
C
100
AcDbDictionary
281
     1
  0
DICTIONARY
  5
17
102
{ACAD_REACTORS
330
C
102
}
330
C
100
AcDbDictionary
281
     1
  3
Standard
350
18
  0
DICTIONARY
  5
19
102
{ACAD_REACTORS
330
C
102
}
330
C
100
AcDbDictionary
281
     1
  0
ACDBDICTIONARYWDFLT
  5
E
102
{ACAD_REACTORS
330
C
102
}
330
C
100
AcDbDictionary
281
     1
  3
Normal
350
F
100
AcDbDictionaryWithDefault
340
F
  0
DICTIONARY
  5
45D
102
{ACAD_REACTORS
330
C
102
}
330
C
100
AcDbDictionary
281
     1
  0
DICTIONARY
  5
2A
102
{ACAD_REACTORS
330
C
102
}
330
C
100
AcDbDictionary
281
     1
  3
2dWireframe
350
2F
  3
3D Hidden
350
31
  3
3dWireframe
350
30
  3
Basic
350
32
  3
Brighten
350
36
  3
ColorChange
350
3A
  3
Conceptual
350
34
  3
Dim
350
35
  3
Facepattern
350
39
  3
Flat
350
2B
  3
FlatWithEdges
350
2C
  3
Gouraud
350
2D
  3
GouraudWithEdges
350
2E
  3
Linepattern
350
38
  3
Realistic
350
33
  3
Thicken
350
37
  0
LAYOUT
  5
1E
102
{ACAD_REACTORS
330
1A
102
}
330
1A
100
AcDbPlotSettings
  1

  2
none_device
  4

  6

 40
0.0
 41
0.0
 42
0.0
 43
0.0
 44
0.0
 45
0.0
 46
0.0
 47
0.0
 48
0.0
 49
0.0
140
0.0
141
0.0
142
1.0
143
1.0
 70
   688
 72
     0
 73
     0
 74
     5
  7

 75
    16
 76
     0
 77
     5
 78
   300
147
1.0
148
0.0
149
0.0
100
AcDbLayout
  1
Layout1
 70
     1
 71
     1
 10
0.0
 20
0.0
 11
420.0
 21
297.0
 12
0.0
 22
0.0
 32
0.0
 14
1.000000000000000E+20
 24
1.000000000000000E+20
 34
1.000000000000000E+20
 15
-1.000000000000000E+20
 25
-1.000000000000000E+20
 35
-1.000000000000000E+20
146
0.0
 13
0.0
 23
0.0
 33
0.0
 16
1.0
 26
0.0
 36
0.0
 17
0.0
 27
1.0
 37
0.0
 76
     0
330
1B
  0
LAYOUT
  5
26
102
{ACAD_REACTORS
330
1A
102
}
330
1A
100
AcDbPlotSettings
  1

  2
none_device
  4

  6

 40
0.0
 41
0.0
 42
0.0
 43
0.0
 44
0.0
 45
0.0
 46
0.0
 47
0.0
 48
0.0
 49
0.0
140
0.0
141
0.0
142
1.0
143
1.0
 70
   688
 72
     0
 73
     0
 74
     5
  7

 75
    16
 76
     0
 77
     5
 78
   300
147
1.0
148
0.0
149
0.0
100
AcDbLayout
  1
Layout2
 70
     1
 71
     2
 10
0.0
 20
0.0
 11
0.0
 21
0.0
 12
0.0
 22
0.0
 32
0.0
 14
0.0
 24
0.0
 34
0.0
 15
0.0
 25
0.0
 35
0.0
146
0.0
 13
0.0
 23
0.0
 33
0.0
 16
1.0
 26
0.0
 36
0.0
 17
0.0
 27
1.0
 37
0.0
 76
     0
330
23
  0
LAYOUT
  5
22
102
{ACAD_REACTORS
330
1A
102
}
330
1A
100
AcDbPlotSettings
  1

  2
none_device
  4

  6

 40
0.0
 41
0.0
 42
0.0
 43
0.0
 44
0.0
 45
0.0
 46
0.0
 47
0.0
 48
0.0
 49
0.0
140
0.0
141
0.0
142
1.0
143
1.0
 70
  1712
 72
     0
 73
     0
 74
     0
  7

 75
     0
 76
     0
 77
     5
 78
   300
147
1.0
148
0.0
149
0.0
100
AcDbLayout
  1
Model
 70
     1
 71
     0
 10
-1680.0
 20
-1188.0
 11
1680.0
 21
1188.0
 12
0.0
 22
0.0
 32
0.0
 14
-1680.0
 24
-1188.0
 34
0.0
 15
1680.0
 25
1188.0
 35
0.0
146
0.0
 13
0.0
 23
0.0
 33
0.0
 16
1.0
 26
0.0
 36
0.0
 17
0.0
 27
1.0
 37
0.0
 76
     0
330
1F
331
29
  0
MLINESTYLE
  5
18
102
{ACAD_REACTORS
330
17
102
}
330
17
100
AcDbMlineStyle
  2
Standard
 70
     0
  3

 62
   256
 51
90.0
 52
90.0
 71
     2
 49
0.5
 62
   256
  6
BYLAYER
 49
-0.5
 62
   256
  6
BYLAYER
  0
ACDBPLACEHOLDER
  5
F
102
{ACAD_REACTORS
330
E
102
}
330
E
  0
VISUALSTYLE
  5
2F
102
{ACAD_REACTORS
330
2A
102
}
330
2A
100
AcDbVisualStyle
  2
2dWireframe
 70
     4
 71
     0
 72
     2
 73
     0
 90
        0
 40
-0.6
 41
-30.0
 62
     5
 63
     7
421
 16777215
 74
     1
 91
        4
 64
     7
 65
   257
 75
     1
175
     1
 42
1.0
 92
        0
 66
   257
 43
1.0
 76
     1
 77
     6
 78
     2
 67
     7
 79
     5
170
     0
171
     0
290
     0
174
     0
 93
        1
 44
0.0
173
     0
291
     0
 45
0.0
1001
ACAD
1000
AcDbSavedByObjectVersion
1070
     0
  0
VISUALSTYLE
  5
31
102
{ACAD_REACTORS
330
2A
102
}
330
2A
100
AcDbVisualStyle
  2
3D Hidden
 70
     6
 71
     1
 72
     2
 73
     2
 90
        0
 40
-0.6
 41
-30.0
 62
     5
 63
     7
421
 16777215
 74
     2
 91
        2
 64
     7
 65
   257
 75
     2
175
     1
 42
40.0
 92
        0
 66
   257
 43
1.0
 76
     1
 77
     6
 78
     2
 67
     7
 79
     3
170
     0
171
     0
290
     0
174
     0
 93
        1
 44
0.0
173
     0
291
     0
 45
0.0
1001
ACAD
1000
AcDbSavedByObjectVersion
1070
     0
  0
VISUALSTYLE
  5
30
102
{ACAD_REACTORS
330
2A
102
}
330
2A
100
AcDbVisualStyle
  2
3dWireframe
 70
     5
 71
     0
 72
     2
 73
     0
 90
        0
 40
-0.6
 41
-30.0
 62
     5
 63
     7
421
 16777215
 74
     1
 91
        4
 64
     7
 65
   257
 75
     1
175
     1
 42
1.0
 92
        0
 66
   257
 43
1.0
 76
     1
 77
     6
 78
     2
 67
     7
 79
     5
170
     0
171
     0
290
     0
174
     0
 93
        1
 44
0.0
173
     0
291
     0
 45
0.0
1001
ACAD
1000
AcDbSavedByObjectVersion
1070
     0
  0
VISUALSTYLE
  5
32
102
{ACAD_REACTORS
330
2A
102
}
330
2A
100
AcDbVisualStyle
  2
Basic
 70
     7
 71
     1
 72
     0
 73
     1
 90
        0
 40
-0.6
 41
-30.0
 62
     5
 63
     7
421
 16777215
 74
     0
 91
        4
 64
     7
 65
   257
 75
     1
175
     1
 42
1.0
 92
        8
 66
     7
 43
1.0
 76
     1
 77
     6
 78
     2
 67
     7
 79
     5
170
     0
171
     0
290
     0
174
     0
 93
        1
 44
0.0
173
     0
291
     1
 45
0.0
1001
ACAD
1000
AcDbSavedByObjectVersion
1070
     0
  0
VISUALSTYLE
  5
36
102
{ACAD_REACTORS
330
2A
102
}
330
2A
100
AcDbVisualStyle
  2
Brighten
 70
    12
 71
     2
 72
     2
 73
     0
 90
        0
 40
-0.6
 41
-30.0
 62
     5
 63
     7
421
 16777215
 74
     1
 91
        4
 64
     7
 65
   257
 75
     1
175
     1
 42
1.0
 92
        8
 66
     7
 43
1.0
 76
     1
 77
     6
 78
     2
 67
     7
 79
     5
170
     0
171
     0
290
     0
174
     0
 93
        1
 44
50.0
173
     0
291
     1
 45
0.0
1001
ACAD
1000
AcDbSavedByObjectVersion
1070
     0
  0
VISUALSTYLE
  5
3A
102
{ACAD_REACTORS
330
2A
102
}
330
2A
100
AcDbVisualStyle
  2
ColorChange
 70
    16
 71
     2
 72
     2
 73
     3
 90
        0
 40
-0.6
 41
-30.0
 62
     5
 63
     8
421
  8421504
 74
     1
 91
        4
 64
     7
 65
   257
 75
     1
175
     1
 42
1.0
 92
        8
 66
     8
424
  8421504
 43
1.0
 76
     1
 77
     6
 78
     2
 67
     7
 79
     5
170
     0
171
     0
290
     0
174
     0
 93
        1
 44
0.0
173
     0
291
     1
 45
0.0
1001
ACAD
1000
AcDbSavedByObjectVersion
1070
     0
  0
VISUALSTYLE
  5
34
102
{ACAD_REACTORS
330
2A
102
}
330
2A
100
AcDbVisualStyle
  2
Conceptual
 70
     9
 71
     3
 72
     2
 73
     0
 90
        0
 40
-0.6
 41
-30.0
 62
     5
 63
     7
421
 16777215
 74
     2
 91
        2
 64
     7
 65
   257
 75
     1
175
     1
 42
40.0
 92
        8
 66
     7
 43
1.0
 76
     1
 77
     6
 78
     2
 67
     7
 79
     3
170
     0
171
     0
290
     0
174
     0
 93
        1
 44
0.0
173
     0
291
     0
 45
0.0
1001
ACAD
1000
AcDbSavedByObjectVersion
1070
     0
  0
VISUALSTYLE
  5
35
102
{ACAD_REACTORS
330
2A
102
}
330
2A
100
AcDbVisualStyle
  2
Dim
 70
    11
 71
     2
 72
     2
 73
     0
 90
        0
 40
-0.6
 41
-30.0
 62
     5
 63
     7
421
 16777215
 74
     1
 91
        4
 64
     7
 65
   257
 75
     1
175
     1
 42
1.0
 92
        8
 66
     7
 43
1.0
 76
     1
 77
     6
 78
     2
 67
     7
 79
     5
170
     0
171
     0
290
     0
174
     0
 93
        1
 44
-50.0
173
     0
291
     1
 45
0.0
1001
ACAD
1000
AcDbSavedByObjectVersion
1070
     0
  0
VISUALSTYLE
  5
39
102
{ACAD_REACTORS
330
2A
102
}
330
2A
100
AcDbVisualStyle
  2
Facepattern
 70
    15
 71
     2
 72
     2
 73
     0
 90
        0
 40
-0.6
 41
-30.0
 62
     5
 63
     7
421
 16777215
 74
     1
 91
        4
 64
     7
 65
   257
 75
     1
175
     1
 42
1.0
 92
        8
 66
     7
 43
1.0
 76
     1
 77
     6
 78
     2
 67
     7
 79
     5
170
     0
171
     0
290
     0
174
     0
 93
        1
 44
0.0
173
     0
291
     1
 45
0.0
1001
ACAD
1000
AcDbSavedByObjectVersion
1070
     0
  0
VISUALSTYLE
  5
2B
102
{ACAD_REACTORS
330
2A
102
}
330
2A
100
AcDbVisualStyle
  2
Flat
 70
     0
 71
     2
 72
     1
 73
     1
 90
        2
 40
-0.6
 41
30.0
 62
     5
 63
     7
421
 16777215
 74
     0
 91
        4
 64
     7
 65
   257
 75
     1
175
     1
 42
1.0
 92
        8
 66
     7
 43
1.0
 76
     1
 77
     6
 78
     2
 67
     7
 79
     5
170
     0
171
     0
290
     0
174
     0
 93
       13
 44
0.0
173
     0
291
     1
 45
0.0
1001
ACAD
1000
AcDbSavedByObjectVersion
1070
     0
  0
VISUALSTYLE
  5
2C
102
{ACAD_REACTORS
330
2A
102
}
330
2A
100
AcDbVisualStyle
  2
FlatWithEdges
 70
     1
 71
     2
 72
     1
 73
     1
 90
        2
 40
-0.6
 41
30.0
 62
     5
 63
     7
421
 16777215
 74
     1
 91
        4
 64
     7
 65
   257
 75
     1
175
     1
 42
1.0
 92
        0
 66
   257
 43
1.0
 76
     1
 77
     6
 78
     2
 67
     7
 79
     5
170
     0
171
     0
290
     0
174
     0
 93
       13
 44
0.0
173
     0
291
     1
 45
0.0
1001
ACAD
1000
AcDbSavedByObjectVersion
1070
     0
  0
VISUALSTYLE
  5
2D
102
{ACAD_REACTORS
330
2A
102
}
330
2A
100
AcDbVisualStyle
  2
Gouraud
 70
     2
 71
     2
 72
     2
 73
     1
 90
        2
 40
-0.6
 41
30.0
 62
     5
 63
     7
421
 16777215
 74
     0
 91
        4
 64
     7
 65
   257
 75
     1
175
     1
 42
1.0
 92
        0
 66
     7
 43
1.0
 76
     1
 77
     6
 78
     2
 67
     7
 79
     5
170
     0
171
     0
290
     0
174
     0
 93
       13
 44
0.0
173
     0
291
     1
 45
0.0
1001
ACAD
1000
AcDbSavedByObjectVersion
1070
     0
  0
VISUALSTYLE
  5
2E
102
{ACAD_REACTORS
330
2A
102
}
330
2A
100
AcDbVisualStyle
  2
GouraudWithEdges
 70
     3
 71
     2
 72
     2
 73
     1
 90
        2
 40
-0.6
 41
30.0
 62
     5
 63
     7
421
 16777215
 74
     1
 91
        4
 64
     7
 65
   257
 75
     1
175
     1
 42
1.0
 92
        0
 66
   257
 43
1.0
 76
     1
 77
     6
 78
     2
 67
     7
 79
     5
170
     0
171
     0
290
     0
174
     0
 93
       13
 44
0.0
173
     0
291
     1
 45
0.0
1001
ACAD
1000
AcDbSavedByObjectVersion
1070
     0
  0
VISUALSTYLE
  5
38
102
{ACAD_REACTORS
330
2A
102
}
330
2A
100
AcDbVisualStyle
  2
Linepattern
 70
    14
 71
     2
 72
     2
 73
     0
 90
        0
 40
-0.6
 41
-30.0
 62
     5
 63
     7
421
 16777215
 74
     1
 91
        4
 64
     7
 65
   257
 75
     7
175
     7
 42
1.0
 92
        8
 66
     7
 43
1.0
 76
     1
 77
     6
 78
     2
 67
     7
 79
     5
170
     0
171
     0
290
     0
174
     0
 93
        1
 44
0.0
173
     0
291
     1
 45
0.0
1001
ACAD
1000
AcDbSavedByObjectVersion
1070
     0
  0
VISUALSTYLE
  5
33
102
{ACAD_REACTORS
330
2A
102
}
330
2A
100
AcDbVisualStyle
  2
Realistic
 70
     8
 71
     2
 72
     2
 73
     0
 90
        0
 40
-0.6
 41
-30.0
 62
     5
 63
     7
421
 16777215
 74
     1
 91
        0
 64
     7
 65
   257
 75
     1
175
     1
 42
1.0
 92
        8
 66
     8
424
  7895160
 43
1.0
 76
     1
 77
     6
 78
     2
 67
     7
 79
     5
170
     0
171
     0
290
     0
174
     0
 93
       13
 44
0.0
173
     0
291
     0
 45
0.0
1001
ACAD
1000
AcDbSavedByObjectVersion
1070
     0
  0
VISUALSTYLE
  5
37
102
{ACAD_REACTORS
330
2A
102
}
330
2A
100
AcDbVisualStyle
  2
Thicken
 70
    13
 71
     2
 72
     2
 73
     0
 90
        0
 40
-0.6
 41
-30.0
 62
     5
 63
     7
421
 16777215
 74
     1
 91
        4
 64
     7
 65
   257
 75
     1
175
     1
 42
1.0
 92
       12
 66
     7
 43
1.0
 76
     1
 77
     6
 78
     2
 67
     7
 79
     5
170
     0
171
     0
290
     0
174
     0
 93
        1
 44
0.0
173
     0
291
     1
 45
0.0
1001
ACAD
1000
AcDbSavedByObjectVersion
1070
     0
  0
ENDSEC
  0
EOF
