  0
SECTION
  2
HEADER
  9
$ACADVER
  1
AC1018
  9
$ACADMAINTVER
 70
     0
  9
$DWGCODEPAGE
  3
ANSI_932
  9
$INSBASE
 10
0.0
 20
0.0
 30
0.0
  9
$EXTMIN
 10
-2100.0
 20
-1485.0
 30
0.0
  9
$EXTMAX
 10
2100.0
 20
1485.0
 30
0.0
  9
$LIMMIN
 10
-2100.0
 20
-1485.0
  9
$LIMMAX
 10
2100.0
 20
1485.0
  9
$ORTHOMODE
 70
     0
  9
$REGENMODE
 70
     1
  9
$FILLMODE
 70
     1
  9
$QTEXTMODE
 70
     0
  9
$MIRRTEXT
 70
     1
  9
$LTSCALE
 40
10.0
  9
$ATTMODE
 70
     1
  9
$TEXTSIZE
 40
2.5
  9
$TRACEWID
 40
1.0
  9
$TEXTSTYLE
  7
Standard
  9
$CLAYER
  8
0
  9
$CELTYPE
  6
ByLayer
  9
$CECOLOR
 62
   256
  9
$CELTSCALE
 40
1.0
  9
$DISPSILH
 70
     0
  9
$DIMSCALE
 40
1.0
  9
$DIMASZ
 40
2.5
  9
$DIMEXO
 40
0.625
  9
$DIMDLI
 40
3.75
  9
$DIMRND
 40
0.0
  9
$DIMDLE
 40
0.0
  9
$DIMEXE
 40
1.25
  9
$DIMTP
 40
0.0
  9
$DIMTM
 40
0.0
  9
$DIMTXT
 40
2.5
  9
$DIMCEN
 40
2.5
  9
$DIMTSZ
 40
0.0
  9
$DIMTOL
 70
     0
  9
$DIMLIM
 70
     0
  9
$DIMTIH
 70
     0
  9
$DIMTOH
 70
     0
  9
$DIMSE1
 70
     0
  9
$DIMSE2
 70
     0
  9
$DIMTAD
 70
     1
  9
$DIMZIN
 70
     8
  9
$DIMBLK
  1

  9
$DIMASO
 70
     1
  9
$DIMSHO
 70
     1
  9
$DIMPOST
  1

  9
$DIMAPOST
  1

  9
$DIMALT
 70
     0
  9
$DIMALTD
 70
     3
  9
$DIMALTF
 40
0.03937007874016
  9
$DIMLFAC
 40
1.0
  9
$DIMTOFL
 70
     1
  9
$DIMTVP
 40
0.0
  9
$DIMTIX
 70
     0
  9
$DIMSOXD
 70
     0
  9
$DIMSAH
 70
     0
  9
$DIMBLK1
  1

  9
$DIMBLK2
  1

  9
$DIMSTYLE
  2
ISO-25
  9
$DIMCLRD
 70
     0
  9
$DIMCLRE
 70
     0
  9
$DIMCLRT
 70
     0
  9
$DIMTFAC
 40
1.0
  9
$DIMGAP
 40
0.625
  9
$DIMJUST
 70
     0
  9
$DIMSD1
 70
     0
  9
$DIMSD2
 70
     0
  9
$DIMTOLJ
 70
     0
  9
$DIMTZIN
 70
     8
  9
$DIMALTZ
 70
     0
  9
$DIMALTTZ
 70
     0
  9
$DIMUPT
 70
     0
  9
$DIMDEC
 70
     2
  9
$DIMTDEC
 70
     2
  9
$DIMALTU
 70
     2
  9
$DIMALTTD
 70
     3
  9
$DIMTXSTY
  7
Standard
  9
$DIMAUNIT
 70
     0
  9
$DIMADEC
 70
     0
  9
$DIMALTRND
 40
0.0
  9
$DIMAZIN
 70
     0
  9
$DIMDSEP
 70
    44
  9
$DIMATFIT
 70
     3
  9
$DIMFRAC
 70
     0
  9
$DIMLDRBLK
  1

  9
$DIMLUNIT
 70
     2
  9
$DIMLWD
 70
    -2
  9
$DIMLWE
 70
    -2
  9
$DIMTMOVE
 70
     0
  9
$LUNITS
 70
     2
  9
$LUPREC
 70
     4
  9
$SKETCHINC
 40
1.0
  9
$FILLETRAD
 40
10.0
  9
$AUNITS
 70
     0
  9
$AUPREC
 70
     0
  9
$MENU
  1
.
  9
$ELEVATION
 40
0.0
  9
$PELEVATION
 40
0.0
  9
$THICKNESS
 40
0.0
  9
$LIMCHECK
 70
     0
  9
$CHAMFERA
 40
10.0
  9
$CHAMFERB
 40
10.0
  9
$CHAMFERC
 40
20.0
  9
$CHAMFERD
 40
0.0
  9
$SKPOLY
 70
     0
  9
$TDCREATE
 40
2457539.730692234
  9
$TDUCREATE
 40
2457539.355692234
  9
$TDUPDATE
 40
2457539.730692246
  9
$TDUUPDATE
 40
2457539.355692246
  9
$TDINDWG
 40
0.0000000116
  9
$TDUSRTIMER
 40
0.0000000116
  9
$USRTIMER
 70
     1
  9
$ANGBASE
 50
0.0
  9
$ANGDIR
 70
     0
  9
$PDMODE
 70
     0
  9
$PDSIZE
 40
0.0
  9
$PLINEWID
 40
0.0
  9
$SPLFRAME
 70
     0
  9
$SPLINETYPE
 70
     6
  9
$SPLINESEGS
 70
     8
  9
$HANDSEED
  5
4D4
  9
$SURFTAB1
 70
     6
  9
$SURFTAB2
 70
     6
  9
$SURFTYPE
 70
     6
  9
$SURFU
 70
     6
  9
$SURFV
 70
     6
  9
$UCSBASE
  2

  9
$UCSNAME
  2

  9
$UCSORG
 10
0.0
 20
0.0
 30
0.0
  9
$UCSXDIR
 10
1.0
 20
0.0
 30
0.0
  9
$UCSYDIR
 10
0.0
 20
1.0
 30
0.0
  9
$UCSORTHOREF
  2

  9
$UCSORTHOVIEW
 70
     0
  9
$UCSORGTOP
 10
0.0
 20
0.0
 30
0.0
  9
$UCSORGBOTTOM
 10
0.0
 20
0.0
 30
0.0
  9
$UCSORGLEFT
 10
0.0
 20
0.0
 30
0.0
  9
$UCSORGRIGHT
 10
0.0
 20
0.0
 30
0.0
  9
$UCSORGFRONT
 10
0.0
 20
0.0
 30
0.0
  9
$UCSORGBACK
 10
0.0
 20
0.0
 30
0.0
  9
$PUCSBASE
  2

  9
$PUCSNAME
  2

  9
$PUCSORG
 10
0.0
 20
0.0
 30
0.0
  9
$PUCSXDIR
 10
1.0
 20
0.0
 30
0.0
  9
$PUCSYDIR
 10
0.0
 20
1.0
 30
0.0
  9
$PUCSORTHOREF
  2

  9
$PUCSORTHOVIEW
 70
     0
  9
$PUCSORGTOP
 10
0.0
 20
0.0
 30
0.0
  9
$PUCSORGBOTTOM
 10
0.0
 20
0.0
 30
0.0
  9
$PUCSORGLEFT
 10
0.0
 20
0.0
 30
0.0
  9
$PUCSORGRIGHT
 10
0.0
 20
0.0
 30
0.0
  9
$PUCSORGFRONT
 10
0.0
 20
0.0
 30
0.0
  9
$PUCSORGBACK
 10
0.0
 20
0.0
 30
0.0
  9
$USERI1
 70
     0
  9
$USERI2
 70
     0
  9
$USERI3
 70
     0
  9
$USERI4
 70
     0
  9
$USERI5
 70
     0
  9
$USERR1
 40
0.0
  9
$USERR2
 40
0.0
  9
$USERR3
 40
0.0
  9
$USERR4
 40
0.0
  9
$USERR5
 40
0.0
  9
$WORLDVIEW
 70
     1
  9
$SHADEDGE
 70
     3
  9
$SHADEDIF
 70
    70
  9
$TILEMODE
 70
     1
  9
$MAXACTVP
 70
    64
  9
$PINSBASE
 10
0.0
 20
0.0
 30
0.0
  9
$PLIMCHECK
 70
     0
  9
$PEXTMIN
 10
1.000000000000000E+20
 20
1.000000000000000E+20
 30
1.000000000000000E+20
  9
$PEXTMAX
 10
-1.000000000000000E+20
 20
-1.000000000000000E+20
 30
-1.000000000000000E+20
  9
$PLIMMIN
 10
0.0
 20
0.0
  9
$PLIMMAX
 10
420.0
 20
297.0
  9
$UNITMODE
 70
     0
  9
$VISRETAIN
 70
     1
  9
$PLINEGEN
 70
     0
  9
$PSLTSCALE
 70
     1
  9
$TREEDEPTH
 70
  3020
  9
$CMLSTYLE
  2
Standard
  9
$CMLJUST
 70
     0
  9
$CMLSCALE
 40
20.0
  9
$PROXYGRAPHICS
 70
     1
  9
$MEASUREMENT
 70
     1
  9
$CELWEIGHT
370
    -1
  9
$ENDCAPS
280
     0
  9
$JOINSTYLE
280
     0
  9
$LWDISPLAY
290
     0
  9
$INSUNITS
 70
     4
  9
$HYPERLINKBASE
  1

  9
$STYLESHEET
  1

  9
$XEDIT
290
     1
  9
$CEPSNTYPE
380
     0
  9
$PSTYLEMODE
290
     1
  9
$FINGERPRINTGUID
  2
{44DEF212-15FF-4F14-A0DE-176D4D91C330}
  9
$VERSIONGUID
  2
{FAEB1C32-E019-11D5-929B-00C0DF256EC4}
  9
$EXTNAMES
290
     1
  9
$PSVPSCALE
 40
0.0
  9
$OLESTARTUP
290
     0
  9
$SORTENTS
280
   127
  9
$INDEXCTL
280
     0
  9
$HIDETEXT
280
     1
  9
$XCLIPFRAME
290
     0
  9
$HALOGAP
280
     0
  9
$OBSCOLOR
 70
   257
  9
$OBSLTYPE
280
     0
  9
$INTERSECTIONDISPLAY
280
     0
  9
$INTERSECTIONCOLOR
 70
   257
  9
$DIMASSOC
280
     2
  9
$PROJECTNAME
  1

  0
ENDSEC
  0
SECTION
  2
CLASSES
  0
CLASS
  1
ACDBDICTIONARYWDFLT
  2
AcDbDictionaryWithDefault
  3
ObjectDBX Classes
 90
        0
 91
        4
280
     0
281
     0
  0
CLASS
  1
VISUALSTYLE
  2
AcDbVisualStyle
  3
ObjectDBX Classes
 90
     4095
 91
        4
280
     0
281
     0
  0
ENDSEC
  0
SECTION
  2
TABLES
  0
TABLE
  2
VPORT
  5
8
330
0
100
AcDbSymbolTable
 70
     1
  0
VPORT
  5
29
330
8
100
AcDbSymbolTableRecord
100
AcDbViewportTableRecord
  2
*Active
 70
     0
 10
0.0
 20
0.0
 11
1.0
 21
1.0
 12
0.0
 22
0.0
 13
0.0
 23
0.0
 14
10.0
 24
10.0
 15
10.0
 25
10.0
 16
0.0
 26
0.0
 36
1.0
 17
0.0
 27
0.0
 37
0.0
 40
3267.0
 41
1.414141414141414
 42
50.0
 43
0.0
 44
0.0
 50
0.0
 51
0.0
 71
     0
 72
 10000
 73
     1
 74
     3
 75
     0
 76
     0
 77
     0
 78
     0
281
     0
 65
     1
110
0.0
120
0.0
130
0.0
111
1.0
121
0.0
131
0.0
112
0.0
122
1.0
132
0.0
 79
     0
146
0.0
  0
ENDTAB
  0
TABLE
  2
LTYPE
  5
5
330
0
100
AcDbSymbolTable
 70
     6
  0
LTYPE
  5
14
330
5
100
AcDbSymbolTableRecord
100
AcDbLinetypeTableRecord
  2
ByBlock
 70
     0
  3

 72
    65
 73
     0
 40
0.0
  0
LTYPE
  5
15
330
5
100
AcDbSymbolTableRecord
100
AcDbLinetypeTableRecord
  2
ByLayer
 70
     0
  3

 72
    65
 73
     0
 40
0.0
  0
LTYPE
  5
16
330
5
100
AcDbSymbolTableRecord
100
AcDbLinetypeTableRecord
  2
Continuous
 70
     0
  3
Solid line
 72
    65
 73
     0
 40
0.0
  0
LTYPE
  5
3C
330
5
100
AcDbSymbolTableRecord
100
AcDbLinetypeTableRecord
  2
JWW_DASHED1
 70
     0
  3
-  --  --  --  --  --  --  --  -
 72
    65
 73
     2
 40
1.693333333333333
 49
0.8466666666666667
 74
     0
 49
-0.8466666666666667
 74
     0
  0
LTYPE
  5
3D
330
5
100
AcDbSymbolTableRecord
100
AcDbLinetypeTableRecord
  2
JWW_CENTER1
 70
     0
  3
-----  --  ----------  --  -----
 72
    65
 73
     4
 40
6.773333333333333
 49
4.233333333333333
 74
     0
 49
-0.8466666666666667
 74
     0
 49
0.8466666666666667
 74
     0
 49
-0.8466666666666667
 74
     0
  0
LTYPE
  5
3E
330
5
100
AcDbSymbolTableRecord
100
AcDbLinetypeTableRecord
  2
JWW_CENTER2
 70
     0
  3
-------------  --  -------------
 72
    65
 73
     4
 40
13.54666666666667
 49
11.00666666666667
 74
     0
 49
-0.8466666666666667
 74
     0
 49
0.8466666666666667
 74
     0
 49
-0.8466666666666667
 74
     0
  0
LTYPE
  5
3F
330
5
100
AcDbSymbolTableRecord
100
AcDbLinetypeTableRecord
  2
JWW_PHANTOM2
 70
     0
  3
------------  -  -  ------------
 72
    65
 73
     6
 40
13.54666666666667
 49
10.16
 74
     0
 49
-0.8466666666666667
 74
     0
 49
0.4233333333333333
 74
     0
 49
-0.8466666666666667
 74
     0
 49
0.4233333333333333
 74
     0
 49
-0.8466666666666667
 74
     0
  0
LTYPE
  5
40
330
5
100
AcDbSymbolTableRecord
100
AcDbLinetypeTableRecord
  2
JWW_DASHED2
 70
     0
  3
--    ----    ----    ----    --
 72
    65
 73
     2
 40
3.386666666666667
 49
1.693333333333333
 74
     0
 49
-1.693333333333333
 74
     0
  0
ENDTAB
  0
TABLE
  2
LAYER
  5
2
330
0
100
AcDbSymbolTable
 70
    16
  0
LAYER
  5
10
330
2
100
AcDbSymbolTableRecord
100
AcDbLayerTableRecord
  2
0
 70
     0
 62
     7
  6
Continuous
370
    -3
390
F
  0
LAYER
  5
41
330
2
100
AcDbSymbolTableRecord
100
AcDbLayerTableRecord
  2
F-0ﾚｲﾔ
 70
     0
 62
     7
  6
Continuous
370
    -3
390
F
  0
LAYER
  5
42
330
2
100
AcDbSymbolTableRecord
100
AcDbLayerTableRecord
  2
0-F
 70
     0
 62
     7
  6
Continuous
370
    -3
390
F
  0
LAYER
  5
43
330
2
100
AcDbSymbolTableRecord
100
AcDbLayerTableRecord
  2
1-5ﾚｲﾔ
 70
     0
 62
     7
  6
Continuous
370
    -3
390
F
  0
LAYER
  5
44
330
2
100
AcDbSymbolTableRecord
100
AcDbLayerTableRecord
  2
1-2ﾚｲﾔ
 70
     0
 62
     7
  6
Continuous
370
    -3
390
F
  0
LAYER
  5
45
330
2
100
AcDbSymbolTableRecord
100
AcDbLayerTableRecord
  2
1-1ﾚｲﾔ
 70
     0
 62
     7
  6
Continuous
370
    -3
390
F
  0
LAYER
  5
46
330
2
100
AcDbSymbolTableRecord
100
AcDbLayerTableRecord
  2
1-3ﾚｲﾔ
 70
     0
 62
     7
  6
Continuous
370
    -3
390
F
  0
LAYER
  5
47
330
2
100
AcDbSymbolTableRecord
100
AcDbLayerTableRecord
  2
1-7
 70
     0
 62
     7
  6
Continuous
370
    -3
390
F
  0
LAYER
  5
48
330
2
100
AcDbSymbolTableRecord
100
AcDbLayerTableRecord
  2
1-0ﾚｲﾔ
 70
     0
 62
     7
  6
Continuous
370
    -3
390
F
  0
LAYER
  5
49
330
2
100
AcDbSymbolTableRecord
100
AcDbLayerTableRecord
  2
1-F
 70
     0
 62
     7
  6
Continuous
370
    -3
390
F
  0
LAYER
  5
4A
330
2
100
AcDbSymbolTableRecord
100
AcDbLayerTableRecord
  2
2-2
 70
     0
 62
     7
  6
Continuous
370
    -3
390
F
  0
LAYER
  5
4B
330
2
100
AcDbSymbolTableRecord
100
AcDbLayerTableRecord
  2
2-3
 70
     0
 62
     7
  6
Continuous
370
    -3
390
F
  0
LAYER
  5
4C
330
2
100
AcDbSymbolTableRecord
100
AcDbLayerTableRecord
  2
2-0
 70
     0
 62
     7
  6
Continuous
370
    -3
390
F
  0
LAYER
  5
4D
330
2
100
AcDbSymbolTableRecord
100
AcDbLayerTableRecord
  2
2-Fﾚｲﾔ
 70
     0
 62
     7
  6
Continuous
370
    -3
390
F
  0
LAYER
  5
4E
330
2
100
AcDbSymbolTableRecord
100
AcDbLayerTableRecord
  2
1-4ﾚｲﾔ
 70
     0
 62
     7
  6
Continuous
370
    -3
390
F
  0
LAYER
  5
4F
330
2
100
AcDbSymbolTableRecord
100
AcDbLayerTableRecord
  2
F-Fﾚｲﾔ
 70
     0
 62
     7
  6
Continuous
370
    -3
390
F
  0
ENDTAB
  0
TABLE
  2
STYLE
  5
3
330
0
100
AcDbSymbolTable
 70
     2
  0
STYLE
  5
11
330
3
100
AcDbSymbolTableRecord
100
AcDbTextStyleTableRecord
  2
Standard
 70
     0
 40
0.0
 41
1.0
 50
0.0
 71
     0
 42
2.5
  3
txt
  4

1001
ACAD
1000

1071
        0
  0
STYLE
  5
3B
330
3
100
AcDbSymbolTableRecord
100
AcDbTextStyleTableRecord
  2
ＭＳ ゴシック
 70
     0
 40
1.0
 41
1.0
 50
0.0
 71
     0
 42
10.0
  3

  4

1001
ACAD
1000
MS Gothic
1071
    32817
  0
ENDTAB
  0
TABLE
  2
VIEW
  5
6
330
0
100
AcDbSymbolTable
 70
     0
  0
ENDTAB
  0
TABLE
  2
UCS
  5
7
330
0
100
AcDbSymbolTable
 70
     0
  0
ENDTAB
  0
TABLE
  2
APPID
  5
9
330
0
100
AcDbSymbolTable
 70
     1
  0
APPID
  5
12
330
9
100
AcDbSymbolTableRecord
100
AcDbRegAppTableRecord
  2
ACAD
 70
     0
  0
ENDTAB
  0
TABLE
  2
DIMSTYLE
  5
A
330
0
100
AcDbSymbolTable
 70
     1
100
AcDbDimStyleTable
  0
DIMSTYLE
105
27
330
A
100
AcDbSymbolTableRecord
100
AcDbDimStyleTableRecord
  2
ISO-25
 70
     0
 41
2.5
 42
0.625
 43
3.75
 44
1.25
 73
     0
 74
     0
 77
     1
 78
     8
140
2.5
141
2.5
143
0.03937007874016
147
0.625
171
     3
172
     1
271
     2
272
     2
274
     3
278
    44
283
     0
284
     8
340
11
  0
ENDTAB
  0
TABLE
  2
BLOCK_RECORD
  5
1
330
0
100
AcDbSymbolTable
 70
     1
  0
BLOCK_RECORD
  5
1F
330
1
100
AcDbSymbolTableRecord
100
AcDbBlockTableRecord
  2
*Model_Space
340
22
  0
BLOCK_RECORD
  5
1B
330
1
100
AcDbSymbolTableRecord
100
AcDbBlockTableRecord
  2
*Paper_Space
340
1E
  0
BLOCK_RECORD
  5
23
330
1
100
AcDbSymbolTableRecord
100
AcDbBlockTableRecord
  2
*Paper_Space0
340
26
  0
ENDTAB
  0
ENDSEC
  0
SECTION
  2
BLOCKS
  0
BLOCK
  5
20
330
1F
100
AcDbEntity
  8
0
100
AcDbBlockBegin
  2
*Model_Space
 70
     0
 10
0.0
 20
0.0
 30
0.0
  3
*Model_Space
  1

  0
ENDBLK
  5
21
330
1F
100
AcDbEntity
  8
0
100
AcDbBlockEnd
  0
BLOCK
  5
1C
330
1B
100
AcDbEntity
 67
     1
  8
0
100
AcDbBlockBegin
  2
*Paper_Space
 70
     0
 10
0.0
 20
0.0
 30
0.0
  3
*Paper_Space
  1

  0
ENDBLK
  5
1D
330
1B
100
AcDbEntity
 67
     1
  8
0
100
AcDbBlockEnd
  0
BLOCK
  5
24
330
23
100
AcDbEntity
  8
0
100
AcDbBlockBegin
  2
*Paper_Space0
 70
     0
 10
0.0
 20
0.0
 30
0.0
  3
*Paper_Space0
  1

  0
ENDBLK
  5
25
330
23
100
AcDbEntity
  8
0
100
AcDbBlockEnd
  0
ENDSEC
  0
SECTION
  2
ENTITIES
  0
LINE
  5
50
330
1F
100
AcDbEntity
  8
F-0ﾚｲﾔ
  6
Continuous
 62
     7
370
     9
100
AcDbLine
 10
1939.356128589527
 20
-1106.759899242504
 30
0.0
 11
439.3556337098818
 21
-1106.759899242504
 31
0.0
  0
LINE
  5
51
330
1F
100
AcDbEntity
  8
F-0ﾚｲﾔ
  6
Continuous
 62
     7
370
     9
100
AcDbLine
 10
439.3556337098818
 20
-1026.759882746516
 30
0.0
 11
1939.356128589527
 21
-1026.759882746516
 31
0.0
  0
LINE
  5
52
330
1F
100
AcDbEntity
  8
F-0ﾚｲﾔ
  6
Continuous
 62
     7
370
     9
100
AcDbLine
 10
439.3556337098818
 20
-946.7599281104835
 30
0.0
 11
1939.356128589527
 21
-946.7599281104835
 31
0.0
  0
LINE
  5
53
330
1F
100
AcDbEntity
  8
F-0ﾚｲﾔ
  6
Continuous
 62
     7
370
     9
100
AcDbLine
 10
439.3556337098818
 20
-866.7600353344067
 30
0.0
 11
1939.356128589527
 21
-866.7600353344067
 31
0.0
  0
LINE
  5
54
330
1F
100
AcDbEntity
  8
F-0ﾚｲﾔ
  6
Continuous
 62
     7
370
     9
100
AcDbLine
 10
439.3556337098818
 20
-786.7601425583298
 30
0.0
 11
1939.356128589527
 21
-786.7601425583298
 31
0.0
  0
LINE
  5
55
330
1F
100
AcDbEntity
  8
F-0ﾚｲﾔ
  6
Continuous
 62
     7
370
     9
100
AcDbLine
 10
439.3556337098818
 20
-706.7601260623416
 30
0.0
 11
1939.356128589527
 21
-706.7601260623416
 31
0.0
  0
LINE
  5
56
330
1F
100
AcDbEntity
  8
F-0ﾚｲﾔ
  6
Continuous
 62
     7
370
     9
100
AcDbLine
 10
439.3556337098818
 20
-626.7602332862647
 30
0.0
 11
1939.356128589527
 21
-626.7602332862647
 31
0.0
  0
LINE
  5
57
330
1F
100
AcDbEntity
  8
F-0ﾚｲﾔ
  6
Continuous
 62
     7
370
     9
100
AcDbLine
 10
439.3556337098818
 20
-546.7602167902766
 30
0.0
 11
1939.356128589527
 21
-546.7602167902766
 31
0.0
  0
LINE
  5
58
330
1F
100
AcDbEntity
  8
F-0ﾚｲﾔ
  6
Continuous
 62
     7
370
     9
100
AcDbLine
 10
439.3556337098818
 20
-466.760447734111
 30
0.0
 11
1939.356128589527
 21
-466.760447734111
 31
0.0
  0
LINE
  5
59
330
1F
100
AcDbEntity
  8
F-0ﾚｲﾔ
  6
Continuous
 62
     7
370
     9
100
AcDbLine
 10
439.3556337098818
 20
-386.7603693781672
 30
0.0
 11
1939.356128589527
 21
-386.7603693781672
 31
0.0
  0
LINE
  5
5A
330
1F
100
AcDbEntity
  8
F-0ﾚｲﾔ
  6
Continuous
 62
     7
370
     9
100
AcDbLine
 10
439.3556337098818
 20
-306.7603528821791
 30
0.0
 11
1939.356128589527
 21
-306.7603528821791
 31
0.0
  0
LINE
  5
5B
330
1F
100
AcDbEntity
  8
F-0ﾚｲﾔ
  6
Continuous
 62
     7
370
     9
100
AcDbLine
 10
439.3556337098818
 20
-226.7603363861907
 30
0.0
 11
1939.356128589527
 21
-226.7603363861907
 31
0.0
  0
LINE
  5
5C
330
1F
100
AcDbEntity
  8
F-0ﾚｲﾔ
  6
Continuous
 62
     7
370
     9
100
AcDbLine
 10
439.3556337098818
 20
-146.7605673300253
 30
0.0
 11
1939.356128589527
 21
-146.7605673300253
 31
0.0
  0
LINE
  5
5D
330
1F
100
AcDbEntity
  8
0-F
  6
Continuous
 62
     7
370
     9
100
AcDbLine
 10
-253.3034041121198
 20
1276.676355310389
 30
0.0
 11
69.93267987225522
 21
1276.676355310389
 31
0.0
  0
LINE
  5
5E
330
1F
100
AcDbEntity
  8
0-F
  6
Continuous
 62
     7
370
     9
100
AcDbLine
 10
-253.3034041121198
 20
1196.676586254223
 30
0.0
 11
69.93267987225522
 21
1196.676586254223
 31
0.0
  0
LINE
  5
5F
330
1F
100
AcDbEntity
  8
0-F
  6
Continuous
 62
     7
370
     9
100
AcDbLine
 10
-253.3034041121198
 20
1276.676355310389
 30
0.0
 11
-253.3034041121198
 21
1196.676586254223
 31
0.0
  0
LINE
  5
60
330
1F
100
AcDbEntity
  8
0-F
  6
Continuous
 62
     7
370
     9
100
AcDbLine
 10
69.93267987225522
 20
1276.676355310389
 30
0.0
 11
69.93267987225522
 21
1196.676586254223
 31
0.0
  0
LINE
  5
61
330
1F
100
AcDbEntity
  8
0-F
  6
Continuous
 62
     7
370
     9
100
AcDbLine
 10
899.4838405299834
 20
1276.676355310389
 30
0.0
 11
1222.719924514358
 21
1276.676355310389
 31
0.0
  0
LINE
  5
62
330
1F
100
AcDbEntity
  8
0-F
  6
Continuous
 62
     7
370
     9
100
AcDbLine
 10
899.4838405299834
 20
1196.676586254223
 30
0.0
 11
1222.719924514358
 21
1196.676586254223
 31
0.0
  0
LINE
  5
63
330
1F
100
AcDbEntity
  8
0-F
  6
Continuous
 62
     7
370
     9
100
AcDbLine
 10
899.4838405299834
 20
1276.676355310389
 30
0.0
 11
899.4838405299834
 21
1196.676586254223
 31
0.0
  0
LINE
  5
64
330
1F
100
AcDbEntity
  8
0-F
  6
Continuous
 62
     7
370
     9
100
AcDbLine
 10
1222.719924514358
 20
1276.676355310389
 30
0.0
 11
1222.719924514358
 21
1196.676586254223
 31
0.0
  0
LINE
  5
65
330
1F
100
AcDbEntity
  8
F-0ﾚｲﾔ
  6
Continuous
 62
     7
370
     9
100
AcDbLine
 10
439.3556337098818
 20
-66.76079827385962
 30
0.0
 11
1939.356128589527
 21
-66.76079827385962
 31
0.0
  0
LINE
  5
66
330
1F
100
AcDbEntity
  8
1-5ﾚｲﾔ
  6
Continuous
 62
     2
370
     9
100
AcDbLine
 10
-915.9201544684332
 20
-859.7596534522804
 30
0.0
 11
-815.9200719884925
 21
-859.7596534522804
 31
0.0
  0
LINE
  5
67
330
1F
100
AcDbEntity
  8
1-5ﾚｲﾔ
  6
Continuous
 62
     2
370
     9
100
AcDbLine
 10
-1235.919973012563
 20
-859.7596534522804
 30
0.0
 11
-1235.919973012563
 21
-862.7596138619087
 31
0.0
  0
LINE
  5
68
330
1F
100
AcDbEntity
  8
1-2ﾚｲﾔ
  6
Continuous
 62
     6
370
     9
100
AcDbLine
 10
-1486.920207255595
 20
656.2400529191302
 30
0.0
 11
-1486.920207255595
 21
627.7404290276606
 31
0.0
  0
LINE
  5
69
330
1F
100
AcDbEntity
  8
1-2ﾚｲﾔ
  6
Continuous
 62
     6
370
     9
100
AcDbLine
 10
-1488.420434900232
 20
657.7402805637669
 30
0.0
 11
-1488.420434900232
 21
627.7404290276606
 31
0.0
  0
LINE
  5
6A
330
1F
100
AcDbEntity
  8
1-5ﾚｲﾔ
  6
Continuous
 62
     2
370
     9
100
AcDbLine
 10
-1483.919999406144
 20
656.2400529191302
 30
0.0
 11
-1483.919999406144
 21
636.2404818148227
 31
0.0
  0
LINE
  5
6B
330
1F
100
AcDbEntity
  8
1-5ﾚｲﾔ
  6
Continuous
 62
     2
370
     9
100
AcDbLine
 10
-1483.919999406144
 20
636.2404818148227
 30
0.0
 11
-1480.920533876161
 21
636.2404818148227
 31
0.0
  0
LINE
  5
6C
330
1F
100
AcDbEntity
  8
1-5ﾚｲﾔ
  6
Continuous
 62
     2
370
     9
100
AcDbLine
 10
-1480.920533876161
 20
656.2400529191302
 30
0.0
 11
-1480.920533876161
 21
636.2404818148227
 31
0.0
  0
LINE
  5
6D
330
1F
100
AcDbEntity
  8
1-5ﾚｲﾔ
  6
Continuous
 62
     2
370
     9
100
AcDbLine
 10
-1483.919999406144
 20
656.2400529191302
 30
0.0
 11
-1480.920533876161
 21
656.2400529191302
 31
0.0
  0
LINE
  5
6E
330
1F
100
AcDbEntity
  8
1-5ﾚｲﾔ
  6
Continuous
 62
     2
370
     9
100
AcDbLine
 10
-667.9196331952068
 20
656.2400529191302
 30
0.0
 11
-667.9196331952068
 21
636.2404818148227
 31
0.0
  0
LINE
  5
6F
330
1F
100
AcDbEntity
  8
1-5ﾚｲﾔ
  6
Continuous
 62
     2
370
     9
100
AcDbLine
 10
-667.9196331952068
 20
636.2404818148227
 30
0.0
 11
-670.9198410446578
 21
636.2404818148227
 31
0.0
  0
LINE
  5
70
330
1F
100
AcDbEntity
  8
1-5ﾚｲﾔ
  6
Continuous
 62
     2
370
     9
100
AcDbLine
 10
-670.9198410446578
 20
656.2400529191302
 30
0.0
 11
-670.9198410446578
 21
636.2404818148227
 31
0.0
  0
LINE
  5
71
330
1F
100
AcDbEntity
  8
1-5ﾚｲﾔ
  6
Continuous
 62
     2
370
     9
100
AcDbLine
 10
-667.9196331952068
 20
656.2400529191302
 30
0.0
 11
-670.9198410446578
 21
656.2400529191302
 31
0.0
  0
LINE
  5
72
330
1F
100
AcDbEntity
  8
1-2ﾚｲﾔ
  6
Continuous
 62
     6
370
     9
100
AcDbLine
 10
-1488.420434900232
 20
627.7404290276606
 30
0.0
 11
-1480.920533876161
 21
627.7404290276606
 31
0.0
  0
LINE
  5
73
330
1F
100
AcDbEntity
  8
1-2ﾚｲﾔ
  6
Continuous
 62
     6
370
     9
100
AcDbLine
 10
-670.9198410446578
 20
627.7404290276606
 30
0.0
 11
-663.4196925807644
 21
627.7404290276606
 31
0.0
  0
LINE
  5
74
330
1F
100
AcDbEntity
  8
1-1ﾚｲﾔ
  6
Continuous
 62
     3
370
     9
100
AcDbLine
 10
-1479.420058791702
 20
656.2400529191302
 30
0.0
 11
-1479.420058791702
 21
532.2902700063346
 31
0.0
  0
LINE
  5
75
330
1F
100
AcDbEntity
  8
1-1ﾚｲﾔ
  6
Continuous
 62
     3
370
     9
100
AcDbLine
 10
-1479.420058791702
 20
420.190132759713
 30
0.0
 11
-1479.420058791702
 21
-562.7596138619087
 31
0.0
  0
LINE
  5
76
330
1F
100
AcDbEntity
  8
1-1ﾚｲﾔ
  6
Continuous
 62
     3
370
     9
100
AcDbLine
 10
-1480.920533876161
 20
656.2400529191302
 30
0.0
 11
-1480.920533876161
 21
532.2902700063346
 31
0.0
  0
LINE
  5
77
330
1F
100
AcDbEntity
  8
1-1ﾚｲﾔ
  6
Continuous
 62
     3
370
     9
100
AcDbLine
 10
-1480.920533876161
 20
420.190132759713
 30
0.0
 11
-1480.920533876161
 21
-562.7596138619087
 31
0.0
  0
LINE
  5
78
330
1F
100
AcDbEntity
  8
1-3ﾚｲﾔ
  6
Continuous
 62
     2
370
     9
100
AcDbLine
 10
-1479.420306231525
 20
656.2400529191302
 30
0.0
 11
-1479.420306231525
 21
654.2407391522383
 31
0.0
  0
LINE
  5
79
330
1F
100
AcDbEntity
  8
1-3ﾚｲﾔ
  6
Continuous
 62
     2
370
     9
100
AcDbLine
 10
-672.4195738096495
 20
-547.7595643739443
 30
0.0
 11
-672.4195738096495
 21
-517.759836557749
 31
0.0
  0
LINE
  5
7A
330
1F
100
AcDbEntity
  8
1-1ﾚｲﾔ
  6
Continuous
 62
     3
370
     9
100
AcDbLine
 10
-1479.420058791702
 20
-560.7598052153717
 30
0.0
 11
-672.4195738096495
 21
-560.7598052153717
 31
0.0
  0
LINE
  5
7B
330
1F
100
AcDbEntity
  8
1-7
  6
Continuous
 62
     7
370
     9
100
AcDbLine
 10
-1070.920170964421
 20
682.7406104835304
 30
0.0
 11
-1070.920170964421
 21
657.7402805637669
 31
0.0
  0
LINE
  5
7C
330
1F
100
AcDbEntity
  8
1-7
  6
Continuous
 62
     7
370
     9
100
AcDbLine
 10
-1080.919956516575
 20
682.7406104835304
 30
0.0
 11
-1080.919956516575
 21
657.7402805637669
 31
0.0
  0
LINE
  5
7D
330
1F
100
AcDbEntity
  8
1-1ﾚｲﾔ
  6
Continuous
 62
     3
370
     9
100
AcDbLine
 10
-672.4195738096495
 20
656.2400529191302
 30
0.0
 11
-672.4195738096495
 21
-562.7596138619087
 31
0.0
  0
LINE
  5
7E
330
1F
100
AcDbEntity
  8
1-5ﾚｲﾔ
  6
Continuous
 62
     2
370
     9
100
AcDbLine
 10
-667.9196331952068
 20
46.2402673669763
 30
0.0
 11
-667.9196331952068
 21
26.24044882284636
 31
0.0
  0
LINE
  5
7F
330
1F
100
AcDbEntity
  8
1-5ﾚｲﾔ
  6
Continuous
 62
     2
370
     9
100
AcDbLine
 10
-667.9196331952068
 20
26.24044882284636
 30
0.0
 11
-670.9198410446578
 21
26.24044882284636
 31
0.0
  0
LINE
  5
80
330
1F
100
AcDbEntity
  8
1-5ﾚｲﾔ
  6
Continuous
 62
     2
370
     9
100
AcDbLine
 10
-670.9198410446578
 20
46.2402673669763
 30
0.0
 11
-670.9198410446578
 21
26.24044882284636
 31
0.0
  0
LINE
  5
81
330
1F
100
AcDbEntity
  8
1-5ﾚｲﾔ
  6
Continuous
 62
     2
370
     9
100
AcDbLine
 10
-667.9196331952068
 20
46.2402673669763
 30
0.0
 11
-670.9198410446578
 21
46.2402673669763
 31
0.0
  0
LINE
  5
82
330
1F
100
AcDbEntity
  8
1-5ﾚｲﾔ
  6
Continuous
 62
     2
370
     9
100
AcDbLine
 10
-1483.920246845967
 20
46.2402673669763
 30
0.0
 11
-1483.920246845967
 21
26.24044882284636
 31
0.0
  0
LINE
  5
83
330
1F
100
AcDbEntity
  8
1-5ﾚｲﾔ
  6
Continuous
 62
     2
370
     9
100
AcDbLine
 10
-1483.920246845967
 20
26.24044882284636
 30
0.0
 11
-1480.920533876161
 21
26.24044882284636
 31
0.0
  0
LINE
  5
84
330
1F
100
AcDbEntity
  8
1-5ﾚｲﾔ
  6
Continuous
 62
     2
370
     9
100
AcDbLine
 10
-1480.920533876161
 20
46.2402673669763
 30
0.0
 11
-1480.920533876161
 21
26.24044882284636
 31
0.0
  0
LINE
  5
85
330
1F
100
AcDbEntity
  8
1-5ﾚｲﾔ
  6
Continuous
 62
     2
370
     9
100
AcDbLine
 10
-1483.920246845967
 20
46.2402673669763
 30
0.0
 11
-1480.920533876161
 21
46.2402673669763
 31
0.0
  0
LINE
  5
86
330
1F
100
AcDbEntity
  8
1-5ﾚｲﾔ
  6
Continuous
 62
     2
370
     9
100
AcDbLine
 10
-1295.919676084776
 20
-697.7593169341217
 30
0.0
 11
-855.9199565165751
 21
-697.7593169341217
 31
0.0
  0
LINE
  5
87
330
1F
100
AcDbEntity
  8
1-5ﾚｲﾔ
  6
Continuous
 62
     2
370
     9
100
AcDbLine
 10
-1295.919676084776
 20
-737.759448902027
 30
0.0
 11
-855.9199565165751
 21
-737.759448902027
 31
0.0
  0
LINE
  5
88
330
1F
100
AcDbEntity
  8
1-1ﾚｲﾔ
  6
Continuous
 62
     3
370
     9
100
AcDbLine
 10
-1480.920533876161
 20
-562.7596138619087
 30
0.0
 11
-906.1700356973183
 21
-562.7596138619087
 31
0.0
  0
LINE
  5
89
330
1F
100
AcDbEntity
  8
1-1ﾚｲﾔ
  6
Continuous
 62
     3
370
     9
100
AcDbLine
 10
-845.6700093037373
 20
-562.7596138619087
 30
0.0
 11
-670.9198410446578
 21
-562.7596138619087
 31
0.0
  0
LINE
  5
8A
330
1F
100
AcDbEntity
  8
1-3ﾚｲﾔ
  6
Continuous
 62
     2
370
     9
100
AcDbLine
 10
-1479.420306231525
 20
654.2407391522383
 30
0.0
 11
-1274.420372215477
 21
654.2407391522383
 31
0.0
  0
LINE
  5
8B
330
1F
100
AcDbEntity
  8
1-0ﾚｲﾔ
  6
JWW_DASHED1
 62
     3
370
     9
100
AcDbLine
 10
-1444.460276010874
 20
650.2401320998734
 30
0.0
 11
-1277.761057260874
 21
650.2401320998734
 31
0.0
  0
LINE
  5
8C
330
1F
100
AcDbEntity
  8
1-0ﾚｲﾔ
  6
JWW_DASHED1
 62
     3
370
     9
100
AcDbLine
 10
-1444.460276010874
 20
647.2404191300677
 30
0.0
 11
-1277.761057260874
 21
647.2404191300677
 31
0.0
  0
LINE
  5
8D
330
1F
100
AcDbEntity
  8
1-0ﾚｲﾔ
  6
JWW_DASHED1
 62
     3
370
     9
100
AcDbLine
 10
-1444.460276010874
 20
653.2400925095019
 30
0.0
 11
-1444.460276010874
 21
647.2404191300677
 31
0.0
  0
LINE
  5
8E
330
1F
100
AcDbEntity
  8
1-0ﾚｲﾔ
  6
JWW_DASHED1
 62
     3
370
     9
100
AcDbLine
 10
-1277.761057260874
 20
653.2400925095019
 30
0.0
 11
-1277.761057260874
 21
647.2404191300677
 31
0.0
  0
LINE
  5
8F
330
1F
100
AcDbEntity
  8
1-3ﾚｲﾔ
  6
Continuous
 62
     2
370
     9
100
AcDbLine
 10
-1530.92045139622
 20
417.9901452966641
 30
0.0
 11
-1525.919940020587
 21
420.190132759713
 31
0.0
  0
LINE
  5
90
330
1F
100
AcDbEntity
  8
1-3ﾚｲﾔ
  6
Continuous
 62
     2
370
     9
100
AcDbLine
 10
-1530.92045139622
 20
417.9901452966641
 30
0.0
 11
-1530.92045139622
 21
534.4902574693836
 31
0.0
  0
LINE
  5
91
330
1F
100
AcDbEntity
  8
1-3ﾚｲﾔ
  6
Continuous
 62
     2
370
     9
100
AcDbLine
 10
-1525.919940020587
 20
420.190132759713
 30
0.0
 11
-1475.92026994035
 21
420.190132759713
 31
0.0
  0
LINE
  5
92
330
1F
100
AcDbEntity
  8
1-3ﾚｲﾔ
  6
Continuous
 62
     2
370
     9
100
AcDbLine
 10
-1525.919940020587
 20
532.2902700063346
 30
0.0
 11
-1475.92026994035
 21
532.2902700063346
 31
0.0
  0
LINE
  5
93
330
1F
100
AcDbEntity
  8
1-3ﾚｲﾔ
  6
Continuous
 62
     2
370
     9
100
AcDbLine
 10
-1525.919940020587
 20
420.190132759713
 30
0.0
 11
-1525.919940020587
 21
532.2902700063346
 31
0.0
  0
LINE
  5
94
330
1F
100
AcDbEntity
  8
1-3ﾚｲﾔ
  6
Continuous
 62
     2
370
     9
100
AcDbLine
 10
-1530.92045139622
 20
534.4902574693836
 30
0.0
 11
-1525.919940020587
 21
532.2902700063346
 31
0.0
  0
LINE
  5
95
330
1F
100
AcDbEntity
  8
1-3ﾚｲﾔ
  6
Continuous
 62
     2
370
     9
100
AcDbLine
 10
-1580.920121476457
 20
417.9901452966641
 30
0.0
 11
-1530.92045139622
 21
417.9901452966641
 31
0.0
  0
LINE
  5
96
330
1F
100
AcDbEntity
  8
1-3ﾚｲﾔ
  6
Continuous
 62
     2
370
     9
100
AcDbLine
 10
-1580.920121476457
 20
417.9901452966641
 30
0.0
 11
-1580.920121476457
 21
534.4902574693836
 31
0.0
  0
LINE
  5
97
330
1F
100
AcDbEntity
  8
1-3ﾚｲﾔ
  6
Continuous
 62
     2
370
     9
100
AcDbLine
 10
-1580.920121476457
 20
534.4902574693836
 30
0.0
 11
-1530.92045139622
 21
534.4902574693836
 31
0.0
  0
LINE
  5
98
330
1F
100
AcDbEntity
  8
1-3ﾚｲﾔ
  6
Continuous
 62
     2
370
     9
100
AcDbLine
 10
-1531.088215595967
 20
533.6902845228042
 30
0.0
 11
-1526.088446539802
 21
531.4900496199325
 31
0.0
  0
LINE
  5
99
330
1F
100
AcDbEntity
  8
1-3ﾚｲﾔ
  6
Continuous
 62
     2
370
     9
100
AcDbLine
 10
-1580.920121476457
 20
533.6902845228042
 30
0.0
 11
-1531.088215595967
 21
533.6902845228042
 31
0.0
  0
LINE
  5
9A
330
1F
100
AcDbEntity
  8
1-3ﾚｲﾔ
  6
Continuous
 62
     2
370
     9
100
AcDbLine
 10
-1580.920121476457
 20
418.7901182432432
 30
0.0
 11
-1531.088215595967
 21
418.7901182432432
 31
0.0
  0
LINE
  5
9B
330
1F
100
AcDbEntity
  8
1-3ﾚｲﾔ
  6
Continuous
 62
     2
370
     9
100
AcDbLine
 10
-1531.088215595967
 20
418.7901182432432
 30
0.0
 11
-1526.088446539802
 21
420.9901057062925
 31
0.0
  0
LINE
  5
9C
330
1F
100
AcDbEntity
  8
1-3ﾚｲﾔ
  6
Continuous
 62
     2
370
     9
100
AcDbLine
 10
-1526.088446539802
 20
420.9901057062925
 30
0.0
 11
-1475.92026994035
 21
420.9901057062925
 31
0.0
  0
LINE
  5
9D
330
1F
100
AcDbEntity
  8
1-3ﾚｲﾔ
  6
Continuous
 62
     2
370
     9
100
AcDbLine
 10
-1475.92026994035
 20
532.2902700063346
 30
0.0
 11
-1475.92026994035
 21
420.190132759713
 31
0.0
  0
LINE
  5
9E
330
1F
100
AcDbEntity
  8
1-5ﾚｲﾔ
  6
Continuous
 62
     2
370
     9
100
AcDbLine
 10
-587.919369259396
 20
-513.7597243850296
 30
0.0
 11
-658.9195045264989
 21
-513.7597243850296
 31
0.0
  0
LINE
  5
9F
330
1F
100
AcDbEntity
  8
1-5ﾚｲﾔ
  6
Continuous
 62
     2
370
     9
100
AcDbLine
 10
-658.9195045264989
 20
-513.7597243850296
 30
0.0
 11
-658.9195045264989
 21
-551.7596765466637
 31
0.0
  0
LINE
  5
A0
330
1F
100
AcDbEntity
  8
1-5ﾚｲﾔ
  6
Continuous
 62
     2
370
     9
100
AcDbLine
 10
-602.9194187473606
 20
-513.7597243850296
 30
0.0
 11
-602.9194187473606
 21
-551.7596765466637
 31
0.0
  0
LINE
  5
A1
330
1F
100
AcDbEntity
  8
1-5ﾚｲﾔ
  6
Continuous
 62
     2
370
     9
100
AcDbLine
 10
-643.9197024783573
 20
-513.7597243850296
 30
0.0
 11
-643.9197024783573
 21
-551.7596765466637
 31
0.0
  0
LINE
  5
A2
330
1F
100
AcDbEntity
  8
1-5ﾚｲﾔ
  6
Continuous
 62
     2
370
     9
100
AcDbLine
 10
-587.919369259396
 20
-551.7596765466637
 30
0.0
 11
-602.9194187473606
 21
-551.7596765466637
 31
0.0
  0
LINE
  5
A3
330
1F
100
AcDbEntity
  8
1-5ﾚｲﾔ
  6
Continuous
 62
     2
370
     9
100
AcDbLine
 10
-643.9197024783573
 20
-551.7596765466637
 30
0.0
 11
-658.9195045264989
 21
-551.7596765466637
 31
0.0
  0
LINE
  5
A4
330
1F
100
AcDbEntity
  8
1-5ﾚｲﾔ
  6
Continuous
 62
     2
370
     9
100
AcDbLine
 10
-616.9193164722338
 20
-523.7596336570946
 30
0.0
 11
-629.9193098738385
 21
-523.7596336570946
 31
0.0
  0
LINE
  5
A5
330
1F
100
AcDbEntity
  8
1-5ﾚｲﾔ
  6
Continuous
 62
     2
370
     9
100
AcDbLine
 10
-627.9195012273016
 20
-548.7598398569468
 30
0.0
 11
-618.9193725585938
 21
-548.7598398569468
 31
0.0
  0
LINE
  5
A6
330
1F
100
AcDbEntity
  8
1-5ﾚｲﾔ
  6
Continuous
 62
     2
370
     9
100
AcDbLine
 10
-602.9194187473606
 20
-550.7597722233952
 30
0.0
 11
-616.9193164722338
 21
-550.7597722233952
 31
0.0
  0
LINE
  5
A7
330
1F
100
AcDbEntity
  8
1-5ﾚｲﾔ
  6
Continuous
 62
     2
370
     9
100
AcDbLine
 10
-629.9193098738385
 20
-550.7597722233952
 30
0.0
 11
-643.9197024783573
 21
-550.7597722233952
 31
0.0
  0
LINE
  5
A8
330
1F
100
AcDbEntity
  8
1-5ﾚｲﾔ
  6
Continuous
 62
     2
370
     9
100
AcDbLine
 10
-629.9193098738385
 20
-523.7596336570946
 30
0.0
 11
-629.9193098738385
 21
-550.7597722233952
 31
0.0
  0
LINE
  5
A9
330
1F
100
AcDbEntity
  8
1-5ﾚｲﾔ
  6
Continuous
 62
     2
370
     9
100
AcDbLine
 10
-616.9193164722338
 20
-523.7596336570946
 30
0.0
 11
-616.9193164722338
 21
-550.7597722233952
 31
0.0
  0
LINE
  5
AA
330
1F
100
AcDbEntity
  8
1-5ﾚｲﾔ
  6
Continuous
 62
     2
370
     9
100
AcDbLine
 10
-613.6194589975717
 20
-499.7048950195312
 30
0.0
 11
-613.6194589975717
 21
-506.8100058065878
 31
0.0
  0
LINE
  5
AB
330
1F
100
AcDbEntity
  8
1-5ﾚｲﾔ
  6
Continuous
 62
     2
370
     9
100
AcDbLine
 10
-633.2194147883234
 20
-499.7048950195312
 30
0.0
 11
-633.2194147883234
 21
-506.8100058065878
 31
0.0
  0
LINE
  5
AC
330
1F
100
AcDbEntity
  8
1-5ﾚｲﾔ
  6
Continuous
 62
     2
370
     9
100
AcDbLine
 10
-618.5269329998943
 20
-499.7048950195312
 30
0.0
 11
-618.5269329998943
 21
-506.8100058065878
 31
0.0
  0
LINE
  5
AD
330
1F
100
AcDbEntity
  8
1-5ﾚｲﾔ
  6
Continuous
 62
     2
370
     9
100
AcDbLine
 10
-628.3119407860008
 20
-499.7048950195312
 30
0.0
 11
-628.3119407860008
 21
-506.8100058065878
 31
0.0
  0
LINE
  5
AE
330
1F
100
AcDbEntity
  8
1-5ﾚｲﾔ
  6
Continuous
 62
     2
370
     9
100
AcDbLine
 10
-616.0730722788217
 20
-498.8099051810599
 30
0.0
 11
-630.7658015070734
 21
-498.8099051810599
 31
0.0
  0
LINE
  5
AF
330
1F
100
AcDbEntity
  8
1-5ﾚｲﾔ
  6
Continuous
 62
     2
370
     9
100
AcDbLine
 10
-618.4192966770481
 20
-496.7598662505279
 30
0.0
 11
-628.4193296690245
 21
-496.7598662505279
 31
0.0
  0
LINE
  5
B0
330
1F
100
AcDbEntity
  8
1-5ﾚｲﾔ
  6
Continuous
 62
     2
370
     9
100
AcDbLine
 10
-612.919451739337
 20
-506.8100058065878
 30
0.0
 11
-612.919451739337
 21
-508.8099381730364
 31
0.0
  0
LINE
  5
B1
330
1F
100
AcDbEntity
  8
1-5ﾚｲﾔ
  6
Continuous
 62
     2
370
     9
100
AcDbLine
 10
-612.919451739337
 20
-506.8100058065878
 30
0.0
 11
-633.9194220465581
 21
-506.8100058065878
 31
0.0
  0
LINE
  5
B2
330
1F
100
AcDbEntity
  8
1-5ﾚｲﾔ
  6
Continuous
 62
     2
370
     9
100
AcDbLine
 10
-633.9194220465581
 20
-506.8100058065878
 30
0.0
 11
-633.9194220465581
 21
-508.8099381730364
 31
0.0
  0
LINE
  5
B3
330
1F
100
AcDbEntity
  8
1-5ﾚｲﾔ
  6
Continuous
 62
     2
370
     9
100
AcDbLine
 10
-618.4192966770481
 20
-496.7598662505279
 30
0.0
 11
-618.4192966770481
 21
-498.8099051810599
 31
0.0
  0
LINE
  5
B4
330
1F
100
AcDbEntity
  8
1-5ﾚｲﾔ
  6
Continuous
 62
     2
370
     9
100
AcDbLine
 10
-628.4193296690245
 20
-496.7598662505279
 30
0.0
 11
-628.4193296690245
 21
-498.8099051810599
 31
0.0
  0
LINE
  5
B5
330
1F
100
AcDbEntity
  8
1-5ﾚｲﾔ
  6
Continuous
 62
     2
370
     9
100
AcDbLine
 10
-612.919451739337
 20
-511.8097748627534
 30
0.0
 11
-612.919451739337
 21
-513.7597243850296
 31
0.0
  0
LINE
  5
B6
330
1F
100
AcDbEntity
  8
1-5ﾚｲﾔ
  6
Continuous
 62
     2
370
     9
100
AcDbLine
 10
-633.9194220465581
 20
-511.8097748627534
 30
0.0
 11
-633.9194220465581
 21
-513.7597243850296
 31
0.0
  0
LINE
  5
B7
330
1F
100
AcDbEntity
  8
1-5ﾚｲﾔ
  6
Continuous
 62
     2
370
     9
100
AcDbLine
 10
-637.5981098896748
 20
-508.8099381730364
 30
0.0
 11
-637.5981098896748
 21
-511.8097748627534
 31
0.0
  0
LINE
  5
B8
330
1F
100
AcDbEntity
  8
1-5ﾚｲﾔ
  6
Continuous
 62
     2
370
     9
100
AcDbLine
 10
-602.5287112674198
 20
-489.2068893845017
 30
0.0
 11
-607.7816112621408
 21
-508.8099381730364
 31
0.0
  0
LINE
  5
B9
330
1F
100
AcDbEntity
  8
1-5ﾚｲﾔ
  6
Continuous
 62
     2
370
     9
100
AcDbLine
 10
-598.0965691643792
 20
-491.9831641944678
 30
0.0
 11
-600.9559837547508
 21
-502.6556149044552
 31
0.0
  0
LINE
  5
BA
330
1F
100
AcDbEntity
  8
1-5ﾚｲﾔ
  6
Continuous
 62
     2
370
     9
100
AcDbLine
 10
-602.8877464500633
 20
-502.1379707955025
 30
0.0
 11
-600.9559837547508
 21
-502.6556149044552
 31
0.0
  0
LINE
  5
BB
330
1F
100
AcDbEntity
  8
1-5ﾚｲﾔ
  6
Continuous
 62
     2
370
     9
100
AcDbLine
 10
-605.4796785921665
 20
-511.8097748627534
 30
0.0
 11
-602.8877464500633
 21
-502.1379707955025
 31
0.0
  0
LINE
  5
BC
330
1F
100
AcDbEntity
  8
1-5ﾚｲﾔ
  6
Continuous
 62
     2
370
     9
100
AcDbLine
 10
-596.7331757416596
 20
-484.7596534522803
 30
0.0
 11
-523.4194781329179
 21
-484.7596534522803
 31
0.0
  0
LINE
  5
BD
330
1F
100
AcDbEntity
  8
1-5ﾚｲﾔ
  6
Continuous
 62
     2
370
     9
100
AcDbLine
 10
-523.4194781329179
 20
-484.7596534522803
 30
0.0
 11
-523.4194781329179
 21
-489.7596699482685
 31
0.0
  0
LINE
  5
BE
330
1F
100
AcDbEntity
  8
1-5ﾚｲﾔ
  6
Continuous
 62
     2
370
     9
100
AcDbLine
 10
-595.1988014014989
 20
-489.7596699482685
 30
0.0
 11
-523.4194781329179
 21
-489.7596699482685
 31
0.0
  0
LINE
  5
BF
330
1F
100
AcDbEntity
  8
1-5ﾚｲﾔ
  6
Continuous
 62
     2
370
     9
100
AcDbLine
 10
-605.4796785921665
 20
-511.8097748627534
 30
0.0
 11
-612.919451739337
 21
-511.8097748627534
 31
0.0
  0
LINE
  5
C0
330
1F
100
AcDbEntity
  8
1-5ﾚｲﾔ
  6
Continuous
 62
     2
370
     9
100
AcDbLine
 10
-633.9194220465581
 20
-511.8097748627534
 30
0.0
 11
-637.5981098896748
 21
-511.8097748627534
 31
0.0
  0
LINE
  5
C1
330
1F
100
AcDbEntity
  8
1-5ﾚｲﾔ
  6
Continuous
 62
     2
370
     9
100
AcDbLine
 10
-607.7816112621408
 20
-508.8099381730364
 30
0.0
 11
-612.919451739337
 21
-508.8099381730364
 31
0.0
  0
LINE
  5
C2
330
1F
100
AcDbEntity
  8
1-5ﾚｲﾔ
  6
Continuous
 62
     2
370
     9
100
AcDbLine
 10
-633.9194220465581
 20
-508.8099381730364
 30
0.0
 11
-637.5981098896748
 21
-508.8099381730364
 31
0.0
  0
LINE
  5
C3
330
1F
100
AcDbEntity
  8
1-5ﾚｲﾔ
  6
Continuous
 62
     2
370
     9
100
AcDbLine
 10
-587.919369259396
 20
-513.7597243850296
 30
0.0
 11
-587.919369259396
 21
-551.7596765466637
 31
0.0
  0
LINE
  5
C4
330
1F
100
AcDbEntity
  8
1-1ﾚｲﾔ
  6
Continuous
 62
     3
370
     9
100
AcDbLine
 10
-670.9198410446578
 20
656.2400529191302
 30
0.0
 11
-670.9198410446578
 21
-516.1346518026814
 31
0.0
  0
LINE
  5
C5
330
1F
100
AcDbEntity
  8
1-1ﾚｲﾔ
  6
Continuous
 62
     3
370
     9
100
AcDbLine
 10
-670.9198410446578
 20
-549.3846254091005
 30
0.0
 11
-670.9198410446578
 21
-562.7596138619087
 31
0.0
  0
LINE
  5
C6
330
1F
100
AcDbEntity
  8
1-F
  6
Continuous
 62
     2
370
     9
100
AcDbLine
 10
-906.1697882574957
 20
-612.7595313819678
 30
0.0
 11
-845.6700093037373
 21
-612.7595313819678
 31
0.0
  0
LINE
  5
C7
330
1F
100
AcDbEntity
  8
1-F
  6
Continuous
 62
     2
370
     9
100
AcDbLine
 10
-906.1697882574957
 20
-617.7597953177786
 30
0.0
 11
-845.6700093037373
 21
-617.7597953177786
 31
0.0
  0
LINE
  5
C8
330
1F
100
AcDbEntity
  8
1-F
  6
Continuous
 62
     2
370
     9
100
AcDbLine
 10
-906.1697882574957
 20
-560.7598052153717
 30
0.0
 11
-906.1697882574957
 21
-617.7597953177786
 31
0.0
  0
LINE
  5
C9
330
1F
100
AcDbEntity
  8
1-F
  6
Continuous
 62
     2
370
     9
100
AcDbLine
 10
-845.6700093037373
 20
-560.7598052153717
 30
0.0
 11
-845.6700093037373
 21
-617.7597953177786
 31
0.0
  0
LINE
  5
CA
330
1F
100
AcDbEntity
  8
1-F
  6
Continuous
 62
     2
370
     9
100
AcDbLine
 10
-906.1697882574957
 20
-560.7598052153717
 30
0.0
 11
-845.6700093037373
 21
-560.7598052153717
 31
0.0
  0
LINE
  5
CB
330
1F
100
AcDbEntity
  8
1-F
  6
Continuous
 62
     2
370
     9
100
AcDbLine
 10
-902.1699235245987
 20
-600.6963451488598
 30
0.0
 11
-849.6698740366343
 21
-600.6963451488598
 31
0.0
  0
LINE
  5
CC
330
1F
100
AcDbEntity
  8
1-F
  6
Continuous
 62
     2
370
     9
100
AcDbLine
 10
-902.1699235245987
 20
-560.7598052153717
 30
0.0
 11
-902.1699235245987
 21
-612.7595313819678
 31
0.0
  0
LINE
  5
CD
330
1F
100
AcDbEntity
  8
1-F
  6
Continuous
 62
     2
370
     9
100
AcDbLine
 10
-849.6698740366343
 20
-560.7598052153717
 30
0.0
 11
-849.6698740366343
 21
-612.7595313819678
 31
0.0
  0
LINE
  5
CE
330
1F
100
AcDbEntity
  8
1-F
  6
Continuous
 62
     2
370
     9
100
AcDbLine
 10
-900.1696199984162
 20
-560.7598052153717
 30
0.0
 11
-900.1696199984162
 21
-612.7595313819678
 31
0.0
  0
LINE
  5
CF
330
1F
100
AcDbEntity
  8
1-F
  6
Continuous
 62
     2
370
     9
100
AcDbLine
 10
-851.6696826831713
 20
-560.7598052153717
 30
0.0
 11
-851.6696826831713
 21
-612.7595313819678
 31
0.0
  0
LINE
  5
D0
330
1F
100
AcDbEntity
  8
1-F
  6
Continuous
 62
     2
370
     9
100
AcDbLine
 10
-890.9198245486697
 20
-617.7597953177786
 30
0.0
 11
-890.9198245486697
 21
-627.7595808699324
 31
0.0
  0
LINE
  5
D1
330
1F
100
AcDbEntity
  8
1-F
  6
Continuous
 62
     2
370
     9
100
AcDbLine
 10
-860.9199730125633
 20
-617.7597953177786
 30
0.0
 11
-860.9199730125633
 21
-627.7595808699324
 31
0.0
  0
LINE
  5
D2
330
1F
100
AcDbEntity
  8
1-F
  6
Continuous
 62
     2
370
     9
100
AcDbLine
 10
-873.9199664141679
 20
-646.2596666490709
 30
0.0
 11
-877.919831147065
 21
-646.2596666490709
 31
0.0
  0
LINE
  5
D3
330
1F
100
AcDbEntity
  8
1-F
  6
Continuous
 62
     2
370
     9
100
AcDbLine
 10
-879.4200587917019
 20
-630.7595412795608
 30
0.0
 11
-879.4200587917019
 21
-644.7596864442568
 31
0.0
  0
LINE
  5
D4
330
1F
100
AcDbEntity
  8
1-F
  6
Continuous
 62
     2
370
     9
100
AcDbLine
 10
-873.9199664141679
 20
-629.2595610747467
 30
0.0
 11
-877.919831147065
 21
-629.2595610747467
 31
0.0
  0
LINE
  5
D5
330
1F
100
AcDbEntity
  8
1-F
  6
Continuous
 62
     2
370
     9
100
AcDbLine
 10
-872.4199862093537
 20
-630.7595412795608
 30
0.0
 11
-872.4199862093537
 21
-644.7596864442568
 31
0.0
  0
LINE
  5
D6
330
1F
100
AcDbEntity
  8
1-F
  6
Continuous
 62
     2
370
     9
100
AcDbLine
 10
-873.9199664141679
 20
-647.7598942937077
 30
0.0
 11
-877.919831147065
 21
-647.7598942937077
 31
0.0
  0
LINE
  5
D7
330
1F
100
AcDbEntity
  8
1-F
  6
Continuous
 62
     2
370
     9
100
AcDbLine
 10
-880.920038996516
 20
-630.7595412795608
 30
0.0
 11
-880.920038996516
 21
-644.7596864442568
 31
0.0
  0
LINE
  5
D8
330
1F
100
AcDbEntity
  8
1-F
  6
Continuous
 62
     2
370
     9
100
AcDbLine
 10
-860.9199730125633
 20
-627.7595808699324
 30
0.0
 11
-890.9198245486697
 21
-627.7595808699324
 31
0.0
  0
LINE
  5
D9
330
1F
100
AcDbEntity
  8
1-F
  6
Continuous
 62
     2
370
     9
100
AcDbLine
 10
-870.9200060045396
 20
-630.7595412795608
 30
0.0
 11
-870.9200060045396
 21
-644.7596864442568
 31
0.0
  0
LINE
  5
DA
330
1F
100
AcDbEntity
  8
1-0ﾚｲﾔ
  6
JWW_CENTER1
 62
     2
370
     9
100
AcDbLine
 10
-875.9200225005279
 20
-552.1919539168074
 30
0.0
 11
-875.9200225005279
 21
-657.0386402027026
 31
0.0
  0
LINE
  5
DB
330
1F
100
AcDbEntity
  8
1-F
  6
Continuous
 62
     2
370
     9
100
AcDbLine
 10
-672.4195738096495
 20
-516.1345280827702
 30
0.0
 11
-672.4195738096495
 21
-549.3846254091005
 31
0.0
  0
LINE
  5
DC
330
1F
100
AcDbEntity
  8
1-F
  6
Continuous
 62
     2
370
     9
100
AcDbLine
 10
-658.9195045264989
 20
-516.1345280827702
 30
0.0
 11
-672.4195738096495
 21
-516.1345280827702
 31
0.0
  0
LINE
  5
DD
330
1F
100
AcDbEntity
  8
1-F
  6
Continuous
 62
     2
370
     9
100
AcDbLine
 10
-672.4195738096495
 20
-516.8595267630911
 30
0.0
 11
-658.9195045264989
 21
-516.8595267630911
 31
0.0
  0
LINE
  5
DE
330
1F
100
AcDbEntity
  8
1-F
  6
Continuous
 62
     2
370
     9
100
AcDbLine
 10
-672.4195738096495
 20
-548.6595030088682
 30
0.0
 11
-658.9195045264989
 21
-548.6595030088682
 31
0.0
  0
LINE
  5
DF
330
1F
100
AcDbEntity
  8
1-F
  6
Continuous
 62
     2
370
     9
100
AcDbLine
 10
-658.9195045264989
 20
-549.3846254091005
 30
0.0
 11
-672.4195738096495
 21
-549.3846254091005
 31
0.0
  0
LINE
  5
E0
330
1F
100
AcDbEntity
  8
1-0ﾚｲﾔ
  6
JWW_CENTER1
 62
     2
370
     9
100
AcDbLine
 10
-623.4195606128588
 20
-491.8358137800886
 30
0.0
 11
-623.4195606128588
 21
-563.5234605943834
 31
0.0
  0
LINE
  5
E1
330
1F
100
AcDbEntity
  8
1-3ﾚｲﾔ
  6
Continuous
 62
     2
370
     9
100
AcDbLine
 10
-1419.170441498627
 20
709.2406731682856
 30
0.0
 11
-1416.970454035579
 21
704.2406566722974
 31
0.0
  0
LINE
  5
E2
330
1F
100
AcDbEntity
  8
1-3ﾚｲﾔ
  6
Continuous
 62
     2
370
     9
100
AcDbLine
 10
-1419.170441498627
 20
709.2406731682856
 30
0.0
 11
-1302.670081886085
 21
709.2406731682856
 31
0.0
  0
LINE
  5
E3
330
1F
100
AcDbEntity
  8
1-3ﾚｲﾔ
  6
Continuous
 62
     2
370
     9
100
AcDbLine
 10
-1416.970454035579
 20
704.2406566722974
 30
0.0
 11
-1416.970454035579
 21
654.2407391522383
 31
0.0
  0
LINE
  5
E4
330
1F
100
AcDbEntity
  8
1-3ﾚｲﾔ
  6
Continuous
 62
     2
370
     9
100
AcDbLine
 10
-1304.870316788957
 20
704.2406566722974
 30
0.0
 11
-1304.870316788957
 21
654.2407391522383
 31
0.0
  0
LINE
  5
E5
330
1F
100
AcDbEntity
  8
1-3ﾚｲﾔ
  6
Continuous
 62
     2
370
     9
100
AcDbLine
 10
-1416.970454035579
 20
704.2406566722974
 30
0.0
 11
-1304.870316788957
 21
704.2406566722974
 31
0.0
  0
LINE
  5
E6
330
1F
100
AcDbEntity
  8
1-3ﾚｲﾔ
  6
Continuous
 62
     2
370
     9
100
AcDbLine
 10
-1302.670081886085
 20
709.2406731682856
 30
0.0
 11
-1304.870316788957
 21
704.2406566722974
 31
0.0
  0
LINE
  5
E7
330
1F
100
AcDbEntity
  8
1-3ﾚｲﾔ
  6
Continuous
 62
     2
370
     9
100
AcDbLine
 10
-1419.170441498627
 20
759.2408381281675
 30
0.0
 11
-1419.170441498627
 21
709.2406731682856
 31
0.0
  0
LINE
  5
E8
330
1F
100
AcDbEntity
  8
1-3ﾚｲﾔ
  6
Continuous
 62
     2
370
     9
100
AcDbLine
 10
-1419.170441498627
 20
759.2408381281675
 30
0.0
 11
-1302.670081886085
 21
759.2408381281675
 31
0.0
  0
LINE
  5
E9
330
1F
100
AcDbEntity
  8
1-3ﾚｲﾔ
  6
Continuous
 62
     2
370
     9
100
AcDbLine
 10
-1302.670081886085
 20
759.2408381281675
 30
0.0
 11
-1302.670081886085
 21
709.2406731682856
 31
0.0
  0
LINE
  5
EA
330
1F
100
AcDbEntity
  8
1-3ﾚｲﾔ
  6
Continuous
 62
     2
370
     9
100
AcDbLine
 10
-1304.870316788957
 20
656.2410426784209
 30
0.0
 11
-1274.420372215477
 21
656.2410426784209
 31
0.0
  0
LINE
  5
EB
330
1F
100
AcDbEntity
  8
1-3ﾚｲﾔ
  6
Continuous
 62
     2
370
     9
100
AcDbLine
 10
-1274.420372215477
 20
656.2410426784209
 30
0.0
 11
-1274.420372215477
 21
654.2407391522383
 31
0.0
  0
LINE
  5
EC
330
1F
100
AcDbEntity
  8
1-3ﾚｲﾔ
  6
Continuous
 62
     2
370
     9
100
AcDbLine
 10
-1305.670289735536
 20
704.409163191512
 30
0.0
 11
-1305.670289735536
 21
654.2407391522383
 31
0.0
  0
LINE
  5
ED
330
1F
100
AcDbEntity
  8
1-3ﾚｲﾔ
  6
Continuous
 62
     2
370
     9
100
AcDbLine
 10
-1303.470302272487
 20
709.4089322476776
 30
0.0
 11
-1305.670289735536
 21
704.409163191512
 31
0.0
  0
LINE
  5
EE
330
1F
100
AcDbEntity
  8
1-3ﾚｲﾔ
  6
Continuous
 62
     2
370
     9
100
AcDbLine
 10
-1303.470302272487
 20
759.2408381281675
 30
0.0
 11
-1303.470302272487
 21
709.4089322476776
 31
0.0
  0
LINE
  5
EF
330
1F
100
AcDbEntity
  8
1-3ﾚｲﾔ
  6
Continuous
 62
     2
370
     9
100
AcDbLine
 10
-1418.369973672403
 20
759.2408381281675
 30
0.0
 11
-1418.369973672403
 21
709.4089322476776
 31
0.0
  0
LINE
  5
F0
330
1F
100
AcDbEntity
  8
1-3ﾚｲﾔ
  6
Continuous
 62
     2
370
     9
100
AcDbLine
 10
-1418.369973672403
 20
709.4089322476776
 30
0.0
 11
-1416.170481088999
 21
704.409163191512
 31
0.0
  0
LINE
  5
F1
330
1F
100
AcDbEntity
  8
1-3ﾚｲﾔ
  6
Continuous
 62
     2
370
     9
100
AcDbLine
 10
-1416.170481088999
 20
704.409163191512
 30
0.0
 11
-1416.170481088999
 21
654.2407391522383
 31
0.0
  0
LINE
  5
F2
330
1F
100
AcDbEntity
  8
1-2ﾚｲﾔ
  6
Continuous
 62
     6
370
     9
100
AcDbLine
 10
-1304.870316788957
 20
657.7402805637669
 30
0.0
 11
-663.4196925807644
 21
657.7402805637669
 31
0.0
  0
LINE
  5
F3
330
1F
100
AcDbEntity
  8
1-2ﾚｲﾔ
  6
Continuous
 62
     6
370
     9
100
AcDbLine
 10
-1304.870316788957
 20
656.2400529191302
 30
0.0
 11
-663.4196925807644
 21
656.2400529191302
 31
0.0
  0
LINE
  5
F4
330
1F
100
AcDbEntity
  8
1-1ﾚｲﾔ
  6
Continuous
 62
     3
370
     9
100
AcDbLine
 10
-1274.420372215477
 20
656.2400529191302
 30
0.0
 11
-670.9198410446578
 21
656.2400529191302
 31
0.0
  0
LINE
  5
F5
330
1F
100
AcDbEntity
  8
1-2ﾚｲﾔ
  6
Continuous
 62
     6
370
     9
100
AcDbLine
 10
-1488.420434900232
 20
657.7402805637669
 30
0.0
 11
-1416.970454035579
 21
657.7402805637669
 31
0.0
  0
LINE
  5
F6
330
1F
100
AcDbEntity
  8
1-1ﾚｲﾔ
  6
Continuous
 62
     3
370
     9
100
AcDbLine
 10
-1480.920533876161
 20
656.2400529191302
 30
0.0
 11
-1416.970454035579
 21
656.2400529191302
 31
0.0
  0
LINE
  5
F7
330
1F
100
AcDbEntity
  8
1-3ﾚｲﾔ
  6
Continuous
 62
     2
370
     9
100
AcDbLine
 10
-1479.420058791702
 20
656.2410426784209
 30
0.0
 11
-1416.970454035579
 21
656.2410426784209
 31
0.0
  0
LINE
  5
F8
330
1F
100
AcDbEntity
  8
1-2ﾚｲﾔ
  6
Continuous
 62
     6
370
     9
100
AcDbLine
 10
-1488.420434900232
 20
656.2400529191302
 30
0.0
 11
-1416.970454035579
 21
656.2400529191302
 31
0.0
  0
LINE
  5
F9
330
1F
100
AcDbEntity
  8
1-1ﾚｲﾔ
  6
Continuous
 62
     3
370
     9
100
AcDbLine
 10
-1442.802181759396
 20
654.2402442725929
 30
0.0
 11
-1277.761057260874
 21
654.2402442725929
 31
0.0
  0
LINE
  5
FA
330
1F
100
AcDbEntity
  8
1-1ﾚｲﾔ
  6
Continuous
 62
     3
370
     9
100
AcDbLine
 10
-1444.460276010874
 20
654.2402442725929
 30
0.0
 11
-1444.460276010874
 21
653.2400925095019
 31
0.0
  0
LINE
  5
FB
330
1F
100
AcDbEntity
  8
1-1ﾚｲﾔ
  6
Continuous
 62
     3
370
     9
100
AcDbLine
 10
-1277.761057260874
 20
654.2402442725929
 30
0.0
 11
-1277.761057260874
 21
653.2400925095019
 31
0.0
  0
LINE
  5
FC
330
1F
100
AcDbEntity
  8
1-2ﾚｲﾔ
  6
Continuous
 62
     6
370
     9
100
AcDbLine
 10
-210.006383947424
 20
734.2620354729731
 30
0.0
 11
-82.66024202913826
 21
734.2620354729731
 31
0.0
  0
LINE
  5
FD
330
1F
100
AcDbEntity
  8
1-2ﾚｲﾔ
  6
Continuous
 62
     6
370
     9
100
AcDbLine
 10
-210.006383947424
 20
604.2623488967484
 30
0.0
 11
-82.66024202913826
 21
604.2623488967484
 31
0.0
  0
LINE
  5
FE
330
1F
100
AcDbEntity
  8
1-5ﾚｲﾔ
  6
Continuous
 62
     2
370
     9
100
AcDbLine
 10
-855.9199565165751
 20
-617.7597953177786
 30
0.0
 11
-855.9199565165751
 21
-859.7596534522804
 31
0.0
  0
LINE
  5
FF
330
1F
100
AcDbEntity
  8
1-5ﾚｲﾔ
  6
Continuous
 62
     2
370
     9
100
AcDbLine
 10
-1355.919874036634
 20
-562.7596138619087
 30
0.0
 11
-1355.919874036634
 21
-602.7594983899916
 31
0.0
  0
LINE
  5
100
330
1F
100
AcDbEntity
  8
1-5ﾚｲﾔ
  6
Continuous
 62
     2
370
     9
100
AcDbLine
 10
-1355.919874036634
 20
-602.7594983899916
 30
0.0
 11
-906.1700356973183
 21
-602.7594983899916
 31
0.0
  0
LINE
  5
101
330
1F
100
AcDbEntity
  8
1-5ﾚｲﾔ
  6
Continuous
 62
     2
370
     9
100
AcDbLine
 10
-845.6700093037373
 20
-602.7594983899916
 30
0.0
 11
-795.9200060045396
 21
-602.7594983899916
 31
0.0
  0
LINE
  5
102
330
1F
100
AcDbEntity
  8
1-5ﾚｲﾔ
  6
Continuous
 62
     2
370
     9
100
AcDbLine
 10
-795.9200060045396
 20
-562.7596138619087
 30
0.0
 11
-795.9200060045396
 21
-602.7594983899916
 31
0.0
  0
LINE
  5
103
330
1F
100
AcDbEntity
  8
1-5ﾚｲﾔ
  6
Continuous
 62
     2
370
     9
100
AcDbLine
 10
-815.9200719884925
 20
-602.7594983899916
 30
0.0
 11
-815.9200719884925
 21
-862.7596138619087
 31
0.0
  0
LINE
  5
104
330
1F
100
AcDbEntity
  8
1-5ﾚｲﾔ
  6
Continuous
 62
     2
370
     9
100
AcDbLine
 10
-1335.920055492504
 20
-859.7596534522804
 30
0.0
 11
-1235.919973012563
 21
-859.7596534522804
 31
0.0
  0
LINE
  5
105
330
1F
100
AcDbEntity
  8
1-5ﾚｲﾔ
  6
Continuous
 62
     2
370
     9
100
AcDbLine
 10
-1295.919676084776
 20
-602.7594983899916
 30
0.0
 11
-1295.919676084776
 21
-859.7596534522804
 31
0.0
  0
LINE
  5
106
330
1F
100
AcDbEntity
  8
1-5ﾚｲﾔ
  6
Continuous
 62
     2
370
     9
100
AcDbLine
 10
-1335.920055492504
 20
-602.7594983899916
 30
0.0
 11
-1335.920055492504
 21
-862.7596138619087
 31
0.0
  0
LINE
  5
107
330
1F
100
AcDbEntity
  8
1-5ﾚｲﾔ
  6
Continuous
 62
     2
370
     9
100
AcDbLine
 10
-1335.920055492504
 20
-862.7596138619087
 30
0.0
 11
-1235.919973012563
 21
-862.7596138619087
 31
0.0
  0
LINE
  5
108
330
1F
100
AcDbEntity
  8
1-5ﾚｲﾔ
  6
Continuous
 62
     2
370
     9
100
AcDbLine
 10
-915.9201544684332
 20
-859.7596534522804
 30
0.0
 11
-915.9201544684332
 21
-862.7596138619087
 31
0.0
  0
LINE
  5
109
330
1F
100
AcDbEntity
  8
1-5ﾚｲﾔ
  6
Continuous
 62
     2
370
     9
100
AcDbLine
 10
-815.9200719884925
 20
-862.7596138619087
 30
0.0
 11
-915.9201544684332
 21
-862.7596138619087
 31
0.0
  0
LINE
  5
10A
330
1F
100
AcDbEntity
  8
1-5ﾚｲﾔ
  6
Continuous
 62
     2
370
     9
100
AcDbLine
 10
-210.6598725190034
 20
669.2623159047721
 30
0.0
 11
-207.659912109375
 21
669.2623159047721
 31
0.0
  0
LINE
  5
10B
330
1F
100
AcDbEntity
  8
1-3ﾚｲﾔ
  6
Continuous
 62
     2
370
     9
100
AcDbLine
 10
182.9429007865289
 20
1115.825871648015
 30
0.0
 11
211.7372255067568
 21
1115.825871648015
 31
0.0
  0
LINE
  5
10C
330
1F
100
AcDbEntity
  8
1-3ﾚｲﾔ
  6
Continuous
 62
     2
370
     9
100
AcDbLine
 10
189.9202089051943
 20
1108.826293945312
 30
0.0
 11
204.7599173880914
 21
1108.826293945312
 31
0.0
  0
LINE
  5
10D
330
1F
100
AcDbEntity
  8
1-3ﾚｲﾔ
  6
Continuous
 62
     2
370
     9
100
AcDbLine
 10
189.9202089051943
 20
1083.825964025549
 30
0.0
 11
204.7599173880914
 21
1083.825964025549
 31
0.0
  0
LINE
  5
10E
330
1F
100
AcDbEntity
  8
1-3ﾚｲﾔ
  6
Continuous
 62
     2
370
     9
100
AcDbLine
 10
182.9429007865289
 20
222.6987601615289
 30
0.0
 11
211.7372255067568
 21
222.6987601615289
 31
0.0
  0
LINE
  5
10F
330
1F
100
AcDbEntity
  8
1-3ﾚｲﾔ
  6
JWW_CENTER2
 62
     2
370
     9
100
AcDbLine
 10
219.3017083245357
 20
242.1985028241133
 30
0.0
 11
174.315911370355
 21
242.1985028241133
 31
0.0
  0
LINE
  5
110
330
1F
100
AcDbEntity
  8
1-3ﾚｲﾔ
  6
Continuous
 62
     2
370
     9
100
AcDbLine
 10
189.9202089051943
 20
229.6988327438768
 30
0.0
 11
204.7599173880914
 21
229.6988327438768
 31
0.0
  0
LINE
  5
111
330
1F
100
AcDbEntity
  8
1-3ﾚｲﾔ
  6
Continuous
 62
     2
370
     9
100
AcDbLine
 10
189.9202089051943
 20
254.6986677839951
 30
0.0
 11
204.7599173880914
 21
254.6986677839951
 31
0.0
  0
LINE
  5
112
330
1F
100
AcDbEntity
  8
1-1ﾚｲﾔ
  6
JWW_CENTER2
 62
     3
370
     9
100
AcDbLine
 10
-87.65976364548123
 20
594.0898503483953
 30
0.0
 11
-87.65976364548123
 21
744.4340391416807
 31
0.0
  0
LINE
  5
113
330
1F
100
AcDbEntity
  8
1-3ﾚｲﾔ
  6
Continuous
 62
     2
370
     9
100
AcDbLine
 10
-257.6598296294341
 20
611.0115174989443
 30
0.0
 11
-252.6598131334458
 21
613.2119998416385
 31
0.0
  0
LINE
  5
114
330
1F
100
AcDbEntity
  8
1-3ﾚｲﾔ
  6
Continuous
 62
     2
370
     9
100
AcDbLine
 10
-257.6598296294341
 20
611.0115174989443
 30
0.0
 11
-257.6598296294341
 21
727.5123719911318
 31
0.0
  0
LINE
  5
115
330
1F
100
AcDbEntity
  8
1-3ﾚｲﾔ
  6
Continuous
 62
     2
370
     9
100
AcDbLine
 10
-252.6598131334458
 20
613.2119998416385
 30
0.0
 11
-252.6598131334458
 21
725.3121370882602
 31
0.0
  0
LINE
  5
116
330
1F
100
AcDbEntity
  8
1-3ﾚｲﾔ
  6
Continuous
 62
     2
370
     9
100
AcDbLine
 10
-257.6598296294341
 20
727.5123719911318
 30
0.0
 11
-252.6598131334458
 21
725.3121370882602
 31
0.0
  0
LINE
  5
117
330
1F
100
AcDbEntity
  8
1-3ﾚｲﾔ
  6
Continuous
 62
     2
370
     9
100
AcDbLine
 10
-307.6597471494932
 20
611.0115174989443
 30
0.0
 11
-257.6598296294341
 21
611.0115174989443
 31
0.0
  0
LINE
  5
118
330
1F
100
AcDbEntity
  8
1-3ﾚｲﾔ
  6
Continuous
 62
     2
370
     9
100
AcDbLine
 10
-307.6597471494932
 20
611.0115174989443
 30
0.0
 11
-307.6597471494932
 21
727.5123719911318
 31
0.0
  0
LINE
  5
119
330
1F
100
AcDbEntity
  8
1-3ﾚｲﾔ
  6
Continuous
 62
     2
370
     9
100
AcDbLine
 10
-307.6597471494932
 20
727.5123719911318
 30
0.0
 11
-257.6598296294341
 21
727.5123719911318
 31
0.0
  0
LINE
  5
11A
330
1F
100
AcDbEntity
  8
1-3ﾚｲﾔ
  6
Continuous
 62
     2
370
     9
100
AcDbLine
 10
-252.6598131334458
 20
725.3121370882602
 30
0.0
 11
-206.7916457717482
 21
725.3121370882602
 31
0.0
  0
LINE
  5
11B
330
1F
100
AcDbEntity
  8
1-3ﾚｲﾔ
  6
Continuous
 62
     2
370
     9
100
AcDbLine
 10
-252.6598131334458
 20
613.2119998416385
 30
0.0
 11
-206.7916457717482
 21
613.2119998416385
 31
0.0
  0
LINE
  5
11C
330
1F
100
AcDbEntity
  8
1-3ﾚｲﾔ
  6
Continuous
 62
     2
370
     9
100
AcDbLine
 10
-84.15997479412994
 20
792.735777158995
 30
0.0
 11
-84.15997479412994
 21
794.7623093063769
 31
0.0
  0
LINE
  5
11D
330
1F
100
AcDbEntity
  8
1-3ﾚｲﾔ
  6
Continuous
 62
     2
370
     9
100
AcDbLine
 10
-91.16004737647785
 20
794.7623093063769
 30
0.0
 11
-91.16004737647785
 21
792.735777158995
 31
0.0
  0
LINE
  5
11E
330
1F
100
AcDbEntity
  8
1-3ﾚｲﾔ
  6
Continuous
 62
     2
370
     9
100
AcDbLine
 10
-84.15997479412994
 20
775.7886237067146
 30
0.0
 11
-84.15997479412994
 21
773.7620915593328
 31
0.0
  0
LINE
  5
11F
330
1F
100
AcDbEntity
  8
1-3ﾚｲﾔ
  6
Continuous
 62
     2
370
     9
100
AcDbLine
 10
-91.16004737647785
 20
773.7620915593328
 30
0.0
 11
-91.16004737647785
 21
775.7886237067146
 31
0.0
  0
LINE
  5
120
330
1F
100
AcDbEntity
  8
1-3ﾚｲﾔ
  6
Continuous
 62
     2
370
     9
100
AcDbLine
 10
-85.35981049408775
 20
775.7886237067146
 30
0.0
 11
-85.35981049408775
 21
773.7620915593328
 31
0.0
  0
LINE
  5
121
330
1F
100
AcDbEntity
  8
1-3ﾚｲﾔ
  6
Continuous
 62
     2
370
     9
100
AcDbLine
 10
-89.95996423669766
 20
773.7620915593328
 30
0.0
 11
-89.95996423669766
 21
775.7886237067146
 31
0.0
  0
LINE
  5
122
330
1F
100
AcDbEntity
  8
1-3ﾚｲﾔ
  6
Continuous
 62
     2
370
     9
100
AcDbLine
 10
-89.95996423669766
 20
794.7623093063769
 30
0.0
 11
-89.95996423669766
 21
792.735777158995
 31
0.0
  0
LINE
  5
123
330
1F
100
AcDbEntity
  8
1-3ﾚｲﾔ
  6
Continuous
 62
     2
370
     9
100
AcDbLine
 10
-85.35981049408775
 20
792.735777158995
 30
0.0
 11
-85.35981049408775
 21
794.7623093063769
 31
0.0
  0
LINE
  5
124
330
1F
100
AcDbEntity
  8
1-2ﾚｲﾔ
  6
Continuous
 62
     6
370
     9
100
AcDbLine
 10
-78.65963497677342
 20
789.2624643686656
 30
0.0
 11
-80.78588537267734
 21
789.2624643686656
 31
0.0
  0
LINE
  5
125
330
1F
100
AcDbEntity
  8
1-2ﾚｲﾔ
  6
Continuous
 62
     6
370
     9
100
AcDbLine
 10
-94.53364191828541
 20
789.2624643686656
 30
0.0
 11
-96.65989231418905
 21
789.2624643686656
 31
0.0
  0
LINE
  5
126
330
1F
100
AcDbEntity
  8
1-2ﾚｲﾔ
  6
Continuous
 62
     6
370
     9
100
AcDbLine
 10
-78.65963497677342
 20
779.2624313766894
 30
0.0
 11
-80.78588537267734
 21
779.2624313766894
 31
0.0
  0
LINE
  5
127
330
1F
100
AcDbEntity
  8
1-2ﾚｲﾔ
  6
Continuous
 62
     6
370
     9
100
AcDbLine
 10
-94.53388935810807
 20
779.2624313766894
 30
0.0
 11
-96.65989231418905
 21
779.2624313766894
 31
0.0
  0
LINE
  5
128
330
1F
100
AcDbEntity
  8
1-2ﾚｲﾔ
  6
JWW_CENTER2
 62
     6
370
     9
100
AcDbLine
 10
-71.54227591849661
 20
784.262200432855
 30
0.0
 11
-103.7774988122888
 21
784.262200432855
 31
0.0
  0
LINE
  5
129
330
1F
100
AcDbEntity
  8
1-2ﾚｲﾔ
  6
JWW_CENTER2
 62
     6
370
     9
100
AcDbLine
 10
-87.65976364548123
 20
800.3799355996623
 30
0.0
 11
-87.65976364548123
 21
768.14471270587
 31
0.0
  0
LINE
  5
12A
330
1F
100
AcDbEntity
  8
1-3ﾚｲﾔ
  6
Continuous
 62
     2
370
     9
100
AcDbLine
 10
-84.15997479412994
 20
545.7886072107266
 30
0.0
 11
-84.15997479412994
 21
543.7623225031675
 31
0.0
  0
LINE
  5
12B
330
1F
100
AcDbEntity
  8
1-3ﾚｲﾔ
  6
Continuous
 62
     2
370
     9
100
AcDbLine
 10
-91.16004737647785
 20
543.7623225031675
 30
0.0
 11
-91.16004737647785
 21
545.7886072107266
 31
0.0
  0
LINE
  5
12C
330
1F
100
AcDbEntity
  8
1-3ﾚｲﾔ
  6
Continuous
 62
     2
370
     9
100
AcDbLine
 10
-84.15997479412994
 20
562.7360081028294
 30
0.0
 11
-84.15997479412994
 21
564.7620453705658
 31
0.0
  0
LINE
  5
12D
330
1F
100
AcDbEntity
  8
1-3ﾚｲﾔ
  6
Continuous
 62
     2
370
     9
100
AcDbLine
 10
-91.16004737647785
 20
564.7620453705658
 30
0.0
 11
-91.16004737647785
 21
562.7360081028294
 31
0.0
  0
LINE
  5
12E
330
1F
100
AcDbEntity
  8
1-3ﾚｲﾔ
  6
Continuous
 62
     2
370
     9
100
AcDbLine
 10
-85.35981049408775
 20
562.7360081028294
 30
0.0
 11
-85.35981049408775
 21
564.7620453705658
 31
0.0
  0
LINE
  5
12F
330
1F
100
AcDbEntity
  8
1-3ﾚｲﾔ
  6
Continuous
 62
     2
370
     9
100
AcDbLine
 10
-89.95996423669766
 20
564.7620453705658
 30
0.0
 11
-89.95996423669766
 21
562.7360081028294
 31
0.0
  0
LINE
  5
130
330
1F
100
AcDbEntity
  8
1-3ﾚｲﾔ
  6
Continuous
 62
     2
370
     9
100
AcDbLine
 10
-89.95996423669766
 20
543.7623225031675
 30
0.0
 11
-89.95996423669766
 21
545.7886072107266
 31
0.0
  0
LINE
  5
131
330
1F
100
AcDbEntity
  8
1-3ﾚｲﾔ
  6
Continuous
 62
     2
370
     9
100
AcDbLine
 10
-85.35981049408775
 20
545.7886072107266
 30
0.0
 11
-85.35981049408775
 21
543.7623225031675
 31
0.0
  0
LINE
  5
132
330
1F
100
AcDbEntity
  8
1-2ﾚｲﾔ
  6
Continuous
 62
     6
370
     9
100
AcDbLine
 10
-78.65963497677342
 20
549.2621674408783
 30
0.0
 11
-80.78588537267734
 21
549.2621674408783
 31
0.0
  0
LINE
  5
133
330
1F
100
AcDbEntity
  8
1-2ﾚｲﾔ
  6
Continuous
 62
     6
370
     9
100
AcDbLine
 10
-94.53364191828541
 20
549.2621674408783
 30
0.0
 11
-96.65989231418905
 21
549.2621674408783
 31
0.0
  0
LINE
  5
134
330
1F
100
AcDbEntity
  8
1-2ﾚｲﾔ
  6
Continuous
 62
     6
370
     9
100
AcDbLine
 10
-78.65963497677342
 20
559.2617055532096
 30
0.0
 11
-80.78588537267734
 21
559.2617055532096
 31
0.0
  0
LINE
  5
135
330
1F
100
AcDbEntity
  8
1-2ﾚｲﾔ
  6
Continuous
 62
     6
370
     9
100
AcDbLine
 10
-94.53388935810807
 20
559.2617055532096
 30
0.0
 11
-96.65989231418905
 21
559.2617055532096
 31
0.0
  0
LINE
  5
136
330
1F
100
AcDbEntity
  8
1-2ﾚｲﾔ
  6
JWW_CENTER2
 62
     6
370
     9
100
AcDbLine
 10
-71.54227591849661
 20
554.2621839368667
 30
0.0
 11
-103.7774988122888
 21
554.2621839368667
 31
0.0
  0
LINE
  5
137
330
1F
100
AcDbEntity
  8
1-2ﾚｲﾔ
  6
JWW_CENTER2
 62
     6
370
     9
100
AcDbLine
 10
-87.65976364548123
 20
538.1446962098818
 30
0.0
 11
-87.65976364548123
 21
570.3801665434967
 31
0.0
  0
LINE
  5
138
330
1F
100
AcDbEntity
  8
1-5ﾚｲﾔ
  6
Continuous
 62
     2
370
     9
100
AcDbLine
 10
661.4793932115708
 20
669.2623159047721
 30
0.0
 11
656.5719192092484
 21
677.7623686919342
 31
0.0
  0
LINE
  5
139
330
1F
100
AcDbEntity
  8
1-5ﾚｲﾔ
  6
Continuous
 62
     2
370
     9
100
AcDbLine
 10
661.4793932115708
 20
669.2623159047721
 30
0.0
 11
656.5719192092484
 21
660.7625105574325
 31
0.0
  0
LINE
  5
13A
330
1F
100
AcDbEntity
  8
1-5ﾚｲﾔ
  6
Continuous
 62
     2
370
     9
100
AcDbLine
 10
656.5719192092484
 20
660.7625105574325
 30
0.0
 11
646.7866639833193
 21
660.7625105574325
 31
0.0
  0
LINE
  5
13B
330
1F
100
AcDbEntity
  8
1-5ﾚｲﾔ
  6
Continuous
 62
     2
370
     9
100
AcDbLine
 10
641.8794374208193
 20
669.2623159047721
 30
0.0
 11
646.7866639833193
 21
660.7625105574325
 31
0.0
  0
LINE
  5
13C
330
1F
100
AcDbEntity
  8
1-5ﾚｲﾔ
  6
Continuous
 62
     2
370
     9
100
AcDbLine
 10
641.8794374208193
 20
669.2623159047721
 30
0.0
 11
646.7866639833193
 21
677.7623686919342
 31
0.0
  0
LINE
  5
13D
330
1F
100
AcDbEntity
  8
1-5ﾚｲﾔ
  6
Continuous
 62
     2
370
     9
100
AcDbLine
 10
656.5719192092484
 20
677.7623686919342
 30
0.0
 11
646.7866639833193
 21
677.7623686919342
 31
0.0
  0
LINE
  5
13E
330
1F
100
AcDbEntity
  8
1-5ﾚｲﾔ
  6
Continuous
 62
     2
370
     9
100
AcDbLine
 10
645.1792948954818
 20
650.2619068042654
 30
0.0
 11
645.1792948954818
 21
652.2624577702703
 31
0.0
  0
LINE
  5
13F
330
1F
100
AcDbEntity
  8
1-5ﾚｲﾔ
  6
Continuous
 62
     2
370
     9
100
AcDbLine
 10
645.1792948954818
 20
650.2619068042654
 30
0.0
 11
631.1793971706084
 21
650.2619068042654
 31
0.0
  0
LINE
  5
140
330
1F
100
AcDbEntity
  8
1-5ﾚｲﾔ
  6
Continuous
 62
     2
370
     9
100
AcDbLine
 10
658.1795357369089
 20
650.2619068042654
 30
0.0
 11
672.1794334617823
 21
650.2619068042654
 31
0.0
  0
LINE
  5
141
330
1F
100
AcDbEntity
  8
1-5ﾚｲﾔ
  6
Continuous
 62
     2
370
     9
100
AcDbLine
 10
658.1795357369089
 20
650.2619068042654
 30
0.0
 11
658.1795357369089
 21
652.2624577702703
 31
0.0
  0
LINE
  5
142
330
1F
100
AcDbEntity
  8
1-5ﾚｲﾔ
  6
Continuous
 62
     2
370
     9
100
AcDbLine
 10
658.1795357369089
 20
652.2624577702703
 30
0.0
 11
645.1792948954818
 21
652.2624577702703
 31
0.0
  0
LINE
  5
143
330
1F
100
AcDbEntity
  8
1-5ﾚｲﾔ
  6
Continuous
 62
     2
370
     9
100
AcDbLine
 10
687.1794829497469
 20
648.2623455975508
 30
0.0
 11
672.1794334617823
 21
648.2623455975508
 31
0.0
  0
LINE
  5
144
330
1F
100
AcDbEntity
  8
1-5ﾚｲﾔ
  6
Continuous
 62
     2
370
     9
100
AcDbLine
 10
631.1793971706084
 20
648.2623455975508
 30
0.0
 11
616.1793476826438
 21
648.2623455975508
 31
0.0
  0
LINE
  5
145
330
1F
100
AcDbEntity
  8
1-5ﾚｲﾔ
  6
Continuous
 62
     2
370
     9
100
AcDbLine
 10
672.1794334617823
 20
648.2623455975508
 30
0.0
 11
672.1794334617823
 21
654.0358589790964
 31
0.0
  0
LINE
  5
146
330
1F
100
AcDbEntity
  8
1-5ﾚｲﾔ
  6
Continuous
 62
     2
370
     9
100
AcDbLine
 10
631.1793971706084
 20
648.2623455975508
 30
0.0
 11
631.1793971706084
 21
654.0358589790964
 31
0.0
  0
LINE
  5
147
330
1F
100
AcDbEntity
  8
1-5ﾚｲﾔ
  6
Continuous
 62
     2
370
     9
100
AcDbLine
 10
645.1792948954818
 20
688.261982685811
 30
0.0
 11
645.1792948954818
 21
686.2621740392738
 31
0.0
  0
LINE
  5
148
330
1F
100
AcDbEntity
  8
1-5ﾚｲﾔ
  6
Continuous
 62
     2
370
     9
100
AcDbLine
 10
645.1792948954818
 20
688.261982685811
 30
0.0
 11
631.1793971706084
 21
688.261982685811
 31
0.0
  0
LINE
  5
149
330
1F
100
AcDbEntity
  8
1-5ﾚｲﾔ
  6
Continuous
 62
     2
370
     9
100
AcDbLine
 10
658.1795357369089
 20
688.261982685811
 30
0.0
 11
672.1794334617823
 21
688.261982685811
 31
0.0
  0
LINE
  5
14A
330
1F
100
AcDbEntity
  8
1-5ﾚｲﾔ
  6
Continuous
 62
     2
370
     9
100
AcDbLine
 10
658.1795357369089
 20
688.261982685811
 30
0.0
 11
658.1795357369089
 21
686.2621740392738
 31
0.0
  0
LINE
  5
14B
330
1F
100
AcDbEntity
  8
1-5ﾚｲﾔ
  6
Continuous
 62
     2
370
     9
100
AcDbLine
 10
658.1795357369089
 20
686.2621740392738
 30
0.0
 11
645.1792948954818
 21
686.2621740392738
 31
0.0
  0
LINE
  5
14C
330
1F
100
AcDbEntity
  8
1-5ﾚｲﾔ
  6
Continuous
 62
     2
370
     9
100
AcDbLine
 10
687.1794829497469
 20
690.2622862119932
 30
0.0
 11
672.1794334617823
 21
690.2622862119932
 31
0.0
  0
LINE
  5
14D
330
1F
100
AcDbEntity
  8
1-5ﾚｲﾔ
  6
Continuous
 62
     2
370
     9
100
AcDbLine
 10
631.1793971706084
 20
690.2622862119932
 30
0.0
 11
616.1793476826438
 21
690.2622862119932
 31
0.0
  0
LINE
  5
14E
330
1F
100
AcDbEntity
  8
1-5ﾚｲﾔ
  6
Continuous
 62
     2
370
     9
100
AcDbLine
 10
672.1794334617823
 20
690.2622862119932
 30
0.0
 11
672.1794334617823
 21
684.488525390625
 31
0.0
  0
LINE
  5
14F
330
1F
100
AcDbEntity
  8
1-5ﾚｲﾔ
  6
Continuous
 62
     2
370
     9
100
AcDbLine
 10
748.8667256123313
 20
677.3607738597974
 30
0.0
 11
702.4425609691724
 21
680.2622532200169
 31
0.0
  0
LINE
  5
150
330
1F
100
AcDbEntity
  8
1-5ﾚｲﾔ
  6
Continuous
 62
     2
370
     9
100
AcDbLine
 10
751.6796215160474
 20
664.1578798036318
 30
0.0
 11
751.6796215160474
 21
674.3665045660896
 31
0.0
  0
LINE
  5
151
330
1F
100
AcDbEntity
  8
1-5ﾚｲﾔ
  6
Continuous
 62
     2
370
     9
100
AcDbLine
 10
748.8667256123313
 20
661.1633630701016
 30
0.0
 11
702.4425609691724
 21
658.2621311497044
 31
0.0
  0
LINE
  5
152
330
1F
100
AcDbEntity
  8
1-5ﾚｲﾔ
  6
Continuous
 62
     2
370
     9
100
AcDbLine
 10
687.1794829497469
 20
690.2622862119932
 30
0.0
 11
687.1794829497469
 21
680.2622532200169
 31
0.0
  0
LINE
  5
153
330
1F
100
AcDbEntity
  8
1-5ﾚｲﾔ
  6
Continuous
 62
     2
370
     9
100
AcDbLine
 10
687.1794829497469
 20
658.2621311497044
 30
0.0
 11
687.1794829497469
 21
648.2623455975508
 31
0.0
  0
LINE
  5
154
330
1F
100
AcDbEntity
  8
1-5ﾚｲﾔ
  6
Continuous
 62
     2
370
     9
100
AcDbLine
 10
637.5012371991136
 20
658.2621311497044
 30
0.0
 11
702.4425609691724
 21
658.2621311497044
 31
0.0
  0
LINE
  5
155
330
1F
100
AcDbEntity
  8
1-5ﾚｲﾔ
  6
Continuous
 62
     2
370
     9
100
AcDbLine
 10
673.7618111275339
 20
660.2619397962417
 30
0.0
 11
673.7618111275339
 21
678.2619496938346
 31
0.0
  0
LINE
  5
156
330
1F
100
AcDbEntity
  8
1-5ﾚｲﾔ
  6
Continuous
 62
     2
370
     9
100
AcDbLine
 10
631.1793971706084
 20
684.488525390625
 30
0.0
 11
631.1793971706084
 21
690.2622862119932
 31
0.0
  0
LINE
  5
157
330
1F
100
AcDbEntity
  8
1-5ﾚｲﾔ
  6
Continuous
 62
     2
370
     9
100
AcDbLine
 10
637.5012371991136
 20
658.76220703125
 30
0.0
 11
616.1793476826438
 21
658.76220703125
 31
0.0
  0
LINE
  5
158
330
1F
100
AcDbEntity
  8
1-5ﾚｲﾔ
  6
Continuous
 62
     2
370
     9
100
AcDbLine
 10
637.5012371991136
 20
658.2621311497044
 30
0.0
 11
637.5012371991136
 21
680.2622532200169
 31
0.0
  0
LINE
  5
159
330
1F
100
AcDbEntity
  8
1-5ﾚｲﾔ
  6
Continuous
 62
     2
370
     9
100
AcDbLine
 10
637.5012371991136
 20
680.2622532200169
 30
0.0
 11
702.4425609691724
 21
680.2622532200169
 31
0.0
  0
LINE
  5
15A
330
1F
100
AcDbEntity
  8
1-5ﾚｲﾔ
  6
Continuous
 62
     2
370
     9
100
AcDbLine
 10
637.5012371991136
 20
679.7626722181167
 30
0.0
 11
616.1793476826438
 21
679.7626722181167
 31
0.0
  0
LINE
  5
15B
330
1F
100
AcDbEntity
  8
1-5ﾚｲﾔ
  6
Continuous
 62
     2
370
     9
100
AcDbLine
 10
609.8401868665542
 20
652.6373291015625
 30
0.0
 11
616.1793476826438
 21
652.6373291015625
 31
0.0
  0
LINE
  5
15C
330
1F
100
AcDbEntity
  8
1-5ﾚｲﾔ
  6
Continuous
 62
     2
370
     9
100
AcDbLine
 10
609.8401868665542
 20
685.8873027079815
 30
0.0
 11
616.1793476826438
 21
685.8873027079815
 31
0.0
  0
LINE
  5
15D
330
1F
100
AcDbEntity
  8
1-0ﾚｲﾔ
  6
JWW_DASHED1
 62
     2
370
     9
100
AcDbLine
 10
609.8401868665542
 20
685.8873027079815
 30
0.0
 11
602.3338524070948
 21
685.8873027079815
 31
0.0
  0
LINE
  5
15E
330
1F
100
AcDbEntity
  8
1-0ﾚｲﾔ
  6
JWW_DASHED1
 62
     2
370
     9
100
AcDbLine
 10
609.8401868665542
 20
652.6373291015625
 30
0.0
 11
602.3338524070948
 21
652.6373291015625
 31
0.0
  0
LINE
  5
15F
330
1F
100
AcDbEntity
  8
1-3ﾚｲﾔ
  6
Continuous
 62
     2
370
     9
100
AcDbLine
 10
168.1675266575169
 20
1103.411320866765
 30
0.0
 11
164.1448974609375
 21
1080.424161343961
 31
0.0
  0
LINE
  5
160
330
1F
100
AcDbEntity
  8
1-3ﾚｲﾔ
  6
Continuous
 62
     2
370
     9
100
AcDbLine
 10
226.5125996357688
 20
1103.411320866765
 30
0.0
 11
230.5352288323482
 21
1080.424161343961
 31
0.0
  0
LINE
  5
161
330
1F
100
AcDbEntity
  8
1-3ﾚｲﾔ
  6
Continuous
 62
     2
370
     9
100
AcDbLine
 10
168.1675266575169
 20
235.1128160631336
 30
0.0
 11
164.1448974609375
 21
258.0999755859375
 31
0.0
  0
LINE
  5
162
330
1F
100
AcDbEntity
  8
1-3ﾚｲﾔ
  6
Continuous
 62
     2
370
     9
100
AcDbLine
 10
226.5125996357688
 20
235.1128160631336
 30
0.0
 11
230.5352288323482
 21
258.0999755859375
 31
0.0
  0
LINE
  5
163
330
1F
100
AcDbEntity
  8
1-7
  6
Continuous
 62
     7
370
     9
100
AcDbLine
 10
193.3400746938347
 20
608.2619661898227
 30
0.0
 11
193.3400746938347
 21
730.2624181798988
 31
0.0
  0
LINE
  5
164
330
1F
100
AcDbEntity
  8
1-7
  6
Continuous
 62
     7
370
     9
100
AcDbLine
 10
201.340051599451
 20
608.2619661898227
 30
0.0
 11
201.340051599451
 21
730.2624181798988
 31
0.0
  0
LINE
  5
165
330
1F
100
AcDbEntity
  8
1-3ﾚｲﾔ
  6
JWW_CENTER2
 62
     2
370
     9
100
AcDbLine
 10
233.7403168549409
 20
1096.325634105785
 30
0.0
 11
160.9400568781675
 21
1096.325634105785
 31
0.0
  0
LINE
  5
166
330
1F
100
AcDbEntity
  8
1-3ﾚｲﾔ
  6
JWW_CENTER2
 62
     2
370
     9
100
AcDbLine
 10
-1616.828341097445
 20
476.2402013830237
 30
0.0
 11
-1462.284108754751
 21
476.2402013830237
 31
0.0
  0
LINE
  5
167
330
1F
100
AcDbEntity
  8
1-3ﾚｲﾔ
  6
Continuous
 62
     2
370
     9
100
AcDbLine
 10
-1525.919940020587
 20
531.4900496199325
 30
0.0
 11
-1475.92026994035
 21
531.4900496199325
 31
0.0
  0
LINE
  5
168
330
1F
100
AcDbEntity
  8
1-5ﾚｲﾔ
  6
Continuous
 62
     2
370
     9
100
AcDbLine
 10
-1355.919874036634
 20
-562.7596138619087
 30
0.0
 11
-906.1697882574957
 21
-562.7596138619087
 31
0.0
  0
LINE
  5
169
330
1F
100
AcDbEntity
  8
1-5ﾚｲﾔ
  6
Continuous
 62
     2
370
     9
100
AcDbLine
 10
-845.6700093037373
 20
-562.7596138619087
 30
0.0
 11
-795.9200060045396
 21
-562.7596138619087
 31
0.0
  0
LINE
  5
16A
330
1F
100
AcDbEntity
  8
1-2ﾚｲﾔ
  6
Continuous
 62
     6
370
     9
100
AcDbLine
 10
-664.9196727855783
 20
641.2402508709883
 30
0.0
 11
-663.4196925807644
 21
641.2402508709883
 31
0.0
  0
LINE
  5
16B
330
1F
100
AcDbEntity
  8
1-2ﾚｲﾔ
  6
Continuous
 62
     6
370
     9
100
AcDbLine
 10
-664.9196727855783
 20
651.2402838629646
 30
0.0
 11
-663.4196925807644
 21
651.2402838629646
 31
0.0
  0
LINE
  5
16C
330
1F
100
AcDbEntity
  8
1-2ﾚｲﾔ
  6
Continuous
 62
     6
370
     9
100
AcDbLine
 10
-664.9196727855783
 20
656.2400529191302
 30
0.0
 11
-664.9196727855783
 21
650.2401320998734
 31
0.0
  0
LINE
  5
16D
330
1F
100
AcDbEntity
  8
1-2ﾚｲﾔ
  6
Continuous
 62
     6
370
     9
100
AcDbLine
 10
-664.9196727855783
 20
642.2003173828125
 30
0.0
 11
-664.9196727855783
 21
627.7404290276606
 31
0.0
  0
LINE
  5
16E
330
1F
100
AcDbEntity
  8
1-2ﾚｲﾔ
  6
Continuous
 62
     6
370
     9
100
AcDbLine
 10
-663.4196925807644
 20
657.7402805637669
 30
0.0
 11
-663.4196925807644
 21
650.2401320998734
 31
0.0
  0
LINE
  5
16F
330
1F
100
AcDbEntity
  8
1-2ﾚｲﾔ
  6
Continuous
 62
     6
370
     9
100
AcDbLine
 10
-663.4196925807644
 20
642.2003173828125
 30
0.0
 11
-663.4196925807644
 21
627.7404290276606
 31
0.0
  0
LINE
  5
170
330
1F
100
AcDbEntity
  8
1-3ﾚｲﾔ
  6
JWW_CENTER2
 62
     2
370
     9
100
AcDbLine
 10
-675.5477080474029
 20
646.2402673669766
 30
0.0
 11
-648.9184817752323
 21
646.2402673669766
 31
0.0
  0
LINE
  5
171
330
1F
100
AcDbEntity
  8
1-5ﾚｲﾔ
  6
Continuous
 62
     2
370
     9
100
AcDbLine
 10
616.1793476826438
 20
648.2623455975508
 30
0.0
 11
616.1793476826438
 21
665.2223659206084
 31
0.0
  0
LINE
  5
172
330
1F
100
AcDbEntity
  8
1-5ﾚｲﾔ
  6
Continuous
 62
     2
370
     9
100
AcDbLine
 10
616.1793476826438
 20
673.262180637669
 30
0.0
 11
616.1793476826438
 21
690.2622862119932
 31
0.0
  0
LINE
  5
173
330
1F
100
AcDbEntity
  8
1-3ﾚｲﾔ
  6
Continuous
 62
     2
370
     9
100
AcDbLine
 10
-652.3338936470648
 20
650.2401320998734
 30
0.0
 11
-667.9196331952068
 21
650.2401320998734
 31
0.0
  0
LINE
  5
174
330
1F
100
AcDbEntity
  8
1-3ﾚｲﾔ
  6
Continuous
 62
     2
370
     9
100
AcDbLine
 10
-652.3338936470648
 20
650.2401320998734
 30
0.0
 11
-650.9197750607052
 21
648.8260135135135
 31
0.0
  0
LINE
  5
175
330
1F
100
AcDbEntity
  8
1-3ﾚｲﾔ
  6
Continuous
 62
     2
370
     9
100
AcDbLine
 10
-650.9197750607052
 20
643.6144359691724
 30
0.0
 11
-650.9197750607052
 21
648.8260135135135
 31
0.0
  0
LINE
  5
176
330
1F
100
AcDbEntity
  8
1-3ﾚｲﾔ
  6
Continuous
 62
     2
370
     9
100
AcDbLine
 10
-652.3338936470648
 20
642.2003173828125
 30
0.0
 11
-667.9196331952068
 21
642.2003173828125
 31
0.0
  0
LINE
  5
177
330
1F
100
AcDbEntity
  8
1-3ﾚｲﾔ
  6
Continuous
 62
     2
370
     9
100
AcDbLine
 10
-650.9197750607052
 20
643.6144359691724
 30
0.0
 11
-652.3338936470648
 21
642.2003173828125
 31
0.0
  0
LINE
  5
178
330
1F
100
AcDbEntity
  8
1-3ﾚｲﾔ
  6
Continuous
 62
     2
370
     9
100
AcDbLine
 10
620.926233240076
 20
673.262180637669
 30
0.0
 11
609.8206391205662
 21
673.262180637669
 31
0.0
  0
LINE
  5
179
330
1F
100
AcDbEntity
  8
1-3ﾚｲﾔ
  6
Continuous
 62
     2
370
     9
100
AcDbLine
 10
620.926233240076
 20
673.262180637669
 30
0.0
 11
622.340351826436
 21
671.8480620513092
 31
0.0
  0
LINE
  5
17A
330
1F
100
AcDbEntity
  8
1-3ﾚｲﾔ
  6
Continuous
 62
     2
370
     9
100
AcDbLine
 10
622.340351826436
 20
666.6362370671453
 30
0.0
 11
622.340351826436
 21
671.8480620513092
 31
0.0
  0
LINE
  5
17B
330
1F
100
AcDbEntity
  8
1-3ﾚｲﾔ
  6
Continuous
 62
     2
370
     9
100
AcDbLine
 10
620.926233240076
 20
665.2223659206084
 30
0.0
 11
609.8201442409209
 21
665.2223659206084
 31
0.0
  0
LINE
  5
17C
330
1F
100
AcDbEntity
  8
1-3ﾚｲﾔ
  6
Continuous
 62
     2
370
     9
100
AcDbLine
 10
622.340351826436
 20
666.6362370671453
 30
0.0
 11
620.926233240076
 21
665.2223659206084
 31
0.0
  0
LINE
  5
17D
330
1F
100
AcDbEntity
  8
1-3ﾚｲﾔ
  6
Continuous
 62
     2
370
     9
100
AcDbLine
 10
620.926233240076
 20
673.262180637669
 30
0.0
 11
620.926233240076
 21
665.2223659206084
 31
0.0
  0
LINE
  5
17E
330
1F
100
AcDbEntity
  8
1-0ﾚｲﾔ
  6
Continuous
 62
     2
370
     9
100
AcDbLine
 10
-587.919369259396
 20
-513.7596006651182
 30
0.0
 11
-587.919369259396
 21
-551.7595528267525
 31
0.0
  0
LINE
  5
17F
330
1F
100
AcDbEntity
  8
1-0ﾚｲﾔ
  6
Continuous
 62
     2
370
     9
100
AcDbLine
 10
-587.919369259396
 20
-548.8823225691511
 30
0.0
 11
-587.919369259396
 21
-516.6372020824535
 31
0.0
  0
LINE
  5
180
330
1F
100
AcDbEntity
  8
1-0ﾚｲﾔ
  6
Continuous
 62
     2
370
     9
100
AcDbLine
 10
-580.9194203969594
 20
-548.8823225691511
 30
0.0
 11
-580.9194203969594
 21
-516.6372020824535
 31
0.0
  0
LINE
  5
181
330
1F
100
AcDbEntity
  8
1-0ﾚｲﾔ
  6
Continuous
 62
     2
370
     9
100
AcDbLine
 10
-585.813285209037
 20
-554.2596847946579
 30
0.0
 11
-583.0255044473182
 21
-554.2596847946579
 31
0.0
  0
LINE
  5
182
330
1F
100
AcDbEntity
  8
1-0ﾚｲﾔ
  6
Continuous
 62
     2
370
     9
100
AcDbLine
 10
-585.813285209037
 20
-511.2597161370354
 30
0.0
 11
-583.0255044473182
 21
-511.2597161370354
 31
0.0
  0
LINE
  5
183
330
1F
100
AcDbEntity
  8
1-0ﾚｲﾔ
  6
Continuous
 62
     2
370
     9
100
AcDbLine
 10
-585.813285209037
 20
-543.5047129038218
 30
0.0
 11
-583.0256281672297
 21
-543.5047129038218
 31
0.0
  0
LINE
  5
184
330
1F
100
AcDbEntity
  8
1-0ﾚｲﾔ
  6
Continuous
 62
     2
370
     9
100
AcDbLine
 10
-585.813285209037
 20
-522.0146880278717
 30
0.0
 11
-583.0256281672297
 21
-522.0146880278717
 31
0.0
  0
LINE
  5
185
330
1F
100
AcDbEntity
  8
1-5ﾚｲﾔ
  6
Continuous
 62
     3
370
     9
100
AcDbLine
 10
-540.919288429054
 20
-539.7595874683276
 30
0.0
 11
-537.9193280194255
 21
-539.7595874683276
 31
0.0
  0
LINE
  5
186
330
1F
100
AcDbEntity
  8
1-5ﾚｲﾔ
  6
Continuous
 62
     3
370
     9
100
AcDbLine
 10
-537.9193280194255
 20
-525.7596897434543
 30
0.0
 11
-537.9193280194255
 21
-539.7595874683276
 31
0.0
  0
LINE
  5
187
330
1F
100
AcDbEntity
  8
1-5ﾚｲﾔ
  6
Continuous
 62
     3
370
     9
100
AcDbLine
 10
-540.919288429054
 20
-525.7596897434543
 30
0.0
 11
-537.9193280194255
 21
-525.7596897434543
 31
0.0
  0
LINE
  5
188
330
1F
100
AcDbEntity
  8
1-5ﾚｲﾔ
  6
Continuous
 62
     3
370
     9
100
AcDbLine
 10
-548.9193890545818
 20
-525.2596138619087
 30
0.0
 11
-548.9193890545818
 21
-540.2596633498733
 31
0.0
  0
LINE
  5
189
330
1F
100
AcDbEntity
  8
1-5ﾚｲﾔ
  6
Continuous
 62
     3
370
     9
100
AcDbLine
 10
-540.919288429054
 20
-539.7595874683276
 30
0.0
 11
-548.9193890545818
 21
-540.2596633498733
 31
0.0
  0
LINE
  5
18A
330
1F
100
AcDbEntity
  8
1-5ﾚｲﾔ
  6
Continuous
 62
     3
370
     9
100
AcDbLine
 10
-548.9193890545818
 20
-525.2596138619087
 30
0.0
 11
-540.919288429054
 21
-525.7596897434543
 31
0.0
  0
LINE
  5
18B
330
1F
100
AcDbEntity
  8
1-5ﾚｲﾔ
  6
Continuous
 62
     3
370
     9
100
AcDbLine
 10
-553.91940555057
 20
-525.7596897434543
 30
0.0
 11
-553.91940555057
 21
-539.7595874683276
 31
0.0
  0
LINE
  5
18C
330
1F
100
AcDbEntity
  8
1-5ﾚｲﾔ
  6
Continuous
 62
     3
370
     9
100
AcDbLine
 10
-555.4193857553842
 20
-525.7596897434543
 30
0.0
 11
-555.4193857553842
 21
-539.7595874683276
 31
0.0
  0
LINE
  5
18D
330
1F
100
AcDbEntity
  8
1-5ﾚｲﾔ
  6
Continuous
 62
     3
370
     9
100
AcDbLine
 10
-560.4192785314613
 20
-525.7596897434543
 30
0.0
 11
-560.4192785314613
 21
-539.7595874683276
 31
0.0
  0
LINE
  5
18E
330
1F
100
AcDbEntity
  8
1-5ﾚｲﾔ
  6
Continuous
 62
     3
370
     9
100
AcDbLine
 10
-561.9195061760979
 20
-525.7596897434543
 30
0.0
 11
-561.9195061760979
 21
-539.7595874683276
 31
0.0
  0
LINE
  5
18F
330
1F
100
AcDbEntity
  8
1-5ﾚｲﾔ
  6
Continuous
 62
     3
370
     9
100
AcDbLine
 10
-567.9194269953547
 20
-520.2947338207348
 30
0.0
 11
-576.919431944151
 21
-520.2947338207348
 31
0.0
  0
LINE
  5
190
330
1F
100
AcDbEntity
  8
1-5ﾚｲﾔ
  6
Continuous
 62
     3
370
     9
100
AcDbLine
 10
-567.9194269953547
 20
-520.2947338207348
 30
0.0
 11
-567.9194269953547
 21
-545.2595561259501
 31
0.0
  0
LINE
  5
191
330
1F
100
AcDbEntity
  8
1-5ﾚｲﾔ
  6
Continuous
 62
     3
370
     9
100
AcDbLine
 10
-567.9194269953547
 20
-545.2595561259501
 30
0.0
 11
-576.919431944151
 21
-545.2595561259501
 31
0.0
  0
LINE
  5
192
330
1F
100
AcDbEntity
  8
1-5ﾚｲﾔ
  6
Continuous
 62
     3
370
     9
100
AcDbLine
 10
-576.919431944151
 20
-520.2947338207348
 30
0.0
 11
-576.919431944151
 21
-545.2595561259501
 31
0.0
  0
LINE
  5
193
330
1F
100
AcDbEntity
  8
1-5ﾚｲﾔ
  6
Continuous
 62
     3
370
     9
100
AcDbLine
 10
-567.9194269953547
 20
-525.7596897434543
 30
0.0
 11
-548.9193890545818
 21
-525.7596897434543
 31
0.0
  0
LINE
  5
194
330
1F
100
AcDbEntity
  8
1-5ﾚｲﾔ
  6
Continuous
 62
     3
370
     9
100
AcDbLine
 10
-567.9194269953547
 20
-539.7595874683276
 30
0.0
 11
-548.9193890545818
 21
-539.7595874683276
 31
0.0
  0
LINE
  5
195
330
1F
100
AcDbEntity
  8
1-5ﾚｲﾔ
  6
Continuous
 62
     3
370
     9
100
AcDbLine
 10
-567.9194269953547
 20
-538.9893073004645
 30
0.0
 11
-576.919431944151
 21
-538.9893073004645
 31
0.0
  0
LINE
  5
196
330
1F
100
AcDbEntity
  8
1-5ﾚｲﾔ
  6
Continuous
 62
     3
370
     9
100
AcDbLine
 10
-567.9194269953547
 20
-526.5300936312287
 30
0.0
 11
-576.919431944151
 21
-526.5300936312287
 31
0.0
  0
LINE
  5
197
330
1F
100
AcDbEntity
  8
1-5ﾚｲﾔ
  6
Continuous
 62
     3
370
     9
100
AcDbLine
 10
-580.9194203969594
 20
-522.259529732369
 30
0.0
 11
-576.919431944151
 21
-522.259529732369
 31
0.0
  0
LINE
  5
198
330
1F
100
AcDbEntity
  8
1-5ﾚｲﾔ
  6
Continuous
 62
     3
370
     9
100
AcDbLine
 10
-580.9194203969594
 20
-543.2596237595017
 30
0.0
 11
-576.919431944151
 21
-543.2596237595017
 31
0.0
  0
LINE
  5
199
330
1F
100
AcDbEntity
  8
1-0ﾚｲﾔ
  6
JWW_CENTER1
 62
     2
370
     9
100
AcDbLine
 10
-686.6656741580448
 20
-532.759638605891
 30
0.0
 11
-518.8891024202915
 21
-532.759638605891
 31
0.0
  0
LINE
  5
19A
330
1F
100
AcDbEntity
  8
1-F
  6
Continuous
 62
     7
370
     9
100
AcDbLine
 10
-1712.146862133129
 20
-862.7596138619087
 30
0.0
 11
-1712.146862133129
 21
476.2402013830237
 31
0.0
  0
LINE
  5
19B
330
1F
100
AcDbEntity
  8
1-F
  6
Continuous
 62
     7
370
     9
100
AcDbLine
 10
-1712.146862133129
 20
-862.7596138619087
 30
0.0
 11
-1716.06259732633
 21
-833.016357421875
 31
0.0
  0
LINE
  5
19C
330
1F
100
AcDbEntity
  8
1-F
  6
Continuous
 62
     7
370
     9
100
AcDbLine
 10
-1712.146862133129
 20
-862.7596138619087
 30
0.0
 11
-1708.231126939928
 21
-833.016357421875
 31
0.0
  0
LINE
  5
19D
330
1F
100
AcDbEntity
  8
1-F
  6
Continuous
 62
     7
370
     9
100
AcDbLine
 10
-1712.146862133129
 20
476.2402013830237
 30
0.0
 11
-1716.06259732633
 21
446.4969449429898
 31
0.0
  0
LINE
  5
19E
330
1F
100
AcDbEntity
  8
1-F
  6
Continuous
 62
     7
370
     9
100
AcDbLine
 10
-1712.146862133129
 20
476.2402013830237
 30
0.0
 11
-1708.231126939928
 21
446.4969449429898
 31
0.0
  0
LINE
  5
19F
330
1F
100
AcDbEntity
  8
1-F
  6
Continuous
 62
     7
370
     9
100
AcDbLine
 10
-1488.420434900232
 20
1032.646500870988
 30
0.0
 11
-663.4196925807644
 21
1032.646500870988
 31
0.0
  0
LINE
  5
1A0
330
1F
100
AcDbEntity
  8
1-F
  6
Continuous
 62
     7
370
     9
100
AcDbLine
 10
-1488.420434900232
 20
687.740379539696
 30
0.0
 11
-1488.420434900232
 21
1035.646461280617
 31
0.0
  0
LINE
  5
1A1
330
1F
100
AcDbEntity
  8
1-F
  6
Continuous
 62
     7
370
     9
100
AcDbLine
 10
-663.4196925807644
 20
687.740379539696
 30
0.0
 11
-663.4196925807644
 21
1035.646461280617
 31
0.0
  0
LINE
  5
1A2
330
1F
100
AcDbEntity
  8
1-F
  6
Continuous
 62
     7
370
     9
100
AcDbLine
 10
-1488.420434900232
 20
1032.646500870988
 30
0.0
 11
-1458.677054740287
 21
1036.562236064189
 31
0.0
  0
LINE
  5
1A3
330
1F
100
AcDbEntity
  8
1-F
  6
Continuous
 62
     7
370
     9
100
AcDbLine
 10
-1488.420434900232
 20
1032.646500870988
 30
0.0
 11
-1458.677054740287
 21
1028.730765677787
 31
0.0
  0
LINE
  5
1A4
330
1F
100
AcDbEntity
  8
1-F
  6
Continuous
 62
     7
370
     9
100
AcDbLine
 10
-663.4196925807644
 20
1032.646500870988
 30
0.0
 11
-693.1629490207981
 21
1036.562236064189
 31
0.0
  0
LINE
  5
1A5
330
1F
100
AcDbEntity
  8
1-F
  6
Continuous
 62
     7
370
     9
100
AcDbLine
 10
-663.4196925807644
 20
1032.646500870988
 30
0.0
 11
-693.1629490207981
 21
1028.730765677787
 31
0.0
  0
LINE
  5
1A6
330
1F
100
AcDbEntity
  8
1-F
  6
Continuous
 62
     7
370
     9
100
AcDbLine
 10
-1488.420682340055
 20
966.9292058171453
 30
0.0
 11
-1360.919890532623
 21
966.9292058171453
 31
0.0
  0
LINE
  5
1A7
330
1F
100
AcDbEntity
  8
1-F
  6
Continuous
 62
     7
370
     9
100
AcDbLine
 10
-1488.420682340055
 20
966.9292058171453
 30
0.0
 11
-1458.67730218011
 21
970.8449410103464
 31
0.0
  0
LINE
  5
1A8
330
1F
100
AcDbEntity
  8
1-F
  6
Continuous
 62
     7
370
     9
100
AcDbLine
 10
-1488.420682340055
 20
966.9292058171453
 30
0.0
 11
-1458.67730218011
 21
963.0134706239443
 31
0.0
  0
LINE
  5
1A9
330
1F
100
AcDbEntity
  8
1-F
  6
Continuous
 62
     7
370
     9
100
AcDbLine
 10
-1360.919890532623
 20
966.9292058171453
 30
0.0
 11
-1390.663270692568
 21
970.8449410103464
 31
0.0
  0
LINE
  5
1AA
330
1F
100
AcDbEntity
  8
1-F
  6
Continuous
 62
     7
370
     9
100
AcDbLine
 10
-1360.919890532623
 20
966.9292058171453
 30
0.0
 11
-1390.663270692568
 21
963.0134706239443
 31
0.0
  0
LINE
  5
1AB
330
1F
100
AcDbEntity
  8
1-F
  6
Continuous
 62
     7
370
     9
100
AcDbLine
 10
-1580.920121476457
 20
316.9433923669766
 30
0.0
 11
-1480.920533876161
 21
316.9433923669766
 31
0.0
  0
LINE
  5
1AC
330
1F
100
AcDbEntity
  8
1-F
  6
Continuous
 62
     7
370
     9
100
AcDbLine
 10
-1580.920121476457
 20
387.9900463207349
 30
0.0
 11
-1580.920121476457
 21
313.9434319573482
 31
0.0
  0
LINE
  5
1AD
330
1F
100
AcDbEntity
  8
1-F
  6
Continuous
 62
     7
370
     9
100
AcDbLine
 10
-1580.920121476457
 20
316.9433923669766
 30
0.0
 11
-1551.176741316512
 21
320.8591275601773
 31
0.0
  0
LINE
  5
1AE
330
1F
100
AcDbEntity
  8
1-F
  6
Continuous
 62
     7
370
     9
100
AcDbLine
 10
-1580.920121476457
 20
316.9433923669766
 30
0.0
 11
-1551.176741316512
 21
313.0276571737755
 31
0.0
  0
LINE
  5
1AF
330
1F
100
AcDbEntity
  8
1-F
  6
Continuous
 62
     7
370
     9
100
AcDbLine
 10
-1480.920533876161
 20
316.9433923669766
 30
0.0
 11
-1510.663914036106
 21
320.8591275601773
 31
0.0
  0
LINE
  5
1B0
330
1F
100
AcDbEntity
  8
1-F
  6
Continuous
 62
     7
370
     9
100
AcDbLine
 10
-1480.920533876161
 20
316.9433923669766
 30
0.0
 11
-1510.663914036106
 21
313.0276571737755
 31
0.0
  0
LINE
  5
1B1
330
1F
100
AcDbEntity
  8
1-F
  6
Continuous
 62
     7
370
     9
100
AcDbLine
 10
-420.6183768607474
 20
-862.7596138619087
 30
0.0
 11
-420.6183768607474
 21
657.7402805637669
 31
0.0
  0
LINE
  5
1B2
330
1F
100
AcDbEntity
  8
1-F
  6
Continuous
 62
     7
370
     9
100
AcDbLine
 10
-785.9200967324745
 20
-862.7596138619087
 30
0.0
 11
-349.3309639595648
 21
-862.7596138619087
 31
0.0
  0
LINE
  5
1B3
330
1F
100
AcDbEntity
  8
1-F
  6
Continuous
 62
     7
370
     9
100
AcDbLine
 10
-420.6183768607474
 20
-862.7596138619087
 30
0.0
 11
-424.5341120539484
 21
-833.016357421875
 31
0.0
  0
LINE
  5
1B4
330
1F
100
AcDbEntity
  8
1-F
  6
Continuous
 62
     7
370
     9
100
AcDbLine
 10
-420.6183768607474
 20
-862.7596138619087
 30
0.0
 11
-416.7025179476352
 21
-833.016357421875
 31
0.0
  0
LINE
  5
1B5
330
1F
100
AcDbEntity
  8
1-F
  6
Continuous
 62
     7
370
     9
100
AcDbLine
 10
-416.7025179476352
 20
-533.0162337019636
 30
0.0
 11
-424.5341120539484
 21
-592.5029940218537
 31
0.0
  0
LINE
  5
1B6
330
1F
100
AcDbEntity
  8
1-F
  6
Continuous
 62
     7
370
     9
100
AcDbLine
 10
-424.5341120539484
 20
-533.0162337019636
 30
0.0
 11
-416.7025179476352
 21
-592.5029940218537
 31
0.0
  0
LINE
  5
1B7
330
1F
100
AcDbEntity
  8
1-F
  6
Continuous
 62
     7
370
     9
100
AcDbLine
 10
-633.4197173247467
 20
657.7402805637669
 30
0.0
 11
-349.3309639595648
 21
657.7402805637669
 31
0.0
  0
LINE
  5
1B8
330
1F
100
AcDbEntity
  8
1-F
  6
Continuous
 62
     7
370
     9
100
AcDbLine
 10
-420.6183768607474
 20
657.7402805637669
 30
0.0
 11
-424.5341120539484
 21
627.9970241237334
 31
0.0
  0
LINE
  5
1B9
330
1F
100
AcDbEntity
  8
1-F
  6
Continuous
 62
     7
370
     9
100
AcDbLine
 10
-420.6183768607474
 20
657.7402805637669
 30
0.0
 11
-416.7025179476352
 21
627.9970241237334
 31
0.0
  0
LINE
  5
1BA
330
1F
100
AcDbEntity
  8
1-F
  6
Continuous
 62
     7
370
     9
100
AcDbLine
 10
-352.3310480891047
 20
-862.7596138619087
 30
0.0
 11
-352.3310480891047
 21
657.7402805637669
 31
0.0
  0
LINE
  5
1BB
330
1F
100
AcDbEntity
  8
1-F
  6
Continuous
 62
     7
370
     9
100
AcDbLine
 10
-352.3310480891047
 20
-862.7596138619087
 30
0.0
 11
-356.2469070022169
 21
-833.016357421875
 31
0.0
  0
LINE
  5
1BC
330
1F
100
AcDbEntity
  8
1-F
  6
Continuous
 62
     7
370
     9
100
AcDbLine
 10
-352.3310480891047
 20
-862.7596138619087
 30
0.0
 11
-348.4151891759922
 21
-833.016357421875
 31
0.0
  0
LINE
  5
1BD
330
1F
100
AcDbEntity
  8
1-F
  6
Continuous
 62
     7
370
     9
100
AcDbLine
 10
-352.3310480891047
 20
657.7402805637669
 30
0.0
 11
-356.2469070022169
 21
627.9970241237334
 31
0.0
  0
LINE
  5
1BE
330
1F
100
AcDbEntity
  8
1-F
  6
Continuous
 62
     7
370
     9
100
AcDbLine
 10
-352.3310480891047
 20
657.7402805637669
 30
0.0
 11
-348.4151891759922
 21
627.9970241237334
 31
0.0
  0
LINE
  5
1BF
330
1F
100
AcDbEntity
  8
1-F
  6
Continuous
 62
     7
370
     9
100
AcDbLine
 10
-495.4360137114654
 20
-862.7596138619087
 30
0.0
 11
-495.4360137114654
 21
-532.759638605891
 31
0.0
  0
LINE
  5
1C0
330
1F
100
AcDbEntity
  8
1-F
  6
Continuous
 62
     7
370
     9
100
AcDbLine
 10
-495.4360137114654
 20
-862.7596138619087
 30
0.0
 11
-499.3517489046664
 21
-833.016357421875
 31
0.0
  0
LINE
  5
1C1
330
1F
100
AcDbEntity
  8
1-F
  6
Continuous
 62
     7
370
     9
100
AcDbLine
 10
-495.4360137114654
 20
-862.7596138619087
 30
0.0
 11
-491.5201547983528
 21
-833.016357421875
 31
0.0
  0
LINE
  5
1C2
330
1F
100
AcDbEntity
  8
1-F
  6
Continuous
 62
     7
370
     9
100
AcDbLine
 10
-495.4360137114654
 20
-532.759638605891
 30
0.0
 11
-499.3517489046664
 21
-562.503018765836
 31
0.0
  0
LINE
  5
1C3
330
1F
100
AcDbEntity
  8
1-F
  6
Continuous
 62
     7
370
     9
100
AcDbLine
 10
-495.4360137114654
 20
-532.759638605891
 30
0.0
 11
-491.5201547983528
 21
-562.503018765836
 31
0.0
  0
LINE
  5
1C4
330
1F
100
AcDbEntity
  8
1-F
  6
Continuous
 62
     7
370
     9
100
AcDbLine
 10
-642.4195985536318
 20
-562.7596138619087
 30
0.0
 11
-525.9728096626898
 21
-562.7596138619087
 31
0.0
  0
LINE
  5
1C5
330
1F
100
AcDbEntity
  8
1-F
  6
Continuous
 62
     7
370
     9
100
AcDbLine
 10
-1618.522685282939
 20
657.7402805637669
 30
0.0
 11
-1618.522685282939
 21
759.2408381281675
 31
0.0
  0
LINE
  5
1C6
330
1F
100
AcDbEntity
  8
1-F
  6
Continuous
 62
     7
370
     9
100
AcDbLine
 10
-1518.42041015625
 20
657.7402805637669
 30
0.0
 11
-1621.522645692567
 21
657.7402805637669
 31
0.0
  0
LINE
  5
1C7
330
1F
100
AcDbEntity
  8
1-F
  6
Continuous
 62
     7
370
     9
100
AcDbLine
 10
-1449.170416754645
 20
759.2408381281675
 30
0.0
 11
-1789.51139707823
 21
759.2408381281675
 31
0.0
  0
LINE
  5
1C8
330
1F
100
AcDbEntity
  8
1-F
  6
Continuous
 62
     7
370
     9
100
AcDbLine
 10
-1618.522685282939
 20
657.7402805637669
 30
0.0
 11
-1622.43842047614
 21
687.4835370038008
 31
0.0
  0
LINE
  5
1C9
330
1F
100
AcDbEntity
  8
1-F
  6
Continuous
 62
     7
370
     9
100
AcDbLine
 10
-1618.522685282939
 20
657.7402805637669
 30
0.0
 11
-1614.606950089738
 21
687.4835370038008
 31
0.0
  0
LINE
  5
1CA
330
1F
100
AcDbEntity
  8
1-F
  6
Continuous
 62
     7
370
     9
100
AcDbLine
 10
-1618.522685282939
 20
759.2408381281675
 30
0.0
 11
-1622.43842047614
 21
729.4975816881336
 31
0.0
  0
LINE
  5
1CB
330
1F
100
AcDbEntity
  8
1-F
  6
Continuous
 62
     7
370
     9
100
AcDbLine
 10
-1618.522685282939
 20
759.2408381281675
 30
0.0
 11
-1614.606950089738
 21
729.4975816881336
 31
0.0
  0
LINE
  5
1CC
330
1F
100
AcDbEntity
  8
1-F
  6
Continuous
 62
     7
370
     9
100
AcDbLine
 10
-1786.511436668602
 20
-862.7596138619087
 30
0.0
 11
-1786.511436668602
 21
759.2408381281675
 31
0.0
  0
LINE
  5
1CD
330
1F
100
AcDbEntity
  8
1-F
  6
Continuous
 62
     7
370
     9
100
AcDbLine
 10
-1786.511436668602
 20
-862.7596138619087
 30
0.0
 11
-1790.427171861803
 21
-833.016357421875
 31
0.0
  0
LINE
  5
1CE
330
1F
100
AcDbEntity
  8
1-F
  6
Continuous
 62
     7
370
     9
100
AcDbLine
 10
-1786.511436668602
 20
-862.7596138619087
 30
0.0
 11
-1782.595701475401
 21
-833.016357421875
 31
0.0
  0
LINE
  5
1CF
330
1F
100
AcDbEntity
  8
1-F
  6
Continuous
 62
     7
370
     9
100
AcDbLine
 10
-1786.511436668602
 20
759.2408381281675
 30
0.0
 11
-1790.427171861803
 21
729.4975816881336
 31
0.0
  0
LINE
  5
1D0
330
1F
100
AcDbEntity
  8
1-F
  6
Continuous
 62
     7
370
     9
100
AcDbLine
 10
-1786.511436668602
 20
759.2408381281675
 30
0.0
 11
-1782.595701475401
 21
729.4975816881336
 31
0.0
  0
LINE
  5
1D1
330
1F
100
AcDbEntity
  8
1-F
  6
Continuous
 62
     7
370
     9
100
AcDbLine
 10
-1335.920055492504
 20
-1043.90647269584
 30
0.0
 11
-815.9200719884925
 21
-1043.90647269584
 31
0.0
  0
LINE
  5
1D2
330
1F
100
AcDbEntity
  8
1-F
  6
Continuous
 62
     7
370
     9
100
AcDbLine
 10
-1335.920055492504
 20
-892.7595891179266
 30
0.0
 11
-1335.920055492504
 21
-1046.90655682538
 31
0.0
  0
LINE
  5
1D3
330
1F
100
AcDbEntity
  8
1-F
  6
Continuous
 62
     7
370
     9
100
AcDbLine
 10
-815.9200719884925
 20
-892.7595891179266
 30
0.0
 11
-815.9200719884925
 21
-1046.90655682538
 31
0.0
  0
LINE
  5
1D4
330
1F
100
AcDbEntity
  8
1-F
  6
Continuous
 62
     7
370
     9
100
AcDbLine
 10
-1335.920055492504
 20
-1043.90647269584
 30
0.0
 11
-1306.176675332559
 21
-1039.990737502639
 31
0.0
  0
LINE
  5
1D5
330
1F
100
AcDbEntity
  8
1-F
  6
Continuous
 62
     7
370
     9
100
AcDbLine
 10
-1335.920055492504
 20
-1043.90647269584
 30
0.0
 11
-1306.176675332559
 21
-1047.822331608952
 31
0.0
  0
LINE
  5
1D6
330
1F
100
AcDbEntity
  8
1-F
  6
Continuous
 62
     7
370
     9
100
AcDbLine
 10
-815.9200719884925
 20
-1043.90647269584
 30
0.0
 11
-845.6633284285261
 21
-1039.990737502639
 31
0.0
  0
LINE
  5
1D7
330
1F
100
AcDbEntity
  8
1-F
  6
Continuous
 62
     7
370
     9
100
AcDbLine
 10
-815.9200719884925
 20
-1043.90647269584
 30
0.0
 11
-845.6633284285261
 21
-1047.822331608952
 31
0.0
  0
LINE
  5
1D8
330
1F
100
AcDbEntity
  8
1-F
  6
Continuous
 62
     7
370
     9
100
AcDbLine
 10
-1311.982974490604
 20
734.6158744193415
 30
0.0
 11
-1293.720183501373
 21
758.4166160789698
 31
0.0
  0
LINE
  5
1D9
330
1F
100
AcDbEntity
  8
1-F
  6
Continuous
 62
     7
370
     9
100
AcDbLine
 10
-1311.982974490604
 20
734.6158744193415
 30
0.0
 11
-1288.182480270798
 21
752.87841796875
 31
0.0
  0
LINE
  5
1DA
330
1F
100
AcDbEntity
  8
1-F
  6
Continuous
 62
     7
370
     9
100
AcDbLine
 10
-1311.982974490604
 20
734.6158744193415
 30
0.0
 11
-1217.674997690562
 21
828.923603779561
 31
0.0
  0
LINE
  5
1DB
330
1F
100
AcDbEntity
  8
1-F
  6
Continuous
 62
     7
370
     9
100
AcDbLine
 10
-1070.920170964421
 20
682.7406104835304
 30
0.0
 11
-1052.65737997519
 21
706.5413521431589
 31
0.0
  0
LINE
  5
1DC
330
1F
100
AcDbEntity
  8
1-F
  6
Continuous
 62
     7
370
     9
100
AcDbLine
 10
-1070.920170964421
 20
682.7406104835304
 30
0.0
 11
-1047.119553024704
 21
701.0036489125846
 31
0.0
  0
LINE
  5
1DD
330
1F
100
AcDbEntity
  8
1-F
  6
Continuous
 62
     7
370
     9
100
AcDbLine
 10
-1070.920170964421
 20
682.7406104835304
 30
0.0
 11
-924.0045083535683
 21
829.6565205342063
 31
0.0
  0
LINE
  5
1DE
330
1F
100
AcDbEntity
  8
1-F
  6
Continuous
 62
     7
370
     9
100
AcDbLine
 10
-713.4485605600717
 20
661.6253332189613
 30
0.0
 11
-695.1857695708404
 21
685.4260748785896
 31
0.0
  0
LINE
  5
1DF
330
1F
100
AcDbEntity
  8
1-F
  6
Continuous
 62
     7
370
     9
100
AcDbLine
 10
-713.4485605600717
 20
661.6253332189613
 30
0.0
 11
-689.6479426203547
 21
679.8883716480154
 31
0.0
  0
LINE
  5
1E0
330
1F
100
AcDbEntity
  8
1-F
  6
Continuous
 62
     7
370
     9
100
AcDbLine
 10
-713.4485605600717
 20
661.6253332189613
 30
0.0
 11
-541.5328154692779
 21
833.5415731894005
 31
0.0
  0
LINE
  5
1E1
330
1F
100
AcDbEntity
  8
1-F
  6
Continuous
 62
     7
370
     9
100
AcDbLine
 10
-546.513407939189
 20
588.6612680796031
 30
0.0
 11
-651.4501623205238
 21
647.2505641627959
 31
0.0
  0
LINE
  5
1E2
330
1F
100
AcDbEntity
  8
1-F
  6
Continuous
 62
     7
370
     9
100
AcDbLine
 10
-651.4501623205238
 20
647.2505641627959
 30
0.0
 11
-623.5714886639568
 21
636.1697140255492
 31
0.0
  0
LINE
  5
1E3
330
1F
100
AcDbEntity
  8
1-F
  6
Continuous
 62
     7
370
     9
100
AcDbLine
 10
-651.4501623205238
 20
647.2505641627959
 30
0.0
 11
-627.3893614073057
 21
629.3319619668498
 31
0.0
  0
LINE
  5
1E4
330
1F
100
AcDbEntity
  8
1-F
  6
Continuous
 62
     7
370
     9
100
AcDbLine
 10
-551.4425329259925
 20
-539.7595874683276
 30
0.0
 11
-555.3583918391047
 21
-569.5028439083615
 31
0.0
  0
LINE
  5
1E5
330
1F
100
AcDbEntity
  8
1-F
  6
Continuous
 62
     7
370
     9
100
AcDbLine
 10
-551.4425329259925
 20
-539.7595874683276
 30
0.0
 11
-562.9229983767948
 21
-567.4758168813344
 31
0.0
  0
LINE
  5
1E6
330
1F
100
AcDbEntity
  8
1-F
  6
Continuous
 62
     7
370
     9
100
AcDbLine
 10
-551.4425329259925
 20
-539.7595874683276
 30
0.0
 11
-583.1614726298562
 21
-658.1357883762668
 31
0.0
  0
LINE
  5
1E7
330
1F
100
AcDbEntity
  8
1-F
  6
Continuous
 62
     7
370
     9
100
AcDbLine
 10
-815.9200719884925
 20
-748.104907886402
 30
0.0
 11
-797.6572809992609
 21
-724.3044136665962
 31
0.0
  0
LINE
  5
1E8
330
1F
100
AcDbEntity
  8
1-F
  6
Continuous
 62
     7
370
     9
100
AcDbLine
 10
-815.9200719884925
 20
-748.104907886402
 30
0.0
 11
-792.1194540487752
 21
-729.8421168971706
 31
0.0
  0
LINE
  5
1E9
330
1F
100
AcDbEntity
  8
1-F
  6
Continuous
 62
     7
370
     9
100
AcDbLine
 10
-721.5447915566932
 20
-653.1310705236485
 30
0.0
 11
-815.9200719884925
 21
-748.104907886402
 31
0.0
  0
LINE
  5
1EA
330
1F
100
AcDbEntity
  8
1-F
  6
Continuous
 62
     7
370
     9
100
AcDbLine
 10
-906.1697882574957
 20
-611.5097128378377
 30
0.0
 11
-1087.249467179582
 21
-792.589391759924
 31
0.0
  0
LINE
  5
1EB
330
1F
100
AcDbEntity
  8
1-F
  6
Continuous
 62
     7
370
     9
100
AcDbLine
 10
-906.1697882574957
 20
-611.5097128378377
 30
0.0
 11
-924.4325792467271
 21
-635.3102070576435
 31
0.0
  0
LINE
  5
1EC
330
1F
100
AcDbEntity
  8
1-F
  6
Continuous
 62
     7
370
     9
100
AcDbLine
 10
-906.1697882574957
 20
-611.5097128378377
 30
0.0
 11
-929.9704061972127
 21
-629.7725038270693
 31
0.0
  0
LINE
  5
1ED
330
1F
100
AcDbEntity
  8
1-F
  6
Continuous
 62
     7
370
     9
100
AcDbLine
 10
-482.7292364996831
 20
-562.7596138619087
 30
0.0
 11
-417.6182927312078
 21
-562.7596138619087
 31
0.0
  0
LINE
  5
1EE
330
1F
100
AcDbEntity
  8
1-F
  6
Continuous
 62
     7
370
     9
100
AcDbLine
 10
-671.2960732949745
 20
132.3023120777029
 30
0.0
 11
-653.0332823057432
 21
156.1030537373313
 31
0.0
  0
LINE
  5
1EF
330
1F
100
AcDbEntity
  8
1-F
  6
Continuous
 62
     7
370
     9
100
AcDbLine
 10
-671.2960732949745
 20
132.3023120777029
 30
0.0
 11
-647.4954553552575
 21
150.5653505067568
 31
0.0
  0
LINE
  5
1F0
330
1F
100
AcDbEntity
  8
1-F
  6
Continuous
 62
     7
370
     9
100
AcDbLine
 10
-671.2960732949745
 20
132.3023120777029
 30
0.0
 11
-576.9880964949323
 21
226.6105363175677
 31
0.0
  0
LINE
  5
1F1
330
1F
100
AcDbEntity
  8
1-F
  6
JWW_PHANTOM2
 62
     7
370
     9
100
AcDbLine
 10
-1479.420058791702
 20
409.2401782886404
 30
0.0
 11
-672.4195738096495
 21
409.2401782886404
 31
0.0
  0
LINE
  5
1F2
330
1F
100
AcDbEntity
  8
1-F
  6
Continuous
 62
     7
370
     9
100
AcDbLine
 10
-1480.920533876161
 20
-254.1685032200168
 30
0.0
 11
-670.9198410446578
 21
-254.1685032200168
 31
0.0
  0
LINE
  5
1F3
330
1F
100
AcDbEntity
  8
1-F
  6
Continuous
 62
     7
370
     9
100
AcDbLine
 10
-1480.920533876161
 20
-254.1685032200168
 30
0.0
 11
-1451.177153716216
 21
-250.2527680268157
 31
0.0
  0
LINE
  5
1F4
330
1F
100
AcDbEntity
  8
1-F
  6
Continuous
 62
     7
370
     9
100
AcDbLine
 10
-1480.920533876161
 20
-254.1685032200168
 30
0.0
 11
-1451.177153716216
 21
-258.0842384132178
 31
0.0
  0
LINE
  5
1F5
330
1F
100
AcDbEntity
  8
1-F
  6
Continuous
 62
     7
370
     9
100
AcDbLine
 10
-670.9198410446578
 20
-254.1685032200168
 30
0.0
 11
-700.6630974846917
 21
-250.2527680268157
 31
0.0
  0
LINE
  5
1F6
330
1F
100
AcDbEntity
  8
1-F
  6
Continuous
 62
     7
370
     9
100
AcDbLine
 10
-670.9198410446578
 20
-254.1685032200168
 30
0.0
 11
-700.6630974846917
 21
-258.0842384132178
 31
0.0
  0
LINE
  5
1F7
330
1F
100
AcDbEntity
  8
1-F
  6
Continuous
 62
     7
370
     9
100
AcDbLine
 10
-1634.433684477935
 20
587.2036000844596
 30
0.0
 11
-1580.920121476457
 21
533.6902845228042
 31
0.0
  0
LINE
  5
1F8
330
1F
100
AcDbEntity
  8
1-F
  6
Continuous
 62
     7
370
     9
100
AcDbLine
 10
-1580.920121476457
 20
533.6902845228042
 30
0.0
 11
-1604.720739416174
 21
551.9533229518584
 31
0.0
  0
LINE
  5
1F9
330
1F
100
AcDbEntity
  8
1-F
  6
Continuous
 62
     7
370
     9
100
AcDbLine
 10
-1580.920121476457
 20
533.6902845228042
 30
0.0
 11
-1599.182912465688
 21
557.4910261824325
 31
0.0
  0
LINE
  5
1FA
330
1F
100
AcDbEntity
  8
1-1ﾚｲﾔ
  6
JWW_CENTER2
 62
     3
370
     9
100
AcDbLine
 10
197.3399394267315
 20
204.972666147593
 30
0.0
 11
197.3399394267315
 21
1133.551470782306
 31
0.0
  0
LINE
  5
1FB
330
1F
100
AcDbEntity
  8
1-F
  6
Continuous
 62
     7
370
     9
100
AcDbLine
 10
-800.9318996120144
 20
-560.7598052153717
 30
0.0
 11
-804.8477585251266
 21
-531.0164250554265
 31
0.0
  0
LINE
  5
1FC
330
1F
100
AcDbEntity
  8
1-F
  6
Continuous
 62
     7
370
     9
100
AcDbLine
 10
-800.9318996120144
 20
-560.7598052153717
 30
0.0
 11
-797.0160406989021
 21
-531.0164250554265
 31
0.0
  0
LINE
  5
1FD
330
1F
100
AcDbEntity
  8
1-F
  6
Continuous
 62
     7
370
     9
100
AcDbLine
 10
-800.9318996120144
 20
409.2401782886404
 30
0.0
 11
-804.8477585251266
 21
379.4966744087839
 31
0.0
  0
LINE
  5
1FE
330
1F
100
AcDbEntity
  8
1-F
  6
Continuous
 62
     7
370
     9
100
AcDbLine
 10
-800.9318996120144
 20
409.2401782886404
 30
0.0
 11
-797.0160406989021
 21
379.4966744087839
 31
0.0
  0
LINE
  5
1FF
330
1F
100
AcDbEntity
  8
1-1ﾚｲﾔ
  6
JWW_CENTER2
 62
     3
370
     9
100
AcDbLine
 10
-1075.92018746041
 20
703.1833463101776
 30
0.0
 11
-1075.92018746041
 21
437.3357329497466
 31
0.0
  0
LINE
  5
200
330
1F
100
AcDbEntity
  8
1-F
  6
Continuous
 62
     7
370
     9
100
AcDbLine
 10
-800.9318996120144
 20
-560.7598052153717
 30
0.0
 11
-800.9318996120144
 21
409.2401782886404
 31
0.0
  0
LINE
  5
201
330
1F
100
AcDbEntity
  8
1-1ﾚｲﾔ
  6
JWW_CENTER2
 62
     3
370
     9
100
AcDbLine
 10
-1075.92018746041
 20
390.4221323374156
 30
0.0
 11
-1075.92018746041
 21
-180.6021695523648
 31
0.0
  0
LINE
  5
202
330
1F
100
AcDbEntity
  8
1-1ﾚｲﾔ
  6
JWW_CENTER2
 62
     3
370
     9
100
AcDbLine
 10
-1075.92018746041
 20
-275.0902825432854
 30
0.0
 11
-1075.92018746041
 21
-645.9513566300676
 31
0.0
  0
LINE
  5
203
330
1F
100
AcDbEntity
  8
1-F
  6
Continuous
 62
     7
370
     9
100
AcDbLine
 10
-518.8891024202915
 20
-532.759638605891
 30
0.0
 11
-492.4359295819255
 21
-532.759638605891
 31
0.0
  0
LINE
  5
204
330
1F
100
AcDbEntity
  8
1-1ﾚｲﾔ
  6
JWW_CENTER2
 62
     3
370
     9
100
AcDbLine
 10
-334.9759900892101
 20
669.2623159047721
 30
0.0
 11
772.227766707137
 21
669.2623159047721
 31
0.0
  0
LINE
  5
205
330
1F
100
AcDbEntity
  8
1-5ﾚｲﾔ
  6
Continuous
 62
     2
370
     9
100
AcDbLine
 10
976.6417632231844
 20
669.2623159047721
 30
0.0
 11
979.6417236328125
 21
669.2623159047721
 31
0.0
  0
LINE
  5
206
330
1F
100
AcDbEntity
  8
1-3ﾚｲﾔ
  6
Continuous
 62
     2
370
     9
100
AcDbLine
 10
1370.244783968539
 20
1115.825871648015
 30
0.0
 11
1399.038861248944
 21
1115.825871648015
 31
0.0
  0
LINE
  5
207
330
1F
100
AcDbEntity
  8
1-3ﾚｲﾔ
  6
Continuous
 62
     2
370
     9
100
AcDbLine
 10
1377.221597207559
 20
1108.826293945312
 30
0.0
 11
1392.061553130279
 21
1108.826293945312
 31
0.0
  0
LINE
  5
208
330
1F
100
AcDbEntity
  8
1-3ﾚｲﾔ
  6
Continuous
 62
     2
370
     9
100
AcDbLine
 10
1377.221597207559
 20
1083.825964025549
 30
0.0
 11
1392.061553130279
 21
1083.825964025549
 31
0.0
  0
LINE
  5
209
330
1F
100
AcDbEntity
  8
1-3ﾚｲﾔ
  6
Continuous
 62
     2
370
     9
100
AcDbLine
 10
1370.244783968539
 20
222.6987601615289
 30
0.0
 11
1399.038861248944
 21
222.6987601615289
 31
0.0
  0
LINE
  5
20A
330
1F
100
AcDbEntity
  8
1-3ﾚｲﾔ
  6
JWW_CENTER2
 62
     2
370
     9
100
AcDbLine
 10
1406.603591506546
 20
242.1985028241133
 30
0.0
 11
1361.617547112542
 21
242.1985028241133
 31
0.0
  0
LINE
  5
20B
330
1F
100
AcDbEntity
  8
1-3ﾚｲﾔ
  6
Continuous
 62
     2
370
     9
100
AcDbLine
 10
1377.221597207559
 20
229.6988327438768
 30
0.0
 11
1392.061553130279
 21
229.6988327438768
 31
0.0
  0
LINE
  5
20C
330
1F
100
AcDbEntity
  8
1-3ﾚｲﾔ
  6
Continuous
 62
     2
370
     9
100
AcDbLine
 10
1377.221597207559
 20
254.6986677839951
 30
0.0
 11
1392.061553130279
 21
254.6986677839951
 31
0.0
  0
LINE
  5
20D
330
1F
100
AcDbEntity
  8
1-3ﾚｲﾔ
  6
Continuous
 62
     2
370
     9
100
AcDbLine
 10
929.6418061127537
 20
611.0115174989443
 30
0.0
 11
934.6418226087417
 21
613.2119998416385
 31
0.0
  0
LINE
  5
20E
330
1F
100
AcDbEntity
  8
1-3ﾚｲﾔ
  6
Continuous
 62
     2
370
     9
100
AcDbLine
 10
929.6418061127537
 20
611.0115174989443
 30
0.0
 11
929.6418061127537
 21
727.5123719911318
 31
0.0
  0
LINE
  5
20F
330
1F
100
AcDbEntity
  8
1-3ﾚｲﾔ
  6
Continuous
 62
     2
370
     9
100
AcDbLine
 10
934.6418226087417
 20
613.2119998416385
 30
0.0
 11
934.6418226087417
 21
725.3121370882602
 31
0.0
  0
LINE
  5
210
330
1F
100
AcDbEntity
  8
1-3ﾚｲﾔ
  6
Continuous
 62
     2
370
     9
100
AcDbLine
 10
929.6418061127537
 20
727.5123719911318
 30
0.0
 11
934.6418226087417
 21
725.3121370882602
 31
0.0
  0
LINE
  5
211
330
1F
100
AcDbEntity
  8
1-3ﾚｲﾔ
  6
Continuous
 62
     2
370
     9
100
AcDbLine
 10
879.6418885926943
 20
611.0115174989443
 30
0.0
 11
929.6418061127537
 21
611.0115174989443
 31
0.0
  0
LINE
  5
212
330
1F
100
AcDbEntity
  8
1-3ﾚｲﾔ
  6
Continuous
 62
     2
370
     9
100
AcDbLine
 10
879.6418885926943
 20
611.0115174989443
 30
0.0
 11
879.6418885926943
 21
727.5123719911318
 31
0.0
  0
LINE
  5
213
330
1F
100
AcDbEntity
  8
1-3ﾚｲﾔ
  6
Continuous
 62
     2
370
     9
100
AcDbLine
 10
879.6418885926943
 20
727.5123719911318
 30
0.0
 11
929.6418061127537
 21
727.5123719911318
 31
0.0
  0
LINE
  5
214
330
1F
100
AcDbEntity
  8
1-3ﾚｲﾔ
  6
Continuous
 62
     2
370
     9
100
AcDbLine
 10
934.6418226087417
 20
725.3121370882602
 30
0.0
 11
980.5099899704396
 21
725.3121370882602
 31
0.0
  0
LINE
  5
215
330
1F
100
AcDbEntity
  8
1-3ﾚｲﾔ
  6
Continuous
 62
     2
370
     9
100
AcDbLine
 10
934.6418226087417
 20
613.2119998416385
 30
0.0
 11
980.5099899704396
 21
613.2119998416385
 31
0.0
  0
LINE
  5
216
330
1F
100
AcDbEntity
  8
1-3ﾚｲﾔ
  6
JWW_CENTER2
 62
     2
370
     9
100
AcDbLine
 10
1421.042200036951
 20
1096.325634105785
 30
0.0
 11
1348.241445180532
 21
1096.325634105785
 31
0.0
  0
LINE
  5
217
330
1F
100
AcDbEntity
  8
1-1ﾚｲﾔ
  6
JWW_CENTER2
 62
     3
370
     9
100
AcDbLine
 10
1384.641822608742
 20
204.972666147593
 30
0.0
 11
1384.641822608742
 21
1133.551470782306
 31
0.0
  0
LINE
  5
218
330
1F
100
AcDbEntity
  8
1-1ﾚｲﾔ
  6
JWW_CENTER2
 62
     3
370
     9
100
AcDbLine
 10
852.3255219330662
 20
669.2623159047721
 30
0.0
 11
1959.529649889148
 21
669.2623159047721
 31
0.0
  0
LINE
  5
219
330
1F
100
AcDbEntity
  8
1-2ﾚｲﾔ
  6
Continuous
 62
     6
370
     9
100
AcDbLine
 10
977.2952517947635
 20
604.2623488967484
 30
0.0
 11
981.8528458878802
 21
604.2623488967484
 31
0.0
  0
LINE
  5
21A
330
1F
100
AcDbEntity
  8
1-5ﾚｲﾔ
  6
Continuous
 62
     2
370
     9
100
AcDbLine
 10
1104.641888592694
 20
389.2621344489021
 30
0.0
 11
1104.641888592694
 21
949.2622499208193
 31
0.0
  0
LINE
  5
21B
330
1F
100
AcDbEntity
  8
1-5ﾚｲﾔ
  6
Continuous
 62
     2
370
     9
100
AcDbLine
 10
1104.641888592694
 20
949.2622499208193
 30
0.0
 11
1664.641756624789
 21
949.2622499208193
 31
0.0
  0
LINE
  5
21C
330
1F
100
AcDbEntity
  8
1-5ﾚｲﾔ
  6
Continuous
 62
     2
370
     9
100
AcDbLine
 10
1394.641360721073
 20
409.262200432855
 30
0.0
 11
1394.641360721073
 21
929.2621839368667
 31
0.0
  0
LINE
  5
21D
330
1F
100
AcDbEntity
  8
1-5ﾚｲﾔ
  6
Continuous
 62
     2
370
     9
100
AcDbLine
 10
1374.641789616766
 20
409.262200432855
 30
0.0
 11
1374.641789616766
 21
929.2621839368667
 31
0.0
  0
LINE
  5
21E
330
1F
100
AcDbEntity
  8
1-5ﾚｲﾔ
  6
Continuous
 62
     2
370
     9
100
AcDbLine
 10
1144.641525680955
 20
449.2618375211148
 30
0.0
 11
1144.641525680955
 21
889.2625468486065
 31
0.0
  0
LINE
  5
21F
330
1F
100
AcDbEntity
  8
1-0ﾚｲﾔ
  6
JWW_CENTER1
 62
     7
370
     9
100
AcDbLine
 10
1199.640469937711
 20
898.888945708404
 30
0.0
 11
1199.640717377534
 21
919.6397441142315
 31
0.0
  0
LINE
  5
220
330
1F
100
AcDbEntity
  8
1-5ﾚｲﾔ
  6
Continuous
 62
     2
370
     9
100
AcDbLine
 10
1224.64030497783
 20
889.2640314875425
 30
0.0
 11
1224.64030497783
 21
929.2616890572214
 31
0.0
  0
LINE
  5
221
330
1F
100
AcDbEntity
  8
1-5ﾚｲﾔ
  6
Continuous
 62
     2
370
     9
100
AcDbLine
 10
1104.641888592694
 20
949.2622499208193
 30
0.0
 11
1124.641459697002
 21
929.2621839368667
 31
0.0
  0
LINE
  5
222
330
1F
100
AcDbEntity
  8
1-5ﾚｲﾔ
  6
Continuous
 62
     2
370
     9
100
AcDbLine
 10
1124.641459697002
 20
929.2621839368667
 30
0.0
 11
1644.641690640836
 21
929.2621839368667
 31
0.0
  0
LINE
  5
223
330
1F
100
AcDbEntity
  8
1-5ﾚｲﾔ
  6
Continuous
 62
     2
370
     9
100
AcDbLine
 10
1224.64030497783
 20
909.2621179529141
 30
0.0
 11
1374.641789616766
 21
909.2621179529141
 31
0.0
  0
LINE
  5
224
330
1F
100
AcDbEntity
  8
1-5ﾚｲﾔ
  6
Continuous
 62
     2
370
     9
100
AcDbLine
 10
1124.641459697002
 20
889.2605673300255
 30
0.0
 11
1224.641542176943
 21
889.2660110061234
 31
0.0
  0
LINE
  5
225
330
1F
100
AcDbEntity
  8
1-0ﾚｲﾔ
  6
JWW_CENTER1
 62
     7
370
     9
100
AcDbLine
 10
1210.013889622044
 20
909.2621179529141
 30
0.0
 11
1189.263091216216
 21
909.2621179529141
 31
0.0
  0
LINE
  5
226
330
1F
100
AcDbEntity
  8
1-5ﾚｲﾔ
  6
Continuous
 62
     2
370
     9
100
AcDbLine
 10
1104.641888592694
 20
389.2623818887247
 30
0.0
 11
1664.641756624789
 21
389.2623818887247
 31
0.0
  0
LINE
  5
227
330
1F
100
AcDbEntity
  8
1-0ﾚｲﾔ
  6
JWW_CENTER1
 62
     7
370
     9
100
AcDbLine
 10
1199.640469937711
 20
439.6356861011404
 30
0.0
 11
1199.640717377534
 21
418.8848876953125
 31
0.0
  0
LINE
  5
228
330
1F
100
AcDbEntity
  8
1-5ﾚｲﾔ
  6
Continuous
 62
     2
370
     9
100
AcDbLine
 10
1224.64030497783
 20
449.2606003220018
 30
0.0
 11
1224.64030497783
 21
409.2629427523227
 31
0.0
  0
LINE
  5
229
330
1F
100
AcDbEntity
  8
1-5ﾚｲﾔ
  6
Continuous
 62
     2
370
     9
100
AcDbLine
 10
1104.641888592694
 20
389.2623818887247
 30
0.0
 11
1124.641459697002
 21
409.2624478726773
 31
0.0
  0
LINE
  5
22A
330
1F
100
AcDbEntity
  8
1-5ﾚｲﾔ
  6
Continuous
 62
     2
370
     9
100
AcDbLine
 10
1124.641459697002
 20
409.2624478726773
 30
0.0
 11
1644.641690640836
 21
409.2624478726773
 31
0.0
  0
LINE
  5
22B
330
1F
100
AcDbEntity
  8
1-5ﾚｲﾔ
  6
Continuous
 62
     2
370
     9
100
AcDbLine
 10
1224.64030497783
 20
429.2625138566302
 30
0.0
 11
1374.641789616766
 21
429.2625138566302
 31
0.0
  0
LINE
  5
22C
330
1F
100
AcDbEntity
  8
1-5ﾚｲﾔ
  6
Continuous
 62
     2
370
     9
100
AcDbLine
 10
1124.641459697002
 20
449.2640644795188
 30
0.0
 11
1224.641542176943
 21
449.2586208034209
 31
0.0
  0
LINE
  5
22D
330
1F
100
AcDbEntity
  8
1-0ﾚｲﾔ
  6
JWW_CENTER1
 62
     7
370
     9
100
AcDbLine
 10
1210.013889622044
 20
429.2625138566302
 30
0.0
 11
1189.263091216216
 21
429.2625138566302
 31
0.0
  0
LINE
  5
22E
330
1F
100
AcDbEntity
  8
1-5ﾚｲﾔ
  6
Continuous
 62
     2
370
     9
100
AcDbLine
 10
1124.641459697002
 20
409.2624478726773
 30
0.0
 11
1124.641459697002
 21
929.2621839368667
 31
0.0
  0
LINE
  5
22F
330
1F
100
AcDbEntity
  8
1-5ﾚｲﾔ
  6
Continuous
 62
     2
370
     9
100
AcDbLine
 10
1664.641756624789
 20
389.2621344489021
 30
0.0
 11
1664.641756624789
 21
949.2622499208193
 31
0.0
  0
LINE
  5
230
330
1F
100
AcDbEntity
  8
1-5ﾚｲﾔ
  6
Continuous
 62
     2
370
     9
100
AcDbLine
 10
1624.642119536529
 20
449.2618375211148
 30
0.0
 11
1624.642119536529
 21
889.2625468486065
 31
0.0
  0
LINE
  5
231
330
1F
100
AcDbEntity
  8
1-0ﾚｲﾔ
  6
JWW_CENTER1
 62
     7
370
     9
100
AcDbLine
 10
1569.643175279773
 20
898.888945708404
 30
0.0
 11
1569.642680400127
 21
919.6397441142315
 31
0.0
  0
LINE
  5
232
330
1F
100
AcDbEntity
  8
1-5ﾚｲﾔ
  6
Continuous
 62
     2
370
     9
100
AcDbLine
 10
1544.643340239654
 20
889.2640314875425
 30
0.0
 11
1544.643340239654
 21
929.2616890572214
 31
0.0
  0
LINE
  5
233
330
1F
100
AcDbEntity
  8
1-5ﾚｲﾔ
  6
Continuous
 62
     2
370
     9
100
AcDbLine
 10
1664.641756624789
 20
949.2622499208193
 30
0.0
 11
1644.642185520482
 21
929.2621839368667
 31
0.0
  0
LINE
  5
234
330
1F
100
AcDbEntity
  8
1-5ﾚｲﾔ
  6
Continuous
 62
     2
370
     9
100
AcDbLine
 10
1644.642185520482
 20
889.2605673300255
 30
0.0
 11
1544.642350480364
 21
889.2660110061234
 31
0.0
  0
LINE
  5
235
330
1F
100
AcDbEntity
  8
1-0ﾚｲﾔ
  6
JWW_CENTER1
 62
     7
370
     9
100
AcDbLine
 10
1559.270003035262
 20
909.2621179529141
 30
0.0
 11
1580.020306561444
 21
909.2621179529141
 31
0.0
  0
LINE
  5
236
330
1F
100
AcDbEntity
  8
1-0ﾚｲﾔ
  6
JWW_CENTER1
 62
     7
370
     9
100
AcDbLine
 10
1569.643175279773
 20
439.6356861011404
 30
0.0
 11
1569.642680400127
 21
418.8848876953125
 31
0.0
  0
LINE
  5
237
330
1F
100
AcDbEntity
  8
1-5ﾚｲﾔ
  6
Continuous
 62
     2
370
     9
100
AcDbLine
 10
1544.643340239654
 20
449.2606003220018
 30
0.0
 11
1544.643340239654
 21
409.2629427523227
 31
0.0
  0
LINE
  5
238
330
1F
100
AcDbEntity
  8
1-5ﾚｲﾔ
  6
Continuous
 62
     2
370
     9
100
AcDbLine
 10
1664.641756624789
 20
389.2623818887247
 30
0.0
 11
1644.642185520482
 21
409.2624478726773
 31
0.0
  0
LINE
  5
239
330
1F
100
AcDbEntity
  8
1-5ﾚｲﾔ
  6
Continuous
 62
     2
370
     9
100
AcDbLine
 10
1644.642185520482
 20
449.2640644795188
 30
0.0
 11
1544.642350480364
 21
449.2586208034209
 31
0.0
  0
LINE
  5
23A
330
1F
100
AcDbEntity
  8
1-0ﾚｲﾔ
  6
JWW_CENTER1
 62
     7
370
     9
100
AcDbLine
 10
1559.270003035262
 20
429.2625138566302
 30
0.0
 11
1580.020306561444
 21
429.2625138566302
 31
0.0
  0
LINE
  5
23B
330
1F
100
AcDbEntity
  8
1-5ﾚｲﾔ
  6
Continuous
 62
     2
370
     9
100
AcDbLine
 10
1644.642185520482
 20
409.2624478726773
 30
0.0
 11
1644.642185520482
 21
929.2621839368667
 31
0.0
  0
LINE
  5
23C
330
1F
100
AcDbEntity
  8
1-5ﾚｲﾔ
  6
Continuous
 62
     2
370
     9
100
AcDbLine
 10
1394.641360721073
 20
429.2625138566302
 30
0.0
 11
1544.643340239654
 21
429.2625138566302
 31
0.0
  0
LINE
  5
23D
330
1F
100
AcDbEntity
  8
1-5ﾚｲﾔ
  6
Continuous
 62
     2
370
     9
100
AcDbLine
 10
1394.641360721073
 20
909.2621179529141
 30
0.0
 11
1544.643340239654
 21
909.2621179529141
 31
0.0
  0
LINE
  5
23E
330
1F
100
AcDbEntity
  8
1-3ﾚｲﾔ
  6
Continuous
 62
     2
370
     9
100
AcDbLine
 10
1355.469162399705
 20
1103.411320866765
 30
0.0
 11
1350.644580737965
 21
1075.843307907517
 31
0.0
  0
LINE
  5
23F
330
1F
100
AcDbEntity
  8
1-3ﾚｲﾔ
  6
Continuous
 62
     2
370
     9
100
AcDbLine
 10
1413.813987938134
 20
1103.411320866765
 30
0.0
 11
1418.638569599873
 21
1075.84355534734
 31
0.0
  0
LINE
  5
240
330
1F
100
AcDbEntity
  8
1-3ﾚｲﾔ
  6
Continuous
 62
     2
370
     9
100
AcDbLine
 10
1355.469162399705
 20
235.1128160631336
 30
0.0
 11
1350.644580737965
 21
262.6813239020271
 31
0.0
  0
LINE
  5
241
330
1F
100
AcDbEntity
  8
1-3ﾚｲﾔ
  6
Continuous
 62
     2
370
     9
100
AcDbLine
 10
1413.813987938134
 20
235.1128160631336
 30
0.0
 11
1418.638569599873
 21
262.6813239020271
 31
0.0
  0
LINE
  5
242
330
1F
100
AcDbEntity
  8
1-0ﾚｲﾔ
  6
Continuous
 62
     2
370
     9
100
AcDbLine
 10
1803.141743427998
 20
685.8873027079815
 30
0.0
 11
1789.182178394215
 21
685.8873027079815
 31
0.0
  0
LINE
  5
243
330
1F
100
AcDbEntity
  8
1-0ﾚｲﾔ
  6
Continuous
 62
     2
370
     9
100
AcDbLine
 10
1803.141743427998
 20
652.6368342219175
 30
0.0
 11
1789.182178394215
 21
652.6368342219175
 31
0.0
  0
LINE
  5
244
330
1F
100
AcDbEntity
  8
1-0ﾚｲﾔ
  6
Continuous
 62
     2
370
     9
100
AcDbLine
 10
1803.141743427998
 20
648.2620981577281
 30
0.0
 11
1803.141743427998
 21
690.2620387721709
 31
0.0
  0
LINE
  5
245
330
1F
100
AcDbEntity
  8
1-0ﾚｲﾔ
  6
Continuous
 62
     2
370
     9
100
AcDbLine
 10
1832.141690640836
 20
650.2619068042654
 30
0.0
 11
1832.141690640836
 21
652.2622103304477
 31
0.0
  0
LINE
  5
246
330
1F
100
AcDbEntity
  8
1-0ﾚｲﾔ
  6
Continuous
 62
     2
370
     9
100
AcDbLine
 10
1832.141690640836
 20
650.2619068042654
 30
0.0
 11
1818.142040355785
 21
650.2619068042654
 31
0.0
  0
LINE
  5
247
330
1F
100
AcDbEntity
  8
1-0ﾚｲﾔ
  6
Continuous
 62
     2
370
     9
100
AcDbLine
 10
1845.142178922086
 20
650.2619068042654
 30
0.0
 11
1859.142324086782
 21
650.2619068042654
 31
0.0
  0
LINE
  5
248
330
1F
100
AcDbEntity
  8
1-0ﾚｲﾔ
  6
Continuous
 62
     2
370
     9
100
AcDbLine
 10
1845.142178922086
 20
650.2619068042654
 30
0.0
 11
1845.142178922086
 21
652.2622103304477
 31
0.0
  0
LINE
  5
249
330
1F
100
AcDbEntity
  8
1-0ﾚｲﾔ
  6
Continuous
 62
     2
370
     9
100
AcDbLine
 10
1845.142178922086
 20
652.2622103304477
 30
0.0
 11
1832.141690640836
 21
652.2622103304477
 31
0.0
  0
LINE
  5
24A
330
1F
100
AcDbEntity
  8
1-0ﾚｲﾔ
  6
Continuous
 62
     2
370
     9
100
AcDbLine
 10
1874.142126134924
 20
648.2620981577281
 30
0.0
 11
1859.142324086782
 21
648.2620981577281
 31
0.0
  0
LINE
  5
24B
330
1F
100
AcDbEntity
  8
1-0ﾚｲﾔ
  6
Continuous
 62
     2
370
     9
100
AcDbLine
 10
1818.142040355785
 20
648.2620981577281
 30
0.0
 11
1803.141743427998
 21
648.2620981577281
 31
0.0
  0
LINE
  5
24C
330
1F
100
AcDbEntity
  8
1-0ﾚｲﾔ
  6
Continuous
 62
     2
370
     9
100
AcDbLine
 10
1859.142324086782
 20
648.2620981577281
 30
0.0
 11
1859.142324086782
 21
654.0358589790964
 31
0.0
  0
LINE
  5
24D
330
1F
100
AcDbEntity
  8
1-0ﾚｲﾔ
  6
Continuous
 62
     2
370
     9
100
AcDbLine
 10
1818.142040355785
 20
648.2620981577281
 30
0.0
 11
1818.142040355785
 21
654.0358589790964
 31
0.0
  0
LINE
  5
24E
330
1F
100
AcDbEntity
  8
1-0ﾚｲﾔ
  6
Continuous
 62
     2
370
     9
100
AcDbLine
 10
1832.141690640836
 20
688.2622301256336
 30
0.0
 11
1832.141690640836
 21
686.261926599451
 31
0.0
  0
LINE
  5
24F
330
1F
100
AcDbEntity
  8
1-0ﾚｲﾔ
  6
Continuous
 62
     2
370
     9
100
AcDbLine
 10
1832.141690640836
 20
688.2622301256336
 30
0.0
 11
1818.142040355785
 21
688.2622301256336
 31
0.0
  0
LINE
  5
250
330
1F
100
AcDbEntity
  8
1-0ﾚｲﾔ
  6
Continuous
 62
     2
370
     9
100
AcDbLine
 10
1845.142178922086
 20
688.2622301256336
 30
0.0
 11
1859.142324086782
 21
688.2622301256336
 31
0.0
  0
LINE
  5
251
330
1F
100
AcDbEntity
  8
1-0ﾚｲﾔ
  6
Continuous
 62
     2
370
     9
100
AcDbLine
 10
1845.142178922086
 20
688.2622301256336
 30
0.0
 11
1845.142178922086
 21
686.261926599451
 31
0.0
  0
LINE
  5
252
330
1F
100
AcDbEntity
  8
1-0ﾚｲﾔ
  6
Continuous
 62
     2
370
     9
100
AcDbLine
 10
1845.142178922086
 20
686.261926599451
 30
0.0
 11
1832.141690640836
 21
686.261926599451
 31
0.0
  0
LINE
  5
253
330
1F
100
AcDbEntity
  8
1-0ﾚｲﾔ
  6
Continuous
 62
     2
370
     9
100
AcDbLine
 10
1874.142126134924
 20
690.2620387721709
 30
0.0
 11
1859.142324086782
 21
690.2620387721709
 31
0.0
  0
LINE
  5
254
330
1F
100
AcDbEntity
  8
1-0ﾚｲﾔ
  6
Continuous
 62
     2
370
     9
100
AcDbLine
 10
1818.142040355785
 20
690.2620387721709
 30
0.0
 11
1803.141743427998
 21
690.2620387721709
 31
0.0
  0
LINE
  5
255
330
1F
100
AcDbEntity
  8
1-0ﾚｲﾔ
  6
Continuous
 62
     2
370
     9
100
AcDbLine
 10
1859.142324086782
 20
690.2620387721709
 30
0.0
 11
1859.142324086782
 21
684.4887728304477
 31
0.0
  0
LINE
  5
256
330
1F
100
AcDbEntity
  8
1-0ﾚｲﾔ
  6
Continuous
 62
     2
370
     9
100
AcDbLine
 10
1874.142126134924
 20
690.2620387721709
 30
0.0
 11
1874.142126134924
 21
648.2620981577281
 31
0.0
  0
LINE
  5
257
330
1F
100
AcDbEntity
  8
1-0ﾚｲﾔ
  6
Continuous
 62
     2
370
     9
100
AcDbLine
 10
1876.248333905194
 20
647.7622697160052
 30
0.0
 11
1879.035990947002
 21
647.7622697160052
 31
0.0
  0
LINE
  5
258
330
1F
100
AcDbEntity
  8
1-0ﾚｲﾔ
  6
Continuous
 62
     2
370
     9
100
AcDbLine
 10
1876.248333905194
 20
690.7618672138938
 30
0.0
 11
1879.035990947002
 21
690.7618672138938
 31
0.0
  0
LINE
  5
259
330
1F
100
AcDbEntity
  8
1-0ﾚｲﾔ
  6
Continuous
 62
     2
370
     9
100
AcDbLine
 10
1881.142198717273
 20
653.139631941512
 30
0.0
 11
1881.142198717273
 21
685.384504988387
 31
0.0
  0
LINE
  5
25A
330
1F
100
AcDbEntity
  8
1-0ﾚｲﾔ
  6
Continuous
 62
     2
370
     9
100
AcDbLine
 10
1874.142126134924
 20
653.139631941512
 30
0.0
 11
1874.142126134924
 21
685.3849998680323
 31
0.0
  0
LINE
  5
25B
330
1F
100
AcDbEntity
  8
1-0ﾚｲﾔ
  6
Continuous
 62
     2
370
     9
100
AcDbLine
 10
1789.2202841269
 20
685.1623040276606
 30
0.0
 11
1803.141743427998
 21
685.1623040276606
 31
0.0
  0
LINE
  5
25C
330
1F
100
AcDbEntity
  8
1-0ﾚｲﾔ
  6
Continuous
 62
     2
370
     9
100
AcDbLine
 10
1789.2202841269
 20
653.3623277818836
 30
0.0
 11
1803.141743427998
 21
653.3623277818836
 31
0.0
  0
LINE
  5
25D
330
1F
100
AcDbEntity
  8
1-0ﾚｲﾔ
  6
Continuous
 62
     2
370
     9
100
AcDbLine
 10
1818.142040355785
 20
684.4887728304477
 30
0.0
 11
1818.142040355785
 21
690.2620387721709
 31
0.0
  0
LINE
  5
25E
330
1F
100
AcDbEntity
  8
1-0ﾚｲﾔ
  6
Continuous
 62
     2
370
     9
100
AcDbLine
 10
1874.142126134924
 20
679.7621773384714
 30
0.0
 11
1803.141743427998
 21
679.7621773384714
 31
0.0
  0
LINE
  5
25F
330
1F
100
AcDbEntity
  8
1-0ﾚｲﾔ
  6
Continuous
 62
     2
370
     9
100
AcDbLine
 10
1874.142126134924
 20
658.7624544710727
 30
0.0
 11
1803.141743427998
 21
658.7624544710727
 31
0.0
  0
LINE
  5
260
330
1F
100
AcDbEntity
  8
1-0ﾚｲﾔ
  6
Continuous
 62
     2
370
     9
100
AcDbLine
 10
1876.248333905194
 20
658.5169941670188
 30
0.0
 11
1879.035496067357
 21
658.5169941670188
 31
0.0
  0
LINE
  5
261
330
1F
100
AcDbEntity
  8
1-0ﾚｲﾔ
  6
Continuous
 62
     2
370
     9
100
AcDbLine
 10
1876.248333905194
 20
680.0071427628802
 30
0.0
 11
1879.035496067357
 21
680.0071427628802
 31
0.0
  0
LINE
  5
262
330
1F
100
AcDbEntity
  8
1-5ﾚｲﾔ
  6
Continuous
 62
     3
370
     9
100
AcDbLine
 10
1921.142330685178
 20
662.2622433224242
 30
0.0
 11
1924.142291094806
 21
662.2622433224242
 31
0.0
  0
LINE
  5
263
330
1F
100
AcDbEntity
  8
1-5ﾚｲﾔ
  6
Continuous
 62
     3
370
     9
100
AcDbLine
 10
1924.142291094806
 20
676.26238848712
 30
0.0
 11
1924.142291094806
 21
662.2622433224242
 31
0.0
  0
LINE
  5
264
330
1F
100
AcDbEntity
  8
1-5ﾚｲﾔ
  6
Continuous
 62
     3
370
     9
100
AcDbLine
 10
1921.142330685178
 20
676.26238848712
 30
0.0
 11
1924.142291094806
 21
676.26238848712
 31
0.0
  0
LINE
  5
265
330
1F
100
AcDbEntity
  8
1-5ﾚｲﾔ
  6
Continuous
 62
     3
370
     9
100
AcDbLine
 10
1913.142106339739
 20
676.7622169288429
 30
0.0
 11
1913.142106339739
 21
661.762414880701
 31
0.0
  0
LINE
  5
266
330
1F
100
AcDbEntity
  8
1-5ﾚｲﾔ
  6
Continuous
 62
     3
370
     9
100
AcDbLine
 10
1921.142330685178
 20
662.2622433224242
 30
0.0
 11
1913.142106339739
 21
661.762414880701
 31
0.0
  0
LINE
  5
267
330
1F
100
AcDbEntity
  8
1-5ﾚｲﾔ
  6
Continuous
 62
     3
370
     9
100
AcDbLine
 10
1913.142106339739
 20
676.7622169288429
 30
0.0
 11
1921.142330685178
 21
676.26238848712
 31
0.0
  0
LINE
  5
268
330
1F
100
AcDbEntity
  8
1-5ﾚｲﾔ
  6
Continuous
 62
     3
370
     9
100
AcDbLine
 10
1908.142337283573
 20
676.26238848712
 30
0.0
 11
1908.142337283573
 21
662.2622433224242
 31
0.0
  0
LINE
  5
269
330
1F
100
AcDbEntity
  8
1-5ﾚｲﾔ
  6
Continuous
 62
     3
370
     9
100
AcDbLine
 10
1906.641862199114
 20
676.26238848712
 30
0.0
 11
1906.641862199114
 21
662.2622433224242
 31
0.0
  0
LINE
  5
26A
330
1F
100
AcDbEntity
  8
1-5ﾚｲﾔ
  6
Continuous
 62
     3
370
     9
100
AcDbLine
 10
1901.642093142948
 20
676.26238848712
 30
0.0
 11
1901.642093142948
 21
662.2622433224242
 31
0.0
  0
LINE
  5
26B
330
1F
100
AcDbEntity
  8
1-5ﾚｲﾔ
  6
Continuous
 62
     3
370
     9
100
AcDbLine
 10
1900.142112938134
 20
676.26238848712
 30
0.0
 11
1900.142112938134
 21
662.2622433224242
 31
0.0
  0
LINE
  5
26C
330
1F
100
AcDbEntity
  8
1-5ﾚｲﾔ
  6
Continuous
 62
     3
370
     9
100
AcDbLine
 10
1894.142192118877
 20
681.7273444098396
 30
0.0
 11
1885.141816010346
 21
681.7273444098396
 31
0.0
  0
LINE
  5
26D
330
1F
100
AcDbEntity
  8
1-5ﾚｲﾔ
  6
Continuous
 62
     3
370
     9
100
AcDbLine
 10
1894.142192118877
 20
681.7273444098396
 30
0.0
 11
1894.142192118877
 21
656.7621509448904
 31
0.0
  0
LINE
  5
26E
330
1F
100
AcDbEntity
  8
1-5ﾚｲﾔ
  6
Continuous
 62
     3
370
     9
100
AcDbLine
 10
1894.142192118877
 20
656.7621509448904
 30
0.0
 11
1885.141816010346
 21
656.7621509448904
 31
0.0
  0
LINE
  5
26F
330
1F
100
AcDbEntity
  8
1-5ﾚｲﾔ
  6
Continuous
 62
     3
370
     9
100
AcDbLine
 10
1885.141816010346
 20
681.7273444098396
 30
0.0
 11
1885.141816010346
 21
656.7621509448904
 31
0.0
  0
LINE
  5
270
330
1F
100
AcDbEntity
  8
1-5ﾚｲﾔ
  6
Continuous
 62
     3
370
     9
100
AcDbLine
 10
1894.142192118877
 20
676.26238848712
 30
0.0
 11
1913.142106339739
 21
676.26238848712
 31
0.0
  0
LINE
  5
271
330
1F
100
AcDbEntity
  8
1-5ﾚｲﾔ
  6
Continuous
 62
     3
370
     9
100
AcDbLine
 10
1894.142192118877
 20
662.2622433224242
 30
0.0
 11
1913.142106339739
 21
662.2622433224242
 31
0.0
  0
LINE
  5
272
330
1F
100
AcDbEntity
  8
1-5ﾚｲﾔ
  6
Continuous
 62
     3
370
     9
100
AcDbLine
 10
1894.142192118877
 20
663.0327709301099
 30
0.0
 11
1885.141816010346
 21
663.0327709301099
 31
0.0
  0
LINE
  5
273
330
1F
100
AcDbEntity
  8
1-5ﾚｲﾔ
  6
Continuous
 62
     3
370
     9
100
AcDbLine
 10
1894.142192118877
 20
675.4918608794342
 30
0.0
 11
1885.141816010346
 21
675.4918608794342
 31
0.0
  0
LINE
  5
274
330
1F
100
AcDbEntity
  8
1-5ﾚｲﾔ
  6
Continuous
 62
     3
370
     9
100
AcDbLine
 10
1881.141703837627
 20
679.7621773384714
 30
0.0
 11
1885.141816010346
 21
679.7621773384714
 31
0.0
  0
LINE
  5
275
330
1F
100
AcDbEntity
  8
1-5ﾚｲﾔ
  6
Continuous
 62
     3
370
     9
100
AcDbLine
 10
1881.141703837627
 20
658.7624544710727
 30
0.0
 11
1885.141816010346
 21
658.7624544710727
 31
0.0
  0
LINE
  5
276
330
1F
100
AcDbEntity
  8
1-0ﾚｲﾔ
  6
Continuous
 62
     2
370
     9
100
AcDbLine
 10
1881.142198717273
 20
658.2621311497044
 30
0.0
 11
1885.141816010346
 21
658.2621311497044
 31
0.0
  0
LINE
  5
277
330
1F
100
AcDbEntity
  8
1-0ﾚｲﾔ
  6
Continuous
 62
     2
370
     9
100
AcDbLine
 10
1881.142198717273
 20
680.2620057801943
 30
0.0
 11
1885.141816010346
 21
680.2620057801943
 31
0.0
  0
LINE
  5
278
330
1F
100
AcDbEntity
  8
1-0ﾚｲﾔ
  6
Continuous
 62
     2
370
     9
100
AcDbLine
 10
1938.642264701225
 20
664.1576323638092
 30
0.0
 11
1938.642264701225
 21
674.3665045660896
 31
0.0
  0
LINE
  5
279
330
1F
100
AcDbEntity
  8
1-0ﾚｲﾔ
  6
Continuous
 62
     2
370
     9
100
AcDbLine
 10
1935.829368797509
 20
661.1636105099242
 30
0.0
 11
1894.142192118877
 21
658.558069177576
 31
0.0
  0
LINE
  5
27A
330
1F
100
AcDbEntity
  8
1-0ﾚｲﾔ
  6
Continuous
 62
     2
370
     9
100
AcDbLine
 10
1935.829368797509
 20
677.3605264199748
 30
0.0
 11
1894.142192118877
 21
679.9660677523227
 31
0.0
  0
LINE
  5
27B
330
1F
100
AcDbEntity
  8
1-2ﾚｲﾔ
  6
Continuous
 62
     6
370
     9
100
AcDbLine
 10
977.2952517947635
 20
734.2620354729731
 30
0.0
 11
981.8528458878802
 21
734.2620354729731
 31
0.0
  0
LINE
  5
27C
330
1F
100
AcDbEntity
  8
1-0ﾚｲﾔ
  6
JWW_CENTER2
 62
     2
370
     9
100
AcDbLine
 10
1543.291823928421
 20
759.2623653927367
 30
0.0
 11
1622.28253338788
 21
759.2623653927367
 31
0.0
  0
LINE
  5
27D
330
1F
100
AcDbEntity
  8
1-0ﾚｲﾔ
  6
Continuous
 62
     2
370
     9
100
AcDbLine
 10
1572.141822608742
 20
746.762200432855
 30
0.0
 11
1572.141822608742
 21
771.7620354729731
 31
0.0
  0
LINE
  5
27E
330
1F
100
AcDbEntity
  8
1-0ﾚｲﾔ
  6
Continuous
 62
     2
370
     9
100
AcDbLine
 10
1597.142152528505
 20
771.7620354729731
 30
0.0
 11
1597.142152528505
 21
746.762200432855
 31
0.0
  0
LINE
  5
27F
330
1F
100
AcDbEntity
  8
1-0ﾚｲﾔ
  6
Continuous
 62
     2
370
     9
100
AcDbLine
 10
1579.641723632812
 20
809.2620354729731
 30
0.0
 11
1589.641756624789
 21
809.2620354729731
 31
0.0
  0
LINE
  5
280
330
1F
100
AcDbEntity
  8
1-0ﾚｲﾔ
  6
Continuous
 62
     2
370
     9
100
AcDbLine
 10
1589.641756624789
 20
709.262200432855
 30
0.0
 11
1589.641756624789
 21
809.2620354729731
 31
0.0
  0
LINE
  5
281
330
1F
100
AcDbEntity
  8
1-0ﾚｲﾔ
  6
Continuous
 62
     2
370
     9
100
AcDbLine
 10
1579.641723632812
 20
709.262200432855
 30
0.0
 11
1589.641756624789
 21
709.262200432855
 31
0.0
  0
LINE
  5
282
330
1F
100
AcDbEntity
  8
1-0ﾚｲﾔ
  6
Continuous
 62
     2
370
     9
100
AcDbLine
 10
1579.641723632812
 20
709.262200432855
 30
0.0
 11
1579.641723632812
 21
809.2620354729731
 31
0.0
  0
LINE
  5
283
330
1F
100
AcDbEntity
  8
1-0ﾚｲﾔ
  6
JWW_CENTER2
 62
     2
370
     9
100
AcDbLine
 10
1584.641987568623
 20
706.6531949429901
 30
0.0
 11
1584.641987568623
 21
811.7626623205238
 31
0.0
  0
LINE
  5
284
330
1F
100
AcDbEntity
  8
1-0ﾚｲﾔ
  6
Continuous
 62
     2
370
     9
100
AcDbLine
 10
1572.141822608742
 20
771.7620354729731
 30
0.0
 11
1579.641723632812
 21
771.7620354729731
 31
0.0
  0
LINE
  5
285
330
1F
100
AcDbEntity
  8
1-0ﾚｲﾔ
  6
Continuous
 62
     2
370
     9
100
AcDbLine
 10
1589.641756624789
 20
771.7620354729731
 30
0.0
 11
1597.142152528505
 21
771.7620354729731
 31
0.0
  0
LINE
  5
286
330
1F
100
AcDbEntity
  8
1-0ﾚｲﾔ
  6
Continuous
 62
     2
370
     9
100
AcDbLine
 10
1597.142152528505
 20
746.762200432855
 30
0.0
 11
1589.641756624789
 21
746.762200432855
 31
0.0
  0
LINE
  5
287
330
1F
100
AcDbEntity
  8
1-0ﾚｲﾔ
  6
Continuous
 62
     2
370
     9
100
AcDbLine
 10
1579.641723632812
 20
746.762200432855
 30
0.0
 11
1572.141822608742
 21
746.762200432855
 31
0.0
  0
LINE
  5
288
330
1F
100
AcDbEntity
  8
1-F
  6
Continuous
 62
     7
370
     9
100
AcDbLine
 10
832.0985536317568
 20
429.2625138566302
 30
0.0
 11
832.0985536317568
 21
909.2621179529141
 31
0.0
  0
LINE
  5
289
330
1F
100
AcDbEntity
  8
1-F
  6
Continuous
 62
     7
370
     9
100
AcDbLine
 10
1159.262992240288
 20
429.2625138566302
 30
0.0
 11
829.0985932221287
 21
429.2625138566302
 31
0.0
  0
LINE
  5
28A
330
1F
100
AcDbEntity
  8
1-F
  6
Continuous
 62
     7
370
     9
100
AcDbLine
 10
1159.262992240288
 20
909.2621179529141
 30
0.0
 11
829.0985932221287
 21
909.2621179529141
 31
0.0
  0
LINE
  5
28B
330
1F
100
AcDbEntity
  8
1-F
  6
Continuous
 62
     7
370
     9
100
AcDbLine
 10
832.0985536317568
 20
429.2625138566302
 30
0.0
 11
828.1828184385557
 21
459.0057702966641
 31
0.0
  0
LINE
  5
28C
330
1F
100
AcDbEntity
  8
1-F
  6
Continuous
 62
     7
370
     9
100
AcDbLine
 10
832.0985536317568
 20
429.2625138566302
 30
0.0
 11
836.0142888249578
 21
459.0057702966641
 31
0.0
  0
LINE
  5
28D
330
1F
100
AcDbEntity
  8
1-F
  6
Continuous
 62
     7
370
     9
100
AcDbLine
 10
832.0985536317568
 20
909.2621179529141
 30
0.0
 11
828.1828184385557
 21
879.5188615128802
 31
0.0
  0
LINE
  5
28E
330
1F
100
AcDbEntity
  8
1-F
  6
Continuous
 62
     7
370
     9
100
AcDbLine
 10
832.0985536317568
 20
909.2621179529141
 30
0.0
 11
836.0142888249578
 21
879.5188615128802
 31
0.0
  0
LINE
  5
28F
330
1F
100
AcDbEntity
  8
1-F
  6
Continuous
 62
     7
370
     9
100
AcDbLine
 10
1199.640717377534
 20
1160.950482342694
 30
0.0
 11
1569.642680400127
 21
1160.950482342694
 31
0.0
  0
LINE
  5
290
330
1F
100
AcDbEntity
  8
1-F
  6
Continuous
 62
     7
370
     9
100
AcDbLine
 10
1199.640717377534
 20
949.6398430901606
 30
0.0
 11
1199.640717377534
 21
1163.950442752323
 31
0.0
  0
LINE
  5
291
330
1F
100
AcDbEntity
  8
1-F
  6
Continuous
 62
     7
370
     9
100
AcDbLine
 10
1569.642680400127
 20
949.6398430901606
 30
0.0
 11
1569.642680400127
 21
1163.950442752323
 31
0.0
  0
LINE
  5
292
330
1F
100
AcDbEntity
  8
1-F
  6
Continuous
 62
     7
370
     9
100
AcDbLine
 10
1199.640717377534
 20
1160.950482342694
 30
0.0
 11
1229.383973817568
 21
1164.866464975718
 31
0.0
  0
LINE
  5
293
330
1F
100
AcDbEntity
  8
1-F
  6
Continuous
 62
     7
370
     9
100
AcDbLine
 10
1199.640717377534
 20
1160.950482342694
 30
0.0
 11
1229.383973817568
 21
1157.034499709671
 31
0.0
  0
LINE
  5
294
330
1F
100
AcDbEntity
  8
1-F
  6
Continuous
 62
     7
370
     9
100
AcDbLine
 10
1569.642680400127
 20
1160.950482342694
 30
0.0
 11
1539.899423960093
 21
1164.866464975718
 31
0.0
  0
LINE
  5
295
330
1F
100
AcDbEntity
  8
1-F
  6
Continuous
 62
     7
370
     9
100
AcDbLine
 10
1569.642680400127
 20
1160.950482342694
 30
0.0
 11
1539.899423960093
 21
1157.034499709671
 31
0.0
  0
LINE
  5
296
330
1F
100
AcDbEntity
  8
1-F
  6
Continuous
 62
     7
370
     9
100
AcDbLine
 10
1709.552084433066
 20
999.0726285367401
 30
0.0
 11
1820.202471758868
 21
999.0726285367401
 31
0.0
  0
LINE
  5
297
330
1F
100
AcDbEntity
  8
1-F
  6
Continuous
 62
     7
370
     9
100
AcDbLine
 10
1575.533480257602
 20
913.0434933224242
 30
0.0
 11
1709.552084433066
 21
999.0726285367401
 31
0.0
  0
LINE
  5
298
330
1F
100
AcDbEntity
  8
1-F
  6
Continuous
 62
     7
370
     9
100
AcDbLine
 10
1575.533480257602
 20
913.0434933224242
 30
0.0
 11
1598.448387352196
 21
932.4061543232688
 31
0.0
  0
LINE
  5
299
330
1F
100
AcDbEntity
  8
1-F
  6
Continuous
 62
     7
370
     9
100
AcDbLine
 10
1575.533480257602
 20
913.0434933224242
 30
0.0
 11
1602.678865999789
 21
925.8155946473818
 31
0.0
  0
LINE
  5
29A
330
1F
100
AcDbEntity
  8
1-F
  6
Continuous
 62
     7
370
     9
100
AcDbLine
 10
-226.9618266337625
 20
936.1971798458617
 30
0.0
 11
-93.40407912795598
 21
790.5273767419766
 31
0.0
  0
LINE
  5
29B
330
1F
100
AcDbEntity
  8
1-F
  6
Continuous
 62
     7
370
     9
100
AcDbLine
 10
-93.40407912795598
 20
790.5273767419766
 30
0.0
 11
-116.390867491026
 21
809.8044235641894
 31
0.0
  0
LINE
  5
29C
330
1F
100
AcDbEntity
  8
1-F
  6
Continuous
 62
     7
370
     9
100
AcDbLine
 10
-93.40407912795598
 20
790.5273767419766
 30
0.0
 11
-110.6183438687711
 21
815.097161370355
 31
0.0
  0
LINE
  5
29D
330
1F
100
AcDbEntity
  8
1-5ﾚｲﾔ
  6
JWW_PHANTOM2
 62
     2
370
     9
100
AcDbLine
 10
-1480.920533876161
 20
46.2402673669763
 30
0.0
 11
-670.9198410446578
 21
46.2402673669763
 31
0.0
  0
LINE
  5
29E
330
1F
100
AcDbEntity
  8
1-5ﾚｲﾔ
  6
JWW_PHANTOM2
 62
     2
370
     9
100
AcDbLine
 10
-670.9198410446578
 20
26.24044882284636
 30
0.0
 11
-1480.920533876161
 21
26.24044882284636
 31
0.0
  0
LINE
  5
29F
330
1F
100
AcDbEntity
  8
1-5ﾚｲﾔ
  6
JWW_PHANTOM2
 62
     2
370
     9
100
AcDbLine
 10
-1109.920213029191
 20
38.24041418127109
 30
0.0
 11
-1109.920213029191
 21
34.24030200855157
 31
0.0
  0
LINE
  5
2A0
330
1F
100
AcDbEntity
  8
1-5ﾚｲﾔ
  6
JWW_PHANTOM2
 62
     2
370
     9
100
AcDbLine
 10
-1109.920213029191
 20
34.24030200855157
 30
0.0
 11
-1041.920100031672
 21
34.24030200855157
 31
0.0
  0
LINE
  5
2A1
330
1F
100
AcDbEntity
  8
1-5ﾚｲﾔ
  6
JWW_PHANTOM2
 62
     2
370
     9
100
AcDbLine
 10
-1041.920100031672
 20
38.24041418127109
 30
0.0
 11
-1041.920100031672
 21
34.24030200855157
 31
0.0
  0
LINE
  5
2A2
330
1F
100
AcDbEntity
  8
1-5ﾚｲﾔ
  6
JWW_PHANTOM2
 62
     2
370
     9
100
AcDbLine
 10
-1109.920213029191
 20
38.24041418127109
 30
0.0
 11
-1041.920100031672
 21
38.24041418127109
 31
0.0
  0
LINE
  5
2A3
330
1F
100
AcDbEntity
  8
1-F
  6
Continuous
 62
     7
370
     9
100
AcDbLine
 10
-1546.014033137141
 20
-862.7591189822635
 30
0.0
 11
-1546.014033137141
 21
36.24035809491147
 31
0.0
  0
LINE
  5
2A4
330
1F
100
AcDbEntity
  8
1-F
  6
Continuous
 62
     7
370
     9
100
AcDbLine
 10
-1546.014033137141
 20
-862.7591189822635
 30
0.0
 11
-1549.929892050253
 21
-833.0158625422297
 31
0.0
  0
LINE
  5
2A5
330
1F
100
AcDbEntity
  8
1-F
  6
Continuous
 62
     7
370
     9
100
AcDbLine
 10
-1546.014033137141
 20
-862.7591189822635
 30
0.0
 11
-1542.09829794394
 21
-833.0158625422297
 31
0.0
  0
LINE
  5
2A6
330
1F
100
AcDbEntity
  8
1-F
  6
Continuous
 62
     7
370
     9
100
AcDbLine
 10
-1546.014033137141
 20
36.24035809491147
 30
0.0
 11
-1549.929892050253
 21
6.496977934966424
 31
0.0
  0
LINE
  5
2A7
330
1F
100
AcDbEntity
  8
1-F
  6
Continuous
 62
     7
370
     9
100
AcDbLine
 10
-1546.014033137141
 20
36.24035809491147
 30
0.0
 11
-1542.09829794394
 21
6.496977934966424
 31
0.0
  0
LINE
  5
2A8
330
1F
100
AcDbEntity
  8
1-F
  6
Continuous
 62
     7
370
     9
100
AcDbLine
 10
-1115.664652231577
 20
36.24035809491147
 30
0.0
 11
-1549.013993546769
 21
36.24035809491147
 31
0.0
  0
LINE
  5
2A9
330
1F
100
AcDbEntity
  8
2-2
  6
Continuous
 62
     2
370
     9
100
AcDbLine
 10
-53.41384475295598
 20
-184.1125983160896
 30
0.0
 11
-53.41384475295598
 21
-197.4461405986062
 31
0.0
  0
LINE
  5
2AA
330
1F
100
AcDbEntity
  8
2-2
  6
Continuous
 62
     2
370
     9
100
AcDbLine
 10
-53.41384475295598
 20
-197.4461405986062
 30
0.0
 11
173.2526624524917
 21
-197.4461405986062
 31
0.0
  0
LINE
  5
2AB
330
1F
100
AcDbEntity
  8
2-2
  6
Continuous
 62
     2
370
     9
100
AcDbLine
 10
173.2526624524917
 20
-184.1125983160896
 30
0.0
 11
173.2526624524917
 21
-197.4461405986062
 31
0.0
  0
LINE
  5
2AC
330
1F
100
AcDbEntity
  8
2-2
  6
Continuous
 62
     2
370
     9
100
AcDbLine
 10
-53.41384475295598
 20
-184.1125983160896
 30
0.0
 11
173.2526624524917
 21
-184.1125983160896
 31
0.0
  0
LINE
  5
2AD
330
1F
100
AcDbEntity
  8
2-3
  6
Continuous
 62
     2
370
     9
100
AcDbLine
 10
11.92981616870782
 20
-465.0212550807643
 30
0.0
 11
107.9097438502959
 21
-465.0212550807643
 31
0.0
  0
LINE
  5
2AE
330
1F
100
AcDbEntity
  8
2-3
  6
Continuous
 62
     2
370
     9
100
AcDbLine
 10
35.18693253800677
 20
-441.6891644452069
 30
0.0
 11
84.65213260135158
 21
-441.6891644452069
 31
0.0
  0
LINE
  5
2AF
330
1F
100
AcDbEntity
  8
2-3
  6
Continuous
 62
     2
370
     9
100
AcDbLine
 10
35.18693253800677
 20
-358.3553912188555
 30
0.0
 11
84.65213260135158
 21
-358.3553912188555
 31
0.0
  0
LINE
  5
2B0
330
1F
100
AcDbEntity
  8
2-3
  6
JWW_CENTER2
 62
     2
370
     9
100
AcDbLine
 10
191.0846607105154
 20
-400.0222778320312
 30
0.0
 11
-71.24559557115703
 21
-400.0222778320312
 31
0.0
  0
LINE
  5
2B1
330
1F
100
AcDbEntity
  8
2-0
  6
JWW_CENTER1
 62
     2
370
     9
100
AcDbLine
 10
59.91928512985652
 20
-170.5905068887245
 30
0.0
 11
59.91928512985652
 21
-212.7344574799407
 31
0.0
  0
LINE
  5
2B2
330
1F
100
AcDbEntity
  8
2-0
  6
JWW_CENTER1
 62
     2
370
     9
100
AcDbLine
 10
-72.32863967483098
 20
-190.7791220175253
 30
0.0
 11
196.8403584248313
 21
-190.7791220175253
 31
0.0
  0
LINE
  5
2B3
330
1F
100
AcDbEntity
  8
2-3
  6
JWW_CENTER2
 62
     2
370
     9
100
AcDbLine
 10
59.91928512985652
 20
-485.5790504249366
 30
0.0
 11
59.91928512985652
 21
-304.2294146563555
 31
0.0
  0
LINE
  5
2B4
330
1F
100
AcDbEntity
  8
2-Fﾚｲﾔ
  6
Continuous
 62
     7
370
     9
100
AcDbLine
 10
-180.2589210304052
 20
-224.1127302839949
 30
0.0
 11
-180.2589210304052
 21
-157.446008630701
 31
0.0
  0
LINE
  5
2B5
330
1F
100
AcDbEntity
  8
2-Fﾚｲﾔ
  6
Continuous
 62
     7
370
     9
100
AcDbLine
 10
-144.9336696315456
 20
-224.1127302839949
 30
0.0
 11
-183.2588814400336
 21
-224.1127302839949
 31
0.0
  0
LINE
  5
2B6
330
1F
100
AcDbEntity
  8
2-Fﾚｲﾔ
  6
Continuous
 62
     7
370
     9
100
AcDbLine
 10
-144.9336696315456
 20
-157.446008630701
 30
0.0
 11
-183.2588814400336
 21
-157.446008630701
 31
0.0
  0
LINE
  5
2B7
330
1F
100
AcDbEntity
  8
2-Fﾚｲﾔ
  6
Continuous
 62
     7
370
     9
100
AcDbLine
 10
-180.2589210304052
 20
-224.1127302839949
 30
0.0
 11
-184.1746562236062
 21
-194.3694738439612
 31
0.0
  0
LINE
  5
2B8
330
1F
100
AcDbEntity
  8
2-Fﾚｲﾔ
  6
Continuous
 62
     7
370
     9
100
AcDbLine
 10
-180.2589210304052
 20
-224.1127302839949
 30
0.0
 11
-176.3431858372041
 21
-194.3694738439612
 31
0.0
  0
LINE
  5
2B9
330
1F
100
AcDbEntity
  8
2-Fﾚｲﾔ
  6
Continuous
 62
     7
370
     9
100
AcDbLine
 10
-180.2589210304052
 20
-157.446008630701
 30
0.0
 11
-184.1746562236062
 21
-187.1892650707346
 31
0.0
  0
LINE
  5
2BA
330
1F
100
AcDbEntity
  8
2-Fﾚｲﾔ
  6
Continuous
 62
     7
370
     9
100
AcDbLine
 10
-180.2589210304052
 20
-157.446008630701
 30
0.0
 11
-176.3431858372041
 21
-187.1892650707346
 31
0.0
  0
LINE
  5
2BB
330
1F
100
AcDbEntity
  8
2-Fﾚｲﾔ
  6
Continuous
 62
     7
370
     9
100
AcDbLine
 10
-78.0786462732263
 20
-167.5096336570945
 30
0.0
 11
-27.61675860430728
 21
-80.10695998733098
 31
0.0
  0
LINE
  5
2BC
330
1F
100
AcDbEntity
  8
2-Fﾚｲﾔ
  6
Continuous
 62
     7
370
     9
100
AcDbLine
 10
-27.61675860430728
 20
-80.10695998733098
 30
0.0
 11
258.324700432855
 21
-80.10695998733098
 31
0.0
  0
LINE
  5
2BD
330
1F
100
AcDbEntity
  8
2-Fﾚｲﾔ
  6
Continuous
 62
     7
370
     9
100
AcDbLine
 10
-78.0786462732263
 20
-167.5096336570945
 30
0.0
 11
-59.81585528399478
 21
-143.7088919974661
 31
0.0
  0
LINE
  5
2BE
330
1F
100
AcDbEntity
  8
2-Fﾚｲﾔ
  6
Continuous
 62
     7
370
     9
100
AcDbLine
 10
-78.0786462732263
 20
-167.5096336570945
 30
0.0
 11
-66.59842826224661
 21
-139.7929093644424
 31
0.0
  0
LINE
  5
2BF
330
1F
100
AcDbEntity
  8
2-Fﾚｲﾔ
  6
Continuous
 62
     7
370
     9
100
AcDbLine
 10
-53.41384475295598
 20
-594.5400423616975
 30
0.0
 11
173.2526624524917
 21
-594.5400423616975
 31
0.0
  0
LINE
  5
2C0
330
1F
100
AcDbEntity
  8
2-Fﾚｲﾔ
  6
Continuous
 62
     7
370
     9
100
AcDbLine
 10
-53.41384475295598
 20
-594.5400423616975
 30
0.0
 11
-23.67058831292212
 21
-590.6245546083193
 31
0.0
  0
LINE
  5
2C1
330
1F
100
AcDbEntity
  8
2-Fﾚｲﾔ
  6
Continuous
 62
     7
370
     9
100
AcDbLine
 10
-53.41384475295598
 20
-594.5400423616975
 30
0.0
 11
-23.67058831292212
 21
-598.4560249947212
 31
0.0
  0
LINE
  5
2C2
330
1F
100
AcDbEntity
  8
2-Fﾚｲﾔ
  6
Continuous
 62
     7
370
     9
100
AcDbLine
 10
173.2526624524917
 20
-594.5400423616975
 30
0.0
 11
143.5091585726352
 21
-590.6245546083193
 31
0.0
  0
LINE
  5
2C3
330
1F
100
AcDbEntity
  8
2-Fﾚｲﾔ
  6
Continuous
 62
     7
370
     9
100
AcDbLine
 10
173.2526624524917
 20
-594.5400423616975
 30
0.0
 11
143.5091585726352
 21
-598.4560249947212
 31
0.0
  0
LINE
  5
2C4
330
1F
100
AcDbEntity
  8
2-Fﾚｲﾔ
  6
Continuous
 62
     7
370
     9
100
AcDbLine
 10
-53.41384475295598
 20
-428.9267132733319
 30
0.0
 11
-53.41384475295598
 21
-597.5400027713259
 31
0.0
  0
LINE
  5
2C5
330
1F
100
AcDbEntity
  8
2-Fﾚｲﾔ
  6
Continuous
 62
     7
370
     9
100
AcDbLine
 10
173.2526624524917
 20
-428.9267132733319
 30
0.0
 11
173.2526624524917
 21
-597.5400027713259
 31
0.0
  0
LINE
  5
2C6
330
1F
100
AcDbEntity
  8
2-Fﾚｲﾔ
  6
Continuous
 62
     7
370
     9
100
AcDbLine
 10
316.9503701699747
 20
-465.0212550807643
 30
0.0
 11
316.9503701699747
 21
-331.6883066538218
 31
0.0
  0
LINE
  5
2C7
330
1F
100
AcDbEntity
  8
2-Fﾚｲﾔ
  6
Continuous
 62
     7
370
     9
100
AcDbLine
 10
137.9095953864021
 20
-465.0212550807643
 30
0.0
 11
319.9505780194258
 21
-465.0212550807643
 31
0.0
  0
LINE
  5
2C8
330
1F
100
AcDbEntity
  8
2-Fﾚｲﾔ
  6
Continuous
 62
     7
370
     9
100
AcDbLine
 10
316.9503701699747
 20
-465.0212550807643
 30
0.0
 11
313.034387536951
 21
-435.2779986407305
 31
0.0
  0
LINE
  5
2C9
330
1F
100
AcDbEntity
  8
2-Fﾚｲﾔ
  6
Continuous
 62
     7
370
     9
100
AcDbLine
 10
316.9503701699747
 20
-465.0212550807643
 30
0.0
 11
320.8663528029984
 21
-435.2779986407305
 31
0.0
  0
LINE
  5
2CA
330
1F
100
AcDbEntity
  8
2-Fﾚｲﾔ
  6
Continuous
 62
     7
370
     9
100
AcDbLine
 10
316.9503701699747
 20
-331.6883066538218
 30
0.0
 11
313.034387536951
 21
-361.4315630938555
 31
0.0
  0
LINE
  5
2CB
330
1F
100
AcDbEntity
  8
2-Fﾚｲﾔ
  6
Continuous
 62
     7
370
     9
100
AcDbLine
 10
316.9503701699747
 20
-331.6883066538218
 30
0.0
 11
320.8663528029984
 21
-361.4315630938555
 31
0.0
  0
LINE
  5
2CC
330
1F
100
AcDbEntity
  8
2-Fﾚｲﾔ
  6
Continuous
 62
     7
370
     9
100
AcDbLine
 10
246.6725117451438
 20
-331.6883066538218
 30
0.0
 11
319.9505780194258
 21
-331.6883066538218
 31
0.0
  0
LINE
  5
2CD
330
1F
100
AcDbEntity
  8
2-3
  6
Continuous
 62
     2
370
     9
100
AcDbLine
 10
-37.32209076752525
 20
-423.6418935414906
 30
0.0
 11
-53.41384475295598
 21
-331.6878117741765
 31
0.0
  0
LINE
  5
2CE
330
1F
100
AcDbEntity
  8
2-3
  6
Continuous
 62
     2
370
     9
100
AcDbLine
 10
157.1618982263516
 20
-423.6418935414906
 30
0.0
 11
173.2526624524917
 21
-331.6878117741765
 31
0.0
  0
LINE
  5
2CF
330
1F
100
AcDbEntity
  8
2-0
  6
Continuous
 62
     2
370
     9
100
AcDbLine
 10
-114.9336943755279
 20
-224.1127302839949
 30
0.0
 11
234.7721409153294
 21
-224.1127302839949
 31
0.0
  0
LINE
  5
2D0
330
1F
100
AcDbEntity
  8
2-0
  6
Continuous
 62
     2
370
     9
100
AcDbLine
 10
-114.9336943755279
 20
-157.446008630701
 30
0.0
 11
234.7721409153294
 21
-157.446008630701
 31
0.0
  0
LINE
  5
2D1
330
1F
100
AcDbEntity
  8
2-Fﾚｲﾔ
  6
Continuous
 62
     7
370
     9
100
AcDbLine
 10
-6.479706635346076
 20
-537.7091773780616
 30
0.0
 11
126.3187717747044
 21
-537.7091773780616
 31
0.0
  0
LINE
  5
2D2
330
1F
100
AcDbEntity
  8
2-Fﾚｲﾔ
  6
Continuous
 62
     7
370
     9
100
AcDbLine
 10
-6.479706635346076
 20
-430.022253088049
 30
0.0
 11
-6.479706635346076
 21
-540.70913778769
 31
0.0
  0
LINE
  5
2D3
330
1F
100
AcDbEntity
  8
2-Fﾚｲﾔ
  6
Continuous
 62
     7
370
     9
100
AcDbLine
 10
126.3187717747044
 20
-430.022253088049
 30
0.0
 11
126.3187717747044
 21
-540.70913778769
 31
0.0
  0
LINE
  5
2D4
330
1F
100
AcDbEntity
  8
2-Fﾚｲﾔ
  6
Continuous
 62
     7
370
     9
100
AcDbLine
 10
-6.479706635346076
 20
-537.7091773780616
 30
0.0
 11
23.2635498046875
 21
-533.7934421848605
 31
0.0
  0
LINE
  5
2D5
330
1F
100
AcDbEntity
  8
2-Fﾚｲﾔ
  6
Continuous
 62
     7
370
     9
100
AcDbLine
 10
-6.479706635346076
 20
-537.7091773780616
 30
0.0
 11
23.2635498046875
 21
-541.6249125712626
 31
0.0
  0
LINE
  5
2D6
330
1F
100
AcDbEntity
  8
2-Fﾚｲﾔ
  6
Continuous
 62
     7
370
     9
100
AcDbLine
 10
126.3187717747044
 20
-537.7091773780616
 30
0.0
 11
96.57551533467085
 21
-533.7934421848605
 31
0.0
  0
LINE
  5
2D7
330
1F
100
AcDbEntity
  8
2-Fﾚｲﾔ
  6
Continuous
 62
     7
370
     9
100
AcDbLine
 10
126.3187717747044
 20
-537.7091773780616
 30
0.0
 11
96.57551533467085
 21
-541.6249125712626
 31
0.0
  0
LINE
  5
2D8
330
1F
100
AcDbEntity
  8
2-Fﾚｲﾔ
  6
Continuous
 62
     7
370
     9
100
AcDbLine
 10
253.2534212679477
 20
-441.6891644452069
 30
0.0
 11
253.2534212679477
 21
-358.3556386586781
 31
0.0
  0
LINE
  5
2D9
330
1F
100
AcDbEntity
  8
2-Fﾚｲﾔ
  6
Continuous
 62
     7
370
     9
100
AcDbLine
 10
114.6522315772805
 20
-441.6891644452069
 30
0.0
 11
256.253381677576
 21
-441.6891644452069
 31
0.0
  0
LINE
  5
2DA
330
1F
100
AcDbEntity
  8
2-Fﾚｲﾔ
  6
Continuous
 62
     7
370
     9
100
AcDbLine
 10
114.6522315772805
 20
-358.3556386586781
 30
0.0
 11
256.253381677576
 21
-358.3556386586781
 31
0.0
  0
LINE
  5
2DB
330
1F
100
AcDbEntity
  8
2-Fﾚｲﾔ
  6
Continuous
 62
     7
370
     9
100
AcDbLine
 10
253.2534212679477
 20
-441.6891644452069
 30
0.0
 11
249.3376860747466
 21
-411.9457842852617
 31
0.0
  0
LINE
  5
2DC
330
1F
100
AcDbEntity
  8
2-Fﾚｲﾔ
  6
Continuous
 62
     7
370
     9
100
AcDbLine
 10
253.2534212679477
 20
-441.6891644452069
 30
0.0
 11
257.1691564611487
 21
-411.9457842852617
 31
0.0
  0
LINE
  5
2DD
330
1F
100
AcDbEntity
  8
2-Fﾚｲﾔ
  6
Continuous
 62
     7
370
     9
100
AcDbLine
 10
253.2534212679477
 20
-358.3556386586781
 30
0.0
 11
249.3376860747466
 21
-388.0990188186233
 31
0.0
  0
LINE
  5
2DE
330
1F
100
AcDbEntity
  8
2-Fﾚｲﾔ
  6
Continuous
 62
     7
370
     9
100
AcDbLine
 10
253.2534212679477
 20
-358.3556386586781
 30
0.0
 11
257.1691564611487
 21
-388.0990188186233
 31
0.0
  0
LINE
  5
2DF
330
1F
100
AcDbEntity
  8
2-Fﾚｲﾔ
  6
Continuous
 62
     7
370
     9
100
AcDbLine
 10
-232.2741121859164
 20
-708.3063156540329
 30
0.0
 11
334.3758247994089
 21
-708.3063156540329
 31
0.0
  0
LINE
  5
2E0
330
1F
100
AcDbEntity
  8
F-0ﾚｲﾔ
  6
Continuous
 62
     7
370
     9
100
AcDbLine
 10
439.3556337098818
 20
13.23897078230573
 30
0.0
 11
1939.356128589527
 21
13.23897078230573
 31
0.0
  0
LINE
  5
2E1
330
1F
100
AcDbEntity
  8
2-Fﾚｲﾔ
  6
Continuous
 62
     7
370
     9
100
AcDbLine
 10
100.5340576171875
 20
189.8535981049409
 30
0.0
 11
168.1675266575169
 21
235.1128160631336
 31
0.0
  0
LINE
  5
2E2
330
1F
100
AcDbEntity
  8
2-Fﾚｲﾔ
  6
Continuous
 62
     7
370
     9
100
AcDbLine
 10
168.1675266575169
 20
235.1128160631336
 30
0.0
 11
145.6260062552789
 21
215.3167642129435
 31
0.0
  0
LINE
  5
2E3
330
1F
100
AcDbEntity
  8
2-Fﾚｲﾔ
  6
Continuous
 62
     7
370
     9
100
AcDbLine
 10
168.1675266575169
 20
235.1128160631336
 30
0.0
 11
141.2705704972552
 21
221.825421307538
 31
0.0
  0
LINE
  5
2E4
330
1F
100
AcDbEntity
  8
1-5ﾚｲﾔ
  6
Continuous
 62
     2
370
     9
100
AcDbLine
 10
-27.82064901815858
 20
555.7619167018584
 30
0.0
 11
-27.82064901815858
 21
552.762451171875
 31
0.0
  0
LINE
  5
2E5
330
1F
100
AcDbEntity
  8
1-5ﾚｲﾔ
  6
Continuous
 62
     2
370
     9
100
AcDbLine
 10
-27.82064901815858
 20
555.7619167018584
 30
0.0
 11
-47.49941439241951
 21
555.7619167018584
 31
0.0
  0
LINE
  5
2E6
330
1F
100
AcDbEntity
  8
1-5ﾚｲﾔ
  6
Continuous
 62
     2
370
     9
100
AcDbLine
 10
-47.49941439241951
 20
555.7619167018584
 30
0.0
 11
-47.49941439241951
 21
552.762451171875
 31
0.0
  0
LINE
  5
2E7
330
1F
100
AcDbEntity
  8
1-5ﾚｲﾔ
  6
Continuous
 62
     2
370
     9
100
AcDbLine
 10
-27.82064901815858
 20
552.762451171875
 30
0.0
 11
-47.49941439241951
 21
552.762451171875
 31
0.0
  0
LINE
  5
2E8
330
1F
100
AcDbEntity
  8
1-5ﾚｲﾔ
  6
Continuous
 62
     2
370
     9
100
AcDbLine
 10
-41.65971085831927
 20
552.762451171875
 30
0.0
 11
-41.65971085831927
 21
555.7619167018584
 31
0.0
  0
LINE
  5
2E9
330
1F
100
AcDbEntity
  8
1-5ﾚｲﾔ
  6
Continuous
 62
     2
370
     9
100
AcDbLine
 10
-33.65985767261378
 20
552.762451171875
 30
0.0
 11
-33.65985767261378
 21
555.7619167018584
 31
0.0
  0
LINE
  5
2EA
330
1F
100
AcDbEntity
  8
1-0ﾚｲﾔ
  6
JWW_CENTER1
 62
     2
370
     9
100
AcDbLine
 10
-53.842781685494
 20
554.261936497044
 30
0.0
 11
-20.81612251900339
 21
554.261936497044
 31
0.0
  0
LINE
  5
2EB
330
1F
100
AcDbEntity
  8
1-0ﾚｲﾔ
  6
JWW_CENTER1
 62
     2
370
     9
100
AcDbLine
 10
-37.66009356524478
 20
545.9719601192992
 30
0.0
 11
-37.66009356524478
 21
562.2688417176943
 31
0.0
  0
LINE
  5
2EC
330
1F
100
AcDbEntity
  8
1-2ﾚｲﾔ
  6
Continuous
 62
     6
370
     9
100
AcDbLine
 10
19.70066379856434
 20
537.3926028689823
 30
0.0
 11
-7.876256994298956
 21
509.8156820761193
 31
0.0
  0
LINE
  5
2ED
330
1F
100
AcDbEntity
  8
1-2ﾚｲﾔ
  6
Continuous
 62
     6
370
     9
100
AcDbLine
 10
19.70066379856434
 20
537.3926028689823
 30
0.0
 11
-2.926718222128386
 21
560.019984889675
 31
0.0
  0
LINE
  5
2EE
330
1F
100
AcDbEntity
  8
1-2ﾚｲﾔ
  6
Continuous
 62
     6
370
     9
100
AcDbLine
 10
-2.926718222128386
 20
560.019984889675
 30
0.0
 11
-30.50376273490286
 21
532.4429403769005
 31
0.0
  0
LINE
  5
2EF
330
1F
100
AcDbEntity
  8
1-2ﾚｲﾔ
  6
Continuous
 62
     6
370
     9
100
AcDbLine
 10
-7.876256994298956
 20
509.8156820761193
 30
0.0
 11
-30.50376273490286
 21
532.4429403769005
 31
0.0
  0
LINE
  5
2F0
330
1F
100
AcDbEntity
  8
1-2ﾚｲﾔ
  6
Continuous
 62
     6
370
     9
100
AcDbLine
 10
-24.14022909628358
 20
538.8064740155196
 30
0.0
 11
-31.56466097445076
 21
546.2311533335094
 31
0.0
  0
LINE
  5
2F1
330
1F
100
AcDbEntity
  8
1-2ﾚｲﾔ
  6
Continuous
 62
     6
370
     9
100
AcDbLine
 10
-9.290375580658576
 20
553.6560800913219
 30
0.0
 11
-16.71505489864842
 21
561.0806356894005
 31
0.0
  0
LINE
  5
2F2
330
1F
100
AcDbEntity
  8
1-2ﾚｲﾔ
  6
Continuous
 62
     6
370
     9
100
AcDbLine
 10
-28.38270857527448
 20
534.5637470967063
 30
0.0
 11
-35.80726417335285
 21
541.9883026947846
 31
0.0
  0
LINE
  5
2F3
330
1F
100
AcDbEntity
  8
1-2ﾚｲﾔ
  6
Continuous
 62
     6
370
     9
100
AcDbLine
 10
-5.048019821579146
 20
557.8981884105787
 30
0.0
 11
-12.47269913956927
 21
565.3228677285686
 31
0.0
  0
LINE
  5
2F4
330
1F
100
AcDbEntity
  8
1-2ﾚｲﾔ
  6
Continuous
 62
     6
370
     9
100
AcDbLine
 10
-28.65959373680312
 20
559.2624478726773
 30
0.0
 11
-33.01775133287578
 21
559.2624478726773
 31
0.0
  0
LINE
  5
2F5
330
1F
100
AcDbEntity
  8
1-2ﾚｲﾔ
  6
Continuous
 62
     6
370
     9
100
AcDbLine
 10
-39.65817013302342
 20
559.2624478726773
 30
0.0
 11
-46.65960363439609
 21
559.2624478726773
 31
0.0
  0
LINE
  5
2F6
330
1F
100
AcDbEntity
  8
1-2ﾚｲﾔ
  6
Continuous
 62
     6
370
     9
100
AcDbLine
 10
-28.65959373680312
 20
549.2619200010557
 30
0.0
 11
-33.6761887009078
 21
549.2619200010557
 31
0.0
  0
LINE
  5
2F7
330
1F
100
AcDbEntity
  8
1-2ﾚｲﾔ
  6
Continuous
 62
     6
370
     9
100
AcDbLine
 10
-40.0440525364229
 20
549.2619200010557
 30
0.0
 11
-46.65960363439609
 21
549.2619200010557
 31
0.0
  0
LINE
  5
2F8
330
1F
100
AcDbEntity
  8
1-F
  6
Continuous
 62
     7
370
     9
100
AcDbLine
 10
-10.95688278610623
 20
521.9385013064823
 30
0.0
 11
-81.18921228357266
 21
259.8278478673987
 31
0.0
  0
LINE
  5
2F9
330
1F
100
AcDbEntity
  8
1-F
  6
Continuous
 62
     7
370
     9
100
AcDbLine
 10
-10.95688278610623
 20
521.9385013064823
 30
0.0
 11
-14.87261797930728
 21
492.1951211465372
 31
0.0
  0
LINE
  5
2FA
330
1F
100
AcDbEntity
  8
1-F
  6
Continuous
 62
     7
370
     9
100
AcDbLine
 10
-10.95688278610623
 20
521.9385013064823
 30
0.0
 11
-22.43734823690858
 21
494.2221481735643
 31
0.0
  0
LINE
  5
2FB
330
1F
100
AcDbEntity
  8
F-0ﾚｲﾔ
  6
Continuous
 62
     7
370
     9
100
AcDbLine
 10
439.3556337098818
 20
93.23873983847136
 30
0.0
 11
1939.356128589527
 21
93.23873983847136
 31
0.0
  0
LINE
  5
2FC
330
1F
100
AcDbEntity
  8
F-0ﾚｲﾔ
  6
Continuous
 62
     7
370
     9
100
AcDbLine
 10
439.3556337098818
 20
-1106.759899242504
 30
0.0
 11
439.3556337098818
 21
93.23873983847136
 31
0.0
  0
LINE
  5
2FD
330
1F
100
AcDbEntity
  8
F-0ﾚｲﾔ
  6
Continuous
 62
     7
370
     9
100
AcDbLine
 10
539.3559636296453
 20
-1106.759899242504
 30
0.0
 11
539.3559636296453
 21
93.23873983847136
 31
0.0
  0
LINE
  5
2FE
330
1F
100
AcDbEntity
  8
F-0ﾚｲﾔ
  6
Continuous
 62
     7
370
     9
100
AcDbLine
 10
839.3564585092906
 20
-1106.759899242504
 30
0.0
 11
839.3564585092906
 21
93.23873983847136
 31
0.0
  0
LINE
  5
2FF
330
1F
100
AcDbEntity
  8
F-0ﾚｲﾔ
  6
Continuous
 62
     7
370
     9
100
AcDbLine
 10
1089.355798669764
 20
-1106.759899242504
 30
0.0
 11
1089.355798669764
 21
93.23873983847136
 31
0.0
  0
LINE
  5
300
330
1F
100
AcDbEntity
  8
F-0ﾚｲﾔ
  6
Continuous
 62
     7
370
     9
100
AcDbLine
 10
1289.356211069468
 20
-1106.759899242504
 30
0.0
 11
1289.356211069468
 21
93.23873983847136
 31
0.0
  0
LINE
  5
301
330
1F
100
AcDbEntity
  8
F-0ﾚｲﾔ
  6
Continuous
 62
     7
370
     9
100
AcDbLine
 10
1589.355963629645
 20
-1106.759899242504
 30
0.0
 11
1589.355963629645
 21
93.23873983847136
 31
0.0
  0
LINE
  5
302
330
1F
100
AcDbEntity
  8
F-0ﾚｲﾔ
  6
Continuous
 62
     7
370
     9
100
AcDbLine
 10
1689.356293549409
 20
-1106.759899242504
 30
0.0
 11
1689.356293549409
 21
93.23873983847136
 31
0.0
  0
LINE
  5
303
330
1F
100
AcDbEntity
  8
F-0ﾚｲﾔ
  6
Continuous
 62
     7
370
     9
100
AcDbLine
 10
1939.356128589527
 20
93.23873983847136
 30
0.0
 11
1939.356128589527
 21
-1106.759899242504
 31
0.0
  0
LINE
  5
304
330
1F
100
AcDbEntity
  8
1-3ﾚｲﾔ
  6
JWW_DASHED1
 62
     2
370
     9
100
AcDbLine
 10
-9.947080869932279
 20
815.148628853463
 30
0.0
 11
-117.0212204391891
 21
922.2230158625425
 31
0.0
  0
LINE
  5
305
330
1F
100
AcDbEntity
  8
1-3ﾚｲﾔ
  6
JWW_DASHED1
 62
     2
370
     9
100
AcDbLine
 10
-9.947080869932279
 20
523.3752606366133
 30
0.0
 11
-117.0212204391891
 21
416.3006261877112
 31
0.0
  0
LINE
  5
306
330
1F
100
AcDbEntity
  8
1-3ﾚｲﾔ
  6
JWW_DASHED1
 62
     2
370
     9
100
AcDbLine
 10
-1.160245328335918
 20
544.588524070946
 30
0.0
 11
-1.160245328335918
 21
793.9353654191302
 31
0.0
  0
LINE
  5
307
330
1F
100
AcDbEntity
  8
1-4ﾚｲﾔ
  6
Continuous
 62
     6
370
     9
100
AcDbLine
 10
-1475.919775060705
 20
651.7401123046875
 30
0.0
 11
-1475.919775060705
 21
650.2401320998734
 31
0.0
  0
LINE
  5
308
330
1F
100
AcDbEntity
  8
1-4ﾚｲﾔ
  6
Continuous
 62
     6
370
     9
100
AcDbLine
 10
-1274.76103499129
 20
641.7400793127113
 30
0.0
 11
-1276.260953336149
 21
641.7400793127113
 31
0.0
  0
LINE
  5
309
330
1F
100
AcDbEntity
  8
1-4ﾚｲﾔ
  6
Continuous
 62
     6
370
     9
100
AcDbLine
 10
-1277.761057260874
 20
651.7401123046875
 30
0.0
 11
-1475.919775060705
 21
651.7401123046875
 31
0.0
  0
LINE
  5
30A
330
1F
100
AcDbEntity
  8
1-4ﾚｲﾔ
  6
Continuous
 62
     6
370
     9
100
AcDbLine
 10
-1274.76103499129
 20
648.7401518950592
 30
0.0
 11
-1274.76103499129
 21
641.7400793127113
 31
0.0
  0
LINE
  5
30B
330
1F
100
AcDbEntity
  8
1-4ﾚｲﾔ
  6
Continuous
 62
     6
370
     9
100
AcDbLine
 10
-1277.761057260874
 20
650.2401320998734
 30
0.0
 11
-1475.919775060705
 21
650.2401320998734
 31
0.0
  0
LINE
  5
30C
330
1F
100
AcDbEntity
  8
1-4ﾚｲﾔ
  6
Continuous
 62
     6
370
     9
100
AcDbLine
 10
-1276.260953336149
 20
648.7401518950592
 30
0.0
 11
-1276.260953336149
 21
641.7400793127113
 31
0.0
  0
LINE
  5
30D
330
1F
100
AcDbEntity
  8
1-4ﾚｲﾔ
  6
Continuous
 62
     6
370
     9
100
AcDbLine
 10
-1426.919885583826
 20
650.2401320998734
 30
0.0
 11
-1426.919885583826
 21
651.7401123046875
 31
0.0
  0
LINE
  5
30E
330
1F
100
AcDbEntity
  8
1-4ﾚｲﾔ
  6
Continuous
 62
     6
370
     9
100
AcDbLine
 10
-1294.919957341374
 20
650.2401320998734
 30
0.0
 11
-1294.919957341374
 21
651.7401123046875
 31
0.0
  0
LINE
  5
30F
330
1F
100
AcDbEntity
  8
1-5ﾚｲﾔ
  6
Continuous
 62
     2
370
     9
100
AcDbLine
 10
-1289.477765882338
 20
649.240227776605
 30
0.0
 11
-1286.212735562711
 21
650.2401320998734
 31
0.0
  0
LINE
  5
310
330
1F
100
AcDbEntity
  8
1-5ﾚｲﾔ
  6
Continuous
 62
     2
370
     9
100
AcDbLine
 10
-1286.212735562711
 20
650.2401320998734
 30
0.0
 11
-1285.919952392578
 21
649.2842720650339
 31
0.0
  0
LINE
  5
311
330
1F
100
AcDbEntity
  8
1-5ﾚｲﾔ
  6
Continuous
 62
     2
370
     9
100
AcDbLine
 10
-1289.263173696157
 20
648.2601186391471
 30
0.0
 11
-1285.919952392578
 21
649.2842720650339
 31
0.0
  0
LINE
  5
312
330
1F
100
AcDbEntity
  8
1-5ﾚｲﾔ
  6
Continuous
 62
     2
370
     9
100
AcDbLine
 10
-1296.39469868428
 20
647.2973302892738
 30
0.0
 11
-1289.263173696157
 21
648.2601186391471
 31
0.0
  0
LINE
  5
313
330
1F
100
AcDbEntity
  8
1-5ﾚｲﾔ
  6
Continuous
 62
     2
370
     9
100
AcDbLine
 10
-1296.33741636534
 20
648.3138130806589
 30
0.0
 11
-1289.477765882338
 21
649.240227776605
 31
0.0
  0
LINE
  5
314
330
1F
100
AcDbEntity
  8
1-5ﾚｲﾔ
  6
Continuous
 62
     2
370
     9
100
AcDbLine
 10
-1296.212706694732
 20
648.3306389885981
 30
0.0
 11
-1296.212706694732
 21
647.3218268317146
 31
0.0
  0
LINE
  5
315
330
1F
100
AcDbEntity
  8
1-5ﾚｲﾔ
  6
Continuous
 62
     2
370
     9
100
AcDbLine
 10
-1432.361953322952
 20
649.240227776605
 30
0.0
 11
-1435.627169222445
 21
650.2401320998734
 31
0.0
  0
LINE
  5
316
330
1F
100
AcDbEntity
  8
1-5ﾚｲﾔ
  6
Continuous
 62
     2
370
     9
100
AcDbLine
 10
-1435.627169222445
 20
650.2401320998734
 30
0.0
 11
-1435.919890532623
 21
649.2842720650339
 31
0.0
  0
LINE
  5
317
330
1F
100
AcDbEntity
  8
1-5ﾚｲﾔ
  6
Continuous
 62
     2
370
     9
100
AcDbLine
 10
-1432.576731088999
 20
648.2601186391471
 30
0.0
 11
-1435.919890532623
 21
649.2842720650339
 31
0.0
  0
LINE
  5
318
330
1F
100
AcDbEntity
  8
1-5ﾚｲﾔ
  6
Continuous
 62
     2
370
     9
100
AcDbLine
 10
-1425.445020521009
 20
647.2973302892738
 30
0.0
 11
-1432.576731088999
 21
648.2601186391471
 31
0.0
  0
LINE
  5
319
330
1F
100
AcDbEntity
  8
1-5ﾚｲﾔ
  6
Continuous
 62
     2
370
     9
100
AcDbLine
 10
-1425.502673999683
 20
648.3138130806589
 30
0.0
 11
-1432.361953322952
 21
649.240227776605
 31
0.0
  0
LINE
  5
31A
330
1F
100
AcDbEntity
  8
1-5ﾚｲﾔ
  6
Continuous
 62
     2
370
     9
100
AcDbLine
 10
-1425.627136230469
 20
648.3306389885981
 30
0.0
 11
-1425.627136230469
 21
647.3218268317146
 31
0.0
  0
LINE
  5
31B
330
1F
100
AcDbEntity
  8
1-3ﾚｲﾔ
  6
Continuous
 62
     2
370
     9
100
AcDbLine
 10
-1290.419893007021
 20
650.2401320998734
 30
0.0
 11
-1290.419893007021
 21
649.240227776605
 31
0.0
  0
LINE
  5
31C
330
1F
100
AcDbEntity
  8
1-3ﾚｲﾔ
  6
Continuous
 62
     2
370
     9
100
AcDbLine
 10
-1431.41994991818
 20
650.2401320998734
 30
0.0
 11
-1431.41994991818
 21
649.240227776605
 31
0.0
  0
LINE
  5
31D
330
1F
100
AcDbEntity
  8
1-3ﾚｲﾔ
  6
Continuous
 62
     2
370
     9
100
AcDbLine
 10
-1290.419893007021
 20
650.2401320998734
 30
0.0
 11
-1431.41994991818
 21
650.2401320998734
 31
0.0
  0
LINE
  5
31E
330
1F
100
AcDbEntity
  8
1-3ﾚｲﾔ
  6
Continuous
 62
     2
370
     9
100
AcDbLine
 10
-1297.4787944072
 20
649.240227776605
 30
0.0
 11
-1290.419893007021
 21
649.240227776605
 31
0.0
  0
LINE
  5
31F
330
1F
100
AcDbEntity
  8
1-3ﾚｲﾔ
  6
Continuous
 62
     2
370
     9
100
AcDbLine
 10
-1424.360986658045
 20
649.240227776605
 30
0.0
 11
-1431.41994991818
 21
649.240227776605
 31
0.0
  0
LINE
  5
320
330
1F
100
AcDbEntity
  8
1-3ﾚｲﾔ
  6
Continuous
 62
     2
370
     9
100
AcDbLine
 10
-1400.452732395481
 20
575.68676097973
 30
0.0
 11
-1325.898928255648
 21
650.2401320998734
 31
0.0
  0
LINE
  5
321
330
1F
100
AcDbEntity
  8
1-3ﾚｲﾔ
  6
Continuous
 62
     2
370
     9
100
AcDbLine
 10
-1423.068608464421
 20
637.9265367662586
 30
0.0
 11
-1410.754765690984
 21
650.2401320998734
 31
0.0
  0
LINE
  5
322
330
1F
100
AcDbEntity
  8
1-3ﾚｲﾔ
  6
Continuous
 62
     2
370
     9
100
AcDbLine
 10
-1421.522109572952
 20
625.3308600348396
 30
0.0
 11
-1396.61209518845
 21
650.2401320998734
 31
0.0
  0
LINE
  5
323
330
1F
100
AcDbEntity
  8
1-3ﾚｲﾔ
  6
Continuous
 62
     2
370
     9
100
AcDbLine
 10
-1418.938590384818
 20
613.7717087204394
 30
0.0
 11
-1382.469177246094
 21
650.2401320998734
 31
0.0
  0
LINE
  5
324
330
1F
100
AcDbEntity
  8
1-3ﾚｲﾔ
  6
Continuous
 62
     2
370
     9
100
AcDbLine
 10
-1415.437316894531
 20
603.1305591480154
 30
0.0
 11
-1368.326568603516
 21
650.2401320998734
 31
0.0
  0
LINE
  5
325
330
1F
100
AcDbEntity
  8
1-3ﾚｲﾔ
  6
Continuous
 62
     2
370
     9
100
AcDbLine
 10
-1405.858673920502
 20
584.4238611169766
 30
0.0
 11
-1340.041598758182
 21
650.2401320998734
 31
0.0
  0
LINE
  5
326
330
1F
100
AcDbEntity
  8
1-3ﾚｲﾔ
  6
Continuous
 62
     2
370
     9
100
AcDbLine
 10
-1411.073963062183
 20
593.3505001583617
 30
0.0
 11
-1354.18420740076
 21
650.2401320998734
 31
0.0
  0
LINE
  5
327
330
1F
100
AcDbEntity
  8
1-3ﾚｲﾔ
  6
Continuous
 62
     2
370
     9
100
AcDbLine
 10
-1392.676812249261
 20
569.3208766627959
 30
0.0
 11
-1311.756381473026
 21
650.2401320998734
 31
0.0
  0
LINE
  5
328
330
1F
100
AcDbEntity
  8
1-3ﾚｲﾔ
  6
Continuous
 62
     2
370
     9
100
AcDbLine
 10
-1384.449685586465
 20
563.4058277027029
 30
0.0
 11
-1297.614515149916
 21
650.2401320998734
 31
0.0
  0
LINE
  5
329
330
1F
100
AcDbEntity
  8
1-3ﾚｲﾔ
  6
Continuous
 62
     2
370
     9
100
AcDbLine
 10
-1406.563382535367
 20
585.5009666649073
 30
0.0
 11
-1384.492430815826
 21
563.4310665646117
 31
0.0
  0
LINE
  5
32A
330
1F
100
AcDbEntity
  8
1-3ﾚｲﾔ
  6
Continuous
 62
     2
370
     9
100
AcDbLine
 10
-1418.230665052259
 20
611.3089401657519
 30
0.0
 11
-1363.735570134343
 21
556.8162577861065
 31
0.0
  0
LINE
  5
32B
330
1F
100
AcDbEntity
  8
1-3ﾚｲﾔ
  6
Continuous
 62
     2
370
     9
100
AcDbLine
 10
-1422.157040157834
 20
629.3765011349242
 30
0.0
 11
-1350.719121984533
 21
557.9418615392738
 31
0.0
  0
LINE
  5
32C
330
1F
100
AcDbEntity
  8
1-3ﾚｲﾔ
  6
Continuous
 62
     2
370
     9
100
AcDbLine
 10
-1423.390280233847
 20
644.7511745143584
 30
0.0
 11
-1340.395932584195
 21
561.7603528821792
 31
0.0
  0
LINE
  5
32D
330
1F
100
AcDbEntity
  8
1-3ﾚｲﾔ
  6
Continuous
 62
     2
370
     9
100
AcDbLine
 10
-1414.737309636296
 20
650.2401320998734
 30
0.0
 11
-1331.730713715424
 21
567.2366910367398
 31
0.0
  0
LINE
  5
32E
330
1F
100
AcDbEntity
  8
1-3ﾚｲﾔ
  6
Continuous
 62
     2
370
     9
100
AcDbLine
 10
-1400.593896814295
 20
650.2401320998734
 30
0.0
 11
-1324.29953910209
 21
573.9462692673144
 31
0.0
  0
LINE
  5
32F
330
1F
100
AcDbEntity
  8
1-3ﾚｲﾔ
  6
Continuous
 62
     2
370
     9
100
AcDbLine
 10
-1386.452277931007
 20
650.2401320998734
 30
0.0
 11
-1317.88843515757
 21
581.6775265255492
 31
0.0
  0
LINE
  5
330
330
1F
100
AcDbEntity
  8
1-3ﾚｲﾔ
  6
Continuous
 62
     2
370
     9
100
AcDbLine
 10
-1372.31022602803
 20
650.2401320998734
 30
0.0
 11
-1312.387229300834
 21
590.3181251319679
 31
0.0
  0
LINE
  5
331
330
1F
100
AcDbEntity
  8
1-3ﾚｲﾔ
  6
Continuous
 62
     2
370
     9
100
AcDbLine
 10
-1346.123360298775
 20
559.3057498416385
 30
0.0
 11
-1309.488471778664
 21
595.9404527818836
 31
0.0
  0
LINE
  5
332
330
1F
100
AcDbEntity
  8
1-3ﾚｲﾔ
  6
Continuous
 62
     2
370
     9
100
AcDbLine
 10
-1358.166875065984
 20
650.2401320998734
 30
0.0
 11
-1307.744763348554
 21
599.817834802576
 31
0.0
  0
LINE
  5
333
330
1F
100
AcDbEntity
  8
1-3ﾚｲﾔ
  6
Continuous
 62
     2
370
     9
100
AcDbLine
 10
-1344.025256182696
 20
650.2401320998734
 30
0.0
 11
-1303.956212224187
 21
610.1717067409209
 31
0.0
  0
LINE
  5
334
330
1F
100
AcDbEntity
  8
1-3ﾚｲﾔ
  6
Continuous
 62
     2
370
     9
100
AcDbLine
 10
-1362.805938720703
 20
556.7652851826438
 30
0.0
 11
-1301.896337560705
 21
617.6745770428633
 31
0.0
  0
LINE
  5
335
330
1F
100
AcDbEntity
  8
1-3ﾚｲﾔ
  6
Continuous
 62
     2
370
     9
100
AcDbLine
 10
-1329.883142419764
 20
650.2401320998734
 30
0.0
 11
-1301.061228159311
 21
621.4185889991554
 31
0.0
  0
LINE
  5
336
330
1F
100
AcDbEntity
  8
1-3ﾚｲﾔ
  6
Continuous
 62
     2
370
     9
100
AcDbLine
 10
-1374.740951125686
 20
558.9724484005492
 30
0.0
 11
-1299.05164563978
 21
634.6610734269427
 31
0.0
  0
LINE
  5
337
330
1F
100
AcDbEntity
  8
1-3ﾚｲﾔ
  6
Continuous
 62
     2
370
     9
100
AcDbLine
 10
-1315.741028656831
 20
650.2401320998734
 30
0.0
 11
-1299.154889905775
 21
633.6542407886404
 31
0.0
  0
LINE
  5
338
330
1F
100
AcDbEntity
  8
1-3ﾚｲﾔ
  6
Continuous
 62
     2
370
     9
100
AcDbLine
 10
-1301.598976753853
 20
650.2401320998734
 30
0.0
 11
-1298.420797811972
 21
647.0620150179477
 31
0.0
  0
LINE
  5
339
330
1F
100
AcDbEntity
  8
1-3ﾚｲﾔ
  6
JWW_CENTER2
 62
     2
370
     9
100
AcDbLine
 10
-1360.919890532623
 20
783.3573130014781
 30
0.0
 11
-1360.919890532623
 21
544.2140238993877
 31
0.0
  0
LINE
  5
33A
330
1F
100
AcDbEntity
  8
1-F
  6
Continuous
 62
     7
370
     9
100
AcDbLine
 10
-1089.555853766364
 20
826.0500851192992
 30
0.0
 11
-1306.287033493454
 21
603.4311985325169
 31
0.0
  0
LINE
  5
33B
330
1F
100
AcDbEntity
  8
1-4ﾚｲﾔ
  6
Continuous
 62
     7
370
     9
100
AcDbLine
 10
-1306.287033493454
 20
603.4311985325169
 30
0.0
 11
-1288.344738934491
 21
627.4744312183279
 31
0.0
  0
LINE
  5
33C
330
1F
100
AcDbEntity
  8
1-4ﾚｲﾔ
  6
Continuous
 62
     7
370
     9
100
AcDbLine
 10
-1306.287033493454
 20
603.4311985325169
 30
0.0
 11
-1282.733298636771
 21
622.0112073743667
 31
0.0
  0
LINE
  5
33D
330
1F
100
AcDbEntity
  8
1-4ﾚｲﾔ
  6
Continuous
 62
     7
370
     9
100
AcDbLine
 10
-1419.170441498627
 20
854.7291028821792
 30
0.0
 11
-1302.670081886085
 21
854.7291028821792
 31
0.0
  0
LINE
  5
33E
330
1F
100
AcDbEntity
  8
1-4ﾚｲﾔ
  6
Continuous
 62
     7
370
     9
100
AcDbLine
 10
-1419.170441498627
 20
774.2408876161318
 30
0.0
 11
-1419.170441498627
 21
857.7290632918075
 31
0.0
  0
LINE
  5
33F
330
1F
100
AcDbEntity
  8
1-4ﾚｲﾔ
  6
Continuous
 62
     7
370
     9
100
AcDbLine
 10
-1302.670081886085
 20
774.2408876161318
 30
0.0
 11
-1302.670081886085
 21
857.7290632918075
 31
0.0
  0
LINE
  5
340
330
1F
100
AcDbEntity
  8
1-4ﾚｲﾔ
  6
Continuous
 62
     7
370
     9
100
AcDbLine
 10
-1419.170441498627
 20
854.7291028821792
 30
0.0
 11
-1389.427185058594
 21
858.6448380753802
 31
0.0
  0
LINE
  5
341
330
1F
100
AcDbEntity
  8
1-4ﾚｲﾔ
  6
Continuous
 62
     7
370
     9
100
AcDbLine
 10
-1419.170441498627
 20
854.7291028821792
 30
0.0
 11
-1389.427185058594
 21
850.8133676889781
 31
0.0
  0
LINE
  5
342
330
1F
100
AcDbEntity
  8
1-4ﾚｲﾔ
  6
Continuous
 62
     7
370
     9
100
AcDbLine
 10
-1302.670081886085
 20
854.7291028821792
 30
0.0
 11
-1332.413400186075
 21
858.6448380753802
 31
0.0
  0
LINE
  5
343
330
1F
100
AcDbEntity
  8
1-4ﾚｲﾔ
  6
Continuous
 62
     7
370
     9
100
AcDbLine
 10
-1302.670081886085
 20
854.7291028821792
 30
0.0
 11
-1332.413400186075
 21
850.8133676889781
 31
0.0
  0
LINE
  5
344
330
1F
100
AcDbEntity
  8
1-F
  6
Continuous
 62
     7
370
     9
100
AcDbLine
 10
-1360.919890532623
 20
789.2409371040964
 30
0.0
 11
-1360.919890532623
 21
847.591453758446
 31
0.0
  0
LINE
  5
345
330
1F
100
AcDbEntity
  8
1-F
  6
Continuous
 62
     7
370
     9
100
AcDbLine
 10
-1360.919890532623
 20
906.1327465160474
 30
0.0
 11
-1360.919890532623
 21
969.9291662267738
 31
0.0
  0
LINE
  5
346
330
1F
100
AcDbEntity
  8
1-4ﾚｲﾔ
  6
Continuous
 62
     7
370
     9
100
AcDbLine
 10
-1640.177195780986
 20
417.9901452966641
 30
0.0
 11
-1640.177195780986
 21
534.4902574693836
 31
0.0
  0
LINE
  5
347
330
1F
100
AcDbEntity
  8
1-4ﾚｲﾔ
  6
Continuous
 62
     7
370
     9
100
AcDbLine
 10
-1595.920109104466
 20
417.9901452966641
 30
0.0
 11
-1643.177187120592
 21
417.9901452966641
 31
0.0
  0
LINE
  5
348
330
1F
100
AcDbEntity
  8
1-4ﾚｲﾔ
  6
Continuous
 62
     7
370
     9
100
AcDbLine
 10
-1595.920109104466
 20
534.4902574693836
 30
0.0
 11
-1643.177187120592
 21
534.4902574693836
 31
0.0
  0
LINE
  5
349
330
1F
100
AcDbEntity
  8
1-4ﾚｲﾔ
  6
Continuous
 62
     7
370
     9
100
AcDbLine
 10
-1640.177195780986
 20
417.9901452966641
 30
0.0
 11
-1644.092992834143
 21
447.7335254566091
 31
0.0
  0
LINE
  5
34A
330
1F
100
AcDbEntity
  8
1-4ﾚｲﾔ
  6
Continuous
 62
     7
370
     9
100
AcDbLine
 10
-1640.177195780986
 20
417.9901452966641
 30
0.0
 11
-1636.261398727829
 21
447.7335254566091
 31
0.0
  0
LINE
  5
34B
330
1F
100
AcDbEntity
  8
1-4ﾚｲﾔ
  6
Continuous
 62
     7
370
     9
100
AcDbLine
 10
-1640.177195780986
 20
534.4902574693836
 30
0.0
 11
-1644.092992834143
 21
504.7468773094386
 31
0.0
  0
LINE
  5
34C
330
1F
100
AcDbEntity
  8
1-4ﾚｲﾔ
  6
Continuous
 62
     7
370
     9
100
AcDbLine
 10
-1640.177195780986
 20
534.4902574693836
 30
0.0
 11
-1636.261398727829
 21
504.7468773094386
 31
0.0
  0
LINE
  5
34D
330
1F
100
AcDbEntity
  8
1-F
  6
Continuous
 62
     7
370
     9
100
AcDbLine
 10
-1616.828341097445
 20
476.2402013830237
 30
0.0
 11
-1631.540463421796
 21
476.2402013830237
 31
0.0
  0
LINE
  5
34E
330
1F
100
AcDbEntity
  8
1-F
  6
Continuous
 62
     7
370
     9
100
AcDbLine
 10
-1689.558266304635
 20
476.2402013830237
 30
0.0
 11
-1715.146822542757
 21
476.2402013830237
 31
0.0
  0
LINE
  5
34F
330
1F
100
AcDbEntity
  8
1-F
  6
Continuous
 62
     7
370
     9
100
AcDbLine
 10
-760.4354033599029
 20
-1070.353799768396
 30
0.0
 11
-882.8489561338682
 21
-916.8977149757179
 31
0.0
  0
LINE
  5
350
330
1F
100
AcDbEntity
  8
1-F
  6
Continuous
 62
     2
370
     9
100
AcDbLine
 10
-1247.920185810811
 20
-857.4597003008867
 30
0.0
 11
-1247.920185810811
 21
-859.7596534522804
 31
0.0
  0
LINE
  5
351
330
1F
100
AcDbEntity
  8
1-F
  6
Continuous
 62
     2
370
     9
100
AcDbLine
 10
-1273.920110754065
 20
-859.7596534522804
 30
0.0
 11
-1247.920185810811
 21
-859.7596534522804
 31
0.0
  0
LINE
  5
352
330
1F
100
AcDbEntity
  8
1-F
  6
Continuous
 62
     2
370
     9
100
AcDbLine
 10
-1273.920110754065
 20
-857.4597003008867
 30
0.0
 11
-1273.920110754065
 21
-859.7596534522804
 31
0.0
  0
LINE
  5
353
330
1F
100
AcDbEntity
  8
1-F
  6
Continuous
 62
     2
370
     9
100
AcDbLine
 10
-1273.920110754065
 20
-857.4597003008867
 30
0.0
 11
-1247.920185810811
 21
-857.4597003008867
 31
0.0
  0
LINE
  5
354
330
1F
100
AcDbEntity
  8
1-F
  6
Continuous
 62
     2
370
     9
100
AcDbLine
 10
-1266.920161891628
 20
-828.4067391060494
 30
0.0
 11
-1254.920196533203
 21
-828.4067391060494
 31
0.0
  0
LINE
  5
355
330
1F
100
AcDbEntity
  8
1-F
  6
Continuous
 62
     2
370
     9
100
AcDbLine
 10
-1265.972900390625
 20
-827.4595394650021
 30
0.0
 11
-1265.972900390625
 21
-847.4596054489547
 31
0.0
  0
LINE
  5
356
330
1F
100
AcDbEntity
  8
1-F
  6
Continuous
 62
     2
370
     9
100
AcDbLine
 10
-1255.867148734428
 20
-827.4595394650021
 30
0.0
 11
-1255.867148734428
 21
-847.4596054489547
 31
0.0
  0
LINE
  5
357
330
1F
100
AcDbEntity
  8
1-F
  6
Continuous
 62
     2
370
     9
100
AcDbLine
 10
-1265.972900390625
 20
-827.4595394650021
 30
0.0
 11
-1266.920161891628
 21
-828.4067391060494
 31
0.0
  0
LINE
  5
358
330
1F
100
AcDbEntity
  8
1-F
  6
Continuous
 62
     2
370
     9
100
AcDbLine
 10
-1255.867148734428
 20
-827.4595394650021
 30
0.0
 11
-1254.920196533203
 21
-828.4067391060494
 31
0.0
  0
LINE
  5
359
330
1F
100
AcDbEntity
  8
1-F
  6
Continuous
 62
     2
370
     9
100
AcDbLine
 10
-1266.920161891628
 20
-828.4067391060494
 30
0.0
 11
-1266.920161891628
 21
-847.4596054489547
 31
0.0
  0
LINE
  5
35A
330
1F
100
AcDbEntity
  8
1-F
  6
Continuous
 62
     2
370
     9
100
AcDbLine
 10
-1254.920196533203
 20
-828.4067391060494
 30
0.0
 11
-1254.920196533203
 21
-847.4596054489547
 31
0.0
  0
LINE
  5
35B
330
1F
100
AcDbEntity
  8
1-F
  6
Continuous
 62
     2
370
     9
100
AcDbLine
 10
-1265.972900390625
 20
-827.4595394650021
 30
0.0
 11
-1255.867148734428
 21
-827.4595394650021
 31
0.0
  0
LINE
  5
35C
330
1F
100
AcDbEntity
  8
1-F
  6
Continuous
 62
     2
370
     9
100
AcDbLine
 10
-1261.520097062394
 20
-893.4595345162056
 30
0.0
 11
-1260.32007578257
 21
-893.4595345162056
 31
0.0
  0
LINE
  5
35D
330
1F
100
AcDbEntity
  8
1-F
  6
JWW_CENTER2
 62
     2
370
     9
100
AcDbLine
 10
-1260.919993632549
 20
-820.6204883472338
 30
0.0
 11
-1260.919993632549
 21
-922.9112449852196
 31
0.0
  0
LINE
  5
35E
330
1F
100
AcDbEntity
  8
1-F
  6
Continuous
 62
     2
370
     9
100
AcDbLine
 10
-1254.920196533203
 20
-859.7596534522804
 30
0.0
 11
-1254.920196533203
 21
-891.4321981894002
 31
0.0
  0
LINE
  5
35F
330
1F
100
AcDbEntity
  8
1-F
  6
Continuous
 62
     2
370
     9
100
AcDbLine
 10
-1261.520097062394
 20
-893.4595345162056
 30
0.0
 11
-1263.611705883129
 21
-917.3682836584144
 31
0.0
  0
LINE
  5
360
330
1F
100
AcDbEntity
  8
1-F
  6
Continuous
 62
     2
370
     9
100
AcDbLine
 10
-1263.611705883129
 20
-917.3682836584144
 30
0.0
 11
-1268.99129506704
 21
-916.8977149757179
 31
0.0
  0
LINE
  5
361
330
1F
100
AcDbEntity
  8
1-F
  6
Continuous
 62
     2
370
     9
100
AcDbLine
 10
-1263.228421597867
 20
-912.9851346402554
 30
0.0
 11
-1268.607763341955
 21
-912.5143803776922
 31
0.0
  0
LINE
  5
362
330
1F
100
AcDbEntity
  8
1-F
  6
Continuous
 62
     2
370
     9
100
AcDbLine
 10
-1262.844766152872
 20
-908.6018000422297
 30
0.0
 11
-1268.224479056693
 21
-908.1311694995776
 31
0.0
  0
LINE
  5
363
330
1F
100
AcDbEntity
  8
1-F
  6
Continuous
 62
     2
370
     9
100
AcDbLine
 10
-1262.461358147698
 20
-904.2184035842483
 30
0.0
 11
-1267.840761751742
 21
-903.7479586214633
 31
0.0
  0
LINE
  5
364
330
1F
100
AcDbEntity
  8
1-F
  6
Continuous
 62
     2
370
     9
100
AcDbLine
 10
-1262.077826422614
 20
-899.8353782860008
 30
0.0
 11
-1267.457230026657
 21
-899.3646240234375
 31
0.0
  0
LINE
  5
365
330
1F
100
AcDbEntity
  8
1-F
  6
Continuous
 62
     2
370
     9
100
AcDbLine
 10
-1261.694418417441
 20
-895.452043687975
 30
0.0
 11
-1267.073698301573
 21
-894.981413145323
 31
0.0
  0
LINE
  5
366
330
1F
100
AcDbEntity
  8
1-F
  6
Continuous
 62
     2
370
     9
100
AcDbLine
 10
-1268.010134310336
 20
-912.5667139001794
 30
0.0
 11
-1268.224479056693
 21
-908.1311694995776
 31
0.0
  0
LINE
  5
367
330
1F
100
AcDbEntity
  8
1-F
  6
Continuous
 62
     2
370
     9
100
AcDbLine
 10
-1267.626602585251
 20
-908.183503022065
 30
0.0
 11
-1267.840761751742
 21
-903.7479586214633
 31
0.0
  0
LINE
  5
368
330
1F
100
AcDbEntity
  8
1-F
  6
Continuous
 62
     2
370
     9
100
AcDbLine
 10
-1267.243070860167
 20
-903.8002921439505
 30
0.0
 11
-1267.457230026657
 21
-899.3646240234375
 31
0.0
  0
LINE
  5
369
330
1F
100
AcDbEntity
  8
1-F
  6
Continuous
 62
     2
370
     9
100
AcDbLine
 10
-1266.859786574905
 20
-899.4168338260135
 30
0.0
 11
-1267.073698301573
 21
-894.981413145323
 31
0.0
  0
LINE
  5
36A
330
1F
100
AcDbEntity
  8
1-F
  6
Continuous
 62
     2
370
     9
100
AcDbLine
 10
-1268.607763341955
 20
-912.5143803776922
 30
0.0
 11
-1268.99129506704
 21
-916.8977149757179
 31
0.0
  0
LINE
  5
36B
330
1F
100
AcDbEntity
  8
1-F
  6
Continuous
 62
     2
370
     9
100
AcDbLine
 10
-1266.920161891628
 20
-859.7596534522804
 30
0.0
 11
-1266.920161891628
 21
-891.4321981894002
 31
0.0
  0
LINE
  5
36C
330
1F
100
AcDbEntity
  8
1-F
  6
Continuous
 62
     2
370
     9
100
AcDbLine
 10
-1260.32007578257
 20
-893.4595345162056
 30
0.0
 11
-1258.228343241924
 21
-917.3682836584144
 31
0.0
  0
LINE
  5
36D
330
1F
100
AcDbEntity
  8
1-F
  6
Continuous
 62
     2
370
     9
100
AcDbLine
 10
-1258.228343241924
 20
-917.3682836584144
 30
0.0
 11
-1252.848754058013
 21
-916.8977149757179
 31
0.0
  0
LINE
  5
36E
330
1F
100
AcDbEntity
  8
1-F
  6
Continuous
 62
     2
370
     9
100
AcDbLine
 10
-1258.611751247097
 20
-912.9851346402554
 30
0.0
 11
-1253.232471362964
 21
-912.5143803776922
 31
0.0
  0
LINE
  5
36F
330
1F
100
AcDbEntity
  8
1-F
  6
Continuous
 62
     2
370
     9
100
AcDbLine
 10
-1258.995282972181
 20
-908.6018000422297
 30
0.0
 11
-1253.615879368138
 21
-908.1311694995776
 31
0.0
  0
LINE
  5
370
330
1F
100
AcDbEntity
  8
1-F
  6
Continuous
 62
     2
370
     9
100
AcDbLine
 10
-1259.378814697266
 20
-904.2184035842483
 30
0.0
 11
-1253.999287373311
 21
-903.7479586214633
 31
0.0
  0
LINE
  5
371
330
1F
100
AcDbEntity
  8
1-F
  6
Continuous
 62
     2
370
     9
100
AcDbLine
 10
-1259.762222702439
 20
-899.8353782860008
 30
0.0
 11
-1254.382695378484
 21
-899.3646240234375
 31
0.0
  0
LINE
  5
372
330
1F
100
AcDbEntity
  8
1-F
  6
Continuous
 62
     2
370
     9
100
AcDbLine
 10
-1260.145630707612
 20
-895.452043687975
 30
0.0
 11
-1254.76635082348
 21
-894.981413145323
 31
0.0
  0
LINE
  5
373
330
1F
100
AcDbEntity
  8
1-F
  6
Continuous
 62
     2
370
     9
100
AcDbLine
 10
-1253.830038534628
 20
-912.5667139001794
 30
0.0
 11
-1253.615879368138
 21
-908.1311694995776
 31
0.0
  0
LINE
  5
374
330
1F
100
AcDbEntity
  8
1-F
  6
Continuous
 62
     2
370
     9
100
AcDbLine
 10
-1254.213446539801
 20
-908.183503022065
 30
0.0
 11
-1253.999287373311
 21
-903.7479586214633
 31
0.0
  0
LINE
  5
375
330
1F
100
AcDbEntity
  8
1-F
  6
Continuous
 62
     2
370
     9
100
AcDbLine
 10
-1254.597101984797
 20
-903.8002921439505
 30
0.0
 11
-1254.382695378484
 21
-899.3646240234375
 31
0.0
  0
LINE
  5
376
330
1F
100
AcDbEntity
  8
1-F
  6
Continuous
 62
     2
370
     9
100
AcDbLine
 10
-1254.98050998997
 20
-899.4168338260135
 30
0.0
 11
-1254.76635082348
 21
-894.981413145323
 31
0.0
  0
LINE
  5
377
330
1F
100
AcDbEntity
  8
1-F
  6
Continuous
 62
     2
370
     9
100
AcDbLine
 10
-1253.232471362964
 20
-912.5143803776922
 30
0.0
 11
-1252.848754058013
 21
-916.8977149757179
 31
0.0
  0
LINE
  5
378
330
1F
100
AcDbEntity
  8
1-F
  6
Continuous
 62
     2
370
     9
100
AcDbLine
 10
-1271.869948103621
 20
-848.585580361856
 30
0.0
 11
-1271.869948103621
 21
-857.4597003008867
 31
0.0
  0
LINE
  5
379
330
1F
100
AcDbEntity
  8
1-F
  6
Continuous
 62
     2
370
     9
100
AcDbLine
 10
-1249.970039161476
 20
-848.585580361856
 30
0.0
 11
-1249.970039161476
 21
-857.4597003008867
 31
0.0
  0
LINE
  5
37A
330
1F
100
AcDbEntity
  8
1-F
  6
Continuous
 62
     2
370
     9
100
AcDbLine
 10
-1266.385135135135
 20
-848.585580361856
 30
0.0
 11
-1266.385135135135
 21
-857.4597003008867
 31
0.0
  0
LINE
  5
37B
330
1F
100
AcDbEntity
  8
1-F
  6
Continuous
 62
     2
370
     9
100
AcDbLine
 10
-1255.455037709829
 20
-848.585580361856
 30
0.0
 11
-1255.455037709829
 21
-857.4597003008867
 31
0.0
  0
LINE
  5
37C
330
1F
100
AcDbEntity
  8
1-F
  6
Continuous
 62
     2
370
     9
100
AcDbLine
 10
-1269.1275106894
 20
-847.4596054489547
 30
0.0
 11
-1252.712538435652
 21
-847.4596054489547
 31
0.0
  0
LINE
  5
37D
330
1F
100
AcDbEntity
  8
1-F
  6
Continuous
 62
     2
370
     9
100
AcDbLine
 10
-903.920065390097
 20
-857.4597003008867
 30
0.0
 11
-903.920065390097
 21
-859.7596534522804
 31
0.0
  0
LINE
  5
37E
330
1F
100
AcDbEntity
  8
1-F
  6
Continuous
 62
     2
370
     9
100
AcDbLine
 10
-877.9199548669762
 20
-859.7596534522804
 30
0.0
 11
-903.920065390097
 21
-859.7596534522804
 31
0.0
  0
LINE
  5
37F
330
1F
100
AcDbEntity
  8
1-F
  6
Continuous
 62
     2
370
     9
100
AcDbLine
 10
-877.9199548669762
 20
-857.4597003008867
 30
0.0
 11
-877.9199548669762
 21
-859.7596534522804
 31
0.0
  0
LINE
  5
380
330
1F
100
AcDbEntity
  8
1-F
  6
Continuous
 62
     2
370
     9
100
AcDbLine
 10
-877.9199548669762
 20
-857.4597003008867
 30
0.0
 11
-903.920065390097
 21
-857.4597003008867
 31
0.0
  0
LINE
  5
381
330
1F
100
AcDbEntity
  8
1-F
  6
Continuous
 62
     2
370
     9
100
AcDbLine
 10
-884.9200274493242
 20
-828.4067391060494
 30
0.0
 11
-896.9201165276604
 21
-828.4067391060494
 31
0.0
  0
LINE
  5
382
330
1F
100
AcDbEntity
  8
1-F
  6
Continuous
 62
     2
370
     9
100
AcDbLine
 10
-885.8671033704603
 20
-827.4595394650021
 30
0.0
 11
-885.8671033704603
 21
-847.4596054489547
 31
0.0
  0
LINE
  5
383
330
1F
100
AcDbEntity
  8
1-F
  6
Continuous
 62
     2
370
     9
100
AcDbLine
 10
-895.9730406065245
 20
-827.4595394650021
 30
0.0
 11
-895.9730406065245
 21
-847.4596054489547
 31
0.0
  0
LINE
  5
384
330
1F
100
AcDbEntity
  8
1-F
  6
Continuous
 62
     2
370
     9
100
AcDbLine
 10
-885.8671033704603
 20
-827.4595394650021
 30
0.0
 11
-884.9200274493242
 21
-828.4067391060494
 31
0.0
  0
LINE
  5
385
330
1F
100
AcDbEntity
  8
1-F
  6
Continuous
 62
     2
370
     9
100
AcDbLine
 10
-895.9730406065245
 20
-827.4595394650021
 30
0.0
 11
-896.9201165276604
 21
-828.4067391060494
 31
0.0
  0
LINE
  5
386
330
1F
100
AcDbEntity
  8
1-F
  6
Continuous
 62
     2
370
     9
100
AcDbLine
 10
-884.9200274493242
 20
-828.4067391060494
 30
0.0
 11
-884.9200274493242
 21
-847.4596054489547
 31
0.0
  0
LINE
  5
387
330
1F
100
AcDbEntity
  8
1-F
  6
Continuous
 62
     2
370
     9
100
AcDbLine
 10
-896.9201165276604
 20
-828.4067391060494
 30
0.0
 11
-896.9201165276604
 21
-847.4596054489547
 31
0.0
  0
LINE
  5
388
330
1F
100
AcDbEntity
  8
1-F
  6
Continuous
 62
     2
370
     9
100
AcDbLine
 10
-885.8671033704603
 20
-827.4595394650021
 30
0.0
 11
-895.9730406065245
 21
-827.4595394650021
 31
0.0
  0
LINE
  5
389
330
1F
100
AcDbEntity
  8
1-F
  6
Continuous
 62
     2
370
     9
100
AcDbLine
 10
-890.3201541385134
 20
-893.4595345162056
 30
0.0
 11
-891.5201135583825
 21
-893.4595345162056
 31
0.0
  0
LINE
  5
38A
330
1F
100
AcDbEntity
  8
1-F
  6
JWW_CENTER2
 62
     2
370
     9
100
AcDbLine
 10
-890.9201957084036
 20
-820.6204883472338
 30
0.0
 11
-890.9201957084036
 21
-922.9112449852196
 31
0.0
  0
LINE
  5
38B
330
1F
100
AcDbEntity
  8
1-F
  6
Continuous
 62
     2
370
     9
100
AcDbLine
 10
-896.9201165276604
 20
-859.7596534522804
 30
0.0
 11
-896.9201165276604
 21
-891.4321981894002
 31
0.0
  0
LINE
  5
38C
330
1F
100
AcDbEntity
  8
1-F
  6
Continuous
 62
     2
370
     9
100
AcDbLine
 10
-890.3201541385134
 20
-893.4595345162056
 30
0.0
 11
-888.2284215978673
 21
-917.3682836584144
 31
0.0
  0
LINE
  5
38D
330
1F
100
AcDbEntity
  8
1-F
  6
Continuous
 62
     2
370
     9
100
AcDbLine
 10
-888.2284215978673
 20
-917.3682836584144
 30
0.0
 11
-882.8489561338682
 21
-916.8977149757179
 31
0.0
  0
LINE
  5
38E
330
1F
100
AcDbEntity
  8
1-F
  6
Continuous
 62
     2
370
     9
100
AcDbLine
 10
-888.6118296030405
 20
-912.9851346402554
 30
0.0
 11
-883.2324878589526
 21
-912.5143803776922
 31
0.0
  0
LINE
  5
38F
330
1F
100
AcDbEntity
  8
1-F
  6
Continuous
 62
     2
370
     9
100
AcDbLine
 10
-888.995361328125
 20
-908.6018000422297
 30
0.0
 11
-883.6158958641258
 21
-908.1311694995776
 31
0.0
  0
LINE
  5
390
330
1F
100
AcDbEntity
  8
1-F
  6
Continuous
 62
     2
370
     9
100
AcDbLine
 10
-889.378769333298
 20
-904.2184035842483
 30
0.0
 11
-883.999303869299
 21
-903.7479586214633
 31
0.0
  0
LINE
  5
391
330
1F
100
AcDbEntity
  8
1-F
  6
Continuous
 62
     2
370
     9
100
AcDbLine
 10
-889.7623010583825
 20
-899.8353782860008
 30
0.0
 11
-884.3828355943833
 21
-899.3646240234375
 31
0.0
  0
LINE
  5
392
330
1F
100
AcDbEntity
  8
1-F
  6
Continuous
 62
     2
370
     9
100
AcDbLine
 10
-890.1458327834671
 20
-895.452043687975
 30
0.0
 11
-884.7663673194678
 21
-894.981413145323
 31
0.0
  0
LINE
  5
393
330
1F
100
AcDbEntity
  8
1-F
  6
Continuous
 62
     2
370
     9
100
AcDbLine
 10
-883.8300550306166
 20
-912.5667139001794
 30
0.0
 11
-883.6158958641258
 21
-908.1311694995776
 31
0.0
  0
LINE
  5
394
330
1F
100
AcDbEntity
  8
1-F
  6
Continuous
 62
     2
370
     9
100
AcDbLine
 10
-884.2135867557009
 20
-908.183503022065
 30
0.0
 11
-883.999303869299
 21
-903.7479586214633
 31
0.0
  0
LINE
  5
395
330
1F
100
AcDbEntity
  8
1-F
  6
Continuous
 62
     2
370
     9
100
AcDbLine
 10
-884.596994760874
 20
-903.8002921439505
 30
0.0
 11
-884.3828355943833
 21
-899.3646240234375
 31
0.0
  0
LINE
  5
396
330
1F
100
AcDbEntity
  8
1-F
  6
Continuous
 62
     2
370
     9
100
AcDbLine
 10
-884.9805264859585
 20
-899.4168338260135
 30
0.0
 11
-884.7663673194678
 21
-894.981413145323
 31
0.0
  0
LINE
  5
397
330
1F
100
AcDbEntity
  8
1-F
  6
Continuous
 62
     2
370
     9
100
AcDbLine
 10
-883.2324878589526
 20
-912.5143803776922
 30
0.0
 11
-882.8489561338682
 21
-916.8977149757179
 31
0.0
  0
LINE
  5
398
330
1F
100
AcDbEntity
  8
1-F
  6
Continuous
 62
     2
370
     9
100
AcDbLine
 10
-884.9200274493242
 20
-859.7596534522804
 30
0.0
 11
-884.9200274493242
 21
-891.4321981894002
 31
0.0
  0
LINE
  5
399
330
1F
100
AcDbEntity
  8
1-F
  6
Continuous
 62
     2
370
     9
100
AcDbLine
 10
-891.5201135583825
 20
-893.4595345162056
 30
0.0
 11
-893.6118460990286
 21
-917.3682836584144
 31
0.0
  0
LINE
  5
39A
330
1F
100
AcDbEntity
  8
1-F
  6
Continuous
 62
     2
370
     9
100
AcDbLine
 10
-893.6118460990286
 20
-917.3682836584144
 30
0.0
 11
-898.9913115630279
 21
-916.8977149757179
 31
0.0
  0
LINE
  5
39B
330
1F
100
AcDbEntity
  8
1-F
  6
Continuous
 62
     2
370
     9
100
AcDbLine
 10
-893.2285618137668
 20
-912.9851346402554
 30
0.0
 11
-898.6077798379433
 21
-912.5143803776922
 31
0.0
  0
LINE
  5
39C
330
1F
100
AcDbEntity
  8
1-F
  6
Continuous
 62
     2
370
     9
100
AcDbLine
 10
-892.8447826488598
 20
-908.6018000422297
 30
0.0
 11
-898.2243718327702
 21
-908.1311694995776
 31
0.0
  0
LINE
  5
39D
330
1F
100
AcDbEntity
  8
1-F
  6
Continuous
 62
     2
370
     9
100
AcDbLine
 10
-892.4613746436866
 20
-904.2184035842483
 30
0.0
 11
-897.8408401076858
 21
-903.7479586214633
 31
0.0
  0
LINE
  5
39E
330
1F
100
AcDbEntity
  8
1-F
  6
Continuous
 62
     2
370
     9
100
AcDbLine
 10
-892.0779666385134
 20
-899.8353782860008
 30
0.0
 11
-897.4574321025126
 21
-899.3646240234375
 31
0.0
  0
LINE
  5
39F
330
1F
100
AcDbEntity
  8
1-F
  6
Continuous
 62
     2
370
     9
100
AcDbLine
 10
-891.6945586333404
 20
-895.452043687975
 30
0.0
 11
-897.0739003774281
 21
-894.981413145323
 31
0.0
  0
LINE
  5
3A0
330
1F
100
AcDbEntity
  8
1-F
  6
Continuous
 62
     2
370
     9
100
AcDbLine
 10
-898.0100889463682
 20
-912.5667139001794
 30
0.0
 11
-898.2243718327702
 21
-908.1311694995776
 31
0.0
  0
LINE
  5
3A1
330
1F
100
AcDbEntity
  8
1-F
  6
Continuous
 62
     2
370
     9
100
AcDbLine
 10
-897.626680941195
 20
-908.183503022065
 30
0.0
 11
-897.8408401076858
 21
-903.7479586214633
 31
0.0
  0
LINE
  5
3A2
330
1F
100
AcDbEntity
  8
1-F
  6
Continuous
 62
     2
370
     9
100
AcDbLine
 10
-897.2431492161105
 20
-903.8002921439505
 30
0.0
 11
-897.4574321025126
 21
-899.3646240234375
 31
0.0
  0
LINE
  5
3A3
330
1F
100
AcDbEntity
  8
1-F
  6
Continuous
 62
     2
370
     9
100
AcDbLine
 10
-896.8597412109375
 20
-899.4168338260135
 30
0.0
 11
-897.0739003774281
 21
-894.981413145323
 31
0.0
  0
LINE
  5
3A4
330
1F
100
AcDbEntity
  8
1-F
  6
Continuous
 62
     2
370
     9
100
AcDbLine
 10
-898.6077798379433
 20
-912.5143803776922
 30
0.0
 11
-898.9913115630279
 21
-916.8977149757179
 31
0.0
  0
LINE
  5
3A5
330
1F
100
AcDbEntity
  8
1-F
  6
Continuous
 62
     2
370
     9
100
AcDbLine
 10
-879.9701175174197
 20
-848.585580361856
 30
0.0
 11
-879.9701175174197
 21
-857.4597003008867
 31
0.0
  0
LINE
  5
3A6
330
1F
100
AcDbEntity
  8
1-F
  6
Continuous
 62
     2
370
     9
100
AcDbLine
 10
-901.870026459565
 20
-848.585580361856
 30
0.0
 11
-901.870026459565
 21
-857.4597003008867
 31
0.0
  0
LINE
  5
3A7
330
1F
100
AcDbEntity
  8
1-F
  6
Continuous
 62
     2
370
     9
100
AcDbLine
 10
-885.4549923458615
 20
-848.585580361856
 30
0.0
 11
-885.4549923458615
 21
-857.4597003008867
 31
0.0
  0
LINE
  5
3A8
330
1F
100
AcDbEntity
  8
1-F
  6
Continuous
 62
     2
370
     9
100
AcDbLine
 10
-896.3852753510345
 20
-848.585580361856
 30
0.0
 11
-896.3852753510345
 21
-857.4597003008867
 31
0.0
  0
LINE
  5
3A9
330
1F
100
AcDbEntity
  8
1-F
  6
Continuous
 62
     2
370
     9
100
AcDbLine
 10
-882.7126167915962
 20
-847.4596054489547
 30
0.0
 11
-899.1275271853884
 21
-847.4596054489547
 31
0.0
  0
LINE
  5
3AA
330
1F
100
AcDbEntity
  8
1-F
  6
Continuous
 62
     7
370
     9
100
AcDbLine
 10
-759.9536380252323
 20
-957.0314025878906
 30
0.0
 11
-759.9536380252323
 21
-1011.286171578072
 31
0.0
  0
LINE
  5
3AB
330
1F
100
AcDbEntity
  8
1-F
  6
Continuous
 62
     7
370
     9
100
AcDbLine
 10
-759.9536380252323
 20
-1011.286171578072
 30
0.0
 11
-587.3683207743875
 21
-1011.286171578072
 31
0.0
  0
LINE
  5
3AC
330
1F
100
AcDbEntity
  8
1-F
  6
Continuous
 62
     7
370
     9
100
AcDbLine
 10
-587.3683207743875
 20
-1011.286171578072
 30
0.0
 11
-587.3683207743875
 21
-957.0314025878906
 31
0.0
  0
LINE
  5
3AD
330
1F
100
AcDbEntity
  8
1-F
  6
Continuous
 62
     7
370
     9
100
AcDbLine
 10
-587.3683207743875
 20
-957.0314025878906
 30
0.0
 11
-759.9536380252323
 21
-957.0314025878906
 31
0.0
  0
LINE
  5
3AE
330
1F
100
AcDbEntity
  8
1-F
  6
Continuous
 62
     7
370
     9
100
AcDbLine
 10
-760.4354033599029
 20
-1070.353799768396
 30
0.0
 11
-359.5626006255279
 21
-1070.353799768396
 31
0.0
  0
LINE
  5
3AF
330
1F
100
AcDbEntity
  8
1-2ﾚｲﾔ
  6
Continuous
 62
     6
370
     9
100
AcDbLine
 10
-470.9399661502323
 20
-862.7596138619087
 30
0.0
 11
-564.8905161264779
 21
-956.7102875580658
 31
0.0
  0
LINE
  5
3B0
330
1F
100
AcDbEntity
  8
1-2ﾚｲﾔ
  6
Continuous
 62
     6
370
     9
100
AcDbLine
 10
-430.9398341823268
 20
-862.7596138619087
 30
0.0
 11
-524.8903841585727
 21
-956.7102875580658
 31
0.0
  0
LINE
  5
3B1
330
1F
100
AcDbEntity
  8
1-2ﾚｲﾔ
  6
Continuous
 62
     6
370
     9
100
AcDbLine
 10
-450.9399001662794
 20
-862.7596138619087
 30
0.0
 11
-544.8904501425252
 21
-956.7102875580658
 31
0.0
  0
LINE
  5
3B2
330
1F
100
AcDbEntity
  8
1-2ﾚｲﾔ
  6
Continuous
 62
     6
370
     9
100
AcDbLine
 10
-320.0911238386823
 20
-862.7596138619087
 30
0.0
 11
-1801.87707849451
 21
-862.7596138619087
 31
0.0
  0
LINE
  5
3B3
330
1F
100
AcDbEntity
  8
1-F
  6
Continuous
 62
     7
370
     9
100
AcDbLine
 10
-1365.920030748522
 20
-862.7596138619087
 30
0.0
 11
-1817.767138094515
 21
-862.7596138619087
 31
0.0
  0
LINE
  5
3B4
330
1F
100
AcDbEntity
  8
1-4ﾚｲﾔ
  6
Continuous
 62
     7
370
     9
100
AcDbLine
 10
-882.8489561338682
 20
-916.8977149757179
 30
0.0
 11
-861.2397889833192
 21
-937.7074040593328
 31
0.0
  0
LINE
  5
3B5
330
1F
100
AcDbEntity
  8
1-4ﾚｲﾔ
  6
Continuous
 62
     7
370
     9
100
AcDbLine
 10
-882.8489561338682
 20
-916.8977149757179
 30
0.0
 11
-867.362068794869
 21
-942.591185698638
 31
0.0
  0
LINE
  5
3B6
330
1F
100
AcDbEntity
  8
1-2ﾚｲﾔ
  6
Continuous
 62
     6
370
     9
100
AcDbLine
 10
-1720.900540738493
 20
-862.7596138619087
 30
0.0
 11
-1814.851090714738
 21
-956.7102875580658
 31
0.0
  0
LINE
  5
3B7
330
1F
100
AcDbEntity
  8
1-2ﾚｲﾔ
  6
Continuous
 62
     6
370
     9
100
AcDbLine
 10
-1680.900408770587
 20
-862.7596138619087
 30
0.0
 11
-1774.850958746833
 21
-956.7102875580658
 31
0.0
  0
LINE
  5
3B8
330
1F
100
AcDbEntity
  8
1-2ﾚｲﾔ
  6
Continuous
 62
     6
370
     9
100
AcDbLine
 10
-1700.90047475454
 20
-862.7596138619087
 30
0.0
 11
-1794.851024730785
 21
-956.7102875580658
 31
0.0
  0
LINE
  5
3B9
330
1F
100
AcDbEntity
  8
1-F
  6
Continuous
 62
     7
370
     9
100
AcDbLine
 10
-484.6033457163216
 20
-417.5282741237331
 30
0.0
 11
-523.4194781329179
 21
-484.7596534522803
 31
0.0
  0
LINE
  5
3BA
330
1F
100
AcDbEntity
  8
1-F
  6
Continuous
 62
     7
370
     9
100
AcDbLine
 10
-523.4194781329179
 20
-484.7596534522803
 30
0.0
 11
-511.9390126821156
 21
-457.0434240392735
 31
0.0
  0
LINE
  5
3BB
330
1F
100
AcDbEntity
  8
1-F
  6
Continuous
 62
     7
370
     9
100
AcDbLine
 10
-523.4194781329179
 20
-484.7596534522803
 30
0.0
 11
-505.1566871436864
 21
-460.9591592324746
 31
0.0
  0
LINE
  5
3BC
330
1F
100
AcDbEntity
  8
1-4ﾚｲﾔ
  6
Continuous
 62
     7
370
     9
100
AcDbLine
 10
-670.9198410446578
 20
-339.1034595386401
 30
0.0
 11
-523.4194781329179
 21
-339.1034595386401
 31
0.0
  0
LINE
  5
3BD
330
1F
100
AcDbEntity
  8
1-4ﾚｲﾔ
  6
Continuous
 62
     7
370
     9
100
AcDbLine
 10
-670.9198410446578
 20
-354.1035090266047
 30
0.0
 11
-670.9198410446578
 21
-342.1034199482685
 31
0.0
  0
LINE
  5
3BE
330
1F
100
AcDbEntity
  8
1-4ﾚｲﾔ
  6
Continuous
 62
     7
370
     9
100
AcDbLine
 10
-523.4194781329179
 20
-469.7596658242715
 30
0.0
 11
-523.4194781329179
 21
-336.1034991290117
 31
0.0
  0
LINE
  5
3BF
330
1F
100
AcDbEntity
  8
1-4ﾚｲﾔ
  6
Continuous
 62
     7
370
     9
100
AcDbLine
 10
-670.9198410446578
 20
-339.1034595386401
 30
0.0
 11
-641.1764608847127
 21
-335.1877243454392
 31
0.0
  0
LINE
  5
3C0
330
1F
100
AcDbEntity
  8
1-4ﾚｲﾔ
  6
Continuous
 62
     7
370
     9
100
AcDbLine
 10
-670.9198410446578
 20
-339.1034595386401
 30
0.0
 11
-641.1764608847127
 21
-343.0191947318411
 31
0.0
  0
LINE
  5
3C1
330
1F
100
AcDbEntity
  8
1-4ﾚｲﾔ
  6
Continuous
 62
     7
370
     9
100
AcDbLine
 10
-523.4194781329179
 20
-339.1034595386401
 30
0.0
 11
-553.162858292863
 21
-335.1877243454392
 31
0.0
  0
LINE
  5
3C2
330
1F
100
AcDbEntity
  8
1-4ﾚｲﾔ
  6
Continuous
 62
     7
370
     9
100
AcDbLine
 10
-523.4194781329179
 20
-339.1034595386401
 30
0.0
 11
-553.162858292863
 21
-343.0191947318411
 31
0.0
  0
ARC
  5
3C3
330
1F
100
AcDbEntity
  8
1-7
  6
Continuous
 62
     7
370
     9
100
AcDbCircle
 10
-1075.92018746041
 20
682.7406104835304
 30
0.0
 40
5.000022295359019
100
AcDbArc
 50
0.000152587890625
 51
0.0000000000000568
  0
ARC
  5
3C4
330
1F
100
AcDbEntity
  8
1-5ﾚｲﾔ
  6
Continuous
 62
     2
370
     9
100
AcDbCircle
 10
-618.9193725585938
 20
-550.7597722233952
 30
0.0
 40
1.999999904954756
100
AcDbArc
 50
0.0
 51
90.0
  0
ARC
  5
3C5
330
1F
100
AcDbEntity
  8
1-5ﾚｲﾔ
  6
Continuous
 62
     2
370
     9
100
AcDbCircle
 10
-627.9195012273016
 20
-550.7597722233952
 30
0.0
 40
1.999999904954756
100
AcDbArc
 50
90.0
 51
180.0
  0
ARC
  5
3C6
330
1F
100
AcDbEntity
  8
1-5ﾚｲﾔ
  6
Continuous
 62
     2
370
     9
100
AcDbCircle
 10
-616.0730722788217
 20
-502.6213444890202
 30
0.0
 40
3.811438341398497
100
AcDbArc
 50
49.92564392089844
 51
130.0743560791016
  0
ARC
  5
3C7
330
1F
100
AcDbEntity
  8
1-5ﾚｲﾔ
  6
Continuous
 62
     2
370
     9
100
AcDbCircle
 10
-623.4195606128588
 20
-512.6313987938133
 30
0.0
 40
13.82162313203554
100
AcDbArc
 50
69.26925659179688
 51
110.7307434082031
  0
ARC
  5
3C8
330
1F
100
AcDbEntity
  8
1-5ﾚｲﾔ
  6
Continuous
 62
     2
370
     9
100
AcDbCircle
 10
-630.7658015070734
 20
-502.6213444890202
 30
0.0
 40
3.811438341398497
100
AcDbArc
 50
49.92564392089844
 51
130.0743560791016
  0
ARC
  5
3C9
330
1F
100
AcDbEntity
  8
1-5ﾚｲﾔ
  6
Continuous
 62
     2
370
     9
100
AcDbCircle
 10
-596.7331757416596
 20
-490.7596979914484
 30
0.0
 40
5.999999110763138
100
AcDbArc
 50
90.0
 51
164.9998016357422
  0
ARC
  5
3CA
330
1F
100
AcDbEntity
  8
1-5ﾚｲﾔ
  6
Continuous
 62
     2
370
     9
100
AcDbCircle
 10
-595.1988014014989
 20
-492.7598777977195
 30
0.0
 40
2.999999555381569
100
AcDbArc
 50
90.0
 51
165.0003204345703
  0
ARC
  5
3CB
330
1F
100
AcDbEntity
  8
1-F
  6
Continuous
 62
     2
370
     9
100
AcDbCircle
 10
-877.919831147065
 20
-644.7596864442568
 30
0.0
 40
1.499999777690785
100
AcDbArc
 50
180.0
 51
270.0
  0
ARC
  5
3CC
330
1F
100
AcDbEntity
  8
1-F
  6
Continuous
 62
     2
370
     9
100
AcDbCircle
 10
-873.9199664141679
 20
-644.7596864442568
 30
0.0
 40
1.499999777690785
100
AcDbArc
 50
270.0
 51
0.0
  0
ARC
  5
3CD
330
1F
100
AcDbEntity
  8
1-F
  6
Continuous
 62
     2
370
     9
100
AcDbCircle
 10
-877.919831147065
 20
-630.7595412795608
 30
0.0
 40
1.499999777690785
100
AcDbArc
 50
90.0
 51
180.0
  0
ARC
  5
3CE
330
1F
100
AcDbEntity
  8
1-F
  6
Continuous
 62
     2
370
     9
100
AcDbCircle
 10
-873.9199664141679
 20
-630.7595412795608
 30
0.0
 40
1.499999777690785
100
AcDbArc
 50
0.0
 51
90.0
  0
ARC
  5
3CF
330
1F
100
AcDbEntity
  8
1-F
  6
Continuous
 62
     2
370
     9
100
AcDbCircle
 10
-877.919831147065
 20
-644.7596864442568
 30
0.0
 40
2.999999555381569
100
AcDbArc
 50
180.0
 51
270.0
  0
ARC
  5
3D0
330
1F
100
AcDbEntity
  8
1-F
  6
Continuous
 62
     2
370
     9
100
AcDbCircle
 10
-873.9199664141679
 20
-644.7596864442568
 30
0.0
 40
2.999999555381569
100
AcDbArc
 50
270.0
 51
0.0
  0
ARC
  5
3D1
330
1F
100
AcDbEntity
  8
1-F
  6
Continuous
 62
     2
370
     9
100
AcDbCircle
 10
-877.919831147065
 20
-630.7595412795608
 30
0.0
 40
2.999999555381569
100
AcDbArc
 50
90.0
 51
180.0
  0
ARC
  5
3D2
330
1F
100
AcDbEntity
  8
1-F
  6
Continuous
 62
     2
370
     9
100
AcDbCircle
 10
-873.9199664141679
 20
-630.7595412795608
 30
0.0
 40
2.999999555381569
100
AcDbArc
 50
0.0
 51
90.0
  0
ARC
  5
3D3
330
1F
100
AcDbEntity
  8
1-2ﾚｲﾔ
  6
Continuous
 62
     6
370
     9
100
AcDbCircle
 10
-78.65963497677342
 20
784.262200432855
 30
0.0
 40
4.999999097875647
100
AcDbArc
 50
270.0
 51
90.0
  0
ARC
  5
3D4
330
1F
100
AcDbEntity
  8
1-2ﾚｲﾔ
  6
Continuous
 62
     6
370
     9
100
AcDbCircle
 10
-96.65989231418905
 20
784.262200432855
 30
0.0
 40
4.999999097875647
100
AcDbArc
 50
90.0
 51
270.0
  0
ARC
  5
3D5
330
1F
100
AcDbEntity
  8
1-2ﾚｲﾔ
  6
Continuous
 62
     6
370
     9
100
AcDbCircle
 10
-82.66024202913826
 20
669.2623159047721
 30
0.0
 40
64.99995154303474
100
AcDbArc
 50
270.0
 51
90.0
  0
ARC
  5
3D6
330
1F
100
AcDbEntity
  8
1-2ﾚｲﾔ
  6
Continuous
 62
     6
370
     9
100
AcDbCircle
 10
197.3399394267315
 20
669.2623159047721
 30
0.0
 40
412.4999690700222
100
AcDbArc
 50
189.0662078857422
 51
170.9337921142578
  0
ARC
  5
3D7
330
1F
100
AcDbEntity
  8
1-3ﾚｲﾔ
  6
Continuous
 62
     2
370
     9
100
AcDbCircle
 10
211.7372255067568
 20
1100.825079840583
 30
0.0
 40
14.99999826018875
100
AcDbArc
 50
9.926345825195312
 51
90.0
  0
ARC
  5
3D8
330
1F
100
AcDbEntity
  8
1-3ﾚｲﾔ
  6
Continuous
 62
     2
370
     9
100
AcDbCircle
 10
182.9429007865289
 20
1100.825079840583
 30
0.0
 40
14.99999826018875
100
AcDbArc
 50
90.0
 51
170.0736541748047
  0
ARC
  5
3D9
330
1F
100
AcDbEntity
  8
1-3ﾚｲﾔ
  6
Continuous
 62
     2
370
     9
100
AcDbCircle
 10
204.7599173880914
 20
1096.325634105785
 30
0.0
 40
12.500008376869
100
AcDbArc
 50
270.0
 51
90.0
  0
ARC
  5
3DA
330
1F
100
AcDbEntity
  8
1-3ﾚｲﾔ
  6
Continuous
 62
     2
370
     9
100
AcDbCircle
 10
189.9202089051943
 20
1096.325634105785
 30
0.0
 40
12.500008376869
100
AcDbArc
 50
90.0
 51
270.0
  0
ARC
  5
3DB
330
1F
100
AcDbEntity
  8
1-3ﾚｲﾔ
  6
Continuous
 62
     2
370
     9
100
AcDbCircle
 10
211.7372255067568
 20
237.6990570893159
 30
0.0
 40
14.99999826018875
100
AcDbArc
 50
270.0
 51
350.0736541748047
  0
ARC
  5
3DC
330
1F
100
AcDbEntity
  8
1-3ﾚｲﾔ
  6
Continuous
 62
     2
370
     9
100
AcDbCircle
 10
182.9429007865289
 20
237.6990570893159
 30
0.0
 40
14.99999826018875
100
AcDbArc
 50
189.9263458251953
 51
270.0
  0
ARC
  5
3DD
330
1F
100
AcDbEntity
  8
1-3ﾚｲﾔ
  6
Continuous
 62
     2
370
     9
100
AcDbCircle
 10
204.7599173880914
 20
242.1985028241133
 30
0.0
 40
12.500008376869
100
AcDbArc
 50
270.0
 51
90.0
  0
ARC
  5
3DE
330
1F
100
AcDbEntity
  8
1-3ﾚｲﾔ
  6
Continuous
 62
     2
370
     9
100
AcDbCircle
 10
189.9202089051943
 20
242.1985028241133
 30
0.0
 40
12.500008376869
100
AcDbArc
 50
90.0
 51
270.0
  0
CIRCLE
  5
3DF
330
1F
100
AcDbEntity
  8
1-3ﾚｲﾔ
  6
Continuous
 62
     2
370
     9
100
AcDbCircle
 10
-87.65976364548123
 20
669.2623159047721
 30
0.0
 40
58.25017594002389
  0
CIRCLE
  5
3E0
330
1F
100
AcDbEntity
  8
1-3ﾚｲﾔ
  6
Continuous
 62
     2
370
     9
100
AcDbCircle
 10
-87.65976364548123
 20
669.2623159047721
 30
0.0
 40
57.45018752845559
  0
CIRCLE
  5
3E1
330
1F
100
AcDbEntity
  8
1-3ﾚｲﾔ
  6
Continuous
 62
     2
370
     9
100
AcDbCircle
 10
-87.65976364548123
 20
669.2623159047721
 30
0.0
 40
55.25001835178685
  0
CIRCLE
  5
3E2
330
1F
100
AcDbEntity
  8
1-3ﾚｲﾔ
  6
Continuous
 62
     2
370
     9
100
AcDbCircle
 10
-87.65976364548123
 20
784.2617055532096
 30
0.0
 40
3.99999956826906
  0
CIRCLE
  5
3E3
330
1F
100
AcDbEntity
  8
1-3ﾚｲﾔ
  6
Continuous
 62
     2
370
     9
100
AcDbCircle
 10
-87.65976364548123
 20
784.2617055532096
 30
0.0
 40
3.799998840770206
  0
ARC
  5
3E4
330
1F
100
AcDbEntity
  8
1-3ﾚｲﾔ
  6
Continuous
 62
     2
370
     9
100
AcDbCircle
 10
-87.65976364548123
 20
794.7623093063769
 30
0.0
 40
3.499998836903959
100
AcDbArc
 50
0.0
 51
180.0
  0
ARC
  5
3E5
330
1F
100
AcDbEntity
  8
1-3ﾚｲﾔ
  6
Continuous
 62
     2
370
     9
100
AcDbCircle
 10
-82.95989165434946
 20
792.735777158995
 30
0.0
 40
1.200000015464989
100
AcDbArc
 50
180.0
 51
233.9680633544922
  0
ARC
  5
3E6
330
1F
100
AcDbEntity
  8
1-3ﾚｲﾔ
  6
Continuous
 62
     2
370
     9
100
AcDbCircle
 10
-92.35988307643566
 20
792.735777158995
 30
0.0
 40
1.200000015464989
100
AcDbArc
 50
306.0319366455078
 51
0.0000000000000318
  0
ARC
  5
3E7
330
1F
100
AcDbEntity
  8
1-3ﾚｲﾔ
  6
Continuous
 62
     2
370
     9
100
AcDbCircle
 10
-87.65976364548123
 20
773.7620915593328
 30
0.0
 40
3.499998836903959
100
AcDbArc
 50
180.0
 51
0.0
  0
ARC
  5
3E8
330
1F
100
AcDbEntity
  8
1-3ﾚｲﾔ
  6
Continuous
 62
     2
370
     9
100
AcDbCircle
 10
-82.95989165434946
 20
775.7886237067146
 30
0.0
 40
1.200000015464989
100
AcDbArc
 50
126.0319366455078
 51
180.0
  0
ARC
  5
3E9
330
1F
100
AcDbEntity
  8
1-3ﾚｲﾔ
  6
Continuous
 62
     2
370
     9
100
AcDbCircle
 10
-92.35988307643566
 20
775.7886237067146
 30
0.0
 40
1.200000015464989
100
AcDbArc
 50
0.0
 51
53.96806335449219
  0
ARC
  5
3EA
330
1F
100
AcDbEntity
  8
1-3ﾚｲﾔ
  6
Continuous
 62
     2
370
     9
100
AcDbCircle
 10
-87.65976364548123
 20
784.262200432855
 30
0.0
 40
8.499999626262769
100
AcDbArc
 50
298.0275573730469
 51
61.97244262695312
  0
ARC
  5
3EB
330
1F
100
AcDbEntity
  8
1-3ﾚｲﾔ
  6
Continuous
 62
     2
370
     9
100
AcDbCircle
 10
-87.65976364548123
 20
784.262200432855
 30
0.0
 40
8.499999626262769
100
AcDbArc
 50
118.0275573730469
 51
241.9724426269531
  0
ARC
  5
3EC
330
1F
100
AcDbEntity
  8
1-3ﾚｲﾔ
  6
Continuous
 62
     2
370
     9
100
AcDbCircle
 10
-87.65976364548123
 20
773.7620915593328
 30
0.0
 40
2.29999882143897
100
AcDbArc
 50
180.0
 51
0.0
  0
ARC
  5
3ED
330
1F
100
AcDbEntity
  8
1-3ﾚｲﾔ
  6
Continuous
 62
     2
370
     9
100
AcDbCircle
 10
-87.65976364548123
 20
794.7623093063769
 30
0.0
 40
2.29999882143897
100
AcDbArc
 50
0.0
 51
180.0
  0
ARC
  5
3EE
330
1F
100
AcDbEntity
  8
1-3ﾚｲﾔ
  6
Continuous
 62
     2
370
     9
100
AcDbCircle
 10
-82.95989165434946
 20
792.735777158995
 30
0.0
 40
2.400000030929978
100
AcDbArc
 50
180.0
 51
233.9680633544922
  0
ARC
  5
3EF
330
1F
100
AcDbEntity
  8
1-3ﾚｲﾔ
  6
Continuous
 62
     2
370
     9
100
AcDbCircle
 10
-87.65976364548123
 20
784.262200432855
 30
0.0
 40
7.299999610797779
100
AcDbArc
 50
298.0275573730469
 51
63.56661987304687
  0
ARC
  5
3F0
330
1F
100
AcDbEntity
  8
1-3ﾚｲﾔ
  6
Continuous
 62
     2
370
     9
100
AcDbCircle
 10
-92.35988307643566
 20
792.735777158995
 30
0.0
 40
2.400000030929978
100
AcDbArc
 50
302.0298156738281
 51
0.0000000000000127
  0
ARC
  5
3F1
330
1F
100
AcDbEntity
  8
1-3ﾚｲﾔ
  6
Continuous
 62
     2
370
     9
100
AcDbCircle
 10
-82.95989165434946
 20
775.7886237067146
 30
0.0
 40
2.400000030929978
100
AcDbArc
 50
122.0298156738281
 51
180.0
  0
ARC
  5
3F2
330
1F
100
AcDbEntity
  8
1-3ﾚｲﾔ
  6
Continuous
 62
     2
370
     9
100
AcDbCircle
 10
-87.65976364548123
 20
784.262200432855
 30
0.0
 40
7.299999610797779
100
AcDbArc
 50
118.0275573730469
 51
241.9724426269531
  0
ARC
  5
3F3
330
1F
100
AcDbEntity
  8
1-3ﾚｲﾔ
  6
Continuous
 62
     2
370
     9
100
AcDbCircle
 10
-92.35988307643566
 20
775.7886237067146
 30
0.0
 40
2.400000030929978
100
AcDbArc
 50
0.0
 51
57.97018432617188
  0
CIRCLE
  5
3F4
330
1F
100
AcDbEntity
  8
1-3ﾚｲﾔ
  6
Continuous
 62
     2
370
     9
100
AcDbCircle
 10
-87.65976364548123
 20
784.262200432855
 30
0.0
 40
4.999999097875647
  0
ARC
  5
3F5
330
1F
100
AcDbEntity
  8
1-2ﾚｲﾔ
  6
Continuous
 62
     6
370
     9
100
AcDbCircle
 10
-78.65963497677342
 20
554.2621839368667
 30
0.0
 40
4.999999097875647
100
AcDbArc
 50
270.0
 51
90.0
  0
ARC
  5
3F6
330
1F
100
AcDbEntity
  8
1-2ﾚｲﾔ
  6
Continuous
 62
     6
370
     9
100
AcDbCircle
 10
-96.65989231418905
 20
554.2621839368667
 30
0.0
 40
4.999999097875647
100
AcDbArc
 50
90.0
 51
270.0
  0
CIRCLE
  5
3F7
330
1F
100
AcDbEntity
  8
1-3ﾚｲﾔ
  6
Continuous
 62
     2
370
     9
100
AcDbCircle
 10
-87.65976364548123
 20
554.2624313766894
 30
0.0
 40
3.99999956826906
  0
CIRCLE
  5
3F8
330
1F
100
AcDbEntity
  8
1-3ﾚｲﾔ
  6
Continuous
 62
     2
370
     9
100
AcDbCircle
 10
-87.65976364548123
 20
554.2624313766894
 30
0.0
 40
3.799998840770206
  0
ARC
  5
3F9
330
1F
100
AcDbEntity
  8
1-3ﾚｲﾔ
  6
Continuous
 62
     2
370
     9
100
AcDbCircle
 10
-87.65976364548123
 20
543.7623225031675
 30
0.0
 40
3.499998836903959
100
AcDbArc
 50
180.0
 51
0.0
  0
ARC
  5
3FA
330
1F
100
AcDbEntity
  8
1-3ﾚｲﾔ
  6
Continuous
 62
     2
370
     9
100
AcDbCircle
 10
-82.95989165434946
 20
545.7886072107266
 30
0.0
 40
1.200000015464989
100
AcDbArc
 50
126.0319366455078
 51
180.0
  0
ARC
  5
3FB
330
1F
100
AcDbEntity
  8
1-3ﾚｲﾔ
  6
Continuous
 62
     2
370
     9
100
AcDbCircle
 10
-92.35988307643566
 20
545.7886072107266
 30
0.0
 40
1.200000015464989
100
AcDbArc
 50
0.0
 51
53.96806335449219
  0
ARC
  5
3FC
330
1F
100
AcDbEntity
  8
1-3ﾚｲﾔ
  6
Continuous
 62
     2
370
     9
100
AcDbCircle
 10
-87.65976364548123
 20
564.7620453705658
 30
0.0
 40
3.499998836903959
100
AcDbArc
 50
0.0
 51
180.0
  0
ARC
  5
3FD
330
1F
100
AcDbEntity
  8
1-3ﾚｲﾔ
  6
Continuous
 62
     2
370
     9
100
AcDbCircle
 10
-82.95989165434946
 20
562.7360081028294
 30
0.0
 40
1.200000015464989
100
AcDbArc
 50
180.0
 51
233.9680633544922
  0
ARC
  5
3FE
330
1F
100
AcDbEntity
  8
1-3ﾚｲﾔ
  6
Continuous
 62
     2
370
     9
100
AcDbCircle
 10
-92.35988307643566
 20
562.7360081028294
 30
0.0
 40
1.200000015464989
100
AcDbArc
 50
306.0319366455078
 51
0.0000000000000318
  0
ARC
  5
3FF
330
1F
100
AcDbEntity
  8
1-3ﾚｲﾔ
  6
Continuous
 62
     2
370
     9
100
AcDbCircle
 10
-87.65976364548123
 20
554.2621839368667
 30
0.0
 40
8.499999626262769
100
AcDbArc
 50
298.0275573730469
 51
61.97244262695312
  0
ARC
  5
400
330
1F
100
AcDbEntity
  8
1-3ﾚｲﾔ
  6
Continuous
 62
     2
370
     9
100
AcDbCircle
 10
-87.65976364548123
 20
554.2621839368667
 30
0.0
 40
8.499999626262769
100
AcDbArc
 50
118.0275573730469
 51
241.9724426269531
  0
ARC
  5
401
330
1F
100
AcDbEntity
  8
1-3ﾚｲﾔ
  6
Continuous
 62
     2
370
     9
100
AcDbCircle
 10
-87.65976364548123
 20
564.7620453705658
 30
0.0
 40
2.29999882143897
100
AcDbArc
 50
0.0
 51
180.0
  0
ARC
  5
402
330
1F
100
AcDbEntity
  8
1-3ﾚｲﾔ
  6
Continuous
 62
     2
370
     9
100
AcDbCircle
 10
-87.65976364548123
 20
543.7623225031675
 30
0.0
 40
2.29999882143897
100
AcDbArc
 50
180.0
 51
0.0
  0
ARC
  5
403
330
1F
100
AcDbEntity
  8
1-3ﾚｲﾔ
  6
Continuous
 62
     2
370
     9
100
AcDbCircle
 10
-82.95989165434946
 20
545.7886072107266
 30
0.0
 40
2.400000030929978
100
AcDbArc
 50
126.0319366455078
 51
180.0
  0
ARC
  5
404
330
1F
100
AcDbEntity
  8
1-3ﾚｲﾔ
  6
Continuous
 62
     2
370
     9
100
AcDbCircle
 10
-87.65976364548123
 20
554.2621839368667
 30
0.0
 40
7.299999610797779
100
AcDbArc
 50
296.4333801269531
 51
61.97244262695315
  0
ARC
  5
405
330
1F
100
AcDbEntity
  8
1-3ﾚｲﾔ
  6
Continuous
 62
     2
370
     9
100
AcDbCircle
 10
-92.35988307643566
 20
545.7886072107266
 30
0.0
 40
2.400000030929978
100
AcDbArc
 50
0.0
 51
57.97018432617188
  0
ARC
  5
406
330
1F
100
AcDbEntity
  8
1-3ﾚｲﾔ
  6
Continuous
 62
     2
370
     9
100
AcDbCircle
 10
-82.95989165434946
 20
562.7360081028294
 30
0.0
 40
2.400000030929978
100
AcDbArc
 50
180.0
 51
237.9701843261718
  0
ARC
  5
407
330
1F
100
AcDbEntity
  8
1-3ﾚｲﾔ
  6
Continuous
 62
     2
370
     9
100
AcDbCircle
 10
-87.65976364548123
 20
554.2621839368667
 30
0.0
 40
7.299999610797779
100
AcDbArc
 50
118.0275573730469
 51
241.9724426269531
  0
ARC
  5
408
330
1F
100
AcDbEntity
  8
1-3ﾚｲﾔ
  6
Continuous
 62
     2
370
     9
100
AcDbCircle
 10
-92.35988307643566
 20
562.7360081028294
 30
0.0
 40
2.400000030929978
100
AcDbArc
 50
302.0298156738281
 51
0.0000000000000127
  0
CIRCLE
  5
409
330
1F
100
AcDbEntity
  8
1-3ﾚｲﾔ
  6
Continuous
 62
     2
370
     9
100
AcDbCircle
 10
-87.65976364548123
 20
554.2621839368667
 30
0.0
 40
4.999999097875647
  0
CIRCLE
  5
40A
330
1F
100
AcDbEntity
  8
1-1ﾚｲﾔ
  6
JWW_DASHED2
 62
     3
370
     9
100
AcDbCircle
 10
197.3399394267315
 20
669.2623159047721
 30
0.0
 40
403.4999641212257
  0
ARC
  5
40B
330
1F
100
AcDbEntity
  8
1-5ﾚｲﾔ
  6
Continuous
 62
     2
370
     9
100
AcDbCircle
 10
197.3399394267315
 20
669.2623159047721
 30
0.0
 40
407.999966595624
100
AcDbArc
 50
170.8329467773438
 51
189.1670532226562
  0
CIRCLE
  5
40C
330
1F
100
AcDbEntity
  8
1-5ﾚｲﾔ
  6
Continuous
 62
     2
370
     9
100
AcDbCircle
 10
651.6644452069261
 20
669.2623159047721
 30
0.0
 40
8.499990927206504
  0
CIRCLE
  5
40D
330
1F
100
AcDbEntity
  8
1-5ﾚｲﾔ
  6
Continuous
 62
     2
370
     9
100
AcDbCircle
 10
651.6795390361068
 20
669.2623159047721
 30
0.0
 40
4.99999958115655
  0
CIRCLE
  5
40E
330
1F
100
AcDbEntity
  8
1-5ﾚｲﾔ
  6
Continuous
 62
     2
370
     9
100
AcDbCircle
 10
651.6795390361068
 20
669.2623159047721
 30
0.0
 40
9.799963396948737
  0
ARC
  5
40F
330
1F
100
AcDbEntity
  8
1-5ﾚｲﾔ
  6
Continuous
 62
     2
370
     9
100
AcDbCircle
 10
748.6794136665964
 20
674.3665045660896
 30
0.0
 40
2.999999555381569
100
AcDbArc
 50
0.0
 51
86.42323303222658
  0
ARC
  5
410
330
1F
100
AcDbEntity
  8
1-5ﾚｲﾔ
  6
Continuous
 62
     2
370
     9
100
AcDbCircle
 10
748.6794136665964
 20
664.1578798036318
 30
0.0
 40
2.999999555381569
100
AcDbArc
 50
273.5767669677734
 51
0.0000000000000254
  0
ARC
  5
411
330
1F
100
AcDbEntity
  8
1-5ﾚｲﾔ
  6
Continuous
 62
     2
370
     9
100
AcDbCircle
 10
675.7618672138938
 20
678.2619496938346
 30
0.0
 40
1.999999904954756
100
AcDbArc
 50
90.0
 51
180.0
  0
ARC
  5
412
330
1F
100
AcDbEntity
  8
1-5ﾚｲﾔ
  6
Continuous
 62
     2
370
     9
100
AcDbCircle
 10
675.7618672138938
 20
660.2619397962417
 30
0.0
 40
1.999999904954756
100
AcDbArc
 50
180.0
 51
270.0
  0
ARC
  5
413
330
1F
100
AcDbEntity
  8
1-7
  6
Continuous
 62
     7
370
     9
100
AcDbCircle
 10
197.3399394267315
 20
730.2624181798988
 30
0.0
 40
4.000000293190415
100
AcDbArc
 50
0.0
 51
180.0
  0
ARC
  5
414
330
1F
100
AcDbEntity
  8
1-7
  6
Continuous
 62
     7
370
     9
100
AcDbCircle
 10
197.3399394267315
 20
608.2619661898227
 30
0.0
 40
4.000000293190415
100
AcDbArc
 50
180.0
 51
0.0
  0
ARC
  5
415
330
1F
100
AcDbEntity
  8
1-1ﾚｲﾔ
  6
JWW_DASHED2
 62
     3
370
     9
100
AcDbCircle
 10
197.3399394267315
 20
669.2623159047721
 30
0.0
 40
404.9999752560178
100
AcDbArc
 50
46.69462585449219
 51
46.69432067871094
  0
ARC
  5
416
330
1F
100
AcDbEntity
  8
1-0ﾚｲﾔ
  6
Continuous
 62
     2
370
     9
100
AcDbCircle
 10
-580.0015423748943
 20
-548.8823225691511
 30
0.0
 40
7.917859747603133
100
AcDbArc
 50
137.22216796875
 51
222.77783203125
  0
ARC
  5
417
330
1F
100
AcDbEntity
  8
1-0ﾚｲﾔ
  6
Continuous
 62
     2
370
     9
100
AcDbCircle
 10
-559.457727380701
 20
-532.759638605891
 30
0.0
 40
28.46158001873945
100
AcDbArc
 50
157.8193054199219
 51
202.1806182861328
  0
ARC
  5
418
330
1F
100
AcDbEntity
  8
1-0ﾚｲﾔ
  6
Continuous
 62
     2
370
     9
100
AcDbCircle
 10
-580.0015423748943
 20
-516.6372020824535
 30
0.0
 40
7.917859747603133
100
AcDbArc
 50
137.22216796875
 51
222.77783203125
  0
ARC
  5
419
330
1F
100
AcDbEntity
  8
1-0ﾚｲﾔ
  6
Continuous
 62
     2
370
     9
100
AcDbCircle
 10
-588.8371235615498
 20
-548.8823225691511
 30
0.0
 40
7.917859747603133
100
AcDbArc
 50
317.22216796875
 51
42.77783203124999
  0
ARC
  5
41A
330
1F
100
AcDbEntity
  8
1-0ﾚｲﾔ
  6
Continuous
 62
     2
370
     9
100
AcDbCircle
 10
-609.3810622756544
 20
-532.759638605891
 30
0.0
 40
28.46158001873945
100
AcDbArc
 50
337.8193817138672
 51
22.18069458007817
  0
ARC
  5
41B
330
1F
100
AcDbEntity
  8
1-0ﾚｲﾔ
  6
Continuous
 62
     2
370
     9
100
AcDbCircle
 10
-588.8371235615498
 20
-516.6372020824535
 30
0.0
 40
7.917859747603133
100
AcDbArc
 50
317.22216796875
 51
42.77783203124999
  0
CIRCLE
  5
41C
330
1F
100
AcDbEntity
  8
1-F
  6
Continuous
 62
     7
370
     9
100
AcDbCircle
 10
-1196.461734256229
 20
850.8695365287165
 30
0.0
 40
30.00000038662472
  0
CIRCLE
  5
41D
330
1F
100
AcDbEntity
  8
1-F
  6
Continuous
 62
     7
370
     9
100
AcDbCircle
 10
-1072.703717205975
 20
850.8695365287165
 30
0.0
 40
30.00000038662472
  0
CIRCLE
  5
41E
330
1F
100
AcDbEntity
  8
1-F
  6
Continuous
 62
     7
370
     9
100
AcDbCircle
 10
-902.7912449192355
 20
850.8695365287165
 30
0.0
 40
30.00000038662472
  0
CIRCLE
  5
41F
330
1F
100
AcDbEntity
  8
1-F
  6
Continuous
 62
     7
370
     9
100
AcDbCircle
 10
-520.319552034945
 20
854.7545891839106
 30
0.0
 40
30.00000038662472
  0
CIRCLE
  5
420
330
1F
100
AcDbEntity
  8
1-F
  6
Continuous
 62
     7
370
     9
100
AcDbCircle
 10
-520.319552034945
 20
574.036584802576
 30
0.0
 40
30.00000038662472
  0
CIRCLE
  5
421
330
1F
100
AcDbEntity
  8
1-F
  6
Continuous
 62
     7
370
     9
100
AcDbCircle
 10
-590.9260105442356
 20
-687.1134660050676
 30
0.0
 40
30.00000038662472
  0
CIRCLE
  5
422
330
1F
100
AcDbEntity
  8
1-F
  6
Continuous
 62
     7
370
     9
100
AcDbCircle
 10
-700.3988317541175
 20
-631.8509983372043
 30
0.0
 40
30.00000038662472
  0
CIRCLE
  5
423
330
1F
100
AcDbEntity
  8
1-F
  6
Continuous
 62
     7
370
     9
100
AcDbCircle
 10
-1108.462730613915
 20
-813.8026551942568
 30
0.0
 40
30.00000038662472
  0
CIRCLE
  5
424
330
1F
100
AcDbEntity
  8
1-F
  6
Continuous
 62
     7
370
     9
100
AcDbCircle
 10
-555.7748330605995
 20
247.8235523120779
 30
0.0
 40
30.00000038662472
  0
CIRCLE
  5
425
330
1F
100
AcDbEntity
  8
1-F
  6
Continuous
 62
     7
370
     9
100
AcDbCircle
 10
-1655.646947912268
 20
608.4171109586148
 30
0.0
 40
30.00000038662472
  0
ARC
  5
426
330
1F
100
AcDbEntity
  8
1-3ﾚｲﾔ
  6
Continuous
 62
     2
370
     9
100
AcDbCircle
 10
1399.038861248944
 20
1100.825079840583
 30
0.0
 40
14.99999826018875
100
AcDbArc
 50
9.926345825195312
 51
90.0
  0
ARC
  5
427
330
1F
100
AcDbEntity
  8
1-3ﾚｲﾔ
  6
Continuous
 62
     2
370
     9
100
AcDbCircle
 10
1370.244783968539
 20
1100.825079840583
 30
0.0
 40
14.99999826018875
100
AcDbArc
 50
90.0
 51
170.0736541748047
  0
ARC
  5
428
330
1F
100
AcDbEntity
  8
1-3ﾚｲﾔ
  6
Continuous
 62
     2
370
     9
100
AcDbCircle
 10
1392.061553130279
 20
1096.325634105785
 30
0.0
 40
12.500008376869
100
AcDbArc
 50
270.0
 51
90.0
  0
ARC
  5
429
330
1F
100
AcDbEntity
  8
1-3ﾚｲﾔ
  6
Continuous
 62
     2
370
     9
100
AcDbCircle
 10
1377.221597207559
 20
1096.325634105785
 30
0.0
 40
12.500008376869
100
AcDbArc
 50
90.0
 51
270.0
  0
ARC
  5
42A
330
1F
100
AcDbEntity
  8
1-3ﾚｲﾔ
  6
Continuous
 62
     2
370
     9
100
AcDbCircle
 10
1399.038861248944
 20
237.6990570893159
 30
0.0
 40
14.99999826018875
100
AcDbArc
 50
270.0
 51
350.0736541748047
  0
ARC
  5
42B
330
1F
100
AcDbEntity
  8
1-3ﾚｲﾔ
  6
Continuous
 62
     2
370
     9
100
AcDbCircle
 10
1370.244783968539
 20
237.6990570893159
 30
0.0
 40
14.99999826018875
100
AcDbArc
 50
189.9263458251953
 51
270.0
  0
ARC
  5
42C
330
1F
100
AcDbEntity
  8
1-3ﾚｲﾔ
  6
Continuous
 62
     2
370
     9
100
AcDbCircle
 10
1392.061553130279
 20
242.1985028241133
 30
0.0
 40
12.500008376869
100
AcDbArc
 50
270.0
 51
90.0
  0
ARC
  5
42D
330
1F
100
AcDbEntity
  8
1-3ﾚｲﾔ
  6
Continuous
 62
     2
370
     9
100
AcDbCircle
 10
1377.221597207559
 20
242.1985028241133
 30
0.0
 40
12.500008376869
100
AcDbArc
 50
90.0
 51
270.0
  0
ARC
  5
42E
330
1F
100
AcDbEntity
  8
1-5ﾚｲﾔ
  6
Continuous
 62
     2
370
     9
100
AcDbCircle
 10
1384.641822608742
 20
669.2623159047721
 30
0.0
 40
407.999966595624
100
AcDbArc
 50
46.69462585449219
 51
357.6646270751953
  0
ARC
  5
42F
330
1F
100
AcDbEntity
  8
1-1ﾚｲﾔ
  6
Continuous
 62
     3
370
     9
100
AcDbCircle
 10
1384.641822608742
 20
669.2623159047721
 30
0.0
 40
404.9999752560178
100
AcDbArc
 50
46.69462585449219
 51
46.69432067871094
  0
CIRCLE
  5
430
330
1F
100
AcDbEntity
  8
1-5ﾚｲﾔ
  6
Continuous
 62
     2
370
     9
100
AcDbCircle
 10
1199.640717377534
 20
909.2621179529141
 30
0.0
 40
6.999999123650628
  0
CIRCLE
  5
431
330
1F
100
AcDbEntity
  8
1-5ﾚｲﾔ
  6
Continuous
 62
     2
370
     9
100
AcDbCircle
 10
1199.640717377534
 20
429.2625138566302
 30
0.0
 40
6.999999123650628
  0
CIRCLE
  5
432
330
1F
100
AcDbEntity
  8
1-5ﾚｲﾔ
  6
Continuous
 62
     2
370
     9
100
AcDbCircle
 10
1569.642680400127
 20
909.2621179529141
 30
0.0
 40
6.999999123650628
  0
CIRCLE
  5
433
330
1F
100
AcDbEntity
  8
1-5ﾚｲﾔ
  6
Continuous
 62
     2
370
     9
100
AcDbCircle
 10
1569.642680400127
 20
429.2625138566302
 30
0.0
 40
6.999999123650628
  0
ARC
  5
434
330
1F
100
AcDbEntity
  8
1-2ﾚｲﾔ
  6
Continuous
 62
     6
370
     9
100
AcDbCircle
 10
1384.641822608742
 20
669.2623159047721
 30
0.0
 40
412.4999690700222
100
AcDbArc
 50
94.61581420898438
 51
170.9337921142578
  0
ARC
  5
435
330
1F
100
AcDbEntity
  8
1-2ﾚｲﾔ
  6
Continuous
 62
     6
370
     9
100
AcDbCircle
 10
1384.641822608742
 20
669.2623159047721
 30
0.0
 40
412.4999690700222
100
AcDbArc
 50
189.0662078857422
 51
265.3841857910156
  0
ARC
  5
436
330
1F
100
AcDbEntity
  8
1-0ﾚｲﾔ
  6
Continuous
 62
     2
370
     9
100
AcDbCircle
 10
1882.060200459248
 20
653.139631941512
 30
0.0
 40
7.917859747603133
100
AcDbArc
 50
137.22216796875
 51
222.77783203125
  0
ARC
  5
437
330
1F
100
AcDbEntity
  8
1-0ﾚｲﾔ
  6
Continuous
 62
     2
370
     9
100
AcDbCircle
 10
1882.060200459248
 20
685.384504988387
 30
0.0
 40
7.917859747603133
100
AcDbArc
 50
137.22216796875
 51
222.77783203125
  0
ARC
  5
438
330
1F
100
AcDbEntity
  8
1-0ﾚｲﾔ
  6
Continuous
 62
     2
370
     9
100
AcDbCircle
 10
1873.224124392948
 20
685.384504988387
 30
0.0
 40
7.917859747603133
100
AcDbArc
 50
317.22216796875
 51
42.77783203124999
  0
ARC
  5
439
330
1F
100
AcDbEntity
  8
1-0ﾚｲﾔ
  6
Continuous
 62
     2
370
     9
100
AcDbCircle
 10
1873.224124392948
 20
653.139631941512
 30
0.0
 40
7.917859747603133
100
AcDbArc
 50
317.22216796875
 51
42.77783203124999
  0
ARC
  5
43A
330
1F
100
AcDbEntity
  8
1-0ﾚｲﾔ
  6
Continuous
 62
     2
370
     9
100
AcDbCircle
 10
1902.603644293708
 20
669.2623159047721
 30
0.0
 40
28.46158001873945
100
AcDbArc
 50
157.8193054199219
 51
202.1806182861328
  0
ARC
  5
43B
330
1F
100
AcDbEntity
  8
1-0ﾚｲﾔ
  6
Continuous
 62
     2
370
     9
100
AcDbCircle
 10
1852.680185678843
 20
669.2623159047721
 30
0.0
 40
28.46158001873945
100
AcDbArc
 50
337.8193817138672
 51
22.18069458007817
  0
ARC
  5
43C
330
1F
100
AcDbEntity
  8
1-0ﾚｲﾔ
  6
Continuous
 62
     2
370
     9
100
AcDbCircle
 10
1935.642304291596
 20
664.1576323638092
 30
0.0
 40
2.999999797022021
100
AcDbArc
 50
273.5747985839844
 51
0.0000000000000382
  0
ARC
  5
43D
330
1F
100
AcDbEntity
  8
1-0ﾚｲﾔ
  6
Continuous
 62
     2
370
     9
100
AcDbCircle
 10
1935.642304291596
 20
674.3665045660896
 30
0.0
 40
2.999999797022021
100
AcDbArc
 50
0.0
 51
86.4247283935547
  0
ARC
  5
43E
330
1F
100
AcDbEntity
  8
1-2ﾚｲﾔ
  6
Continuous
 62
     6
370
     9
100
AcDbCircle
 10
1384.641822608742
 20
669.2623159047721
 30
0.0
 40
412.4999690700222
100
AcDbArc
 50
274.6157379150391
 51
357.6901092529297
  0
ARC
  5
43F
330
1F
100
AcDbEntity
  8
1-2ﾚｲﾔ
  6
Continuous
 62
     6
370
     9
100
AcDbCircle
 10
1384.641822608742
 20
669.2623159047721
 30
0.0
 40
412.4999690700222
100
AcDbArc
 50
2.309814453125
 51
85.38426208496094
  0
ARC
  5
440
330
1F
100
AcDbEntity
  8
1-5ﾚｲﾔ
  6
Continuous
 62
     2
370
     9
100
AcDbCircle
 10
1384.641822608742
 20
669.2623159047721
 30
0.0
 40
407.999966595624
100
AcDbArc
 50
2.335311889648438
 51
46.69432067871094
  0
ARC
  5
441
330
1F
100
AcDbEntity
  8
1-0ﾚｲﾔ
  6
Continuous
 62
     2
370
     9
100
AcDbCircle
 10
1584.641987568623
 20
759.2623653927367
 30
0.0
 40
30.24999773180163
100
AcDbArc
 50
99.51416015625001
 51
260.48583984375
  0
ARC
  5
442
330
1F
100
AcDbEntity
  8
1-0ﾚｲﾔ
  6
Continuous
 62
     2
370
     9
100
AcDbCircle
 10
1584.641987568623
 20
759.2623653927367
 30
0.0
 40
30.24999773180163
100
AcDbArc
 50
279.51416015625
 51
80.48583984375
  0
CIRCLE
  5
443
330
1F
100
AcDbEntity
  8
1-F
  6
Continuous
 62
     7
370
     9
100
AcDbCircle
 10
-247.2358085013724
 20
958.3096395956505
 30
0.0
 40
30.00000038662472
  0
ARC
  5
444
330
1F
100
AcDbEntity
  8
2-3
  6
Continuous
 62
     2
370
     9
100
AcDbCircle
 10
107.9097438502959
 20
-415.0205952412372
 30
0.0
 40
49.99999871125092
100
AcDbArc
 50
270.0
 51
350.0736541748047
  0
ARC
  5
445
330
1F
100
AcDbEntity
  8
2-3
  6
Continuous
 62
     2
370
     9
100
AcDbCircle
 10
11.92981616870782
 20
-415.0205952412372
 30
0.0
 40
49.99999871125092
100
AcDbArc
 50
189.9263458251953
 51
270.0
  0
ARC
  5
446
330
1F
100
AcDbEntity
  8
2-3
  6
Continuous
 62
     2
370
     9
100
AcDbCircle
 10
84.65213260135158
 20
-400.0222778320312
 30
0.0
 40
41.66669716706147
100
AcDbArc
 50
270.0
 51
90.0
  0
ARC
  5
447
330
1F
100
AcDbEntity
  8
2-3
  6
Continuous
 62
     2
370
     9
100
AcDbCircle
 10
35.18693253800677
 20
-400.0222778320312
 30
0.0
 40
41.66669716706147
100
AcDbArc
 50
90.0
 51
270.0
  0
ARC
  5
448
330
1F
100
AcDbEntity
  8
2-0
  6
Continuous
 62
     2
370
     9
100
AcDbCircle
 10
59.91928512985652
 20
1023.58154296875
 30
0.0
 40
1349.999876280089
100
AcDbArc
 50
262.55810546875
 51
277.44189453125
  0
ARC
  5
449
330
1F
100
AcDbEntity
  8
2-0
  6
Continuous
 62
     2
370
     9
100
AcDbCircle
 10
59.91928512985652
 20
1023.58154296875
 30
0.0
 40
1360.000032991976
100
AcDbArc
 50
262.6131286621094
 51
277.3868713378906
  0
CIRCLE
  5
44A
330
1F
100
AcDbEntity
  8
1-F
  6
Continuous
 62
     7
370
     9
100
AcDbCircle
 10
75.60152620882604
 20
173.169225744299
 30
0.0
 40
30.00000038662472
  0
ARC
  5
44B
330
1F
100
AcDbEntity
  8
1-2ﾚｲﾔ
  6
Continuous
 62
     6
370
     9
100
AcDbCircle
 10
-28.65959373680312
 20
554.2621839368667
 30
0.0
 40
4.999999097875647
100
AcDbArc
 50
270.0
 51
90.0
  0
ARC
  5
44C
330
1F
100
AcDbEntity
  8
1-2ﾚｲﾔ
  6
Continuous
 62
     6
370
     9
100
AcDbCircle
 10
-46.65960363439609
 20
554.2621839368667
 30
0.0
 40
4.999999097875647
100
AcDbArc
 50
90.0
 51
270.0
  0
ARC
  5
44D
330
1F
100
AcDbEntity
  8
1-2ﾚｲﾔ
  6
Continuous
 62
     6
370
     9
100
AcDbCircle
 10
-24.13973421663826
 20
553.6560800913219
 30
0.0
 40
16.49999682967727
100
AcDbArc
 50
45.0
 51
172.6671752929688
  0
ARC
  5
44E
330
1F
100
AcDbEntity
  8
1-2ﾚｲﾔ
  6
Continuous
 62
     6
370
     9
100
AcDbCircle
 10
-24.13973421663826
 20
553.6560800913219
 30
0.0
 40
16.49999682967727
100
AcDbArc
 50
183.1046142578125
 51
225.0
  0
ARC
  5
44F
330
1F
100
AcDbEntity
  8
1-2ﾚｲﾔ
  6
Continuous
 62
     6
370
     9
100
AcDbCircle
 10
-24.13973421663826
 20
553.6560800913219
 30
0.0
 40
10.49999868547594
100
AcDbArc
 50
45.0
 51
168.4299926757812
  0
ARC
  5
450
330
1F
100
AcDbEntity
  8
1-2ﾚｲﾔ
  6
Continuous
 62
     6
370
     9
100
AcDbCircle
 10
-24.13973421663826
 20
553.6560800913219
 30
0.0
 40
10.49999868547594
100
AcDbArc
 50
184.8821868896484
 51
225.0
  0
CIRCLE
  5
451
330
1F
100
AcDbEntity
  8
1-F
  6
Continuous
 62
     7
370
     9
100
AcDbCircle
 10
-88.95375019795182
 20
230.8500465186867
 30
0.0
 40
30.00000038662472
  0
ARC
  5
452
330
1F
100
AcDbEntity
  8
1-3ﾚｲﾔ
  6
JWW_DASHED1
 62
     2
370
     9
100
AcDbCircle
 10
-31.16022058435391
 20
793.9353654191302
 30
0.0
 40
29.99999845350111
100
AcDbArc
 50
0.0
 51
45.00016784667969
  0
ARC
  5
453
330
1F
100
AcDbEntity
  8
1-3ﾚｲﾔ
  6
JWW_DASHED1
 62
     2
370
     9
100
AcDbCircle
 10
-31.16022058435391
 20
544.588524070946
 30
0.0
 40
29.99999845350111
100
AcDbArc
 50
314.9998321533203
 51
0.0000000000000318
  0
ARC
  5
454
330
1F
100
AcDbEntity
  8
1-4ﾚｲﾔ
  6
Continuous
 62
     6
370
     9
100
AcDbCircle
 10
-1277.761057260874
 20
648.7401518950592
 30
0.0
 40
2.999999797022021
100
AcDbArc
 50
0.0
 51
90.0
  0
ARC
  5
455
330
1F
100
AcDbEntity
  8
1-4ﾚｲﾔ
  6
Continuous
 62
     6
370
     9
100
AcDbCircle
 10
-1277.761057260874
 20
648.7401518950592
 30
0.0
 40
1.49999989851101
100
AcDbArc
 50
0.0
 51
90.0
  0
ARC
  5
456
330
1F
100
AcDbEntity
  8
1-3ﾚｲﾔ
  6
Continuous
 62
     2
370
     9
100
AcDbCircle
 10
-1297.305400951489
 20
648.033711201436
 30
0.0
 40
1.218774149546752
100
AcDbArc
 50
98.18780517578125
 51
203.8742980957031
  0
ARC
  5
457
330
1F
100
AcDbEntity
  8
1-3ﾚｲﾔ
  6
Continuous
 62
     2
370
     9
100
AcDbCircle
 10
-1424.534441973712
 20
648.033711201436
 30
0.0
 40
1.218774149546752
100
AcDbArc
 50
336.1317291259766
 51
81.81219482421876
  0
ELLIPSE
  5
458
330
1F
100
AcDbEntity
  8
1-3ﾚｲﾔ
  6
Continuous
 62
     2
370
     9
100
AcDbEllipse
 10
-1360.919890532623
 20
647.5405636349242
 30
0.0
 11
-0.0001934874067881132
 21
-90.81660863494882
 31
0.0
210
0.0
220
0.0
230
1.0
 40
0.6882
 41
4.71238898038469
 42
7.853981633974483
  0
ARC
  5
459
330
1F
100
AcDbEntity
  8
1-F
  6
Continuous
 62
     2
370
     9
100
AcDbCircle
 10
-1309.38677401156
 20
-891.3699052140519
 30
0.0
 40
42.46665464865195
100
AcDbArc
 50
355.12158203125
 51
359.9159088134766
  0
ARC
  5
45A
330
1F
100
AcDbEntity
  8
1-F
  6
Continuous
 62
     2
370
     9
100
AcDbCircle
 10
-1212.453522553315
 20
-891.3699052140519
 30
0.0
 40
42.46665464865195
100
AcDbArc
 50
180.0840911865235
 51
184.87841796875
  0
ARC
  5
45B
330
1F
100
AcDbEntity
  8
1-F
  6
Continuous
 62
     2
370
     9
100
AcDbCircle
 10
-1269.1275106894
 20
-851.3626593512458
 30
0.0
 40
3.903029979886235
100
AcDbArc
 50
45.36129760742188
 51
134.6389617919922
  0
ARC
  5
45C
330
1F
100
AcDbEntity
  8
1-F
  6
Continuous
 62
     2
370
     9
100
AcDbCircle
 10
-1260.919993632549
 20
-861.287470637141
 30
0.0
 40
13.82789805128768
100
AcDbArc
 50
66.71980285644531
 51
113.2803039550781
  0
ARC
  5
45D
330
1F
100
AcDbEntity
  8
1-F
  6
Continuous
 62
     2
370
     9
100
AcDbCircle
 10
-1252.712538435652
 20
-851.3627830711571
 30
0.0
 40
3.903060668223613
100
AcDbArc
 50
45.36129760742188
 51
134.63818359375
  0
ARC
  5
45E
330
1F
100
AcDbEntity
  8
1-F
  6
Continuous
 62
     2
370
     9
100
AcDbCircle
 10
-842.4534153293918
 20
-891.3699052140519
 30
0.0
 40
42.46665464865195
100
AcDbArc
 50
180.0840911865235
 51
184.87841796875
  0
ARC
  5
45F
330
1F
100
AcDbEntity
  8
1-F
  6
Continuous
 62
     2
370
     9
100
AcDbCircle
 10
-939.3867286475928
 20
-891.3699052140519
 30
0.0
 40
42.46665464865195
100
AcDbArc
 50
355.12158203125
 51
359.9159088134766
  0
ARC
  5
460
330
1F
100
AcDbEntity
  8
1-F
  6
Continuous
 62
     2
370
     9
100
AcDbCircle
 10
-882.7126167915962
 20
-851.3626593512458
 30
0.0
 40
3.903029979886235
100
AcDbArc
 50
45.36103820800781
 51
134.6387023925781
  0
ARC
  5
461
330
1F
100
AcDbEntity
  8
1-F
  6
Continuous
 62
     2
370
     9
100
AcDbCircle
 10
-890.9201957084036
 20
-861.287470637141
 30
0.0
 40
13.82789805128768
100
AcDbArc
 50
66.71969604492188
 51
113.2801971435547
  0
ARC
  5
462
330
1F
100
AcDbEntity
  8
1-F
  6
Continuous
 62
     2
370
     9
100
AcDbCircle
 10
-899.1275271853884
 20
-851.3627830711571
 30
0.0
 40
3.903060668223613
100
AcDbArc
 50
45.36181640625
 51
134.6387023925781
  0
CIRCLE
  5
463
330
1F
100
AcDbEntity
  8
1-F
  6
Continuous
 62
     7
370
     9
100
AcDbCircle
 10
-469.6032962283573
 20
-391.5473401868666
 30
0.0
 40
30.00000038662472
  0
TEXT
  5
464
330
1F
100
AcDbEntity
  8
F-0ﾚｲﾔ
  6
Continuous
 62
     7
370
     9
100
AcDbText
 10
601.8565822292021
 20
-1081.120080698374
 30
0.0
 40
30.48
  1
品　　名
 41
1.09375
  7
ＭＳ ゴシック
100
AcDbText
  0
TEXT
  5
465
330
1F
100
AcDbEntity
  8
F-0ﾚｲﾔ
  6
Continuous
 62
     7
370
     9
100
AcDbText
 10
854.3567471890835
 20
-1081.120080698374
 30
0.0
 40
30.48
  1
図番・規格
 41
1.1
  7
ＭＳ ゴシック
100
AcDbText
  0
TEXT
  5
466
330
1F
100
AcDbEntity
  8
F-0ﾚｲﾔ
  6
Continuous
 62
     7
370
     9
100
AcDbText
 10
1146.855633709882
 20
-1081.120080698374
 30
0.0
 40
30.48
  1
材質
 41
1.0625
  7
ＭＳ ゴシック
100
AcDbText
  0
TEXT
  5
467
330
1F
100
AcDbEntity
  8
F-0ﾚｲﾔ
  6
Continuous
 62
     7
370
     9
100
AcDbText
 10
446.8560461095864
 20
-1081.120080698374
 30
0.0
 40
30.48
  1
部番
 41
1.0625
  7
ＭＳ ゴシック
100
AcDbText
  0
TEXT
  5
468
330
1F
100
AcDbEntity
  8
F-Fﾚｲﾔ
  6
Continuous
 62
     7
370
     9
100
AcDbText
 10
469.3556749498524
 20
-1001.119909552497
 30
0.0
 40
30.48
  1
１
 41
0.9999999999999998
  7
ＭＳ ゴシック
100
AcDbText
  0
TEXT
  5
469
330
1F
100
AcDbEntity
  8
F-Fﾚｲﾔ
  6
Continuous
 62
     7
370
     9
100
AcDbText
 10
469.3556749498524
 20
-921.1199858464422
 30
0.0
 40
30.48
  1
２
 41
0.9999999999999998
  7
ＭＳ ゴシック
100
AcDbText
  0
TEXT
  5
46A
330
1F
100
AcDbEntity
  8
F-Fﾚｲﾔ
  6
Continuous
 62
     7
370
     9
100
AcDbText
 10
1123.105881149704
 20
-1001.119909552497
 30
0.0
 40
30.48
  1
SUS304
 41
1.104166666666667
  7
ＭＳ ゴシック
100
AcDbText
  0
TEXT
  5
46B
330
1F
100
AcDbEntity
  8
F-Fﾚｲﾔ
  6
Continuous
 62
     7
370
     9
100
AcDbText
 10
1123.105881149704
 20
-921.1199858464422
 30
0.0
 40
30.48
  1
SUS304
 41
1.104166666666667
  7
ＭＳ ゴシック
100
AcDbText
  0
TEXT
  5
46C
330
1F
100
AcDbEntity
  8
F-Fﾚｲﾔ
  6
Continuous
 62
     7
370
     9
100
AcDbText
 10
1704.356087349557
 20
-1001.119909552497
 30
0.0
 40
30.48
  1
ｔ＝１．５
 41
1.1
  7
ＭＳ ゴシック
100
AcDbText
  0
TEXT
  5
46D
330
1F
100
AcDbEntity
  8
F-Fﾚｲﾔ
  6
Continuous
 62
     7
370
     9
100
AcDbText
 10
1123.105881149704
 20
-841.1200930703652
 30
0.0
 40
30.48
  1
SUS304
 41
1.104166666666667
  7
ＭＳ ゴシック
100
AcDbText
  0
TEXT
  5
46E
330
1F
100
AcDbEntity
  8
F-Fﾚｲﾔ
  6
Continuous
 62
     7
370
     9
100
AcDbText
 10
469.3556749498524
 20
-841.1200930703652
 30
0.0
 40
30.48
  1
３
 41
0.9999999999999998
  7
ＭＳ ゴシック
100
AcDbText
  0
TEXT
  5
46F
330
1F
100
AcDbEntity
  8
F-Fﾚｲﾔ
  6
Continuous
 62
     7
370
     9
100
AcDbText
 10
1123.105881149704
 20
-761.1202002942885
 30
0.0
 40
30.48
  1
SUS304
 41
1.104166666666667
  7
ＭＳ ゴシック
100
AcDbText
  0
TEXT
  5
470
330
1F
100
AcDbEntity
  8
F-Fﾚｲﾔ
  6
Continuous
 62
     7
370
     9
100
AcDbText
 10
1123.105881149704
 20
-681.1201837983002
 30
0.0
 40
30.48
  1
SUS304
 41
1.104166666666667
  7
ＭＳ ゴシック
100
AcDbText
  0
TEXT
  5
471
330
1F
100
AcDbEntity
  8
F-Fﾚｲﾔ
  6
Continuous
 62
     7
370
     9
100
AcDbText
 10
1123.105881149704
 20
-601.1202910222233
 30
0.0
 40
30.48
  1
SUS304
 41
1.104166666666667
  7
ＭＳ ゴシック
100
AcDbText
  0
TEXT
  5
472
330
1F
100
AcDbEntity
  8
F-Fﾚｲﾔ
  6
Continuous
 62
     7
370
     9
100
AcDbText
 10
1123.105881149704
 20
-521.1203982461465
 30
0.0
 40
30.48
  1
SUS304
 41
1.104166666666667
  7
ＭＳ ゴシック
100
AcDbText
  0
TEXT
  5
473
330
1F
100
AcDbEntity
  8
F-Fﾚｲﾔ
  6
Continuous
 62
     7
370
     9
100
AcDbText
 10
1123.105881149704
 20
-441.1203198902026
 30
0.0
 40
30.48
  1
SUS304
 41
1.104166666666667
  7
ＭＳ ゴシック
100
AcDbText
  0
TEXT
  5
474
330
1F
100
AcDbEntity
  8
F-Fﾚｲﾔ
  6
Continuous
 62
     7
370
     9
100
AcDbText
 10
1123.105881149704
 20
-361.1203033942145
 30
0.0
 40
30.48
  1
SUS304
 41
1.104166666666667
  7
ＭＳ ゴシック
100
AcDbText
  0
TEXT
  5
475
330
1F
100
AcDbEntity
  8
F-Fﾚｲﾔ
  6
Continuous
 62
     7
370
     9
100
AcDbText
 10
646.8562110694679
 20
-1001.119909552497
 30
0.0
 40
30.48
  1
本体
 41
1.0625
  7
ＭＳ ゴシック
100
AcDbText
  0
TEXT
  5
476
330
1F
100
AcDbEntity
  8
F-Fﾚｲﾔ
  6
Continuous
 62
     7
370
     9
100
AcDbText
 10
669.3563347893794
 20
-921.1199858464422
 30
0.0
 40
30.48
  1
蓋
 41
0.9999999999999998
  7
ＭＳ ゴシック
100
AcDbText
  0
TEXT
  5
477
330
1F
100
AcDbEntity
  8
F-Fﾚｲﾔ
  6
Continuous
 62
     7
370
     9
100
AcDbText
 10
624.3562110694679
 20
-841.119969350454
 30
0.0
 40
30.48
  1
支持脚
 41
1.083333333333333
  7
ＭＳ ゴシック
100
AcDbText
  0
TEXT
  5
478
330
1F
100
AcDbEntity
  8
F-Fﾚｲﾔ
  6
Continuous
 62
     7
370
     9
100
AcDbText
 10
624.3562110694679
 20
-761.1200765743771
 30
0.0
 40
30.48
  1
取水口
 41
1.083333333333333
  7
ＭＳ ゴシック
100
AcDbText
  0
TEXT
  5
479
330
1F
100
AcDbEntity
  8
F-Fﾚｲﾔ
  6
Continuous
 62
     7
370
     9
100
AcDbText
 10
566.8562110694679
 20
-681.1201837983002
 30
0.0
 40
30.48
  1
オーバーフロー口
 41
0.7656249999999999
  7
ＭＳ ゴシック
100
AcDbText
  0
TEXT
  5
47A
330
1F
100
AcDbEntity
  8
F-Fﾚｲﾔ
  6
Continuous
 62
     7
370
     9
100
AcDbText
 10
579.3560873495568
 20
-601.120167302312
 30
0.0
 40
30.48
  1
取水バルブ
 41
1.1
  7
ＭＳ ゴシック
100
AcDbText
  0
TEXT
  5
47B
330
1F
100
AcDbEntity
  8
F-Fﾚｲﾔ
  6
Continuous
 62
     7
370
     9
100
AcDbText
 10
469.3556749498524
 20
-761.1200765743771
 30
0.0
 40
30.48
  1
４
 41
0.9999999999999998
  7
ＭＳ ゴシック
100
AcDbText
  0
TEXT
  5
47C
330
1F
100
AcDbEntity
  8
F-Fﾚｲﾔ
  6
Continuous
 62
     7
370
     9
100
AcDbText
 10
469.3556749498524
 20
-681.1201837983002
 30
0.0
 40
30.48
  1
５
 41
0.9999999999999998
  7
ＭＳ ゴシック
100
AcDbText
  0
TEXT
  5
47D
330
1F
100
AcDbEntity
  8
F-Fﾚｲﾔ
  6
Continuous
 62
     7
370
     9
100
AcDbText
 10
469.3556749498524
 20
-601.1202910222233
 30
0.0
 40
30.48
  1
６
 41
0.9999999999999998
  7
ＭＳ ゴシック
100
AcDbText
  0
TEXT
  5
47E
330
1F
100
AcDbEntity
  8
F-Fﾚｲﾔ
  6
Continuous
 62
     7
370
     9
100
AcDbText
 10
469.3556749498524
 20
-521.1203982461465
 30
0.0
 40
30.48
  1
７
 41
0.9999999999999998
  7
ＭＳ ゴシック
100
AcDbText
  0
TEXT
  5
47F
330
1F
100
AcDbEntity
  8
F-Fﾚｲﾔ
  6
Continuous
 62
     7
370
     9
100
AcDbText
 10
469.3556749498524
 20
-441.1203198902026
 30
0.0
 40
30.48
  1
８
 41
0.9999999999999998
  7
ＭＳ ゴシック
100
AcDbText
  0
TEXT
  5
480
330
1F
100
AcDbEntity
  8
F-Fﾚｲﾔ
  6
Continuous
 62
     7
370
     9
100
AcDbText
 10
469.3556749498524
 20
-361.1203033942145
 30
0.0
 40
30.48
  1
９
 41
0.9999999999999998
  7
ＭＳ ゴシック
100
AcDbText
  0
TEXT
  5
481
330
1F
100
AcDbEntity
  8
F-Fﾚｲﾔ
  6
Continuous
 62
     7
370
     9
100
AcDbText
 10
1123.105881149704
 20
-281.1202868982263
 30
0.0
 40
30.48
  1
SUS304
 41
1.104166666666667
  7
ＭＳ ゴシック
100
AcDbText
  0
TEXT
  5
482
330
1F
100
AcDbEntity
  8
F-Fﾚｲﾔ
  6
Continuous
 62
     7
370
     9
100
AcDbText
 10
468.1056749498524
 20
-201.1205178420608
 30
0.0
 40
30.48
  1
11
 41
1.0625
  7
ＭＳ ゴシック
100
AcDbText
  0
TEXT
  5
483
330
1F
100
AcDbEntity
  8
F-Fﾚｲﾔ
  6
Continuous
 62
     7
370
     9
100
AcDbText
 10
468.1056749498524
 20
-281.1202868982263
 30
0.0
 40
30.48
  1
10
 41
1.0625
  7
ＭＳ ゴシック
100
AcDbText
  0
TEXT
  5
484
330
1F
100
AcDbEntity
  8
F-Fﾚｲﾔ
  6
Continuous
 62
     7
370
     9
100
AcDbText
 10
624.3562110694679
 20
-521.1201508063239
 30
0.0
 40
30.48
  1
排水口
 41
1.083333333333333
  7
ＭＳ ゴシック
100
AcDbText
  0
TEXT
  5
485
330
1F
100
AcDbEntity
  8
F-Fﾚｲﾔ
  6
Continuous
 62
     7
370
     9
100
AcDbText
 10
579.3560873495568
 20
-441.1200724503801
 30
0.0
 40
30.48
  1
バスケット
 41
1.1
  7
ＭＳ ゴシック
100
AcDbText
  0
TEXT
  5
486
330
1F
100
AcDbEntity
  8
F-Fﾚｲﾔ
  6
Continuous
 62
     7
370
     9
100
AcDbText
 10
646.8562110694679
 20
-361.1200559543918
 30
0.0
 40
30.48
  1
把手
 41
1.0625
  7
ＭＳ ゴシック
100
AcDbText
  0
TEXT
  5
487
330
1F
100
AcDbEntity
  8
F-Fﾚｲﾔ
  6
Continuous
 62
     7
370
     9
100
AcDbText
 10
601.8563347893794
 20
-281.1200394584037
 30
0.0
 40
30.48
  1
蝶ナット
 41
1.09375
  7
ＭＳ ゴシック
100
AcDbText
  0
TEXT
  5
488
330
1F
100
AcDbEntity
  8
F-Fﾚｲﾔ
  6
Continuous
 62
     7
370
     9
100
AcDbText
 10
551.3563347893794
 20
-201.1205178420608
 30
0.0
 40
30.48
  1
ホース接続ソケット
 41
0.7666666666666665
  7
ＭＳ ゴシック
100
AcDbText
  0
TEXT
  5
489
330
1F
100
AcDbEntity
  8
F-0ﾚｲﾔ
  6
Continuous
 62
     7
370
     9
100
AcDbText
 10
1726.856334789379
 20
-1081.120080698374
 30
0.0
 40
30.48
  1
備　　考
 41
1.09375
  7
ＭＳ ゴシック
100
AcDbText
  0
TEXT
  5
48A
330
1F
100
AcDbEntity
  8
F-Fﾚｲﾔ
  6
Continuous
 62
     7
370
     9
100
AcDbText
 10
1704.356087349557
 20
-921.1199858464422
 30
0.0
 40
30.48
  1
ｔ＝１．５
 41
1.1
  7
ＭＳ ゴシック
100
AcDbText
  0
TEXT
  5
48B
330
1F
100
AcDbEntity
  8
F-Fﾚｲﾔ
  6
Continuous
 62
     7
370
     9
100
AcDbText
 10
1146.855881149704
 20
-201.1205178420608
 30
0.0
 40
30.48
  1
塩ビ
 41
1.0625
  7
ＭＳ ゴシック
100
AcDbText
  0
TEXT
  5
48C
330
1F
100
AcDbEntity
  8
F-Fﾚｲﾔ
  6
Continuous
 62
     7
370
     9
100
AcDbText
 10
899.3561285895273
 20
-601.1202291622677
 30
0.0
 40
30.48
  1
２５Ａ
 41
1.083333333333333
  7
ＭＳ ゴシック
100
AcDbText
  0
TEXT
  5
48D
330
1F
100
AcDbEntity
  8
F-Fﾚｲﾔ
  6
Continuous
 62
     7
370
     9
100
AcDbText
 10
899.3561285895273
 20
-521.1201508063239
 30
0.0
 40
30.48
  1
５０Ａ
 41
1.083333333333333
  7
ＭＳ ゴシック
100
AcDbText
  0
TEXT
  5
48E
330
1F
100
AcDbEntity
  8
F-Fﾚｲﾔ
  6
Continuous
 62
     7
370
     9
100
AcDbText
 10
899.3561285895273
 20
-201.1202704022381
 30
0.0
 40
30.48
  1
１５Ａ
 41
1.083333333333333
  7
ＭＳ ゴシック
100
AcDbText
  0
TEXT
  5
48F
330
1F
100
AcDbEntity
  8
F-0ﾚｲﾔ
  6
Continuous
 62
     7
370
     9
100
AcDbText
 10
1596.85637602935
 20
-1081.120080698374
 30
0.0
 40
30.48
  1
数量
 41
1.0625
  7
ＭＳ ゴシック
100
AcDbText
  0
TEXT
  5
490
330
1F
100
AcDbEntity
  8
F-0ﾚｲﾔ
  6
Continuous
 62
     7
370
     9
100
AcDbText
 10
1351.856087349557
 20
-1081.120080698374
 30
0.0
 40
30.48
  1
処　　理
 41
1.09375
  7
ＭＳ ゴシック
100
AcDbText
  0
TEXT
  5
491
330
1F
100
AcDbEntity
  8
0-F
  6
Continuous
 62
     7
370
     9
100
AcDbText
 10
981.1018825221709
 20
1218.726388302365
 30
0.0
 40
38.1
  1
下面図
 41
1.066666666666667
  7
ＭＳ ゴシック
100
AcDbText
  0
TEXT
  5
492
330
1F
100
AcDbEntity
  8
0-F
  6
Continuous
 62
     7
370
     9
100
AcDbText
 10
1722.856211069468
 20
-601.1202291622677
 30
0.0
 40
30.48
  1
ボールバルブ
 41
0.7625000000000004
  7
ＭＳ ゴシック
100
AcDbText
  0
TEXT
  5
493
330
1F
100
AcDbEntity
  8
F-Fﾚｲﾔ
  6
Continuous
 62
     7
370
     9
100
AcDbText
 10
468.1056749498524
 20
-121.1207487858953
 30
0.0
 40
30.48
  1
12
 41
1.0625
  7
ＭＳ ゴシック
100
AcDbText
  0
TEXT
  5
494
330
1F
100
AcDbEntity
  8
F-Fﾚｲﾔ
  6
Continuous
 62
     7
370
     9
100
AcDbText
 10
601.8563347893794
 20
-121.1206250659838
 30
0.0
 40
30.48
  1
蓋止ピン
 41
1.09375
  7
ＭＳ ゴシック
100
AcDbText
  0
TEXT
  5
495
330
1F
100
AcDbEntity
  8
F-Fﾚｲﾔ
  6
Continuous
 62
     7
370
     9
100
AcDbText
 10
921.8561285895271
 20
-121.1206250659838
 30
0.0
 40
30.48
  1
Φ８
 41
1.0625
  7
ＭＳ ゴシック
100
AcDbText
  0
TEXT
  5
496
330
1F
100
AcDbEntity
  8
F-Fﾚｲﾔ
  6
Continuous
 62
     7
370
     9
100
AcDbText
 10
1123.105881149704
 20
-121.1205013460727
 30
0.0
 40
30.48
  1
SUS304
 41
1.104166666666667
  7
ＭＳ ゴシック
100
AcDbText
  0
TEXT
  5
497
330
1F
100
AcDbEntity
  8
1-F
  6
Continuous
 62
     7
370
     9
100
AcDbText
 10
-1722.786878629118
 20
-237.0097680993982
 30
0.0
 40
30.48
  1
1340
 50
90.0
 41
1.09375
  7
ＭＳ ゴシック
100
AcDbText
  0
TEXT
  5
498
330
1F
100
AcDbEntity
  8
1-F
  6
Continuous
 62
     7
370
     9
100
AcDbText
 10
-1457.170255506361
 20
977.5692223131335
 30
0.0
 40
30.48
  1
128
 41
1.083333333333333
  7
ＭＳ ゴシック
100
AcDbText
  0
TEXT
  5
499
330
1F
100
AcDbEntity
  8
1-F
  6
Continuous
 62
     7
370
     9
100
AcDbText
 10
-1563.420296746331
 20
327.5834088629646
 30
0.0
 40
30.48
  1
100
 41
1.083333333333333
  7
ＭＳ ゴシック
100
AcDbText
  0
TEXT
  5
49A
330
1F
100
AcDbEntity
  8
1-F
  6
Continuous
 62
     7
370
     9
100
AcDbText
 10
-431.2583933567357
 20
-745.2595829319309
 30
0.0
 40
30.48
  1
300
 50
90.0
 41
1.083333333333333
  7
ＭＳ ゴシック
100
AcDbText
  0
TEXT
  5
49B
330
1F
100
AcDbEntity
  8
1-F
  6
Continuous
 62
     7
370
     9
100
AcDbText
 10
-362.9710645850927
 20
-146.2597285090266
 30
0.0
 40
30.48
  1
1520
 50
90.0
 41
1.09375
  7
ＭＳ ゴシック
100
AcDbText
  0
TEXT
  5
49C
330
1F
100
AcDbEntity
  8
1-F
  6
Continuous
 62
     7
370
     9
100
AcDbText
 10
-431.2582696368242
 20
3.740271490973442
 30
0.0
 40
30.48
  1
1220
 50
90.0
 41
1.09375
  7
ＭＳ ゴシック
100
AcDbText
  0
TEXT
  5
49D
330
1F
100
AcDbEntity
  8
1-F
  6
Continuous
 62
     7
370
     9
100
AcDbText
 10
-506.0759064875422
 20
-730.2595334439663
 30
0.0
 40
30.48
  1
330
 50
90.0
 41
1.083333333333333
  7
ＭＳ ゴシック
100
AcDbText
  0
TEXT
  5
49E
330
1F
100
AcDbEntity
  8
1-F
  6
Continuous
 62
     7
370
     9
100
AcDbText
 10
-1130.920125600454
 20
1043.286517366977
 30
0.0
 40
30.48
  1
Φ825
 41
1.1
  7
ＭＳ ゴシック
100
AcDbText
  0
TEXT
  5
49F
330
1F
100
AcDbEntity
  8
1-F
  6
Continuous
 62
     7
370
     9
100
AcDbText
 10
-1629.162701778927
 20
675.9906830658786
 30
0.0
 40
30.48
  1
100
 50
90.0
 41
1.083333333333333
  7
ＭＳ ゴシック
100
AcDbText
  0
TEXT
  5
4A0
330
1F
100
AcDbEntity
  8
1-F
  6
Continuous
 62
     7
370
     9
100
AcDbText
 10
-1797.151453164591
 20
-95.5093260069151
 30
0.0
 40
30.48
  1
1620
 50
90.0
 41
1.09375
  7
ＭＳ ゴシック
100
AcDbText
  0
TEXT
  5
4A1
330
1F
100
AcDbEntity
  8
1-F
  6
Continuous
 62
     7
370
     9
100
AcDbText
 10
-1087.703779065931
 20
839.3668177259292
 30
0.0
 40
22.86
  1
８
  7
ＭＳ ゴシック
100
AcDbText
  0
TEXT
  5
4A2
330
1F
100
AcDbEntity
  8
1-F
  6
Continuous
 62
     7
370
     9
100
AcDbText
 10
-917.7913067791912
 20
839.3668177259292
 30
0.0
 40
22.86
  1
９
  7
ＭＳ ゴシック
100
AcDbText
  0
TEXT
  5
4A3
330
1F
100
AcDbEntity
  8
1-F
  6
Continuous
 62
     7
370
     9
100
AcDbText
 10
-1211.461796116185
 20
839.3668177259292
 30
0.0
 40
22.86
  1
４
  7
ＭＳ ゴシック
100
AcDbText
  0
TEXT
  5
4A4
330
1F
100
AcDbEntity
  8
1-F
  6
Continuous
 62
     7
370
     9
100
AcDbText
 10
-535.319559951036
 20
843.9842922553438
 30
0.0
 40
22.86
  1
２
 50
0.0009451512808384
 41
0.9999999999999996
  7
ＭＳ ゴシック
100
AcDbText
  0
TEXT
  5
4A5
330
1F
100
AcDbEntity
  8
1-F
  6
Continuous
 62
     7
370
     9
100
AcDbText
 10
-536.569552034945
 20
563.2662878747891
 30
0.0
 40
22.86
  1
12
 41
1.083333333333333
  7
ＭＳ ゴシック
100
AcDbText
  0
TEXT
  5
4A6
330
1F
100
AcDbEntity
  8
1-F
  6
Continuous
 62
     7
370
     9
100
AcDbText
 10
-607.1759783385037
 20
-698.6161848079145
 30
0.0
 40
22.86
  1
11
 50
359.9995637764703
 41
1.083333333333333
  7
ＭＳ ゴシック
100
AcDbText
  0
TEXT
  5
4A7
330
1F
100
AcDbEntity
  8
1-F
  6
Continuous
 62
     7
370
     9
100
AcDbText
 10
-715.3988936140729
 20
-643.3537171399915
 30
0.0
 40
22.86
  1
３
  7
ＭＳ ゴシック
100
AcDbText
  0
TEXT
  5
4A8
330
1F
100
AcDbEntity
  8
1-F
  6
Continuous
 62
     7
370
     9
100
AcDbText
 10
-1123.46279247387
 20
-825.3053739970438
 30
0.0
 40
22.86
  1
７
  7
ＭＳ ゴシック
100
AcDbText
  0
TEXT
  5
4A9
330
1F
100
AcDbEntity
  8
1-F
  6
Continuous
 62
     7
370
     9
100
AcDbText
 10
-570.774771200644
 20
237.0537502639359
 30
0.0
 40
22.86
  1
１
  7
ＭＳ ゴシック
100
AcDbText
  0
TEXT
  5
4AA
330
1F
100
AcDbEntity
  8
1-F
  6
Continuous
 62
     7
370
     9
100
AcDbText
 10
-1130.920125600454
 20
-243.5284867240287
 30
0.0
 40
30.48
  1
Φ810
 41
1.1
  7
ＭＳ ゴシック
100
AcDbText
  0
TEXT
  5
4AB
330
1F
100
AcDbEntity
  8
1-F
  6
Continuous
 62
     7
370
     9
100
AcDbText
 10
-1670.647118027146
 20
596.914392155828
 30
0.0
 40
22.86
  1
５
  7
ＭＳ ゴシック
100
AcDbText
  0
TEXT
  5
4AC
330
1F
100
AcDbEntity
  8
1-F
  6
Continuous
 62
     7
370
     9
100
AcDbText
 10
-811.5719161080023
 20
-104.2598250105574
 30
0.0
 40
30.48
  1
970
 50
90.0
 41
1.083333333333333
  7
ＭＳ ゴシック
100
AcDbText
  0
TEXT
  5
4AD
330
1F
100
AcDbEntity
  8
1-F
  6
Continuous
 62
     7
370
     9
100
AcDbText
 10
-960.6448877529732
 20
428.5146073954639
 30
0.0
 40
30.48
  1
５００㍑水位
 50
359.9998930018334
 41
1.104166666666666
  7
ＭＳ ゴシック
100
AcDbText
  0
TEXT
  5
4AE
330
1F
100
AcDbEntity
  8
1-F
  6
Continuous
 62
     7
370
     9
100
AcDbText
 10
821.4585371357688
 20
636.762315904772
 30
0.0
 40
30.48
  1
480
 50
90.0
 41
1.083333333333333
  7
ＭＳ ゴシック
100
AcDbText
  0
TEXT
  5
4AF
330
1F
100
AcDbEntity
  8
1-F
  6
Continuous
 62
     7
370
     9
100
AcDbText
 10
1352.141575168919
 20
1171.59025139886
 30
0.0
 40
30.48
  1
370
 41
1.083333333333333
  7
ＭＳ ゴシック
100
AcDbText
  0
TEXT
  5
4B0
330
1F
100
AcDbEntity
  8
F-Fﾚｲﾔ
  6
Continuous
 62
     7
370
     9
100
AcDbText
 10
876.8560048696158
 20
-761.1201384343327
 30
0.0
 40
30.48
  1
１００Ａ
 41
1.09375
  7
ＭＳ ゴシック
100
AcDbText
  0
TEXT
  5
4B1
330
1F
100
AcDbEntity
  8
F-Fﾚｲﾔ
  6
Continuous
 62
     7
370
     9
100
AcDbText
 10
876.8560048696158
 20
-681.1201219383446
 30
0.0
 40
30.48
  1
１００Ａ
 41
1.09375
  7
ＭＳ ゴシック
100
AcDbText
  0
TEXT
  5
4B2
330
1F
100
AcDbEntity
  8
1-F
  6
Continuous
 62
     7
370
     9
100
AcDbText
 10
-1130.920125600454
 20
-1033.266456199852
 30
0.0
 40
30.48
  1
□520
 41
1.1
  7
ＭＳ ゴシック
100
AcDbText
  0
TEXT
  5
4B3
330
1F
100
AcDbEntity
  8
1-F
  6
Continuous
 62
     7
370
     9
100
AcDbText
 10
-263.4858729100104
 20
947.5393426672474
 30
0.0
 40
22.86
  1
10
 50
0.0008724470594032
 41
1.083333333333333
  7
ＭＳ ゴシック
100
AcDbText
  0
TEXT
  5
4B4
330
1F
100
AcDbEntity
  8
1-F
  6
Continuous
 62
     7
370
     9
100
AcDbText
 10
-1556.654049633129
 20
-625.7595041635874
 30
0.0
 40
30.48
  1
転倒防止用鎖座：900
 50
90.0
 41
1.118421052631579
  7
ＭＳ ゴシック
100
AcDbText
  0
TEXT
  5
4B5
330
1F
100
AcDbEntity
  8
2-Fﾚｲﾔ
  6
Continuous
 62
     7
370
     9
100
AcDbText
 10
-190.8988138064823
 20
-212.0292457374366
 30
0.0
 40
30.48
  1
20
 50
90.0
 41
1.0625
  7
ＭＳ ゴシック
100
AcDbText
  0
TEXT
  5
4B6
330
1F
100
AcDbEntity
  8
2-Fﾚｲﾔ
  6
Continuous
 62
     7
370
     9
100
AcDbText
 10
92.01149605415978
 20
-123.7342081925674
 30
0.0
 40
30.48
  1
FB3×20
 41
1.107142857142857
  7
ＭＳ ゴシック
100
AcDbText
  0
TEXT
  5
4B7
330
1F
100
AcDbEntity
  8
2-Fﾚｲﾔ
  6
Continuous
 62
     7
370
     9
100
AcDbText
 10
-14.756255278716
 20
-65.55170317778696
 30
0.0
 40
30.48
  1
中間部補強材
 41
1.104166666666667
  7
ＭＳ ゴシック
100
AcDbText
  0
TEXT
  5
4B8
330
1F
100
AcDbEntity
  8
2-Fﾚｲﾔ
  6
Continuous
 62
     7
370
     9
100
AcDbText
 10
38.66916140994519
 20
-583.9002733055321
 30
0.0
 40
30.48
  1
68
 41
1.0625
  7
ＭＳ ゴシック
100
AcDbText
  0
TEXT
  5
4B9
330
1F
100
AcDbEntity
  8
2-Fﾚｲﾔ
  6
Continuous
 62
     7
370
     9
100
AcDbText
 10
306.3103536739868
 20
-419.6046571473817
 30
0.0
 40
30.48
  1
40
 50
90.0
 41
1.0625
  7
ＭＳ ゴシック
100
AcDbText
  0
TEXT
  5
4BA
330
1F
100
AcDbEntity
  8
2-Fﾚｲﾔ
  6
Continuous
 62
     7
370
     9
100
AcDbText
 10
242.6134047719597
 20
-421.2724015519425
 30
0.0
 40
30.48
  1
25
 50
90.0
 41
1.0625
  7
ＭＳ ゴシック
100
AcDbText
  0
TEXT
  5
4BB
330
1F
100
AcDbEntity
  8
2-Fﾚｲﾔ
  6
Continuous
 62
     7
370
     9
100
AcDbText
 10
38.66916140994519
 20
-527.0691608820734
 30
0.0
 40
30.48
  1
40
 41
1.0625
  7
ＭＳ ゴシック
100
AcDbText
  0
TEXT
  5
4BC
330
1F
100
AcDbEntity
  8
2-Fﾚｲﾔ
  6
Continuous
 62
     7
370
     9
100
AcDbText
 10
-191.4968492662584
 20
-693.1584404692779
 30
0.0
 40
30.48
  1
転倒防止用鎖座詳細図　Ｓ＝１：３
 41
0.7703125000000001
  7
ＭＳ ゴシック
100
AcDbText
  0
TEXT
  5
4BD
330
1F
100
AcDbEntity
  8
F-Fﾚｲﾔ
  6
Continuous
 62
     7
370
     9
100
AcDbText
 10
1123.105881149704
 20
-41.12073228990702
 30
0.0
 40
30.48
  1
SUS304
 41
1.104166666666667
  7
ＭＳ ゴシック
100
AcDbText
  0
TEXT
  5
4BE
330
1F
100
AcDbEntity
  8
F-Fﾚｲﾔ
  6
Continuous
 62
     7
370
     9
100
AcDbText
 10
468.1056749498524
 20
-41.12097972972968
 30
0.0
 40
30.48
  1
13
 41
1.0625
  7
ＭＳ ゴシック
100
AcDbText
  0
TEXT
  5
4BF
330
1F
100
AcDbEntity
  8
F-Fﾚｲﾔ
  6
Continuous
 62
     7
370
     9
100
AcDbText
 10
582.3565822292021
 20
-41.12085600981821
 30
0.0
 40
30.48
  1
転倒防止用鎖座
 41
0.7642857142857143
  7
ＭＳ ゴシック
100
AcDbText
  0
TEXT
  5
4C0
330
1F
100
AcDbEntity
  8
2-Fﾚｲﾔ
  6
Continuous
 62
     7
370
     9
100
AcDbText
 10
1749.356211069468
 20
-41.12085600981821
 30
0.0
 40
30.48
  1
ｔ＝４
 41
1.083333333333333
  7
ＭＳ ゴシック
100
AcDbText
  0
TEXT
  5
4C1
330
1F
100
AcDbEntity
  8
1-F
  6
Continuous
 62
     7
370
     9
100
AcDbText
 10
59.35158552009937
 20
162.3989288158961
 30
0.0
 40
22.86
  1
13
 50
0.0008724470594032
 41
1.083333333333333
  7
ＭＳ ゴシック
100
AcDbText
  0
TEXT
  5
4C2
330
1F
100
AcDbEntity
  8
1-F
  6
Continuous
 62
     7
370
     9
100
AcDbText
 10
-105.2036908866785
 20
220.0797495902835
 30
0.0
 40
22.86
  1
14
 50
0.0008724470594032
 41
1.083333333333333
  7
ＭＳ ゴシック
100
AcDbText
  0
TEXT
  5
4C3
330
1F
100
AcDbEntity
  8
F-Fﾚｲﾔ
  6
Continuous
 62
     7
370
     9
100
AcDbText
 10
468.1056749498524
 20
38.87878932643595
 30
0.0
 40
30.48
  1
14
 41
1.0625
  7
ＭＳ ゴシック
100
AcDbText
  0
TEXT
  5
4C4
330
1F
100
AcDbEntity
  8
F-Fﾚｲﾔ
  6
Continuous
 62
     7
370
     9
100
AcDbText
 10
1123.106123323292
 20
38.8786656065529
 30
0.0
 40
30.48
  1
CAC202
 50
0.0000534990583407
 41
1.104166666666666
  7
ＭＳ ゴシック
100
AcDbText
  0
TEXT
  5
4C5
330
1F
100
AcDbEntity
  8
F-Fﾚｲﾔ
  6
Continuous
 62
     7
370
     9
100
AcDbText
 10
624.3562057019539
 20
38.8786656064906
 30
0.0
 40
30.48
  1
南京錠
 50
0.0000545279412169
 41
1.083333333333333
  7
ＭＳ ゴシック
100
AcDbText
  0
TEXT
  5
4C6
330
1F
100
AcDbEntity
  8
F-Fﾚｲﾔ
  6
Continuous
 62
     7
370
     9
100
AcDbText
 10
876.8562483221463
 20
38.8786656065523
 30
0.0
 40
30.48
  1
４０ｍｍ
 50
0.0000405064309672
 41
1.09375
  7
ＭＳ ゴシック
100
AcDbText
  0
TEXT
  5
4C7
330
1F
100
AcDbEntity
  8
0-F
  6
Continuous
 62
     7
370
     9
100
AcDbText
 10
-171.6856095597549
 20
1218.726388302365
 30
0.0
 40
38.1
  1
上面図
 41
1.066666666666667
  7
ＭＳ ゴシック
100
AcDbText
  0
TEXT
  5
4C8
330
1F
100
AcDbEntity
  8
1-F
  6
Continuous
 62
     7
370
     9
100
AcDbText
 10
1717.385245658256
 20
1011.56077306799
 30
0.0
 40
30.48
  1
Φ14
 41
1.09375
  7
ＭＳ ゴシック
100
AcDbText
  0
TEXT
  5
4C9
330
1F
100
AcDbEntity
  8
F-Fﾚｲﾔ
  6
Continuous
 62
     7
370
     9
100
AcDbText
 10
864.3562523094386
 20
-841.1200930703652
 30
0.0
 40
30.48
  1
□40×1.5
 41
1.111111111111111
  7
ＭＳ ゴシック
100
AcDbText
  0
TEXT
  5
4CA
330
1F
100
AcDbEntity
  8
F-Fﾚｲﾔ
  6
Continuous
 62
     7
370
     9
100
AcDbText
 10
-653.7975703059016
 20
-1317.197930627771
 30
0.0
 40
30.48
  1
雨ボトル（雨水貯水タンク）　ＡＢ５００Ｌ
 41
1.11875
  7
ＭＳ ゴシック
100
AcDbText
  0
TEXT
  5
4CB
330
1F
100
AcDbEntity
  8
1-4ﾚｲﾔ
  6
Continuous
 62
     7
370
     9
100
AcDbText
 10
-1438.420261692356
 20
865.3691193781675
 30
0.0
 40
30.48
  1
Φ116.5
 41
1.107142857142857
  7
ＭＳ ゴシック
100
AcDbText
  0
TEXT
  5
4CC
330
1F
100
AcDbEntity
  8
1-4ﾚｲﾔ
  6
Continuous
 62
     7
370
     9
100
AcDbText
 10
-1650.817181346996
 20
398.7402013830239
 30
0.0
 40
30.48
  1
Φ116.5
 50
90.0
 41
1.107142857142857
  7
ＭＳ ゴシック
100
AcDbText
  0
TEXT
  5
4CD
330
1F
100
AcDbEntity
  8
1-F
  6
Continuous
 62
     7
370
     9
100
AcDbText
 10
-759.9536586452175
 20
-1057.16410148002
 30
0.0
 40
30.48
  1
ホールインアンカー
 41
1.111111111111111
  7
ＭＳ ゴシック
100
AcDbText
  0
TEXT
  5
4CE
330
1F
100
AcDbEntity
  8
1-F
  6
Continuous
 62
     7
370
     9
100
AcDbText
 10
-738.6609175398543
 20
-998.5187912069783
 30
0.0
 40
30.48
  1
別　途
 41
1.083333333333333
  7
ＭＳ ゴシック
100
AcDbText
  0
TEXT
  5
4CF
330
1F
100
AcDbEntity
  8
1-F
  6
Continuous
 62
     7
370
     9
100
AcDbText
 10
-759.9536091572529
 20
-1111.811310028901
 30
0.0
 40
30.48
  1
呼び１２　４箇所
 41
1.109375
  7
ＭＳ ゴシック
100
AcDbText
  0
TEXT
  5
4D0
330
1F
100
AcDbEntity
  8
1-F
  6
Continuous
 62
     7
370
     9
100
AcDbText
 10
-484.6032343684016
 20
-402.317389674831
 30
0.0
 40
22.86
  1
６
  7
ＭＳ ゴシック
100
AcDbText
  0
TEXT
  5
4D1
330
1F
100
AcDbEntity
  8
1-4ﾚｲﾔ
  6
Continuous
 62
     7
370
     9
100
AcDbText
 10
-629.6697833086994
 20
-328.463443042652
 30
0.0
 40
30.48
  1
150
 41
1.083333333333333
  7
ＭＳ ゴシック
100
AcDbText
  0
ENDSEC
  0
SECTION
  2
OBJECTS
  0
DICTIONARY
  5
C
330
0
100
AcDbDictionary
281
     1
  3
ACAD_GROUP
350
D
  3
ACAD_LAYOUT
350
1A
  3
ACAD_MLEADERSTYLE
350
4D3
  3
ACAD_MLINESTYLE
350
17
  3
ACAD_PLOTSETTINGS
350
19
  3
ACAD_PLOTSTYLENAME
350
E
  3
ACAD_TABLESTYLE
350
4D2
  3
ACAD_VISUALSTYLE
350
2A
  0
DICTIONARY
  5
D
102
{ACAD_REACTORS
330
C
102
}
330
C
100
AcDbDictionary
281
     1
  0
DICTIONARY
  5
1A
102
{ACAD_REACTORS
330
C
102
}
330
C
100
AcDbDictionary
281
     1
  3
Layout1
350
1E
  3
Layout2
350
26
  3
Model
350
22
  0
DICTIONARY
  5
4D3
102
{ACAD_REACTORS
330
C
102
}
330
C
100
AcDbDictionary
281
     1
  0
DICTIONARY
  5
17
102
{ACAD_REACTORS
330
C
102
}
330
C
100
AcDbDictionary
281
     1
  3
Standard
350
18
  0
DICTIONARY
  5
19
102
{ACAD_REACTORS
330
C
102
}
330
C
100
AcDbDictionary
281
     1
  0
ACDBDICTIONARYWDFLT
  5
E
102
{ACAD_REACTORS
330
C
102
}
330
C
100
AcDbDictionary
281
     1
  3
Normal
350
F
100
AcDbDictionaryWithDefault
340
F
  0
DICTIONARY
  5
4D2
102
{ACAD_REACTORS
330
C
102
}
330
C
100
AcDbDictionary
281
     1
  0
DICTIONARY
  5
2A
102
{ACAD_REACTORS
330
C
102
}
330
C
100
AcDbDictionary
281
     1
  3
2dWireframe
350
2F
  3
3D Hidden
350
31
  3
3dWireframe
350
30
  3
Basic
350
32
  3
Brighten
350
36
  3
ColorChange
350
3A
  3
Conceptual
350
34
  3
Dim
350
35
  3
Facepattern
350
39
  3
Flat
350
2B
  3
FlatWithEdges
350
2C
  3
Gouraud
350
2D
  3
GouraudWithEdges
350
2E
  3
Linepattern
350
38
  3
Realistic
350
33
  3
Thicken
350
37
  0
LAYOUT
  5
1E
102
{ACAD_REACTORS
330
1A
102
}
330
1A
100
AcDbPlotSettings
  1

  2
none_device
  4

  6

 40
0.0
 41
0.0
 42
0.0
 43
0.0
 44
0.0
 45
0.0
 46
0.0
 47
0.0
 48
0.0
 49
0.0
140
0.0
141
0.0
142
1.0
143
1.0
 70
   688
 72
     0
 73
     0
 74
     5
  7

 75
    16
 76
     0
 77
     5
 78
   300
147
1.0
148
0.0
149
0.0
100
AcDbLayout
  1
Layout1
 70
     1
 71
     1
 10
0.0
 20
0.0
 11
420.0
 21
297.0
 12
0.0
 22
0.0
 32
0.0
 14
1.000000000000000E+20
 24
1.000000000000000E+20
 34
1.000000000000000E+20
 15
-1.000000000000000E+20
 25
-1.000000000000000E+20
 35
-1.000000000000000E+20
146
0.0
 13
0.0
 23
0.0
 33
0.0
 16
1.0
 26
0.0
 36
0.0
 17
0.0
 27
1.0
 37
0.0
 76
     0
330
1B
  0
LAYOUT
  5
26
102
{ACAD_REACTORS
330
1A
102
}
330
1A
100
AcDbPlotSettings
  1

  2
none_device
  4

  6

 40
0.0
 41
0.0
 42
0.0
 43
0.0
 44
0.0
 45
0.0
 46
0.0
 47
0.0
 48
0.0
 49
0.0
140
0.0
141
0.0
142
1.0
143
1.0
 70
   688
 72
     0
 73
     0
 74
     5
  7

 75
    16
 76
     0
 77
     5
 78
   300
147
1.0
148
0.0
149
0.0
100
AcDbLayout
  1
Layout2
 70
     1
 71
     2
 10
0.0
 20
0.0
 11
0.0
 21
0.0
 12
0.0
 22
0.0
 32
0.0
 14
0.0
 24
0.0
 34
0.0
 15
0.0
 25
0.0
 35
0.0
146
0.0
 13
0.0
 23
0.0
 33
0.0
 16
1.0
 26
0.0
 36
0.0
 17
0.0
 27
1.0
 37
0.0
 76
     0
330
23
  0
LAYOUT
  5
22
102
{ACAD_REACTORS
330
1A
102
}
330
1A
100
AcDbPlotSettings
  1

  2
none_device
  4

  6

 40
0.0
 41
0.0
 42
0.0
 43
0.0
 44
0.0
 45
0.0
 46
0.0
 47
0.0
 48
0.0
 49
0.0
140
0.0
141
0.0
142
1.0
143
1.0
 70
  1712
 72
     0
 73
     0
 74
     0
  7

 75
     0
 76
     0
 77
     5
 78
   300
147
1.0
148
0.0
149
0.0
100
AcDbLayout
  1
Model
 70
     1
 71
     0
 10
-2100.0
 20
-1485.0
 11
2100.0
 21
1485.0
 12
0.0
 22
0.0
 32
0.0
 14
-2100.0
 24
-1485.0
 34
0.0
 15
2100.0
 25
1485.0
 35
0.0
146
0.0
 13
0.0
 23
0.0
 33
0.0
 16
1.0
 26
0.0
 36
0.0
 17
0.0
 27
1.0
 37
0.0
 76
     0
330
1F
331
29
  0
MLINESTYLE
  5
18
102
{ACAD_REACTORS
330
17
102
}
330
17
100
AcDbMlineStyle
  2
Standard
 70
     0
  3

 62
   256
 51
90.0
 52
90.0
 71
     2
 49
0.5
 62
   256
  6
BYLAYER
 49
-0.5
 62
   256
  6
BYLAYER
  0
ACDBPLACEHOLDER
  5
F
102
{ACAD_REACTORS
330
E
102
}
330
E
  0
VISUALSTYLE
  5
2F
102
{ACAD_REACTORS
330
2A
102
}
330
2A
100
AcDbVisualStyle
  2
2dWireframe
 70
     4
 71
     0
 72
     2
 73
     0
 90
        0
 40
-0.6
 41
-30.0
 62
     5
 63
     7
421
 16777215
 74
     1
 91
        4
 64
     7
 65
   257
 75
     1
175
     1
 42
1.0
 92
        0
 66
   257
 43
1.0
 76
     1
 77
     6
 78
     2
 67
     7
 79
     5
170
     0
171
     0
290
     0
174
     0
 93
        1
 44
0.0
173
     0
291
     0
 45
0.0
1001
ACAD
1000
AcDbSavedByObjectVersion
1070
     0
  0
VISUALSTYLE
  5
31
102
{ACAD_REACTORS
330
2A
102
}
330
2A
100
AcDbVisualStyle
  2
3D Hidden
 70
     6
 71
     1
 72
     2
 73
     2
 90
        0
 40
-0.6
 41
-30.0
 62
     5
 63
     7
421
 16777215
 74
     2
 91
        2
 64
     7
 65
   257
 75
     2
175
     1
 42
40.0
 92
        0
 66
   257
 43
1.0
 76
     1
 77
     6
 78
     2
 67
     7
 79
     3
170
     0
171
     0
290
     0
174
     0
 93
        1
 44
0.0
173
     0
291
     0
 45
0.0
1001
ACAD
1000
AcDbSavedByObjectVersion
1070
     0
  0
VISUALSTYLE
  5
30
102
{ACAD_REACTORS
330
2A
102
}
330
2A
100
AcDbVisualStyle
  2
3dWireframe
 70
     5
 71
     0
 72
     2
 73
     0
 90
        0
 40
-0.6
 41
-30.0
 62
     5
 63
     7
421
 16777215
 74
     1
 91
        4
 64
     7
 65
   257
 75
     1
175
     1
 42
1.0
 92
        0
 66
   257
 43
1.0
 76
     1
 77
     6
 78
     2
 67
     7
 79
     5
170
     0
171
     0
290
     0
174
     0
 93
        1
 44
0.0
173
     0
291
     0
 45
0.0
1001
ACAD
1000
AcDbSavedByObjectVersion
1070
     0
  0
VISUALSTYLE
  5
32
102
{ACAD_REACTORS
330
2A
102
}
330
2A
100
AcDbVisualStyle
  2
Basic
 70
     7
 71
     1
 72
     0
 73
     1
 90
        0
 40
-0.6
 41
-30.0
 62
     5
 63
     7
421
 16777215
 74
     0
 91
        4
 64
     7
 65
   257
 75
     1
175
     1
 42
1.0
 92
        8
 66
     7
 43
1.0
 76
     1
 77
     6
 78
     2
 67
     7
 79
     5
170
     0
171
     0
290
     0
174
     0
 93
        1
 44
0.0
173
     0
291
     1
 45
0.0
1001
ACAD
1000
AcDbSavedByObjectVersion
1070
     0
  0
VISUALSTYLE
  5
36
102
{ACAD_REACTORS
330
2A
102
}
330
2A
100
AcDbVisualStyle
  2
Brighten
 70
    12
 71
     2
 72
     2
 73
     0
 90
        0
 40
-0.6
 41
-30.0
 62
     5
 63
     7
421
 16777215
 74
     1
 91
        4
 64
     7
 65
   257
 75
     1
175
     1
 42
1.0
 92
        8
 66
     7
 43
1.0
 76
     1
 77
     6
 78
     2
 67
     7
 79
     5
170
     0
171
     0
290
     0
174
     0
 93
        1
 44
50.0
173
     0
291
     1
 45
0.0
1001
ACAD
1000
AcDbSavedByObjectVersion
1070
     0
  0
VISUALSTYLE
  5
3A
102
{ACAD_REACTORS
330
2A
102
}
330
2A
100
AcDbVisualStyle
  2
ColorChange
 70
    16
 71
     2
 72
     2
 73
     3
 90
        0
 40
-0.6
 41
-30.0
 62
     5
 63
     8
421
  8421504
 74
     1
 91
        4
 64
     7
 65
   257
 75
     1
175
     1
 42
1.0
 92
        8
 66
     8
424
  8421504
 43
1.0
 76
     1
 77
     6
 78
     2
 67
     7
 79
     5
170
     0
171
     0
290
     0
174
     0
 93
        1
 44
0.0
173
     0
291
     1
 45
0.0
1001
ACAD
1000
AcDbSavedByObjectVersion
1070
     0
  0
VISUALSTYLE
  5
34
102
{ACAD_REACTORS
330
2A
102
}
330
2A
100
AcDbVisualStyle
  2
Conceptual
 70
     9
 71
     3
 72
     2
 73
     0
 90
        0
 40
-0.6
 41
-30.0
 62
     5
 63
     7
421
 16777215
 74
     2
 91
        2
 64
     7
 65
   257
 75
     1
175
     1
 42
40.0
 92
        8
 66
     7
 43
1.0
 76
     1
 77
     6
 78
     2
 67
     7
 79
     3
170
     0
171
     0
290
     0
174
     0
 93
        1
 44
0.0
173
     0
291
     0
 45
0.0
1001
ACAD
1000
AcDbSavedByObjectVersion
1070
     0
  0
VISUALSTYLE
  5
35
102
{ACAD_REACTORS
330
2A
102
}
330
2A
100
AcDbVisualStyle
  2
Dim
 70
    11
 71
     2
 72
     2
 73
     0
 90
        0
 40
-0.6
 41
-30.0
 62
     5
 63
     7
421
 16777215
 74
     1
 91
        4
 64
     7
 65
   257
 75
     1
175
     1
 42
1.0
 92
        8
 66
     7
 43
1.0
 76
     1
 77
     6
 78
     2
 67
     7
 79
     5
170
     0
171
     0
290
     0
174
     0
 93
        1
 44
-50.0
173
     0
291
     1
 45
0.0
1001
ACAD
1000
AcDbSavedByObjectVersion
1070
     0
  0
VISUALSTYLE
  5
39
102
{ACAD_REACTORS
330
2A
102
}
330
2A
100
AcDbVisualStyle
  2
Facepattern
 70
    15
 71
     2
 72
     2
 73
     0
 90
        0
 40
-0.6
 41
-30.0
 62
     5
 63
     7
421
 16777215
 74
     1
 91
        4
 64
     7
 65
   257
 75
     1
175
     1
 42
1.0
 92
        8
 66
     7
 43
1.0
 76
     1
 77
     6
 78
     2
 67
     7
 79
     5
170
     0
171
     0
290
     0
174
     0
 93
        1
 44
0.0
173
     0
291
     1
 45
0.0
1001
ACAD
1000
AcDbSavedByObjectVersion
1070
     0
  0
VISUALSTYLE
  5
2B
102
{ACAD_REACTORS
330
2A
102
}
330
2A
100
AcDbVisualStyle
  2
Flat
 70
     0
 71
     2
 72
     1
 73
     1
 90
        2
 40
-0.6
 41
30.0
 62
     5
 63
     7
421
 16777215
 74
     0
 91
        4
 64
     7
 65
   257
 75
     1
175
     1
 42
1.0
 92
        8
 66
     7
 43
1.0
 76
     1
 77
     6
 78
     2
 67
     7
 79
     5
170
     0
171
     0
290
     0
174
     0
 93
       13
 44
0.0
173
     0
291
     1
 45
0.0
1001
ACAD
1000
AcDbSavedByObjectVersion
1070
     0
  0
VISUALSTYLE
  5
2C
102
{ACAD_REACTORS
330
2A
102
}
330
2A
100
AcDbVisualStyle
  2
FlatWithEdges
 70
     1
 71
     2
 72
     1
 73
     1
 90
        2
 40
-0.6
 41
30.0
 62
     5
 63
     7
421
 16777215
 74
     1
 91
        4
 64
     7
 65
   257
 75
     1
175
     1
 42
1.0
 92
        0
 66
   257
 43
1.0
 76
     1
 77
     6
 78
     2
 67
     7
 79
     5
170
     0
171
     0
290
     0
174
     0
 93
       13
 44
0.0
173
     0
291
     1
 45
0.0
1001
ACAD
1000
AcDbSavedByObjectVersion
1070
     0
  0
VISUALSTYLE
  5
2D
102
{ACAD_REACTORS
330
2A
102
}
330
2A
100
AcDbVisualStyle
  2
Gouraud
 70
     2
 71
     2
 72
     2
 73
     1
 90
        2
 40
-0.6
 41
30.0
 62
     5
 63
     7
421
 16777215
 74
     0
 91
        4
 64
     7
 65
   257
 75
     1
175
     1
 42
1.0
 92
        0
 66
     7
 43
1.0
 76
     1
 77
     6
 78
     2
 67
     7
 79
     5
170
     0
171
     0
290
     0
174
     0
 93
       13
 44
0.0
173
     0
291
     1
 45
0.0
1001
ACAD
1000
AcDbSavedByObjectVersion
1070
     0
  0
VISUALSTYLE
  5
2E
102
{ACAD_REACTORS
330
2A
102
}
330
2A
100
AcDbVisualStyle
  2
GouraudWithEdges
 70
     3
 71
     2
 72
     2
 73
     1
 90
        2
 40
-0.6
 41
30.0
 62
     5
 63
     7
421
 16777215
 74
     1
 91
        4
 64
     7
 65
   257
 75
     1
175
     1
 42
1.0
 92
        0
 66
   257
 43
1.0
 76
     1
 77
     6
 78
     2
 67
     7
 79
     5
170
     0
171
     0
290
     0
174
     0
 93
       13
 44
0.0
173
     0
291
     1
 45
0.0
1001
ACAD
1000
AcDbSavedByObjectVersion
1070
     0
  0
VISUALSTYLE
  5
38
102
{ACAD_REACTORS
330
2A
102
}
330
2A
100
AcDbVisualStyle
  2
Linepattern
 70
    14
 71
     2
 72
     2
 73
     0
 90
        0
 40
-0.6
 41
-30.0
 62
     5
 63
     7
421
 16777215
 74
     1
 91
        4
 64
     7
 65
   257
 75
     7
175
     7
 42
1.0
 92
        8
 66
     7
 43
1.0
 76
     1
 77
     6
 78
     2
 67
     7
 79
     5
170
     0
171
     0
290
     0
174
     0
 93
        1
 44
0.0
173
     0
291
     1
 45
0.0
1001
ACAD
1000
AcDbSavedByObjectVersion
1070
     0
  0
VISUALSTYLE
  5
33
102
{ACAD_REACTORS
330
2A
102
}
330
2A
100
AcDbVisualStyle
  2
Realistic
 70
     8
 71
     2
 72
     2
 73
     0
 90
        0
 40
-0.6
 41
-30.0
 62
     5
 63
     7
421
 16777215
 74
     1
 91
        0
 64
     7
 65
   257
 75
     1
175
     1
 42
1.0
 92
        8
 66
     8
424
  7895160
 43
1.0
 76
     1
 77
     6
 78
     2
 67
     7
 79
     5
170
     0
171
     0
290
     0
174
     0
 93
       13
 44
0.0
173
     0
291
     0
 45
0.0
1001
ACAD
1000
AcDbSavedByObjectVersion
1070
     0
  0
VISUALSTYLE
  5
37
102
{ACAD_REACTORS
330
2A
102
}
330
2A
100
AcDbVisualStyle
  2
Thicken
 70
    13
 71
     2
 72
     2
 73
     0
 90
        0
 40
-0.6
 41
-30.0
 62
     5
 63
     7
421
 16777215
 74
     1
 91
        4
 64
     7
 65
   257
 75
     1
175
     1
 42
1.0
 92
       12
 66
     7
 43
1.0
 76
     1
 77
     6
 78
     2
 67
     7
 79
     5
170
     0
171
     0
290
     0
174
     0
 93
        1
 44
0.0
173
     0
291
     1
 45
0.0
1001
ACAD
1000
AcDbSavedByObjectVersion
1070
     0
  0
ENDSEC
  0
EOF
