  0
SECTION
  2
HEADER
  9
$ACADVER
  1
AC1018
  9
$ACADMAINTVER
 70
     0
  9
$DWGCODEPAGE
  3
ANSI_932
  9
$INSBASE
 10
0.0
 20
0.0
 30
0.0
  9
$EXTMIN
 10
-1050.0
 20
-742.5
 30
0.0
  9
$EXTMAX
 10
1050.0
 20
742.5
 30
0.0
  9
$LIMMIN
 10
-1050.0
 20
-742.5
  9
$LIMMAX
 10
1050.0
 20
742.5
  9
$ORTHOMODE
 70
     0
  9
$REGENMODE
 70
     1
  9
$FILLMODE
 70
     1
  9
$QTEXTMODE
 70
     0
  9
$MIRRTEXT
 70
     1
  9
$LTSCALE
 40
5.0
  9
$ATTMODE
 70
     1
  9
$TEXTSIZE
 40
2.5
  9
$TRACEWID
 40
1.0
  9
$TEXTSTYLE
  7
Standard
  9
$CLAYER
  8
0
  9
$CELTYPE
  6
ByLayer
  9
$CECOLOR
 62
   256
  9
$CELTSCALE
 40
1.0
  9
$DISPSILH
 70
     0
  9
$DIMSCALE
 40
1.0
  9
$DIMASZ
 40
2.5
  9
$DIMEXO
 40
0.625
  9
$DIMDLI
 40
3.75
  9
$DIMRND
 40
0.0
  9
$DIMDLE
 40
0.0
  9
$DIMEXE
 40
1.25
  9
$DIMTP
 40
0.0
  9
$DIMTM
 40
0.0
  9
$DIMTXT
 40
2.5
  9
$DIMCEN
 40
2.5
  9
$DIMTSZ
 40
0.0
  9
$DIMTOL
 70
     0
  9
$DIMLIM
 70
     0
  9
$DIMTIH
 70
     0
  9
$DIMTOH
 70
     0
  9
$DIMSE1
 70
     0
  9
$DIMSE2
 70
     0
  9
$DIMTAD
 70
     1
  9
$DIMZIN
 70
     8
  9
$DIMBLK
  1

  9
$DIMASO
 70
     1
  9
$DIMSHO
 70
     1
  9
$DIMPOST
  1

  9
$DIMAPOST
  1

  9
$DIMALT
 70
     0
  9
$DIMALTD
 70
     3
  9
$DIMALTF
 40
0.03937007874016
  9
$DIMLFAC
 40
1.0
  9
$DIMTOFL
 70
     1
  9
$DIMTVP
 40
0.0
  9
$DIMTIX
 70
     0
  9
$DIMSOXD
 70
     0
  9
$DIMSAH
 70
     0
  9
$DIMBLK1
  1

  9
$DIMBLK2
  1

  9
$DIMSTYLE
  2
ISO-25
  9
$DIMCLRD
 70
     0
  9
$DIMCLRE
 70
     0
  9
$DIMCLRT
 70
     0
  9
$DIMTFAC
 40
1.0
  9
$DIMGAP
 40
0.625
  9
$DIMJUST
 70
     0
  9
$DIMSD1
 70
     0
  9
$DIMSD2
 70
     0
  9
$DIMTOLJ
 70
     0
  9
$DIMTZIN
 70
     8
  9
$DIMALTZ
 70
     0
  9
$DIMALTTZ
 70
     0
  9
$DIMUPT
 70
     0
  9
$DIMDEC
 70
     2
  9
$DIMTDEC
 70
     2
  9
$DIMALTU
 70
     2
  9
$DIMALTTD
 70
     3
  9
$DIMTXSTY
  7
Standard
  9
$DIMAUNIT
 70
     0
  9
$DIMADEC
 70
     0
  9
$DIMALTRND
 40
0.0
  9
$DIMAZIN
 70
     0
  9
$DIMDSEP
 70
    44
  9
$DIMATFIT
 70
     3
  9
$DIMFRAC
 70
     0
  9
$DIMLDRBLK
  1

  9
$DIMLUNIT
 70
     2
  9
$DIMLWD
 70
    -2
  9
$DIMLWE
 70
    -2
  9
$DIMTMOVE
 70
     0
  9
$LUNITS
 70
     2
  9
$LUPREC
 70
     4
  9
$SKETCHINC
 40
1.0
  9
$FILLETRAD
 40
10.0
  9
$AUNITS
 70
     0
  9
$AUPREC
 70
     0
  9
$MENU
  1
.
  9
$ELEVATION
 40
0.0
  9
$PELEVATION
 40
0.0
  9
$THICKNESS
 40
0.0
  9
$LIMCHECK
 70
     0
  9
$CHAMFERA
 40
10.0
  9
$CHAMFERB
 40
10.0
  9
$CHAMFERC
 40
20.0
  9
$CHAMFERD
 40
0.0
  9
$SKPOLY
 70
     0
  9
$TDCREATE
 40
2456498.818772836
  9
$TDUCREATE
 40
2456498.443772836
  9
$TDUPDATE
 40
2456498.818772847
  9
$TDUUPDATE
 40
2456498.443772847
  9
$TDINDWG
 40
0.0000000116
  9
$TDUSRTIMER
 40
0.0000000116
  9
$USRTIMER
 70
     1
  9
$ANGBASE
 50
0.0
  9
$ANGDIR
 70
     0
  9
$PDMODE
 70
     0
  9
$PDSIZE
 40
0.0
  9
$PLINEWID
 40
0.0
  9
$SPLFRAME
 70
     0
  9
$SPLINETYPE
 70
     6
  9
$SPLINESEGS
 70
     8
  9
$HANDSEED
  5
160
  9
$SURFTAB1
 70
     6
  9
$SURFTAB2
 70
     6
  9
$SURFTYPE
 70
     6
  9
$SURFU
 70
     6
  9
$SURFV
 70
     6
  9
$UCSBASE
  2

  9
$UCSNAME
  2

  9
$UCSORG
 10
0.0
 20
0.0
 30
0.0
  9
$UCSXDIR
 10
1.0
 20
0.0
 30
0.0
  9
$UCSYDIR
 10
0.0
 20
1.0
 30
0.0
  9
$UCSORTHOREF
  2

  9
$UCSORTHOVIEW
 70
     0
  9
$UCSORGTOP
 10
0.0
 20
0.0
 30
0.0
  9
$UCSORGBOTTOM
 10
0.0
 20
0.0
 30
0.0
  9
$UCSORGLEFT
 10
0.0
 20
0.0
 30
0.0
  9
$UCSORGRIGHT
 10
0.0
 20
0.0
 30
0.0
  9
$UCSORGFRONT
 10
0.0
 20
0.0
 30
0.0
  9
$UCSORGBACK
 10
0.0
 20
0.0
 30
0.0
  9
$PUCSBASE
  2

  9
$PUCSNAME
  2

  9
$PUCSORG
 10
0.0
 20
0.0
 30
0.0
  9
$PUCSXDIR
 10
1.0
 20
0.0
 30
0.0
  9
$PUCSYDIR
 10
0.0
 20
1.0
 30
0.0
  9
$PUCSORTHOREF
  2

  9
$PUCSORTHOVIEW
 70
     0
  9
$PUCSORGTOP
 10
0.0
 20
0.0
 30
0.0
  9
$PUCSORGBOTTOM
 10
0.0
 20
0.0
 30
0.0
  9
$PUCSORGLEFT
 10
0.0
 20
0.0
 30
0.0
  9
$PUCSORGRIGHT
 10
0.0
 20
0.0
 30
0.0
  9
$PUCSORGFRONT
 10
0.0
 20
0.0
 30
0.0
  9
$PUCSORGBACK
 10
0.0
 20
0.0
 30
0.0
  9
$USERI1
 70
     0
  9
$USERI2
 70
     0
  9
$USERI3
 70
     0
  9
$USERI4
 70
     0
  9
$USERI5
 70
     0
  9
$USERR1
 40
0.0
  9
$USERR2
 40
0.0
  9
$USERR3
 40
0.0
  9
$USERR4
 40
0.0
  9
$USERR5
 40
0.0
  9
$WORLDVIEW
 70
     1
  9
$SHADEDGE
 70
     3
  9
$SHADEDIF
 70
    70
  9
$TILEMODE
 70
     1
  9
$MAXACTVP
 70
    64
  9
$PINSBASE
 10
0.0
 20
0.0
 30
0.0
  9
$PLIMCHECK
 70
     0
  9
$PEXTMIN
 10
1.000000000000000E+20
 20
1.000000000000000E+20
 30
1.000000000000000E+20
  9
$PEXTMAX
 10
-1.000000000000000E+20
 20
-1.000000000000000E+20
 30
-1.000000000000000E+20
  9
$PLIMMIN
 10
0.0
 20
0.0
  9
$PLIMMAX
 10
420.0
 20
297.0
  9
$UNITMODE
 70
     0
  9
$VISRETAIN
 70
     1
  9
$PLINEGEN
 70
     0
  9
$PSLTSCALE
 70
     1
  9
$TREEDEPTH
 70
  3020
  9
$CMLSTYLE
  2
Standard
  9
$CMLJUST
 70
     0
  9
$CMLSCALE
 40
20.0
  9
$PROXYGRAPHICS
 70
     1
  9
$MEASUREMENT
 70
     1
  9
$CELWEIGHT
370
    -1
  9
$ENDCAPS
280
     0
  9
$JOINSTYLE
280
     0
  9
$LWDISPLAY
290
     0
  9
$INSUNITS
 70
     4
  9
$HYPERLINKBASE
  1

  9
$STYLESHEET
  1

  9
$XEDIT
290
     1
  9
$CEPSNTYPE
380
     0
  9
$PSTYLEMODE
290
     1
  9
$FINGERPRINTGUID
  2
{513C8E51-AFC3-408B-9D2D-BFDCEC55C079}
  9
$VERSIONGUID
  2
{FAEB1C32-E019-11D5-929B-00C0DF256EC4}
  9
$EXTNAMES
290
     1
  9
$PSVPSCALE
 40
0.0
  9
$OLESTARTUP
290
     0
  9
$SORTENTS
280
   127
  9
$INDEXCTL
280
     0
  9
$HIDETEXT
280
     1
  9
$XCLIPFRAME
290
     0
  9
$HALOGAP
280
     0
  9
$OBSCOLOR
 70
   257
  9
$OBSLTYPE
280
     0
  9
$INTERSECTIONDISPLAY
280
     0
  9
$INTERSECTIONCOLOR
 70
   257
  9
$DIMASSOC
280
     2
  9
$PROJECTNAME
  1

  0
ENDSEC
  0
SECTION
  2
CLASSES
  0
CLASS
  1
ACDBDICTIONARYWDFLT
  2
AcDbDictionaryWithDefault
  3
ObjectDBX Classes
 90
        0
 91
        4
280
     0
281
     0
  0
CLASS
  1
VISUALSTYLE
  2
AcDbVisualStyle
  3
ObjectDBX Classes
 90
     4095
 91
        4
280
     0
281
     0
  0
ENDSEC
  0
SECTION
  2
TABLES
  0
TABLE
  2
VPORT
  5
8
330
0
100
AcDbSymbolTable
 70
     1
  0
VPORT
  5
29
330
8
100
AcDbSymbolTableRecord
100
AcDbViewportTableRecord
  2
*Active
 70
     0
 10
0.0
 20
0.0
 11
1.0
 21
1.0
 12
0.0
 22
0.0
 13
0.0
 23
0.0
 14
10.0
 24
10.0
 15
10.0
 25
10.0
 16
0.0
 26
0.0
 36
1.0
 17
0.0
 27
0.0
 37
0.0
 40
1633.5
 41
1.414141414141414
 42
50.0
 43
0.0
 44
0.0
 50
0.0
 51
0.0
 71
     0
 72
 10000
 73
     1
 74
     3
 75
     0
 76
     0
 77
     0
 78
     0
281
     0
 65
     1
110
0.0
120
0.0
130
0.0
111
1.0
121
0.0
131
0.0
112
0.0
122
1.0
132
0.0
 79
     0
146
0.0
  0
ENDTAB
  0
TABLE
  2
LTYPE
  5
5
330
0
100
AcDbSymbolTable
 70
     2
  0
LTYPE
  5
14
330
5
100
AcDbSymbolTableRecord
100
AcDbLinetypeTableRecord
  2
ByBlock
 70
     0
  3

 72
    65
 73
     0
 40
0.0
  0
LTYPE
  5
15
330
5
100
AcDbSymbolTableRecord
100
AcDbLinetypeTableRecord
  2
ByLayer
 70
     0
  3

 72
    65
 73
     0
 40
0.0
  0
LTYPE
  5
16
330
5
100
AcDbSymbolTableRecord
100
AcDbLinetypeTableRecord
  2
Continuous
 70
     0
  3
Solid line
 72
    65
 73
     0
 40
0.0
  0
LTYPE
  5
3C
330
5
100
AcDbSymbolTableRecord
100
AcDbLinetypeTableRecord
  2
JWW_CENTER2
 70
     0
  3
-------------  --  -------------
 72
    65
 73
     4
 40
13.54666666666667
 49
11.00666666666667
 74
     0
 49
-0.8466666666666667
 74
     0
 49
0.8466666666666667
 74
     0
 49
-0.8466666666666667
 74
     0
  0
ENDTAB
  0
TABLE
  2
LAYER
  5
2
330
0
100
AcDbSymbolTable
 70
     9
  0
LAYER
  5
10
330
2
100
AcDbSymbolTableRecord
100
AcDbLayerTableRecord
  2
0
 70
     0
 62
     7
  6
Continuous
370
    -3
390
F
  0
LAYER
  5
3D
330
2
100
AcDbSymbolTableRecord
100
AcDbLayerTableRecord
  2
0-1
 70
     0
 62
     7
  6
Continuous
370
    -3
390
F
  0
LAYER
  5
3E
330
2
100
AcDbSymbolTableRecord
100
AcDbLayerTableRecord
  2
0-3
 70
     0
 62
     7
  6
Continuous
370
    -3
390
F
  0
LAYER
  5
3F
330
2
100
AcDbSymbolTableRecord
100
AcDbLayerTableRecord
  2
0-4
 70
     0
 62
     7
  6
Continuous
370
    -3
390
F
  0
LAYER
  5
40
330
2
100
AcDbSymbolTableRecord
100
AcDbLayerTableRecord
  2
0-0
 70
     0
 62
     7
  6
Continuous
370
    -3
390
F
  0
LAYER
  5
41
330
2
100
AcDbSymbolTableRecord
100
AcDbLayerTableRecord
  2
0-5
 70
     0
 62
     7
  6
Continuous
370
    -3
390
F
  0
LAYER
  5
42
330
2
100
AcDbSymbolTableRecord
100
AcDbLayerTableRecord
  2
0-F
 70
     0
 62
     7
  6
Continuous
370
    -3
390
F
  0
LAYER
  5
43
330
2
100
AcDbSymbolTableRecord
100
AcDbLayerTableRecord
  2
0-2
 70
     0
 62
     7
  6
Continuous
370
    -3
390
F
  0
LAYER
  5
44
330
2
100
AcDbSymbolTableRecord
100
AcDbLayerTableRecord
  2
F-5
 70
     0
 62
     7
  6
Continuous
370
    -3
390
F
  0
ENDTAB
  0
TABLE
  2
STYLE
  5
3
330
0
100
AcDbSymbolTable
 70
     2
  0
STYLE
  5
11
330
3
100
AcDbSymbolTableRecord
100
AcDbTextStyleTableRecord
  2
Standard
 70
     0
 40
0.0
 41
1.0
 50
0.0
 71
     0
 42
2.5
  3
txt
  4

1001
ACAD
1000

1071
        0
  0
STYLE
  5
3B
330
3
100
AcDbSymbolTableRecord
100
AcDbTextStyleTableRecord
  2
ＭＳ ゴシック
 70
     0
 40
1.0
 41
1.0
 50
0.0
 71
     0
 42
10.0
  3

  4

1001
ACAD
1000
MS Gothic
1071
    32817
  0
ENDTAB
  0
TABLE
  2
VIEW
  5
6
330
0
100
AcDbSymbolTable
 70
     0
  0
ENDTAB
  0
TABLE
  2
UCS
  5
7
330
0
100
AcDbSymbolTable
 70
     0
  0
ENDTAB
  0
TABLE
  2
APPID
  5
9
330
0
100
AcDbSymbolTable
 70
     1
  0
APPID
  5
12
330
9
100
AcDbSymbolTableRecord
100
AcDbRegAppTableRecord
  2
ACAD
 70
     0
  0
ENDTAB
  0
TABLE
  2
DIMSTYLE
  5
A
330
0
100
AcDbSymbolTable
 70
     1
100
AcDbDimStyleTable
  0
DIMSTYLE
105
27
330
A
100
AcDbSymbolTableRecord
100
AcDbDimStyleTableRecord
  2
ISO-25
 70
     0
 41
2.5
 42
0.625
 43
3.75
 44
1.25
 73
     0
 74
     0
 77
     1
 78
     8
140
2.5
141
2.5
143
0.03937007874016
147
0.625
171
     3
172
     1
271
     2
272
     2
274
     3
278
    44
283
     0
284
     8
340
11
  0
ENDTAB
  0
TABLE
  2
BLOCK_RECORD
  5
1
330
0
100
AcDbSymbolTable
 70
     1
  0
BLOCK_RECORD
  5
1F
330
1
100
AcDbSymbolTableRecord
100
AcDbBlockTableRecord
  2
*Model_Space
340
22
  0
BLOCK_RECORD
  5
1B
330
1
100
AcDbSymbolTableRecord
100
AcDbBlockTableRecord
  2
*Paper_Space
340
1E
  0
BLOCK_RECORD
  5
23
330
1
100
AcDbSymbolTableRecord
100
AcDbBlockTableRecord
  2
*Paper_Space0
340
26
  0
ENDTAB
  0
ENDSEC
  0
SECTION
  2
BLOCKS
  0
BLOCK
  5
20
330
1F
100
AcDbEntity
  8
0
100
AcDbBlockBegin
  2
*Model_Space
 70
     0
 10
0.0
 20
0.0
 30
0.0
  3
*Model_Space
  1

  0
ENDBLK
  5
21
330
1F
100
AcDbEntity
  8
0
100
AcDbBlockEnd
  0
BLOCK
  5
1C
330
1B
100
AcDbEntity
 67
     1
  8
0
100
AcDbBlockBegin
  2
*Paper_Space
 70
     0
 10
0.0
 20
0.0
 30
0.0
  3
*Paper_Space
  1

  0
ENDBLK
  5
1D
330
1B
100
AcDbEntity
 67
     1
  8
0
100
AcDbBlockEnd
  0
BLOCK
  5
24
330
23
100
AcDbEntity
  8
0
100
AcDbBlockBegin
  2
*Paper_Space0
 70
     0
 10
0.0
 20
0.0
 30
0.0
  3
*Paper_Space0
  1

  0
ENDBLK
  5
25
330
23
100
AcDbEntity
  8
0
100
AcDbBlockEnd
  0
ENDSEC
  0
SECTION
  2
ENTITIES
  0
LINE
  5
45
330
1F
100
AcDbEntity
  8
0-1
  6
Continuous
 62
     4
370
    13
100
AcDbLine
 10
-649.999948450037
 20
124.5878436114337
 30
0.0
 11
-644.9999319540486
 21
124.5878436114337
 31
0.0
  0
LINE
  5
46
330
1F
100
AcDbEntity
  8
0-1
  6
Continuous
 62
     4
370
    13
100
AcDbLine
 10
-649.999948450037
 20
-133.912167935758
 30
0.0
 11
-644.9999319540486
 21
-133.912167935758
 31
0.0
  0
LINE
  5
47
330
1F
100
AcDbEntity
  8
0-3
  6
Continuous
 62
     2
370
    13
100
AcDbLine
 10
50.00004123997044
 20
116.2378630766997
 30
0.0
 11
350.0000412399706
 21
116.2378630766997
 31
0.0
  0
LINE
  5
48
330
1F
100
AcDbEntity
  8
0-3
  6
Continuous
 62
     2
370
    13
100
AcDbLine
 10
50.00004123997044
 20
-125.562187401024
 30
0.0
 11
350.0000412399706
 21
-125.562187401024
 31
0.0
  0
LINE
  5
49
330
1F
100
AcDbEntity
  8
0-4
  6
Continuous
 62
     7
370
    13
100
AcDbLine
 10
230.9500616949958
 20
123.2690512167441
 30
0.0
 11
229.2720485377957
 21
124.2378399823164
 31
0.0
  0
LINE
  5
4A
330
1F
100
AcDbEntity
  8
0-4
  6
Continuous
 62
     7
370
    13
100
AcDbLine
 10
209.0501527528505
 20
123.2690512167441
 30
0.0
 11
210.7281659100508
 21
124.2378399823164
 31
0.0
  0
LINE
  5
4B
330
1F
100
AcDbEntity
  8
0-4
  6
Continuous
 62
     7
370
    13
100
AcDbLine
 10
229.2720485377957
 20
124.2378399823164
 30
0.0
 11
210.7281659100508
 21
124.2378399823164
 31
0.0
  0
LINE
  5
4C
330
1F
100
AcDbEntity
  8
0-4
  6
Continuous
 62
     7
370
    13
100
AcDbLine
 10
230.9500616949958
 20
123.2690512167441
 30
0.0
 11
230.9500616949958
 21
116.2378630766997
 31
0.0
  0
LINE
  5
4D
330
1F
100
AcDbEntity
  8
0-4
  6
Continuous
 62
     7
370
    13
100
AcDbLine
 10
209.0501527528505
 20
123.2690512167441
 30
0.0
 11
209.0501527528505
 21
116.2378630766997
 31
0.0
  0
LINE
  5
4E
330
1F
100
AcDbEntity
  8
0-4
  6
Continuous
 62
     7
370
    13
100
AcDbLine
 10
214.0000626847551
 20
123.2690512167441
 30
0.0
 11
214.0000626847551
 21
116.2378630766997
 31
0.0
  0
LINE
  5
4F
330
1F
100
AcDbEntity
  8
0-4
  6
Continuous
 62
     7
370
    13
100
AcDbLine
 10
226.0001517630913
 20
123.2690512167441
 30
0.0
 11
226.0001517630913
 21
116.2378630766997
 31
0.0
  0
LINE
  5
50
330
1F
100
AcDbEntity
  8
0-4
  6
Continuous
 62
     7
370
    13
100
AcDbLine
 10
209.0501527528505
 20
116.2378630766997
 30
0.0
 11
230.9500616949958
 21
116.2378630766997
 31
0.0
  0
LINE
  5
51
330
1F
100
AcDbEntity
  8
0-4
  6
Continuous
 62
     7
370
    13
100
AcDbLine
 10
230.9500616949958
 20
-132.5933755410684
 30
0.0
 11
229.2720485377957
 21
-133.5621643066406
 31
0.0
  0
LINE
  5
52
330
1F
100
AcDbEntity
  8
0-4
  6
Continuous
 62
     7
370
    13
100
AcDbLine
 10
209.0501527528505
 20
-132.5933755410684
 30
0.0
 11
210.7281659100508
 21
-133.5621643066406
 31
0.0
  0
LINE
  5
53
330
1F
100
AcDbEntity
  8
0-4
  6
Continuous
 62
     7
370
    13
100
AcDbLine
 10
229.2720485377957
 20
-133.5621643066406
 30
0.0
 11
210.7281659100508
 21
-133.5621643066406
 31
0.0
  0
LINE
  5
54
330
1F
100
AcDbEntity
  8
0-4
  6
Continuous
 62
     7
370
    13
100
AcDbLine
 10
230.9500616949958
 20
-132.5933755410684
 30
0.0
 11
230.9500616949958
 21
-125.562187401024
 31
0.0
  0
LINE
  5
55
330
1F
100
AcDbEntity
  8
0-4
  6
Continuous
 62
     7
370
    13
100
AcDbLine
 10
209.0501527528505
 20
-132.5933755410684
 30
0.0
 11
209.0501527528505
 21
-125.562187401024
 31
0.0
  0
LINE
  5
56
330
1F
100
AcDbEntity
  8
0-4
  6
Continuous
 62
     7
370
    13
100
AcDbLine
 10
214.0000626847551
 20
-132.5933755410684
 30
0.0
 11
214.0000626847551
 21
-125.562187401024
 31
0.0
  0
LINE
  5
57
330
1F
100
AcDbEntity
  8
0-4
  6
Continuous
 62
     7
370
    13
100
AcDbLine
 10
226.0001517630913
 20
-132.5933755410684
 30
0.0
 11
226.0001517630913
 21
-125.562187401024
 31
0.0
  0
LINE
  5
58
330
1F
100
AcDbEntity
  8
0-4
  6
Continuous
 62
     7
370
    13
100
AcDbLine
 10
240.0001732078758
 20
-15.61217849319036
 30
0.0
 11
230.500216097445
 21
-10.12736552470429
 31
0.0
  0
LINE
  5
59
330
1F
100
AcDbEntity
  8
0-4
  6
Continuous
 62
     7
370
    13
100
AcDbLine
 10
230.500216097445
 20
0.8029793404244856
 30
0.0
 11
230.500216097445
 21
-10.12736552470429
 31
0.0
  0
LINE
  5
5A
330
1F
100
AcDbEntity
  8
0-4
  6
Continuous
 62
     7
370
    13
100
AcDbLine
 10
240.0001732078758
 20
-15.61217849319036
 30
0.0
 11
249.5001303183068
 21
-10.12736552470429
 31
0.0
  0
LINE
  5
5B
330
1F
100
AcDbEntity
  8
0-4
  6
Continuous
 62
     7
370
    13
100
AcDbLine
 10
240.0001732078758
 20
6.287854168866147
 30
0.0
 11
249.5001303183068
 21
0.8029793404244856
 31
0.0
  0
LINE
  5
5C
330
1F
100
AcDbEntity
  8
0-4
  6
Continuous
 62
     7
370
    13
100
AcDbLine
 10
249.5001303183068
 20
0.8029793404244856
 30
0.0
 11
249.5001303183068
 21
-10.12736552470429
 31
0.0
  0
LINE
  5
5D
330
1F
100
AcDbEntity
  8
0-4
  6
Continuous
 62
     7
370
    13
100
AcDbLine
 10
240.0001732078758
 20
6.287854168866147
 30
0.0
 11
230.500216097445
 21
0.8029793404244856
 31
0.0
  0
LINE
  5
5E
330
1F
100
AcDbEntity
  8
0-0
  6
JWW_CENTER2
 62
     7
370
    13
100
AcDbLine
 10
240.0001732078758
 20
-20.61219498917865
 30
0.0
 11
240.0001732078758
 21
11.2878706648543
 31
0.0
  0
LINE
  5
5F
330
1F
100
AcDbEntity
  8
0-5
  6
Continuous
 62
     6
370
    13
100
AcDbLine
 10
50.00004123997044
 20
-254.6621209221917
 30
0.0
 11
350.0000412399706
 21
-254.6621209221917
 31
0.0
  0
LINE
  5
60
330
1F
100
AcDbEntity
  8
0-5
  6
Continuous
 62
     6
370
    13
100
AcDbLine
 10
50.00004123997044
 20
245.3377965978675
 30
0.0
 11
350.0000412399706
 21
245.3377965978675
 31
0.0
  0
LINE
  5
61
330
1F
100
AcDbEntity
  8
0-5
  6
Continuous
 62
     6
370
    13
100
AcDbLine
 10
350.0000412399706
 20
295.3378378378379
 30
0.0
 11
450.0
 21
295.3378378378379
 31
0.0
  0
LINE
  5
62
330
1F
100
AcDbEntity
  8
0-5
  6
Continuous
 62
     6
370
    13
100
AcDbLine
 10
350.0000412399706
 20
-304.6621621621621
 30
0.0
 11
450.0
 21
-304.6621621621621
 31
0.0
  0
LINE
  5
63
330
1F
100
AcDbEntity
  8
0-5
  6
Continuous
 62
     6
370
    13
100
AcDbLine
 10
450.0
 20
-354.662141542177
 30
0.0
 11
549.9999587600297
 21
-354.662141542177
 31
0.0
  0
LINE
  5
64
330
1F
100
AcDbEntity
  8
0-5
  6
Continuous
 62
     6
370
    13
100
AcDbLine
 10
530.0000164959883
 20
-354.662141542177
 30
0.0
 11
450.0
 21
-308.4740963497677
 31
0.0
  0
LINE
  5
65
330
1F
100
AcDbEntity
  8
0-5
  6
Continuous
 62
     6
370
    13
100
AcDbLine
 10
549.9999587600297
 20
-343.1150529191301
 30
0.0
 11
530.0000164959883
 21
-354.662141542177
 31
0.0
  0
LINE
  5
66
330
1F
100
AcDbEntity
  8
0-5
  6
Continuous
 62
     6
370
    13
100
AcDbLine
 10
450.0
 20
-308.4740963497677
 30
0.0
 11
469.9999422640414
 21
-296.9270695866765
 31
0.0
  0
LINE
  5
67
330
1F
100
AcDbEntity
  8
0-5
  6
Continuous
 62
     6
370
    13
100
AcDbLine
 10
450.0
 20
-331.5681498759501
 30
0.0
 11
469.9999422640414
 21
-320.0210612529032
 31
0.0
  0
LINE
  5
68
330
1F
100
AcDbEntity
  8
0-5
  6
Continuous
 62
     6
370
    13
100
AcDbLine
 10
450.0
 20
-354.662141542177
 30
0.0
 11
469.9999422640414
 21
-343.1151147790857
 31
0.0
  0
LINE
  5
69
330
1F
100
AcDbEntity
  8
0-5
  6
Continuous
 62
     6
370
    13
100
AcDbLine
 10
490.0000082479943
 20
-354.662141542177
 30
0.0
 11
450.0
 21
-331.5681498759501
 31
0.0
  0
LINE
  5
6A
330
1F
100
AcDbEntity
  8
0-5
  6
Continuous
 62
     6
370
    13
100
AcDbLine
 10
549.9999587600297
 20
-343.1150529191301
 30
0.0
 11
450.0
 21
-285.3801046835409
 31
0.0
  0
LINE
  5
6B
330
1F
100
AcDbEntity
  8
0-5
  6
Continuous
 62
     6
370
    13
100
AcDbLine
 10
549.9999587600297
 20
-320.0211231128589
 30
0.0
 11
530.0000164959883
 21
-331.5681498759501
 31
0.0
  0
LINE
  5
6C
330
1F
100
AcDbEntity
  8
0-5
  6
Continuous
 62
     6
370
    13
100
AcDbLine
 10
450.0
 20
-285.3801046835409
 30
0.0
 11
469.9999422640414
 21
-273.8330779204497
 31
0.0
  0
LINE
  5
6D
330
1F
100
AcDbEntity
  8
0-5
  6
Continuous
 62
     6
370
    13
100
AcDbLine
 10
549.9999587600297
 20
-320.0211231128589
 30
0.0
 11
450.0
 21
-262.2861130173142
 31
0.0
  0
LINE
  5
6E
330
1F
100
AcDbEntity
  8
0-5
  6
Continuous
 62
     6
370
    13
100
AcDbLine
 10
549.9999587600297
 20
-296.9270695866765
 30
0.0
 11
530.0000164959883
 21
-308.4741582097234
 31
0.0
  0
LINE
  5
6F
330
1F
100
AcDbEntity
  8
0-5
  6
Continuous
 62
     6
370
    13
100
AcDbLine
 10
450.0
 20
-239.1920594911317
 30
0.0
 11
469.9999422640414
 21
-227.6450327280405
 31
0.0
  0
LINE
  5
70
330
1F
100
AcDbEntity
  8
0-5
  6
Continuous
 62
     6
370
    13
100
AcDbLine
 10
450.0
 20
-262.2861130173142
 30
0.0
 11
469.9999422640414
 21
-250.7390862542229
 31
0.0
  0
LINE
  5
71
330
1F
100
AcDbEntity
  8
0-5
  6
Continuous
 62
     6
370
    13
100
AcDbLine
 10
549.9999587600297
 20
-273.8330160604941
 30
0.0
 11
450.0
 21
-216.0980678249049
 31
0.0
  0
LINE
  5
72
330
1F
100
AcDbEntity
  8
0-5
  6
Continuous
 62
     6
370
    13
100
AcDbLine
 10
549.9999587600297
 20
-250.7390862542229
 30
0.0
 11
530.0000164959883
 21
-262.2861130173142
 31
0.0
  0
LINE
  5
73
330
1F
100
AcDbEntity
  8
0-5
  6
Continuous
 62
     6
370
    13
100
AcDbLine
 10
450.0
 20
-216.0980678249049
 30
0.0
 11
469.9999422640414
 21
-204.5510410618137
 31
0.0
  0
LINE
  5
74
330
1F
100
AcDbEntity
  8
0-5
  6
Continuous
 62
     6
370
    13
100
AcDbLine
 10
549.9999587600297
 20
-250.7390862542229
 30
0.0
 11
450.0
 21
-193.0040761586782
 31
0.0
  0
LINE
  5
75
330
1F
100
AcDbEntity
  8
0-5
  6
Continuous
 62
     6
370
    13
100
AcDbLine
 10
549.9999587600297
 20
-296.9270695866765
 30
0.0
 11
450.0
 21
-239.1920594911317
 31
0.0
  0
LINE
  5
76
330
1F
100
AcDbEntity
  8
0-5
  6
Continuous
 62
     6
370
    13
100
AcDbLine
 10
549.9999587600297
 20
-204.5509792018581
 30
0.0
 11
530.0000164959883
 21
-216.0980678249049
 31
0.0
  0
LINE
  5
77
330
1F
100
AcDbEntity
  8
0-5
  6
Continuous
 62
     6
370
    13
100
AcDbLine
 10
450.0
 20
-169.9100226324958
 30
0.0
 11
469.9999422640414
 21
-158.3629958694046
 31
0.0
  0
LINE
  5
78
330
1F
100
AcDbEntity
  8
0-5
  6
Continuous
 62
     6
370
    13
100
AcDbLine
 10
450.0
 20
-193.0040761586782
 30
0.0
 11
469.9999422640414
 21
-181.4569875356313
 31
0.0
  0
LINE
  5
79
330
1F
100
AcDbEntity
  8
0-5
  6
Continuous
 62
     6
370
    13
100
AcDbLine
 10
549.9999587600297
 20
-204.5509792018581
 30
0.0
 11
450.0
 21
-146.816030966269
 31
0.0
  0
LINE
  5
7A
330
1F
100
AcDbEntity
  8
0-5
  6
Continuous
 62
     6
370
    13
100
AcDbLine
 10
549.9999587600297
 20
-181.457049395587
 30
0.0
 11
530.0000164959883
 21
-193.0040761586782
 31
0.0
  0
LINE
  5
7B
330
1F
100
AcDbEntity
  8
0-5
  6
Continuous
 62
     6
370
    13
100
AcDbLine
 10
549.9999587600297
 20
-227.6450327280405
 30
0.0
 11
450.0
 21
-169.9100226324958
 31
0.0
  0
LINE
  5
7C
330
1F
100
AcDbEntity
  8
0-5
  6
Continuous
 62
     6
370
    13
100
AcDbLine
 10
549.9999587600297
 20
149.0387952649915
 30
0.0
 11
530.0000164959883
 21
137.4917066419447
 31
0.0
  0
LINE
  5
7D
330
1F
100
AcDbEntity
  8
0-5
  6
Continuous
 62
     6
370
    13
100
AcDbLine
 10
450.0
 20
183.6797518343539
 30
0.0
 11
469.9999422640414
 21
195.2267785974452
 31
0.0
  0
LINE
  5
7E
330
1F
100
AcDbEntity
  8
0-5
  6
Continuous
 62
     6
370
    13
100
AcDbLine
 10
549.9999587600297
 20
149.0387952649915
 30
0.0
 11
450.0
 21
206.7737435005807
 31
0.0
  0
LINE
  5
7F
330
1F
100
AcDbEntity
  8
0-5
  6
Continuous
 62
     6
370
    13
100
AcDbLine
 10
549.9999587600297
 20
172.1327250712628
 30
0.0
 11
530.0000164959883
 21
160.5856983081715
 31
0.0
  0
LINE
  5
80
330
1F
100
AcDbEntity
  8
0-5
  6
Continuous
 62
     6
370
    13
100
AcDbLine
 10
450.0
 20
206.7737435005807
 30
0.0
 11
469.9999422640414
 21
218.3207702636719
 31
0.0
  0
LINE
  5
81
330
1F
100
AcDbEntity
  8
0-5
  6
Continuous
 62
     6
370
    13
100
AcDbLine
 10
549.9999587600297
 20
172.1327250712628
 30
0.0
 11
450.0
 21
229.8677351668074
 31
0.0
  0
LINE
  5
82
330
1F
100
AcDbEntity
  8
0-5
  6
Continuous
 62
     6
370
    13
100
AcDbLine
 10
549.9999587600297
 20
218.3208321236276
 30
0.0
 11
530.0000164959883
 21
206.7737435005807
 31
0.0
  0
LINE
  5
83
330
1F
100
AcDbEntity
  8
0-5
  6
Continuous
 62
     6
370
    13
100
AcDbLine
 10
450.0
 20
252.96178869299
 30
0.0
 11
469.9999422640414
 21
264.5088154560812
 31
0.0
  0
LINE
  5
84
330
1F
100
AcDbEntity
  8
0-5
  6
Continuous
 62
     6
370
    13
100
AcDbLine
 10
450.0
 20
229.8677351668074
 30
0.0
 11
469.9999422640414
 21
241.4148237898543
 31
0.0
  0
LINE
  5
85
330
1F
100
AcDbEntity
  8
0-5
  6
Continuous
 62
     6
370
    13
100
AcDbLine
 10
549.9999587600297
 20
218.3208321236276
 30
0.0
 11
450.0
 21
276.0557803592167
 31
0.0
  0
LINE
  5
86
330
1F
100
AcDbEntity
  8
0-5
  6
Continuous
 62
     6
370
    13
100
AcDbLine
 10
549.9999587600297
 20
241.4147619298987
 30
0.0
 11
530.0000164959883
 21
229.8677351668074
 31
0.0
  0
LINE
  5
87
330
1F
100
AcDbEntity
  8
0-5
  6
Continuous
 62
     6
370
    13
100
AcDbLine
 10
450.0
 20
276.0557803592167
 30
0.0
 11
469.9999422640414
 21
287.6028071223079
 31
0.0
  0
LINE
  5
88
330
1F
100
AcDbEntity
  8
0-5
  6
Continuous
 62
     6
370
    13
100
AcDbLine
 10
549.9999587600297
 20
241.4147619298987
 30
0.0
 11
450.0
 21
299.1497720254435
 31
0.0
  0
LINE
  5
89
330
1F
100
AcDbEntity
  8
0-5
  6
Continuous
 62
     6
370
    13
100
AcDbLine
 10
549.9999587600297
 20
195.2267785974452
 30
0.0
 11
450.0
 21
252.96178869299
 31
0.0
  0
LINE
  5
8A
330
1F
100
AcDbEntity
  8
0-5
  6
Continuous
 62
     6
370
    13
100
AcDbLine
 10
549.9999587600297
 20
287.6028689822635
 30
0.0
 11
530.0000164959883
 21
276.0557803592167
 31
0.0
  0
LINE
  5
8B
330
1F
100
AcDbEntity
  8
0-5
  6
Continuous
 62
     6
370
    13
100
AcDbLine
 10
450.0
 20
322.2438255516259
 30
0.0
 11
469.9999422640414
 21
333.7908523147171
 31
0.0
  0
LINE
  5
8C
330
1F
100
AcDbEntity
  8
0-5
  6
Continuous
 62
     6
370
    13
100
AcDbLine
 10
450.0
 20
299.1497720254435
 30
0.0
 11
469.9999422640414
 21
310.6969225084459
 31
0.0
  0
LINE
  5
8D
330
1F
100
AcDbEntity
  8
0-5
  6
Continuous
 62
     6
370
    13
100
AcDbLine
 10
549.9999587600297
 20
287.6028689822635
 30
0.0
 11
450.0
 21
345.3378790778083
 31
0.0
  0
LINE
  5
8E
330
1F
100
AcDbEntity
  8
0-5
  6
Continuous
 62
     6
370
    13
100
AcDbLine
 10
549.9999587600297
 20
310.6967987885346
 30
0.0
 11
530.0000164959883
 21
299.1497720254435
 31
0.0
  0
LINE
  5
8F
330
1F
100
AcDbEntity
  8
0-5
  6
Continuous
 62
     6
370
    13
100
AcDbLine
 10
549.9999587600297
 20
264.5088154560812
 30
0.0
 11
450.0
 21
322.2438255516259
 31
0.0
  0
LINE
  5
90
330
1F
100
AcDbEntity
  8
0-5
  6
Continuous
 62
     6
370
    13
100
AcDbLine
 10
530.0000164959883
 20
-239.192183211043
 30
0.0
 11
549.9999587600297
 21
-227.6450327280405
 31
0.0
  0
LINE
  5
91
330
1F
100
AcDbEntity
  8
0-5
  6
Continuous
 62
     6
370
    13
100
AcDbLine
 10
530.0000164959883
 20
322.2438255516259
 30
0.0
 11
549.9999587600297
 21
333.7909760346284
 31
0.0
  0
LINE
  5
92
330
1F
100
AcDbEntity
  8
0-5
  6
Continuous
 62
     6
370
    13
100
AcDbLine
 10
549.9999587600297
 20
333.7909760346284
 30
0.0
 11
530.0001402158995
 21
345.3378790778083
 31
0.0
  0
LINE
  5
93
330
1F
100
AcDbEntity
  8
0-5
  6
Continuous
 62
     6
370
    13
100
AcDbLine
 10
549.9999587600297
 20
310.6969225084459
 30
0.0
 11
490.0000082479943
 21
345.3378790778083
 31
0.0
  0
LINE
  5
94
330
1F
100
AcDbEntity
  8
0-5
  6
Continuous
 62
     6
370
    13
100
AcDbLine
 10
450.0
 20
114.397714975718
 30
0.0
 11
469.9999422640414
 21
125.9447417388091
 31
0.0
  0
LINE
  5
95
330
1F
100
AcDbEntity
  8
0-5
  6
Continuous
 62
     6
370
    13
100
AcDbLine
 10
549.9999587600297
 20
79.7567584063556
 30
0.0
 11
450.0
 21
137.4917066419447
 31
0.0
  0
LINE
  5
96
330
1F
100
AcDbEntity
  8
0-5
  6
Continuous
 62
     6
370
    13
100
AcDbLine
 10
549.9999587600297
 20
102.8506882126267
 30
0.0
 11
530.0000164959883
 21
91.30366144953555
 31
0.0
  0
LINE
  5
97
330
1F
100
AcDbEntity
  8
0-5
  6
Continuous
 62
     6
370
    13
100
AcDbLine
 10
450.0
 20
137.4917066419447
 30
0.0
 11
469.9999422640414
 21
149.0387334050359
 31
0.0
  0
LINE
  5
98
330
1F
100
AcDbEntity
  8
0-5
  6
Continuous
 62
     6
370
    13
100
AcDbLine
 10
549.9999587600297
 20
102.8506882126267
 30
0.0
 11
450.0
 21
160.5856983081715
 31
0.0
  0
LINE
  5
99
330
1F
100
AcDbEntity
  8
0-5
  6
Continuous
 62
     6
370
    13
100
AcDbLine
 10
450.0
 20
160.5856983081715
 30
0.0
 11
469.9999422640414
 21
172.1327869312184
 31
0.0
  0
LINE
  5
9A
330
1F
100
AcDbEntity
  8
0-5
  6
Continuous
 62
     6
370
    13
100
AcDbLine
 10
549.9999587600297
 20
125.9447417388091
 30
0.0
 11
450.0
 21
183.6797518343539
 31
0.0
  0
LINE
  5
9B
330
1F
100
AcDbEntity
  8
0-5
  6
Continuous
 62
     6
370
    13
100
AcDbLine
 10
530.0000164959883
 20
114.3976531157622
 30
0.0
 11
549.9999587600297
 21
125.9447417388091
 31
0.0
  0
LINE
  5
9C
330
1F
100
AcDbEntity
  8
0-F
  6
Continuous
 62
     7
370
    13
100
AcDbLine
 10
364.8716694599875
 20
478.3799619932433
 30
0.0
 11
335.1284130199537
 21
482.2956971864443
 31
0.0
  0
LINE
  5
9D
330
1F
100
AcDbEntity
  8
0-F
  6
Continuous
 62
     7
370
    13
100
AcDbLine
 10
364.8716694599875
 20
482.2956971864443
 30
0.0
 11
335.1284130199537
 21
478.3799619932433
 31
0.0
  0
LINE
  5
9E
330
1F
100
AcDbEntity
  8
0-F
  6
Continuous
 62
     7
370
    13
100
AcDbLine
 10
464.8716282200169
 20
478.3799619932433
 30
0.0
 11
435.1283717799831
 21
482.2956971864443
 31
0.0
  0
LINE
  5
9F
330
1F
100
AcDbEntity
  8
0-F
  6
Continuous
 62
     7
370
    13
100
AcDbLine
 10
464.8716282200169
 20
482.2956971864443
 30
0.0
 11
435.1283717799831
 21
478.3799619932433
 31
0.0
  0
LINE
  5
A0
330
1F
100
AcDbEntity
  8
0-F
  6
Continuous
 62
     7
370
    13
100
AcDbLine
 10
549.9999587600297
 20
480.3378295898438
 30
0.0
 11
535.1283305400127
 21
482.2956971864443
 31
0.0
  0
LINE
  5
A1
330
1F
100
AcDbEntity
  8
0-F
  6
Continuous
 62
     7
370
    13
100
AcDbLine
 10
549.9999587600297
 20
480.3378295898438
 30
0.0
 11
535.1283305400127
 21
478.3799619932433
 31
0.0
  0
LINE
  5
A2
330
1F
100
AcDbEntity
  8
0-F
  6
Continuous
 62
     7
370
    13
100
AcDbLine
 10
-592.0267775252058
 20
323.4521979254646
 30
0.0
 11
-421.625889958562
 21
323.4521979254646
 31
0.0
  0
LINE
  5
A3
330
1F
100
AcDbEntity
  8
0-F
  6
Continuous
 62
     7
370
    13
100
AcDbLine
 10
13.80738954286329
 20
-327.0029470082875
 30
0.0
 11
214.0001864046664
 21
-211.5070693557327
 31
0.0
  0
LINE
  5
A4
330
1F
100
AcDbEntity
  8
0-F
  6
Continuous
 62
     7
370
    13
100
AcDbLine
 10
214.0001864046664
 20
-211.5070693557327
 30
0.0
 11
202.0969700168919
 21
-220.6346295330975
 31
0.0
  0
LINE
  5
A5
330
1F
100
AcDbEntity
  8
0-F
  6
Continuous
 62
     7
370
    13
100
AcDbLine
 10
214.0001864046664
 20
-211.5070693557327
 30
0.0
 11
200.1402158994934
 21
-217.2429100242821
 31
0.0
  0
LINE
  5
A6
330
1F
100
AcDbEntity
  8
0-F
  6
Continuous
 62
     7
370
    13
100
AcDbLine
 10
-236.0556112753378
 20
-216.3597354373416
 30
0.0
 11
-40.99601539405612
 21
-216.3597354373416
 31
0.0
  0
LINE
  5
A7
330
1F
100
AcDbEntity
  8
0-F
  6
Continuous
 62
     7
370
    13
100
AcDbLine
 10
50.00004123997044
 20
322.8378048458616
 30
0.0
 11
269.3276070259714
 21
322.8378048458616
 31
0.0
  0
LINE
  5
A8
330
1F
100
AcDbEntity
  8
0-F
  6
Continuous
 62
     7
370
    13
100
AcDbLine
 10
50.00004123997044
 20
322.8378048458616
 30
0.0
 11
64.87166945998737
 21
324.7956724424621
 31
0.0
  0
LINE
  5
A9
330
1F
100
AcDbEntity
  8
0-F
  6
Continuous
 62
     7
370
    13
100
AcDbLine
 10
50.00004123997044
 20
322.8378048458616
 30
0.0
 11
64.87166945998737
 21
320.879937249261
 31
0.0
  0
LINE
  5
AA
330
1F
100
AcDbEntity
  8
0-F
  6
Continuous
 62
     7
370
    13
100
AcDbLine
 10
220.0001072239232
 20
322.8378048458616
 30
0.0
 11
205.1284790039062
 21
324.7956724424621
 31
0.0
  0
LINE
  5
AB
330
1F
100
AcDbEntity
  8
0-F
  6
Continuous
 62
     7
370
    13
100
AcDbLine
 10
220.0001072239232
 20
322.8378048458616
 30
0.0
 11
205.1284790039062
 21
320.879937249261
 31
0.0
  0
LINE
  5
AC
330
1F
100
AcDbEntity
  8
0-F
  6
Continuous
 62
     7
370
    13
100
AcDbLine
 10
-40.99601539405612
 20
-216.3597354373416
 30
0.0
 11
116.3865372941301
 21
-125.562187401024
 31
0.0
  0
LINE
  5
AD
330
1F
100
AcDbEntity
  8
0-F
  6
Continuous
 62
     7
370
    13
100
AcDbLine
 10
116.3865372941301
 20
-125.562187401024
 30
0.0
 11
104.4833209063556
 21
-134.6897475783889
 31
0.0
  0
LINE
  5
AE
330
1F
100
AcDbEntity
  8
0-F
  6
Continuous
 62
     7
370
    13
100
AcDbLine
 10
116.3865372941301
 20
-125.562187401024
 30
0.0
 11
102.526566788957
 21
-131.2980280695734
 31
0.0
  0
LINE
  5
AF
330
1F
100
AcDbEntity
  8
0-F
  6
Continuous
 62
     7
370
    13
100
AcDbLine
 10
-819.9999216440561
 20
-138.1621943293391
 30
0.0
 11
-821.9577892406567
 21
-123.2905042493665
 31
0.0
  0
LINE
  5
B0
330
1F
100
AcDbEntity
  8
0-F
  6
Continuous
 62
     7
370
    13
100
AcDbLine
 10
-819.9999216440561
 20
-138.1621943293391
 30
0.0
 11
-818.0421777673669
 21
-123.2905042493665
 31
0.0
  0
LINE
  5
B1
330
1F
100
AcDbEntity
  8
0-F
  6
Continuous
 62
     7
370
    13
100
AcDbLine
 10
-819.9999216440561
 20
128.8378700050148
 30
0.0
 11
-821.9577892406567
 21
113.9661799250423
 31
0.0
  0
LINE
  5
B2
330
1F
100
AcDbEntity
  8
0-F
  6
Continuous
 62
     7
370
    13
100
AcDbLine
 10
-819.9999216440561
 20
128.8378700050148
 30
0.0
 11
-818.0421777673669
 21
113.9661799250423
 31
0.0
  0
LINE
  5
B3
330
1F
100
AcDbEntity
  8
0-F
  6
Continuous
 62
     7
370
    13
100
AcDbLine
 10
-273.4320150839315
 20
-327.0029470082875
 30
0.0
 11
13.80738954286329
 21
-327.0029470082875
 31
0.0
  0
LINE
  5
B4
330
1F
100
AcDbEntity
  8
0-F
  6
Continuous
 62
     7
370
    13
100
AcDbLine
 10
360.0000742319469
 20
-125.562187401024
 30
0.0
 11
421.5000049487966
 21
-125.562187401024
 31
0.0
  0
LINE
  5
B5
330
1F
100
AcDbEntity
  8
0-F
  6
Continuous
 62
     7
370
    13
100
AcDbLine
 10
360.0000742319469
 20
116.2378630766997
 30
0.0
 11
421.5000049487966
 21
116.2378630766997
 31
0.0
  0
LINE
  5
B6
330
1F
100
AcDbEntity
  8
0-F
  6
Continuous
 62
     7
370
    13
100
AcDbLine
 10
420.0000247439823
 20
-125.562187401024
 30
0.0
 11
418.0421571473818
 21
-110.6904973210515
 31
0.0
  0
LINE
  5
B7
330
1F
100
AcDbEntity
  8
0-F
  6
Continuous
 62
     7
370
    13
100
AcDbLine
 10
420.0000247439823
 20
-125.562187401024
 30
0.0
 11
421.9578923405828
 21
-110.6904973210515
 31
0.0
  0
LINE
  5
B8
330
1F
100
AcDbEntity
  8
0-F
  6
Continuous
 62
     7
370
    13
100
AcDbLine
 10
420.0000247439823
 20
116.2378630766997
 30
0.0
 11
418.0421571473818
 21
101.3661729967272
 31
0.0
  0
LINE
  5
B9
330
1F
100
AcDbEntity
  8
0-F
  6
Continuous
 62
     7
370
    13
100
AcDbLine
 10
420.0000247439823
 20
116.2378630766997
 30
0.0
 11
421.9578923405828
 21
101.3661729967272
 31
0.0
  0
LINE
  5
BA
330
1F
100
AcDbEntity
  8
0-F
  6
Continuous
 62
     7
370
    13
100
AcDbLine
 10
240.0001732078758
 20
322.8378048458616
 30
0.0
 11
254.8718014278927
 21
324.7956724424621
 31
0.0
  0
LINE
  5
BB
330
1F
100
AcDbEntity
  8
0-F
  6
Continuous
 62
     7
370
    13
100
AcDbLine
 10
240.0001732078758
 20
322.8378048458616
 30
0.0
 11
254.8718014278927
 21
320.879937249261
 31
0.0
  0
LINE
  5
BC
330
1F
100
AcDbEntity
  8
0-5
  6
Continuous
 62
     6
370
    13
100
AcDbLine
 10
450.0
 20
-47.6581099226668
 30
0.0
 11
350.0000412399706
 21
-147.6580686826964
 31
0.0
  0
LINE
  5
BD
330
1F
100
AcDbEntity
  8
0-5
  6
Continuous
 62
     6
370
    13
100
AcDbLine
 10
450.0
 20
-51.90071312156874
 30
0.0
 11
350.0000412399706
 21
-151.900733741554
 31
0.0
  0
LINE
  5
BE
330
1F
100
AcDbEntity
  8
0-F
  6
Continuous
 62
     7
370
    13
100
AcDbLine
 10
559.999991752006
 20
-254.6621209221917
 30
0.0
 11
631.4999554608321
 21
-254.6621209221917
 31
0.0
  0
LINE
  5
BF
330
1F
100
AcDbEntity
  8
0-F
  6
Continuous
 62
     7
370
    13
100
AcDbLine
 10
559.999991752006
 20
245.3377965978675
 30
0.0
 11
631.4999554608321
 21
245.3377965978675
 31
0.0
  0
LINE
  5
C0
330
1F
100
AcDbEntity
  8
0-F
  6
Continuous
 62
     7
370
    13
100
AcDbLine
 10
629.9999752560177
 20
-254.6621209221917
 30
0.0
 11
628.0421076594172
 21
-239.7904927021748
 31
0.0
  0
LINE
  5
C1
330
1F
100
AcDbEntity
  8
0-F
  6
Continuous
 62
     7
370
    13
100
AcDbLine
 10
629.9999752560177
 20
-254.6621209221917
 30
0.0
 11
631.9578428526182
 21
-239.7904927021748
 31
0.0
  0
LINE
  5
C2
330
1F
100
AcDbEntity
  8
0-F
  6
Continuous
 62
     7
370
    13
100
AcDbLine
 10
629.9999752560177
 20
245.3377965978675
 30
0.0
 11
628.0421076594172
 21
230.4661065178949
 31
0.0
  0
LINE
  5
C3
330
1F
100
AcDbEntity
  8
0-F
  6
Continuous
 62
     7
370
    13
100
AcDbLine
 10
629.9999752560177
 20
245.3377965978675
 30
0.0
 11
631.9578428526182
 21
230.4661065178949
 31
0.0
  0
LINE
  5
C4
330
1F
100
AcDbEntity
  8
0-F
  6
Continuous
 62
     7
370
    13
100
AcDbLine
 10
689.9999257680533
 20
-304.6621621621621
 30
0.0
 11
688.0420581714529
 21
-289.7904720821896
 31
0.0
  0
LINE
  5
C5
330
1F
100
AcDbEntity
  8
0-F
  6
Continuous
 62
     7
370
    13
100
AcDbLine
 10
689.9999257680533
 20
-304.6621621621621
 30
0.0
 11
691.957793364654
 21
-289.7904720821896
 31
0.0
  0
LINE
  5
C6
330
1F
100
AcDbEntity
  8
0-F
  6
Continuous
 62
     7
370
    13
100
AcDbLine
 10
689.9999257680533
 20
295.3378378378379
 30
0.0
 11
688.0420581714529
 21
280.4661477578654
 31
0.0
  0
LINE
  5
C7
330
1F
100
AcDbEntity
  8
0-F
  6
Continuous
 62
     7
370
    13
100
AcDbLine
 10
689.9999257680533
 20
295.3378378378379
 30
0.0
 11
691.957793364654
 21
280.4661477578654
 31
0.0
  0
LINE
  5
C8
330
1F
100
AcDbEntity
  8
0-F
  6
Continuous
 62
     7
370
    13
100
AcDbLine
 10
749.9998762800888
 20
-354.662141542177
 30
0.0
 11
748.0420086834883
 21
-339.7904514622044
 31
0.0
  0
LINE
  5
C9
330
1F
100
AcDbEntity
  8
0-F
  6
Continuous
 62
     7
370
    13
100
AcDbLine
 10
749.9998762800888
 20
-354.662141542177
 30
0.0
 11
751.9577438766894
 21
-339.7904514622044
 31
0.0
  0
LINE
  5
CA
330
1F
100
AcDbEntity
  8
0-F
  6
Continuous
 62
     7
370
    13
100
AcDbLine
 10
749.9998762800888
 20
345.3378790778083
 30
0.0
 11
748.0420086834883
 21
330.4661271378801
 31
0.0
  0
LINE
  5
CB
330
1F
100
AcDbEntity
  8
0-F
  6
Continuous
 62
     7
370
    13
100
AcDbLine
 10
749.9998762800888
 20
345.3378790778083
 30
0.0
 11
751.9577438766894
 21
330.4661271378801
 31
0.0
  0
LINE
  5
CC
330
1F
100
AcDbEntity
  8
0-F
  6
Continuous
 62
     7
370
    13
100
AcDbLine
 10
559.999991752006
 20
345.3378790778083
 30
0.0
 11
751.4998564849029
 21
345.3378790778083
 31
0.0
  0
LINE
  5
CD
330
1F
100
AcDbEntity
  8
0-F
  6
Continuous
 62
     7
370
    13
100
AcDbLine
 10
559.999991752006
 20
-354.662141542177
 30
0.0
 11
751.4998564849029
 21
-354.662141542177
 31
0.0
  0
LINE
  5
CE
330
1F
100
AcDbEntity
  8
0-F
  6
Continuous
 62
     7
370
    13
100
AcDbLine
 10
559.999991752006
 20
295.3378378378379
 30
0.0
 11
691.4999059728675
 21
295.3378378378379
 31
0.0
  0
LINE
  5
CF
330
1F
100
AcDbEntity
  8
0-F
  6
Continuous
 62
     7
370
    13
100
AcDbLine
 10
559.999991752006
 20
-304.6621621621621
 30
0.0
 11
691.4999059728675
 21
-304.6621621621621
 31
0.0
  0
LINE
  5
D0
330
1F
100
AcDbEntity
  8
0-5
  6
Continuous
 62
     6
370
    13
100
AcDbLine
 10
450.0
 20
345.3378790778083
 30
0.0
 11
549.9999587600297
 21
345.3378790778083
 31
0.0
  0
LINE
  5
D1
330
1F
100
AcDbEntity
  8
0-5
  6
Continuous
 62
     6
370
    13
100
AcDbLine
 10
549.9999587600297
 20
264.5088154560812
 30
0.0
 11
530.0000164959883
 21
252.9617268330342
 31
0.0
  0
LINE
  5
D2
330
1F
100
AcDbEntity
  8
0-5
  6
Continuous
 62
     6
370
    13
100
AcDbLine
 10
549.9999587600297
 20
195.2267785974452
 30
0.0
 11
530.0000164959883
 21
183.6796899743983
 31
0.0
  0
LINE
  5
D3
330
1F
100
AcDbEntity
  8
0-5
  6
Continuous
 62
     6
370
    13
100
AcDbLine
 10
549.9999587600297
 20
-273.8330160604941
 30
0.0
 11
530.0000164959883
 21
-285.3801046835409
 31
0.0
  0
LINE
  5
D4
330
1F
100
AcDbEntity
  8
0-F
  6
Continuous
 62
     7
370
    13
100
AcDbLine
 10
50.00004123997044
 20
380.3378708298142
 30
0.0
 11
50.00004123997044
 21
481.8378097946579
 31
0.0
  0
LINE
  5
D5
330
1F
100
AcDbEntity
  8
0-F
  6
Continuous
 62
     7
370
    13
100
AcDbLine
 10
-524.6413359770904
 20
223.4521773054793
 30
0.0
 11
-575.5874943088841
 21
128.8378700050148
 31
0.0
  0
LINE
  5
D6
330
1F
100
AcDbEntity
  8
0-F
  6
Continuous
 62
     7
370
    13
100
AcDbLine
 10
-575.5874943088841
 20
128.8378700050148
 30
0.0
 11
-570.2606716671505
 21
142.8601610338366
 31
0.0
  0
LINE
  5
D7
330
1F
100
AcDbEntity
  8
0-F
  6
Continuous
 62
     7
370
    13
100
AcDbLine
 10
-575.5874943088841
 20
128.8378700050148
 30
0.0
 11
-566.8129688984639
 21
141.0036819045608
 31
0.0
  0
LINE
  5
D8
330
1F
100
AcDbEntity
  8
0-5
  6
Continuous
 62
     6
370
    13
100
AcDbLine
 10
50.00004123997044
 20
128.8378700050148
 30
0.0
 11
50.00004123997044
 21
370.3378378378379
 31
0.0
  0
LINE
  5
D9
330
1F
100
AcDbEntity
  8
0-5
  6
Continuous
 62
     6
370
    13
100
AcDbLine
 10
50.00004123997044
 20
-138.1621943293391
 30
0.0
 11
50.00004123997044
 21
-379.6621003022065
 31
0.0
  0
LINE
  5
DA
330
1F
100
AcDbEntity
  8
0-1
  6
Continuous
 62
     4
370
    13
100
AcDbLine
 10
50.00004123997044
 20
128.8378700050148
 30
0.0
 11
50.00004123997044
 21
-138.1621943293391
 31
0.0
  0
LINE
  5
DB
330
1F
100
AcDbEntity
  8
0-F
  6
Continuous
 62
     7
370
    13
100
AcDbLine
 10
350.0000412399706
 20
305.3378708298142
 30
0.0
 11
350.0000412399706
 21
481.8378097946579
 31
0.0
  0
LINE
  5
DC
330
1F
100
AcDbEntity
  8
0-F
  6
Continuous
 62
     7
370
    13
100
AcDbLine
 10
450.0
 20
355.3379120697846
 30
0.0
 11
450.0
 21
481.8378097946579
 31
0.0
  0
LINE
  5
DD
330
1F
100
AcDbEntity
  8
0-F
  6
Continuous
 62
     7
370
    13
100
AcDbLine
 10
549.9999587600297
 20
355.3379120697846
 30
0.0
 11
549.9999587600297
 21
481.8378097946579
 31
0.0
  0
LINE
  5
DE
330
1F
100
AcDbEntity
  8
0-5
  6
Continuous
 62
     6
370
    13
100
AcDbLine
 10
450.0
 20
-354.662141542177
 30
0.0
 11
450.0
 21
345.3378790778083
 31
0.0
  0
LINE
  5
DF
330
1F
100
AcDbEntity
  8
0-5
  6
Continuous
 62
     6
370
    13
100
AcDbLine
 10
549.9999587600297
 20
-354.662141542177
 30
0.0
 11
549.9999587600297
 21
345.3378790778083
 31
0.0
  0
LINE
  5
E0
330
1F
100
AcDbEntity
  8
0-F
  6
Continuous
 62
     7
370
    13
100
AcDbLine
 10
629.9999752560177
 20
-254.6621209221917
 30
0.0
 11
629.9999752560177
 21
245.3377965978675
 31
0.0
  0
LINE
  5
E1
330
1F
100
AcDbEntity
  8
0-F
  6
Continuous
 62
     7
370
    13
100
AcDbLine
 10
689.9999257680533
 20
-304.6621621621621
 30
0.0
 11
689.9999257680533
 21
295.3378378378379
 31
0.0
  0
LINE
  5
E2
330
1F
100
AcDbEntity
  8
0-F
  6
Continuous
 62
     7
370
    13
100
AcDbLine
 10
749.9998762800888
 20
-354.662141542177
 30
0.0
 11
749.9998762800888
 21
345.3378790778083
 31
0.0
  0
LINE
  5
E3
330
1F
100
AcDbEntity
  8
0-5
  6
Continuous
 62
     6
370
    13
100
AcDbLine
 10
350.0000412399706
 20
116.2378630766997
 30
0.0
 11
350.0000412399706
 21
295.3378378378379
 31
0.0
  0
LINE
  5
E4
330
1F
100
AcDbEntity
  8
0-5
  6
Continuous
 62
     6
370
    13
100
AcDbLine
 10
50.00004123997044
 20
161.2015760267103
 30
0.0
 11
94.96381604993672
 21
116.2378630766997
 31
0.0
  0
LINE
  5
E5
330
1F
100
AcDbEntity
  8
0-5
  6
Continuous
 62
     6
370
    13
100
AcDbLine
 10
50.00004123997044
 20
165.4441792256124
 30
0.0
 11
99.20641924883881
 21
116.2378630766997
 31
0.0
  0
LINE
  5
E6
330
1F
100
AcDbEntity
  8
0-5
  6
Continuous
 62
     6
370
    13
100
AcDbLine
 10
50.00004123997044
 20
169.6867824245145
 30
0.0
 11
103.4488987278294
 21
116.2378630766997
 31
0.0
  0
LINE
  5
E7
330
1F
100
AcDbEntity
  8
0-5
  6
Continuous
 62
     6
370
    13
100
AcDbLine
 10
138.3975467166385
 20
245.3377965978675
 30
0.0
 11
214.0000626847551
 21
169.7354043496622
 31
0.0
  0
LINE
  5
E8
330
1F
100
AcDbEntity
  8
0-5
  6
Continuous
 62
     6
370
    13
100
AcDbLine
 10
134.1551909575593
 20
245.3377965978675
 30
0.0
 11
214.0000626847551
 21
165.4927392908046
 31
0.0
  0
LINE
  5
E9
330
1F
100
AcDbEntity
  8
0-5
  6
Continuous
 62
     6
370
    13
100
AcDbLine
 10
129.9124640387458
 20
245.3377965978675
 30
0.0
 11
214.0000626847551
 21
161.2501979518582
 31
0.0
  0
LINE
  5
EA
330
1F
100
AcDbEntity
  8
0-5
  6
Continuous
 62
     6
370
    13
100
AcDbLine
 10
226.0001517630913
 20
157.735315271326
 30
0.0
 11
267.4976658176732
 21
116.2378630766997
 31
0.0
  0
LINE
  5
EB
330
1F
100
AcDbEntity
  8
0-5
  6
Continuous
 62
     6
370
    13
100
AcDbLine
 10
226.0001517630913
 20
153.4926502124684
 30
0.0
 11
263.2549388988599
 21
116.2378630766997
 31
0.0
  0
LINE
  5
EC
330
1F
100
AcDbEntity
  8
0-5
  6
Continuous
 62
     6
370
    13
100
AcDbLine
 10
226.0001517630913
 20
149.250108873522
 30
0.0
 11
259.0123356999578
 21
116.2378630766997
 31
0.0
  0
LINE
  5
ED
330
1F
100
AcDbEntity
  8
0-5
  6
Continuous
 62
     6
370
    13
100
AcDbLine
 10
298.203586887669
 20
245.3377965978675
 30
0.0
 11
350.0000412399706
 21
193.5414659654772
 31
0.0
  0
LINE
  5
EE
330
1F
100
AcDbEntity
  8
0-5
  6
Continuous
 62
     6
370
    13
100
AcDbLine
 10
302.4461900865711
 20
245.3377965978675
 30
0.0
 11
350.0000412399706
 21
197.7840073044236
 31
0.0
  0
LINE
  5
EF
330
1F
100
AcDbEntity
  8
0-5
  6
Continuous
 62
     6
370
    13
100
AcDbLine
 10
293.9609836887669
 20
245.3377965978675
 30
0.0
 11
350.0000412399706
 21
189.2988627665753
 31
0.0
  0
LINE
  5
F0
330
1F
100
AcDbEntity
  8
0-F
  6
Continuous
 62
     7
370
    13
100
AcDbLine
 10
420.0000247439823
 20
-125.562187401024
 30
0.0
 11
420.0000247439823
 21
116.2378630766997
 31
0.0
  0
LINE
  5
F1
330
1F
100
AcDbEntity
  8
0-5
  6
Continuous
 62
     6
370
    13
100
AcDbLine
 10
50.00004123997044
 20
-205.2830299171242
 30
0.0
 11
99.37913224503802
 21
-254.6621209221917
 31
0.0
  0
LINE
  5
F2
330
1F
100
AcDbEntity
  8
0-5
  6
Continuous
 62
     6
370
    13
100
AcDbLine
 10
50.00004123997044
 20
-201.0404267182221
 30
0.0
 11
103.6217354439401
 21
-254.6621209221917
 31
0.0
  0
LINE
  5
F3
330
1F
100
AcDbEntity
  8
0-5
  6
Continuous
 62
     6
370
    13
100
AcDbLine
 10
50.00004123997044
 20
-196.79782351932
 30
0.0
 11
107.8643386428421
 21
-254.6621209221917
 31
0.0
  0
LINE
  5
F4
330
1F
100
AcDbEntity
  8
0-5
  6
Continuous
 62
     6
370
    13
100
AcDbLine
 10
142.81286291174
 20
-125.562187401024
 30
0.0
 11
214.0001864046664
 21
-196.7493871740393
 31
0.0
  0
LINE
  5
F5
330
1F
100
AcDbEntity
  8
0-5
  6
Continuous
 62
     6
370
    13
100
AcDbLine
 10
138.5706308725719
 20
-125.562187401024
 30
0.0
 11
214.0001864046664
 21
-200.9919285129856
 31
0.0
  0
LINE
  5
F6
330
1F
100
AcDbEntity
  8
0-5
  6
Continuous
 62
     6
370
    13
100
AcDbLine
 10
134.3276565139358
 20
-125.562187401024
 30
0.0
 11
214.0001864046664
 21
-205.234655431799
 31
0.0
  0
LINE
  5
F7
330
1F
100
AcDbEntity
  8
0-5
  6
Continuous
 62
     6
370
    13
100
AcDbLine
 10
226.00002804318
 20
-208.7492288125527
 30
0.0
 11
271.9129820127745
 21
-254.6621209221917
 31
0.0
  0
LINE
  5
F8
330
1F
100
AcDbEntity
  8
0-5
  6
Continuous
 62
     6
370
    13
100
AcDbLine
 10
226.00002804318
 20
-212.9917701514992
 30
0.0
 11
267.6703788138727
 21
-254.6621209221917
 31
0.0
  0
LINE
  5
F9
330
1F
100
AcDbEntity
  8
0-5
  6
Continuous
 62
     6
370
    13
100
AcDbLine
 10
226.00002804318
 20
-217.2344970703125
 30
0.0
 11
263.4277756149706
 21
-254.6621209221917
 31
0.0
  0
LINE
  5
FA
330
1F
100
AcDbEntity
  8
0-5
  6
Continuous
 62
     6
370
    13
100
AcDbLine
 10
306.8617537214951
 20
-125.562187401024
 30
0.0
 11
350.0000412399706
 21
-168.7005367794552
 31
0.0
  0
LINE
  5
FB
330
1F
100
AcDbEntity
  8
0-5
  6
Continuous
 62
     6
370
    13
100
AcDbLine
 10
302.619150522593
 20
-125.562187401024
 30
0.0
 11
350.0000412399706
 21
-172.9431399783572
 31
0.0
  0
LINE
  5
FC
330
1F
100
AcDbEntity
  8
0-5
  6
Continuous
 62
     6
370
    13
100
AcDbLine
 10
298.3765473236909
 20
-125.562187401024
 30
0.0
 11
350.0000412399706
 21
-177.1857431772592
 31
0.0
  0
LINE
  5
FD
330
1F
100
AcDbEntity
  8
0-5
  6
Continuous
 62
     6
370
    13
100
AcDbLine
 10
450.0
 20
-43.41550672376471
 30
0.0
 11
350.0000412399706
 21
-143.4154654837943
 31
0.0
  0
LINE
  5
FE
330
1F
100
AcDbEntity
  8
0-5
  6
Continuous
 62
     6
370
    13
100
AcDbLine
 10
350.0000412399706
 20
-304.6621621621621
 30
0.0
 11
350.0000412399706
 21
-125.562187401024
 31
0.0
  0
LINE
  5
FF
330
1F
100
AcDbEntity
  8
0-3
  6
Continuous
 62
     2
370
    13
100
AcDbLine
 10
350.0000412399706
 20
116.2378630766997
 30
0.0
 11
350.0000412399706
 21
-125.562187401024
 31
0.0
  0
LINE
  5
100
330
1F
100
AcDbEntity
  8
0-5
  6
Continuous
 62
     6
370
    13
100
AcDbLine
 10
450.0
 20
152.3418694573481
 30
0.0
 11
350.0000412399706
 21
52.3419106973185
 31
0.0
  0
LINE
  5
101
330
1F
100
AcDbEntity
  8
0-5
  6
Continuous
 62
     6
370
    13
100
AcDbLine
 10
450.0
 20
148.099266258446
 30
0.0
 11
350.0000412399706
 21
48.09924563846081
 31
0.0
  0
LINE
  5
102
330
1F
100
AcDbEntity
  8
0-5
  6
Continuous
 62
     6
370
    13
100
AcDbLine
 10
450.0
 20
156.58447265625
 30
0.0
 11
350.0000412399706
 21
56.58451389622044
 31
0.0
  0
LINE
  5
103
330
1F
100
AcDbEntity
  8
0-5
  6
Continuous
 62
     6
370
    13
100
AcDbLine
 10
388.7534476615289
 20
295.3378378378379
 30
0.0
 11
350.0000412399706
 21
256.5844932762353
 31
0.0
  0
LINE
  5
104
330
1F
100
AcDbEntity
  8
0-5
  6
Continuous
 62
     6
370
    13
100
AcDbLine
 10
392.9960508604307
 20
295.3378378378379
 30
0.0
 11
350.0000412399706
 21
252.3418900773332
 31
0.0
  0
LINE
  5
105
330
1F
100
AcDbEntity
  8
0-5
  6
Continuous
 62
     6
370
    13
100
AcDbLine
 10
397.2386540593328
 20
295.3378378378379
 30
0.0
 11
350.0000412399706
 21
248.0992868784313
 31
0.0
  0
LINE
  5
106
330
1F
100
AcDbEntity
  8
0-5
  6
Continuous
 62
     6
370
    13
100
AcDbLine
 10
450.0
 20
-247.6580893026816
 30
0.0
 11
392.9959271405195
 21
-304.6621621621621
 31
0.0
  0
LINE
  5
107
330
1F
100
AcDbEntity
  8
0-5
  6
Continuous
 62
     6
370
    13
100
AcDbLine
 10
450.0
 20
-243.4154861037796
 30
0.0
 11
388.7533239416175
 21
-304.6621621621621
 31
0.0
  0
LINE
  5
108
330
1F
100
AcDbEntity
  8
0-5
  6
Continuous
 62
     6
370
    13
100
AcDbLine
 10
450.0
 20
-251.9006925015836
 30
0.0
 11
397.2385303394216
 21
-304.6621621621621
 31
0.0
  0
LINE
  5
109
330
1F
100
AcDbEntity
  8
0-4
  6
Continuous
 62
     7
370
    13
100
AcDbLine
 10
214.0000626847551
 20
214.3377932986698
 30
0.0
 11
214.0000626847551
 21
124.2378399823164
 31
0.0
  0
LINE
  5
10A
330
1F
100
AcDbEntity
  8
0-4
  6
Continuous
 62
     7
370
    13
100
AcDbLine
 10
226.0001517630913
 20
214.3377932986698
 30
0.0
 11
226.0001517630913
 21
124.2378399823164
 31
0.0
  0
LINE
  5
10B
330
1F
100
AcDbEntity
  8
0-4
  6
Continuous
 62
     7
370
    13
100
AcDbLine
 10
214.0000626847551
 20
214.3377932986698
 30
0.0
 11
215.000090727935
 21
215.3378213418497
 31
0.0
  0
LINE
  5
10C
330
1F
100
AcDbEntity
  8
0-4
  6
Continuous
 62
     7
370
    13
100
AcDbLine
 10
225.0001237199113
 20
215.3378213418497
 30
0.0
 11
226.0001517630913
 21
214.3377932986698
 31
0.0
  0
LINE
  5
10D
330
1F
100
AcDbEntity
  8
0-4
  6
Continuous
 62
     7
370
    13
100
AcDbLine
 10
215.000090727935
 20
215.3378213418497
 30
0.0
 11
215.000090727935
 21
124.2378399823164
 31
0.0
  0
LINE
  5
10E
330
1F
100
AcDbEntity
  8
0-4
  6
Continuous
 62
     7
370
    13
100
AcDbLine
 10
215.000090727935
 20
215.3378213418497
 30
0.0
 11
225.0001237199113
 21
215.3378213418497
 31
0.0
  0
LINE
  5
10F
330
1F
100
AcDbEntity
  8
0-4
  6
Continuous
 62
     7
370
    13
100
AcDbLine
 10
225.0001237199113
 20
215.3378213418497
 30
0.0
 11
225.0001237199113
 21
124.2378399823164
 31
0.0
  0
LINE
  5
110
330
1F
100
AcDbEntity
  8
0-4
  6
Continuous
 62
     7
370
    13
100
AcDbLine
 10
214.0000626847551
 20
214.3377932986698
 30
0.0
 11
226.0001517630913
 21
214.3377932986698
 31
0.0
  0
LINE
  5
111
330
1F
100
AcDbEntity
  8
0-4
  6
Continuous
 62
     7
370
    13
100
AcDbLine
 10
214.0000626847551
 20
-223.6621176229941
 30
0.0
 11
215.000090727935
 21
-224.662145666174
 31
0.0
  0
LINE
  5
112
330
1F
100
AcDbEntity
  8
0-4
  6
Continuous
 62
     7
370
    13
100
AcDbLine
 10
225.0001237199113
 20
-224.662145666174
 30
0.0
 11
226.0001517630913
 21
-223.6621176229941
 31
0.0
  0
LINE
  5
113
330
1F
100
AcDbEntity
  8
0-4
  6
Continuous
 62
     7
370
    13
100
AcDbLine
 10
215.000090727935
 20
-224.662145666174
 30
0.0
 11
225.0001237199113
 21
-224.662145666174
 31
0.0
  0
LINE
  5
114
330
1F
100
AcDbEntity
  8
0-4
  6
Continuous
 62
     7
370
    13
100
AcDbLine
 10
214.0000626847551
 20
-223.6621176229941
 30
0.0
 11
226.0001517630913
 21
-223.6621176229941
 31
0.0
  0
LINE
  5
115
330
1F
100
AcDbEntity
  8
0-4
  6
Continuous
 62
     7
370
    13
100
AcDbLine
 10
214.0001864046664
 20
-223.6621176229941
 30
0.0
 11
214.0001864046664
 21
-133.5621643066406
 31
0.0
  0
LINE
  5
116
330
1F
100
AcDbEntity
  8
0-4
  6
Continuous
 62
     7
370
    13
100
AcDbLine
 10
226.00002804318
 20
-223.6621176229941
 30
0.0
 11
226.00002804318
 21
-133.5621643066406
 31
0.0
  0
LINE
  5
117
330
1F
100
AcDbEntity
  8
0-4
  6
Continuous
 62
     7
370
    13
100
AcDbLine
 10
215.000090727935
 20
-224.662145666174
 30
0.0
 11
215.000090727935
 21
-133.5621643066406
 31
0.0
  0
LINE
  5
118
330
1F
100
AcDbEntity
  8
0-4
  6
Continuous
 62
     7
370
    13
100
AcDbLine
 10
225.0001237199113
 20
-224.662145666174
 30
0.0
 11
225.0001237199113
 21
-133.5621643066406
 31
0.0
  0
LINE
  5
119
330
1F
100
AcDbEntity
  8
0-F
  6
Continuous
 62
     7
370
    13
100
AcDbLine
 10
240.0001732078758
 20
20.14139123865078
 30
0.0
 11
240.0001732078758
 21
324.3377850506758
 31
0.0
  0
LINE
  5
11A
330
1F
100
AcDbEntity
  8
0-F
  6
Continuous
 62
     7
370
    13
100
AcDbLine
 10
220.0001072239232
 20
235.3377636058912
 30
0.0
 11
220.0001072239232
 21
324.3377850506758
 31
0.0
  0
LINE
  5
11B
330
1F
100
AcDbEntity
  8
0-0
  6
JWW_CENTER2
 62
     7
370
    13
100
AcDbLine
 10
220.0001072239232
 20
225.3377924738705
 30
0.0
 11
220.0001072239232
 21
-234.6621786581503
 31
0.0
  0
LINE
  5
11C
330
1F
100
AcDbEntity
  8
0-2
  6
Continuous
 62
     3
370
    13
100
AcDbLine
 10
-649.999948450037
 20
128.8378700050148
 30
0.0
 11
-649.999948450037
 21
-138.1621943293391
 31
0.0
  0
LINE
  5
11D
330
1F
100
AcDbEntity
  8
0-F
  6
Continuous
 62
     7
370
    13
100
AcDbLine
 10
-819.9999216440561
 20
-138.1621943293391
 30
0.0
 11
-819.9999216440561
 21
128.8378700050148
 31
0.0
  0
LINE
  5
11E
330
1F
100
AcDbEntity
  8
0-F
  6
Continuous
 62
     7
370
    13
100
AcDbLine
 10
-659.9999195820576
 20
128.8378700050148
 30
0.0
 11
-821.499963708826
 21
128.8378700050148
 31
0.0
  0
LINE
  5
11F
330
1F
100
AcDbEntity
  8
0-F
  6
Continuous
 62
     7
370
    13
100
AcDbLine
 10
-659.9999195820576
 20
-138.1621943293391
 30
0.0
 11
-821.499963708826
 21
-138.1621943293391
 31
0.0
  0
LINE
  5
120
330
1F
100
AcDbEntity
  8
0-2
  6
Continuous
 62
     3
370
    13
100
AcDbLine
 10
-740.9999950512035
 20
126.8378757786107
 30
0.0
 11
-744.9999835040119
 21
122.8378873258025
 31
0.0
  0
LINE
  5
121
330
1F
100
AcDbEntity
  8
0-2
  6
Continuous
 62
     3
370
    13
100
AcDbLine
 10
-740.9999950512035
 20
-136.1622001029349
 30
0.0
 11
-649.999948450037
 21
-138.1621943293391
 31
0.0
  0
LINE
  5
122
330
1F
100
AcDbEntity
  8
0-2
  6
Continuous
 62
     3
370
    13
100
AcDbLine
 10
-740.9999950512035
 20
-136.1622001029349
 30
0.0
 11
-744.9999835040119
 21
-132.1622116501266
 31
0.0
  0
LINE
  5
123
330
1F
100
AcDbEntity
  8
0-2
  6
Continuous
 62
     3
370
    13
100
AcDbLine
 10
-744.9999835040119
 20
122.8378873258025
 30
0.0
 11
-744.9999835040119
 21
-132.1622116501266
 31
0.0
  0
LINE
  5
124
330
1F
100
AcDbEntity
  8
0-2
  6
Continuous
 62
     3
370
    13
100
AcDbLine
 10
-740.9999950512035
 20
126.8378757786107
 30
0.0
 11
-740.9999950512035
 21
-136.1622001029349
 31
0.0
  0
LINE
  5
125
330
1F
100
AcDbEntity
  8
0-2
  6
Continuous
 62
     3
370
    13
100
AcDbLine
 10
-740.9999950512035
 20
126.8378757786107
 30
0.0
 11
-649.999948450037
 21
128.8378700050148
 31
0.0
  0
LINE
  5
126
330
1F
100
AcDbEntity
  8
0-F
  6
Continuous
 62
     7
370
    13
100
AcDbLine
 10
-697.3797256882126
 20
127.7965813714106
 30
0.0
 11
-692.0529649064348
 21
141.8188724002323
 31
0.0
  0
LINE
  5
127
330
1F
100
AcDbEntity
  8
0-F
  6
Continuous
 62
     7
370
    13
100
AcDbLine
 10
-697.3797256882126
 20
127.7965813714106
 30
0.0
 11
-688.6052002777924
 21
139.9623932709565
 31
0.0
  0
LINE
  5
128
330
1F
100
AcDbEntity
  8
0-1
  6
Continuous
 62
     4
370
    13
100
AcDbLine
 10
-644.9999319540486
 20
128.8378700050148
 30
0.0
 11
-644.9999319540486
 21
-138.1621943293391
 31
0.0
  0
LINE
  5
129
330
1F
100
AcDbEntity
  8
0-1
  6
Continuous
 62
     4
370
    13
100
AcDbLine
 10
-644.9999319540486
 20
128.8378700050148
 30
0.0
 11
50.00004123997044
 21
128.8378700050148
 31
0.0
  0
LINE
  5
12A
330
1F
100
AcDbEntity
  8
0-1
  6
Continuous
 62
     4
370
    13
100
AcDbLine
 10
-644.9999319540486
 20
-138.1621943293391
 30
0.0
 11
50.00004123997044
 21
-138.1621943293391
 31
0.0
  0
LINE
  5
12B
330
1F
100
AcDbEntity
  8
0-0
  6
JWW_CENTER2
 62
     7
370
    13
100
AcDbLine
 10
-779.9998515361063
 20
-4.662162162162105
 30
0.0
 11
380.0000164959883
 21
-4.662162162162105
 31
0.0
  0
LINE
  5
12C
330
1F
100
AcDbEntity
  8
0-F
  6
Continuous
 62
     7
370
    13
100
AcDbLine
 10
-592.0267775252058
 20
323.4521979254646
 30
0.0
 11
-697.3797256882126
 21
127.7965813714106
 31
0.0
  0
LINE
  5
12D
330
1F
100
AcDbEntity
  8
0-F
  6
Continuous
 62
     7
370
    13
100
AcDbLine
 10
35.12841301995365
 20
478.3799619932433
 30
0.0
 11
64.87166945998737
 21
482.2956971864443
 31
0.0
  0
LINE
  5
12E
330
1F
100
AcDbEntity
  8
0-F
  6
Continuous
 62
     7
370
    13
100
AcDbLine
 10
-749.9999381400443
 20
480.3378295898438
 30
0.0
 11
549.9999587600297
 21
480.3378295898438
 31
0.0
  0
LINE
  5
12F
330
1F
100
AcDbEntity
  8
0-F
  6
Continuous
 62
     7
370
    13
100
AcDbLine
 10
35.12841301995365
 20
482.2956971864443
 30
0.0
 11
64.87166945998737
 21
478.3799619932433
 31
0.0
  0
LINE
  5
130
330
1F
100
AcDbEntity
  8
0-F
  6
Continuous
 62
     7
370
    13
100
AcDbLine
 10
-749.9999381400443
 20
480.3378295898438
 30
0.0
 11
-735.1282171300941
 21
482.2956971864443
 31
0.0
  0
LINE
  5
131
330
1F
100
AcDbEntity
  8
0-F
  6
Continuous
 62
     7
370
    13
100
AcDbLine
 10
-749.9999381400443
 20
480.3378295898438
 30
0.0
 11
-735.1282171300941
 21
478.3799619932433
 31
0.0
  0
LINE
  5
132
330
1F
100
AcDbEntity
  8
0-F
  6
Continuous
 62
     7
370
    13
100
AcDbLine
 10
-749.9999381400443
 20
5.3378089698586
 30
0.0
 11
-749.9999381400443
 21
481.8378097946579
 31
0.0
  0
LINE
  5
133
330
1F
100
AcDbEntity
  8
0-1
  6
Continuous
 62
     4
370
    13
100
AcDbLine
 10
-644.9999319540486
 20
119.914262101457
 30
0.0
 11
50.00004123997044
 21
119.914262101457
 31
0.0
  0
LINE
  5
134
330
1F
100
AcDbEntity
  8
0-1
  6
Continuous
 62
     4
370
    13
100
AcDbLine
 10
-644.9999319540486
 20
125.0120173273861
 30
0.0
 11
50.00004123997044
 21
125.0120173273861
 31
0.0
  0
LINE
  5
135
330
1F
100
AcDbEntity
  8
0-1
  6
Continuous
 62
     4
370
    13
100
AcDbLine
 10
-644.9999319540486
 20
87.65485196500222
 30
0.0
 11
50.00004123997044
 21
87.65485196500222
 31
0.0
  0
LINE
  5
136
330
1F
100
AcDbEntity
  8
0-1
  6
Continuous
 62
     4
370
    13
100
AcDbLine
 10
-644.9999319540486
 20
37.36641961175053
 30
0.0
 11
50.00004123997044
 21
37.36641961175053
 31
0.0
  0
LINE
  5
137
330
1F
100
AcDbEntity
  8
0-1
  6
Continuous
 62
     4
370
    13
100
AcDbLine
 10
-644.9999319540486
 20
31.57570916253178
 30
0.0
 11
50.00004123997044
 21
31.57570916253178
 31
0.0
  0
LINE
  5
138
330
1F
100
AcDbEntity
  8
0-1
  6
Continuous
 62
     4
370
    13
100
AcDbLine
 10
-644.9999319540486
 20
88.25650189373945
 30
0.0
 11
50.00004123997044
 21
88.25650189373945
 31
0.0
  0
LINE
  5
139
330
1F
100
AcDbEntity
  8
0-1
  6
Continuous
 62
     4
370
    13
100
AcDbLine
 10
-644.9999319540486
 20
-40.90003348685599
 30
0.0
 11
50.00004123997044
 21
-40.90003348685599
 31
0.0
  0
LINE
  5
13A
330
1F
100
AcDbEntity
  8
0-1
  6
Continuous
 62
     4
370
    13
100
AcDbLine
 10
-644.9999319540486
 20
-46.69074393607474
 30
0.0
 11
50.00004123997044
 21
-46.69074393607474
 31
0.0
  0
LINE
  5
13B
330
1F
100
AcDbEntity
  8
0-1
  6
Continuous
 62
     4
370
    13
100
AcDbLine
 10
-644.9999319540486
 20
-96.97917628932643
 30
0.0
 11
50.00004123997044
 21
-96.97917628932643
 31
0.0
  0
LINE
  5
13C
330
1F
100
AcDbEntity
  8
0-1
  6
Continuous
 62
     4
370
    13
100
AcDbLine
 10
-644.9999319540486
 20
-97.58082621806366
 30
0.0
 11
50.00004123997044
 21
-97.58082621806366
 31
0.0
  0
LINE
  5
13D
330
1F
100
AcDbEntity
  8
0-1
  6
Continuous
 62
     4
370
    13
100
AcDbLine
 10
-644.9999319540486
 20
-129.2385864257812
 30
0.0
 11
50.00004123997044
 21
-129.2385864257812
 31
0.0
  0
LINE
  5
13E
330
1F
100
AcDbEntity
  8
0-1
  6
Continuous
 62
     4
370
    13
100
AcDbLine
 10
-644.9999319540486
 20
-134.3363416517103
 30
0.0
 11
50.00004123997044
 21
-134.3363416517103
 31
0.0
  0
ARC
  5
13F
330
1F
100
AcDbEntity
  8
0-4
  6
Continuous
 62
     7
370
    13
100
AcDbCircle
 10
220.0001072239232
 20
106.237891944679
 30
0.0
 40
18.05717622911608
100
AcDbArc
 50
70.59292602539062
 51
109.4070739746094
  0
ARC
  5
140
330
1F
100
AcDbEntity
  8
0-4
  6
Continuous
 62
     7
370
    13
100
AcDbCircle
 10
211.2167358398438
 20
119.8784451871305
 30
0.0
 40
4.386721913878983
100
AcDbArc
 50
50.61749267578125
 51
96.39555358886719
  0
ARC
  5
141
330
1F
100
AcDbEntity
  8
0-4
  6
Continuous
 62
     7
370
    13
100
AcDbCircle
 10
228.9699245143582
 20
119.2484633987014
 30
0.0
 40
4.998536206580497
100
AcDbArc
 50
86.53479003906251
 51
126.4519348144532
  0
ARC
  5
142
330
1F
100
AcDbEntity
  8
0-4
  6
Continuous
 62
     7
370
    13
100
AcDbCircle
 10
220.0001072239232
 20
-115.5622162690033
 30
0.0
 40
18.05717622911608
100
AcDbArc
 50
250.5929260253907
 51
289.4070739746094
  0
ARC
  5
143
330
1F
100
AcDbEntity
  8
0-4
  6
Continuous
 62
     7
370
    13
100
AcDbCircle
 10
211.2167358398438
 20
-129.2027695114547
 30
0.0
 40
4.386721913878983
100
AcDbArc
 50
263.6044464111328
 51
309.3825073242188
  0
ARC
  5
144
330
1F
100
AcDbEntity
  8
0-4
  6
Continuous
 62
     7
370
    13
100
AcDbCircle
 10
228.9699245143582
 20
-128.5727877230257
 30
0.0
 40
4.998536206580497
100
AcDbArc
 50
233.5480651855469
 51
273.4652099609375
  0
CIRCLE
  5
145
330
1F
100
AcDbEntity
  8
0-4
  6
Continuous
 62
     7
370
    13
100
AcDbCircle
 10
240.0001732078758
 20
-4.662162162162105
 30
0.0
 40
9.499999639150259
  0
CIRCLE
  5
146
330
1F
100
AcDbEntity
  8
0-4
  6
Continuous
 62
     7
370
    13
100
AcDbCircle
 10
240.0001732078758
 20
-4.662162162162105
 30
0.0
 40
5.999999594044041
  0
CIRCLE
  5
147
330
1F
100
AcDbEntity
  8
0-4
  6
Continuous
 62
     7
370
    13
100
AcDbCircle
 10
240.0001732078758
 20
-4.662162162162105
 30
0.0
 40
4.99999958115655
  0
ARC
  5
148
330
1F
100
AcDbEntity
  8
0-2
  6
Continuous
 62
     3
370
    13
100
AcDbCircle
 10
878.1310210356842
 20
-4.662162162162105
 30
0.0
 40
1628.130897315773
100
AcDbArc
 50
175.5085296630859
 51
184.4914703369141
  0
TEXT
  5
149
330
1F
100
AcDbEntity
  8
0-F
  6
Continuous
 62
     2
370
    13
100
AcDbText
 10
183.7500412399705
 20
485.6578378378379
 30
0.0
 40
15.24
  1
300
 41
1.083333333333333
  7
ＭＳ ゴシック
100
AcDbText
  0
TEXT
  5
14A
330
1F
100
AcDbEntity
  8
0-F
  6
Continuous
 62
     2
370
    13
100
AcDbText
 10
383.7499587600297
 20
485.6578378378379
 30
0.0
 40
15.24
  1
100
 41
1.083333333333333
  7
ＭＳ ゴシック
100
AcDbText
  0
TEXT
  5
14B
330
1F
100
AcDbEntity
  8
0-F
  6
Continuous
 62
     2
370
    13
100
AcDbText
 10
483.7499175200593
 20
485.6578378378379
 30
0.0
 40
15.24
  1
100
 41
1.083333333333333
  7
ＭＳ ゴシック
100
AcDbText
  0
TEXT
  5
14C
330
1F
100
AcDbEntity
  8
0-F
  6
Continuous
 62
     7
370
    13
100
AcDbText
 10
-584.184736303381
 20
333.6753060335727
 30
0.0
 40
11.43
  1
トップ：ＦＣ２００
 41
1.148148148148148
  7
ＭＳ ゴシック
100
AcDbText
  0
TEXT
  5
14D
330
1F
100
AcDbEntity
  8
0-F
  6
Continuous
 62
     7
370
    13
100
AcDbText
 10
-516.7992153683224
 20
233.6752854135875
 30
0.0
 40
11.43
  1
本体：ＦＣ２００
 41
1.145833333333333
  7
ＭＳ ゴシック
100
AcDbText
  0
TEXT
  5
14E
330
1F
100
AcDbEntity
  8
0-F
  6
Continuous
 62
     7
370
    13
100
AcDbText
 10
-258.8909602809596
 20
-347.1734909140097
 30
0.0
 40
11.43
  1
ＳＳ４００，防錆塗装
 41
1.15
  7
ＭＳ ゴシック
100
AcDbText
  0
TEXT
  5
14F
330
1F
100
AcDbEntity
  8
0-F
  6
Continuous
 62
     2
370
    13
100
AcDbText
 10
118.7500742319468
 20
328.1578130938556
 30
0.0
 40
15.24
  1
170
 41
1.083333333333333
  7
ＭＳ ゴシック
100
AcDbText
  0
TEXT
  5
150
330
1F
100
AcDbEntity
  8
0-F
  6
Continuous
 62
     2
370
    13
100
AcDbText
 10
219.3752020758553
 20
328.1578130938556
 30
0.0
 40
15.24
  1
20
 41
1.0625
  7
ＭＳ ゴシック
100
AcDbText
  0
TEXT
  5
151
330
1F
100
AcDbEntity
  8
0-F
  6
Continuous
 62
     7
370
    13
100
AcDbText
 10
-258.8909705909522
 20
-316.7798389001794
 30
0.0
 40
11.43
  1
アンカーボルト：Ｍ１２×４４０
 41
1.155555555555555
  7
ＭＳ ゴシック
100
AcDbText
  0
TEXT
  5
152
330
1F
100
AcDbEntity
  8
0-F
  6
Continuous
 62
     2
370
    13
100
AcDbText
 10
624.6799670080237
 20
-20.91216216216218
 30
0.0
 40
15.24
  1
500
 50
90.0
 41
1.083333333333333
  7
ＭＳ ゴシック
100
AcDbText
  0
TEXT
  5
153
330
1F
100
AcDbEntity
  8
0-F
  6
Continuous
 62
     2
370
    13
100
AcDbText
 10
684.6799175200591
 20
-20.91216216216218
 30
0.0
 40
15.24
  1
600
 50
90.0
 41
1.083333333333333
  7
ＭＳ ゴシック
100
AcDbText
  0
TEXT
  5
154
330
1F
100
AcDbEntity
  8
0-F
  6
Continuous
 62
     2
370
    13
100
AcDbText
 10
744.6798680320948
 20
-20.91216216216218
 30
0.0
 40
15.24
  1
700
 50
90.0
 41
1.083333333333333
  7
ＭＳ ゴシック
100
AcDbText
  0
TEXT
  5
155
330
1F
100
AcDbEntity
  8
0-F
  6
Continuous
 62
     2
370
    13
100
AcDbText
 10
414.6800164959883
 20
-45.40720759211354
 30
0.0
 40
15.24
  1
φ241.8
 50
90.0
 41
1.107142857142857
  7
ＭＳ ゴシック
100
AcDbText
  0
TEXT
  5
156
330
1F
100
AcDbEntity
  8
0-F
  6
Continuous
 62
     7
370
    13
100
AcDbText
 10
-230.995951472102
 20
-206.1366273292335
 30
0.0
 40
11.43
  1
埋設管：２２５Ａ
 41
1.145833333333333
  7
ＭＳ ゴシック
100
AcDbText
  0
TEXT
  5
157
330
1F
100
AcDbEntity
  8
0-F
  6
Continuous
 62
     2
370
    13
100
AcDbText
 10
-825.3200536119616
 20
-34.10768869760865
 30
0.0
 40
15.24
  1
φ267
 50
90.0
 41
1.1
  7
ＭＳ ゴシック
100
AcDbText
  0
TEXT
  5
158
330
1F
100
AcDbEntity
  8
0-F
  6
Continuous
 62
     7
370
    13
100
AcDbText
 10
-230.9959576580974
 20
-236.5302793430637
 30
0.0
 40
11.43
  1
ＳＧＰ，溶融亜鉛めっき
 41
1.151515151515152
  7
ＭＳ ゴシック
100
AcDbText
  0
TEXT
  5
159
330
1F
100
AcDbEntity
  8
0-F
  6
Continuous
 62
     2
370
    13
100
AcDbText
 10
-366.2499175200591
 20
485.6578378378379
 30
0.0
 40
15.24
  1
800
 41
1.083333333333333
  7
ＭＳ ゴシック
100
AcDbText
  0
TEXT
  5
15A
330
1F
100
AcDbEntity
  8
F-5
  6
Continuous
 62
     2
370
    13
100
AcDbText
 10
-406.2501443398965
 20
-673.7341478749868
 30
0.0
 40
15.24
  1
固定式　鋳鉄製ストライプ型　車止め　Ｃ２６７０Ｈ
 41
1.119791666666667
  7
ＭＳ ゴシック
100
AcDbText
  0
TEXT
  5
15B
330
1F
100
AcDbEntity
  8
0-F
  6
Continuous
 62
     7
370
    13
100
AcDbText
 10
-584.1847589853647
 20
303.2816540197425
 30
0.0
 40
11.43
  1
亜鉛溶射＋焼付塗装
 41
1.148148148148148
  7
ＭＳ ゴシック
100
AcDbText
  0
TEXT
  5
15C
330
1F
100
AcDbEntity
  8
0-F
  6
Continuous
 62
     7
370
    13
100
AcDbText
 10
-516.7992380503061
 20
203.2816333997573
 30
0.0
 40
11.43
  1
亜鉛溶射＋焼付塗装
 41
1.148148148148148
  7
ＭＳ ゴシック
100
AcDbText
  0
LINE
  5
15D
330
1F
100
AcDbEntity
  8
0-F
  6
Continuous
 62
     7
370
    13
100
AcDbLine
 10
-524.6413359770904
 20
223.4521773054793
 30
0.0
 11
-364.9625
 21
223.4521773054793
 31
0.0
  0
ENDSEC
  0
SECTION
  2
OBJECTS
  0
DICTIONARY
  5
C
330
0
100
AcDbDictionary
281
     1
  3
ACAD_GROUP
350
D
  3
ACAD_LAYOUT
350
1A
  3
ACAD_MLEADERSTYLE
350
15F
  3
ACAD_MLINESTYLE
350
17
  3
ACAD_PLOTSETTINGS
350
19
  3
ACAD_PLOTSTYLENAME
350
E
  3
ACAD_TABLESTYLE
350
15E
  3
ACAD_VISUALSTYLE
350
2A
  0
DICTIONARY
  5
D
102
{ACAD_REACTORS
330
C
102
}
330
C
100
AcDbDictionary
281
     1
  0
DICTIONARY
  5
1A
102
{ACAD_REACTORS
330
C
102
}
330
C
100
AcDbDictionary
281
     1
  3
Layout1
350
1E
  3
Layout2
350
26
  3
Model
350
22
  0
DICTIONARY
  5
15F
102
{ACAD_REACTORS
330
C
102
}
330
C
100
AcDbDictionary
281
     1
  0
DICTIONARY
  5
17
102
{ACAD_REACTORS
330
C
102
}
330
C
100
AcDbDictionary
281
     1
  3
Standard
350
18
  0
DICTIONARY
  5
19
102
{ACAD_REACTORS
330
C
102
}
330
C
100
AcDbDictionary
281
     1
  0
ACDBDICTIONARYWDFLT
  5
E
102
{ACAD_REACTORS
330
C
102
}
330
C
100
AcDbDictionary
281
     1
  3
Normal
350
F
100
AcDbDictionaryWithDefault
340
F
  0
DICTIONARY
  5
15E
102
{ACAD_REACTORS
330
C
102
}
330
C
100
AcDbDictionary
281
     1
  0
DICTIONARY
  5
2A
102
{ACAD_REACTORS
330
C
102
}
330
C
100
AcDbDictionary
281
     1
  3
2dWireframe
350
2F
  3
3D Hidden
350
31
  3
3dWireframe
350
30
  3
Basic
350
32
  3
Brighten
350
36
  3
ColorChange
350
3A
  3
Conceptual
350
34
  3
Dim
350
35
  3
Facepattern
350
39
  3
Flat
350
2B
  3
FlatWithEdges
350
2C
  3
Gouraud
350
2D
  3
GouraudWithEdges
350
2E
  3
Linepattern
350
38
  3
Realistic
350
33
  3
Thicken
350
37
  0
LAYOUT
  5
1E
102
{ACAD_REACTORS
330
1A
102
}
330
1A
100
AcDbPlotSettings
  1

  2
none_device
  4

  6

 40
0.0
 41
0.0
 42
0.0
 43
0.0
 44
0.0
 45
0.0
 46
0.0
 47
0.0
 48
0.0
 49
0.0
140
0.0
141
0.0
142
1.0
143
1.0
 70
   688
 72
     0
 73
     0
 74
     5
  7

 75
    16
 76
     0
 77
     5
 78
   300
147
1.0
148
0.0
149
0.0
100
AcDbLayout
  1
Layout1
 70
     1
 71
     1
 10
0.0
 20
0.0
 11
420.0
 21
297.0
 12
0.0
 22
0.0
 32
0.0
 14
1.000000000000000E+20
 24
1.000000000000000E+20
 34
1.000000000000000E+20
 15
-1.000000000000000E+20
 25
-1.000000000000000E+20
 35
-1.000000000000000E+20
146
0.0
 13
0.0
 23
0.0
 33
0.0
 16
1.0
 26
0.0
 36
0.0
 17
0.0
 27
1.0
 37
0.0
 76
     0
330
1B
  0
LAYOUT
  5
26
102
{ACAD_REACTORS
330
1A
102
}
330
1A
100
AcDbPlotSettings
  1

  2
none_device
  4

  6

 40
0.0
 41
0.0
 42
0.0
 43
0.0
 44
0.0
 45
0.0
 46
0.0
 47
0.0
 48
0.0
 49
0.0
140
0.0
141
0.0
142
1.0
143
1.0
 70
   688
 72
     0
 73
     0
 74
     5
  7

 75
    16
 76
     0
 77
     5
 78
   300
147
1.0
148
0.0
149
0.0
100
AcDbLayout
  1
Layout2
 70
     1
 71
     2
 10
0.0
 20
0.0
 11
0.0
 21
0.0
 12
0.0
 22
0.0
 32
0.0
 14
0.0
 24
0.0
 34
0.0
 15
0.0
 25
0.0
 35
0.0
146
0.0
 13
0.0
 23
0.0
 33
0.0
 16
1.0
 26
0.0
 36
0.0
 17
0.0
 27
1.0
 37
0.0
 76
     0
330
23
  0
LAYOUT
  5
22
102
{ACAD_REACTORS
330
1A
102
}
330
1A
100
AcDbPlotSettings
  1

  2
none_device
  4

  6

 40
0.0
 41
0.0
 42
0.0
 43
0.0
 44
0.0
 45
0.0
 46
0.0
 47
0.0
 48
0.0
 49
0.0
140
0.0
141
0.0
142
1.0
143
1.0
 70
  1712
 72
     0
 73
     0
 74
     0
  7

 75
     0
 76
     0
 77
     5
 78
   300
147
1.0
148
0.0
149
0.0
100
AcDbLayout
  1
Model
 70
     1
 71
     0
 10
-1050.0
 20
-742.5
 11
1050.0
 21
742.5
 12
0.0
 22
0.0
 32
0.0
 14
-1050.0
 24
-742.5
 34
0.0
 15
1050.0
 25
742.5
 35
0.0
146
0.0
 13
0.0
 23
0.0
 33
0.0
 16
1.0
 26
0.0
 36
0.0
 17
0.0
 27
1.0
 37
0.0
 76
     0
330
1F
331
29
  0
MLINESTYLE
  5
18
102
{ACAD_REACTORS
330
17
102
}
330
17
100
AcDbMlineStyle
  2
Standard
 70
     0
  3

 62
   256
 51
90.0
 52
90.0
 71
     2
 49
0.5
 62
   256
  6
BYLAYER
 49
-0.5
 62
   256
  6
BYLAYER
  0
ACDBPLACEHOLDER
  5
F
102
{ACAD_REACTORS
330
E
102
}
330
E
  0
VISUALSTYLE
  5
2F
102
{ACAD_REACTORS
330
2A
102
}
330
2A
100
AcDbVisualStyle
  2
2dWireframe
 70
     4
 71
     0
 72
     2
 73
     0
 90
        0
 40
-0.6
 41
-30.0
 62
     5
 63
     7
421
 16777215
 74
     1
 91
        4
 64
     7
 65
   257
 75
     1
175
     1
 42
1.0
 92
        0
 66
   257
 43
1.0
 76
     1
 77
     6
 78
     2
 67
     7
 79
     5
170
     0
171
     0
290
     0
174
     0
 93
        1
 44
0.0
173
     0
291
     0
 45
0.0
1001
ACAD
1000
AcDbSavedByObjectVersion
1070
     0
  0
VISUALSTYLE
  5
31
102
{ACAD_REACTORS
330
2A
102
}
330
2A
100
AcDbVisualStyle
  2
3D Hidden
 70
     6
 71
     1
 72
     2
 73
     2
 90
        0
 40
-0.6
 41
-30.0
 62
     5
 63
     7
421
 16777215
 74
     2
 91
        2
 64
     7
 65
   257
 75
     2
175
     1
 42
40.0
 92
        0
 66
   257
 43
1.0
 76
     1
 77
     6
 78
     2
 67
     7
 79
     3
170
     0
171
     0
290
     0
174
     0
 93
        1
 44
0.0
173
     0
291
     0
 45
0.0
1001
ACAD
1000
AcDbSavedByObjectVersion
1070
     0
  0
VISUALSTYLE
  5
30
102
{ACAD_REACTORS
330
2A
102
}
330
2A
100
AcDbVisualStyle
  2
3dWireframe
 70
     5
 71
     0
 72
     2
 73
     0
 90
        0
 40
-0.6
 41
-30.0
 62
     5
 63
     7
421
 16777215
 74
     1
 91
        4
 64
     7
 65
   257
 75
     1
175
     1
 42
1.0
 92
        0
 66
   257
 43
1.0
 76
     1
 77
     6
 78
     2
 67
     7
 79
     5
170
     0
171
     0
290
     0
174
     0
 93
        1
 44
0.0
173
     0
291
     0
 45
0.0
1001
ACAD
1000
AcDbSavedByObjectVersion
1070
     0
  0
VISUALSTYLE
  5
32
102
{ACAD_REACTORS
330
2A
102
}
330
2A
100
AcDbVisualStyle
  2
Basic
 70
     7
 71
     1
 72
     0
 73
     1
 90
        0
 40
-0.6
 41
-30.0
 62
     5
 63
     7
421
 16777215
 74
     0
 91
        4
 64
     7
 65
   257
 75
     1
175
     1
 42
1.0
 92
        8
 66
     7
 43
1.0
 76
     1
 77
     6
 78
     2
 67
     7
 79
     5
170
     0
171
     0
290
     0
174
     0
 93
        1
 44
0.0
173
     0
291
     1
 45
0.0
1001
ACAD
1000
AcDbSavedByObjectVersion
1070
     0
  0
VISUALSTYLE
  5
36
102
{ACAD_REACTORS
330
2A
102
}
330
2A
100
AcDbVisualStyle
  2
Brighten
 70
    12
 71
     2
 72
     2
 73
     0
 90
        0
 40
-0.6
 41
-30.0
 62
     5
 63
     7
421
 16777215
 74
     1
 91
        4
 64
     7
 65
   257
 75
     1
175
     1
 42
1.0
 92
        8
 66
     7
 43
1.0
 76
     1
 77
     6
 78
     2
 67
     7
 79
     5
170
     0
171
     0
290
     0
174
     0
 93
        1
 44
50.0
173
     0
291
     1
 45
0.0
1001
ACAD
1000
AcDbSavedByObjectVersion
1070
     0
  0
VISUALSTYLE
  5
3A
102
{ACAD_REACTORS
330
2A
102
}
330
2A
100
AcDbVisualStyle
  2
ColorChange
 70
    16
 71
     2
 72
     2
 73
     3
 90
        0
 40
-0.6
 41
-30.0
 62
     5
 63
     8
421
  8421504
 74
     1
 91
        4
 64
     7
 65
   257
 75
     1
175
     1
 42
1.0
 92
        8
 66
     8
424
  8421504
 43
1.0
 76
     1
 77
     6
 78
     2
 67
     7
 79
     5
170
     0
171
     0
290
     0
174
     0
 93
        1
 44
0.0
173
     0
291
     1
 45
0.0
1001
ACAD
1000
AcDbSavedByObjectVersion
1070
     0
  0
VISUALSTYLE
  5
34
102
{ACAD_REACTORS
330
2A
102
}
330
2A
100
AcDbVisualStyle
  2
Conceptual
 70
     9
 71
     3
 72
     2
 73
     0
 90
        0
 40
-0.6
 41
-30.0
 62
     5
 63
     7
421
 16777215
 74
     2
 91
        2
 64
     7
 65
   257
 75
     1
175
     1
 42
40.0
 92
        8
 66
     7
 43
1.0
 76
     1
 77
     6
 78
     2
 67
     7
 79
     3
170
     0
171
     0
290
     0
174
     0
 93
        1
 44
0.0
173
     0
291
     0
 45
0.0
1001
ACAD
1000
AcDbSavedByObjectVersion
1070
     0
  0
VISUALSTYLE
  5
35
102
{ACAD_REACTORS
330
2A
102
}
330
2A
100
AcDbVisualStyle
  2
Dim
 70
    11
 71
     2
 72
     2
 73
     0
 90
        0
 40
-0.6
 41
-30.0
 62
     5
 63
     7
421
 16777215
 74
     1
 91
        4
 64
     7
 65
   257
 75
     1
175
     1
 42
1.0
 92
        8
 66
     7
 43
1.0
 76
     1
 77
     6
 78
     2
 67
     7
 79
     5
170
     0
171
     0
290
     0
174
     0
 93
        1
 44
-50.0
173
     0
291
     1
 45
0.0
1001
ACAD
1000
AcDbSavedByObjectVersion
1070
     0
  0
VISUALSTYLE
  5
39
102
{ACAD_REACTORS
330
2A
102
}
330
2A
100
AcDbVisualStyle
  2
Facepattern
 70
    15
 71
     2
 72
     2
 73
     0
 90
        0
 40
-0.6
 41
-30.0
 62
     5
 63
     7
421
 16777215
 74
     1
 91
        4
 64
     7
 65
   257
 75
     1
175
     1
 42
1.0
 92
        8
 66
     7
 43
1.0
 76
     1
 77
     6
 78
     2
 67
     7
 79
     5
170
     0
171
     0
290
     0
174
     0
 93
        1
 44
0.0
173
     0
291
     1
 45
0.0
1001
ACAD
1000
AcDbSavedByObjectVersion
1070
     0
  0
VISUALSTYLE
  5
2B
102
{ACAD_REACTORS
330
2A
102
}
330
2A
100
AcDbVisualStyle
  2
Flat
 70
     0
 71
     2
 72
     1
 73
     1
 90
        2
 40
-0.6
 41
30.0
 62
     5
 63
     7
421
 16777215
 74
     0
 91
        4
 64
     7
 65
   257
 75
     1
175
     1
 42
1.0
 92
        8
 66
     7
 43
1.0
 76
     1
 77
     6
 78
     2
 67
     7
 79
     5
170
     0
171
     0
290
     0
174
     0
 93
       13
 44
0.0
173
     0
291
     1
 45
0.0
1001
ACAD
1000
AcDbSavedByObjectVersion
1070
     0
  0
VISUALSTYLE
  5
2C
102
{ACAD_REACTORS
330
2A
102
}
330
2A
100
AcDbVisualStyle
  2
FlatWithEdges
 70
     1
 71
     2
 72
     1
 73
     1
 90
        2
 40
-0.6
 41
30.0
 62
     5
 63
     7
421
 16777215
 74
     1
 91
        4
 64
     7
 65
   257
 75
     1
175
     1
 42
1.0
 92
        0
 66
   257
 43
1.0
 76
     1
 77
     6
 78
     2
 67
     7
 79
     5
170
     0
171
     0
290
     0
174
     0
 93
       13
 44
0.0
173
     0
291
     1
 45
0.0
1001
ACAD
1000
AcDbSavedByObjectVersion
1070
     0
  0
VISUALSTYLE
  5
2D
102
{ACAD_REACTORS
330
2A
102
}
330
2A
100
AcDbVisualStyle
  2
Gouraud
 70
     2
 71
     2
 72
     2
 73
     1
 90
        2
 40
-0.6
 41
30.0
 62
     5
 63
     7
421
 16777215
 74
     0
 91
        4
 64
     7
 65
   257
 75
     1
175
     1
 42
1.0
 92
        0
 66
     7
 43
1.0
 76
     1
 77
     6
 78
     2
 67
     7
 79
     5
170
     0
171
     0
290
     0
174
     0
 93
       13
 44
0.0
173
     0
291
     1
 45
0.0
1001
ACAD
1000
AcDbSavedByObjectVersion
1070
     0
  0
VISUALSTYLE
  5
2E
102
{ACAD_REACTORS
330
2A
102
}
330
2A
100
AcDbVisualStyle
  2
GouraudWithEdges
 70
     3
 71
     2
 72
     2
 73
     1
 90
        2
 40
-0.6
 41
30.0
 62
     5
 63
     7
421
 16777215
 74
     1
 91
        4
 64
     7
 65
   257
 75
     1
175
     1
 42
1.0
 92
        0
 66
   257
 43
1.0
 76
     1
 77
     6
 78
     2
 67
     7
 79
     5
170
     0
171
     0
290
     0
174
     0
 93
       13
 44
0.0
173
     0
291
     1
 45
0.0
1001
ACAD
1000
AcDbSavedByObjectVersion
1070
     0
  0
VISUALSTYLE
  5
38
102
{ACAD_REACTORS
330
2A
102
}
330
2A
100
AcDbVisualStyle
  2
Linepattern
 70
    14
 71
     2
 72
     2
 73
     0
 90
        0
 40
-0.6
 41
-30.0
 62
     5
 63
     7
421
 16777215
 74
     1
 91
        4
 64
     7
 65
   257
 75
     7
175
     7
 42
1.0
 92
        8
 66
     7
 43
1.0
 76
     1
 77
     6
 78
     2
 67
     7
 79
     5
170
     0
171
     0
290
     0
174
     0
 93
        1
 44
0.0
173
     0
291
     1
 45
0.0
1001
ACAD
1000
AcDbSavedByObjectVersion
1070
     0
  0
VISUALSTYLE
  5
33
102
{ACAD_REACTORS
330
2A
102
}
330
2A
100
AcDbVisualStyle
  2
Realistic
 70
     8
 71
     2
 72
     2
 73
     0
 90
        0
 40
-0.6
 41
-30.0
 62
     5
 63
     7
421
 16777215
 74
     1
 91
        0
 64
     7
 65
   257
 75
     1
175
     1
 42
1.0
 92
        8
 66
     8
424
  7895160
 43
1.0
 76
     1
 77
     6
 78
     2
 67
     7
 79
     5
170
     0
171
     0
290
     0
174
     0
 93
       13
 44
0.0
173
     0
291
     0
 45
0.0
1001
ACAD
1000
AcDbSavedByObjectVersion
1070
     0
  0
VISUALSTYLE
  5
37
102
{ACAD_REACTORS
330
2A
102
}
330
2A
100
AcDbVisualStyle
  2
Thicken
 70
    13
 71
     2
 72
     2
 73
     0
 90
        0
 40
-0.6
 41
-30.0
 62
     5
 63
     7
421
 16777215
 74
     1
 91
        4
 64
     7
 65
   257
 75
     1
175
     1
 42
1.0
 92
       12
 66
     7
 43
1.0
 76
     1
 77
     6
 78
     2
 67
     7
 79
     5
170
     0
171
     0
290
     0
174
     0
 93
        1
 44
0.0
173
     0
291
     1
 45
0.0
1001
ACAD
1000
AcDbSavedByObjectVersion
1070
     0
  0
ENDSEC
  0
EOF
