  0
SECTION
  2
HEADER
  9
$ACADVER
  1
AC1018
  9
$ACADMAINTVER
 70
     0
  9
$DWGCODEPAGE
  3
ANSI_932
  9
$INSBASE
 10
0.0
 20
0.0
 30
0.0
  9
$EXTMIN
 10
-630.0
 20
-445.5
 30
0.0
  9
$EXTMAX
 10
630.0
 20
445.5
 30
0.0
  9
$LIMMIN
 10
-630.0
 20
-445.5
  9
$LIMMAX
 10
630.0
 20
445.5
  9
$ORTHOMODE
 70
     0
  9
$REGENMODE
 70
     1
  9
$FILLMODE
 70
     1
  9
$QTEXTMODE
 70
     0
  9
$MIRRTEXT
 70
     1
  9
$LTSCALE
 40
3.0
  9
$ATTMODE
 70
     1
  9
$TEXTSIZE
 40
2.5
  9
$TRACEWID
 40
1.0
  9
$TEXTSTYLE
  7
Standard
  9
$CLAYER
  8
0
  9
$CELTYPE
  6
ByLayer
  9
$CECOLOR
 62
   256
  9
$CELTSCALE
 40
1.0
  9
$DISPSILH
 70
     0
  9
$DIMSCALE
 40
1.0
  9
$DIMASZ
 40
2.5
  9
$DIMEXO
 40
0.625
  9
$DIMDLI
 40
3.75
  9
$DIMRND
 40
0.0
  9
$DIMDLE
 40
0.0
  9
$DIMEXE
 40
1.25
  9
$DIMTP
 40
0.0
  9
$DIMTM
 40
0.0
  9
$DIMTXT
 40
2.5
  9
$DIMCEN
 40
2.5
  9
$DIMTSZ
 40
0.0
  9
$DIMTOL
 70
     0
  9
$DIMLIM
 70
     0
  9
$DIMTIH
 70
     0
  9
$DIMTOH
 70
     0
  9
$DIMSE1
 70
     0
  9
$DIMSE2
 70
     0
  9
$DIMTAD
 70
     1
  9
$DIMZIN
 70
     8
  9
$DIMBLK
  1

  9
$DIMASO
 70
     1
  9
$DIMSHO
 70
     1
  9
$DIMPOST
  1

  9
$DIMAPOST
  1

  9
$DIMALT
 70
     0
  9
$DIMALTD
 70
     3
  9
$DIMALTF
 40
0.03937007874016
  9
$DIMLFAC
 40
1.0
  9
$DIMTOFL
 70
     1
  9
$DIMTVP
 40
0.0
  9
$DIMTIX
 70
     0
  9
$DIMSOXD
 70
     0
  9
$DIMSAH
 70
     0
  9
$DIMBLK1
  1

  9
$DIMBLK2
  1

  9
$DIMSTYLE
  2
ISO-25
  9
$DIMCLRD
 70
     0
  9
$DIMCLRE
 70
     0
  9
$DIMCLRT
 70
     0
  9
$DIMTFAC
 40
1.0
  9
$DIMGAP
 40
0.625
  9
$DIMJUST
 70
     0
  9
$DIMSD1
 70
     0
  9
$DIMSD2
 70
     0
  9
$DIMTOLJ
 70
     0
  9
$DIMTZIN
 70
     8
  9
$DIMALTZ
 70
     0
  9
$DIMALTTZ
 70
     0
  9
$DIMUPT
 70
     0
  9
$DIMDEC
 70
     2
  9
$DIMTDEC
 70
     2
  9
$DIMALTU
 70
     2
  9
$DIMALTTD
 70
     3
  9
$DIMTXSTY
  7
Standard
  9
$DIMAUNIT
 70
     0
  9
$DIMADEC
 70
     0
  9
$DIMALTRND
 40
0.0
  9
$DIMAZIN
 70
     0
  9
$DIMDSEP
 70
    44
  9
$DIMATFIT
 70
     3
  9
$DIMFRAC
 70
     0
  9
$DIMLDRBLK
  1

  9
$DIMLUNIT
 70
     2
  9
$DIMLWD
 70
    -2
  9
$DIMLWE
 70
    -2
  9
$DIMTMOVE
 70
     0
  9
$LUNITS
 70
     2
  9
$LUPREC
 70
     4
  9
$SKETCHINC
 40
1.0
  9
$FILLETRAD
 40
10.0
  9
$AUNITS
 70
     0
  9
$AUPREC
 70
     0
  9
$MENU
  1
.
  9
$ELEVATION
 40
0.0
  9
$PELEVATION
 40
0.0
  9
$THICKNESS
 40
0.0
  9
$LIMCHECK
 70
     0
  9
$CHAMFERA
 40
10.0
  9
$CHAMFERB
 40
10.0
  9
$CHAMFERC
 40
20.0
  9
$CHAMFERD
 40
0.0
  9
$SKPOLY
 70
     0
  9
$TDCREATE
 40
2458089.721305058
  9
$TDUCREATE
 40
2458089.346305058
  9
$TDUPDATE
 40
2458089.72130507
  9
$TDUUPDATE
 40
2458089.34630507
  9
$TDINDWG
 40
0.0000000116
  9
$TDUSRTIMER
 40
0.0000000116
  9
$USRTIMER
 70
     1
  9
$ANGBASE
 50
0.0
  9
$ANGDIR
 70
     0
  9
$PDMODE
 70
     0
  9
$PDSIZE
 40
0.0
  9
$PLINEWID
 40
0.0
  9
$SPLFRAME
 70
     0
  9
$SPLINETYPE
 70
     6
  9
$SPLINESEGS
 70
     8
  9
$HANDSEED
  5
5B6
  9
$SURFTAB1
 70
     6
  9
$SURFTAB2
 70
     6
  9
$SURFTYPE
 70
     6
  9
$SURFU
 70
     6
  9
$SURFV
 70
     6
  9
$UCSBASE
  2

  9
$UCSNAME
  2

  9
$UCSORG
 10
0.0
 20
0.0
 30
0.0
  9
$UCSXDIR
 10
1.0
 20
0.0
 30
0.0
  9
$UCSYDIR
 10
0.0
 20
1.0
 30
0.0
  9
$UCSORTHOREF
  2

  9
$UCSORTHOVIEW
 70
     0
  9
$UCSORGTOP
 10
0.0
 20
0.0
 30
0.0
  9
$UCSORGBOTTOM
 10
0.0
 20
0.0
 30
0.0
  9
$UCSORGLEFT
 10
0.0
 20
0.0
 30
0.0
  9
$UCSORGRIGHT
 10
0.0
 20
0.0
 30
0.0
  9
$UCSORGFRONT
 10
0.0
 20
0.0
 30
0.0
  9
$UCSORGBACK
 10
0.0
 20
0.0
 30
0.0
  9
$PUCSBASE
  2

  9
$PUCSNAME
  2

  9
$PUCSORG
 10
0.0
 20
0.0
 30
0.0
  9
$PUCSXDIR
 10
1.0
 20
0.0
 30
0.0
  9
$PUCSYDIR
 10
0.0
 20
1.0
 30
0.0
  9
$PUCSORTHOREF
  2

  9
$PUCSORTHOVIEW
 70
     0
  9
$PUCSORGTOP
 10
0.0
 20
0.0
 30
0.0
  9
$PUCSORGBOTTOM
 10
0.0
 20
0.0
 30
0.0
  9
$PUCSORGLEFT
 10
0.0
 20
0.0
 30
0.0
  9
$PUCSORGRIGHT
 10
0.0
 20
0.0
 30
0.0
  9
$PUCSORGFRONT
 10
0.0
 20
0.0
 30
0.0
  9
$PUCSORGBACK
 10
0.0
 20
0.0
 30
0.0
  9
$USERI1
 70
     0
  9
$USERI2
 70
     0
  9
$USERI3
 70
     0
  9
$USERI4
 70
     0
  9
$USERI5
 70
     0
  9
$USERR1
 40
0.0
  9
$USERR2
 40
0.0
  9
$USERR3
 40
0.0
  9
$USERR4
 40
0.0
  9
$USERR5
 40
0.0
  9
$WORLDVIEW
 70
     1
  9
$SHADEDGE
 70
     3
  9
$SHADEDIF
 70
    70
  9
$TILEMODE
 70
     1
  9
$MAXACTVP
 70
    64
  9
$PINSBASE
 10
0.0
 20
0.0
 30
0.0
  9
$PLIMCHECK
 70
     0
  9
$PEXTMIN
 10
1.000000000000000E+20
 20
1.000000000000000E+20
 30
1.000000000000000E+20
  9
$PEXTMAX
 10
-1.000000000000000E+20
 20
-1.000000000000000E+20
 30
-1.000000000000000E+20
  9
$PLIMMIN
 10
0.0
 20
0.0
  9
$PLIMMAX
 10
420.0
 20
297.0
  9
$UNITMODE
 70
     0
  9
$VISRETAIN
 70
     1
  9
$PLINEGEN
 70
     0
  9
$PSLTSCALE
 70
     1
  9
$TREEDEPTH
 70
  3020
  9
$CMLSTYLE
  2
Standard
  9
$CMLJUST
 70
     0
  9
$CMLSCALE
 40
20.0
  9
$PROXYGRAPHICS
 70
     1
  9
$MEASUREMENT
 70
     1
  9
$CELWEIGHT
370
    -1
  9
$ENDCAPS
280
     0
  9
$JOINSTYLE
280
     0
  9
$LWDISPLAY
290
     0
  9
$INSUNITS
 70
     4
  9
$HYPERLINKBASE
  1

  9
$STYLESHEET
  1

  9
$XEDIT
290
     1
  9
$CEPSNTYPE
380
     0
  9
$PSTYLEMODE
290
     1
  9
$FINGERPRINTGUID
  2
{30D1E921-3F83-48BF-B7D2-D1640A27CB24}
  9
$VERSIONGUID
  2
{FAEB1C32-E019-11D5-929B-00C0DF256EC4}
  9
$EXTNAMES
290
     1
  9
$PSVPSCALE
 40
0.0
  9
$OLESTARTUP
290
     0
  9
$SORTENTS
280
   127
  9
$INDEXCTL
280
     0
  9
$HIDETEXT
280
     1
  9
$XCLIPFRAME
290
     0
  9
$HALOGAP
280
     0
  9
$OBSCOLOR
 70
   257
  9
$OBSLTYPE
280
     0
  9
$INTERSECTIONDISPLAY
280
     0
  9
$INTERSECTIONCOLOR
 70
   257
  9
$DIMASSOC
280
     2
  9
$PROJECTNAME
  1

  0
ENDSEC
  0
SECTION
  2
CLASSES
  0
CLASS
  1
ACDBDICTIONARYWDFLT
  2
AcDbDictionaryWithDefault
  3
ObjectDBX Classes
 90
        0
 91
        4
280
     0
281
     0
  0
CLASS
  1
VISUALSTYLE
  2
AcDbVisualStyle
  3
ObjectDBX Classes
 90
     4095
 91
        4
280
     0
281
     0
  0
ENDSEC
  0
SECTION
  2
TABLES
  0
TABLE
  2
VPORT
  5
8
330
0
100
AcDbSymbolTable
 70
     1
  0
VPORT
  5
29
330
8
100
AcDbSymbolTableRecord
100
AcDbViewportTableRecord
  2
*Active
 70
     0
 10
0.0
 20
0.0
 11
1.0
 21
1.0
 12
0.0
 22
0.0
 13
0.0
 23
0.0
 14
10.0
 24
10.0
 15
10.0
 25
10.0
 16
0.0
 26
0.0
 36
1.0
 17
0.0
 27
0.0
 37
0.0
 40
980.1
 41
1.414141414141414
 42
50.0
 43
0.0
 44
0.0
 50
0.0
 51
0.0
 71
     0
 72
 10000
 73
     1
 74
     3
 75
     0
 76
     0
 77
     0
 78
     0
281
     0
 65
     1
110
0.0
120
0.0
130
0.0
111
1.0
121
0.0
131
0.0
112
0.0
122
1.0
132
0.0
 79
     0
146
0.0
  0
ENDTAB
  0
TABLE
  2
LTYPE
  5
5
330
0
100
AcDbSymbolTable
 70
     4
  0
LTYPE
  5
14
330
5
100
AcDbSymbolTableRecord
100
AcDbLinetypeTableRecord
  2
ByBlock
 70
     0
  3

 72
    65
 73
     0
 40
0.0
  0
LTYPE
  5
15
330
5
100
AcDbSymbolTableRecord
100
AcDbLinetypeTableRecord
  2
ByLayer
 70
     0
  3

 72
    65
 73
     0
 40
0.0
  0
LTYPE
  5
16
330
5
100
AcDbSymbolTableRecord
100
AcDbLinetypeTableRecord
  2
Continuous
 70
     0
  3
Solid line
 72
    65
 73
     0
 40
0.0
  0
LTYPE
  5
3C
330
5
100
AcDbSymbolTableRecord
100
AcDbLinetypeTableRecord
  2
JWW_HOJO
 70
     0
  3
  -   -   -   -   -   -   -   - 
 72
    65
 73
     2
 40
1.693333333333333
 49
-1.27
 74
     0
 49
0.4233333333333333
 74
     0
  0
LTYPE
  5
3D
330
5
100
AcDbSymbolTableRecord
100
AcDbLinetypeTableRecord
  2
JWW_DASHED1
 70
     0
  3
-  --  --  --  --  --  --  --  -
 72
    65
 73
     2
 40
1.693333333333333
 49
0.8466666666666667
 74
     0
 49
-0.8466666666666667
 74
     0
  0
LTYPE
  5
3E
330
5
100
AcDbSymbolTableRecord
100
AcDbLinetypeTableRecord
  2
JWW_CENTER1
 70
     0
  3
-----  --  ----------  --  -----
 72
    65
 73
     4
 40
6.773333333333333
 49
4.233333333333333
 74
     0
 49
-0.8466666666666667
 74
     0
 49
0.8466666666666667
 74
     0
 49
-0.8466666666666667
 74
     0
  0
ENDTAB
  0
TABLE
  2
LAYER
  5
2
330
0
100
AcDbSymbolTable
 70
    13
  0
LAYER
  5
10
330
2
100
AcDbSymbolTableRecord
100
AcDbLayerTableRecord
  2
0
 70
     0
 62
     7
  6
Continuous
370
    -3
390
F
  0
LAYER
  5
3F
330
2
100
AcDbSymbolTableRecord
100
AcDbLayerTableRecord
  2
1-6
 70
     0
 62
     7
  6
Continuous
370
    -3
390
F
  0
LAYER
  5
40
330
2
100
AcDbSymbolTableRecord
100
AcDbLayerTableRecord
  2
1-0
 70
     0
 62
     7
  6
Continuous
370
    -3
390
F
  0
LAYER
  5
41
330
2
100
AcDbSymbolTableRecord
100
AcDbLayerTableRecord
  2
1-1
 70
     0
 62
     7
  6
Continuous
370
    -3
390
F
  0
LAYER
  5
42
330
2
100
AcDbSymbolTableRecord
100
AcDbLayerTableRecord
  2
1-2
 70
     0
 62
     7
  6
Continuous
370
    -3
390
F
  0
LAYER
  5
43
330
2
100
AcDbSymbolTableRecord
100
AcDbLayerTableRecord
  2
1-3
 70
     0
 62
     7
  6
Continuous
370
    -3
390
F
  0
LAYER
  5
44
330
2
100
AcDbSymbolTableRecord
100
AcDbLayerTableRecord
  2
1-4
 70
     0
 62
     7
  6
Continuous
370
    -3
390
F
  0
LAYER
  5
45
330
2
100
AcDbSymbolTableRecord
100
AcDbLayerTableRecord
  2
1-E
 70
     0
 62
     7
  6
Continuous
370
    -3
390
F
  0
LAYER
  5
46
330
2
100
AcDbSymbolTableRecord
100
AcDbLayerTableRecord
  2
1-9
 70
     0
 62
     7
  6
Continuous
370
    -3
390
F
  0
LAYER
  5
47
330
2
100
AcDbSymbolTableRecord
100
AcDbLayerTableRecord
  2
1-B
 70
     0
 62
     7
  6
Continuous
370
    -3
390
F
  0
LAYER
  5
48
330
2
100
AcDbSymbolTableRecord
100
AcDbLayerTableRecord
  2
F-4
 70
     0
 62
     7
  6
Continuous
370
    -3
390
F
  0
LAYER
  5
49
330
2
100
AcDbSymbolTableRecord
100
AcDbLayerTableRecord
  2
F-5
 70
     0
 62
     7
  6
Continuous
370
    -3
390
F
  0
LAYER
  5
4A
330
2
100
AcDbSymbolTableRecord
100
AcDbLayerTableRecord
  2
1-5
 70
     0
 62
     7
  6
Continuous
370
    -3
390
F
  0
ENDTAB
  0
TABLE
  2
STYLE
  5
3
330
0
100
AcDbSymbolTable
 70
     2
  0
STYLE
  5
11
330
3
100
AcDbSymbolTableRecord
100
AcDbTextStyleTableRecord
  2
Standard
 70
     0
 40
0.0
 41
1.0
 50
0.0
 71
     0
 42
2.5
  3
txt
  4

1001
ACAD
1000

1071
        0
  0
STYLE
  5
3B
330
3
100
AcDbSymbolTableRecord
100
AcDbTextStyleTableRecord
  2
ＭＳ ゴシック
 70
     0
 40
1.0
 41
1.0
 50
0.0
 71
     0
 42
10.0
  3

  4

1001
ACAD
1000
MS Gothic
1071
    32817
  0
ENDTAB
  0
TABLE
  2
VIEW
  5
6
330
0
100
AcDbSymbolTable
 70
     0
  0
ENDTAB
  0
TABLE
  2
UCS
  5
7
330
0
100
AcDbSymbolTable
 70
     0
  0
ENDTAB
  0
TABLE
  2
APPID
  5
9
330
0
100
AcDbSymbolTable
 70
     1
  0
APPID
  5
12
330
9
100
AcDbSymbolTableRecord
100
AcDbRegAppTableRecord
  2
ACAD
 70
     0
  0
ENDTAB
  0
TABLE
  2
DIMSTYLE
  5
A
330
0
100
AcDbSymbolTable
 70
     1
100
AcDbDimStyleTable
  0
DIMSTYLE
105
27
330
A
100
AcDbSymbolTableRecord
100
AcDbDimStyleTableRecord
  2
ISO-25
 70
     0
 41
2.5
 42
0.625
 43
3.75
 44
1.25
 73
     0
 74
     0
 77
     1
 78
     8
140
2.5
141
2.5
143
0.03937007874016
147
0.625
171
     3
172
     1
271
     2
272
     2
274
     3
278
    44
283
     0
284
     8
340
11
  0
ENDTAB
  0
TABLE
  2
BLOCK_RECORD
  5
1
330
0
100
AcDbSymbolTable
 70
     1
  0
BLOCK_RECORD
  5
1F
330
1
100
AcDbSymbolTableRecord
100
AcDbBlockTableRecord
  2
*Model_Space
340
22
  0
BLOCK_RECORD
  5
1B
330
1
100
AcDbSymbolTableRecord
100
AcDbBlockTableRecord
  2
*Paper_Space
340
1E
  0
BLOCK_RECORD
  5
23
330
1
100
AcDbSymbolTableRecord
100
AcDbBlockTableRecord
  2
*Paper_Space0
340
26
  0
ENDTAB
  0
ENDSEC
  0
SECTION
  2
BLOCKS
  0
BLOCK
  5
20
330
1F
100
AcDbEntity
  8
0
100
AcDbBlockBegin
  2
*Model_Space
 70
     0
 10
0.0
 20
0.0
 30
0.0
  3
*Model_Space
  1

  0
ENDBLK
  5
21
330
1F
100
AcDbEntity
  8
0
100
AcDbBlockEnd
  0
BLOCK
  5
1C
330
1B
100
AcDbEntity
 67
     1
  8
0
100
AcDbBlockBegin
  2
*Paper_Space
 70
     0
 10
0.0
 20
0.0
 30
0.0
  3
*Paper_Space
  1

  0
ENDBLK
  5
1D
330
1B
100
AcDbEntity
 67
     1
  8
0
100
AcDbBlockEnd
  0
BLOCK
  5
24
330
23
100
AcDbEntity
  8
0
100
AcDbBlockBegin
  2
*Paper_Space0
 70
     0
 10
0.0
 20
0.0
 30
0.0
  3
*Paper_Space0
  1

  0
ENDBLK
  5
25
330
23
100
AcDbEntity
  8
0
100
AcDbBlockEnd
  0
ENDSEC
  0
SECTION
  2
ENTITIES
  0
LINE
  5
4B
330
1F
100
AcDbEntity
  8
1-6
  6
Continuous
 62
     6
370
     5
100
AcDbLine
 10
114.1173651103397
 20
107.1730184934932
 30
0.0
 11
124.8490776578482
 21
107.3915202288711
 31
0.0
  0
LINE
  5
4C
330
1F
100
AcDbEntity
  8
1-6
  6
Continuous
 62
     4
370
     9
100
AcDbLine
 10
207.0592389623605
 20
120.1402023637507
 30
0.0
 11
244.8807950141355
 21
122.0934572121827
 31
0.0
  0
LINE
  5
4D
330
1F
100
AcDbEntity
  8
1-0
  6
Continuous
 62
     2
370
     9
100
AcDbLine
 10
300.0008325010701
 20
172.7130985848731
 30
0.0
 11
301.0614585568134
 21
171.6525467610767
 31
0.0
  0
LINE
  5
4E
330
1F
100
AcDbEntity
  8
1-0
  6
Continuous
 62
     2
370
     9
100
AcDbLine
 10
300.0008325010701
 20
172.7130985848731
 30
0.0
 11
302.1222330764503
 21
174.8344249283064
 31
0.0
  0
LINE
  5
4F
330
1F
100
AcDbEntity
  8
1-0
  6
Continuous
 62
     2
370
     9
100
AcDbLine
 10
301.0614585568134
 20
171.6525467610767
 30
0.0
 11
303.1827849002467
 21
173.77387310451
 31
0.0
  0
LINE
  5
50
330
1F
100
AcDbEntity
  8
1-0
  6
Continuous
 62
     2
370
     9
100
AcDbLine
 10
298.6219740894359
 20
177.3447266729221
 30
0.0
 11
301.6272544552509
 21
174.3395205390539
 31
0.0
  0
LINE
  5
51
330
1F
100
AcDbEntity
  8
1-0
  6
Continuous
 62
     2
370
     9
100
AcDbLine
 10
302.6878062790475
 20
173.2788573673373
 30
0.0
 11
305.6930866448625
 21
170.2736141174956
 31
0.0
  0
LINE
  5
52
330
1F
100
AcDbEntity
  8
1-0
  6
Continuous
 62
     2
370
     9
100
AcDbLine
 10
299.6118570998878
 20
177.3446524409754
 30
0.0
 11
302.1222330764503
 21
174.8344249283064
 31
0.0
  0
LINE
  5
53
330
1F
100
AcDbEntity
  8
1-0
  6
Continuous
 62
     2
370
     9
100
AcDbLine
 10
303.1827849002467
 20
173.77387310451
 30
0.0
 11
305.6930866448625
 21
171.2635713598943
 31
0.0
  0
LINE
  5
54
330
1F
100
AcDbEntity
  8
1-0
  6
Continuous
 62
     2
370
     9
100
AcDbLine
 10
305.6930866448625
 20
171.2635713598943
 30
0.0
 11
305.6930866448625
 21
170.2736141174956
 31
0.0
  0
LINE
  5
55
330
1F
100
AcDbEntity
  8
1-0
  6
Continuous
 62
     2
370
     9
100
AcDbLine
 10
298.6219740894359
 20
177.3447266729221
 30
0.0
 11
299.6118570998878
 21
177.3446524409754
 31
0.0
  0
LINE
  5
56
330
1F
100
AcDbEntity
  8
1-1
  6
Continuous
 62
     2
370
     9
100
AcDbLine
 10
279.5131780986209
 20
175.9138234185936
 30
0.0
 11
304.2617379988531
 21
151.1650037065476
 31
0.0
  0
LINE
  5
57
330
1F
100
AcDbEntity
  8
1-1
  6
Continuous
 62
     2
370
     9
100
AcDbLine
 10
304.2617379988531
 20
151.1650037065476
 30
0.0
 11
304.2617379988531
 21
146.107952331442
 31
0.0
  0
LINE
  5
58
330
1F
100
AcDbEntity
  8
1-1
  6
Continuous
 62
     2
370
     9
100
AcDbLine
 10
279.5131780986209
 20
175.9138234185936
 30
0.0
 11
274.4559782596217
 21
175.9138234185936
 31
0.0
  0
LINE
  5
59
330
1F
100
AcDbEntity
  8
1-1
  6
Continuous
 62
     2
370
     9
100
AcDbLine
 10
285.8770828969739
 20
169.5497701563469
 30
0.0
 11
282.3414895032873
 21
164.5999839443537
 31
0.0
  0
LINE
  5
5A
330
1F
100
AcDbEntity
  8
1-1
  6
Continuous
 62
     2
370
     9
100
AcDbLine
 10
292.9480469885069
 20
153.9935006910809
 30
0.0
 11
297.8978332005001
 21
157.528945620874
 31
0.0
  0
LINE
  5
5B
330
1F
100
AcDbEntity
  8
1-1
  6
Continuous
 62
     2
370
     9
100
AcDbLine
 10
275.9177537558211
 20
171.0238310397401
 30
0.0
 11
284.1092490841572
 21
162.832335711404
 31
0.0
  0
LINE
  5
5C
330
1F
100
AcDbEntity
  8
1-1
  6
Continuous
 62
     2
370
     9
100
AcDbLine
 10
291.1802874076369
 20
155.7613345038976
 30
0.0
 11
299.3719311998667
 21
147.5696907116679
 31
0.0
  0
ARC
  5
5D
330
1F
100
AcDbEntity
  8
1-1
  6
Continuous
 62
     2
370
     9
100
AcDbCircle
 10
278.0390058673075
 20
173.1451944991468
 30
0.0
 40
3.000000038662472
100
AcDbArc
 50
193.7837829589844
 51
224.9998321533203
  0
ARC
  5
5E
330
1F
100
AcDbEntity
  8
1-1
  6
Continuous
 62
     2
370
     9
100
AcDbCircle
 10
301.4932575433
 20
149.6910170551012
 30
0.0
 40
3.000000038662472
100
AcDbArc
 50
224.9999237060547
 51
256.2162170410156
  0
LINE
  5
5F
330
1F
100
AcDbEntity
  8
1-0
  6
Continuous
 62
     2
370
     9
100
AcDbLine
 10
289.9819215559286
 20
175.4931860296666
 30
0.0
 11
284.9578291651982
 21
170.4690936389359
 31
0.0
  0
LINE
  5
60
330
1F
100
AcDbEntity
  8
1-0
  6
Continuous
 62
     2
370
     9
100
AcDbLine
 10
303.8411744856163
 20
161.6339702159524
 30
0.0
 11
298.8171563268324
 21
156.6098407092484
 31
0.0
  0
LINE
  5
61
330
1F
100
AcDbEntity
  8
1-0
  6
Continuous
 62
     2
370
     9
100
AcDbLine
 10
293.4520423725461
 20
172.0231394449959
 30
0.0
 11
288.4280242137624
 21
166.999009938292
 31
0.0
  0
LINE
  5
62
330
1F
100
AcDbEntity
  8
1-0
  6
Continuous
 62
     2
370
     9
100
AcDbLine
 10
300.3712021328924
 20
165.1040539165964
 30
0.0
 11
295.3470355102151
 21
160.0799244098924
 31
0.0
  0
LINE
  5
63
330
1F
100
AcDbEntity
  8
1-0
  6
Continuous
 62
     2
370
     9
100
AcDbLine
 10
292.3498464266002
 20
174.3909900837206
 30
0.0
 11
302.7390527716171
 21
164.0017095067569
 31
0.0
  0
LINE
  5
64
330
1F
100
AcDbEntity
  8
1-0
  6
Continuous
 62
     2
370
     9
100
AcDbLine
 10
305.6930866448625
 20
171.2635713598943
 30
0.0
 11
300.5849901396491
 21
166.1557350227514
 31
0.0
  0
LINE
  5
65
330
1F
100
AcDbEntity
  8
1-0
  6
Continuous
 62
     2
370
     9
100
AcDbLine
 10
305.6930866448625
 20
170.2736141174956
 30
0.0
 11
301.0799687608485
 21
165.6607935175255
 31
0.0
  0
LINE
  5
66
330
1F
100
AcDbEntity
  8
1-0
  6
Continuous
 62
     2
370
     9
100
AcDbLine
 10
299.6118570998878
 20
177.3446524409754
 30
0.0
 11
294.5037605946744
 21
172.2368903357793
 31
0.0
  0
LINE
  5
67
330
1F
100
AcDbEntity
  8
1-0
  6
Continuous
 62
     2
370
     9
100
AcDbLine
 10
298.6219740894359
 20
177.3447266729221
 30
0.0
 11
294.0089304373688
 21
172.731906072952
 31
0.0
  0
ARC
  5
68
330
1F
100
AcDbEntity
  8
1-0
  6
Continuous
 62
     2
370
     9
100
AcDbCircle
 10
289.654707134476
 20
171.6958507915964
 30
0.0
 40
3.811439017991762
100
AcDbArc
 50
4.925643920898438
 51
85.07435607910156
  0
ARC
  5
69
330
1F
100
AcDbEntity
  8
1-0
  6
Continuous
 62
     2
370
     9
100
AcDbCircle
 10
287.7709230207724
 20
159.4230087967695
 30
0.0
 40
13.82162429190971
100
AcDbArc
 50
24.26925659179688
 51
65.73074340820314
  0
ARC
  5
6A
330
1F
100
AcDbEntity
  8
1-0
  6
Continuous
 62
     2
370
     9
100
AcDbCircle
 10
300.0438392475461
 20
161.3066444465795
 30
0.0
 40
3.811439017991762
100
AcDbArc
 50
4.925643920898438
 51
85.07435607910156
  0
LINE
  5
6B
330
1F
100
AcDbEntity
  8
1-0
  6
Continuous
 62
     2
370
     9
100
AcDbLine
 10
278.0664057036673
 20
142.6474156839547
 30
0.0
 11
295.4231232556754
 21
160.0040222442992
 31
0.0
  0
LINE
  5
6C
330
1F
100
AcDbEntity
  8
1-0
  6
Continuous
 62
     2
370
     9
100
AcDbLine
 10
277.519687415555
 20
143.0903948264272
 30
0.0
 11
294.928144634476
 21
160.4989637495251
 31
0.0
  0
LINE
  5
6D
330
1F
100
AcDbEntity
  8
1-0
  6
Continuous
 62
     2
370
     9
100
AcDbLine
 10
271.4384578705803
 20
149.1714759075083
 30
0.0
 11
288.8470635533949
 21
166.5800819465795
 31
0.0
  0
LINE
  5
6E
330
1F
100
AcDbEntity
  8
1-0
  6
Continuous
 62
     2
370
     9
100
AcDbLine
 10
270.9952931482408
 20
149.7184911234078
 30
0.0
 11
288.3519364683021
 21
167.0750605677788
 31
0.0
  0
LINE
  5
6F
330
1F
100
AcDbEntity
  8
1-2
  6
Continuous
 62
     6
370
     5
100
AcDbLine
 10
428.651468916294
 20
153.7694315596937
 30
0.0
 11
309.1176207981564
 21
153.7694315596937
 31
0.0
  0
ARC
  5
70
330
1F
100
AcDbEntity
  8
1-2
  6
Continuous
 62
     6
370
     5
100
AcDbCircle
 10
309.1176207981564
 20
180.769446406083
 30
0.0
 40
27.00000324764768
100
AcDbArc
 50
180.0
 51
207.1461944580078
  0
ARC
  5
71
330
1F
100
AcDbEntity
  8
1-2
  6
Continuous
 62
     6
370
     5
100
AcDbCircle
 10
309.1176207981564
 20
180.769446406083
 30
0.0
 40
27.00000324764768
100
AcDbArc
 50
242.8536987304688
 51
270.0
  0
LINE
  5
72
330
1F
100
AcDbEntity
  8
1-2
  6
Continuous
 62
     6
370
     5
100
AcDbLine
 10
365.4845361143514
 20
229.9171564330045
 30
0.0
 11
303.0649705526961
 21
165.2797629970881
 31
0.0
  0
LINE
  5
73
330
1F
100
AcDbEntity
  8
1-2
  6
Continuous
 62
     6
370
     5
100
AcDbLine
 10
358.2653308250778
 20
237.1363617222781
 30
0.0
 11
293.6280116211083
 21
174.7168332765962
 31
0.0
  0
ARC
  5
74
330
1F
100
AcDbEntity
  8
1-2
  6
Continuous
 62
     6
370
     5
100
AcDbCircle
 10
291.5439497149637
 20
176.8747930857705
 30
0.0
 40
3.000000038662472
100
AcDbArc
 50
291.7003631591797
 51
313.9999847412109
  0
ARC
  5
75
330
1F
100
AcDbEntity
  8
1-2
  6
Continuous
 62
     6
370
     5
100
AcDbCircle
 10
305.2230417097906
 20
163.1958124388639
 30
0.0
 40
3.000000038662472
100
AcDbArc
 50
136.0000152587891
 51
158.3002471923828
  0
ARC
  5
76
330
1F
100
AcDbEntity
  8
1-2
  6
Continuous
 62
     6
370
     5
100
AcDbCircle
 10
309.1176207981564
 20
180.769446406083
 30
0.0
 40
21.00000201044856
100
AcDbArc
 50
252.8179321289063
 51
270.0
  0
ARC
  5
77
330
1F
100
AcDbEntity
  8
1-2
  6
Continuous
 62
     6
370
     5
100
AcDbCircle
 10
309.1176207981564
 20
180.769446406083
 30
0.0
 40
21.00000201044856
100
AcDbArc
 50
180.0
 51
197.1816711425781
  0
LINE
  5
78
330
1F
100
AcDbEntity
  8
1-0
  6
Continuous
 62
     3
370
     9
100
AcDbLine
 10
299.1176207981564
 20
128.7694934196494
 30
0.0
 11
399.6832022487477
 21
128.7694934196494
 31
0.0
  0
LINE
  5
79
330
1F
100
AcDbEntity
  8
1-0
  6
Continuous
 62
     3
370
     9
100
AcDbLine
 10
269.918929919778
 20
151.4705506475315
 30
0.0
 11
267.4058073611842
 21
151.4705506475315
 31
0.0
  0
LINE
  5
7A
330
1F
100
AcDbEntity
  8
1-0
  6
Continuous
 62
     3
370
     9
100
AcDbLine
 10
279.8185023437645
 20
141.5710524554918
 30
0.0
 11
279.8185023437645
 21
135.389053042749
 31
0.0
  0
LINE
  5
7B
330
1F
100
AcDbEntity
  8
1-0
  6
JWW_HOJO
 62
     3
370
     9
100
AcDbLine
 10
259.2183205579748
 20
143.4047671210852
 30
0.0
 11
260.1484468512603
 21
144.7332220408487
 31
0.0
  0
LINE
  5
7C
330
1F
100
AcDbEntity
  8
1-0
  6
Continuous
 62
     3
370
     9
100
AcDbLine
 10
454.117488830251
 20
133.769460427673
 30
0.0
 11
454.117488830251
 21
124.2694414572866
 31
0.0
  0
LINE
  5
7D
330
1F
100
AcDbEntity
  8
1-0
  6
Continuous
 62
     3
370
     9
100
AcDbLine
 10
447.3640147751413
 20
125.6638885777469
 30
0.0
 11
447.617516873431
 21
124.2694414572866
 31
0.0
  0
LINE
  5
7E
330
1F
100
AcDbEntity
  8
1-0
  6
Continuous
 62
     3
370
     9
100
AcDbLine
 10
442.4446636613321
 20
129.7693977429179
 30
0.0
 11
412.3931961782239
 21
129.7693977429179
 31
0.0
  0
LINE
  5
7F
330
1F
100
AcDbEntity
  8
1-0
  6
JWW_HOJO
 62
     3
370
     9
100
AcDbLine
 10
410.9351322793643
 20
129.7693977429179
 30
0.0
 11
412.3931961782239
 21
129.7693977429179
 31
0.0
  0
LINE
  5
80
330
1F
100
AcDbEntity
  8
1-0
  6
Continuous
 62
     3
370
     9
100
AcDbLine
 10
262.1175234718261
 20
325.7694257860978
 30
0.0
 11
252.6176158493598
 21
325.7694257860978
 31
0.0
  0
LINE
  5
81
330
1F
100
AcDbEntity
  8
1-0
  6
Continuous
 62
     3
370
     9
100
AcDbLine
 10
256.7742337098962
 20
314.8118254245058
 30
0.0
 11
252.6176158493598
 21
319.2694538292777
 31
0.0
  0
LINE
  5
82
330
1F
100
AcDbEntity
  8
1-0
  6
JWW_DASHED1
 62
     2
370
     9
100
AcDbLine
 10
264.2565170185956
 20
142.9795294138955
 30
0.0
 11
264.2565170185956
 21
141.9894608235767
 31
0.0
  0
LINE
  5
83
330
1F
100
AcDbEntity
  8
1-0
  6
JWW_DASHED1
 62
     2
370
     9
100
AcDbLine
 10
264.2565170185956
 20
142.9795294138955
 30
0.0
 11
271.327629574022
 21
135.9085282063892
 31
0.0
  0
LINE
  5
84
330
1F
100
AcDbEntity
  8
1-0
  6
JWW_DASHED1
 62
     2
370
     9
100
AcDbLine
 10
270.3375980996767
 20
135.9083797424956
 30
0.0
 11
271.327629574022
 21
135.9084539744424
 31
0.0
  0
LINE
  5
85
330
1F
100
AcDbEntity
  8
1-0
  6
JWW_DASHED1
 62
     2
370
     9
100
AcDbLine
 10
264.2565170185956
 20
141.9894608235767
 30
0.0
 11
270.3375980996767
 21
135.9083797424956
 31
0.0
  0
LINE
  5
86
330
1F
100
AcDbEntity
  8
1-0
  6
JWW_DASHED1
 62
     2
370
     9
100
AcDbLine
 10
264.2565170185956
 20
141.9894608235767
 30
0.0
 11
271.4384578705803
 21
149.1714759075083
 31
0.0
  0
LINE
  5
87
330
1F
100
AcDbEntity
  8
1-0
  6
JWW_DASHED1
 62
     2
370
     9
100
AcDbLine
 10
264.2565170185956
 20
142.9795294138955
 30
0.0
 11
270.9952931482408
 21
149.7184911234078
 31
0.0
  0
LINE
  5
88
330
1F
100
AcDbEntity
  8
1-0
  6
JWW_DASHED1
 62
     2
370
     9
100
AcDbLine
 10
270.3375980996767
 20
135.9085282063892
 30
0.0
 11
277.519687415555
 21
143.0903948264272
 31
0.0
  0
LINE
  5
89
330
1F
100
AcDbEntity
  8
1-0
  6
JWW_DASHED1
 62
     2
370
     9
100
AcDbLine
 10
271.327629574022
 20
135.9085653223626
 30
0.0
 11
278.0665541675609
 21
142.6474156839547
 31
0.0
  0
LINE
  5
8A
330
1F
100
AcDbEntity
  8
1-0
  6
Continuous
 62
     3
370
     9
100
AcDbLine
 10
398.9355380806733
 20
120.769442282086
 30
0.0
 11
389.5080066063279
 21
120.769442282086
 31
0.0
  0
LINE
  5
8B
330
1F
100
AcDbEntity
  8
1-0
  6
Continuous
 62
     3
370
     9
100
AcDbLine
 10
407.1173090239799
 20
103.7694356836907
 30
0.0
 11
407.1173090239799
 21
97.76941588850492
 31
0.0
  0
LINE
  5
8C
330
1F
100
AcDbEntity
  8
1-0
  6
Continuous
 62
     3
370
     9
100
AcDbLine
 10
399.1173321183633
 20
103.7694356836907
 30
0.0
 11
407.1173090239799
 21
103.7694356836907
 31
0.0
  0
LINE
  5
8D
330
1F
100
AcDbEntity
  8
1-0
  6
Continuous
 62
     3
370
     9
100
AcDbLine
 10
391.1173552127468
 20
105.769355678148
 30
0.0
 11
391.1173552127468
 21
118.7694851716552
 31
0.0
  0
LINE
  5
8E
330
1F
100
AcDbEntity
  8
1-0
  6
Continuous
 62
     3
370
     9
100
AcDbLine
 10
399.1173321183633
 20
97.76941588850492
 30
0.0
 11
407.1173090239799
 21
97.76941588850492
 31
0.0
  0
LINE
  5
8F
330
1F
100
AcDbEntity
  8
1-0
  6
JWW_CENTER1
 62
     3
370
     9
100
AcDbLine
 10
399.1174063503102
 20
100.7694629020713
 30
0.0
 11
410.1173931535196
 21
100.7694629020713
 31
0.0
  0
LINE
  5
90
330
1F
100
AcDbEntity
  8
1-0
  6
Continuous
 62
     3
370
     9
100
AcDbLine
 10
397.1173750079325
 20
105.769355678148
 30
0.0
 11
397.1173750079325
 21
118.7694851716552
 31
0.0
  0
LINE
  5
91
330
1F
100
AcDbEntity
  8
1-0
  6
Continuous
 62
     3
370
     9
100
AcDbLine
 10
390.9423905141614
 20
118.7694851716552
 30
0.0
 11
397.2921912426243
 21
118.7694851716552
 31
0.0
  0
LINE
  5
92
330
1F
100
AcDbEntity
  8
1-0
  6
Continuous
 62
     3
370
     9
100
AcDbLine
 10
396.4773471627046
 20
118.7694851716552
 30
0.0
 11
396.4773471627046
 21
120.769442282086
 31
0.0
  0
LINE
  5
93
330
1F
100
AcDbEntity
  8
1-0
  6
Continuous
 62
     3
370
     9
100
AcDbLine
 10
391.7574572899216
 20
118.7694851716552
 30
0.0
 11
391.7574572899216
 21
120.769442282086
 31
0.0
  0
LINE
  5
94
330
1F
100
AcDbEntity
  8
1-0
  6
Continuous
 62
     3
370
     9
100
AcDbLine
 10
390.9423905141614
 20
118.7694851716552
 30
0.0
 11
390.9423905141614
 21
120.769442282086
 31
0.0
  0
LINE
  5
95
330
1F
100
AcDbEntity
  8
1-0
  6
Continuous
 62
     3
370
     9
100
AcDbLine
 10
397.2921912426243
 20
118.7694851716552
 30
0.0
 11
397.2921912426243
 21
120.769442282086
 31
0.0
  0
LINE
  5
96
330
1F
100
AcDbEntity
  8
1-0
  6
JWW_CENTER1
 62
     3
370
     9
100
AcDbLine
 10
394.1175135742333
 20
105.769355678148
 30
0.0
 11
394.1175135742333
 21
120.769442282086
 31
0.0
  0
LINE
  5
97
330
1F
100
AcDbEntity
  8
1-0
  6
Continuous
 62
     3
370
     9
100
AcDbLine
 10
258.1174607870711
 20
300.5188352297212
 30
0.0
 11
258.1174607870711
 21
311.4018324847887
 31
0.0
  0
LINE
  5
98
330
1F
100
AcDbEntity
  8
1-0
  6
Continuous
 62
     3
370
     9
100
AcDbLine
 10
252.6176158493598
 20
296.4694825322972
 30
0.0
 11
252.6176158493598
 21
325.7694257860978
 31
0.0
  0
LINE
  5
99
330
1F
100
AcDbEntity
  8
1-0
  6
JWW_HOJO
 62
     3
370
     9
100
AcDbLine
 10
258.1174607870711
 20
300.5188352297212
 30
0.0
 11
258.1174607870711
 21
163.7694851716552
 31
0.0
  0
LINE
  5
9A
330
1F
100
AcDbEntity
  8
1-0
  6
Continuous
 62
     3
370
     9
100
AcDbLine
 10
250.4784738386969
 20
288.485688191081
 30
0.0
 11
245.5698863571723
 21
288.3856977587541
 31
0.0
  0
LINE
  5
9B
330
1F
100
AcDbEntity
  8
1-0
  6
Continuous
 62
     3
370
     9
100
AcDbLine
 10
253.9399095175398
 20
118.5209566138005
 30
0.0
 11
249.0311735721217
 21
118.421003297447
 31
0.0
  0
LINE
  5
9C
330
1F
100
AcDbEntity
  8
1-0
  6
Continuous
 62
     3
370
     9
100
AcDbLine
 10
255.1933159390981
 20
283.031124740912
 30
0.0
 11
254.3828515440389
 21
285.6634638060514
 31
0.0
  0
LINE
  5
9D
330
1F
100
AcDbEntity
  8
1-0
  6
Continuous
 62
     3
370
     9
100
AcDbLine
 10
245.9293174435322
 20
119.7977089826245
 30
0.0
 11
242.5267476984942
 21
286.8839112432347
 31
0.0
  0
LINE
  5
9E
330
1F
100
AcDbEntity
  8
1-0
  6
Continuous
 62
     3
370
     9
100
AcDbLine
 10
256.928487695327
 20
119.9559343772084
 30
0.0
 11
253.5229486724173
 21
287.1735642996113
 31
0.0
  0
LINE
  5
9F
330
1F
100
AcDbEntity
  8
1-0
  6
Continuous
 62
     3
370
     9
100
AcDbLine
 10
258.4293091955381
 20
124.1656280797
 30
0.0
 11
257.7261099635914
 21
121.4997732905848
 31
0.0
  0
LINE
  5
A0
330
1F
100
AcDbEntity
  8
1-0
  6
Continuous
 62
     3
370
     9
100
AcDbLine
 10
258.8274893581226
 20
124.9365268471198
 30
0.0
 11
255.6232673749089
 21
282.2761116101054
 31
0.0
  0
LINE
  5
A1
330
1F
100
AcDbEntity
  8
1-0
  6
Continuous
 62
     3
370
     9
100
AcDbLine
 10
281.0174967483253
 20
118.5674258124914
 30
0.0
 11
266.3379808066023
 21
110.925506702219
 31
0.0
  0
LINE
  5
A2
330
1F
100
AcDbEntity
  8
1-0
  6
Continuous
 62
     3
370
     9
100
AcDbLine
 10
401.583020462958
 20
129.4472310938469
 30
0.0
 11
408.2809690218685
 21
135.0675915971726
 31
0.0
  0
LINE
  5
A3
330
1F
100
AcDbEntity
  8
1-0
  6
Continuous
 62
     3
370
     9
100
AcDbLine
 10
399.7210605416108
 20
128.7461103564103
 30
0.0
 11
260.3190318649848
 21
125.6549065121852
 31
0.0
  0
LINE
  5
A4
330
1F
100
AcDbEntity
  8
1-0
  6
Continuous
 62
     3
370
     9
100
AcDbLine
 10
401.9623457110575
 20
122.7943784426117
 30
0.0
 11
287.6113721178355
 21
120.2586151402469
 31
0.0
  0
LINE
  5
A5
330
1F
100
AcDbEntity
  8
1-0
  6
Continuous
 62
     3
370
     9
100
AcDbLine
 10
403.824231400458
 20
123.495462064075
 30
0.0
 11
410.4648728964461
 21
129.0676089179602
 31
0.0
  0
LINE
  5
A6
330
1F
100
AcDbEntity
  8
1-0
  6
JWW_HOJO
 62
     3
370
     9
100
AcDbLine
 10
400.8395875158507
 20
122.7694736244635
 30
0.0
 11
299.1176207981564
 21
122.7694736244635
 31
0.0
  0
LINE
  5
A7
330
1F
100
AcDbEntity
  8
1-0
  6
Continuous
 62
     3
370
     9
100
AcDbLine
 10
399.2568881783296
 20
120.8865060621747
 30
0.0
 11
401.5189582928777
 21
122.7844684777152
 31
0.0
  0
LINE
  5
A8
330
1F
100
AcDbEntity
  8
1-0
  6
JWW_HOJO
 62
     3
370
     9
100
AcDbLine
 10
409.0067347656396
 20
129.0676089179602
 30
0.0
 11
401.5189582928777
 21
122.7844684777152
 31
0.0
  0
LINE
  5
A9
330
1F
100
AcDbEntity
  8
1-0
  6
Continuous
 62
     3
370
     9
100
AcDbLine
 10
264.1174805822569
 20
323.7695429076139
 30
0.0
 11
264.1174805822569
 21
163.7694851716552
 31
0.0
  0
LINE
  5
AA
330
1F
100
AcDbEntity
  8
1-0
  6
JWW_HOJO
 62
     3
370
     9
100
AcDbLine
 10
388.6848485483675
 20
122.4999374256671
 30
0.0
 11
387.68561231262
 21
126.4970679485239
 31
0.0
  0
LINE
  5
AB
330
1F
100
AcDbEntity
  8
1-0
  6
Continuous
 62
     3
370
     9
100
AcDbLine
 10
389.0227523701582
 20
121.1482479065581
 30
0.0
 11
388.6849970122611
 21
122.4999374256671
 31
0.0
  0
LINE
  5
AC
330
1F
100
AcDbEntity
  8
1-0
  6
Continuous
 62
     3
370
     9
100
AcDbLine
 10
257.1454676757958
 20
281.6199754324238
 30
0.0
 11
264.1174805822569
 21
281.762055378581
 31
0.0
  0
LINE
  5
AD
330
1F
100
AcDbEntity
  8
1-0
  6
JWW_CENTER1
 62
     3
370
     9
100
AcDbLine
 10
263.9001294420542
 20
135.552066397901
 30
0.0
 11
306.0156986856142
 21
177.6675614095142
 31
0.0
  0
LINE
  5
AE
330
1F
100
AcDbEntity
  8
1-0
  6
Continuous
 62
     3
370
     9
100
AcDbLine
 10
217.7620794658084
 20
113.2832246802068
 30
0.0
 11
221.7613255991487
 21
113.3646942418094
 31
0.0
  0
LINE
  5
AF
330
1F
100
AcDbEntity
  8
1-0
  6
Continuous
 62
     3
370
     9
100
AcDbLine
 10
261.6140081767459
 20
109.7960676318009
 30
0.0
 11
221.8254620011758
 21
110.2194495403208
 31
0.0
  0
LINE
  5
B0
330
1F
100
AcDbEntity
  8
1-0
  6
Continuous
 62
     3
370
     9
100
AcDbLine
 10
254.2436666438067
 20
296.5207025755827
 30
0.0
 11
218.0544791042164
 21
295.3795348575716
 31
0.0
  0
LINE
  5
B1
330
1F
100
AcDbEntity
  8
1-0
  6
Continuous
 62
     3
370
     9
100
AcDbLine
 10
218.0544791042164
 20
295.3795348575716
 30
0.0
 11
218.1166854756269
 21
292.3275625972254
 31
0.0
  0
LINE
  5
B2
330
1F
100
AcDbEntity
  8
1-0
  6
Continuous
 62
     3
370
     9
100
AcDbLine
 10
214.1174393422864
 20
292.2461301515962
 30
0.0
 11
218.1166854756269
 21
292.3275625972254
 31
0.0
  0
LINE
  5
B3
330
1F
100
AcDbEntity
  8
1-0
  6
Continuous
 62
     3
370
     9
100
AcDbLine
 10
241.1668184332916
 20
282.891865608733
 30
0.0
 11
241.7660929397315
 21
285.338253647162
 31
0.0
  0
LINE
  5
B4
330
1F
100
AcDbEntity
  8
1-0
  6
Continuous
 62
     3
370
     9
100
AcDbLine
 10
244.408304853794
 20
123.731148495135
 30
0.0
 11
245.1065305453059
 21
121.3110385658698
 31
0.0
  0
LINE
  5
B5
330
1F
100
AcDbEntity
  8
1-0
  6
Continuous
 62
     3
370
     9
100
AcDbLine
 10
243.8494125264081
 20
123.7022351518601
 30
0.0
 11
240.6074807142248
 21
282.897878396423
 31
0.0
  0
LINE
  5
B6
330
1F
100
AcDbEntity
  8
1-0
  6
Continuous
 62
     3
370
     9
100
AcDbLine
 10
404.7465633393304
 20
124.2694414572866
 30
0.0
 11
454.117488830251
 21
124.2694414572866
 31
0.0
  0
LINE
  5
B7
330
1F
100
AcDbEntity
  8
1-3
  6
Continuous
 62
     4
370
     9
100
AcDbLine
 10
218.0544791042164
 20
295.3795348575716
 30
0.0
 11
218.045422806708
 21
295.8268565689314
 31
0.0
  0
LINE
  5
B8
330
1F
100
AcDbEntity
  8
1-0
  6
Continuous
 62
     3
370
     9
100
AcDbLine
 10
221.7613255991487
 20
113.3646942418094
 30
0.0
 11
221.8254620011758
 21
110.2194495403208
 31
0.0
  0
LINE
  5
B9
330
1F
100
AcDbEntity
  8
1-3
  6
Continuous
 62
     4
370
     9
100
AcDbLine
 10
221.8254620011758
 20
110.2194495403208
 30
0.0
 11
221.8325882680676
 21
109.8654002701033
 31
0.0
  0
LINE
  5
BA
330
1F
100
AcDbEntity
  8
1-4
  6
JWW_CENTER1
 62
     7
370
     9
100
AcDbLine
 10
264.1174805822569
 20
203.7458752885788
 30
0.0
 11
192.1768512933
 21
203.7458752885788
 31
0.0
  0
ARC
  5
BB
330
1F
100
AcDbEntity
  8
1-0
  6
Continuous
 62
     3
370
     9
100
AcDbCircle
 10
452.1175317198204
 20
133.769460427673
 30
0.0
 40
2.000000170759253
100
AcDbArc
 50
0.0
 51
90.0
  0
ARC
  5
BC
330
1F
100
AcDbEntity
  8
1-0
  6
Continuous
 62
     3
370
     9
100
AcDbCircle
 10
262.1175234718261
 20
323.7695429076139
 30
0.0
 40
2.000000170759253
100
AcDbArc
 50
0.0
 51
90.0
  0
ARC
  5
BD
330
1F
100
AcDbEntity
  8
1-0
  6
Continuous
 62
     3
370
     9
100
AcDbCircle
 10
399.6832022487477
 20
131.7694662012688
 30
0.0
 40
3.000000038662472
100
AcDbArc
 50
270.0
 51
310.0000305175781
  0
ARC
  5
BE
330
1F
100
AcDbEntity
  8
1-0
  6
Continuous
 62
     3
370
     9
100
AcDbCircle
 10
410.2094407675399
 20
132.7694818724577
 30
0.0
 40
3.000000038662472
100
AcDbArc
 50
90.0
 51
130.0000305175781
  0
ARC
  5
BF
330
1F
100
AcDbEntity
  8
1-0
  6
Continuous
 62
     3
370
     9
100
AcDbCircle
 10
389.5080066063279
 20
121.2694686756671
 30
0.0
 40
0.5000000426898131
100
AcDbArc
 50
194.0362396240235
 51
270.0
  0
ARC
  5
C0
330
1F
100
AcDbEntity
  8
1-0
  6
Continuous
 62
     3
370
     9
100
AcDbCircle
 10
398.9355380806733
 20
121.2694686756671
 30
0.0
 40
0.5000000426898131
100
AcDbArc
 50
270.0
 51
309.9992980957031
  0
ARC
  5
C1
330
1F
100
AcDbEntity
  8
1-0
  6
JWW_HOJO
 62
     3
370
     9
100
AcDbCircle
 10
384.7752003748033
 20
125.7695577540032
 30
0.0
 40
3.000000038662472
100
AcDbArc
 50
14.03623962402344
 51
90.0
  0
ARC
  5
C2
330
1F
100
AcDbEntity
  8
1-0
  6
Continuous
 62
     3
370
     9
100
AcDbCircle
 10
267.4058073611842
 20
152.9705184803546
 30
0.0
 40
1.500000019331236
100
AcDbArc
 50
198.8057098388672
 51
270.0
  0
ARC
  5
C3
330
1F
100
AcDbEntity
  8
1-0
  6
Continuous
 62
     3
370
     9
100
AcDbCircle
 10
281.3185072925609
 20
135.389053042749
 30
0.0
 40
1.500000019331236
100
AcDbArc
 50
180.0
 51
237.9057006835937
  0
ARC
  5
C4
330
1F
100
AcDbEntity
  8
1-0
  6
JWW_HOJO
 62
     3
370
     9
100
AcDbCircle
 10
299.1176207981564
 20
163.7694851716552
 30
0.0
 40
41.00000226819837
100
AcDbArc
 50
180.0
 51
270.0
  0
ARC
  5
C5
330
1F
100
AcDbEntity
  8
1-0
  6
JWW_HOJO
 62
     3
370
     9
100
AcDbCircle
 10
256.0525507231986
 20
147.6010990731544
 30
0.0
 40
5.000000644374539
100
AcDbArc
 50
325.0000305175781
 51
20.57833862304689
  0
ARC
  5
C6
330
1F
100
AcDbEntity
  8
1-0
  6
JWW_HOJO
 62
     3
370
     9
100
AcDbCircle
 10
273.088634047734
 20
125.841933902124
 30
0.0
 40
5.000000644374539
100
AcDbArc
 50
55.53901672363282
 51
117.6549072265625
  0
ARC
  5
C7
330
1F
100
AcDbEntity
  8
1-0
  6
JWW_HOJO
 62
     3
370
     9
100
AcDbCircle
 10
266.5906663534773
 20
138.2425290773774
 30
0.0
 40
9.000000115987417
100
AcDbArc
 50
145.0000152587891
 51
297.6550292968751
  0
ARC
  5
C8
330
1F
100
AcDbEntity
  8
1-0
  6
Continuous
 62
     3
370
     9
100
AcDbCircle
 10
412.3931961782239
 20
126.7694620772718
 30
0.0
 40
3.000000038662472
100
AcDbArc
 50
90.0
 51
130.0000305175781
  0
ARC
  5
C9
330
1F
100
AcDbEntity
  8
1-0
  6
Continuous
 62
     3
370
     9
100
AcDbCircle
 10
442.4446636613321
 20
124.7694307348943
 30
0.0
 40
5.000000644374539
100
AcDbArc
 50
10.30488586425781
 51
90.0
  0
ARC
  5
CA
330
1F
100
AcDbEntity
  8
1-0
  6
JWW_HOJO
 62
     3
370
     9
100
AcDbCircle
 10
410.9351322793643
 20
126.7694620772718
 30
0.0
 40
3.000000038662472
100
AcDbArc
 50
90.0
 51
130.0000305175781
  0
ARC
  5
CB
330
1F
100
AcDbEntity
  8
1-0
  6
Continuous
 62
     3
370
     9
100
AcDbCircle
 10
253.1174195471006
 20
311.4018324847887
 30
0.0
 40
5.000000644374539
100
AcDbArc
 50
0.0
 51
43.00027465820312
  0
ARC
  5
CC
330
1F
100
AcDbEntity
  8
1-0
  6
Continuous
 62
     3
370
     9
100
AcDbCircle
 10
399.1173321183633
 20
105.769355678148
 30
0.0
 40
1.99999988079071
100
AcDbArc
 50
180.0
 51
270.0
  0
ARC
  5
CD
330
1F
100
AcDbEntity
  8
1-0
  6
Continuous
 62
     3
370
     9
100
AcDbCircle
 10
399.1173321183633
 20
105.769355678148
 30
0.0
 40
7.999999523162842
100
AcDbArc
 50
180.0
 51
270.0
  0
ARC
  5
CE
330
1F
100
AcDbEntity
  8
1-0
  6
JWW_CENTER1
 62
     3
370
     9
100
AcDbCircle
 10
399.1174063503102
 20
105.769355678148
 30
0.0
 40
5.000000644374539
100
AcDbArc
 50
180.0
 51
270.0
  0
ARC
  5
CF
330
1F
100
AcDbEntity
  8
1-0
  6
Continuous
 62
     3
370
     9
100
AcDbCircle
 10
254.1175465662095
 20
300.5188352297212
 30
0.0
 40
4.000000341518505
100
AcDbArc
 50
271.8072052001953
 51
0.0
  0
ARC
  5
D0
330
1F
100
AcDbEntity
  8
1-0
  6
Continuous
 62
     3
370
     9
100
AcDbCircle
 10
245.6513188028017
 20
284.3866000893073
 30
0.0
 40
4.000000341518505
100
AcDbArc
 50
91.16685485839844
 51
166.2353668212891
  0
ARC
  5
D1
330
1F
100
AcDbEntity
  8
1-0
  6
Continuous
 62
     3
370
     9
100
AcDbCircle
 10
250.5599062843261
 20
284.4865162896874
 30
0.0
 40
4.000000341518505
100
AcDbArc
 50
17.11227416992188
 51
91.16683959960938
  0
ARC
  5
D2
330
1F
100
AcDbEntity
  8
1-0
  6
Continuous
 62
     3
370
     9
100
AcDbCircle
 10
248.9498153584394
 20
122.4202123148141
 30
0.0
 40
4.000000341518505
100
AcDbArc
 50
196.0984497070313
 51
271.1668395996094
  0
ARC
  5
D3
330
1F
100
AcDbEntity
  8
1-0
  6
Continuous
 62
     3
370
     9
100
AcDbCircle
 10
253.8584770719106
 20
122.5201656311675
 30
0.0
 40
4.000000341518505
100
AcDbArc
 50
271.1668395996094
 51
345.2208251953125
  0
ARC
  5
D4
330
1F
100
AcDbEntity
  8
1-0
  6
Continuous
 62
     3
370
     9
100
AcDbCircle
 10
257.1047885689545
 20
283.6195613831206
 30
0.0
 40
2.000000170759253
100
AcDbArc
 50
197.1111755371094
 51
271.1668548583984
  0
ARC
  5
D5
330
1F
100
AcDbEntity
  8
1-0
  6
Continuous
 62
     3
370
     9
100
AcDbCircle
 10
260.3633483372189
 20
123.6554319094086
 30
0.0
 40
2.000000170759253
100
AcDbArc
 50
91.26907348632811
 51
165.2215423583984
  0
ARC
  5
D6
330
1F
100
AcDbEntity
  8
1-0
  6
Continuous
 62
     3
370
     9
100
AcDbCircle
 10
261.7205310203903
 20
119.7955191401941
 30
0.0
 40
10.00000128874908
100
AcDbArc
 50
269.3902130126953
 51
297.5006408691406
  0
ARC
  5
D7
330
1F
100
AcDbEntity
  8
1-0
  6
Continuous
 62
     3
370
     9
100
AcDbCircle
 10
287.943931239457
 20
105.2623514815687
 30
0.0
 40
14.99999961337528
100
AcDbArc
 50
91.2703857421875
 51
117.5009307861328
  0
ARC
  5
D8
330
1F
100
AcDbEntity
  8
1-0
  6
Continuous
 62
     3
370
     9
100
AcDbCircle
 10
399.6546229492333
 20
131.7453779345353
 30
0.0
 40
3.000000038662472
100
AcDbArc
 50
271.27001953125
 51
310.0003356933594
  0
ARC
  5
D9
330
1F
100
AcDbEntity
  8
1-0
  6
Continuous
 62
     3
370
     9
100
AcDbCircle
 10
401.8958338867333
 20
125.7936089047634
 30
0.0
 40
3.000000038662472
100
AcDbArc
 50
271.27001953125
 51
309.9997253417969
  0
ARC
  5
DA
330
1F
100
AcDbEntity
  8
1-0
  6
Continuous
 62
     3
370
     9
100
AcDbCircle
 10
299.1176207981564
 20
163.7694851716552
 30
0.0
 40
35.0000033507476
100
AcDbArc
 50
180.0
 51
270.0
  0
ARC
  5
DB
330
1F
100
AcDbEntity
  8
1-0
  6
Continuous
 62
     3
370
     9
100
AcDbCircle
 10
299.1176207981564
 20
170.7694835220564
 30
0.0
 40
35.0000033507476
100
AcDbArc
 50
180.0
 51
270.0
  0
LINE
  5
DC
330
1F
100
AcDbEntity
  8
1-E
  6
Continuous
 62
     7
370
     9
100
AcDbLine
 10
484.7154389309167
 20
39.58847286411586
 30
0.0
 11
484.7154389309167
 21
-35.41155187986632
 31
0.0
  0
CIRCLE
  5
DD
330
1F
100
AcDbEntity
  8
1-E
  6
Continuous
 62
     7
370
     9
100
AcDbCircle
 10
484.7154389309167
 20
39.58847286411586
 30
0.0
 40
1.000000012887491
  0
TEXT
  5
DE
330
1F
100
AcDbEntity
  8
1-E
  6
Continuous
 62
     2
370
     9
100
AcDbText
 10
431.4653127366072
 20
-50.98931737289852
 30
0.0
 40
9.144
  1
スラブコンクリート
 41
1.111111111111111
  7
ＭＳ ゴシック
100
AcDbText
  0
LWPOLYLINE
  5
DF
330
1F
100
AcDbEntity
  8
1-E
  6
Continuous
 62
     7
370
     9
100
AcDbPolyline
 90
        4
 70
     1
 43
0.3
 10
484.8654389309168
 20
39.58847286411586
 42
0.4142135623731
 10
484.7154389309167
 20
39.73847286411586
 42
0.4142135623731
 10
484.5654389309167
 20
39.58847286411586
 42
0.4142135623731
 10
484.7154389309167
 20
39.43847286411585
 42
0.4142135623731
  0
LINE
  5
E0
330
1F
100
AcDbEntity
  8
1-2
  6
Continuous
 62
     6
370
     5
100
AcDbLine
 10
444.1175465662095
 20
158.7694356836907
 30
0.0
 11
444.1175465662095
 21
159.7694884708529
 31
0.0
  0
LINE
  5
E1
330
1F
100
AcDbEntity
  8
1-2
  6
Continuous
 62
     6
370
     5
100
AcDbLine
 10
287.1175729597906
 20
315.7694835220564
 30
0.0
 11
288.1174030511125
 21
315.7694835220564
 31
0.0
  0
LINE
  5
E2
330
1F
100
AcDbEntity
  8
1-2
  6
JWW_DASHED1
 62
     6
370
     5
100
AcDbLine
 10
280.0662803341572
 20
295.4532389327405
 30
0.0
 11
279.1175218222273
 21
295.7694670260682
 31
0.0
  0
LINE
  5
E3
330
1F
100
AcDbEntity
  8
1-2
  6
Continuous
 62
     6
370
     5
100
AcDbLine
 10
423.8013762088405
 20
151.7180688261105
 30
0.0
 11
424.1174558382747
 21
150.7694587780741
 31
0.0
  0
LINE
  5
E4
330
1F
100
AcDbEntity
  8
1-2
  6
Continuous
 62
     6
370
     5
100
AcDbLine
 10
314.4710803367965
 20
280.930575094586
 30
0.0
 11
319.7743590794064
 21
284.1126017257093
 31
0.0
  0
LINE
  5
E5
330
1F
100
AcDbEntity
  8
1-2
  6
Continuous
 62
     6
370
     5
100
AcDbLine
 10
291.9637313740644
 20
290.6215557480911
 30
0.0
 11
314.1175135742333
 21
289.7693729989357
 31
0.0
  0
LINE
  5
E6
330
1F
100
AcDbEntity
  8
1-2
  6
Continuous
 62
     6
370
     5
100
AcDbLine
 10
309.5795662030339
 20
283.9394928257938
 30
0.0
 11
291.7330927153861
 21
284.6259898697126
 31
0.0
  0
LINE
  5
E7
330
1F
100
AcDbEntity
  8
1-2
  6
Continuous
 62
     6
370
     5
100
AcDbLine
 10
361.8748592377678
 20
242.012027335401
 30
0.0
 11
358.6929068385914
 21
236.7087857087646
 31
0.0
  0
LINE
  5
E8
330
1F
100
AcDbEntity
  8
1-2
  6
Continuous
 62
     6
370
     5
100
AcDbLine
 10
370.3600903795542
 20
233.5268333095881
 30
0.0
 11
365.0568116369444
 21
230.3448066784647
 31
0.0
  0
LINE
  5
E9
330
1F
100
AcDbEntity
  8
1-2
  6
Continuous
 62
     6
370
     5
100
AcDbLine
 10
435.6322411924764
 20
168.2546824966658
 30
0.0
 11
432.4502887933
 21
162.9513666380826
 31
0.0
  0
LINE
  5
EA
330
1F
100
AcDbEntity
  8
1-2
  6
Continuous
 62
     6
370
     5
100
AcDbLine
 10
288.1174030511125
 20
248.7407821522296
 30
0.0
 11
288.1174030511125
 21
260.8579597546366
 31
0.0
  0
LINE
  5
EB
330
1F
100
AcDbEntity
  8
1-2
  6
Continuous
 62
     6
370
     5
100
AcDbLine
 10
288.1174030511125
 20
180.769446406083
 30
0.0
 11
288.1174030511125
 21
186.0121889960851
 31
0.0
  0
LINE
  5
EC
330
1F
100
AcDbEntity
  8
1-2
  6
Continuous
 62
     6
370
     5
100
AcDbLine
 10
288.1174030511125
 20
212.6019609885365
 30
0.0
 11
288.1174030511125
 21
223.4350372593875
 31
0.0
  0
LINE
  5
ED
330
1F
100
AcDbEntity
  8
1-2
  6
Continuous
 62
     6
370
     5
100
AcDbLine
 10
314.3604747360787
 20
159.7694884708529
 30
0.0
 11
309.1176207981564
 21
159.7694884708529
 31
0.0
  0
LINE
  5
EE
330
1F
100
AcDbEntity
  8
1-2
  6
Continuous
 62
     6
370
     5
100
AcDbLine
 10
351.7831745354875
 20
159.7694884708529
 30
0.0
 11
340.95013538061
 21
159.7694884708529
 31
0.0
  0
LINE
  5
EF
330
1F
100
AcDbEntity
  8
1-2
  6
Continuous
 62
     6
370
     5
100
AcDbLine
 10
389.2061712626834
 20
159.7694884708529
 30
0.0
 11
377.0889194283295
 21
159.7694884708529
 31
0.0
  0
LINE
  5
F0
330
1F
100
AcDbEntity
  8
1-2
  6
Continuous
 62
     6
370
     5
100
AcDbLine
 10
426.6288710620922
 20
159.7694884708529
 30
0.0
 11
413.2277777079959
 21
159.7694884708529
 31
0.0
  0
LINE
  5
F1
330
1F
100
AcDbEntity
  8
1-2
  6
Continuous
 62
     6
370
     5
100
AcDbLine
 10
428.7127845043429
 20
160.611501443298
 30
0.0
 11
431.804545088169
 21
163.5971103432135
 31
0.0
  0
LINE
  5
F2
330
1F
100
AcDbEntity
  8
1-2
  6
Continuous
 62
     6
370
     5
100
AcDbLine
 10
288.9595644874511
 20
225.5190620495585
 30
0.0
 11
328.714854750859
 21
266.6868006805235
 31
0.0
  0
LINE
  5
F3
330
1F
100
AcDbEntity
  8
1-2
  6
Continuous
 62
     6
370
     5
100
AcDbLine
 10
293.2015490867965
 20
246.5827481111083
 30
0.0
 11
321.4955009976919
 21
273.9060059697972
 31
0.0
  0
LINE
  5
F4
330
1F
100
AcDbEntity
  8
1-2
  6
Continuous
 62
     6
370
     5
100
AcDbLine
 10
316.4443881783295
 20
160.6113900953778
 30
0.0
 11
376.6502086227975
 21
218.7515210405319
 31
0.0
  0
LINE
  5
F5
330
1F
100
AcDbEntity
  8
1-2
  6
Continuous
 62
     6
370
     5
100
AcDbLine
 10
338.7919157596217
 20
164.8533746947233
 30
0.0
 11
383.8692654481775
 21
211.5323157512583
 31
0.0
  0
LINE
  5
F6
330
1F
100
AcDbEntity
  8
1-2
  6
Continuous
 62
     6
370
     5
100
AcDbLine
 10
374.9309225031817
 20
164.8534860426434
 30
0.0
 11
402.2542174778439
 21
193.1475121854855
 31
0.0
  0
LINE
  5
F7
330
1F
100
AcDbEntity
  8
1-2
  6
Continuous
 62
     6
370
     5
100
AcDbLine
 10
391.2901589368811
 20
160.6114272113512
 30
0.0
 11
413.4196672904495
 21
181.9819139089863
 31
0.0
  0
LINE
  5
F8
330
1F
100
AcDbEntity
  8
1-2
  6
Continuous
 62
     6
370
     5
100
AcDbLine
 10
411.0697065509012
 20
164.8534860426434
 30
0.0
 11
420.6389468116698
 21
174.7626343877658
 31
0.0
  0
LINE
  5
F9
330
1F
100
AcDbEntity
  8
1-2
  6
Continuous
 62
     6
370
     5
100
AcDbLine
 10
288.9595644874511
 20
262.941910312861
 30
0.0
 11
309.2490855759225
 21
283.9522607206417
 31
0.0
  0
LINE
  5
FA
330
1F
100
AcDbEntity
  8
1-2
  6
Continuous
 62
     6
370
     5
100
AcDbLine
 10
293.2015490867965
 20
282.7215692748014
 30
0.0
 11
295.0418332796809
 21
284.4986820809669
 31
0.0
  0
LINE
  5
FB
330
1F
100
AcDbEntity
  8
1-1
  6
JWW_DASHED1
 62
     2
370
     9
100
AcDbLine
 10
274.1174805822569
 20
290.769351554151
 30
0.0
 11
279.1175218222273
 21
296.7281726188681
 31
0.0
  0
LINE
  5
FC
330
1F
100
AcDbEntity
  8
1-1
  6
Continuous
 62
     2
370
     9
100
AcDbLine
 10
281.1174047007112
 20
312.2354489992524
 30
0.0
 11
289.1175300702214
 21
321.7694290852954
 31
0.0
  0
LINE
  5
FD
330
1F
100
AcDbEntity
  8
1-1
  6
JWW_DASHED1
 62
     2
370
     9
100
AcDbLine
 10
280.2872688397526
 20
311.246085612428
 30
0.0
 11
281.1174047007112
 21
312.2354489992524
 31
0.0
  0
LINE
  5
FE
330
1F
100
AcDbEntity
  8
1-1
  6
Continuous
 62
     2
370
     9
100
AcDbLine
 10
450.1174921294486
 20
160.7694299100948
 30
0.0
 11
441.7753801810745
 21
153.7695429076139
 31
0.0
  0
LINE
  5
FF
330
1F
100
AcDbEntity
  8
1-1
  6
Continuous
 62
     2
370
     9
100
AcDbLine
 10
428.6515431482408
 20
153.7695429076139
 30
0.0
 11
454.1174805822569
 21
153.7695429076139
 31
0.0
  0
LINE
  5
100
330
1F
100
AcDbEntity
  8
1-1
  6
Continuous
 62
     2
370
     9
100
AcDbLine
 10
419.1174888302509
 20
145.7694546540771
 30
0.0
 11
428.6515431482408
 21
153.7695429076139
 31
0.0
  0
LINE
  5
101
330
1F
100
AcDbEntity
  8
1-1
  6
Continuous
 62
     2
370
     9
100
AcDbLine
 10
423.8845159892459
 20
149.7694802228588
 30
0.0
 11
454.1174805822569
 21
149.7694802228588
 31
0.0
  0
LINE
  5
102
330
1F
100
AcDbEntity
  8
1-1
  6
Continuous
 62
     2
370
     9
100
AcDbLine
 10
423.8845159892459
 20
149.7694802228588
 30
0.0
 11
423.8845159892459
 21
145.7694546540771
 31
0.0
  0
LINE
  5
103
330
1F
100
AcDbEntity
  8
1-1
  6
JWW_DASHED1
 62
     2
370
     9
100
AcDbLine
 10
279.1175218222273
 20
308.032065012238
 30
0.0
 11
279.1175218222273
 21
293.3859534465707
 31
0.0
  0
LINE
  5
104
330
1F
100
AcDbEntity
  8
1-1
  6
Continuous
 62
     2
370
     9
100
AcDbLine
 10
281.1174047007112
 20
295.7695412580151
 30
0.0
 11
274.1174805822569
 21
287.4271323818538
 31
0.0
  0
LINE
  5
105
330
1F
100
AcDbEntity
  8
1-1
  6
Continuous
 62
     2
370
     9
100
AcDbLine
 10
279.1175218222273
 20
293.3859534465707
 30
0.0
 11
279.1175218222273
 21
180.769446406083
 31
0.0
  0
LINE
  5
106
330
1F
100
AcDbEntity
  8
1-1
  6
Continuous
 62
     2
370
     9
100
AcDbLine
 10
309.1176207981564
 20
150.7694587780741
 30
0.0
 11
425.0763098949679
 21
150.7694587780741
 31
0.0
  0
LINE
  5
107
330
1F
100
AcDbEntity
  8
1-1
  6
Continuous
 62
     2
370
     9
100
AcDbLine
 10
289.1175300702214
 20
325.7694175381038
 30
0.0
 11
274.1174805822569
 21
325.7694175381038
 31
0.0
  0
LINE
  5
108
330
1F
100
AcDbEntity
  8
1-1
  6
Continuous
 62
     2
370
     9
100
AcDbLine
 10
454.1174805822569
 20
160.7694299100948
 30
0.0
 11
454.1174805822569
 21
145.7694546540771
 31
0.0
  0
LINE
  5
109
330
1F
100
AcDbEntity
  8
1-1
  6
Continuous
 62
     2
370
     9
100
AcDbLine
 10
365.7752284179833
 20
153.7694315596937
 30
0.0
 11
362.6087904956859
 21
151.1125588361401
 31
0.0
  0
LINE
  5
10A
330
1F
100
AcDbEntity
  8
1-1
  6
Continuous
 62
     2
370
     9
100
AcDbLine
 10
374.8528304951581
 20
160.7694299100948
 30
0.0
 11
391.2901589368811
 21
160.7694299100948
 31
0.0
  0
LINE
  5
10B
330
1F
100
AcDbEntity
  8
1-1
  6
Continuous
 62
     2
370
     9
100
AcDbLine
 10
410.9916887748245
 20
160.7694299100948
 30
0.0
 11
428.8764659470162
 21
160.7694299100948
 31
0.0
  0
LINE
  5
10C
330
1F
100
AcDbEntity
  8
1-1
  6
Continuous
 62
     2
370
     9
100
AcDbLine
 10
443.1174937790475
 20
160.7694299100948
 30
0.0
 11
454.1174805822569
 21
160.7694299100948
 31
0.0
  0
LINE
  5
10D
330
1F
100
AcDbEntity
  8
1-1
  6
Continuous
 62
     2
370
     9
100
AcDbLine
 10
360.199963822333
 20
153.7694315596937
 30
0.0
 11
360.199963822333
 21
152.2357253070543
 31
0.0
  0
LINE
  5
10E
330
1F
100
AcDbEntity
  8
1-2
  6
Continuous
 62
     6
370
     5
100
AcDbLine
 10
353.8670879777383
 20
160.6113900953778
 30
0.0
 11
395.0350121885701
 21
200.3667174747591
 31
0.0
  0
LINE
  5
10F
330
1F
100
AcDbEntity
  8
1-1
  6
Continuous
 62
     2
370
     9
100
AcDbLine
 10
354.0307694204114
 20
160.7694299100948
 30
0.0
 11
338.7138979835448
 21
160.7694299100948
 31
0.0
  0
LINE
  5
110
330
1F
100
AcDbEntity
  8
1-1
  6
Continuous
 62
     2
370
     9
100
AcDbLine
 10
316.6080696210026
 20
160.7694299100948
 30
0.0
 11
309.1176207981564
 21
160.7694299100948
 31
0.0
  0
LINE
  5
111
330
1F
100
AcDbEntity
  8
1-1
  6
Continuous
 62
     2
370
     9
100
AcDbLine
 10
289.1175300702214
 20
180.769446406083
 30
0.0
 11
289.1175300702214
 21
188.2597096490623
 31
0.0
  0
LINE
  5
112
330
1F
100
AcDbEntity
  8
1-1
  6
Continuous
 62
     2
370
     9
100
AcDbLine
 10
289.1175300702214
 20
210.3658349393917
 30
0.0
 11
289.1175300702214
 21
225.6825950283381
 31
0.0
  0
LINE
  5
113
330
1F
100
AcDbEntity
  8
1-1
  6
Continuous
 62
     2
370
     9
100
AcDbLine
 10
289.1175300702214
 20
246.5046561030848
 30
0.0
 11
289.1175300702214
 21
263.1055175235873
 31
0.0
  0
LINE
  5
114
330
1F
100
AcDbEntity
  8
1-1
  6
Continuous
 62
     2
370
     9
100
AcDbLine
 10
289.1175300702214
 20
282.6436257306713
 30
0.0
 11
289.1175300702214
 21
285.0791759048689
 31
0.0
  0
LINE
  5
115
330
1F
100
AcDbEntity
  8
1-1
  6
Continuous
 62
     2
370
     9
100
AcDbLine
 10
289.1175300702214
 20
314.7693565029475
 30
0.0
 11
289.1175300702214
 21
325.7694175381038
 31
0.0
  0
LINE
  5
116
330
1F
100
AcDbEntity
  8
1-2
  6
Continuous
 62
     6
370
     5
100
AcDbLine
 10
287.1175729597906
 20
315.7694835220564
 30
0.0
 11
281.1174047007112
 21
308.6190170155108
 31
0.0
  0
LINE
  5
117
330
1F
100
AcDbEntity
  8
1-2
  6
JWW_DASHED1
 62
     6
370
     5
100
AcDbLine
 10
281.1174047007112
 20
308.6190170155108
 30
0.0
 11
279.1175218222273
 21
306.2354292040666
 31
0.0
  0
LINE
  5
118
330
1F
100
AcDbEntity
  8
1-2
  6
Continuous
 62
     6
370
     5
100
AcDbLine
 10
444.1175465662095
 20
158.7694356836907
 30
0.0
 11
438.1587997334394
 21
153.7695429076139
 31
0.0
  0
LINE
  5
119
330
1F
100
AcDbEntity
  8
1-2
  6
JWW_DASHED1
 62
     6
370
     5
100
AcDbLine
 10
438.1587997334394
 20
153.7695429076139
 30
0.0
 11
434.5835664801666
 21
150.7694587780741
 31
0.0
  0
LINE
  5
11A
330
1F
100
AcDbEntity
  8
1-2
  6
JWW_DASHED1
 62
     6
370
     5
100
AcDbLine
 10
434.5835664801666
 20
150.7694587780741
 30
0.0
 11
425.0763098949679
 21
150.7694587780741
 31
0.0
  0
LINE
  5
11B
330
1F
100
AcDbEntity
  8
1-1
  6
JWW_DASHED1
 62
     2
370
     9
100
AcDbLine
 10
434.5835664801666
 20
150.7694587780741
 30
0.0
 11
454.1174805822569
 21
150.7694587780741
 31
0.0
  0
LINE
  5
11C
330
1F
100
AcDbEntity
  8
1-2
  6
Continuous
 62
     4
370
     9
100
AcDbLine
 10
290.717451219398
 20
306.7695280612245
 30
0.0
 11
288.1174030511125
 21
306.7695280612245
 31
0.0
  0
LINE
  5
11D
330
1F
100
AcDbEntity
  8
1-2
  6
Continuous
 62
     4
370
     9
100
AcDbLine
 10
290.717451219398
 20
294.7696369347465
 30
0.0
 11
288.1174030511125
 21
294.7696369347465
 31
0.0
  0
LINE
  5
11E
330
1F
100
AcDbEntity
  8
1-2
  6
Continuous
 62
     4
370
     9
100
AcDbLine
 10
290.717451219398
 20
300.2905637453462
 30
0.0
 11
290.717451219398
 21
301.2486012506248
 31
0.0
  0
LINE
  5
11F
330
1F
100
AcDbEntity
  8
1-2
  6
Continuous
 62
     4
370
     9
100
AcDbLine
 10
276.1175119246344
 20
303.7695181636316
 30
0.0
 11
276.1175119246344
 21
297.7694983684457
 31
0.0
  0
LINE
  5
120
330
1F
100
AcDbEntity
  8
1-2
  6
Continuous
 62
     4
370
     9
100
AcDbLine
 10
286.1174459406817
 20
303.7695181636316
 30
0.0
 11
276.1175119246344
 21
303.7695181636316
 31
0.0
  0
LINE
  5
121
330
1F
100
AcDbEntity
  8
1-2
  6
Continuous
 62
     4
370
     9
100
AcDbLine
 10
288.1174030511125
 20
306.7695280612245
 30
0.0
 11
288.1174030511125
 21
294.7696369347465
 31
0.0
  0
LINE
  5
122
330
1F
100
AcDbEntity
  8
1-2
  6
Continuous
 62
     4
370
     9
100
AcDbLine
 10
286.1174459406817
 20
297.7694983684457
 30
0.0
 11
276.1175119246344
 21
297.7694983684457
 31
0.0
  0
LINE
  5
123
330
1F
100
AcDbEntity
  8
1-2
  6
Continuous
 62
     4
370
     9
100
AcDbLine
 10
286.1174459406817
 20
302.8995197472465
 30
0.0
 11
276.1175119246344
 21
302.8995197472465
 31
0.0
  0
LINE
  5
124
330
1F
100
AcDbEntity
  8
1-2
  6
Continuous
 62
     4
370
     9
100
AcDbLine
 10
286.1174459406817
 20
298.6394225528841
 30
0.0
 11
276.1175119246344
 21
298.6394225528841
 31
0.0
  0
LINE
  5
125
330
1F
100
AcDbEntity
  8
1-2
  6
Continuous
 62
     4
370
     9
100
AcDbLine
 10
286.1174459406817
 20
298.6394225528841
 30
0.0
 11
287.9899467984731
 21
297.5874816349154
 31
0.0
  0
LINE
  5
126
330
1F
100
AcDbEntity
  8
1-2
  6
Continuous
 62
     4
370
     9
100
AcDbLine
 10
286.1174459406817
 20
297.7694983684457
 30
0.0
 11
286.8812926731564
 21
298.2103619004348
 31
0.0
  0
LINE
  5
127
330
1F
100
AcDbEntity
  8
1-2
  6
Continuous
 62
     4
370
     9
100
AcDbLine
 10
286.1174459406817
 20
302.8995197472465
 30
0.0
 11
287.9899467984731
 21
303.9514606652152
 31
0.0
  0
LINE
  5
128
330
1F
100
AcDbEntity
  8
1-2
  6
Continuous
 62
     4
370
     9
100
AcDbLine
 10
286.1174459406817
 20
303.7695181636316
 30
0.0
 11
286.8812926731564
 21
303.3285803996957
 31
0.0
  0
LINE
  5
129
330
1F
100
AcDbEntity
  8
1-2
  6
Continuous
 62
     4
370
     9
100
AcDbLine
 10
292.7060508419697
 20
301.2486012506248
 30
0.0
 11
290.717451219398
 21
301.2486012506248
 31
0.0
  0
LINE
  5
12A
330
1F
100
AcDbEntity
  8
1-2
  6
Continuous
 62
     4
370
     9
100
AcDbLine
 10
286.1174459406817
 20
303.7695181636316
 30
0.0
 11
286.1174459406817
 21
297.7694983684457
 31
0.0
  0
LINE
  5
12B
330
1F
100
AcDbEntity
  8
1-2
  6
Continuous
 62
     4
370
     9
100
AcDbLine
 10
292.7060508419697
 20
300.2905637453462
 30
0.0
 11
290.717451219398
 21
300.2905637453462
 31
0.0
  0
LINE
  5
12C
330
1F
100
AcDbEntity
  8
1-2
  6
Continuous
 62
     6
370
     5
100
AcDbLine
 10
288.1174030511125
 20
294.618500691081
 30
0.0
 11
288.1174030511125
 21
298.2807337859923
 31
0.0
  0
LINE
  5
12D
330
1F
100
AcDbEntity
  8
1-2
  6
Continuous
 62
     6
370
     5
100
AcDbLine
 10
288.1174030511125
 20
306.7695280612245
 30
0.0
 11
288.1174030511125
 21
315.7694835220564
 31
0.0
  0
LINE
  5
12E
330
1F
100
AcDbEntity
  8
1-2
  6
Continuous
 62
     6
370
     5
100
AcDbLine
 10
282.1174574878734
 20
180.769446406083
 30
0.0
 11
282.1174574878734
 21
297.7694983684457
 31
0.0
  0
LINE
  5
12F
330
1F
100
AcDbEntity
  8
1-2
  6
Continuous
 62
     6
370
     5
100
AcDbLine
 10
282.1174574878734
 20
303.7695181636316
 30
0.0
 11
282.1174574878734
 21
309.8106624573394
 31
0.0
  0
LINE
  5
130
330
1F
100
AcDbEntity
  8
1-1
  6
Continuous
 62
     2
370
     9
100
AcDbLine
 10
281.1174047007112
 20
295.7695412580151
 30
0.0
 11
281.1174047007112
 21
297.7694983684457
 31
0.0
  0
LINE
  5
131
330
1F
100
AcDbEntity
  8
1-1
  6
Continuous
 62
     2
370
     9
100
AcDbLine
 10
281.1174047007112
 20
303.7695181636316
 30
0.0
 11
281.1174047007112
 21
325.7694175381038
 31
0.0
  0
LINE
  5
132
330
1F
100
AcDbEntity
  8
1-2
  6
JWW_DASHED1
 62
     6
370
     5
100
AcDbLine
 10
312.9227503906395
 20
282.4787565768495
 30
0.0
 11
292.4840973210659
 21
302.9174838783698
 31
0.0
  0
LINE
  5
133
330
1F
100
AcDbEntity
  8
1-2
  6
JWW_DASHED1
 62
     6
370
     5
100
AcDbLine
 10
288.6322016021048
 20
306.7695280612245
 30
0.0
 11
288.1174030511125
 21
307.2841781483233
 31
0.0
  0
LINE
  5
134
330
1F
100
AcDbEntity
  8
1-2
  6
JWW_DASHED1
 62
     6
370
     5
100
AcDbLine
 10
291.9891929318134
 20
304.5159946205573
 30
0.0
 11
296.6028568887392
 21
307.2841781483233
 31
0.0
  0
LINE
  5
135
330
1F
100
AcDbEntity
  8
1-1
  6
JWW_CENTER1
 62
     2
370
     9
100
AcDbLine
 10
292.5630058805044
 20
300.7694340340919
 30
0.0
 11
273.3476952940389
 21
300.7694340340919
 31
0.0
  0
LINE
  5
136
330
1F
100
AcDbEntity
  8
1-1
  6
Continuous
 62
     2
370
     9
100
AcDbLine
 10
276.1175119246344
 20
303.7695181636316
 30
0.0
 11
274.1174805822569
 21
303.7695181636316
 31
0.0
  0
LINE
  5
137
330
1F
100
AcDbEntity
  8
1-1
  6
Continuous
 62
     2
370
     9
100
AcDbLine
 10
276.1175119246344
 20
302.8995197472465
 30
0.0
 11
274.1174805822569
 21
302.8995197472465
 31
0.0
  0
LINE
  5
138
330
1F
100
AcDbEntity
  8
1-1
  6
Continuous
 62
     2
370
     9
100
AcDbLine
 10
276.1175119246344
 20
298.6394225528841
 30
0.0
 11
274.1174805822569
 21
298.6394225528841
 31
0.0
  0
LINE
  5
139
330
1F
100
AcDbEntity
  8
1-1
  6
Continuous
 62
     2
370
     9
100
AcDbLine
 10
276.1175119246344
 20
297.7694983684457
 30
0.0
 11
274.1174805822569
 21
297.7694983684457
 31
0.0
  0
LINE
  5
13A
330
1F
100
AcDbEntity
  8
1-2
  6
Continuous
 62
     6
370
     5
100
AcDbLine
 10
288.1174772830592
 20
284.8797146638427
 30
0.0
 11
288.1174772830592
 21
285.4533791486401
 31
0.0
  0
LINE
  5
13B
330
1F
100
AcDbEntity
  8
1-9
  6
Continuous
 62
     2
370
     9
100
AcDbLine
 10
379.3752633894781
 20
238.8060609014378
 30
0.0
 11
386.4462274810111
 21
231.7350596939314
 31
0.0
  0
LINE
  5
13C
330
1F
100
AcDbEntity
  8
1-9
  6
JWW_DASHED1
 62
     2
370
     9
100
AcDbLine
 10
379.0215481630212
 20
238.4524199069276
 30
0.0
 11
386.0926607184478
 21
231.3813815834479
 31
0.0
  0
LINE
  5
13D
330
1F
100
AcDbEntity
  8
1-9
  6
JWW_DASHED1
 62
     2
370
     9
100
AcDbLine
 10
372.6576433646681
 20
232.0885151085746
 30
0.0
 11
379.7287559200947
 21
225.0174767850948
 31
0.0
  0
LINE
  5
13E
330
1F
100
AcDbEntity
  8
1-9
  6
Continuous
 62
     2
370
     9
100
AcDbLine
 10
372.3042250659984
 20
231.7348741140644
 30
0.0
 11
379.3752633894781
 21
224.6639100225316
 31
0.0
  0
LINE
  5
13F
330
1F
100
AcDbEntity
  8
1-9
  6
Continuous
 62
     2
370
     9
100
AcDbLine
 10
369.4758394293853
 20
228.9064884774512
 30
0.0
 11
376.5468035209181
 21
221.8354872699449
 31
0.0
  0
LINE
  5
140
330
1F
100
AcDbEntity
  8
1-9
  6
Continuous
 62
     2
370
     9
100
AcDbLine
 10
369.3869095571301
 20
228.8176699531164
 30
0.0
 11
376.45794788061
 21
221.7465945136633
 31
0.0
  0
LINE
  5
141
330
1F
100
AcDbEntity
  8
1-9
  6
Continuous
 62
     2
370
     9
100
AcDbLine
 10
361.6976675807789
 20
221.1283537448183
 30
0.0
 11
368.7686316723117
 21
214.0572783053651
 31
0.0
  0
LINE
  5
142
330
1F
100
AcDbEntity
  8
1-9
  6
Continuous
 62
     2
370
     9
100
AcDbLine
 10
379.3752633894781
 20
238.8060609014378
 30
0.0
 11
361.6976675807789
 21
221.1283537448183
 31
0.0
  0
LINE
  5
143
330
1F
100
AcDbEntity
  8
1-9
  6
Continuous
 62
     2
370
     9
100
AcDbLine
 10
386.4462274810111
 20
231.7350596939314
 30
0.0
 11
368.7686316723117
 21
214.0572783053651
 31
0.0
  0
LINE
  5
144
330
1F
100
AcDbEntity
  8
1-6
  6
Continuous
 62
     6
370
     5
100
AcDbLine
 10
400.8378719330803
 20
248.9549413187203
 30
0.0
 11
396.595145014267
 21
253.1975568896134
 31
0.0
  0
LINE
  5
145
330
1F
100
AcDbEntity
  8
1-6
  6
Continuous
 62
     6
370
     5
100
AcDbLine
 10
395.850598587958
 20
260.3061194621957
 30
0.0
 11
395.1810264279072
 21
260.9757658541932
 31
0.0
  0
LINE
  5
146
330
1F
100
AcDbEntity
  8
1-6
  6
Continuous
 62
     6
370
     5
100
AcDbLine
 10
396.922953291294
 20
256.592666323999
 30
0.0
 11
395.5345931904706
 21
252.1368937178968
 31
0.0
  0
LINE
  5
147
330
1F
100
AcDbEntity
  8
1-6
  6
Continuous
 62
     6
370
     5
100
AcDbLine
 10
394.2375383841995
 20
251.3128077606016
 30
0.0
 11
394.3325552760914
 21
251.2177908687098
 31
0.0
  0
LINE
  5
148
330
1F
100
AcDbEntity
  8
1-6
  6
Continuous
 62
     6
370
     5
100
AcDbLine
 10
407.9463973896894
 20
248.2103206604644
 30
0.0
 11
408.61596954974
 21
247.5407485004137
 31
0.0
  0
LINE
  5
149
330
1F
100
AcDbEntity
  8
1-6
  6
Continuous
 62
     6
370
     5
100
AcDbLine
 10
404.2328700195458
 20
249.2827495957473
 30
0.0
 11
399.7771716453903
 21
247.8943523789505
 31
0.0
  0
LINE
  5
14A
330
1F
100
AcDbEntity
  8
1-6
  6
Continuous
 62
     6
370
     5
100
AcDbLine
 10
398.952974340175
 20
246.5972233407325
 30
0.0
 11
398.8579574482831
 21
246.6922773485978
 31
0.0
  0
LINE
  5
14B
330
1F
100
AcDbEntity
  8
1-6
  6
Continuous
 62
     6
370
     5
100
AcDbLine
 10
393.4273709169275
 20
250.7085968297
 30
0.0
 11
398.3489489891403
 21
245.787092989434
 31
0.0
  0
LINE
  5
14C
330
1F
100
AcDbEntity
  8
1-6
  6
Continuous
 62
     6
370
     5
100
AcDbLine
 10
394.6153789933633
 20
251.2176052888427
 30
0.0
 11
396.595145014267
 21
253.1975568896134
 31
0.0
  0
LINE
  5
14D
330
1F
100
AcDbEntity
  8
1-6
  6
Continuous
 62
     6
370
     5
100
AcDbLine
 10
395.32251251849
 20
250.5105459956629
 30
0.0
 11
397.3022785393937
 21
252.4904975964335
 31
0.0
  0
LINE
  5
14E
330
1F
100
AcDbEntity
  8
1-6
  6
Continuous
 62
     6
370
     5
100
AcDbLine
 10
398.1507496912095
 20
247.6822345909965
 30
0.0
 11
400.1308126399005
 21
249.6620748438469
 31
0.0
  0
LINE
  5
14F
330
1F
100
AcDbEntity
  8
1-6
  6
Continuous
 62
     6
370
     5
100
AcDbLine
 10
398.8579574482831
 20
246.9751010658698
 30
0.0
 11
400.8377234691867
 21
248.9549413187203
 31
0.0
  0
LINE
  5
150
330
1F
100
AcDbEntity
  8
1-9
  6
Continuous
 62
     2
370
     9
100
AcDbLine
 10
394.7566423881058
 20
249.379251126575
 30
0.0
 11
381.7794134501834
 21
236.4018366087858
 31
0.0
  0
LINE
  5
151
330
1F
100
AcDbEntity
  8
1-9
  6
Continuous
 62
     2
370
     9
100
AcDbLine
 10
397.0194548221217
 20
247.1164758085323
 30
0.0
 11
384.0422258841995
 21
234.1390984067165
 31
0.0
  0
LINE
  5
152
330
1F
100
AcDbEntity
  8
1-9
  6
Continuous
 62
     2
370
     9
100
AcDbLine
 10
394.530457646235
 20
249.7187138192481
 30
0.0
 11
381.4964412690178
 21
236.6847716739779
 31
0.0
  0
LINE
  5
153
330
1F
100
AcDbEntity
  8
1-9
  6
Continuous
 62
     2
370
     9
100
AcDbLine
 10
397.3022785393937
 20
246.8336520912604
 30
0.0
 11
384.3250496014714
 21
233.8562746894445
 31
0.0
  0
LINE
  5
154
330
1F
100
AcDbEntity
  8
1-9
  6
JWW_DASHED1
 62
     2
370
     9
100
AcDbLine
 10
362.0511601113955
 20
221.4818833914082
 30
0.0
 11
369.1221242029283
 21
214.4109192998753
 31
0.0
  0
LINE
  5
155
330
1F
100
AcDbEntity
  8
1-2
  6
Continuous
 62
     6
370
     5
100
AcDbLine
 10
357.2081194388869
 20
238.1934246445755
 30
0.0
 11
440.0474089236842
 21
155.3542093917249
 31
0.0
  0
LINE
  5
156
330
1F
100
AcDbEntity
  8
1-2
  6
Continuous
 62
     6
370
     5
100
AcDbLine
 10
360.7441582242544
 20
243.1426912329412
 30
0.0
 11
444.1175465662095
 21
159.7694884708529
 31
0.0
  0
LINE
  5
157
330
1F
100
AcDbEntity
  8
1-3
  6
Continuous
 62
     4
370
     9
100
AcDbLine
 10
450.5400203705803
 20
163.9245474605066
 30
0.0
 11
439.9624875765559
 21
163.9245474605066
 31
0.0
  0
LINE
  5
158
330
1F
100
AcDbEntity
  8
1-3
  6
Continuous
 62
     4
370
     9
100
AcDbLine
 10
289.2014864020416
 20
324.9475956551857
 30
0.0
 11
289.2014864020416
 21
314.6854001711274
 31
0.0
  0
LINE
  5
159
330
1F
100
AcDbEntity
  8
1-2
  6
Continuous
 62
     6
370
     5
100
AcDbLine
 10
288.1174030511125
 20
315.7694835220564
 30
0.0
 11
361.8749334697147
 21
242.0120644513744
 31
0.0
  0
LINE
  5
15A
330
1F
100
AcDbEntity
  8
1-2
  6
Continuous
 62
     6
370
     5
100
AcDbLine
 10
312.9228246225862
 20
282.4787565768495
 30
0.0
 11
357.2081936708337
 21
238.1934988765223
 31
0.0
  0
LINE
  5
15B
330
1F
100
AcDbEntity
  8
1-2
  6
Continuous
 62
     6
370
     5
100
AcDbLine
 10
293.2015490867965
 20
210.443889831442
 30
0.0
 11
339.8804530273583
 21
255.5212024040244
 31
0.0
  0
LINE
  5
15C
330
1F
100
AcDbEntity
  8
1-2
  6
Continuous
 62
     6
370
     5
100
AcDbLine
 10
288.9595644874511
 20
188.0961395543094
 30
0.0
 11
347.0995840846851
 21
248.302034230724
 31
0.0
  0
LINE
  5
15D
330
1F
100
AcDbEntity
  8
1-B
  6
Continuous
 62
     4
370
     9
100
AcDbLine
 10
303.0697956292375
 20
305.2082817563258
 30
0.0
 11
303.0697956292375
 21
314.5082085141383
 31
0.0
  0
LINE
  5
15E
330
1F
100
AcDbEntity
  8
1-B
  6
Continuous
 62
     4
370
     9
100
AcDbLine
 10
292.3697801230086
 20
319.5083239860556
 30
0.0
 11
292.3008186444401
 21
319.5083239860556
 31
0.0
  0
LINE
  5
15F
330
1F
100
AcDbEntity
  8
1-B
  6
Continuous
 62
     4
370
     9
100
AcDbLine
 10
292.3697801230086
 20
320.2083312442904
 30
0.0
 11
292.3008186444401
 21
320.2083312442904
 31
0.0
  0
LINE
  5
160
330
1F
100
AcDbEntity
  8
1-B
  6
Continuous
 62
     4
370
     9
100
AcDbLine
 10
302.3697883710026
 20
305.2082817563258
 30
0.0
 11
302.3697883710026
 21
314.5082085141383
 31
0.0
  0
LINE
  5
161
330
1F
100
AcDbEntity
  8
1-B
  6
Continuous
 62
     4
370
     9
100
AcDbLine
 10
307.3697553790262
 20
304.5081260341975
 30
0.0
 11
299.3787605389714
 21
304.5081260341975
 31
0.0
  0
LINE
  5
162
330
1F
100
AcDbEntity
  8
1-B
  6
Continuous
 62
     4
370
     9
100
AcDbLine
 10
307.3697553790262
 20
305.2082817563258
 30
0.0
 11
298.6786048168429
 21
305.2082817563258
 31
0.0
  0
LINE
  5
163
330
1F
100
AcDbEntity
  8
1-B
  6
Continuous
 62
     4
370
     9
100
AcDbLine
 10
302.3699368348962
 20
309.5082415061147
 30
0.0
 11
294.3786450670542
 21
309.5082415061147
 31
0.0
  0
LINE
  5
164
330
1F
100
AcDbEntity
  8
1-B
  6
Continuous
 62
     4
370
     9
100
AcDbLine
 10
302.3699368348962
 20
310.2082487643495
 30
0.0
 11
293.6786378088194
 21
310.2082487643495
 31
0.0
  0
LINE
  5
165
330
1F
100
AcDbEntity
  8
1-B
  6
Continuous
 62
     4
370
     9
100
AcDbLine
 10
293.0696389173498
 20
310.8172476558191
 30
0.0
 11
293.0696389173498
 21
314.5082085141383
 31
0.0
  0
LINE
  5
166
330
1F
100
AcDbEntity
  8
1-B
  6
Continuous
 62
     4
370
     9
100
AcDbLine
 10
292.3695574271681
 20
311.5173291460007
 30
0.0
 11
292.3695574271681
 21
314.5082085141383
 31
0.0
  0
LINE
  5
167
330
1F
100
AcDbEntity
  8
1-B
  6
Continuous
 62
     4
370
     9
100
AcDbLine
 10
318.8636073242333
 20
305.2082817563258
 30
0.0
 11
308.069836869208
 21
305.2082817563258
 31
0.0
  0
LINE
  5
168
330
1F
100
AcDbEntity
  8
1-B
  6
Continuous
 62
     4
370
     9
100
AcDbLine
 10
319.876205310403
 20
304.5081260341975
 30
0.0
 11
308.069836869208
 21
304.5081260341975
 31
0.0
  0
LINE
  5
169
330
1F
100
AcDbEntity
  8
1-B
  6
Continuous
 62
     4
370
     9
100
AcDbLine
 10
313.0701008050187
 20
305.2082817563258
 30
0.0
 11
313.0701008050187
 21
309.1359682929601
 31
0.0
  0
LINE
  5
16A
330
1F
100
AcDbEntity
  8
1-B
  6
Continuous
 62
     4
370
     9
100
AcDbLine
 10
312.3700193148372
 20
305.2082817563258
 30
0.0
 11
312.3700193148372
 21
309.601699527124
 31
0.0
  0
LINE
  5
16B
330
1F
100
AcDbEntity
  8
1-B
  6
Continuous
 62
     4
370
     9
100
AcDbLine
 10
312.5106888540051
 20
309.5082415061147
 30
0.0
 11
303.0697956292375
 21
309.5082415061147
 31
0.0
  0
LINE
  5
16C
330
1F
100
AcDbEntity
  8
1-B
  6
Continuous
 62
     4
370
     9
100
AcDbLine
 10
311.4539970914419
 20
310.2082487643495
 30
0.0
 11
303.0697956292375
 21
310.2082487643495
 31
0.0
  0
LINE
  5
16D
330
1F
100
AcDbEntity
  8
1-B
  6
Continuous
 62
     4
370
     9
100
AcDbLine
 10
308.0700595650483
 20
310.2083972282431
 30
0.0
 11
308.0700595650483
 21
312.4211030981755
 31
0.0
  0
LINE
  5
16E
330
1F
100
AcDbEntity
  8
1-B
  6
Continuous
 62
     4
370
     9
100
AcDbLine
 10
307.3699780748667
 20
310.2082487643495
 30
0.0
 11
307.3699780748667
 21
312.8734725819171
 31
0.0
  0
LINE
  5
16F
330
1F
100
AcDbEntity
  8
1-3
  6
Continuous
 62
     4
370
     9
100
AcDbLine
 10
308.0700595650483
 20
309.5082415061147
 30
0.0
 11
308.0700595650483
 21
300.6399735188892
 31
0.0
  0
LINE
  5
170
330
1F
100
AcDbEntity
  8
1-3
  6
Continuous
 62
     4
370
     9
100
AcDbLine
 10
307.3699780748667
 20
309.5082415061147
 30
0.0
 11
307.3699780748667
 21
300.541170797711
 31
0.0
  0
LINE
  5
171
330
1F
100
AcDbEntity
  8
1-B
  6
Continuous
 62
     4
370
     9
100
AcDbLine
 10
304.8161764094317
 20
314.5082085141383
 30
0.0
 11
298.0699028531606
 21
314.5082085141383
 31
0.0
  0
LINE
  5
172
330
1F
100
AcDbEntity
  8
1-B
  6
Continuous
 62
     4
370
     9
100
AcDbLine
 10
303.7107884897737
 20
315.2082157723732
 30
0.0
 11
298.0699028531606
 21
315.2082157723732
 31
0.0
  0
LINE
  5
173
330
1F
100
AcDbEntity
  8
1-B
  6
Continuous
 62
     4
370
     9
100
AcDbLine
 10
298.0699028531606
 20
310.2083972282431
 30
0.0
 11
298.0699028531606
 21
318.7109986455785
 31
0.0
  0
LINE
  5
174
330
1F
100
AcDbEntity
  8
1-B
  6
Continuous
 62
     4
370
     9
100
AcDbLine
 10
297.3698213629791
 20
310.2082487643495
 30
0.0
 11
297.3698213629791
 21
319.1376838757304
 31
0.0
  0
LINE
  5
175
330
1F
100
AcDbEntity
  8
1-B
  6
Continuous
 62
     4
370
     9
100
AcDbLine
 10
296.7594120645205
 20
319.5083239860556
 30
0.0
 11
292.1594067858042
 21
319.5083239860556
 31
0.0
  0
LINE
  5
176
330
1F
100
AcDbEntity
  8
1-B
  6
Continuous
 62
     4
370
     9
100
AcDbLine
 10
295.6004286792797
 20
320.2083312442904
 30
0.0
 11
292.1594067858042
 21
320.2083312442904
 31
0.0
  0
LINE
  5
177
330
1F
100
AcDbEntity
  8
1-3
  6
Continuous
 62
     4
370
     9
100
AcDbLine
 10
293.0696389173498
 20
315.2082157723732
 30
0.0
 11
293.0696389173498
 21
319.5083239860556
 31
0.0
  0
LINE
  5
178
330
1F
100
AcDbEntity
  8
1-3
  6
Continuous
 62
     4
370
     9
100
AcDbLine
 10
292.1594067858042
 20
322.2587660785387
 30
0.0
 11
292.1594067858042
 21
311.7274797873647
 31
0.0
  0
LINE
  5
179
330
1F
100
AcDbEntity
  8
1-B
  6
Continuous
 62
     4
370
     9
100
AcDbLine
 10
297.3698955949258
 20
315.2082157723732
 30
0.0
 11
292.1594067858042
 21
315.2082157723732
 31
0.0
  0
LINE
  5
17A
330
1F
100
AcDbEntity
  8
1-B
  6
Continuous
 62
     4
370
     9
100
AcDbLine
 10
297.3698955949258
 20
314.5082085141383
 30
0.0
 11
292.1594067858042
 21
314.5082085141383
 31
0.0
  0
LINE
  5
17B
330
1F
100
AcDbEntity
  8
1-3
  6
Continuous
 62
     4
370
     9
100
AcDbLine
 10
292.3695574271681
 20
315.2082157723732
 30
0.0
 11
292.3695574271681
 21
319.5083239860556
 31
0.0
  0
LINE
  5
17C
330
1F
100
AcDbEntity
  8
1-9
  6
Continuous
 62
     2
370
     9
100
AcDbLine
 10
402.4268809860787
 20
257.6151742750653
 30
0.0
 11
402.9925284206226
 21
257.6151742750653
 31
0.0
  0
LINE
  5
17D
330
1F
100
AcDbEntity
  8
1-9
  6
Continuous
 62
     2
370
     9
100
AcDbLine
 10
405.2553408546386
 20
255.3523247250758
 30
0.0
 11
405.2553408546386
 21
254.7866772905319
 31
0.0
  0
LINE
  5
17E
330
1F
100
AcDbEntity
  8
1-9
  6
Continuous
 62
     2
370
     9
100
AcDbLine
 10
402.9925284206226
 20
257.6151742750653
 30
0.0
 11
405.2553408546386
 21
255.3523247250758
 31
0.0
  0
LINE
  5
17F
330
1F
100
AcDbEntity
  8
1-9
  6
Continuous
 62
     2
370
     9
100
AcDbLine
 10
402.4268809860787
 20
257.6151742750653
 30
0.0
 11
405.2553408546386
 21
254.7866772905319
 31
0.0
  0
LINE
  5
180
330
1F
100
AcDbEntity
  8
1-9
  6
JWW_CENTER1
 62
     2
370
     9
100
AcDbLine
 10
405.6444647197147
 20
258.0041867922212
 30
0.0
 11
382.2318571658717
 21
234.5915050064314
 31
0.0
  0
LINE
  5
181
330
1F
100
AcDbEntity
  8
1-9
  6
Continuous
 62
     2
370
     9
100
AcDbLine
 10
402.9925284206226
 20
257.6151742750653
 30
0.0
 11
397.5851022566656
 21
252.2076738791615
 31
0.0
  0
LINE
  5
182
330
1F
100
AcDbEntity
  8
1-9
  6
Continuous
 62
     2
370
     9
100
AcDbLine
 10
405.2553408546386
 20
255.3523247250758
 30
0.0
 11
399.8479889226284
 21
249.9448985611189
 31
0.0
  0
LINE
  5
183
330
1F
100
AcDbEntity
  8
1-9
  6
Continuous
 62
     2
370
     9
100
AcDbLine
 10
402.4268809860787
 20
257.6151742750653
 30
0.0
 11
397.3022785393937
 21
252.4904975964335
 31
0.0
  0
LINE
  5
184
330
1F
100
AcDbEntity
  8
1-9
  6
Continuous
 62
     2
370
     9
100
AcDbLine
 10
405.2553408546386
 20
254.7866772905319
 30
0.0
 11
400.1308126399005
 21
249.6620006119001
 31
0.0
  0
ARC
  5
185
330
1F
100
AcDbEntity
  8
1-2
  6
Continuous
 62
     6
370
     5
100
AcDbCircle
 10
420.9551749049976
 20
150.7694587780741
 30
0.0
 40
3.000000038662472
100
AcDbArc
 50
18.43502807617188
 51
90.0
  0
ARC
  5
186
330
1F
100
AcDbEntity
  8
1-2
  6
Continuous
 62
     6
370
     5
100
AcDbCircle
 10
292.1174657358675
 20
294.618500691081
 30
0.0
 40
4.000000341518505
100
AcDbArc
 50
180.0
 51
267.7972259521484
  0
ARC
  5
187
330
1F
100
AcDbEntity
  8
1-2
  6
Continuous
 62
     6
370
     5
100
AcDbCircle
 10
292.1174657358675
 20
294.618500691081
 30
0.0
 40
10.00000128874908
100
AcDbArc
 50
180.0
 51
267.7972259521484
  0
ARC
  5
188
330
1F
100
AcDbEntity
  8
1-2
  6
Continuous
 62
     6
370
     5
100
AcDbCircle
 10
309.3873054608464
 20
278.9432374151097
 30
0.0
 40
5.000000644374539
100
AcDbArc
 50
44.99980163574219
 51
87.79737854003906
  0
ARC
  5
189
330
1F
100
AcDbEntity
  8
1-2
  6
Continuous
 62
     6
370
     5
100
AcDbCircle
 10
314.3602520402383
 20
162.769424136499
 30
0.0
 40
3.000000038662472
100
AcDbArc
 50
270.0005035400391
 51
313.9999847412109
  0
ARC
  5
18A
330
1F
100
AcDbEntity
  8
1-2
  6
Continuous
 62
     6
370
     5
100
AcDbCircle
 10
340.95013538061
 20
162.769424136499
 30
0.0
 40
3.000000038662472
100
AcDbArc
 50
136.0000305175781
 51
270.0001678466797
  0
ARC
  5
18B
330
1F
100
AcDbEntity
  8
1-2
  6
Continuous
 62
     6
370
     5
100
AcDbCircle
 10
351.7831745354875
 20
162.769424136499
 30
0.0
 40
3.000000038662472
100
AcDbArc
 50
270.0003356933594
 51
313.9999847412109
  0
ARC
  5
18C
330
1F
100
AcDbEntity
  8
1-2
  6
Continuous
 62
     6
370
     5
100
AcDbCircle
 10
377.0889194283295
 20
162.769424136499
 30
0.0
 40
3.000000038662472
100
AcDbArc
 50
136.0000152587891
 51
269.9998321533203
  0
ARC
  5
18D
330
1F
100
AcDbEntity
  8
1-2
  6
Continuous
 62
     6
370
     5
100
AcDbCircle
 10
389.2061712626834
 20
162.769424136499
 30
0.0
 40
3.000000038662472
100
AcDbArc
 50
270.0005035400391
 51
313.9999847412109
  0
ARC
  5
18E
330
1F
100
AcDbEntity
  8
1-2
  6
Continuous
 62
     6
370
     5
100
AcDbCircle
 10
413.2277777079959
 20
162.769424136499
 30
0.0
 40
3.000000038662472
100
AcDbArc
 50
136.0000152587891
 51
269.9998321533203
  0
ARC
  5
18F
330
1F
100
AcDbEntity
  8
1-2
  6
Continuous
 62
     6
370
     5
100
AcDbCircle
 10
426.6288710620922
 20
162.769424136499
 30
0.0
 40
3.000000038662472
100
AcDbArc
 50
270.0
 51
313.9997406005859
  0
ARC
  5
190
330
1F
100
AcDbEntity
  8
1-2
  6
Continuous
 62
     6
370
     5
100
AcDbCircle
 10
291.1175614125989
 20
186.0121889960851
 30
0.0
 40
3.000000038662472
100
AcDbArc
 50
136.0000152587891
 51
179.9994964599609
  0
ARC
  5
191
330
1F
100
AcDbEntity
  8
1-2
  6
Continuous
 62
     6
370
     5
100
AcDbCircle
 10
291.1175614125989
 20
212.601812524643
 30
0.0
 40
3.000000038662472
100
AcDbArc
 50
179.9998321533203
 51
313.9999694824219
  0
ARC
  5
192
330
1F
100
AcDbEntity
  8
1-2
  6
Continuous
 62
     6
370
     5
100
AcDbCircle
 10
291.1175614125989
 20
223.4350001434141
 30
0.0
 40
3.000000038662472
100
AcDbArc
 50
136.0000152587891
 51
179.9996643066406
  0
ARC
  5
193
330
1F
100
AcDbEntity
  8
1-2
  6
Continuous
 62
     6
370
     5
100
AcDbCircle
 10
291.1175614125989
 20
248.7407821522296
 30
0.0
 40
3.000000038662472
100
AcDbArc
 50
180.0001678466797
 51
313.9999847412109
  0
ARC
  5
194
330
1F
100
AcDbEntity
  8
1-2
  6
Continuous
 62
     6
370
     5
100
AcDbCircle
 10
291.1175614125989
 20
260.8579597546366
 30
0.0
 40
3.000000038662472
100
AcDbArc
 50
136.0000152587891
 51
179.9994964599609
  0
ARC
  5
195
330
1F
100
AcDbEntity
  8
1-2
  6
Continuous
 62
     6
370
     5
100
AcDbCircle
 10
291.1175614125989
 20
284.8797146638427
 30
0.0
 40
3.000000038662472
100
AcDbArc
 50
180.0001678466797
 51
313.9999847412109
  0
ARC
  5
196
330
1F
100
AcDbEntity
  8
1-1
  6
JWW_DASHED1
 62
     2
370
     9
100
AcDbCircle
 10
309.1176207981564
 20
180.769446406083
 30
0.0
 40
30.00000386624723
100
AcDbArc
 50
189.3146362304688
 51
260.6853179931641
  0
ARC
  5
197
330
1F
100
AcDbEntity
  8
1-1
  6
Continuous
 62
     2
370
     9
100
AcDbCircle
 10
309.1176207981564
 20
180.769446406083
 30
0.0
 40
30.00000386624723
100
AcDbArc
 50
180.0
 51
189.3146362304688
  0
ARC
  5
198
330
1F
100
AcDbEntity
  8
1-1
  6
Continuous
 62
     2
370
     9
100
AcDbCircle
 10
309.1176207981564
 20
180.769446406083
 30
0.0
 40
30.00000386624723
100
AcDbArc
 50
260.6853179931641
 51
270.0
  0
ARC
  5
199
330
1F
100
AcDbEntity
  8
1-1
  6
Continuous
 62
     2
370
     9
100
AcDbCircle
 10
361.6662674672864
 20
152.2357253070543
 30
0.0
 40
1.466307414544595
100
AcDbArc
 50
180.0
 51
310.0002899169922
  0
ARC
  5
19A
330
1F
100
AcDbEntity
  8
1-1
  6
JWW_DASHED1
 62
     2
370
     9
100
AcDbCircle
 10
284.1174145983042
 20
308.032065012238
 30
0.0
 40
5.000000644374539
100
AcDbArc
 50
139.9997406005859
 51
180.0
  0
ARC
  5
19B
330
1F
100
AcDbEntity
  8
1-2
  6
Continuous
 62
     6
370
     5
100
AcDbCircle
 10
279.1175218222273
 20
292.6071860927913
 30
0.0
 40
3.000000038662472
100
AcDbArc
 50
0.0
 51
59.60563659667969
  0
ARC
  5
19C
330
1F
100
AcDbEntity
  8
1-2
  6
JWW_DASHED1
 62
     6
370
     5
100
AcDbCircle
 10
279.1175218222273
 20
292.6071860927913
 30
0.0
 40
3.000000038662472
100
AcDbArc
 50
59.60563659667969
 51
71.56497192382812
  0
ARC
  5
19D
330
1F
100
AcDbEntity
  8
1-2
  6
Continuous
 62
     4
370
     9
100
AcDbCircle
 10
287.8674640862687
 20
297.3694624071916
 30
0.0
 40
0.2500000213449066
100
AcDbArc
 50
0.0
 51
60.67082214355469
  0
ARC
  5
19E
330
1F
100
AcDbEntity
  8
1-2
  6
Continuous
 62
     4
370
     9
100
AcDbCircle
 10
287.8674640862687
 20
304.1694056609923
 30
0.0
 40
0.2500000213449066
100
AcDbArc
 50
299.3291778564453
 51
0.0
  0
ARC
  5
19F
330
1F
100
AcDbEntity
  8
1-2
  6
Continuous
 62
     4
370
     9
100
AcDbCircle
 10
282.717622777675
 20
300.7695824979854
 30
0.0
 40
10.00000128874908
100
AcDbArc
 50
2.745620727539063
 51
36.869873046875
  0
ARC
  5
1A0
330
1F
100
AcDbEntity
  8
1-2
  6
Continuous
 62
     4
370
     9
100
AcDbCircle
 10
282.717622777675
 20
300.7695824979854
 30
0.0
 40
10.00000128874908
100
AcDbArc
 50
323.130126953125
 51
357.2543792724609
  0
ARC
  5
1A1
330
1F
100
AcDbEntity
  8
1-2
  6
Continuous
 62
     6
370
     5
100
AcDbCircle
 10
291.5439497149637
 20
176.8747930857705
 30
0.0
 40
3.000000038662472
100
AcDbArc
 50
192.4961700439453
 51
222.5625
  0
ARC
  5
1A2
330
1F
100
AcDbEntity
  8
1-1
  6
Continuous
 62
     2
370
     9
100
AcDbCircle
 10
309.1176207981564
 20
180.769446406083
 30
0.0
 40
20.00000257749815
100
AcDbArc
 50
180.0
 51
195.6592254638672
  0
ARC
  5
1A3
330
1F
100
AcDbEntity
  8
1-1
  6
Continuous
 62
     2
370
     9
100
AcDbCircle
 10
309.1176207981564
 20
180.769446406083
 30
0.0
 40
20.00000257749815
100
AcDbArc
 50
254.34033203125
 51
270.0000000000001
  0
ARC
  5
1A4
330
1F
100
AcDbEntity
  8
1-2
  6
Continuous
 62
     6
370
     5
100
AcDbCircle
 10
305.2230417097906
 20
163.1958124388639
 30
0.0
 40
3.000000038662472
100
AcDbArc
 50
227.4339752197266
 51
257.5040893554688
  0
ARC
  5
1A5
330
1F
100
AcDbEntity
  8
1-6
  6
Continuous
 62
     6
370
     5
100
AcDbCircle
 10
393.0220644874511
 20
257.477770941556
 30
0.0
 40
3.999999761581421
100
AcDbArc
 50
347.2164916992188
 51
45.00000000000001
  0
ARC
  5
1A6
330
1F
100
AcDbEntity
  8
1-6
  6
Continuous
 62
     6
370
     5
100
AcDbCircle
 10
394.474041366674
 20
251.3591284953989
 30
0.0
 40
1.200000015464989
100
AcDbArc
 50
225.0
 51
315.0
  0
ARC
  5
1A7
330
1F
100
AcDbEntity
  8
1-6
  6
Continuous
 62
     6
370
     5
100
AcDbCircle
 10
394.474041366674
 20
251.3591284953989
 30
0.0
 40
0.1999999844544643
100
AcDbArc
 50
225.0
 51
315.0
  0
ARC
  5
1A8
330
1F
100
AcDbEntity
  8
1-6
  6
Continuous
 62
     6
370
     5
100
AcDbCircle
 10
400.7261528531606
 20
254.7452929801962
 30
0.0
 40
7.340787359186121
100
AcDbArc
 50
131.6697998046875
 51
207.8784942626953
  0
ARC
  5
1A9
330
1F
100
AcDbEntity
  8
1-6
  6
Continuous
 62
     6
370
     5
100
AcDbCircle
 10
400.7261528531606
 20
254.7452929801962
 30
0.0
 40
8.340787372073612
100
AcDbArc
 50
131.6697998046875
 51
208.9449157714844
  0
ARC
  5
1AA
330
1F
100
AcDbEntity
  8
1-6
  6
Continuous
 62
     6
370
     5
100
AcDbCircle
 10
405.1179375211294
 20
245.3819721398246
 30
0.0
 40
3.999999761581421
100
AcDbArc
 50
45.0
 51
102.7835083007812
  0
ARC
  5
1AB
330
1F
100
AcDbEntity
  8
1-6
  6
Continuous
 62
     6
370
     5
100
AcDbCircle
 10
398.9992208430255
 20
246.8336520912604
 30
0.0
 40
1.200000015464989
100
AcDbArc
 50
135.0
 51
225.0
  0
ARC
  5
1AC
330
1F
100
AcDbEntity
  8
1-6
  6
Continuous
 62
     6
370
     5
100
AcDbCircle
 10
398.9992208430255
 20
246.8336520912604
 30
0.0
 40
0.1999999844544643
100
AcDbArc
 50
135.0
 51
225.0
  0
ARC
  5
1AD
330
1F
100
AcDbEntity
  8
1-6
  6
Continuous
 62
     6
370
     5
100
AcDbCircle
 10
402.3854595597695
 20
253.0860233895607
 30
0.0
 40
7.340787359186121
100
AcDbArc
 50
242.1215057373047
 51
318.3302001953125
  0
ARC
  5
1AE
330
1F
100
AcDbEntity
  8
1-6
  6
Continuous
 62
     6
370
     5
100
AcDbCircle
 10
402.3854595597695
 20
253.0860233895607
 30
0.0
 40
8.340787372073612
100
AcDbArc
 50
241.0550842285157
 51
318.3302001953125
  0
CIRCLE
  5
1AF
330
1F
100
AcDbEntity
  8
1-B
  6
Continuous
 62
     4
370
     9
100
AcDbCircle
 10
453.0983501847695
 20
162.4363082752765
 30
0.0
 40
1.500005238764995
  0
CIRCLE
  5
1B0
330
1F
100
AcDbEntity
  8
1-B
  6
Continuous
 62
     4
370
     9
100
AcDbCircle
 10
290.7100280247189
 20
324.8668312970776
 30
0.0
 40
1.500005238764995
  0
ARC
  5
1B1
330
1F
100
AcDbEntity
  8
1-B
  6
Continuous
 62
     4
370
     9
100
AcDbCircle
 10
64.30051181906006
 20
-64.0475141091197
 30
0.0
 40
451.499967832823
100
AcDbArc
 50
30.23733520507812
 51
59.75030517578125
  0
ARC
  5
1B2
330
1F
100
AcDbEntity
  8
1-B
  6
Continuous
 62
     4
370
     9
100
AcDbCircle
 10
64.30051181906006
 20
-64.0475141091197
 30
0.0
 40
448.4999579352302
100
AcDbArc
 50
30.25558471679688
 51
59.74293518066406
  0
ARC
  5
1B3
330
1F
100
AcDbEntity
  8
1-B
  6
JWW_CENTER1
 62
     4
370
     9
100
AcDbCircle
 10
64.30051181906006
 20
-64.0475141091197
 30
0.0
 40
449.9999628840267
100
AcDbArc
 50
29.8177490234375
 51
60.08465576171875
  0
LINE
  5
1B4
330
1F
100
AcDbEntity
  8
1-6
  6
Continuous
 62
     6
370
     5
100
AcDbLine
 10
244.1174640862686
 20
-85.31365955754664
 30
0.0
 11
254.1175465662096
 21
-75.31361419357914
 31
0.0
  0
LINE
  5
1B5
330
1F
100
AcDbEntity
  8
1-6
  6
Continuous
 62
     6
370
     5
100
AcDbLine
 10
254.1175465662096
 20
-75.31361419357914
 30
0.0
 11
264.1176290461505
 21
-95.31370492151414
 31
0.0
  0
LINE
  5
1B6
330
1F
100
AcDbEntity
  8
1-6
  6
Continuous
 62
     6
370
     5
100
AcDbLine
 10
264.1176290461505
 20
-95.31370492151414
 30
0.0
 11
274.1175630621977
 21
-85.31365955754664
 31
0.0
  0
LINE
  5
1B7
330
1F
100
AcDbEntity
  8
1-6
  6
Continuous
 62
     6
370
     5
100
AcDbLine
 10
379.1176125501622
 20
-85.31365955754664
 30
0.0
 11
379.1176125501622
 21
-15.31367605353485
 31
0.0
  0
LINE
  5
1B8
330
1F
100
AcDbEntity
  8
1-6
  6
Continuous
 62
     6
370
     5
100
AcDbLine
 10
274.1175630621977
 20
-85.31365955754664
 30
0.0
 11
404.1177445180677
 21
-85.31365955754664
 31
0.0
  0
LINE
  5
1B9
330
1F
100
AcDbEntity
  8
1-6
  6
Continuous
 62
     6
370
     5
100
AcDbLine
 10
179.1172331424343
 20
378.4338951990758
 30
0.0
 11
89.11738160632787
 21
378.4338951990758
 31
0.0
  0
LINE
  5
1BA
330
1F
100
AcDbEntity
  8
1-6
  6
Continuous
 62
     6
370
     5
100
AcDbLine
 10
209.1173321183633
 20
378.4338951990758
 30
0.0
 11
199.1172496384224
 21
368.4338869510817
 31
0.0
  0
LINE
  5
1BB
330
1F
100
AcDbEntity
  8
1-6
  6
Continuous
 62
     6
370
     5
100
AcDbLine
 10
199.1172496384224
 20
368.4338869510817
 30
0.0
 11
189.1173156223752
 21
388.4339776790167
 31
0.0
  0
LINE
  5
1BC
330
1F
100
AcDbEntity
  8
1-6
  6
Continuous
 62
     6
370
     5
100
AcDbLine
 10
189.1173156223752
 20
388.4339776790167
 30
0.0
 11
179.1172331424343
 21
378.4338951990758
 31
0.0
  0
LINE
  5
1BD
330
1F
100
AcDbEntity
  8
1-6
  6
Continuous
 62
     6
370
     5
100
AcDbLine
 10
299.1174805822569
 20
378.4338951990758
 30
0.0
 11
209.1173321183633
 21
378.4338951990758
 31
0.0
  0
LINE
  5
1BE
330
1F
100
AcDbEntity
  8
1-6
  6
Continuous
 62
     6
370
     5
100
AcDbLine
 10
272.1173915039207
 20
281.762055378581
 30
0.0
 11
272.1173915039207
 21
378.4338951990758
 31
0.0
  0
LINE
  5
1BF
330
1F
100
AcDbEntity
  8
1-6
  6
Continuous
 62
     6
370
     5
100
AcDbLine
 10
264.1174145983041
 20
322.2036942220142
 30
0.0
 11
264.1174145983041
 21
378.4338951990758
 31
0.0
  0
LINE
  5
1C0
330
1F
100
AcDbEntity
  8
1-6
  6
Continuous
 62
     6
370
     5
100
AcDbLine
 10
270.11743439349
 20
281.762055378581
 30
0.0
 11
270.11743439349
 21
378.4338951990758
 31
0.0
  0
LINE
  5
1C1
330
1F
100
AcDbEntity
  8
1-6
  6
Continuous
 62
     6
370
     5
100
AcDbLine
 10
268.1173288191657
 20
281.762055378581
 30
0.0
 11
268.1173288191657
 21
378.4338951990758
 31
0.0
  0
LINE
  5
1C2
330
1F
100
AcDbEntity
  8
1-6
  6
Continuous
 62
     6
370
     5
100
AcDbLine
 10
266.1173717087349
 20
281.762055378581
 30
0.0
 11
266.1173717087349
 21
378.4338951990758
 31
0.0
  0
LINE
  5
1C3
330
1F
100
AcDbEntity
  8
1-E
  6
Continuous
 62
     7
370
     9
100
AcDbLine
 10
521.7992667506791
 20
145.4010775683313
 30
0.0
 11
521.7992667506791
 21
187.9009456004259
 31
0.0
  0
LWPOLYLINE
  5
1C4
330
1F
100
AcDbEntity
  8
1-E
  6
Continuous
 62
     7
370
     9
100
AcDbPolyline
 90
        4
 70
     1
 43
0.3
 10
521.949266750679
 20
145.4010775683313
 42
0.4142135623731
 10
521.7992667506791
 20
145.5510775683313
 42
0.4142135623731
 10
521.649266750679
 20
145.4010775683313
 42
0.4142135623731
 10
521.7992667506791
 20
145.2510775683313
 42
0.4142135623731
  0
TEXT
  5
1C5
330
1F
100
AcDbEntity
  8
1-E
  6
Continuous
 62
     2
370
     9
100
AcDbText
 10
461.7995265624928
 20
194.86281996698
 30
0.0
 40
9.144
  1
アスファルト防水層
 41
1.111111111111111
  7
ＭＳ ゴシック
100
AcDbText
  0
LINE
  5
1C6
330
1F
100
AcDbEntity
  8
1-6
  6
Continuous
 62
     6
370
     5
100
AcDbLine
 10
556.8166111758215
 20
49.68637755842671
 30
0.0
 11
556.8166111758215
 21
-40.3137709054668
 31
0.0
  0
LINE
  5
1C7
330
1F
100
AcDbEntity
  8
1-6
  6
Continuous
 62
     6
370
     5
100
AcDbLine
 10
556.8166111758215
 20
79.68651365032913
 30
0.0
 11
566.816545191869
 21
69.68646828636172
 31
0.0
  0
LINE
  5
1C8
330
1F
100
AcDbEntity
  8
1-6
  6
Continuous
 62
     6
370
     5
100
AcDbLine
 10
566.816545191869
 20
69.68646828636172
 30
0.0
 11
546.8165286958806
 21
59.68642292239421
 31
0.0
  0
LINE
  5
1C9
330
1F
100
AcDbEntity
  8
1-6
  6
Continuous
 62
     6
370
     5
100
AcDbLine
 10
546.8165286958806
 20
59.68642292239421
 30
0.0
 11
556.8166111758215
 21
49.68637755842671
 31
0.0
  0
LINE
  5
1CA
330
1F
100
AcDbEntity
  8
1-6
  6
Continuous
 62
     6
370
     5
100
AcDbLine
 10
556.8166111758215
 20
177.1176140317164
 30
0.0
 11
556.8166111758215
 21
79.68651365032913
 31
0.0
  0
LINE
  5
1CB
330
1F
100
AcDbEntity
  8
1-6
  6
Continuous
 62
     6
370
     5
100
AcDbLine
 10
429.5120481234308
 20
-15.31367605353485
 30
0.0
 11
556.8166111758215
 21
111.9908554155903
 31
0.0
  0
LINE
  5
1CC
330
1F
100
AcDbEntity
  8
1-6
  6
Continuous
 62
     6
370
     5
100
AcDbLine
 10
422.4408613360575
 20
-15.31367605353485
 30
0.0
 11
556.8166111758215
 21
119.061974036527
 31
0.0
  0
LINE
  5
1CD
330
1F
100
AcDbEntity
  8
1-6
  6
Continuous
 62
     6
370
     5
100
AcDbLine
 10
415.3698230125779
 20
-15.31367605353485
 30
0.0
 11
556.8166111758215
 21
126.133007111039
 31
0.0
  0
LINE
  5
1CE
330
1F
100
AcDbEntity
  8
1-6
  6
Continuous
 62
     6
370
     5
100
AcDbLine
 10
406.2056664854452
 20
143.2695536300061
 30
0.0
 11
556.8166111758215
 21
143.2695536300061
 31
0.0
  0
LINE
  5
1CF
330
1F
100
AcDbEntity
  8
1-6
  6
Continuous
 62
     6
370
     5
100
AcDbLine
 10
406.9335849556733
 20
141.2695965195754
 30
0.0
 11
556.8166111758215
 21
141.2695965195754
 31
0.0
  0
LINE
  5
1D0
330
1F
100
AcDbEntity
  8
1-6
  6
Continuous
 62
     6
370
     5
100
AcDbLine
 10
407.6616518897949
 20
139.2696394091446
 30
0.0
 11
556.8166111758215
 21
139.2696394091446
 31
0.0
  0
LINE
  5
1D1
330
1F
100
AcDbEntity
  8
1-6
  6
Continuous
 62
     6
370
     5
100
AcDbLine
 10
408.389570360023
 20
137.2696080667671
 30
0.0
 11
556.8166111758215
 21
137.2696080667671
 31
0.0
  0
LINE
  5
1D2
330
1F
100
AcDbEntity
  8
1-6
  6
Continuous
 62
     6
370
     5
100
AcDbLine
 10
379.1176125501622
 20
-15.31367605353485
 30
0.0
 11
556.8166111758215
 21
-15.31367605353485
 31
0.0
  0
LINE
  5
1D3
330
1F
100
AcDbEntity
  8
1-0
  6
JWW_CENTER1
 62
     3
370
     9
100
AcDbLine
 10
13.68204816394388
 20
198.6456845655896
 30
0.0
 11
281.4333441142459
 21
204.0984770358339
 31
0.0
  0
LINE
  5
1D4
330
1F
100
AcDbEntity
  8
1-6
  6
Continuous
 62
     6
370
     5
100
AcDbLine
 10
141.8258786560587
 20
294.2746177011851
 30
0.0
 11
225.9852558283435
 21
378.4338951990758
 31
0.0
  0
LINE
  5
1D5
330
1F
100
AcDbEntity
  8
1-6
  6
Continuous
 62
     6
370
     5
100
AcDbLine
 10
134.6079144585829
 20
294.1276212228123
 30
0.0
 11
218.9141884348463
 21
378.4338951990758
 31
0.0
  0
LINE
  5
1D6
330
1F
100
AcDbEntity
  8
1-6
  6
Continuous
 62
     4
370
     9
100
AcDbLine
 10
51.33621792371588
 20
215.0128129734028
 30
0.0
 11
61.33630040365682
 21
205.0128047254087
 31
0.0
  0
LINE
  5
1D7
330
1F
100
AcDbEntity
  8
1-6
  6
Continuous
 62
     4
370
     9
100
AcDbLine
 10
61.33630040365682
 20
205.0128047254087
 30
0.0
 11
41.33613544377511
 21
195.0127222454679
 31
0.0
  0
LINE
  5
1D8
330
1F
100
AcDbEntity
  8
1-6
  6
Continuous
 62
     4
370
     9
100
AcDbLine
 10
41.33613544377511
 20
195.0127222454679
 30
0.0
 11
51.33621792371588
 21
185.0127139974737
 31
0.0
  0
LINE
  5
1D9
330
1F
100
AcDbEntity
  8
1-6
  6
Continuous
 62
     4
370
     9
100
AcDbLine
 10
51.33621792371588
 20
302.159914002485
 30
0.0
 11
51.33621792371588
 21
215.0128129734028
 31
0.0
  0
LINE
  5
1DA
330
1F
100
AcDbEntity
  8
1-6
  6
Continuous
 62
     6
370
     5
100
AcDbLine
 10
82.84484269122498
 20
-85.31365955754664
 30
0.0
 11
244.1174640862686
 21
-85.31365955754664
 31
0.0
  0
LINE
  5
1DB
330
1F
100
AcDbEntity
  8
1-6
  6
Continuous
 62
     6
370
     5
100
AcDbLine
 10
114.1173651103397
 20
-83.72322153496668
 30
0.0
 11
319.0373925596639
 21
121.1967213678123
 31
0.0
  0
LINE
  5
1DC
330
1F
100
AcDbEntity
  8
1-6
  6
Continuous
 62
     6
370
     5
100
AcDbLine
 10
119.5983817288619
 20
-85.31365955754664
 30
0.0
 11
326.2470219278016
 21
121.3353495284436
 31
0.0
  0
LINE
  5
1DD
330
1F
100
AcDbEntity
  8
1-6
  6
Continuous
 62
     6
370
     5
100
AcDbLine
 10
126.6691230197968
 20
-85.31365955754664
 30
0.0
 11
333.4567997598328
 21
121.4739776890749
 31
0.0
  0
LINE
  5
1DE
330
1F
100
AcDbEntity
  8
1-1
  6
Continuous
 62
     2
370
     9
100
AcDbLine
 10
309.1176207981564
 20
145.7694546540771
 30
0.0
 11
454.1174805822569
 21
145.7694546540771
 31
0.0
  0
ARC
  5
1DF
330
1F
100
AcDbEntity
  8
1-1
  6
Continuous
 62
     2
370
     9
100
AcDbCircle
 10
309.1176207981564
 20
180.7694835220564
 30
0.0
 40
35.0000033507476
100
AcDbArc
 50
180.0
 51
270.0
  0
LINE
  5
1E0
330
1F
100
AcDbEntity
  8
1-1
  6
Continuous
 62
     2
370
     9
100
AcDbLine
 10
274.1174805822569
 20
180.7694835220564
 30
0.0
 11
274.1174805822569
 21
325.7694175381038
 31
0.0
  0
LINE
  5
1E1
330
1F
100
AcDbEntity
  8
1-6
  6
Continuous
 62
     6
370
     5
100
AcDbLine
 10
405.4777480152172
 20
145.2695849723837
 30
0.0
 11
556.8166111758215
 21
145.2695849723837
 31
0.0
  0
LINE
  5
1E2
330
1F
100
AcDbEntity
  8
1-6
  6
Continuous
 62
     6
370
     5
100
AcDbLine
 10
274.1173486143514
 20
281.762055378581
 30
0.0
 11
274.1173486143514
 21
378.4338951990758
 31
0.0
  0
LINE
  5
1E3
330
1F
100
AcDbEntity
  8
1-6
  6
Continuous
 62
     6
370
     5
100
AcDbLine
 10
264.1174145983041
 20
281.762055378581
 30
0.0
 11
274.1173486143514
 21
281.762055378581
 31
0.0
  0
LINE
  5
1E4
330
1F
100
AcDbEntity
  8
1-6
  6
Continuous
 62
     4
370
     9
100
AcDbLine
 10
204.9386213332077
 20
283.4765807464464
 30
0.0
 11
203.2909683274908
 21
285.124232322655
 31
0.0
  0
LINE
  5
1E5
330
1F
100
AcDbEntity
  8
1-6
  6
Continuous
 62
     4
370
     9
100
AcDbLine
 10
204.9386213332077
 20
283.4765807464464
 30
0.0
 11
241.2074599227577
 21
283.0822763785749
 31
0.0
  0
LINE
  5
1E6
330
1F
100
AcDbEntity
  8
1-6
  6
Continuous
 62
     4
370
     9
100
AcDbLine
 10
207.9400745810661
 20
121.6660404121383
 30
0.0
 11
206.9578381991377
 21
119.9647922294969
 31
0.0
  0
LINE
  5
1E7
330
1F
100
AcDbEntity
  8
1-6
  6
Continuous
 62
     4
370
     9
100
AcDbLine
 10
160.499072194777
 20
284.2527307041415
 30
0.0
 11
123.3509168912515
 21
118.261986449227
 31
0.0
  0
LINE
  5
1E8
330
1F
100
AcDbEntity
  8
1-6
  6
Continuous
 62
     4
370
     9
100
AcDbLine
 10
124.5088905527828
 20
123.2866456042607
 30
0.0
 11
243.6205805372488
 21
125.7123746003754
 31
0.0
  0
LINE
  5
1E9
330
1F
100
AcDbEntity
  8
1-6
  6
Continuous
 62
     4
370
     9
100
AcDbLine
 10
159.3339410128963
 20
279.2280398369067
 30
0.0
 11
240.8363124160174
 21
280.8877530591077
 31
0.0
  0
LINE
  5
1EA
330
1F
100
AcDbEntity
  8
1-0
  6
Continuous
 62
     3
370
     9
100
AcDbLine
 10
214.1174393422864
 20
292.2461301515962
 30
0.0
 11
214.2679936618034
 21
284.8534555557882
 31
0.0
  0
LINE
  5
1EB
330
1F
100
AcDbEntity
  8
1-6
  6
Continuous
 62
     4
370
     9
100
AcDbLine
 10
203.4441831320991
 20
284.9710918828911
 30
0.0
 11
241.5746360863505
 21
284.5566790082387
 31
0.0
  0
LINE
  5
1EC
330
1F
100
AcDbEntity
  8
1-6
  6
Continuous
 62
     4
370
     9
100
AcDbLine
 10
207.9400745810661
 20
121.6660404121383
 30
0.0
 11
244.4599783184809
 21
123.5520438496192
 31
0.0
  0
LINE
  5
1ED
330
1F
100
AcDbEntity
  8
1-0
  6
Continuous
 62
     3
370
     9
100
AcDbLine
 10
217.6113366614791
 20
120.6851544530755
 30
0.0
 11
217.7620794658084
 21
113.2832246802068
 31
0.0
  0
LINE
  5
1EE
330
1F
100
AcDbEntity
  8
1-6
  6
Continuous
 62
     4
370
     9
100
AcDbLine
 10
51.33621792371588
 20
282.0295488727255
 30
0.0
 11
203.2909683274908
 21
285.124232322655
 31
0.0
  0
LINE
  5
1EF
330
1F
100
AcDbEntity
  8
1-6
  6
Continuous
 62
     4
370
     9
100
AcDbLine
 10
51.33621792371588
 20
116.7952832108277
 30
0.0
 11
206.9578381991378
 21
119.9647922294969
 31
0.0
  0
LINE
  5
1F0
330
1F
100
AcDbEntity
  8
1-6
  6
Continuous
 62
     4
370
     9
100
AcDbLine
 10
51.33621792371588
 20
185.0127139974737
 30
0.0
 11
51.33621792371588
 21
88.52827500658343
 31
0.0
  0
LINE
  5
1F1
330
1F
100
AcDbEntity
  8
1-6
  6
Continuous
 62
     6
370
     5
100
AcDbLine
 10
114.1173651103397
 20
293.710323697955
 30
0.0
 11
122.1145212019782
 21
293.8731143572667
 31
0.0
  0
LINE
  5
1F2
330
1F
100
AcDbEntity
  8
1-6
  6
Continuous
 62
     6
370
     5
100
AcDbLine
 10
114.1173651103397
 20
284.8431691899314
 30
0.0
 11
122.135157683186
 21
292.8608875308309
 31
0.0
  0
LINE
  5
1F3
330
1F
100
AcDbEntity
  8
1-6
  6
Continuous
 62
     6
370
     5
100
AcDbLine
 10
114.1173651103397
 20
288.3788368155648
 30
0.0
 11
119.5596060573415
 21
293.8210777625665
 31
0.0
  0
LINE
  5
1F4
330
1F
100
AcDbEntity
  8
1-6
  6
Continuous
 62
     6
370
     5
100
AcDbLine
 10
114.1173651103397
 20
291.9142817453579
 30
0.0
 11
115.9507457321724
 21
293.7477365991375
 31
0.0
  0
LINE
  5
1F5
330
1F
100
AcDbEntity
  8
1-6
  6
Continuous
 62
     6
370
     5
100
AcDbLine
 10
122.1200143660407
 20
293.5998665611307
 30
0.0
 11
121.8521855020204
 21
293.8676954251509
 31
0.0
  0
LINE
  5
1F6
330
1F
100
AcDbEntity
  8
1-6
  6
Continuous
 62
     6
370
     5
100
AcDbLine
 10
122.1936524572569
 20
289.9906350762278
 30
0.0
 11
118.3868897619444
 21
293.7973235395935
 31
0.0
  0
LINE
  5
1F7
330
1F
100
AcDbEntity
  8
1-6
  6
Continuous
 62
     6
370
     5
100
AcDbLine
 10
122.266993620686
 20
286.3811066635378
 30
0.0
 11
114.9215940218683
 21
293.7266547262489
 31
0.0
  0
LINE
  5
1F8
330
1F
100
AcDbEntity
  8
1-6
  6
Continuous
 62
     6
370
     5
100
AcDbLine
 10
114.1173651103397
 20
283.3081385624178
 30
0.0
 11
114.1173651103397
 21
378.4338951990758
 31
0.0
  0
LINE
  5
1F9
330
1F
100
AcDbEntity
  8
1-6
  6
Continuous
 62
     6
370
     5
100
AcDbLine
 10
116.1596750388553
 20
283.3497318835782
 30
0.0
 11
122.2056780326369
 21
289.3958144865953
 31
0.0
  0
LINE
  5
1FA
330
1F
100
AcDbEntity
  8
1-6
  6
Continuous
 62
     6
370
     5
100
AcDbLine
 10
118.1859155588311
 20
283.3909979380193
 30
0.0
 11
114.1173651103397
 21
287.4595483865108
 31
0.0
  0
LINE
  5
1FB
330
1F
100
AcDbEntity
  8
1-6
  6
Continuous
 62
     6
370
     5
100
AcDbLine
 10
119.7687503981835
 20
283.4232336711458
 30
0.0
 11
122.2763468459816
 21
285.9307414423595
 31
0.0
  0
LINE
  5
1FC
330
1F
100
AcDbEntity
  8
1-6
  6
Continuous
 62
     6
370
     5
100
AcDbLine
 10
121.6510903583993
 20
283.4615690723527
 30
0.0
 11
114.1173651103397
 21
290.9952160121442
 31
0.0
  0
LINE
  5
1FD
330
1F
100
AcDbEntity
  8
1-6
  6
Continuous
 62
     6
370
     5
100
AcDbLine
 10
122.1145212019782
 20
293.8731143572667
 30
0.0
 11
122.3263634049792
 21
283.475321563248
 31
0.0
  0
LINE
  5
1FE
330
1F
100
AcDbEntity
  8
1-3
  6
Continuous
 62
     4
370
     9
100
AcDbLine
 10
122.1756272229848
 20
290.8738642744569
 30
0.0
 11
218.1064414669697
 21
292.8275147588597
 31
0.0
  0
LINE
  5
1FF
330
1F
100
AcDbEntity
  8
1-3
  6
Continuous
 62
     4
370
     9
100
AcDbLine
 10
122.1145196878839
 20
293.8731886731392
 30
0.0
 11
218.045422806708
 21
295.8268565689314
 31
0.0
  0
LINE
  5
200
330
1F
100
AcDbEntity
  8
1-6
  6
Continuous
 62
     6
370
     5
100
AcDbLine
 10
124.6924482501201
 20
115.973582725008
 30
0.0
 11
122.4228807089462
 21
118.2430760342351
 31
0.0
  0
LINE
  5
201
330
1F
100
AcDbEntity
  8
1-6
  6
Continuous
 62
     6
370
     5
100
AcDbLine
 10
124.7659378774427
 20
112.3641285442647
 30
0.0
 11
118.9574365049765
 21
118.1727041486777
 31
0.0
  0
LINE
  5
202
330
1F
100
AcDbEntity
  8
1-6
  6
Continuous
 62
     6
370
     5
100
AcDbLine
 10
124.839575968659
 20
108.7553424510426
 30
0.0
 11
115.4927346204749
 21
118.1021466832533
 31
0.0
  0
LINE
  5
203
330
1F
100
AcDbEntity
  8
1-6
  6
Continuous
 62
     6
370
     5
100
AcDbLine
 10
114.1173651103397
 20
109.7891707739944
 30
0.0
 11
122.5744623442924
 21
118.2463051239205
 31
0.0
  0
LINE
  5
204
330
1F
100
AcDbEntity
  8
1-6
  6
Continuous
 62
     6
370
     5
100
AcDbLine
 10
114.1173651103397
 20
113.3245785878141
 30
0.0
 11
118.9656020191235
 21
118.1727041486777
 31
0.0
  0
LINE
  5
205
330
1F
100
AcDbEntity
  8
1-6
  6
Continuous
 62
     6
370
     5
100
AcDbLine
 10
114.1173651103397
 20
116.8602833294209
 30
0.0
 11
115.356593230061
 21
118.0994372171955
 31
0.0
  0
LINE
  5
206
330
1F
100
AcDbEntity
  8
1-6
  6
Continuous
 62
     6
370
     5
100
AcDbLine
 10
114.1173651103397
 20
-85.31365955754664
 30
0.0
 11
114.1173651103397
 21
118.073932102018
 31
0.0
  0
LINE
  5
207
330
1F
100
AcDbEntity
  8
1-6
  6
Continuous
 62
     6
370
     5
100
AcDbLine
 10
124.6453851958549
 20
118.2884317537241
 30
0.0
 11
124.8673879077761
 21
107.3918930325003
 31
0.0
  0
LINE
  5
208
330
1F
100
AcDbEntity
  8
1-6
  6
Continuous
 62
     6
370
     5
100
AcDbLine
 10
122.2740451385683
 20
107.3390915906993
 30
0.0
 11
124.816564065154
 21
109.8815524317753
 31
0.0
  0
LINE
  5
209
330
1F
100
AcDbEntity
  8
1-6
  6
Continuous
 62
     6
370
     5
100
AcDbLine
 10
122.7115525547339
 20
107.3479994075319
 30
0.0
 11
114.1173651103397
 21
115.9421454955422
 31
0.0
  0
LINE
  5
20A
330
1F
100
AcDbEntity
  8
1-6
  6
Continuous
 62
     6
370
     5
100
AcDbLine
 10
118.6652073778748
 20
107.2656142859431
 30
0.0
 11
124.7460437157029
 21
113.3466254760109
 31
0.0
  0
LINE
  5
20B
330
1F
100
AcDbEntity
  8
1-6
  6
Continuous
 62
     6
370
     5
100
AcDbLine
 10
119.2468257924879
 20
107.2774562573301
 30
0.0
 11
114.1173651103397
 21
112.4067376817225
 31
0.0
  0
LINE
  5
20C
330
1F
100
AcDbEntity
  8
1-6
  6
Continuous
 62
     6
370
     5
100
AcDbLine
 10
115.0558855700658
 20
107.1921271258042
 30
0.0
 11
124.6753749023583
 21
116.8116985202466
 31
0.0
  0
LINE
  5
20D
330
1F
100
AcDbEntity
  8
1-6
  6
Continuous
 62
     6
370
     5
100
AcDbLine
 10
115.7820609921616
 20
107.2069123326586
 30
0.0
 11
114.1173651103397
 21
108.8712927519294
 31
0.0
  0
LINE
  5
20E
330
1F
100
AcDbEntity
  8
1-3
  6
Continuous
 62
     4
370
     9
100
AcDbLine
 10
124.8572294691716
 20
107.8904987416077
 30
0.0
 11
221.8325882680676
 21
109.8654002701033
 31
0.0
  0
LINE
  5
20F
330
1F
100
AcDbEntity
  8
1-3
  6
Continuous
 62
     4
370
     9
100
AcDbLine
 10
124.7961206235702
 20
110.8898985982221
 30
0.0
 11
221.771495375859
 21
112.8648163121219
 31
0.0
  0
LINE
  5
210
330
1F
100
AcDbEntity
  8
1-E
  6
Continuous
 62
     7
370
     9
100
AcDbLine
 10
51.33621792371588
 20
116.7952832108277
 30
0.0
 11
22.46874999191698
 21
66.79524197085733
 31
0.0
  0
LINE
  5
211
330
1F
100
AcDbEntity
  8
1-E
  6
Continuous
 62
     7
370
     9
100
AcDbLine
 10
22.46874999191698
 20
66.79524197085733
 30
0.0
 11
-89.24305519706115
 21
66.79524197085733
 31
0.0
  0
LINE
  5
212
330
1F
100
AcDbEntity
  8
1-4
  6
Continuous
 62
     7
370
     9
100
AcDbLine
 10
51.33621792371588
 20
116.7952832108277
 30
0.0
 11
48.46611393300651
 21
109.8661763696115
 31
0.0
  0
LINE
  5
213
330
1F
100
AcDbEntity
  8
1-4
  6
Continuous
 62
     7
370
     9
100
AcDbLine
 10
51.33621792371588
 20
116.7952832108277
 30
0.0
 11
46.77050780441698
 21
110.8451101679118
 31
0.0
  0
TEXT
  5
214
330
1F
100
AcDbEntity
  8
1-E
  6
Continuous
 62
     2
370
     9
100
AcDbText
 10
-85.39372499647531
 20
70.56029818561478
 30
0.0
 40
9.144
  1
排水管（ＳＧＰ）
 41
1.109375
  7
ＭＳ ゴシック
100
AcDbText
  0
TEXT
  5
215
330
1F
100
AcDbEntity
  8
F-4
  6
Continuous
 62
     2
370
     9
100
AcDbText
 10
160.909478264886
 20
-291.6426951240143
 30
0.0
 40
9.144
  1
ＥＤＸＧ、ＥＤＵＸＧ、ＥＺＣ、ＥＺＧ、
 41
1.118421052631579
  7
ＭＳ ゴシック
100
AcDbText
  0
TEXT
  5
216
330
1F
100
AcDbEntity
  8
F-4
  6
Continuous
 62
     2
370
     9
100
AcDbText
 10
161.1045119503976
 20
-275.6668840209141
 30
0.0
 40
9.144
  1
ＥＤＸＨ、ＥＤＵＸＨ、ＥＤＸＣ、ＥＤＵＸＣ、
 41
1.119318181818182
  7
ＭＳ ゴシック
100
AcDbText
  0
LINE
  5
217
330
1F
100
AcDbEntity
  8
F-4
  6
Continuous
 62
     7
370
     9
100
AcDbLine
 10
153.9094749656884
 20
-219.7130276963518
 30
0.0
 11
153.9094749656884
 21
-315.2016541174344
 31
0.0
  0
LINE
  5
218
330
1F
100
AcDbEntity
  8
F-4
  6
Continuous
 62
     7
370
     9
100
AcDbLine
 10
153.9094749656884
 20
-219.7130276963518
 30
0.0
 11
462.572203530048
 21
-219.7130276963518
 31
0.0
  0
LINE
  5
219
330
1F
100
AcDbEntity
  8
F-4
  6
Continuous
 62
     7
370
     9
100
AcDbLine
 10
153.9094749656884
 20
-240.7130227475553
 30
0.0
 11
462.572203530048
 21
-240.7130227475553
 31
0.0
  0
LINE
  5
21A
330
1F
100
AcDbEntity
  8
F-4
  6
Continuous
 62
     7
370
     9
100
AcDbLine
 10
153.9094749656884
 20
-243.7130326451482
 30
0.0
 11
462.572203530048
 21
-243.7130326451482
 31
0.0
  0
LINE
  5
21B
330
1F
100
AcDbEntity
  8
F-4
  6
Continuous
 62
     7
370
     9
100
AcDbLine
 10
153.9094749656884
 20
-315.2016541174344
 30
0.0
 11
462.572203530048
 21
-315.2016541174344
 31
0.0
  0
LINE
  5
21C
330
1F
100
AcDbEntity
  8
F-4
  6
Continuous
 62
     7
370
     9
100
AcDbLine
 10
462.572203530048
 20
-315.2016541174344
 30
0.0
 11
462.572203530048
 21
-219.7130276963518
 31
0.0
  0
TEXT
  5
21D
330
1F
100
AcDbEntity
  8
F-5
  6
Continuous
 62
     6
370
     5
100
AcDbText
 10
-211.6677803030422
 20
-397.0148661072241
 30
0.0
 40
9.144
  1
ステンレス製　防塵網　よこ引きルーフドレン用　ＣＣ－１５０
 41
0.9232758620689655
  7
ＭＳ ゴシック
100
AcDbText
  0
TEXT
  5
21E
330
1F
100
AcDbEntity
  8
F-4
  6
Continuous
 62
     2
370
     9
100
AcDbText
 10
238.1158392478683
 20
-234.5210252219536
 30
0.0
 40
9.144
  1
ＣＣ－１５０ 適用機種
 41
1.113095238095238
  7
ＭＳ ゴシック
100
AcDbText
  0
LINE
  5
21F
330
1F
100
AcDbEntity
  8
1-E
  6
Continuous
 62
     7
370
     9
100
AcDbLine
 10
329.1147804982398
 20
300.1207108273414
 30
0.0
 11
331.984906240978
 21
307.0498073211761
 31
0.0
  0
LINE
  5
220
330
1F
100
AcDbEntity
  8
1-E
  6
Continuous
 62
     7
370
     9
100
AcDbLine
 10
329.1147804982398
 20
300.1207108273414
 30
0.0
 11
333.6804912158053
 21
306.0708608795258
 31
0.0
  0
LINE
  5
221
330
1F
100
AcDbEntity
  8
1-E
  6
Continuous
 62
     7
370
     9
100
AcDbLine
 10
329.1147804982398
 20
300.1207108273414
 30
0.0
 11
364.991030868536
 21
362.260199253756
 31
0.0
  0
LINE
  5
222
330
1F
100
AcDbEntity
  8
1-E
  6
Continuous
 62
     7
370
     9
100
AcDbLine
 10
364.991030868536
 20
362.260199253756
 30
0.0
 11
502.7977407766862
 21
362.260199253756
 31
0.0
  0
TEXT
  5
223
330
1F
100
AcDbEntity
  8
1-E
  6
Continuous
 62
     2
370
     9
100
AcDbText
 10
369.297683865527
 20
369.1188912142713
 30
0.0
 40
9.144
  1
防塵網：ＣＣ－１５０
 41
1.112499999999999
  7
ＭＳ ゴシック
100
AcDbText
  0
LINE
  5
224
330
1F
100
AcDbEntity
  8
1-E
  6
Continuous
 62
     7
370
     9
100
AcDbLine
 10
354.3092156495429
 20
249.5777708499742
 30
0.0
 11
357.1793413922811
 21
256.5068673438088
 31
0.0
  0
LINE
  5
225
330
1F
100
AcDbEntity
  8
1-E
  6
Continuous
 62
     7
370
     9
100
AcDbLine
 10
354.3092156495429
 20
249.5777708499742
 30
0.0
 11
358.8749263671083
 21
255.5279209021585
 31
0.0
  0
LINE
  5
226
330
1F
100
AcDbEntity
  8
1-E
  6
Continuous
 62
     7
370
     9
100
AcDbLine
 10
354.3092156495429
 20
249.5777708499742
 30
0.0
 11
392.3040333123158
 21
315.3867254662122
 31
0.0
  0
LINE
  5
227
330
1F
100
AcDbEntity
  8
1-4
  6
Continuous
 62
     2
370
     9
100
AcDbLine
 10
178.5127090258162
 20
-134.9433358831843
 30
0.0
 11
178.5127090258162
 21
-115.4435499186309
 31
0.0
  0
LINE
  5
228
330
1F
100
AcDbEntity
  8
1-4
  6
Continuous
 62
     2
370
     9
100
AcDbLine
 10
178.5127090258162
 20
-115.4435499186309
 30
0.0
 11
328.5126100498871
 21
-115.4435499186309
 31
0.0
  0
LINE
  5
229
330
1F
100
AcDbEntity
  8
1-4
  6
Continuous
 62
     2
370
     9
100
AcDbLine
 10
328.5126100498871
 20
-134.9433358831843
 30
0.0
 11
328.5126100498871
 21
-115.4435499186309
 31
0.0
  0
LINE
  5
22A
330
1F
100
AcDbEntity
  8
1-4
  6
Continuous
 62
     2
370
     9
100
AcDbLine
 10
328.5126100498871
 20
-134.9433358831843
 30
0.0
 11
178.5127090258162
 21
-134.9433358831843
 31
0.0
  0
TEXT
  5
22B
330
1F
100
AcDbEntity
  8
1-4
  6
Continuous
 62
     2
370
     9
100
AcDbText
 10
193.5126595378517
 20
-129.5015276490468
 30
0.0
 40
9.144
  1
使用例　Ｓ＝１：３
 41
1.111111111111111
  7
ＭＳ ゴシック
100
AcDbText
  0
LINE
  5
22C
330
1F
100
AcDbEntity
  8
1-B
  6
Continuous
 62
     4
370
     9
100
AcDbLine
 10
-370.7026281270477
 20
128.9301154162433
 30
0.0
 11
-217.4999526427255
 21
128.9301154162433
 31
0.0
  0
LINE
  5
22D
330
1F
100
AcDbEntity
  8
1-B
  6
Continuous
 62
     4
370
     9
100
AcDbLine
 10
-370.7026281270477
 20
125.9301055186504
 30
0.0
 11
-217.4999526427255
 21
125.9301055186504
 31
0.0
  0
LINE
  5
22E
330
1F
100
AcDbEntity
  8
1-B
  6
Continuous
 62
     4
370
     9
100
AcDbLine
 10
-373.7026380246405
 20
361.4301030442522
 30
0.0
 11
-373.7026380246405
 21
127.4301104674468
 31
0.0
  0
LINE
  5
22F
330
1F
100
AcDbEntity
  8
1-B
  6
Continuous
 62
     4
370
     9
100
AcDbLine
 10
-215.9999105779555
 20
361.4301030442522
 30
0.0
 11
-215.9999105779555
 21
127.4301104674468
 31
0.0
  0
LINE
  5
230
330
1F
100
AcDbEntity
  8
1-B
  6
Continuous
 62
     4
370
     9
100
AcDbLine
 10
-218.9999204755485
 20
359.9300980954557
 30
0.0
 11
-218.9999204755485
 21
128.9301154162433
 31
0.0
  0
LINE
  5
231
330
1F
100
AcDbEntity
  8
1-B
  6
JWW_CENTER1
 62
     4
370
     9
100
AcDbLine
 10
-206.8146350619611
 20
244.4300881978628
 30
0.0
 11
-381.7954048637453
 21
244.4300881978628
 31
0.0
  0
LINE
  5
232
330
1F
100
AcDbEntity
  8
1-6
  6
Continuous
 62
     6
370
     5
100
AcDbLine
 10
-279.0594668688656
 20
216.3771674181964
 30
0.0
 11
-275.5273994926515
 21
217.3418857986863
 31
0.0
  0
LINE
  5
233
330
1F
100
AcDbEntity
  8
1-6
  6
Continuous
 62
     6
370
     5
100
AcDbLine
 10
-279.0594668688656
 20
213.4831607406204
 30
0.0
 11
-275.5273994926515
 21
212.5185908240241
 31
0.0
  0
LINE
  5
234
330
1F
100
AcDbEntity
  8
1-6
  6
Continuous
 62
     6
370
     5
100
AcDbLine
 10
-274.3989254375417
 20
213.430159130612
 30
0.0
 11
-274.8687023128057
 21
213.430159130612
 31
0.0
  0
LINE
  5
235
330
1F
100
AcDbEntity
  8
1-6
  6
Continuous
 62
     6
370
     5
100
AcDbLine
 10
-274.3989254375417
 20
216.4301690282049
 30
0.0
 11
-274.8687023128057
 21
216.4301690282049
 31
0.0
  0
LINE
  5
236
330
1F
100
AcDbEntity
  8
1-6
  6
Continuous
 62
     6
370
     5
100
AcDbLine
 10
-276.5173567350502
 20
218.1835276113975
 30
0.0
 11
-273.6956519736482
 21
217.9237157976305
 31
0.0
  0
LINE
  5
237
330
1F
100
AcDbEntity
  8
1-6
  6
Continuous
 62
     6
370
     5
100
AcDbLine
 10
-276.5173567350502
 20
211.6768005474194
 30
0.0
 11
-273.6952436979408
 21
211.9366123611863
 31
0.0
  0
LINE
  5
238
330
1F
100
AcDbEntity
  8
1-6
  6
Continuous
 62
     6
370
     5
100
AcDbLine
 10
-274.3989254375417
 20
217.430221815367
 30
0.0
 11
-274.8687023128057
 21
217.430221815367
 31
0.0
  0
LINE
  5
239
330
1F
100
AcDbEntity
  8
1-6
  6
Continuous
 62
     6
370
     5
100
AcDbLine
 10
-274.3989254375417
 20
216.4301690282049
 30
0.0
 11
-274.3989254375417
 21
217.430221815367
 31
0.0
  0
LINE
  5
23A
330
1F
100
AcDbEntity
  8
1-6
  6
Continuous
 62
     6
370
     5
100
AcDbLine
 10
-274.3989254375417
 20
212.4302548073434
 30
0.0
 11
-274.3989254375417
 21
213.430159130612
 31
0.0
  0
LINE
  5
23B
330
1F
100
AcDbEntity
  8
1-6
  6
Continuous
 62
     6
370
     5
100
AcDbLine
 10
-274.3989254375417
 20
212.4302548073434
 30
0.0
 11
-274.8687023128057
 21
212.4302548073434
 31
0.0
  0
LINE
  5
23C
330
1F
100
AcDbEntity
  8
1-9
  6
Continuous
 62
     2
370
     9
100
AcDbLine
 10
-274.3989254375417
 20
216.930195421786
 30
0.0
 11
-270.8070271122144
 21
216.930195421786
 31
0.0
  0
LINE
  5
23D
330
1F
100
AcDbEntity
  8
1-9
  6
Continuous
 62
     2
370
     9
100
AcDbLine
 10
-274.3989254375417
 20
212.9301327370309
 30
0.0
 11
-270.8070271122144
 21
212.9301327370309
 31
0.0
  0
LINE
  5
23E
330
1F
100
AcDbEntity
  8
1-6
  6
Continuous
 62
     6
370
     5
100
AcDbLine
 10
-266.4336890830232
 20
216.4301690282049
 30
0.0
 11
-269.8716303507068
 21
216.4301690282049
 31
0.0
  0
LINE
  5
23F
330
1F
100
AcDbEntity
  8
1-6
  6
Continuous
 62
     6
370
     5
100
AcDbLine
 10
-266.4336890830232
 20
213.430159130612
 30
0.0
 11
-269.8716303507068
 21
213.430159130612
 31
0.0
  0
LINE
  5
240
330
1F
100
AcDbEntity
  8
1-6
  6
Continuous
 62
     6
370
     5
100
AcDbLine
 10
-266.4336890830232
 20
212.4301063434498
 30
0.0
 11
-272.660858635388
 21
212.4301063434498
 31
0.0
  0
LINE
  5
241
330
1F
100
AcDbEntity
  8
1-6
  6
Continuous
 62
     6
370
     5
100
AcDbLine
 10
-266.4336890830232
 20
217.430221815367
 30
0.0
 11
-272.6611926791486
 21
217.430221815367
 31
0.0
  0
LINE
  5
242
330
1F
100
AcDbEntity
  8
1-9
  6
JWW_DASHED1
 62
     2
370
     9
100
AcDbLine
 10
-301.3486110240071
 20
207.4301393354261
 30
0.0
 11
-301.3486110240071
 21
222.4301888233907
 31
0.0
  0
LINE
  5
243
330
1F
100
AcDbEntity
  8
1-9
  6
JWW_DASHED1
 62
     2
370
     9
100
AcDbLine
 10
-308.4197235794337
 20
207.4301393354261
 30
0.0
 11
-294.2776469324741
 21
207.4301393354261
 31
0.0
  0
LINE
  5
244
330
1F
100
AcDbEntity
  8
1-9
  6
JWW_DASHED1
 62
     2
370
     9
100
AcDbLine
 10
-301.8486374175882
 20
207.9301657290072
 30
0.0
 11
-301.8486374175882
 21
221.9301624298096
 31
0.0
  0
LINE
  5
245
330
1F
100
AcDbEntity
  8
1-9
  6
JWW_DASHED1
 62
     2
370
     9
100
AcDbLine
 10
-307.9197714177993
 20
221.9301624298096
 30
0.0
 11
-301.8486374175882
 21
221.9301624298096
 31
0.0
  0
LINE
  5
246
330
1F
100
AcDbEntity
  8
1-9
  6
JWW_DASHED1
 62
     2
370
     9
100
AcDbLine
 10
-307.9197714177993
 20
207.9301657290072
 30
0.0
 11
-301.8486374175882
 21
207.9301657290072
 31
0.0
  0
LINE
  5
247
330
1F
100
AcDbEntity
  8
1-9
  6
JWW_DASHED1
 62
     2
370
     9
100
AcDbLine
 10
-307.9197714177993
 20
216.930195421786
 30
0.0
 11
-307.9197714177993
 21
221.9301624298096
 31
0.0
  0
LINE
  5
248
330
1F
100
AcDbEntity
  8
1-9
  6
JWW_DASHED1
 62
     2
370
     9
100
AcDbLine
 10
-307.9197714177993
 20
207.9301657290072
 30
0.0
 11
-307.9197714177993
 21
212.9301327370309
 31
0.0
  0
LINE
  5
249
330
1F
100
AcDbEntity
  8
1-9
  6
JWW_DASHED1
 62
     2
370
     9
100
AcDbLine
 10
-308.4197235794337
 20
212.4302548073434
 30
0.0
 11
-308.4197235794337
 21
207.4301393354261
 31
0.0
  0
LINE
  5
24A
330
1F
100
AcDbEntity
  8
1-9
  6
JWW_DASHED1
 62
     2
370
     9
100
AcDbLine
 10
-308.4197235794337
 20
217.430221815367
 30
0.0
 11
-308.4197235794337
 21
222.4301888233907
 31
0.0
  0
LINE
  5
24B
330
1F
100
AcDbEntity
  8
1-9
  6
JWW_DASHED1
 62
     2
370
     9
100
AcDbLine
 10
-308.4197235794337
 20
222.4301888233907
 30
0.0
 11
-294.2776469324741
 21
222.4301888233907
 31
0.0
  0
LINE
  5
24C
330
1F
100
AcDbEntity
  8
1-9
  6
JWW_DASHED1
 62
     2
370
     9
100
AcDbLine
 10
-297.813166094214
 20
216.930195421786
 30
0.0
 11
-278.4482781349657
 21
216.930195421786
 31
0.0
  0
LINE
  5
24D
330
1F
100
AcDbEntity
  8
1-9
  6
JWW_DASHED1
 62
     2
370
     9
100
AcDbLine
 10
-297.813166094214
 20
212.9301327370309
 30
0.0
 11
-278.4482781349657
 21
212.9301327370309
 31
0.0
  0
LINE
  5
24E
330
1F
100
AcDbEntity
  8
1-9
  6
JWW_DASHED1
 62
     2
370
     9
100
AcDbLine
 10
-294.2776469324741
 20
207.4301393354261
 30
0.0
 11
-294.2776469324741
 21
212.9301327370309
 31
0.0
  0
LINE
  5
24F
330
1F
100
AcDbEntity
  8
1-9
  6
JWW_DASHED1
 62
     2
370
     9
100
AcDbLine
 10
-294.2776469324741
 20
216.930195421786
 30
0.0
 11
-294.2776469324741
 21
222.4301888233907
 31
0.0
  0
LINE
  5
250
330
1F
100
AcDbEntity
  8
1-9
  6
JWW_DASHED1
 62
     2
370
     9
100
AcDbLine
 10
-308.4197235794337
 20
216.930195421786
 30
0.0
 11
-301.8486374175882
 21
216.930195421786
 31
0.0
  0
LINE
  5
251
330
1F
100
AcDbEntity
  8
1-9
  6
JWW_DASHED1
 62
     2
370
     9
100
AcDbLine
 10
-308.4197235794337
 20
212.9301327370309
 30
0.0
 11
-301.8486374175882
 21
212.9301327370309
 31
0.0
  0
LINE
  5
252
330
1F
100
AcDbEntity
  8
1-6
  6
JWW_CENTER1
 62
     6
370
     5
100
AcDbLine
 10
-308.1657018575164
 20
214.9302383113552
 30
0.0
 11
-262.9789713953647
 21
214.9302383113552
 31
0.0
  0
LINE
  5
253
330
1F
100
AcDbEntity
  8
1-4
  6
Continuous
 62
     7
370
     9
100
AcDbLine
 10
-402.0027883030928
 20
125.9301055186504
 30
0.0
 11
-402.0027883030928
 21
362.9300337611019
 31
0.0
  0
LINE
  5
254
330
1F
100
AcDbEntity
  8
1-4
  6
Continuous
 62
     7
370
     9
100
AcDbLine
 10
-373.7026380246405
 20
125.9301055186504
 30
0.0
 11
-402.6027680130273
 21
125.9301055186504
 31
0.0
  0
LINE
  5
255
330
1F
100
AcDbEntity
  8
1-4
  6
Continuous
 62
     7
370
     9
100
AcDbLine
 10
-373.7026380246405
 20
362.9300337611019
 30
0.0
 11
-402.6027680130273
 21
362.9300337611019
 31
0.0
  0
LINE
  5
256
330
1F
100
AcDbEntity
  8
1-4
  6
Continuous
 62
     7
370
     9
100
AcDbLine
 10
-402.0027883030928
 20
125.9301055186504
 30
0.0
 11
-402.6553984633018
 21
130.8873520412961
 31
0.0
  0
LINE
  5
257
330
1F
100
AcDbEntity
  8
1-4
  6
Continuous
 62
     7
370
     9
100
AcDbLine
 10
-402.0027883030928
 20
125.9301055186504
 30
0.0
 11
-401.3501781428837
 21
130.8873520412961
 31
0.0
  0
LINE
  5
258
330
1F
100
AcDbEntity
  8
1-4
  6
Continuous
 62
     7
370
     9
100
AcDbLine
 10
-402.0027883030928
 20
362.9300337611019
 30
0.0
 11
-402.6553984633018
 21
357.9728243544295
 31
0.0
  0
LINE
  5
259
330
1F
100
AcDbEntity
  8
1-4
  6
Continuous
 62
     7
370
     9
100
AcDbLine
 10
-402.0027883030928
 20
362.9300337611019
 30
0.0
 11
-401.3501781428837
 21
357.9728243544295
 31
0.0
  0
LINE
  5
25A
330
1F
100
AcDbEntity
  8
1-B
  6
Continuous
 62
     4
370
     9
100
AcDbLine
 10
-377.999925424345
 20
-129.3106534287736
 30
0.0
 11
-377.999925424345
 21
-24.21024234874824
 31
0.0
  0
LINE
  5
25B
330
1F
100
AcDbEntity
  8
1-B
  6
Continuous
 62
     4
370
     9
100
AcDbLine
 10
-303.4026832236482
 20
346.1252571827657
 30
0.0
 11
-303.4026832236482
 21
355.4251097086313
 31
0.0
  0
LINE
  5
25C
330
1F
100
AcDbEntity
  8
1-B
  6
Continuous
 62
     4
370
     9
100
AcDbLine
 10
-304.1027647138297
 20
346.1252571827657
 30
0.0
 11
-304.1027647138297
 21
355.4251097086313
 31
0.0
  0
LINE
  5
25D
330
1F
100
AcDbEntity
  8
1-B
  6
Continuous
 62
     4
370
     9
100
AcDbLine
 10
-303.4026832236482
 20
336.1253231667184
 30
0.0
 11
-303.4026832236482
 21
345.425175692584
 31
0.0
  0
LINE
  5
25E
330
1F
100
AcDbEntity
  8
1-B
  6
Continuous
 62
     4
370
     9
100
AcDbLine
 10
-304.1027647138297
 20
336.1253231667184
 30
0.0
 11
-304.1027647138297
 21
345.425175692584
 31
0.0
  0
LINE
  5
25F
330
1F
100
AcDbEntity
  8
1-B
  6
Continuous
 62
     4
370
     9
100
AcDbLine
 10
-304.1027647138297
 20
356.1252654307598
 30
0.0
 11
-304.1027647138297
 21
363.2800373902191
 31
0.0
  0
LINE
  5
260
330
1F
100
AcDbEntity
  8
1-B
  6
Continuous
 62
     4
370
     9
100
AcDbLine
 10
-303.4026832236482
 20
356.1252654307598
 30
0.0
 11
-303.4026832236482
 21
363.2800373902191
 31
0.0
  0
LINE
  5
261
330
1F
100
AcDbEntity
  8
1-B
  6
Continuous
 62
     4
370
     9
100
AcDbLine
 10
-299.1027234738593
 20
351.1251499588426
 30
0.0
 11
-299.1027234738593
 21
360.4252251805485
 31
0.0
  0
LINE
  5
262
330
1F
100
AcDbEntity
  8
1-B
  6
Continuous
 62
     4
370
     9
100
AcDbLine
 10
-298.4027162156244
 20
351.1251499588426
 30
0.0
 11
-298.4027162156244
 21
360.4252251805485
 31
0.0
  0
LINE
  5
263
330
1F
100
AcDbEntity
  8
1-B
  6
Continuous
 62
     4
370
     9
100
AcDbLine
 10
-299.1027234738593
 20
361.1251582068367
 30
0.0
 11
-299.1027234738593
 21
363.2800373902191
 31
0.0
  0
LINE
  5
264
330
1F
100
AcDbEntity
  8
1-B
  6
Continuous
 62
     4
370
     9
100
AcDbLine
 10
-298.4027162156244
 20
361.1251582068367
 30
0.0
 11
-298.4027162156244
 21
363.2800373902191
 31
0.0
  0
LINE
  5
265
330
1F
100
AcDbEntity
  8
1-B
  6
Continuous
 62
     4
370
     9
100
AcDbLine
 10
-309.1029544176938
 20
331.1251334628544
 30
0.0
 11
-309.1029544176938
 21
340.4252086845604
 31
0.0
  0
LINE
  5
266
330
1F
100
AcDbEntity
  8
1-B
  6
Continuous
 62
     4
370
     9
100
AcDbLine
 10
-308.402947159459
 20
331.1251334628544
 30
0.0
 11
-308.402947159459
 21
340.4252086845604
 31
0.0
  0
LINE
  5
267
330
1F
100
AcDbEntity
  8
1-B
  6
Continuous
 62
     4
370
     9
100
AcDbLine
 10
-323.4029966474235
 20
326.1251664548307
 30
0.0
 11
-323.4029966474235
 21
335.42516744459
 31
0.0
  0
LINE
  5
268
330
1F
100
AcDbEntity
  8
1-B
  6
Continuous
 62
     4
370
     9
100
AcDbLine
 10
-324.1030781376051
 20
326.1251664548307
 30
0.0
 11
-324.1030781376051
 21
335.42516744459
 31
0.0
  0
LINE
  5
269
330
1F
100
AcDbEntity
  8
1-B
  6
Continuous
 62
     4
370
     9
100
AcDbLine
 10
-309.1029544176938
 20
335.42516744459
 30
0.0
 11
-318.4030296393998
 21
335.42516744459
 31
0.0
  0
LINE
  5
26A
330
1F
100
AcDbEntity
  8
1-B
  6
Continuous
 62
     4
370
     9
100
AcDbLine
 10
-309.1029544176938
 20
336.1251747028248
 30
0.0
 11
-318.4030296393998
 21
336.1251747028248
 31
0.0
  0
LINE
  5
26B
330
1F
100
AcDbEntity
  8
1-B
  6
Continuous
 62
     4
370
     9
100
AcDbLine
 10
-318.4030296393998
 20
331.1251334628544
 30
0.0
 11
-318.4030296393998
 21
340.4252086845604
 31
0.0
  0
LINE
  5
26C
330
1F
100
AcDbEntity
  8
1-B
  6
Continuous
 62
     4
370
     9
100
AcDbLine
 10
-319.1030368976346
 20
331.1251334628544
 30
0.0
 11
-319.1030368976346
 21
340.4252086845604
 31
0.0
  0
LINE
  5
26D
330
1F
100
AcDbEntity
  8
1-B
  6
Continuous
 62
     4
370
     9
100
AcDbLine
 10
-314.1028471937706
 20
330.4252746685131
 30
0.0
 11
-323.4029966474235
 21
330.4252746685131
 31
0.0
  0
LINE
  5
26E
330
1F
100
AcDbEntity
  8
1-B
  6
Continuous
 62
     4
370
     9
100
AcDbLine
 10
-314.1028471937706
 20
331.1251334628544
 30
0.0
 11
-323.4029966474235
 21
331.1251334628544
 31
0.0
  0
LINE
  5
26F
330
1F
100
AcDbEntity
  8
1-B
  6
Continuous
 62
     4
370
     9
100
AcDbLine
 10
-313.4029883994294
 20
326.1251664548307
 30
0.0
 11
-313.4029883994294
 21
335.42516744459
 31
0.0
  0
LINE
  5
270
330
1F
100
AcDbEntity
  8
1-B
  6
Continuous
 62
     4
370
     9
100
AcDbLine
 10
-314.1028471937706
 20
326.1251664548307
 30
0.0
 11
-314.1028471937706
 21
335.42516744459
 31
0.0
  0
LINE
  5
271
330
1F
100
AcDbEntity
  8
1-B
  6
Continuous
 62
     4
370
     9
100
AcDbLine
 10
-314.1028471937706
 20
340.4252086845604
 30
0.0
 11
-323.4029966474235
 21
340.4252086845604
 31
0.0
  0
LINE
  5
272
330
1F
100
AcDbEntity
  8
1-B
  6
Continuous
 62
     4
370
     9
100
AcDbLine
 10
-314.1028471937706
 20
341.1252159427953
 30
0.0
 11
-323.4029966474235
 21
341.1252159427953
 31
0.0
  0
LINE
  5
273
330
1F
100
AcDbEntity
  8
1-B
  6
Continuous
 62
     4
370
     9
100
AcDbLine
 10
-309.1029544176938
 20
351.1251499588426
 30
0.0
 11
-309.1029544176938
 21
360.4252251805485
 31
0.0
  0
LINE
  5
274
330
1F
100
AcDbEntity
  8
1-B
  6
Continuous
 62
     4
370
     9
100
AcDbLine
 10
-308.402947159459
 20
351.1251499588426
 30
0.0
 11
-308.402947159459
 21
360.4252251805485
 31
0.0
  0
LINE
  5
275
330
1F
100
AcDbEntity
  8
1-B
  6
Continuous
 62
     4
370
     9
100
AcDbLine
 10
-323.4029966474235
 20
346.1252571827657
 30
0.0
 11
-323.4029966474235
 21
355.4251097086313
 31
0.0
  0
LINE
  5
276
330
1F
100
AcDbEntity
  8
1-B
  6
Continuous
 62
     4
370
     9
100
AcDbLine
 10
-324.1030781376051
 20
346.1252571827657
 30
0.0
 11
-324.1030781376051
 21
355.4251097086313
 31
0.0
  0
LINE
  5
277
330
1F
100
AcDbEntity
  8
1-B
  6
Continuous
 62
     4
370
     9
100
AcDbLine
 10
-309.1029544176938
 20
346.1252571827657
 30
0.0
 11
-318.4030296393998
 21
346.1252571827657
 31
0.0
  0
LINE
  5
278
330
1F
100
AcDbEntity
  8
1-B
  6
Continuous
 62
     4
370
     9
100
AcDbLine
 10
-309.1029544176938
 20
345.425175692584
 30
0.0
 11
-318.4030296393998
 21
345.425175692584
 31
0.0
  0
LINE
  5
279
330
1F
100
AcDbEntity
  8
1-B
  6
Continuous
 62
     4
370
     9
100
AcDbLine
 10
-309.1029544176938
 20
355.4251097086313
 30
0.0
 11
-318.4030296393998
 21
355.4251097086313
 31
0.0
  0
LINE
  5
27A
330
1F
100
AcDbEntity
  8
1-B
  6
Continuous
 62
     4
370
     9
100
AcDbLine
 10
-309.1029544176938
 20
356.1251911988129
 30
0.0
 11
-318.4030296393998
 21
356.1251911988129
 31
0.0
  0
LINE
  5
27B
330
1F
100
AcDbEntity
  8
1-B
  6
Continuous
 62
     4
370
     9
100
AcDbLine
 10
-314.1028471937706
 20
350.4252911645013
 30
0.0
 11
-323.4029966474235
 21
350.4252911645013
 31
0.0
  0
LINE
  5
27C
330
1F
100
AcDbEntity
  8
1-B
  6
Continuous
 62
     4
370
     9
100
AcDbLine
 10
-314.1028471937706
 20
351.1251499588426
 30
0.0
 11
-323.4029966474235
 21
351.1251499588426
 31
0.0
  0
LINE
  5
27D
330
1F
100
AcDbEntity
  8
1-B
  6
Continuous
 62
     4
370
     9
100
AcDbLine
 10
-313.4029883994294
 20
346.1252571827657
 30
0.0
 11
-313.4029883994294
 21
355.4251097086313
 31
0.0
  0
LINE
  5
27E
330
1F
100
AcDbEntity
  8
1-B
  6
Continuous
 62
     4
370
     9
100
AcDbLine
 10
-314.1028471937706
 20
346.1252571827657
 30
0.0
 11
-314.1028471937706
 21
355.4251097086313
 31
0.0
  0
LINE
  5
27F
330
1F
100
AcDbEntity
  8
1-B
  6
Continuous
 62
     4
370
     9
100
AcDbLine
 10
-324.1030781376051
 20
316.1251582068367
 30
0.0
 11
-324.1030781376051
 21
325.4252334285428
 31
0.0
  0
LINE
  5
280
330
1F
100
AcDbEntity
  8
1-B
  6
Continuous
 62
     4
370
     9
100
AcDbLine
 10
-323.4029966474235
 20
316.1251582068367
 30
0.0
 11
-323.4029966474235
 21
325.4252334285428
 31
0.0
  0
LINE
  5
281
330
1F
100
AcDbEntity
  8
1-B
  6
Continuous
 62
     4
370
     9
100
AcDbLine
 10
-319.1030368976346
 20
321.125199446807
 30
0.0
 11
-319.1030368976346
 21
330.4252746685131
 31
0.0
  0
LINE
  5
282
330
1F
100
AcDbEntity
  8
1-B
  6
Continuous
 62
     4
370
     9
100
AcDbLine
 10
-318.402955407453
 20
321.125199446807
 30
0.0
 11
-318.402955407453
 21
330.4252746685131
 31
0.0
  0
LINE
  5
283
330
1F
100
AcDbEntity
  8
1-B
  6
Continuous
 62
     4
370
     9
100
AcDbLine
 10
-323.4029966474235
 20
336.1253231667184
 30
0.0
 11
-323.4029966474235
 21
345.425175692584
 31
0.0
  0
LINE
  5
284
330
1F
100
AcDbEntity
  8
1-B
  6
Continuous
 62
     4
370
     9
100
AcDbLine
 10
-324.1030781376051
 20
336.1253231667184
 30
0.0
 11
-324.1030781376051
 21
345.425175692584
 31
0.0
  0
LINE
  5
285
330
1F
100
AcDbEntity
  8
1-B
  6
Continuous
 62
     4
370
     9
100
AcDbLine
 10
-313.4029883994294
 20
336.1253231667184
 30
0.0
 11
-313.4029883994294
 21
345.425175692584
 31
0.0
  0
LINE
  5
286
330
1F
100
AcDbEntity
  8
1-B
  6
Continuous
 62
     4
370
     9
100
AcDbLine
 10
-314.1028471937706
 20
336.1253231667184
 30
0.0
 11
-314.1028471937706
 21
345.425175692584
 31
0.0
  0
LINE
  5
287
330
1F
100
AcDbEntity
  8
1-B
  6
Continuous
 62
     4
370
     9
100
AcDbLine
 10
-318.4030296393998
 20
341.125290174742
 30
0.0
 11
-318.4030296393998
 21
350.4251427006078
 31
0.0
  0
LINE
  5
288
330
1F
100
AcDbEntity
  8
1-B
  6
Continuous
 62
     4
370
     9
100
AcDbLine
 10
-319.1029626656879
 20
341.125290174742
 30
0.0
 11
-319.1029626656879
 21
350.4251427006078
 31
0.0
  0
LINE
  5
289
330
1F
100
AcDbEntity
  8
1-B
  6
Continuous
 62
     4
370
     9
100
AcDbLine
 10
-308.402947159459
 20
341.125290174742
 30
0.0
 11
-308.402947159459
 21
350.4251427006078
 31
0.0
  0
LINE
  5
28A
330
1F
100
AcDbEntity
  8
1-B
  6
Continuous
 62
     4
370
     9
100
AcDbLine
 10
-309.1028801857469
 20
341.125290174742
 30
0.0
 11
-309.1028801857469
 21
350.4251427006078
 31
0.0
  0
LINE
  5
28B
330
1F
100
AcDbEntity
  8
1-B
  6
Continuous
 62
     4
370
     9
100
AcDbLine
 10
-313.4029883994294
 20
356.1252654307598
 30
0.0
 11
-313.4029883994294
 21
363.2800373902191
 31
0.0
  0
LINE
  5
28C
330
1F
100
AcDbEntity
  8
1-B
  6
Continuous
 62
     4
370
     9
100
AcDbLine
 10
-314.1028471937706
 20
356.1252654307598
 30
0.0
 11
-314.1028471937706
 21
363.2800373902191
 31
0.0
  0
LINE
  5
28D
330
1F
100
AcDbEntity
  8
1-B
  6
Continuous
 62
     4
370
     9
100
AcDbLine
 10
-324.1030781376051
 20
356.1252654307598
 30
0.0
 11
-324.1030781376051
 21
363.2800373902191
 31
0.0
  0
LINE
  5
28E
330
1F
100
AcDbEntity
  8
1-B
  6
Continuous
 62
     4
370
     9
100
AcDbLine
 10
-314.1028471937706
 20
360.4252251805485
 30
0.0
 11
-323.4029966474235
 21
360.4252251805485
 31
0.0
  0
LINE
  5
28F
330
1F
100
AcDbEntity
  8
1-B
  6
Continuous
 62
     4
370
     9
100
AcDbLine
 10
-314.1028471937706
 20
361.1251582068367
 30
0.0
 11
-323.4029966474235
 21
361.1251582068367
 31
0.0
  0
LINE
  5
290
330
1F
100
AcDbEntity
  8
1-B
  6
Continuous
 62
     4
370
     9
100
AcDbLine
 10
-323.4029966474235
 20
356.1252654307598
 30
0.0
 11
-323.4029966474235
 21
363.2800373902191
 31
0.0
  0
LINE
  5
291
330
1F
100
AcDbEntity
  8
1-B
  6
Continuous
 62
     4
370
     9
100
AcDbLine
 10
-319.1030368976346
 20
351.1251499588426
 30
0.0
 11
-319.1030368976346
 21
360.4252251805485
 31
0.0
  0
LINE
  5
292
330
1F
100
AcDbEntity
  8
1-B
  6
Continuous
 62
     4
370
     9
100
AcDbLine
 10
-318.4030296393998
 20
351.1251499588426
 30
0.0
 11
-318.4030296393998
 21
360.4252251805485
 31
0.0
  0
LINE
  5
293
330
1F
100
AcDbEntity
  8
1-B
  6
Continuous
 62
     4
370
     9
100
AcDbLine
 10
-319.1030368976346
 20
361.1251582068367
 30
0.0
 11
-319.1030368976346
 21
363.2800373902191
 31
0.0
  0
LINE
  5
294
330
1F
100
AcDbEntity
  8
1-B
  6
Continuous
 62
     4
370
     9
100
AcDbLine
 10
-318.4030296393998
 20
361.1251582068367
 30
0.0
 11
-318.4030296393998
 21
363.2800373902191
 31
0.0
  0
LINE
  5
295
330
1F
100
AcDbEntity
  8
1-B
  6
Continuous
 62
     4
370
     9
100
AcDbLine
 10
-309.1029544176938
 20
361.1251582068367
 30
0.0
 11
-309.1029544176938
 21
363.2800373902191
 31
0.0
  0
LINE
  5
296
330
1F
100
AcDbEntity
  8
1-B
  6
Continuous
 62
     4
370
     9
100
AcDbLine
 10
-308.402947159459
 20
361.1251582068367
 30
0.0
 11
-308.402947159459
 21
363.2800373902191
 31
0.0
  0
LINE
  5
297
330
1F
100
AcDbEntity
  8
1-B
  6
Continuous
 62
     4
370
     9
100
AcDbLine
 10
-329.1032678414691
 20
311.125191198813
 30
0.0
 11
-329.1032678414691
 21
320.4251921885723
 31
0.0
  0
LINE
  5
298
330
1F
100
AcDbEntity
  8
1-B
  6
Continuous
 62
     4
370
     9
100
AcDbLine
 10
-328.4032605832343
 20
311.125191198813
 30
0.0
 11
-328.4032605832343
 21
320.4251921885723
 31
0.0
  0
LINE
  5
299
330
1F
100
AcDbEntity
  8
1-B
  6
Continuous
 62
     4
370
     9
100
AcDbLine
 10
-343.4033100711988
 20
306.1252241907894
 30
0.0
 11
-343.4033100711988
 21
315.425076716655
 31
0.0
  0
LINE
  5
29A
330
1F
100
AcDbEntity
  8
1-B
  6
Continuous
 62
     4
370
     9
100
AcDbLine
 10
-344.1033173294337
 20
306.1252241907894
 30
0.0
 11
-344.1033173294337
 21
315.425076716655
 31
0.0
  0
LINE
  5
29B
330
1F
100
AcDbEntity
  8
1-B
  6
Continuous
 62
     4
370
     9
100
AcDbLine
 10
-329.1032678414691
 20
315.425076716655
 30
0.0
 11
-338.4033430631752
 21
315.425076716655
 31
0.0
  0
LINE
  5
29C
330
1F
100
AcDbEntity
  8
1-B
  6
Continuous
 62
     4
370
     9
100
AcDbLine
 10
-329.1032678414691
 20
316.1251582068367
 30
0.0
 11
-338.4033430631752
 21
316.1251582068367
 31
0.0
  0
LINE
  5
29D
330
1F
100
AcDbEntity
  8
1-B
  6
Continuous
 62
     4
370
     9
100
AcDbLine
 10
-338.4033430631752
 20
311.125191198813
 30
0.0
 11
-338.4033430631752
 21
320.4251921885723
 31
0.0
  0
LINE
  5
29E
330
1F
100
AcDbEntity
  8
1-B
  6
Continuous
 62
     4
370
     9
100
AcDbLine
 10
-339.10335032141
 20
311.125191198813
 30
0.0
 11
-339.10335032141
 21
320.4251921885723
 31
0.0
  0
LINE
  5
29F
330
1F
100
AcDbEntity
  8
1-B
  6
Continuous
 62
     4
370
     9
100
AcDbLine
 10
-334.103160617546
 20
310.425258172525
 30
0.0
 11
-343.4033100711988
 21
310.425258172525
 31
0.0
  0
LINE
  5
2A0
330
1F
100
AcDbEntity
  8
1-B
  6
Continuous
 62
     4
370
     9
100
AcDbLine
 10
-334.103160617546
 20
311.125191198813
 30
0.0
 11
-343.4033100711988
 21
311.125191198813
 31
0.0
  0
LINE
  5
2A1
330
1F
100
AcDbEntity
  8
1-B
  6
Continuous
 62
     4
370
     9
100
AcDbLine
 10
-333.403227591258
 20
306.1252241907894
 30
0.0
 11
-333.403227591258
 21
315.425076716655
 31
0.0
  0
LINE
  5
2A2
330
1F
100
AcDbEntity
  8
1-B
  6
Continuous
 62
     4
370
     9
100
AcDbLine
 10
-334.103160617546
 20
306.1252241907894
 30
0.0
 11
-334.103160617546
 21
315.425076716655
 31
0.0
  0
LINE
  5
2A3
330
1F
100
AcDbEntity
  8
1-B
  6
Continuous
 62
     4
370
     9
100
AcDbLine
 10
-334.103160617546
 20
320.4251921885723
 30
0.0
 11
-343.4033100711988
 21
320.4251921885723
 31
0.0
  0
LINE
  5
2A4
330
1F
100
AcDbEntity
  8
1-B
  6
Continuous
 62
     4
370
     9
100
AcDbLine
 10
-334.103160617546
 20
321.125199446807
 30
0.0
 11
-343.4033100711988
 21
321.125199446807
 31
0.0
  0
LINE
  5
2A5
330
1F
100
AcDbEntity
  8
1-B
  6
Continuous
 62
     4
370
     9
100
AcDbLine
 10
-329.1032678414691
 20
331.1251334628544
 30
0.0
 11
-329.1032678414691
 21
340.4252086845604
 31
0.0
  0
LINE
  5
2A6
330
1F
100
AcDbEntity
  8
1-B
  6
Continuous
 62
     4
370
     9
100
AcDbLine
 10
-328.4032605832343
 20
331.1251334628544
 30
0.0
 11
-328.4032605832343
 21
340.4252086845604
 31
0.0
  0
LINE
  5
2A7
330
1F
100
AcDbEntity
  8
1-B
  6
Continuous
 62
     4
370
     9
100
AcDbLine
 10
-343.4033100711988
 20
326.1251664548307
 30
0.0
 11
-343.4033100711988
 21
335.42516744459
 31
0.0
  0
LINE
  5
2A8
330
1F
100
AcDbEntity
  8
1-B
  6
Continuous
 62
     4
370
     9
100
AcDbLine
 10
-344.1033173294337
 20
326.1251664548307
 30
0.0
 11
-344.1033173294337
 21
335.42516744459
 31
0.0
  0
LINE
  5
2A9
330
1F
100
AcDbEntity
  8
1-B
  6
Continuous
 62
     4
370
     9
100
AcDbLine
 10
-329.1032678414691
 20
326.1251664548307
 30
0.0
 11
-338.4033430631752
 21
326.1251664548307
 31
0.0
  0
LINE
  5
2AA
330
1F
100
AcDbEntity
  8
1-B
  6
Continuous
 62
     4
370
     9
100
AcDbLine
 10
-329.1032678414691
 20
325.4252334285428
 30
0.0
 11
-338.4033430631752
 21
325.4252334285428
 31
0.0
  0
LINE
  5
2AB
330
1F
100
AcDbEntity
  8
1-B
  6
Continuous
 62
     4
370
     9
100
AcDbLine
 10
-329.1032678414691
 20
335.42516744459
 30
0.0
 11
-338.4033430631752
 21
335.42516744459
 31
0.0
  0
LINE
  5
2AC
330
1F
100
AcDbEntity
  8
1-B
  6
Continuous
 62
     4
370
     9
100
AcDbLine
 10
-329.1032678414691
 20
336.1251747028248
 30
0.0
 11
-338.4033430631752
 21
336.1251747028248
 31
0.0
  0
LINE
  5
2AD
330
1F
100
AcDbEntity
  8
1-B
  6
Continuous
 62
     4
370
     9
100
AcDbLine
 10
-338.4033430631752
 20
331.1251334628544
 30
0.0
 11
-338.4033430631752
 21
340.4252086845604
 31
0.0
  0
LINE
  5
2AE
330
1F
100
AcDbEntity
  8
1-B
  6
Continuous
 62
     4
370
     9
100
AcDbLine
 10
-339.10335032141
 20
331.1251334628544
 30
0.0
 11
-339.10335032141
 21
340.4252086845604
 31
0.0
  0
LINE
  5
2AF
330
1F
100
AcDbEntity
  8
1-B
  6
Continuous
 62
     4
370
     9
100
AcDbLine
 10
-334.103160617546
 20
330.4252746685131
 30
0.0
 11
-343.4033100711988
 21
330.4252746685131
 31
0.0
  0
LINE
  5
2B0
330
1F
100
AcDbEntity
  8
1-B
  6
Continuous
 62
     4
370
     9
100
AcDbLine
 10
-334.103160617546
 20
331.1251334628544
 30
0.0
 11
-343.4033100711988
 21
331.1251334628544
 31
0.0
  0
LINE
  5
2B1
330
1F
100
AcDbEntity
  8
1-B
  6
Continuous
 62
     4
370
     9
100
AcDbLine
 10
-333.403227591258
 20
326.1251664548307
 30
0.0
 11
-333.403227591258
 21
335.42516744459
 31
0.0
  0
LINE
  5
2B2
330
1F
100
AcDbEntity
  8
1-B
  6
Continuous
 62
     4
370
     9
100
AcDbLine
 10
-334.103160617546
 20
326.1251664548307
 30
0.0
 11
-334.103160617546
 21
335.42516744459
 31
0.0
  0
LINE
  5
2B3
330
1F
100
AcDbEntity
  8
1-B
  6
Continuous
 62
     4
370
     9
100
AcDbLine
 10
-334.103160617546
 20
340.4252086845604
 30
0.0
 11
-343.4033100711988
 21
340.4252086845604
 31
0.0
  0
LINE
  5
2B4
330
1F
100
AcDbEntity
  8
1-B
  6
Continuous
 62
     4
370
     9
100
AcDbLine
 10
-334.103160617546
 20
341.1252159427953
 30
0.0
 11
-343.4033100711988
 21
341.1252159427953
 31
0.0
  0
LINE
  5
2B5
330
1F
100
AcDbEntity
  8
1-B
  6
Continuous
 62
     4
370
     9
100
AcDbLine
 10
-329.1032678414691
 20
351.1251499588426
 30
0.0
 11
-329.1032678414691
 21
360.4252251805485
 31
0.0
  0
LINE
  5
2B6
330
1F
100
AcDbEntity
  8
1-B
  6
Continuous
 62
     4
370
     9
100
AcDbLine
 10
-328.4032605832343
 20
351.1251499588426
 30
0.0
 11
-328.4032605832343
 21
360.4252251805485
 31
0.0
  0
LINE
  5
2B7
330
1F
100
AcDbEntity
  8
1-B
  6
Continuous
 62
     4
370
     9
100
AcDbLine
 10
-343.4033100711988
 20
346.1252571827657
 30
0.0
 11
-343.4033100711988
 21
355.4251097086313
 31
0.0
  0
LINE
  5
2B8
330
1F
100
AcDbEntity
  8
1-B
  6
Continuous
 62
     4
370
     9
100
AcDbLine
 10
-344.1033173294337
 20
346.1252571827657
 30
0.0
 11
-344.1033173294337
 21
355.4251097086313
 31
0.0
  0
LINE
  5
2B9
330
1F
100
AcDbEntity
  8
1-B
  6
Continuous
 62
     4
370
     9
100
AcDbLine
 10
-329.1032678414691
 20
346.1252571827657
 30
0.0
 11
-338.4033430631752
 21
346.1252571827657
 31
0.0
  0
LINE
  5
2BA
330
1F
100
AcDbEntity
  8
1-B
  6
Continuous
 62
     4
370
     9
100
AcDbLine
 10
-329.1032678414691
 20
345.425175692584
 30
0.0
 11
-338.4033430631752
 21
345.425175692584
 31
0.0
  0
LINE
  5
2BB
330
1F
100
AcDbEntity
  8
1-B
  6
Continuous
 62
     4
370
     9
100
AcDbLine
 10
-329.1032678414691
 20
355.4251097086313
 30
0.0
 11
-338.4033430631752
 21
355.4251097086313
 31
0.0
  0
LINE
  5
2BC
330
1F
100
AcDbEntity
  8
1-B
  6
Continuous
 62
     4
370
     9
100
AcDbLine
 10
-329.1032678414691
 20
356.1251911988129
 30
0.0
 11
-338.4033430631752
 21
356.1251911988129
 31
0.0
  0
LINE
  5
2BD
330
1F
100
AcDbEntity
  8
1-B
  6
Continuous
 62
     4
370
     9
100
AcDbLine
 10
-334.103160617546
 20
350.4252911645013
 30
0.0
 11
-343.4033100711988
 21
350.4252911645013
 31
0.0
  0
LINE
  5
2BE
330
1F
100
AcDbEntity
  8
1-B
  6
Continuous
 62
     4
370
     9
100
AcDbLine
 10
-334.103160617546
 20
351.1251499588426
 30
0.0
 11
-343.4033100711988
 21
351.1251499588426
 31
0.0
  0
LINE
  5
2BF
330
1F
100
AcDbEntity
  8
1-B
  6
Continuous
 62
     4
370
     9
100
AcDbLine
 10
-333.403227591258
 20
346.1252571827657
 30
0.0
 11
-333.403227591258
 21
355.4251097086313
 31
0.0
  0
LINE
  5
2C0
330
1F
100
AcDbEntity
  8
1-B
  6
Continuous
 62
     4
370
     9
100
AcDbLine
 10
-334.103160617546
 20
346.1252571827657
 30
0.0
 11
-334.103160617546
 21
355.4251097086313
 31
0.0
  0
LINE
  5
2C1
330
1F
100
AcDbEntity
  8
1-B
  6
Continuous
 62
     4
370
     9
100
AcDbLine
 10
-339.10335032141
 20
301.1252571827657
 30
0.0
 11
-339.10335032141
 21
310.425258172525
 31
0.0
  0
LINE
  5
2C2
330
1F
100
AcDbEntity
  8
1-B
  6
Continuous
 62
     4
370
     9
100
AcDbLine
 10
-338.4033430631752
 20
301.1252571827657
 30
0.0
 11
-338.4033430631752
 21
310.425258172525
 31
0.0
  0
LINE
  5
2C3
330
1F
100
AcDbEntity
  8
1-B
  6
Continuous
 62
     4
370
     9
100
AcDbLine
 10
-344.1033173294337
 20
316.1251582068367
 30
0.0
 11
-344.1033173294337
 21
325.4252334285428
 31
0.0
  0
LINE
  5
2C4
330
1F
100
AcDbEntity
  8
1-B
  6
Continuous
 62
     4
370
     9
100
AcDbLine
 10
-343.4033100711988
 20
316.1251582068367
 30
0.0
 11
-343.4033100711988
 21
325.4252334285428
 31
0.0
  0
LINE
  5
2C5
330
1F
100
AcDbEntity
  8
1-B
  6
Continuous
 62
     4
370
     9
100
AcDbLine
 10
-334.1033090814395
 20
316.1251582068367
 30
0.0
 11
-334.1033090814395
 21
325.4252334285428
 31
0.0
  0
LINE
  5
2C6
330
1F
100
AcDbEntity
  8
1-B
  6
Continuous
 62
     4
370
     9
100
AcDbLine
 10
-333.403227591258
 20
316.1251582068367
 30
0.0
 11
-333.403227591258
 21
325.4252334285428
 31
0.0
  0
LINE
  5
2C7
330
1F
100
AcDbEntity
  8
1-B
  6
Continuous
 62
     4
370
     9
100
AcDbLine
 10
-339.10335032141
 20
321.125199446807
 30
0.0
 11
-339.10335032141
 21
330.4252746685131
 31
0.0
  0
LINE
  5
2C8
330
1F
100
AcDbEntity
  8
1-B
  6
Continuous
 62
     4
370
     9
100
AcDbLine
 10
-338.4032688312283
 20
321.125199446807
 30
0.0
 11
-338.4032688312283
 21
330.4252746685131
 31
0.0
  0
LINE
  5
2C9
330
1F
100
AcDbEntity
  8
1-B
  6
Continuous
 62
     4
370
     9
100
AcDbLine
 10
-329.1032678414691
 20
321.125199446807
 30
0.0
 11
-329.1032678414691
 21
330.4252746685131
 31
0.0
  0
LINE
  5
2CA
330
1F
100
AcDbEntity
  8
1-B
  6
Continuous
 62
     4
370
     9
100
AcDbLine
 10
-328.4032605832343
 20
321.125199446807
 30
0.0
 11
-328.4032605832343
 21
330.4252746685131
 31
0.0
  0
LINE
  5
2CB
330
1F
100
AcDbEntity
  8
1-B
  6
Continuous
 62
     4
370
     9
100
AcDbLine
 10
-343.4033100711988
 20
336.1253231667184
 30
0.0
 11
-343.4033100711988
 21
345.425175692584
 31
0.0
  0
LINE
  5
2CC
330
1F
100
AcDbEntity
  8
1-B
  6
Continuous
 62
     4
370
     9
100
AcDbLine
 10
-344.1033173294337
 20
336.1253231667184
 30
0.0
 11
-344.1033173294337
 21
345.425175692584
 31
0.0
  0
LINE
  5
2CD
330
1F
100
AcDbEntity
  8
1-B
  6
Continuous
 62
     4
370
     9
100
AcDbLine
 10
-333.403227591258
 20
336.1253231667184
 30
0.0
 11
-333.403227591258
 21
345.425175692584
 31
0.0
  0
LINE
  5
2CE
330
1F
100
AcDbEntity
  8
1-B
  6
Continuous
 62
     4
370
     9
100
AcDbLine
 10
-334.103160617546
 20
336.1253231667184
 30
0.0
 11
-334.103160617546
 21
345.425175692584
 31
0.0
  0
LINE
  5
2CF
330
1F
100
AcDbEntity
  8
1-B
  6
Continuous
 62
     4
370
     9
100
AcDbLine
 10
-338.4033430631752
 20
341.125290174742
 30
0.0
 11
-338.4033430631752
 21
350.4251427006078
 31
0.0
  0
LINE
  5
2D0
330
1F
100
AcDbEntity
  8
1-B
  6
Continuous
 62
     4
370
     9
100
AcDbLine
 10
-339.1032018575164
 20
341.125290174742
 30
0.0
 11
-339.1032018575164
 21
350.4251427006078
 31
0.0
  0
LINE
  5
2D1
330
1F
100
AcDbEntity
  8
1-B
  6
Continuous
 62
     4
370
     9
100
AcDbLine
 10
-328.4032605832343
 20
341.125290174742
 30
0.0
 11
-328.4032605832343
 21
350.4251427006078
 31
0.0
  0
LINE
  5
2D2
330
1F
100
AcDbEntity
  8
1-B
  6
Continuous
 62
     4
370
     9
100
AcDbLine
 10
-329.1031193775755
 20
341.125290174742
 30
0.0
 11
-329.1031193775755
 21
350.4251427006078
 31
0.0
  0
LINE
  5
2D3
330
1F
100
AcDbEntity
  8
1-B
  6
Continuous
 62
     4
370
     9
100
AcDbLine
 10
-333.403227591258
 20
356.1252654307598
 30
0.0
 11
-333.403227591258
 21
363.2800373902191
 31
0.0
  0
LINE
  5
2D4
330
1F
100
AcDbEntity
  8
1-B
  6
Continuous
 62
     4
370
     9
100
AcDbLine
 10
-334.103160617546
 20
356.1252654307598
 30
0.0
 11
-334.103160617546
 21
363.2800373902191
 31
0.0
  0
LINE
  5
2D5
330
1F
100
AcDbEntity
  8
1-B
  6
Continuous
 62
     4
370
     9
100
AcDbLine
 10
-344.1033173294337
 20
356.1252654307598
 30
0.0
 11
-344.1033173294337
 21
363.2800373902191
 31
0.0
  0
LINE
  5
2D6
330
1F
100
AcDbEntity
  8
1-B
  6
Continuous
 62
     4
370
     9
100
AcDbLine
 10
-334.103160617546
 20
360.4252251805485
 30
0.0
 11
-343.4033100711988
 21
360.4252251805485
 31
0.0
  0
LINE
  5
2D7
330
1F
100
AcDbEntity
  8
1-B
  6
Continuous
 62
     4
370
     9
100
AcDbLine
 10
-334.103160617546
 20
361.1251582068367
 30
0.0
 11
-343.4033100711988
 21
361.1251582068367
 31
0.0
  0
LINE
  5
2D8
330
1F
100
AcDbEntity
  8
1-B
  6
Continuous
 62
     4
370
     9
100
AcDbLine
 10
-343.4033100711988
 20
356.1252654307598
 30
0.0
 11
-343.4033100711988
 21
363.2800373902191
 31
0.0
  0
LINE
  5
2D9
330
1F
100
AcDbEntity
  8
1-B
  6
Continuous
 62
     4
370
     9
100
AcDbLine
 10
-339.10335032141
 20
351.1251499588426
 30
0.0
 11
-339.10335032141
 21
360.4252251805485
 31
0.0
  0
LINE
  5
2DA
330
1F
100
AcDbEntity
  8
1-B
  6
Continuous
 62
     4
370
     9
100
AcDbLine
 10
-338.4033430631752
 20
351.1251499588426
 30
0.0
 11
-338.4033430631752
 21
360.4252251805485
 31
0.0
  0
LINE
  5
2DB
330
1F
100
AcDbEntity
  8
1-B
  6
Continuous
 62
     4
370
     9
100
AcDbLine
 10
-339.10335032141
 20
361.1251582068367
 30
0.0
 11
-339.10335032141
 21
363.2800373902191
 31
0.0
  0
LINE
  5
2DC
330
1F
100
AcDbEntity
  8
1-B
  6
Continuous
 62
     4
370
     9
100
AcDbLine
 10
-338.4033430631752
 20
361.1251582068367
 30
0.0
 11
-338.4033430631752
 21
363.2800373902191
 31
0.0
  0
LINE
  5
2DD
330
1F
100
AcDbEntity
  8
1-B
  6
Continuous
 62
     4
370
     9
100
AcDbLine
 10
-329.1032678414691
 20
361.1251582068367
 30
0.0
 11
-329.1032678414691
 21
363.2800373902191
 31
0.0
  0
LINE
  5
2DE
330
1F
100
AcDbEntity
  8
1-B
  6
Continuous
 62
     4
370
     9
100
AcDbLine
 10
-328.4032605832343
 20
361.1251582068367
 30
0.0
 11
-328.4032605832343
 21
363.2800373902191
 31
0.0
  0
LINE
  5
2DF
330
1F
100
AcDbEntity
  8
1-B
  6
Continuous
 62
     4
370
     9
100
AcDbLine
 10
-354.1034740413213
 20
300.4252499245309
 30
0.0
 11
-363.4035492630274
 21
300.4252499245309
 31
0.0
  0
LINE
  5
2E0
330
1F
100
AcDbEntity
  8
1-B
  6
Continuous
 62
     4
370
     9
100
AcDbLine
 10
-354.1034740413213
 20
301.1252571827657
 30
0.0
 11
-363.4035492630274
 21
301.1252571827657
 31
0.0
  0
LINE
  5
2E1
330
1F
100
AcDbEntity
  8
1-B
  6
Continuous
 62
     4
370
     9
100
AcDbLine
 10
-349.1035812652444
 20
311.125191198813
 30
0.0
 11
-349.1035812652444
 21
320.4251921885723
 31
0.0
  0
LINE
  5
2E2
330
1F
100
AcDbEntity
  8
1-B
  6
Continuous
 62
     4
370
     9
100
AcDbLine
 10
-348.4035740070096
 20
311.125191198813
 30
0.0
 11
-348.4035740070096
 21
320.4251921885723
 31
0.0
  0
LINE
  5
2E3
330
1F
100
AcDbEntity
  8
1-B
  6
Continuous
 62
     4
370
     9
100
AcDbLine
 10
-363.4035492630274
 20
306.1252241907894
 30
0.0
 11
-363.4035492630274
 21
315.425076716655
 31
0.0
  0
LINE
  5
2E4
330
1F
100
AcDbEntity
  8
1-B
  6
Continuous
 62
     4
370
     9
100
AcDbLine
 10
-364.103630753209
 20
306.1252241907894
 30
0.0
 11
-364.103630753209
 21
315.425076716655
 31
0.0
  0
LINE
  5
2E5
330
1F
100
AcDbEntity
  8
1-B
  6
Continuous
 62
     4
370
     9
100
AcDbLine
 10
-349.1035812652444
 20
306.1252241907894
 30
0.0
 11
-358.4035822550038
 21
306.1252241907894
 31
0.0
  0
LINE
  5
2E6
330
1F
100
AcDbEntity
  8
1-B
  6
Continuous
 62
     4
370
     9
100
AcDbLine
 10
-349.1035812652444
 20
305.4252169325545
 30
0.0
 11
-358.4035822550038
 21
305.4252169325545
 31
0.0
  0
LINE
  5
2E7
330
1F
100
AcDbEntity
  8
1-B
  6
Continuous
 62
     4
370
     9
100
AcDbLine
 10
-349.1035812652444
 20
315.425076716655
 30
0.0
 11
-358.4035822550038
 21
315.425076716655
 31
0.0
  0
LINE
  5
2E8
330
1F
100
AcDbEntity
  8
1-B
  6
Continuous
 62
     4
370
     9
100
AcDbLine
 10
-349.1035812652444
 20
316.1251582068367
 30
0.0
 11
-358.4035822550038
 21
316.1251582068367
 31
0.0
  0
LINE
  5
2E9
330
1F
100
AcDbEntity
  8
1-B
  6
Continuous
 62
     4
370
     9
100
AcDbLine
 10
-358.4035822550038
 20
311.125191198813
 30
0.0
 11
-358.4035822550038
 21
320.4251921885723
 31
0.0
  0
LINE
  5
2EA
330
1F
100
AcDbEntity
  8
1-B
  6
Continuous
 62
     4
370
     9
100
AcDbLine
 10
-359.1036637451853
 20
311.125191198813
 30
0.0
 11
-359.1036637451853
 21
320.4251921885723
 31
0.0
  0
LINE
  5
2EB
330
1F
100
AcDbEntity
  8
1-B
  6
Continuous
 62
     4
370
     9
100
AcDbLine
 10
-354.1034740413213
 20
310.425258172525
 30
0.0
 11
-363.4035492630274
 21
310.425258172525
 31
0.0
  0
LINE
  5
2EC
330
1F
100
AcDbEntity
  8
1-B
  6
Continuous
 62
     4
370
     9
100
AcDbLine
 10
-354.1034740413213
 20
311.125191198813
 30
0.0
 11
-363.4035492630274
 21
311.125191198813
 31
0.0
  0
LINE
  5
2ED
330
1F
100
AcDbEntity
  8
1-B
  6
Continuous
 62
     4
370
     9
100
AcDbLine
 10
-353.4035410150333
 20
306.1252241907894
 30
0.0
 11
-353.4035410150333
 21
315.425076716655
 31
0.0
  0
LINE
  5
2EE
330
1F
100
AcDbEntity
  8
1-B
  6
Continuous
 62
     4
370
     9
100
AcDbLine
 10
-354.1034740413213
 20
306.1252241907894
 30
0.0
 11
-354.1034740413213
 21
315.425076716655
 31
0.0
  0
LINE
  5
2EF
330
1F
100
AcDbEntity
  8
1-B
  6
Continuous
 62
     4
370
     9
100
AcDbLine
 10
-354.1034740413213
 20
320.4251921885723
 30
0.0
 11
-363.4035492630274
 21
320.4251921885723
 31
0.0
  0
LINE
  5
2F0
330
1F
100
AcDbEntity
  8
1-B
  6
Continuous
 62
     4
370
     9
100
AcDbLine
 10
-354.1034740413213
 20
321.125199446807
 30
0.0
 11
-363.4035492630274
 21
321.125199446807
 31
0.0
  0
LINE
  5
2F1
330
1F
100
AcDbEntity
  8
1-B
  6
Continuous
 62
     4
370
     9
100
AcDbLine
 10
-349.1035812652444
 20
331.1251334628544
 30
0.0
 11
-349.1035812652444
 21
340.4252086845604
 31
0.0
  0
LINE
  5
2F2
330
1F
100
AcDbEntity
  8
1-B
  6
Continuous
 62
     4
370
     9
100
AcDbLine
 10
-348.4035740070096
 20
331.1251334628544
 30
0.0
 11
-348.4035740070096
 21
340.4252086845604
 31
0.0
  0
LINE
  5
2F3
330
1F
100
AcDbEntity
  8
1-B
  6
Continuous
 62
     4
370
     9
100
AcDbLine
 10
-363.4035492630274
 20
326.1251664548307
 30
0.0
 11
-363.4035492630274
 21
335.42516744459
 31
0.0
  0
LINE
  5
2F4
330
1F
100
AcDbEntity
  8
1-B
  6
Continuous
 62
     4
370
     9
100
AcDbLine
 10
-364.103630753209
 20
326.1251664548307
 30
0.0
 11
-364.103630753209
 21
335.42516744459
 31
0.0
  0
LINE
  5
2F5
330
1F
100
AcDbEntity
  8
1-B
  6
Continuous
 62
     4
370
     9
100
AcDbLine
 10
-349.1035812652444
 20
326.1251664548307
 30
0.0
 11
-358.4035822550038
 21
326.1251664548307
 31
0.0
  0
LINE
  5
2F6
330
1F
100
AcDbEntity
  8
1-B
  6
Continuous
 62
     4
370
     9
100
AcDbLine
 10
-349.1035812652444
 20
325.4252334285428
 30
0.0
 11
-358.4035822550038
 21
325.4252334285428
 31
0.0
  0
LINE
  5
2F7
330
1F
100
AcDbEntity
  8
1-B
  6
Continuous
 62
     4
370
     9
100
AcDbLine
 10
-349.1035812652444
 20
335.42516744459
 30
0.0
 11
-358.4035822550038
 21
335.42516744459
 31
0.0
  0
LINE
  5
2F8
330
1F
100
AcDbEntity
  8
1-B
  6
Continuous
 62
     4
370
     9
100
AcDbLine
 10
-349.1035812652444
 20
336.1251747028248
 30
0.0
 11
-358.4035822550038
 21
336.1251747028248
 31
0.0
  0
LINE
  5
2F9
330
1F
100
AcDbEntity
  8
1-B
  6
Continuous
 62
     4
370
     9
100
AcDbLine
 10
-358.4035822550038
 20
331.1251334628544
 30
0.0
 11
-358.4035822550038
 21
340.4252086845604
 31
0.0
  0
LINE
  5
2FA
330
1F
100
AcDbEntity
  8
1-B
  6
Continuous
 62
     4
370
     9
100
AcDbLine
 10
-359.1036637451853
 20
331.1251334628544
 30
0.0
 11
-359.1036637451853
 21
340.4252086845604
 31
0.0
  0
LINE
  5
2FB
330
1F
100
AcDbEntity
  8
1-B
  6
Continuous
 62
     4
370
     9
100
AcDbLine
 10
-354.1034740413213
 20
330.4252746685131
 30
0.0
 11
-363.4035492630274
 21
330.4252746685131
 31
0.0
  0
LINE
  5
2FC
330
1F
100
AcDbEntity
  8
1-B
  6
Continuous
 62
     4
370
     9
100
AcDbLine
 10
-354.1034740413213
 20
331.1251334628544
 30
0.0
 11
-363.4035492630274
 21
331.1251334628544
 31
0.0
  0
LINE
  5
2FD
330
1F
100
AcDbEntity
  8
1-B
  6
Continuous
 62
     4
370
     9
100
AcDbLine
 10
-353.4035410150333
 20
326.1251664548307
 30
0.0
 11
-353.4035410150333
 21
335.42516744459
 31
0.0
  0
LINE
  5
2FE
330
1F
100
AcDbEntity
  8
1-B
  6
Continuous
 62
     4
370
     9
100
AcDbLine
 10
-354.1034740413213
 20
326.1251664548307
 30
0.0
 11
-354.1034740413213
 21
335.42516744459
 31
0.0
  0
LINE
  5
2FF
330
1F
100
AcDbEntity
  8
1-B
  6
Continuous
 62
     4
370
     9
100
AcDbLine
 10
-354.1034740413213
 20
340.4252086845604
 30
0.0
 11
-363.4035492630274
 21
340.4252086845604
 31
0.0
  0
LINE
  5
300
330
1F
100
AcDbEntity
  8
1-B
  6
Continuous
 62
     4
370
     9
100
AcDbLine
 10
-354.1034740413213
 20
341.1252159427953
 30
0.0
 11
-363.4035492630274
 21
341.1252159427953
 31
0.0
  0
LINE
  5
301
330
1F
100
AcDbEntity
  8
1-B
  6
Continuous
 62
     4
370
     9
100
AcDbLine
 10
-349.1035812652444
 20
351.1251499588426
 30
0.0
 11
-349.1035812652444
 21
360.4252251805485
 31
0.0
  0
LINE
  5
302
330
1F
100
AcDbEntity
  8
1-B
  6
Continuous
 62
     4
370
     9
100
AcDbLine
 10
-348.4035740070096
 20
351.1251499588426
 30
0.0
 11
-348.4035740070096
 21
360.4252251805485
 31
0.0
  0
LINE
  5
303
330
1F
100
AcDbEntity
  8
1-B
  6
Continuous
 62
     4
370
     9
100
AcDbLine
 10
-363.4035492630274
 20
346.1252571827657
 30
0.0
 11
-363.4035492630274
 21
355.4251097086313
 31
0.0
  0
LINE
  5
304
330
1F
100
AcDbEntity
  8
1-B
  6
Continuous
 62
     4
370
     9
100
AcDbLine
 10
-364.103630753209
 20
346.1252571827657
 30
0.0
 11
-364.103630753209
 21
355.4251097086313
 31
0.0
  0
LINE
  5
305
330
1F
100
AcDbEntity
  8
1-B
  6
Continuous
 62
     4
370
     9
100
AcDbLine
 10
-349.1035812652444
 20
346.1252571827657
 30
0.0
 11
-358.4035822550038
 21
346.1252571827657
 31
0.0
  0
LINE
  5
306
330
1F
100
AcDbEntity
  8
1-B
  6
Continuous
 62
     4
370
     9
100
AcDbLine
 10
-349.1035812652444
 20
345.425175692584
 30
0.0
 11
-358.4035822550038
 21
345.425175692584
 31
0.0
  0
LINE
  5
307
330
1F
100
AcDbEntity
  8
1-B
  6
Continuous
 62
     4
370
     9
100
AcDbLine
 10
-349.1035812652444
 20
355.4251097086313
 30
0.0
 11
-358.4035822550038
 21
355.4251097086313
 31
0.0
  0
LINE
  5
308
330
1F
100
AcDbEntity
  8
1-B
  6
Continuous
 62
     4
370
     9
100
AcDbLine
 10
-349.1035812652444
 20
356.1251911988129
 30
0.0
 11
-358.4035822550038
 21
356.1251911988129
 31
0.0
  0
LINE
  5
309
330
1F
100
AcDbEntity
  8
1-B
  6
Continuous
 62
     4
370
     9
100
AcDbLine
 10
-354.1034740413213
 20
350.4252911645013
 30
0.0
 11
-363.4035492630274
 21
350.4252911645013
 31
0.0
  0
LINE
  5
30A
330
1F
100
AcDbEntity
  8
1-B
  6
Continuous
 62
     4
370
     9
100
AcDbLine
 10
-354.1034740413213
 20
351.1251499588426
 30
0.0
 11
-363.4035492630274
 21
351.1251499588426
 31
0.0
  0
LINE
  5
30B
330
1F
100
AcDbEntity
  8
1-B
  6
Continuous
 62
     4
370
     9
100
AcDbLine
 10
-353.4035410150333
 20
346.1252571827657
 30
0.0
 11
-353.4035410150333
 21
355.4251097086313
 31
0.0
  0
LINE
  5
30C
330
1F
100
AcDbEntity
  8
1-B
  6
Continuous
 62
     4
370
     9
100
AcDbLine
 10
-354.1034740413213
 20
346.1252571827657
 30
0.0
 11
-354.1034740413213
 21
355.4251097086313
 31
0.0
  0
LINE
  5
30D
330
1F
100
AcDbEntity
  8
1-B
  6
Continuous
 62
     4
370
     9
100
AcDbLine
 10
-364.103630753209
 20
296.1252159427953
 30
0.0
 11
-364.103630753209
 21
305.4252169325545
 31
0.0
  0
LINE
  5
30E
330
1F
100
AcDbEntity
  8
1-B
  6
Continuous
 62
     4
370
     9
100
AcDbLine
 10
-363.4035492630274
 20
296.1252159427953
 30
0.0
 11
-363.4035492630274
 21
305.4252169325545
 31
0.0
  0
LINE
  5
30F
330
1F
100
AcDbEntity
  8
1-B
  6
Continuous
 62
     4
370
     9
100
AcDbLine
 10
-354.1034740413213
 20
296.1252159427953
 30
0.0
 11
-354.1034740413213
 21
305.4252169325545
 31
0.0
  0
LINE
  5
310
330
1F
100
AcDbEntity
  8
1-B
  6
Continuous
 62
     4
370
     9
100
AcDbLine
 10
-359.1036637451853
 20
301.1252571827657
 30
0.0
 11
-359.1036637451853
 21
310.425258172525
 31
0.0
  0
LINE
  5
311
330
1F
100
AcDbEntity
  8
1-B
  6
Continuous
 62
     4
370
     9
100
AcDbLine
 10
-358.4035822550038
 20
301.1252571827657
 30
0.0
 11
-358.4035822550038
 21
310.425258172525
 31
0.0
  0
LINE
  5
312
330
1F
100
AcDbEntity
  8
1-B
  6
Continuous
 62
     4
370
     9
100
AcDbLine
 10
-349.1035812652444
 20
301.1252571827657
 30
0.0
 11
-349.1035812652444
 21
310.425258172525
 31
0.0
  0
LINE
  5
313
330
1F
100
AcDbEntity
  8
1-B
  6
Continuous
 62
     4
370
     9
100
AcDbLine
 10
-348.4035740070096
 20
301.1252571827657
 30
0.0
 11
-348.4035740070096
 21
310.425258172525
 31
0.0
  0
LINE
  5
314
330
1F
100
AcDbEntity
  8
1-B
  6
Continuous
 62
     4
370
     9
100
AcDbLine
 10
-364.103630753209
 20
316.1251582068367
 30
0.0
 11
-364.103630753209
 21
325.4252334285428
 31
0.0
  0
LINE
  5
315
330
1F
100
AcDbEntity
  8
1-B
  6
Continuous
 62
     4
370
     9
100
AcDbLine
 10
-363.4035492630274
 20
316.1251582068367
 30
0.0
 11
-363.4035492630274
 21
325.4252334285428
 31
0.0
  0
LINE
  5
316
330
1F
100
AcDbEntity
  8
1-B
  6
Continuous
 62
     4
370
     9
100
AcDbLine
 10
-354.103548273268
 20
316.1251582068367
 30
0.0
 11
-354.103548273268
 21
325.4252334285428
 31
0.0
  0
LINE
  5
317
330
1F
100
AcDbEntity
  8
1-B
  6
Continuous
 62
     4
370
     9
100
AcDbLine
 10
-353.4035410150333
 20
316.1251582068367
 30
0.0
 11
-353.4035410150333
 21
325.4252334285428
 31
0.0
  0
LINE
  5
318
330
1F
100
AcDbEntity
  8
1-B
  6
Continuous
 62
     4
370
     9
100
AcDbLine
 10
-359.1036637451853
 20
321.125199446807
 30
0.0
 11
-359.1036637451853
 21
330.4252746685131
 31
0.0
  0
LINE
  5
319
330
1F
100
AcDbEntity
  8
1-B
  6
Continuous
 62
     4
370
     9
100
AcDbLine
 10
-358.4035822550038
 20
321.125199446807
 30
0.0
 11
-358.4035822550038
 21
330.4252746685131
 31
0.0
  0
LINE
  5
31A
330
1F
100
AcDbEntity
  8
1-B
  6
Continuous
 62
     4
370
     9
100
AcDbLine
 10
-349.1035812652444
 20
321.125199446807
 30
0.0
 11
-349.1035812652444
 21
330.4252746685131
 31
0.0
  0
LINE
  5
31B
330
1F
100
AcDbEntity
  8
1-B
  6
Continuous
 62
     4
370
     9
100
AcDbLine
 10
-348.4035740070096
 20
321.125199446807
 30
0.0
 11
-348.4035740070096
 21
330.4252746685131
 31
0.0
  0
LINE
  5
31C
330
1F
100
AcDbEntity
  8
1-B
  6
Continuous
 62
     4
370
     9
100
AcDbLine
 10
-363.4035492630274
 20
336.1253231667184
 30
0.0
 11
-363.4035492630274
 21
345.425175692584
 31
0.0
  0
LINE
  5
31D
330
1F
100
AcDbEntity
  8
1-B
  6
Continuous
 62
     4
370
     9
100
AcDbLine
 10
-364.103630753209
 20
336.1253231667184
 30
0.0
 11
-364.103630753209
 21
345.425175692584
 31
0.0
  0
LINE
  5
31E
330
1F
100
AcDbEntity
  8
1-B
  6
Continuous
 62
     4
370
     9
100
AcDbLine
 10
-353.4035410150333
 20
336.1253231667184
 30
0.0
 11
-353.4035410150333
 21
345.425175692584
 31
0.0
  0
LINE
  5
31F
330
1F
100
AcDbEntity
  8
1-B
  6
Continuous
 62
     4
370
     9
100
AcDbLine
 10
-354.1034740413213
 20
336.1253231667184
 30
0.0
 11
-354.1034740413213
 21
345.425175692584
 31
0.0
  0
LINE
  5
320
330
1F
100
AcDbEntity
  8
1-B
  6
Continuous
 62
     4
370
     9
100
AcDbLine
 10
-358.4035822550038
 20
341.125290174742
 30
0.0
 11
-358.4035822550038
 21
350.4251427006078
 31
0.0
  0
LINE
  5
321
330
1F
100
AcDbEntity
  8
1-B
  6
Continuous
 62
     4
370
     9
100
AcDbLine
 10
-359.1035152812918
 20
341.125290174742
 30
0.0
 11
-359.1035152812918
 21
350.4251427006078
 31
0.0
  0
LINE
  5
322
330
1F
100
AcDbEntity
  8
1-B
  6
Continuous
 62
     4
370
     9
100
AcDbLine
 10
-348.4035740070096
 20
341.125290174742
 30
0.0
 11
-348.4035740070096
 21
350.4251427006078
 31
0.0
  0
LINE
  5
323
330
1F
100
AcDbEntity
  8
1-B
  6
Continuous
 62
     4
370
     9
100
AcDbLine
 10
-349.1034328013508
 20
341.125290174742
 30
0.0
 11
-349.1034328013508
 21
350.4251427006078
 31
0.0
  0
LINE
  5
324
330
1F
100
AcDbEntity
  8
1-B
  6
Continuous
 62
     4
370
     9
100
AcDbLine
 10
-353.4035410150333
 20
356.1252654307598
 30
0.0
 11
-353.4035410150333
 21
363.2800373902191
 31
0.0
  0
LINE
  5
325
330
1F
100
AcDbEntity
  8
1-B
  6
Continuous
 62
     4
370
     9
100
AcDbLine
 10
-354.1034740413213
 20
356.1252654307598
 30
0.0
 11
-354.1034740413213
 21
363.2800373902191
 31
0.0
  0
LINE
  5
326
330
1F
100
AcDbEntity
  8
1-B
  6
Continuous
 62
     4
370
     9
100
AcDbLine
 10
-364.103630753209
 20
356.1252654307598
 30
0.0
 11
-364.103630753209
 21
363.2800373902191
 31
0.0
  0
LINE
  5
327
330
1F
100
AcDbEntity
  8
1-B
  6
Continuous
 62
     4
370
     9
100
AcDbLine
 10
-354.1034740413213
 20
360.4252251805485
 30
0.0
 11
-363.4035492630274
 21
360.4252251805485
 31
0.0
  0
LINE
  5
328
330
1F
100
AcDbEntity
  8
1-B
  6
Continuous
 62
     4
370
     9
100
AcDbLine
 10
-354.1034740413213
 20
361.1251582068367
 30
0.0
 11
-363.4035492630274
 21
361.1251582068367
 31
0.0
  0
LINE
  5
329
330
1F
100
AcDbEntity
  8
1-B
  6
Continuous
 62
     4
370
     9
100
AcDbLine
 10
-363.4035492630274
 20
356.1252654307598
 30
0.0
 11
-363.4035492630274
 21
363.2800373902191
 31
0.0
  0
LINE
  5
32A
330
1F
100
AcDbEntity
  8
1-B
  6
Continuous
 62
     4
370
     9
100
AcDbLine
 10
-359.1036637451853
 20
351.1251499588426
 30
0.0
 11
-359.1036637451853
 21
360.4252251805485
 31
0.0
  0
LINE
  5
32B
330
1F
100
AcDbEntity
  8
1-B
  6
Continuous
 62
     4
370
     9
100
AcDbLine
 10
-358.4035822550038
 20
351.1251499588426
 30
0.0
 11
-358.4035822550038
 21
360.4252251805485
 31
0.0
  0
LINE
  5
32C
330
1F
100
AcDbEntity
  8
1-B
  6
Continuous
 62
     4
370
     9
100
AcDbLine
 10
-359.1036637451853
 20
361.1251582068367
 30
0.0
 11
-359.1036637451853
 21
363.2800373902191
 31
0.0
  0
LINE
  5
32D
330
1F
100
AcDbEntity
  8
1-B
  6
Continuous
 62
     4
370
     9
100
AcDbLine
 10
-358.4035822550038
 20
361.1251582068367
 30
0.0
 11
-358.4035822550038
 21
363.2800373902191
 31
0.0
  0
LINE
  5
32E
330
1F
100
AcDbEntity
  8
1-B
  6
Continuous
 62
     4
370
     9
100
AcDbLine
 10
-349.1035812652444
 20
361.1251582068367
 30
0.0
 11
-349.1035812652444
 21
363.2800373902191
 31
0.0
  0
LINE
  5
32F
330
1F
100
AcDbEntity
  8
1-B
  6
Continuous
 62
     4
370
     9
100
AcDbLine
 10
-348.4035740070096
 20
361.1251582068367
 30
0.0
 11
-348.4035740070096
 21
363.2800373902191
 31
0.0
  0
LINE
  5
330
330
1F
100
AcDbEntity
  8
1-B
  6
Continuous
 62
     4
370
     9
100
AcDbLine
 10
-299.1027977058061
 20
355.4251097086313
 30
0.0
 11
-308.4028729275122
 21
355.4251097086313
 31
0.0
  0
LINE
  5
331
330
1F
100
AcDbEntity
  8
1-B
  6
Continuous
 62
     4
370
     9
100
AcDbLine
 10
-299.1027977058061
 20
356.1251911988129
 30
0.0
 11
-308.4028729275122
 21
356.1251911988129
 31
0.0
  0
LINE
  5
332
330
1F
100
AcDbEntity
  8
1-B
  6
Continuous
 62
     4
370
     9
100
AcDbLine
 10
-304.1027647138297
 20
341.1252159427953
 30
0.0
 11
-313.4028399355358
 21
341.1252159427953
 31
0.0
  0
LINE
  5
333
330
1F
100
AcDbEntity
  8
1-B
  6
Continuous
 62
     4
370
     9
100
AcDbLine
 10
-304.1027647138297
 20
340.4252086845604
 30
0.0
 11
-313.4028399355358
 21
340.4252086845604
 31
0.0
  0
LINE
  5
334
330
1F
100
AcDbEntity
  8
1-B
  6
Continuous
 62
     4
370
     9
100
AcDbLine
 10
-304.1027647138297
 20
350.4250684686609
 30
0.0
 11
-313.4028399355358
 21
350.4250684686609
 31
0.0
  0
LINE
  5
335
330
1F
100
AcDbEntity
  8
1-B
  6
Continuous
 62
     4
370
     9
100
AcDbLine
 10
-304.1027647138297
 20
351.1251499588426
 30
0.0
 11
-313.4028399355358
 21
351.1251499588426
 31
0.0
  0
LINE
  5
336
330
1F
100
AcDbEntity
  8
1-B
  6
Continuous
 62
     4
370
     9
100
AcDbLine
 10
-319.1031111295815
 20
316.1251582068367
 30
0.0
 11
-328.4031121193407
 21
316.1251582068367
 31
0.0
  0
LINE
  5
337
330
1F
100
AcDbEntity
  8
1-B
  6
Continuous
 62
     4
370
     9
100
AcDbLine
 10
-319.1031111295815
 20
326.1251664548307
 30
0.0
 11
-328.4031121193407
 21
326.1251664548307
 31
0.0
  0
LINE
  5
338
330
1F
100
AcDbEntity
  8
1-B
  6
Continuous
 62
     4
370
     9
100
AcDbLine
 10
-319.1031111295815
 20
325.4252334285428
 30
0.0
 11
-328.4031121193407
 21
325.4252334285428
 31
0.0
  0
LINE
  5
339
330
1F
100
AcDbEntity
  8
1-B
  6
Continuous
 62
     4
370
     9
100
AcDbLine
 10
-319.1031111295815
 20
335.42516744459
 30
0.0
 11
-328.4031121193407
 21
335.42516744459
 31
0.0
  0
LINE
  5
33A
330
1F
100
AcDbEntity
  8
1-B
  6
Continuous
 62
     4
370
     9
100
AcDbLine
 10
-319.1031111295815
 20
336.1251747028248
 30
0.0
 11
-328.4031121193407
 21
336.1251747028248
 31
0.0
  0
LINE
  5
33B
330
1F
100
AcDbEntity
  8
1-B
  6
Continuous
 62
     4
370
     9
100
AcDbLine
 10
-319.1031111295815
 20
346.1252571827657
 30
0.0
 11
-328.4031121193407
 21
346.1252571827657
 31
0.0
  0
LINE
  5
33C
330
1F
100
AcDbEntity
  8
1-B
  6
Continuous
 62
     4
370
     9
100
AcDbLine
 10
-319.1031111295815
 20
345.425175692584
 30
0.0
 11
-328.4031121193407
 21
345.425175692584
 31
0.0
  0
LINE
  5
33D
330
1F
100
AcDbEntity
  8
1-B
  6
Continuous
 62
     4
370
     9
100
AcDbLine
 10
-319.1031111295815
 20
355.4251097086313
 30
0.0
 11
-328.4031121193407
 21
355.4251097086313
 31
0.0
  0
LINE
  5
33E
330
1F
100
AcDbEntity
  8
1-B
  6
Continuous
 62
     4
370
     9
100
AcDbLine
 10
-319.1031111295815
 20
356.1251911988129
 30
0.0
 11
-328.4031121193407
 21
356.1251911988129
 31
0.0
  0
LINE
  5
33F
330
1F
100
AcDbEntity
  8
1-B
  6
Continuous
 62
     4
370
     9
100
AcDbLine
 10
-324.1030781376051
 20
321.125199446807
 30
0.0
 11
-333.4030791273644
 21
321.125199446807
 31
0.0
  0
LINE
  5
340
330
1F
100
AcDbEntity
  8
1-B
  6
Continuous
 62
     4
370
     9
100
AcDbLine
 10
-324.1030781376051
 20
320.4251921885723
 30
0.0
 11
-333.4030791273644
 21
320.4251921885723
 31
0.0
  0
LINE
  5
341
330
1F
100
AcDbEntity
  8
1-B
  6
Continuous
 62
     4
370
     9
100
AcDbLine
 10
-324.1030781376051
 20
330.4251262046195
 30
0.0
 11
-333.4030791273644
 21
330.4251262046195
 31
0.0
  0
LINE
  5
342
330
1F
100
AcDbEntity
  8
1-B
  6
Continuous
 62
     4
370
     9
100
AcDbLine
 10
-324.1030781376051
 20
331.1251334628544
 30
0.0
 11
-333.4030791273644
 21
331.1251334628544
 31
0.0
  0
LINE
  5
343
330
1F
100
AcDbEntity
  8
1-B
  6
Continuous
 62
     4
370
     9
100
AcDbLine
 10
-324.1030781376051
 20
341.1252159427953
 30
0.0
 11
-333.4030791273644
 21
341.1252159427953
 31
0.0
  0
LINE
  5
344
330
1F
100
AcDbEntity
  8
1-B
  6
Continuous
 62
     4
370
     9
100
AcDbLine
 10
-324.1030781376051
 20
340.4252086845604
 30
0.0
 11
-333.4030791273644
 21
340.4252086845604
 31
0.0
  0
LINE
  5
345
330
1F
100
AcDbEntity
  8
1-B
  6
Continuous
 62
     4
370
     9
100
AcDbLine
 10
-324.1030781376051
 20
350.4250684686609
 30
0.0
 11
-333.4030791273644
 21
350.4250684686609
 31
0.0
  0
LINE
  5
346
330
1F
100
AcDbEntity
  8
1-B
  6
Continuous
 62
     4
370
     9
100
AcDbLine
 10
-324.1030781376051
 20
351.1251499588426
 30
0.0
 11
-333.4030791273644
 21
351.1251499588426
 31
0.0
  0
LINE
  5
347
330
1F
100
AcDbEntity
  8
1-B
  6
Continuous
 62
     4
370
     9
100
AcDbLine
 10
-339.10335032141
 20
306.1252241907894
 30
0.0
 11
-348.403425543116
 21
306.1252241907894
 31
0.0
  0
LINE
  5
348
330
1F
100
AcDbEntity
  8
1-B
  6
Continuous
 62
     4
370
     9
100
AcDbLine
 10
-339.10335032141
 20
305.4252169325545
 30
0.0
 11
-348.403425543116
 21
305.4252169325545
 31
0.0
  0
LINE
  5
349
330
1F
100
AcDbEntity
  8
1-B
  6
Continuous
 62
     4
370
     9
100
AcDbLine
 10
-339.10335032141
 20
315.425076716655
 30
0.0
 11
-348.403425543116
 21
315.425076716655
 31
0.0
  0
LINE
  5
34A
330
1F
100
AcDbEntity
  8
1-B
  6
Continuous
 62
     4
370
     9
100
AcDbLine
 10
-339.10335032141
 20
316.1251582068367
 30
0.0
 11
-348.403425543116
 21
316.1251582068367
 31
0.0
  0
LINE
  5
34B
330
1F
100
AcDbEntity
  8
1-B
  6
Continuous
 62
     4
370
     9
100
AcDbLine
 10
-339.10335032141
 20
326.1251664548307
 30
0.0
 11
-348.403425543116
 21
326.1251664548307
 31
0.0
  0
LINE
  5
34C
330
1F
100
AcDbEntity
  8
1-B
  6
Continuous
 62
     4
370
     9
100
AcDbLine
 10
-339.10335032141
 20
325.4252334285428
 30
0.0
 11
-348.403425543116
 21
325.4252334285428
 31
0.0
  0
LINE
  5
34D
330
1F
100
AcDbEntity
  8
1-B
  6
Continuous
 62
     4
370
     9
100
AcDbLine
 10
-339.10335032141
 20
335.42516744459
 30
0.0
 11
-348.403425543116
 21
335.42516744459
 31
0.0
  0
LINE
  5
34E
330
1F
100
AcDbEntity
  8
1-B
  6
Continuous
 62
     4
370
     9
100
AcDbLine
 10
-339.10335032141
 20
336.1251747028248
 30
0.0
 11
-348.403425543116
 21
336.1251747028248
 31
0.0
  0
LINE
  5
34F
330
1F
100
AcDbEntity
  8
1-B
  6
Continuous
 62
     4
370
     9
100
AcDbLine
 10
-339.10335032141
 20
346.1252571827657
 30
0.0
 11
-348.403425543116
 21
346.1252571827657
 31
0.0
  0
LINE
  5
350
330
1F
100
AcDbEntity
  8
1-B
  6
Continuous
 62
     4
370
     9
100
AcDbLine
 10
-339.10335032141
 20
345.425175692584
 30
0.0
 11
-348.403425543116
 21
345.425175692584
 31
0.0
  0
LINE
  5
351
330
1F
100
AcDbEntity
  8
1-B
  6
Continuous
 62
     4
370
     9
100
AcDbLine
 10
-339.10335032141
 20
355.4251097086313
 30
0.0
 11
-348.403425543116
 21
355.4251097086313
 31
0.0
  0
LINE
  5
352
330
1F
100
AcDbEntity
  8
1-B
  6
Continuous
 62
     4
370
     9
100
AcDbLine
 10
-339.10335032141
 20
356.1251911988129
 30
0.0
 11
-348.403425543116
 21
356.1251911988129
 31
0.0
  0
LINE
  5
353
330
1F
100
AcDbEntity
  8
1-B
  6
Continuous
 62
     4
370
     9
100
AcDbLine
 10
-344.1033173294337
 20
301.1252571827657
 30
0.0
 11
-353.4033925511397
 21
301.1252571827657
 31
0.0
  0
LINE
  5
354
330
1F
100
AcDbEntity
  8
1-B
  6
Continuous
 62
     4
370
     9
100
AcDbLine
 10
-344.1033173294337
 20
300.4252499245309
 30
0.0
 11
-353.4033925511397
 21
300.4252499245309
 31
0.0
  0
LINE
  5
355
330
1F
100
AcDbEntity
  8
1-B
  6
Continuous
 62
     4
370
     9
100
AcDbLine
 10
-344.1033173294337
 20
310.4251097086313
 30
0.0
 11
-353.4033925511397
 21
310.4251097086313
 31
0.0
  0
LINE
  5
356
330
1F
100
AcDbEntity
  8
1-B
  6
Continuous
 62
     4
370
     9
100
AcDbLine
 10
-344.1033173294337
 20
311.125191198813
 30
0.0
 11
-353.4033925511397
 21
311.125191198813
 31
0.0
  0
LINE
  5
357
330
1F
100
AcDbEntity
  8
1-B
  6
Continuous
 62
     4
370
     9
100
AcDbLine
 10
-344.1033173294337
 20
321.125199446807
 30
0.0
 11
-353.4033925511397
 21
321.125199446807
 31
0.0
  0
LINE
  5
358
330
1F
100
AcDbEntity
  8
1-B
  6
Continuous
 62
     4
370
     9
100
AcDbLine
 10
-344.1033173294337
 20
320.4251921885723
 30
0.0
 11
-353.4033925511397
 21
320.4251921885723
 31
0.0
  0
LINE
  5
359
330
1F
100
AcDbEntity
  8
1-B
  6
Continuous
 62
     4
370
     9
100
AcDbLine
 10
-344.1033173294337
 20
330.4251262046195
 30
0.0
 11
-353.4033925511397
 21
330.4251262046195
 31
0.0
  0
LINE
  5
35A
330
1F
100
AcDbEntity
  8
1-B
  6
Continuous
 62
     4
370
     9
100
AcDbLine
 10
-344.1033173294337
 20
331.1251334628544
 30
0.0
 11
-353.4033925511397
 21
331.1251334628544
 31
0.0
  0
LINE
  5
35B
330
1F
100
AcDbEntity
  8
1-B
  6
Continuous
 62
     4
370
     9
100
AcDbLine
 10
-344.1033173294337
 20
341.1252159427953
 30
0.0
 11
-353.4033925511397
 21
341.1252159427953
 31
0.0
  0
LINE
  5
35C
330
1F
100
AcDbEntity
  8
1-B
  6
Continuous
 62
     4
370
     9
100
AcDbLine
 10
-344.1033173294337
 20
340.4252086845604
 30
0.0
 11
-353.4033925511397
 21
340.4252086845604
 31
0.0
  0
LINE
  5
35D
330
1F
100
AcDbEntity
  8
1-B
  6
Continuous
 62
     4
370
     9
100
AcDbLine
 10
-344.1033173294337
 20
350.4250684686609
 30
0.0
 11
-353.4033925511397
 21
350.4250684686609
 31
0.0
  0
LINE
  5
35E
330
1F
100
AcDbEntity
  8
1-B
  6
Continuous
 62
     4
370
     9
100
AcDbLine
 10
-344.1033173294337
 20
351.1251499588426
 30
0.0
 11
-353.4033925511397
 21
351.1251499588426
 31
0.0
  0
LINE
  5
35F
330
1F
100
AcDbEntity
  8
1-B
  6
Continuous
 62
     4
370
     9
100
AcDbLine
 10
-359.1036637451853
 20
295.4251344526136
 30
0.0
 11
-368.4037389668914
 21
295.4251344526136
 31
0.0
  0
LINE
  5
360
330
1F
100
AcDbEntity
  8
1-B
  6
Continuous
 62
     4
370
     9
100
AcDbLine
 10
-359.1036637451853
 20
296.1252159427953
 30
0.0
 11
-368.4037389668914
 21
296.1252159427953
 31
0.0
  0
LINE
  5
361
330
1F
100
AcDbEntity
  8
1-B
  6
Continuous
 62
     4
370
     9
100
AcDbLine
 10
-359.1036637451853
 20
306.1252241907894
 30
0.0
 11
-368.4037389668914
 21
306.1252241907894
 31
0.0
  0
LINE
  5
362
330
1F
100
AcDbEntity
  8
1-B
  6
Continuous
 62
     4
370
     9
100
AcDbLine
 10
-359.1036637451853
 20
305.4252169325545
 30
0.0
 11
-368.4037389668914
 21
305.4252169325545
 31
0.0
  0
LINE
  5
363
330
1F
100
AcDbEntity
  8
1-B
  6
Continuous
 62
     4
370
     9
100
AcDbLine
 10
-359.1036637451853
 20
315.425076716655
 30
0.0
 11
-368.4037389668914
 21
315.425076716655
 31
0.0
  0
LINE
  5
364
330
1F
100
AcDbEntity
  8
1-B
  6
Continuous
 62
     4
370
     9
100
AcDbLine
 10
-359.1036637451853
 20
316.1251582068367
 30
0.0
 11
-368.4037389668914
 21
316.1251582068367
 31
0.0
  0
LINE
  5
365
330
1F
100
AcDbEntity
  8
1-B
  6
Continuous
 62
     4
370
     9
100
AcDbLine
 10
-359.1036637451853
 20
326.1251664548307
 30
0.0
 11
-368.4037389668914
 21
326.1251664548307
 31
0.0
  0
LINE
  5
366
330
1F
100
AcDbEntity
  8
1-B
  6
Continuous
 62
     4
370
     9
100
AcDbLine
 10
-359.1036637451853
 20
325.4252334285428
 30
0.0
 11
-368.4037389668914
 21
325.4252334285428
 31
0.0
  0
LINE
  5
367
330
1F
100
AcDbEntity
  8
1-B
  6
Continuous
 62
     4
370
     9
100
AcDbLine
 10
-359.1036637451853
 20
335.42516744459
 30
0.0
 11
-368.4037389668914
 21
335.42516744459
 31
0.0
  0
LINE
  5
368
330
1F
100
AcDbEntity
  8
1-B
  6
Continuous
 62
     4
370
     9
100
AcDbLine
 10
-359.1036637451853
 20
336.1251747028248
 30
0.0
 11
-368.4037389668914
 21
336.1251747028248
 31
0.0
  0
LINE
  5
369
330
1F
100
AcDbEntity
  8
1-B
  6
Continuous
 62
     4
370
     9
100
AcDbLine
 10
-359.1036637451853
 20
346.1252571827657
 30
0.0
 11
-368.4037389668914
 21
346.1252571827657
 31
0.0
  0
LINE
  5
36A
330
1F
100
AcDbEntity
  8
1-B
  6
Continuous
 62
     4
370
     9
100
AcDbLine
 10
-359.1036637451853
 20
345.425175692584
 30
0.0
 11
-368.4037389668914
 21
345.425175692584
 31
0.0
  0
LINE
  5
36B
330
1F
100
AcDbEntity
  8
1-B
  6
Continuous
 62
     4
370
     9
100
AcDbLine
 10
-359.1036637451853
 20
355.4251097086313
 30
0.0
 11
-368.4037389668914
 21
355.4251097086313
 31
0.0
  0
LINE
  5
36C
330
1F
100
AcDbEntity
  8
1-B
  6
Continuous
 62
     4
370
     9
100
AcDbLine
 10
-359.1036637451853
 20
356.1251911988129
 30
0.0
 11
-368.4037389668914
 21
356.1251911988129
 31
0.0
  0
LINE
  5
36D
330
1F
100
AcDbEntity
  8
1-B
  6
Continuous
 62
     4
370
     9
100
AcDbLine
 10
-304.1026162499361
 20
360.4252251805485
 30
0.0
 11
-313.402765703589
 21
360.4252251805485
 31
0.0
  0
LINE
  5
36E
330
1F
100
AcDbEntity
  8
1-B
  6
Continuous
 62
     4
370
     9
100
AcDbLine
 10
-304.1026162499361
 20
361.1251582068367
 30
0.0
 11
-313.402765703589
 21
361.1251582068367
 31
0.0
  0
LINE
  5
36F
330
1F
100
AcDbEntity
  8
1-B
  6
Continuous
 62
     4
370
     9
100
AcDbLine
 10
-324.1030781376051
 20
360.4252251805485
 30
0.0
 11
-333.403227591258
 21
360.4252251805485
 31
0.0
  0
LINE
  5
370
330
1F
100
AcDbEntity
  8
1-B
  6
Continuous
 62
     4
370
     9
100
AcDbLine
 10
-324.1030781376051
 20
361.1251582068367
 30
0.0
 11
-333.403227591258
 21
361.1251582068367
 31
0.0
  0
LINE
  5
371
330
1F
100
AcDbEntity
  8
1-B
  6
Continuous
 62
     4
370
     9
100
AcDbLine
 10
-344.1031688655401
 20
360.4252251805485
 30
0.0
 11
-353.4033183191929
 21
360.4252251805485
 31
0.0
  0
LINE
  5
372
330
1F
100
AcDbEntity
  8
1-B
  6
Continuous
 62
     4
370
     9
100
AcDbLine
 10
-344.1031688655401
 20
361.1251582068367
 30
0.0
 11
-353.4033183191929
 21
361.1251582068367
 31
0.0
  0
LINE
  5
373
330
1F
100
AcDbEntity
  8
1-B
  6
Continuous
 62
     4
370
     9
100
AcDbLine
 10
-369.1038946890197
 20
311.125191198813
 30
0.0
 11
-369.1038946890197
 21
320.4251921885723
 31
0.0
  0
LINE
  5
374
330
1F
100
AcDbEntity
  8
1-B
  6
Continuous
 62
     4
370
     9
100
AcDbLine
 10
-368.4038131988382
 20
311.125191198813
 30
0.0
 11
-368.4038131988382
 21
320.4251921885723
 31
0.0
  0
LINE
  5
375
330
1F
100
AcDbEntity
  8
1-B
  6
Continuous
 62
     4
370
     9
100
AcDbLine
 10
-369.1038946890197
 20
331.1251334628544
 30
0.0
 11
-369.1038946890197
 21
340.4252086845604
 31
0.0
  0
LINE
  5
376
330
1F
100
AcDbEntity
  8
1-B
  6
Continuous
 62
     4
370
     9
100
AcDbLine
 10
-368.4038131988382
 20
331.1251334628544
 30
0.0
 11
-368.4038131988382
 21
340.4252086845604
 31
0.0
  0
LINE
  5
377
330
1F
100
AcDbEntity
  8
1-B
  6
Continuous
 62
     4
370
     9
100
AcDbLine
 10
-369.1038946890197
 20
351.1251499588426
 30
0.0
 11
-369.1038946890197
 21
360.4252251805485
 31
0.0
  0
LINE
  5
378
330
1F
100
AcDbEntity
  8
1-B
  6
Continuous
 62
     4
370
     9
100
AcDbLine
 10
-368.4038131988382
 20
351.1251499588426
 30
0.0
 11
-368.4038131988382
 21
360.4252251805485
 31
0.0
  0
LINE
  5
379
330
1F
100
AcDbEntity
  8
1-B
  6
Continuous
 62
     4
370
     9
100
AcDbLine
 10
-369.1038946890197
 20
301.1252571827657
 30
0.0
 11
-369.1038946890197
 21
310.425258172525
 31
0.0
  0
LINE
  5
37A
330
1F
100
AcDbEntity
  8
1-B
  6
Continuous
 62
     4
370
     9
100
AcDbLine
 10
-368.4038131988382
 20
301.1252571827657
 30
0.0
 11
-368.4038131988382
 21
310.425258172525
 31
0.0
  0
LINE
  5
37B
330
1F
100
AcDbEntity
  8
1-B
  6
Continuous
 62
     4
370
     9
100
AcDbLine
 10
-369.1038946890197
 20
321.125199446807
 30
0.0
 11
-369.1038946890197
 21
330.4252746685131
 31
0.0
  0
LINE
  5
37C
330
1F
100
AcDbEntity
  8
1-B
  6
Continuous
 62
     4
370
     9
100
AcDbLine
 10
-368.4038131988382
 20
321.125199446807
 30
0.0
 11
-368.4038131988382
 21
330.4252746685131
 31
0.0
  0
LINE
  5
37D
330
1F
100
AcDbEntity
  8
1-B
  6
Continuous
 62
     4
370
     9
100
AcDbLine
 10
-368.4038131988382
 20
341.125290174742
 30
0.0
 11
-368.4038131988382
 21
350.4251427006078
 31
0.0
  0
LINE
  5
37E
330
1F
100
AcDbEntity
  8
1-B
  6
Continuous
 62
     4
370
     9
100
AcDbLine
 10
-369.1037462251263
 20
341.125290174742
 30
0.0
 11
-369.1037462251263
 21
350.4251427006078
 31
0.0
  0
LINE
  5
37F
330
1F
100
AcDbEntity
  8
1-B
  6
Continuous
 62
     4
370
     9
100
AcDbLine
 10
-369.1038946890197
 20
361.1251582068367
 30
0.0
 11
-369.1038946890197
 21
363.2800373902191
 31
0.0
  0
LINE
  5
380
330
1F
100
AcDbEntity
  8
1-B
  6
Continuous
 62
     4
370
     9
100
AcDbLine
 10
-368.4038131988382
 20
361.1251582068367
 30
0.0
 11
-368.4038131988382
 21
363.2800373902191
 31
0.0
  0
LINE
  5
381
330
1F
100
AcDbEntity
  8
1-B
  6
Continuous
 62
     4
370
     9
100
AcDbLine
 10
-364.1034822893154
 20
360.4252251805485
 30
0.0
 11
-373.7027122565873
 21
360.4252251805485
 31
0.0
  0
LINE
  5
382
330
1F
100
AcDbEntity
  8
1-B
  6
Continuous
 62
     4
370
     9
100
AcDbLine
 10
-364.1034822893154
 20
361.1251582068367
 30
0.0
 11
-373.7027122565873
 21
361.1251582068367
 31
0.0
  0
LINE
  5
383
330
1F
100
AcDbEntity
  8
1-B
  6
Continuous
 62
     4
370
     9
100
AcDbLine
 10
-369.1038946890197
 20
295.4251344526136
 30
0.0
 11
-373.7027122565873
 21
295.4251344526136
 31
0.0
  0
LINE
  5
384
330
1F
100
AcDbEntity
  8
1-B
  6
Continuous
 62
     4
370
     9
100
AcDbLine
 10
-369.1038946890197
 20
296.1252159427953
 30
0.0
 11
-373.7027122565873
 21
296.1252159427953
 31
0.0
  0
LINE
  5
385
330
1F
100
AcDbEntity
  8
1-B
  6
Continuous
 62
     4
370
     9
100
AcDbLine
 10
-369.1038946890197
 20
306.1252241907894
 30
0.0
 11
-373.7027122565873
 21
306.1252241907894
 31
0.0
  0
LINE
  5
386
330
1F
100
AcDbEntity
  8
1-B
  6
Continuous
 62
     4
370
     9
100
AcDbLine
 10
-369.1038946890197
 20
305.4252169325545
 30
0.0
 11
-373.7027122565873
 21
305.4252169325545
 31
0.0
  0
LINE
  5
387
330
1F
100
AcDbEntity
  8
1-B
  6
Continuous
 62
     4
370
     9
100
AcDbLine
 10
-369.1038946890197
 20
315.425076716655
 30
0.0
 11
-373.7027122565873
 21
315.425076716655
 31
0.0
  0
LINE
  5
388
330
1F
100
AcDbEntity
  8
1-B
  6
Continuous
 62
     4
370
     9
100
AcDbLine
 10
-369.1038946890197
 20
316.1251582068367
 30
0.0
 11
-373.7027122565873
 21
316.1251582068367
 31
0.0
  0
LINE
  5
389
330
1F
100
AcDbEntity
  8
1-B
  6
Continuous
 62
     4
370
     9
100
AcDbLine
 10
-369.1038946890197
 20
326.1251664548307
 30
0.0
 11
-373.7027122565873
 21
326.1251664548307
 31
0.0
  0
LINE
  5
38A
330
1F
100
AcDbEntity
  8
1-B
  6
Continuous
 62
     4
370
     9
100
AcDbLine
 10
-369.1038946890197
 20
325.4252334285428
 30
0.0
 11
-373.7027122565873
 21
325.4252334285428
 31
0.0
  0
LINE
  5
38B
330
1F
100
AcDbEntity
  8
1-B
  6
Continuous
 62
     4
370
     9
100
AcDbLine
 10
-369.1038946890197
 20
335.42516744459
 30
0.0
 11
-373.7027122565873
 21
335.42516744459
 31
0.0
  0
LINE
  5
38C
330
1F
100
AcDbEntity
  8
1-B
  6
Continuous
 62
     4
370
     9
100
AcDbLine
 10
-369.1038946890197
 20
336.1251747028248
 30
0.0
 11
-373.7027122565873
 21
336.1251747028248
 31
0.0
  0
LINE
  5
38D
330
1F
100
AcDbEntity
  8
1-B
  6
Continuous
 62
     4
370
     9
100
AcDbLine
 10
-369.1038946890197
 20
346.1252571827657
 30
0.0
 11
-373.7027122565873
 21
346.1252571827657
 31
0.0
  0
LINE
  5
38E
330
1F
100
AcDbEntity
  8
1-B
  6
Continuous
 62
     4
370
     9
100
AcDbLine
 10
-369.1038946890197
 20
345.425175692584
 30
0.0
 11
-373.7027122565873
 21
345.425175692584
 31
0.0
  0
LINE
  5
38F
330
1F
100
AcDbEntity
  8
1-B
  6
Continuous
 62
     4
370
     9
100
AcDbLine
 10
-364.1034822893154
 20
300.4252499245309
 30
0.0
 11
-373.7027122565873
 21
300.4252499245309
 31
0.0
  0
LINE
  5
390
330
1F
100
AcDbEntity
  8
1-B
  6
Continuous
 62
     4
370
     9
100
AcDbLine
 10
-364.1034822893154
 20
301.1252571827657
 30
0.0
 11
-373.7027122565873
 21
301.1252571827657
 31
0.0
  0
LINE
  5
391
330
1F
100
AcDbEntity
  8
1-B
  6
Continuous
 62
     4
370
     9
100
AcDbLine
 10
-364.1034822893154
 20
310.425258172525
 30
0.0
 11
-373.7027122565873
 21
310.425258172525
 31
0.0
  0
LINE
  5
392
330
1F
100
AcDbEntity
  8
1-B
  6
Continuous
 62
     4
370
     9
100
AcDbLine
 10
-364.1034822893154
 20
311.125191198813
 30
0.0
 11
-373.7027122565873
 21
311.125191198813
 31
0.0
  0
LINE
  5
393
330
1F
100
AcDbEntity
  8
1-B
  6
Continuous
 62
     4
370
     9
100
AcDbLine
 10
-364.1034822893154
 20
320.4251921885723
 30
0.0
 11
-373.7027122565873
 21
320.4251921885723
 31
0.0
  0
LINE
  5
394
330
1F
100
AcDbEntity
  8
1-B
  6
Continuous
 62
     4
370
     9
100
AcDbLine
 10
-364.1034822893154
 20
321.125199446807
 30
0.0
 11
-373.7027122565873
 21
321.125199446807
 31
0.0
  0
LINE
  5
395
330
1F
100
AcDbEntity
  8
1-B
  6
Continuous
 62
     4
370
     9
100
AcDbLine
 10
-364.1034822893154
 20
330.4252746685131
 30
0.0
 11
-373.7027122565873
 21
330.4252746685131
 31
0.0
  0
LINE
  5
396
330
1F
100
AcDbEntity
  8
1-B
  6
Continuous
 62
     4
370
     9
100
AcDbLine
 10
-364.1034822893154
 20
331.1251334628544
 30
0.0
 11
-373.7027122565873
 21
331.1251334628544
 31
0.0
  0
LINE
  5
397
330
1F
100
AcDbEntity
  8
1-B
  6
Continuous
 62
     4
370
     9
100
AcDbLine
 10
-364.1034822893154
 20
340.4252086845604
 30
0.0
 11
-373.7027122565873
 21
340.4252086845604
 31
0.0
  0
LINE
  5
398
330
1F
100
AcDbEntity
  8
1-B
  6
Continuous
 62
     4
370
     9
100
AcDbLine
 10
-364.1034822893154
 20
341.1252159427953
 30
0.0
 11
-373.7027122565873
 21
341.1252159427953
 31
0.0
  0
LINE
  5
399
330
1F
100
AcDbEntity
  8
1-B
  6
Continuous
 62
     4
370
     9
100
AcDbLine
 10
-364.1034822893154
 20
350.4252911645013
 30
0.0
 11
-373.7027122565873
 21
350.4252911645013
 31
0.0
  0
LINE
  5
39A
330
1F
100
AcDbEntity
  8
1-B
  6
Continuous
 62
     4
370
     9
100
AcDbLine
 10
-364.1034822893154
 20
351.1251499588426
 30
0.0
 11
-373.7027122565873
 21
351.1251499588426
 31
0.0
  0
LINE
  5
39B
330
1F
100
AcDbEntity
  8
1-B
  6
Continuous
 62
     4
370
     9
100
AcDbLine
 10
-369.1038946890197
 20
355.4251097086313
 30
0.0
 11
-373.7027122565873
 21
355.4251097086313
 31
0.0
  0
LINE
  5
39C
330
1F
100
AcDbEntity
  8
1-B
  6
Continuous
 62
     4
370
     9
100
AcDbLine
 10
-369.1038946890197
 20
356.1251911988129
 30
0.0
 11
-373.7027122565873
 21
356.1251911988129
 31
0.0
  0
LINE
  5
39D
330
1F
100
AcDbEntity
  8
1-B
  6
Continuous
 62
     7
370
     9
100
AcDbLine
 10
-294.7155411865916
 20
366.1243828953923
 30
0.0
 11
-301.2527033487536
 21
338.275228809666
 31
0.0
  0
LINE
  5
39E
330
1F
100
AcDbEntity
  8
1-B
  6
Continuous
 62
     7
370
     9
100
AcDbLine
 10
-301.2527033487536
 20
338.275228809666
 30
0.0
 11
-321.2530167725291
 21
313.2751710737074
 31
0.0
  0
LINE
  5
39F
330
1F
100
AcDbEntity
  8
1-B
  6
Continuous
 62
     7
370
     9
100
AcDbLine
 10
-321.2530167725291
 20
313.2751710737074
 30
0.0
 11
-341.2533301963044
 21
298.2751958176897
 31
0.0
  0
LINE
  5
3A0
330
1F
100
AcDbEntity
  8
1-B
  6
Continuous
 62
     7
370
     9
100
AcDbLine
 10
-341.2533301963044
 20
298.2751958176897
 30
0.0
 11
-377.3062278815873
 21
291.9945050316888
 31
0.0
  0
LINE
  5
3A1
330
1F
100
AcDbEntity
  8
1-B
  6
Continuous
 62
     4
370
     9
100
AcDbLine
 10
-300.7480745744716
 20
340.4252086845604
 30
0.0
 11
-303.4026832236482
 21
340.4252086845604
 31
0.0
  0
LINE
  5
3A2
330
1F
100
AcDbEntity
  8
1-B
  6
Continuous
 62
     4
370
     9
100
AcDbLine
 10
-300.5837250442774
 20
341.1252159427953
 30
0.0
 11
-303.4026832236482
 21
341.1252159427953
 31
0.0
  0
LINE
  5
3A3
330
1F
100
AcDbEntity
  8
1-B
  6
Continuous
 62
     4
370
     9
100
AcDbLine
 10
-297.2270306423559
 20
355.4251097086313
 30
0.0
 11
-298.4027162156244
 21
355.4251097086313
 31
0.0
  0
LINE
  5
3A4
330
1F
100
AcDbEntity
  8
1-B
  6
Continuous
 62
     4
370
     9
100
AcDbLine
 10
-297.0626811121616
 20
356.1251911988129
 30
0.0
 11
-298.4027162156244
 21
356.1251911988129
 31
0.0
  0
LINE
  5
3A5
330
1F
100
AcDbEntity
  8
1-B
  6
Continuous
 62
     4
370
     9
100
AcDbLine
 10
-298.4007119530611
 20
350.4252911645013
 30
0.0
 11
-303.4026832236482
 21
350.4252911645013
 31
0.0
  0
LINE
  5
3A6
330
1F
100
AcDbEntity
  8
1-B
  6
Continuous
 62
     4
370
     9
100
AcDbLine
 10
-298.2364366548136
 20
351.1251499588426
 30
0.0
 11
-303.4026832236482
 21
351.1251499588426
 31
0.0
  0
LINE
  5
3A7
330
1F
100
AcDbEntity
  8
1-B
  6
Continuous
 62
     4
370
     9
100
AcDbLine
 10
-299.1026492419125
 20
347.4347829560976
 30
0.0
 11
-299.1026492419125
 21
350.4251427006078
 31
0.0
  0
LINE
  5
3A8
330
1F
100
AcDbEntity
  8
1-B
  6
Continuous
 62
     4
370
     9
100
AcDbLine
 10
-296.0533493316507
 20
360.4252251805485
 30
0.0
 11
-303.4026832236482
 21
360.4252251805485
 31
0.0
  0
LINE
  5
3A9
330
1F
100
AcDbEntity
  8
1-B
  6
Continuous
 62
     4
370
     9
100
AcDbLine
 10
-295.8889998014565
 20
361.1251582068367
 30
0.0
 11
-303.4026832236482
 21
361.1251582068367
 31
0.0
  0
LINE
  5
3AA
330
1F
100
AcDbEntity
  8
1-B
  6
Continuous
 62
     4
370
     9
100
AcDbLine
 10
-299.4100437335721
 20
346.1252571827657
 30
0.0
 11
-308.4028729275122
 21
346.1252571827657
 31
0.0
  0
LINE
  5
3AB
330
1F
100
AcDbEntity
  8
1-B
  6
Continuous
 62
     4
370
     9
100
AcDbLine
 10
-299.5743932637664
 20
345.425175692584
 30
0.0
 11
-308.4028729275122
 21
345.425175692584
 31
0.0
  0
LINE
  5
3AC
330
1F
100
AcDbEntity
  8
1-B
  6
Continuous
 62
     4
370
     9
100
AcDbLine
 10
-298.4027162156244
 20
350.4165317947801
 30
0.0
 11
-298.4027162156244
 21
350.4251427006078
 31
0.0
  0
LINE
  5
3AD
330
1F
100
AcDbEntity
  8
1-B
  6
Continuous
 62
     4
370
     9
100
AcDbLine
 10
-304.1027647138297
 20
334.7127634512412
 30
0.0
 11
-304.1027647138297
 21
335.42516744459
 31
0.0
  0
LINE
  5
3AE
330
1F
100
AcDbEntity
  8
1-B
  6
Continuous
 62
     4
370
     9
100
AcDbLine
 10
-318.4030296393998
 20
316.8375622001854
 30
0.0
 11
-318.4030296393998
 21
320.4251921885723
 31
0.0
  0
LINE
  5
3AF
330
1F
100
AcDbEntity
  8
1-B
  6
Continuous
 62
     4
370
     9
100
AcDbLine
 10
-319.1030368976346
 20
315.9625902433653
 30
0.0
 11
-319.1030368976346
 21
320.4251921885723
 31
0.0
  0
LINE
  5
3B0
330
1F
100
AcDbEntity
  8
1-B
  6
Continuous
 62
     4
370
     9
100
AcDbLine
 10
-315.5329256486904
 20
320.4251921885723
 30
0.0
 11
-323.4029966474235
 21
320.4251921885723
 31
0.0
  0
LINE
  5
3B1
330
1F
100
AcDbEntity
  8
1-B
  6
Continuous
 62
     4
370
     9
100
AcDbLine
 10
-314.9729198421026
 20
321.125199446807
 30
0.0
 11
-323.4029966474235
 21
321.125199446807
 31
0.0
  0
LINE
  5
3B2
330
1F
100
AcDbEntity
  8
1-B
  6
Continuous
 62
     4
370
     9
100
AcDbLine
 10
-310.9728571573474
 20
326.1251664548307
 30
0.0
 11
-318.4030296393998
 21
326.1251664548307
 31
0.0
  0
LINE
  5
3B3
330
1F
100
AcDbEntity
  8
1-B
  6
Continuous
 62
     4
370
     9
100
AcDbLine
 10
-311.5328629639353
 20
325.4252334285428
 30
0.0
 11
-318.4030296393998
 21
325.4252334285428
 31
0.0
  0
LINE
  5
3B4
330
1F
100
AcDbEntity
  8
1-B
  6
Continuous
 62
     4
370
     9
100
AcDbLine
 10
-314.1029956576642
 20
322.212549003395
 30
0.0
 11
-314.1029956576642
 21
325.4252334285428
 31
0.0
  0
LINE
  5
3B5
330
1F
100
AcDbEntity
  8
1-B
  6
Continuous
 62
     4
370
     9
100
AcDbLine
 10
-313.4029883994294
 20
323.0875951921619
 30
0.0
 11
-313.4029883994294
 21
325.4252334285428
 31
0.0
  0
LINE
  5
3B6
330
1F
100
AcDbEntity
  8
1-B
  6
Continuous
 62
     4
370
     9
100
AcDbLine
 10
-309.1029544176938
 20
328.4625077634245
 30
0.0
 11
-309.1029544176938
 21
330.4252746685131
 31
0.0
  0
LINE
  5
3B7
330
1F
100
AcDbEntity
  8
1-B
  6
Continuous
 62
     4
370
     9
100
AcDbLine
 10
-308.402947159459
 20
329.3375539521913
 30
0.0
 11
-308.402947159459
 21
330.4252746685131
 31
0.0
  0
LINE
  5
3B8
330
1F
100
AcDbEntity
  8
1-B
  6
Continuous
 62
     4
370
     9
100
AcDbLine
 10
-303.5328118263719
 20
335.42516744459
 30
0.0
 11
-308.4028729275122
 21
335.42516744459
 31
0.0
  0
LINE
  5
3B9
330
1F
100
AcDbEntity
  8
1-B
  6
Continuous
 62
     4
370
     9
100
AcDbLine
 10
-302.9728060197841
 20
336.1251747028248
 30
0.0
 11
-308.4028729275122
 21
336.1251747028248
 31
0.0
  0
LINE
  5
3BA
330
1F
100
AcDbEntity
  8
1-B
  6
Continuous
 62
     4
370
     9
100
AcDbLine
 10
-307.532874511127
 20
330.4251262046195
 30
0.0
 11
-313.4028399355358
 21
330.4251262046195
 31
0.0
  0
LINE
  5
3BB
330
1F
100
AcDbEntity
  8
1-B
  6
Continuous
 62
     4
370
     9
100
AcDbLine
 10
-306.9728687045392
 20
331.1251334628544
 30
0.0
 11
-313.4028399355358
 21
331.1251334628544
 31
0.0
  0
LINE
  5
3BC
330
1F
100
AcDbEntity
  8
1-B
  6
Continuous
 62
     4
370
     9
100
AcDbLine
 10
-319.5330625653922
 20
315.425076716655
 30
0.0
 11
-328.4031121193407
 21
315.425076716655
 31
0.0
  0
LINE
  5
3BD
330
1F
100
AcDbEntity
  8
1-B
  6
Continuous
 62
     4
370
     9
100
AcDbLine
 10
-323.4029966474235
 20
311.6627047255232
 30
0.0
 11
-323.4029966474235
 21
315.425076716655
 31
0.0
  0
LINE
  5
3BE
330
1F
100
AcDbEntity
  8
1-B
  6
Continuous
 62
     4
370
     9
100
AcDbLine
 10
-324.1030781376051
 20
311.1376621658738
 30
0.0
 11
-324.1030781376051
 21
315.425076716655
 31
0.0
  0
LINE
  5
3BF
330
1F
100
AcDbEntity
  8
1-B
  6
Continuous
 62
     4
370
     9
100
AcDbLine
 10
-338.4033430631752
 20
300.4126304935766
 30
0.0
 11
-338.4033430631752
 21
300.4252499245309
 31
0.0
  0
LINE
  5
3C0
330
1F
100
AcDbEntity
  8
1-B
  6
Continuous
 62
     4
370
     9
100
AcDbLine
 10
-339.10335032141
 20
299.8876621658738
 30
0.0
 11
-339.10335032141
 21
300.4252499245309
 31
0.0
  0
LINE
  5
3C1
330
1F
100
AcDbEntity
  8
1-B
  6
Continuous
 62
     4
370
     9
100
AcDbLine
 10
-338.3865666432005
 20
300.4252499245309
 30
0.0
 11
-343.4033100711988
 21
300.4252499245309
 31
0.0
  0
LINE
  5
3C2
330
1F
100
AcDbEntity
  8
1-B
  6
Continuous
 62
     4
370
     9
100
AcDbLine
 10
-337.453248376203
 20
301.1252571827657
 30
0.0
 11
-343.4033100711988
 21
301.1252571827657
 31
0.0
  0
LINE
  5
3C3
330
1F
100
AcDbEntity
  8
1-B
  6
Continuous
 62
     4
370
     9
100
AcDbLine
 10
-330.7864030029978
 20
306.1252241907894
 30
0.0
 11
-338.4033430631752
 21
306.1252241907894
 31
0.0
  0
LINE
  5
3C4
330
1F
100
AcDbEntity
  8
1-B
  6
Continuous
 62
     4
370
     9
100
AcDbLine
 10
-331.7197955019421
 20
305.4252169325545
 30
0.0
 11
-338.4033430631752
 21
305.4252169325545
 31
0.0
  0
LINE
  5
3C5
330
1F
100
AcDbEntity
  8
1-B
  6
Continuous
 62
     4
370
     9
100
AcDbLine
 10
-334.103160617546
 20
303.6377116538383
 30
0.0
 11
-334.103160617546
 21
305.4252169325545
 31
0.0
  0
LINE
  5
3C6
330
1F
100
AcDbEntity
  8
1-B
  6
Continuous
 62
     4
370
     9
100
AcDbLine
 10
-333.403227591258
 20
304.162679981541
 30
0.0
 11
-333.403227591258
 21
305.4252169325545
 31
0.0
  0
LINE
  5
3C7
330
1F
100
AcDbEntity
  8
1-B
  6
Continuous
 62
     4
370
     9
100
AcDbLine
 10
-329.1032678414691
 20
307.3876126779093
 30
0.0
 11
-329.1032678414691
 21
310.425258172525
 31
0.0
  0
LINE
  5
3C8
330
1F
100
AcDbEntity
  8
1-B
  6
Continuous
 62
     4
370
     9
100
AcDbLine
 10
-328.4032605832343
 20
307.912581005612
 30
0.0
 11
-328.4032605832343
 21
310.425258172525
 31
0.0
  0
LINE
  5
3C9
330
1F
100
AcDbEntity
  8
1-B
  6
Continuous
 62
     4
370
     9
100
AcDbLine
 10
-325.0531728245772
 20
310.4251097086313
 30
0.0
 11
-333.4030791273644
 21
310.4251097086313
 31
0.0
  0
LINE
  5
3CA
330
1F
100
AcDbEntity
  8
1-B
  6
Continuous
 62
     4
370
     9
100
AcDbLine
 10
-324.119780325633
 20
311.125191198813
 30
0.0
 11
-333.4030791273644
 21
311.125191198813
 31
0.0
  0
LINE
  5
3CB
330
1F
100
AcDbEntity
  8
1-B
  6
Continuous
 62
     4
370
     9
100
AcDbLine
 10
-344.1033173294337
 20
297.7787325575545
 30
0.0
 11
-344.1033173294337
 21
305.4252169325545
 31
0.0
  0
LINE
  5
3CC
330
1F
100
AcDbEntity
  8
1-B
  6
Continuous
 62
     4
370
     9
100
AcDbLine
 10
-343.4033100711988
 20
297.9006956461313
 30
0.0
 11
-343.4033100711988
 21
305.4252169325545
 31
0.0
  0
LINE
  5
3CD
330
1F
100
AcDbEntity
  8
1-B
  6
Continuous
 62
     4
370
     9
100
AcDbLine
 10
-349.1035812652444
 20
296.9076206619675
 30
0.0
 11
-349.1035812652444
 21
300.4252499245309
 31
0.0
  0
LINE
  5
3CE
330
1F
100
AcDbEntity
  8
1-B
  6
Continuous
 62
     4
370
     9
100
AcDbLine
 10
-348.4035740070096
 20
297.0295837505444
 30
0.0
 11
-348.4035740070096
 21
300.4252499245309
 31
0.0
  0
LINE
  5
3CF
330
1F
100
AcDbEntity
  8
1-B
  6
Continuous
 62
     4
370
     9
100
AcDbLine
 10
-363.4035492630274
 20
294.4164707596238
 30
0.0
 11
-363.4035492630274
 21
295.4251344526136
 31
0.0
  0
LINE
  5
3D0
330
1F
100
AcDbEntity
  8
1-B
  6
Continuous
 62
     4
370
     9
100
AcDbLine
 10
-364.103630753209
 20
294.2945076710469
 30
0.0
 11
-364.103630753209
 21
295.4251344526136
 31
0.0
  0
LINE
  5
3D1
330
1F
100
AcDbEntity
  8
1-B
  6
Continuous
 62
     4
370
     9
100
AcDbLine
 10
-357.6133831814184
 20
295.4251344526136
 30
0.0
 11
-358.4035822550038
 21
295.4251344526136
 31
0.0
  0
LINE
  5
3D2
330
1F
100
AcDbEntity
  8
1-B
  6
Continuous
 62
     4
370
     9
100
AcDbLine
 10
-353.5949109738593
 20
296.1252159427953
 30
0.0
 11
-358.4035822550038
 21
296.1252159427953
 31
0.0
  0
LINE
  5
3D3
330
1F
100
AcDbEntity
  8
1-B
  6
Continuous
 62
     4
370
     9
100
AcDbLine
 10
-358.4035822550038
 20
295.2875084232641
 30
0.0
 11
-358.4035822550038
 21
300.4252499245309
 31
0.0
  0
LINE
  5
3D4
330
1F
100
AcDbEntity
  8
1-B
  6
Continuous
 62
     4
370
     9
100
AcDbLine
 10
-359.1036637451853
 20
295.1655453346872
 30
0.0
 11
-359.1036637451853
 21
300.4252499245309
 31
0.0
  0
LINE
  5
3D5
330
1F
100
AcDbEntity
  8
1-B
  6
Continuous
 62
     4
370
     9
100
AcDbLine
 10
-353.4035410150333
 20
296.1585460869042
 30
0.0
 11
-353.4035410150333
 21
305.4252169325545
 31
0.0
  0
LINE
  5
3D6
330
1F
100
AcDbEntity
  8
1-B
  6
Continuous
 62
     4
370
     9
100
AcDbLine
 10
-369.1038946890197
 20
293.42339577546
 30
0.0
 11
-369.1038946890197
 21
300.4252499245309
 31
0.0
  0
LINE
  5
3D7
330
1F
100
AcDbEntity
  8
1-B
  6
Continuous
 62
     4
370
     9
100
AcDbLine
 10
-368.4038131988382
 20
293.5453588640368
 30
0.0
 11
-368.4038131988382
 21
300.4252499245309
 31
0.0
  0
LINE
  5
3D8
330
1F
100
AcDbEntity
  8
1-B
  6
Continuous
 62
     4
370
     9
100
AcDbLine
 10
-370.7026281270477
 20
359.9300980954557
 30
0.0
 11
-369.1038946890197
 21
359.9300980954557
 31
0.0
  0
LINE
  5
3D9
330
1F
100
AcDbEntity
  8
1-B
  6
Continuous
 62
     4
370
     9
100
AcDbLine
 10
-368.4038131988382
 20
359.9300980954557
 30
0.0
 11
-364.103630753209
 21
359.9300980954557
 31
0.0
  0
LINE
  5
3DA
330
1F
100
AcDbEntity
  8
1-B
  6
Continuous
 62
     4
370
     9
100
AcDbLine
 10
-363.4035492630274
 20
359.9300980954557
 30
0.0
 11
-359.1036637451853
 21
359.9300980954557
 31
0.0
  0
LINE
  5
3DB
330
1F
100
AcDbEntity
  8
1-B
  6
Continuous
 62
     4
370
     9
100
AcDbLine
 10
-358.4035822550038
 20
359.9300980954557
 30
0.0
 11
-354.1034740413213
 21
359.9300980954557
 31
0.0
  0
LINE
  5
3DC
330
1F
100
AcDbEntity
  8
1-B
  6
Continuous
 62
     4
370
     9
100
AcDbLine
 10
-353.4035410150333
 20
359.9300980954557
 30
0.0
 11
-349.1035812652444
 21
359.9300980954557
 31
0.0
  0
LINE
  5
3DD
330
1F
100
AcDbEntity
  8
1-B
  6
Continuous
 62
     4
370
     9
100
AcDbLine
 10
-348.4035740070096
 20
359.9300980954557
 30
0.0
 11
-344.1033173294337
 21
359.9300980954557
 31
0.0
  0
LINE
  5
3DE
330
1F
100
AcDbEntity
  8
1-B
  6
Continuous
 62
     4
370
     9
100
AcDbLine
 10
-343.4033100711988
 20
359.9300980954557
 30
0.0
 11
-339.10335032141
 21
359.9300980954557
 31
0.0
  0
LINE
  5
3DF
330
1F
100
AcDbEntity
  8
1-B
  6
Continuous
 62
     4
370
     9
100
AcDbLine
 10
-338.4033430631752
 20
359.9300980954557
 30
0.0
 11
-334.103160617546
 21
359.9300980954557
 31
0.0
  0
LINE
  5
3E0
330
1F
100
AcDbEntity
  8
1-B
  6
Continuous
 62
     4
370
     9
100
AcDbLine
 10
-333.403227591258
 20
359.9300980954557
 30
0.0
 11
-329.1032678414691
 21
359.9300980954557
 31
0.0
  0
LINE
  5
3E1
330
1F
100
AcDbEntity
  8
1-B
  6
Continuous
 62
     4
370
     9
100
AcDbLine
 10
-328.4032605832343
 20
359.9300980954557
 30
0.0
 11
-324.1030781376051
 21
359.9300980954557
 31
0.0
  0
LINE
  5
3E2
330
1F
100
AcDbEntity
  8
1-B
  6
Continuous
 62
     4
370
     9
100
AcDbLine
 10
-323.4029966474235
 20
359.9300980954557
 30
0.0
 11
-319.1030368976346
 21
359.9300980954557
 31
0.0
  0
LINE
  5
3E3
330
1F
100
AcDbEntity
  8
1-B
  6
Continuous
 62
     4
370
     9
100
AcDbLine
 10
-318.4030296393998
 20
359.9300980954557
 30
0.0
 11
-314.1028471937706
 21
359.9300980954557
 31
0.0
  0
LINE
  5
3E4
330
1F
100
AcDbEntity
  8
1-B
  6
Continuous
 62
     4
370
     9
100
AcDbLine
 10
-313.4029883994294
 20
359.9300980954557
 30
0.0
 11
-309.1029544176938
 21
359.9300980954557
 31
0.0
  0
LINE
  5
3E5
330
1F
100
AcDbEntity
  8
1-B
  6
Continuous
 62
     4
370
     9
100
AcDbLine
 10
-308.402947159459
 20
359.9300980954557
 30
0.0
 11
-304.1027647138297
 21
359.9300980954557
 31
0.0
  0
LINE
  5
3E6
330
1F
100
AcDbEntity
  8
1-B
  6
Continuous
 62
     4
370
     9
100
AcDbLine
 10
-303.4026832236482
 20
359.9300980954557
 30
0.0
 11
-299.1027234738593
 21
359.9300980954557
 31
0.0
  0
LINE
  5
3E7
330
1F
100
AcDbEntity
  8
1-B
  6
Continuous
 62
     4
370
     9
100
AcDbLine
 10
-298.4027162156244
 20
359.9300980954557
 30
0.0
 11
-217.499915526752
 21
359.9300980954557
 31
0.0
  0
LINE
  5
3E8
330
1F
100
AcDbEntity
  8
1-B
  6
Continuous
 62
     4
370
     9
100
AcDbLine
 10
-370.7026281270477
 20
362.9300337611019
 30
0.0
 11
-370.7026281270477
 21
361.1251582068367
 31
0.0
  0
LINE
  5
3E9
330
1F
100
AcDbEntity
  8
1-B
  6
Continuous
 62
     4
370
     9
100
AcDbLine
 10
-370.7026281270477
 20
360.4252251805485
 30
0.0
 11
-370.7026281270477
 21
356.1251911988129
 31
0.0
  0
LINE
  5
3EA
330
1F
100
AcDbEntity
  8
1-B
  6
Continuous
 62
     4
370
     9
100
AcDbLine
 10
-370.7026281270477
 20
355.4251097086313
 30
0.0
 11
-370.7026281270477
 21
351.1251499588426
 31
0.0
  0
LINE
  5
3EB
330
1F
100
AcDbEntity
  8
1-B
  6
Continuous
 62
     4
370
     9
100
AcDbLine
 10
-370.7026281270477
 20
350.4252911645013
 30
0.0
 11
-370.7026281270477
 21
346.1252571827657
 31
0.0
  0
LINE
  5
3EC
330
1F
100
AcDbEntity
  8
1-B
  6
Continuous
 62
     4
370
     9
100
AcDbLine
 10
-370.7026281270477
 20
345.425175692584
 30
0.0
 11
-370.7026281270477
 21
341.1252159427953
 31
0.0
  0
LINE
  5
3ED
330
1F
100
AcDbEntity
  8
1-B
  6
Continuous
 62
     4
370
     9
100
AcDbLine
 10
-370.7026281270477
 20
340.4252086845604
 30
0.0
 11
-370.7026281270477
 21
336.1251747028248
 31
0.0
  0
LINE
  5
3EE
330
1F
100
AcDbEntity
  8
1-B
  6
Continuous
 62
     4
370
     9
100
AcDbLine
 10
-370.7026281270477
 20
335.42516744459
 30
0.0
 11
-370.7026281270477
 21
331.1251334628544
 31
0.0
  0
LINE
  5
3EF
330
1F
100
AcDbEntity
  8
1-B
  6
Continuous
 62
     4
370
     9
100
AcDbLine
 10
-370.7026281270477
 20
330.4252746685131
 30
0.0
 11
-370.7026281270477
 21
326.1251664548307
 31
0.0
  0
LINE
  5
3F0
330
1F
100
AcDbEntity
  8
1-B
  6
Continuous
 62
     4
370
     9
100
AcDbLine
 10
-370.7026281270477
 20
325.4252334285428
 30
0.0
 11
-370.7026281270477
 21
321.125199446807
 31
0.0
  0
LINE
  5
3F1
330
1F
100
AcDbEntity
  8
1-B
  6
Continuous
 62
     4
370
     9
100
AcDbLine
 10
-370.7026281270477
 20
320.4251921885723
 30
0.0
 11
-370.7026281270477
 21
316.1251582068367
 31
0.0
  0
LINE
  5
3F2
330
1F
100
AcDbEntity
  8
1-B
  6
Continuous
 62
     4
370
     9
100
AcDbLine
 10
-370.7026281270477
 20
315.425076716655
 30
0.0
 11
-370.7026281270477
 21
311.125191198813
 31
0.0
  0
LINE
  5
3F3
330
1F
100
AcDbEntity
  8
1-B
  6
Continuous
 62
     4
370
     9
100
AcDbLine
 10
-370.7026281270477
 20
310.425258172525
 30
0.0
 11
-370.7026281270477
 21
306.1252241907894
 31
0.0
  0
LINE
  5
3F4
330
1F
100
AcDbEntity
  8
1-B
  6
Continuous
 62
     4
370
     9
100
AcDbLine
 10
-370.7026281270477
 20
305.4252169325545
 30
0.0
 11
-370.7026281270477
 21
301.1252571827657
 31
0.0
  0
LINE
  5
3F5
330
1F
100
AcDbEntity
  8
1-B
  6
Continuous
 62
     4
370
     9
100
AcDbLine
 10
-370.7026281270477
 20
300.4252499245309
 30
0.0
 11
-370.7026281270477
 21
296.1252159427953
 31
0.0
  0
LINE
  5
3F6
330
1F
100
AcDbEntity
  8
1-B
  6
Continuous
 62
     4
370
     9
100
AcDbLine
 10
-370.7026281270477
 20
295.4251344526136
 30
0.0
 11
-370.7026281270477
 21
125.9301055186504
 31
0.0
  0
LINE
  5
3F7
330
1F
100
AcDbEntity
  8
1-B
  6
Continuous
 62
     4
370
     9
100
AcDbLine
 10
-337.2304040719379
 20
-46.37237564293113
 30
0.0
 11
-337.2304040719379
 21
-37.07248600109199
 31
0.0
  0
LINE
  5
3F8
330
1F
100
AcDbEntity
  8
1-B
  6
Continuous
 62
     4
370
     9
100
AcDbLine
 10
-337.9304670041327
 20
-46.37237564293113
 30
0.0
 11
-337.9304670041327
 21
-37.07248600109199
 31
0.0
  0
LINE
  5
3F9
330
1F
100
AcDbEntity
  8
1-B
  6
Continuous
 62
     4
370
     9
100
AcDbLine
 10
-332.2304370639142
 20
-41.3723715189341
 30
0.0
 11
-332.2304370639142
 21
-32.07248187709496
 31
0.0
  0
LINE
  5
3FA
330
1F
100
AcDbEntity
  8
1-B
  6
Continuous
 62
     4
370
     9
100
AcDbLine
 10
-332.9303515322155
 20
-41.3723715189341
 30
0.0
 11
-332.9303515322155
 21
-32.07248187709496
 31
0.0
  0
LINE
  5
3FB
330
1F
100
AcDbEntity
  8
1-B
  6
Continuous
 62
     4
370
     9
100
AcDbLine
 10
-357.930724753948
 20
-76.3724375028868
 30
0.0
 11
-357.930724753948
 21
-67.0725478610477
 31
0.0
  0
LINE
  5
3FC
330
1F
100
AcDbEntity
  8
1-B
  6
Continuous
 62
     4
370
     9
100
AcDbLine
 10
-352.9307577459243
 20
-71.37250761083652
 30
0.0
 11
-352.9307577459243
 21
-62.07246950510387
 31
0.0
  0
LINE
  5
3FD
330
1F
100
AcDbEntity
  8
1-B
  6
Continuous
 62
     4
370
     9
100
AcDbLine
 10
-347.930586600047
 20
-62.07246950510387
 30
0.0
 11
-357.2307174957132
 21
-62.07246950510387
 31
0.0
  0
LINE
  5
3FE
330
1F
100
AcDbEntity
  8
1-B
  6
Continuous
 62
     4
370
     9
100
AcDbLine
 10
-342.9307309399435
 20
-56.37245812287199
 30
0.0
 11
-352.2307504876895
 21
-56.37245812287199
 31
0.0
  0
LINE
  5
3FF
330
1F
100
AcDbEntity
  8
1-B
  6
Continuous
 62
     4
370
     9
100
AcDbLine
 10
-342.9307309399435
 20
-57.07246538110684
 30
0.0
 11
-352.2307504876895
 21
-57.07246538110684
 31
0.0
  0
LINE
  5
400
330
1F
100
AcDbEntity
  8
1-B
  6
Continuous
 62
     4
370
     9
100
AcDbLine
 10
-342.9307309399435
 20
-27.07255198504473
 30
0.0
 11
-352.2307504876895
 21
-27.07255198504473
 31
0.0
  0
LINE
  5
401
330
1F
100
AcDbEntity
  8
1-B
  6
Continuous
 62
     4
370
     9
100
AcDbLine
 10
-342.9307309399435
 20
-26.37250761083652
 30
0.0
 11
-352.2307504876895
 21
-26.37250761083652
 31
0.0
  0
LINE
  5
402
330
1F
100
AcDbEntity
  8
1-B
  6
Continuous
 62
     4
370
     9
100
AcDbLine
 10
-347.2306350157722
 20
-36.37244162688387
 30
0.0
 11
-347.2306350157722
 21
-27.07255198504473
 31
0.0
  0
LINE
  5
403
330
1F
100
AcDbEntity
  8
1-B
  6
Continuous
 62
     4
370
     9
100
AcDbLine
 10
-347.930586600047
 20
-36.37244162688387
 30
0.0
 11
-347.930586600047
 21
-27.07255198504473
 31
0.0
  0
LINE
  5
404
330
1F
100
AcDbEntity
  8
1-B
  6
Continuous
 62
     4
370
     9
100
AcDbLine
 10
-347.9306979479672
 20
-66.37250348683949
 30
0.0
 11
-347.9306979479672
 21
-57.07246538110684
 31
0.0
  0
LINE
  5
405
330
1F
100
AcDbEntity
  8
1-B
  6
Continuous
 62
     4
370
     9
100
AcDbLine
 10
-357.2307174957132
 20
-46.37237564293113
 30
0.0
 11
-357.2307174957132
 21
-37.07248600109199
 31
0.0
  0
LINE
  5
406
330
1F
100
AcDbEntity
  8
1-B
  6
Continuous
 62
     4
370
     9
100
AcDbLine
 10
-342.2306680077486
 20
-41.3723715189341
 30
0.0
 11
-342.2306680077486
 21
-32.07248187709496
 31
0.0
  0
LINE
  5
407
330
1F
100
AcDbEntity
  8
1-B
  6
Continuous
 62
     4
370
     9
100
AcDbLine
 10
-342.9305268020899
 20
-41.3723715189341
 30
0.0
 11
-342.9305268020899
 21
-32.07248187709496
 31
0.0
  0
LINE
  5
408
330
1F
100
AcDbEntity
  8
1-B
  6
Continuous
 62
     4
370
     9
100
AcDbLine
 10
-347.930586600047
 20
-21.37246637086614
 30
0.0
 11
-357.2307174957132
 21
-21.37246637086614
 31
0.0
  0
LINE
  5
409
330
1F
100
AcDbEntity
  8
1-B
  6
Continuous
 62
     4
370
     9
100
AcDbLine
 10
-352.9307577459243
 20
-31.37254885080699
 30
0.0
 11
-352.9307577459243
 21
-22.0724736291009
 31
0.0
  0
LINE
  5
40A
330
1F
100
AcDbEntity
  8
1-B
  6
Continuous
 62
     4
370
     9
100
AcDbLine
 10
-352.2307504876895
 20
-31.37254885080699
 30
0.0
 11
-352.2307504876895
 21
-22.0724736291009
 31
0.0
  0
LINE
  5
40B
330
1F
100
AcDbEntity
  8
1-B
  6
Continuous
 62
     4
370
     9
100
AcDbLine
 10
-362.9309886897588
 20
-51.37252823082176
 30
0.0
 11
-362.9309886897588
 21
-42.0724901250891
 31
0.0
  0
LINE
  5
40C
330
1F
100
AcDbEntity
  8
1-B
  6
Continuous
 62
     4
370
     9
100
AcDbLine
 10
-362.2309257575639
 20
-51.37252823082176
 30
0.0
 11
-362.2309257575639
 21
-42.0724901250891
 31
0.0
  0
LINE
  5
40D
330
1F
100
AcDbEntity
  8
1-B
  6
Continuous
 62
     4
370
     9
100
AcDbLine
 10
-362.9309886897588
 20
-47.07253136505949
 30
0.0
 11
-372.2310639114648
 21
-47.07253136505949
 31
0.0
  0
LINE
  5
40E
330
1F
100
AcDbEntity
  8
1-B
  6
Continuous
 62
     4
370
     9
100
AcDbLine
 10
-362.9309886897588
 20
-46.37248699085129
 30
0.0
 11
-372.2310639114648
 21
-46.37248699085129
 31
0.0
  0
LINE
  5
40F
330
1F
100
AcDbEntity
  8
1-B
  6
Continuous
 62
     4
370
     9
100
AcDbLine
 10
-367.930862907849
 20
-52.07242414113637
 30
0.0
 11
-377.2310309194885
 21
-52.07242414113637
 31
0.0
  0
LINE
  5
410
330
1F
100
AcDbEntity
  8
1-B
  6
Continuous
 62
     4
370
     9
100
AcDbLine
 10
-367.930862907849
 20
-51.37252823082176
 30
0.0
 11
-377.2310309194885
 21
-51.37252823082176
 31
0.0
  0
LINE
  5
411
330
1F
100
AcDbEntity
  8
1-B
  6
Continuous
 62
     4
370
     9
100
AcDbLine
 10
-332.9304999961091
 20
-36.37244162688387
 30
0.0
 11
-342.2305752178152
 21
-36.37244162688387
 31
0.0
  0
LINE
  5
412
330
1F
100
AcDbEntity
  8
1-B
  6
Continuous
 62
     4
370
     9
100
AcDbLine
 10
-332.9304999961091
 20
-37.07244888511863
 30
0.0
 11
-342.2305752178152
 21
-37.07244888511863
 31
0.0
  0
LINE
  5
413
330
1F
100
AcDbEntity
  8
1-B
  6
Continuous
 62
     4
370
     9
100
AcDbLine
 10
-337.9304670041327
 20
-32.07255610904176
 30
0.0
 11
-347.2305422258388
 21
-32.07255610904176
 31
0.0
  0
LINE
  5
414
330
1F
100
AcDbEntity
  8
1-B
  6
Continuous
 62
     4
370
     9
100
AcDbLine
 10
-337.9304670041327
 20
-31.37254885080699
 30
0.0
 11
-347.2305422258388
 21
-31.37254885080699
 31
0.0
  0
LINE
  5
415
330
1F
100
AcDbEntity
  8
1-B
  6
Continuous
 62
     4
370
     9
100
AcDbLine
 10
-357.930724753948
 20
-41.37248286685426
 30
0.0
 11
-367.2307999756541
 21
-41.37248286685426
 31
0.0
  0
LINE
  5
416
330
1F
100
AcDbEntity
  8
1-B
  6
Continuous
 62
     4
370
     9
100
AcDbLine
 10
-357.930724753948
 20
-42.0724901250891
 30
0.0
 11
-367.2307999756541
 21
-42.0724901250891
 31
0.0
  0
LINE
  5
417
330
1F
100
AcDbEntity
  8
1-B
  6
Continuous
 62
     4
370
     9
100
AcDbLine
 10
-357.930724753948
 20
-46.37237564293113
 30
0.0
 11
-357.930724753948
 21
-37.07248600109199
 31
0.0
  0
LINE
  5
418
330
1F
100
AcDbEntity
  8
1-B
  6
Continuous
 62
     4
370
     9
100
AcDbLine
 10
-377.9310938516834
 20
-56.37245812287199
 30
0.0
 11
-377.9310938516834
 21
-49.17953094276223
 31
0.0
  0
LINE
  5
419
330
1F
100
AcDbEntity
  8
1-B
  6
Continuous
 62
     4
370
     9
100
AcDbLine
 10
-357.2307174957132
 20
-26.37239626291637
 30
0.0
 11
-357.2307174957132
 21
-16.37257359478926
 31
0.0
  0
LINE
  5
41A
330
1F
100
AcDbEntity
  8
1-B
  6
Continuous
 62
     4
370
     9
100
AcDbLine
 10
-362.9309886897588
 20
-21.37246637086614
 30
0.0
 11
-362.9309886897588
 21
-11.37249523884543
 31
0.0
  0
LINE
  5
41B
330
1F
100
AcDbEntity
  8
1-B
  6
Continuous
 62
     4
370
     9
100
AcDbLine
 10
-362.2309257575639
 20
-21.37246637086614
 30
0.0
 11
-362.2309257575639
 21
-11.37249523884543
 31
0.0
  0
LINE
  5
41C
330
1F
100
AcDbEntity
  8
1-B
  6
Continuous
 62
     4
370
     9
100
AcDbLine
 10
-352.9307577459243
 20
-16.37257359478926
 30
0.0
 11
-362.2309257575639
 21
-16.37257359478926
 31
0.0
  0
LINE
  5
41D
330
1F
100
AcDbEntity
  8
1-B
  6
Continuous
 62
     4
370
     9
100
AcDbLine
 10
-367.2309113235743
 20
-15.67241787266082
 30
0.0
 11
-367.2309113235743
 21
-6.372491114848316
 31
0.0
  0
LINE
  5
41E
330
1F
100
AcDbEntity
  8
1-B
  6
Continuous
 62
     4
370
     9
100
AcDbLine
 10
-372.9308299158727
 20
-5.672483856613553
 30
0.0
 11
-377.999925424345
 21
-5.672483856613553
 31
0.0
  0
LINE
  5
41F
330
1F
100
AcDbEntity
  8
1-B
  6
Continuous
 62
     4
370
     9
100
AcDbLine
 10
-372.9308299158727
 20
-6.372491114848316
 30
0.0
 11
-377.999925424345
 21
-6.372491114848316
 31
0.0
  0
LINE
  5
420
330
1F
100
AcDbEntity
  8
1-B
  6
Continuous
 62
     4
370
     9
100
AcDbLine
 10
-377.9309825037633
 20
-1.37244987487793
 30
0.0
 11
-377.999925424345
 21
-1.37244987487793
 31
0.0
  0
LINE
  5
421
330
1F
100
AcDbEntity
  8
1-B
  6
Continuous
 62
     4
370
     9
100
AcDbLine
 10
-377.9309825037633
 20
-0.6724426166430817
 30
0.0
 11
-377.999925424345
 21
-0.6724426166430817
 31
0.0
  0
LINE
  5
422
330
1F
100
AcDbEntity
  8
1-B
  6
Continuous
 62
     4
370
     9
100
AcDbLine
 10
-377.9309825037633
 20
-51.37252823082176
 30
0.0
 11
-377.999925424345
 21
-51.37252823082176
 31
0.0
  0
LINE
  5
423
330
1F
100
AcDbEntity
  8
1-B
  6
Continuous
 62
     4
370
     9
100
AcDbLine
 10
-377.9309825037633
 20
-52.07242414113637
 30
0.0
 11
-377.999925424345
 21
-52.07242414113637
 31
0.0
  0
LINE
  5
424
330
1F
100
AcDbEntity
  8
1-B
  6
Continuous
 62
     4
370
     9
100
AcDbLine
 10
-372.9311268436597
 20
-56.37245812287199
 30
0.0
 11
-377.999925424345
 21
-56.37245812287199
 31
0.0
  0
LINE
  5
425
330
1F
100
AcDbEntity
  8
1-B
  6
Continuous
 62
     4
370
     9
100
AcDbLine
 10
-372.9311268436597
 20
-57.07246538110684
 30
0.0
 11
-377.999925424345
 21
-57.07246538110684
 31
0.0
  0
LINE
  5
426
330
1F
100
AcDbEntity
  8
1-B
  6
Continuous
 62
     4
370
     9
100
AcDbLine
 10
-377.9309825037633
 20
-61.37249936284246
 30
0.0
 11
-377.999925424345
 21
-61.37249936284246
 31
0.0
  0
LINE
  5
427
330
1F
100
AcDbEntity
  8
1-B
  6
Continuous
 62
     4
370
     9
100
AcDbLine
 10
-377.9309825037633
 20
-62.07246950510387
 30
0.0
 11
-377.999925424345
 21
-62.07246950510387
 31
0.0
  0
LINE
  5
428
330
1F
100
AcDbEntity
  8
1-B
  6
Continuous
 62
     4
370
     9
100
AcDbLine
 10
-362.9309886897588
 20
-36.37244162688387
 30
0.0
 11
-377.999925424345
 21
-36.37244162688387
 31
0.0
  0
LINE
  5
429
330
1F
100
AcDbEntity
  8
1-B
  6
Continuous
 62
     4
370
     9
100
AcDbLine
 10
-362.9309886897588
 20
-37.07244888511863
 30
0.0
 11
-377.999925424345
 21
-37.07244888511863
 31
0.0
  0
LINE
  5
42A
330
1F
100
AcDbEntity
  8
1-B
  6
Continuous
 62
     4
370
     9
100
AcDbLine
 10
-372.9311268436597
 20
-46.37248699085129
 30
0.0
 11
-377.999925424345
 21
-46.37248699085129
 31
0.0
  0
LINE
  5
42B
330
1F
100
AcDbEntity
  8
1-B
  6
Continuous
 62
     4
370
     9
100
AcDbLine
 10
-372.9311268436597
 20
-47.07253136505949
 30
0.0
 11
-377.999925424345
 21
-47.07253136505949
 31
0.0
  0
LINE
  5
42C
330
1F
100
AcDbEntity
  8
1-B
  6
Continuous
 62
     4
370
     9
100
AcDbLine
 10
-377.9311866416169
 20
-15.67249210460761
 30
0.0
 11
-377.9311866416169
 21
-6.372491114848316
 31
0.0
  0
LINE
  5
42D
330
1F
100
AcDbEntity
  8
1-B
  6
Continuous
 62
     4
370
     9
100
AcDbLine
 10
-377.231123709422
 20
-15.67249210460761
 30
0.0
 11
-377.231123709422
 21
-6.372491114848316
 31
0.0
  0
LINE
  5
42E
330
1F
100
AcDbEntity
  8
1-B
  6
Continuous
 62
     4
370
     9
100
AcDbLine
 10
-367.9308072338888
 20
-11.37249523884543
 30
0.0
 11
-377.231123709422
 21
-11.37249523884543
 31
0.0
  0
LINE
  5
42F
330
1F
100
AcDbEntity
  8
1-B
  6
Continuous
 62
     4
370
     9
100
AcDbLine
 10
-377.9311866416169
 20
-11.37249523884543
 30
0.0
 11
-377.999925424345
 21
-11.37249523884543
 31
0.0
  0
LINE
  5
430
330
1F
100
AcDbEntity
  8
1-B
  6
Continuous
 62
     4
370
     9
100
AcDbLine
 10
-367.9308072338888
 20
-10.67248798061058
 30
0.0
 11
-377.231123709422
 21
-10.67248798061058
 31
0.0
  0
LINE
  5
431
330
1F
100
AcDbEntity
  8
1-B
  6
Continuous
 62
     4
370
     9
100
AcDbLine
 10
-377.9311866416169
 20
-10.67248798061058
 30
0.0
 11
-377.999925424345
 21
-10.67248798061058
 31
0.0
  0
LINE
  5
432
330
1F
100
AcDbEntity
  8
1-B
  6
Continuous
 62
     4
370
     9
100
AcDbLine
 10
-372.9312196335933
 20
-21.37246637086614
 30
0.0
 11
-372.9312196335933
 21
-11.37249523884543
 31
0.0
  0
LINE
  5
433
330
1F
100
AcDbEntity
  8
1-B
  6
Continuous
 62
     4
370
     9
100
AcDbLine
 10
-372.2311752593851
 20
-21.37246637086614
 30
0.0
 11
-372.2311752593851
 21
-11.37249523884543
 31
0.0
  0
LINE
  5
434
330
1F
100
AcDbEntity
  8
1-B
  6
Continuous
 62
     4
370
     9
100
AcDbLine
 10
-362.9309886897588
 20
-16.37257359478926
 30
0.0
 11
-372.2311752593851
 21
-16.37257359478926
 31
0.0
  0
LINE
  5
435
330
1F
100
AcDbEntity
  8
1-B
  6
Continuous
 62
     4
370
     9
100
AcDbLine
 10
-372.9312196335933
 20
-16.37257359478926
 30
0.0
 11
-377.999925424345
 21
-16.37257359478926
 31
0.0
  0
LINE
  5
436
330
1F
100
AcDbEntity
  8
1-B
  6
Continuous
 62
     4
370
     9
100
AcDbLine
 10
-362.9309886897588
 20
-15.67249210460761
 30
0.0
 11
-372.2311752593851
 21
-15.67249210460761
 31
0.0
  0
LINE
  5
437
330
1F
100
AcDbEntity
  8
1-B
  6
Continuous
 62
     4
370
     9
100
AcDbLine
 10
-372.9312196335933
 20
-15.67249210460761
 30
0.0
 11
-377.999925424345
 21
-15.67249210460761
 31
0.0
  0
LINE
  5
438
330
1F
100
AcDbEntity
  8
1-B
  6
Continuous
 62
     4
370
     9
100
AcDbLine
 10
-367.9311598356362
 20
-26.37250761083652
 30
0.0
 11
-367.9311598356362
 21
-16.37257359478926
 31
0.0
  0
LINE
  5
439
330
1F
100
AcDbEntity
  8
1-B
  6
Continuous
 62
     4
370
     9
100
AcDbLine
 10
-367.2311525774013
 20
-26.37250761083652
 30
0.0
 11
-367.2311525774013
 21
-16.37257359478926
 31
0.0
  0
LINE
  5
43A
330
1F
100
AcDbEntity
  8
1-B
  6
Continuous
 62
     4
370
     9
100
AcDbLine
 10
-362.9309886897588
 20
-31.37254885080699
 30
0.0
 11
-362.9309886897588
 21
-22.0724736291009
 31
0.0
  0
LINE
  5
43B
330
1F
100
AcDbEntity
  8
1-B
  6
Continuous
 62
     4
370
     9
100
AcDbLine
 10
-362.2309257575639
 20
-31.37254885080699
 30
0.0
 11
-362.2309257575639
 21
-22.0724736291009
 31
0.0
  0
LINE
  5
43C
330
1F
100
AcDbEntity
  8
1-B
  6
Continuous
 62
     4
370
     9
100
AcDbLine
 10
-357.2307174957132
 20
-36.37244162688387
 30
0.0
 11
-357.2307174957132
 21
-27.07255198504473
 31
0.0
  0
LINE
  5
43D
330
1F
100
AcDbEntity
  8
1-B
  6
Continuous
 62
     4
370
     9
100
AcDbLine
 10
-352.9306649559908
 20
-41.37248286685426
 30
0.0
 11
-352.9306649559908
 21
-32.07248187709496
 31
0.0
  0
LINE
  5
43E
330
1F
100
AcDbEntity
  8
1-B
  6
Continuous
 62
     4
370
     9
100
AcDbLine
 10
-352.2307504876895
 20
-41.37248286685426
 30
0.0
 11
-352.2307504876895
 21
-32.07248187709496
 31
0.0
  0
LINE
  5
43F
330
1F
100
AcDbEntity
  8
1-B
  6
Continuous
 62
     4
370
     9
100
AcDbLine
 10
-347.930586600047
 20
-46.37248699085129
 30
0.0
 11
-347.930586600047
 21
-37.07248600109199
 31
0.0
  0
LINE
  5
440
330
1F
100
AcDbEntity
  8
1-B
  6
Continuous
 62
     4
370
     9
100
AcDbLine
 10
-347.2306350157722
 20
-46.37248699085129
 30
0.0
 11
-347.2306350157722
 21
-37.07248600109199
 31
0.0
  0
LINE
  5
441
330
1F
100
AcDbEntity
  8
1-B
  6
Continuous
 62
     4
370
     9
100
AcDbLine
 10
-342.9305268020899
 20
-51.37252823082176
 30
0.0
 11
-342.9305268020899
 21
-42.0724901250891
 31
0.0
  0
LINE
  5
442
330
1F
100
AcDbEntity
  8
1-B
  6
Continuous
 62
     4
370
     9
100
AcDbLine
 10
-342.2306680077486
 20
-51.37252823082176
 30
0.0
 11
-342.2306680077486
 21
-42.0724901250891
 31
0.0
  0
LINE
  5
443
330
1F
100
AcDbEntity
  8
1-B
  6
Continuous
 62
     4
370
     9
100
AcDbLine
 10
-357.9306319640144
 20
-22.0724736291009
 30
0.0
 11
-367.2311525774013
 21
-22.0724736291009
 31
0.0
  0
LINE
  5
444
330
1F
100
AcDbEntity
  8
1-B
  6
Continuous
 62
     4
370
     9
100
AcDbLine
 10
-357.9306319640144
 20
-21.37246637086614
 30
0.0
 11
-367.2311525774013
 21
-21.37246637086614
 31
0.0
  0
LINE
  5
445
330
1F
100
AcDbEntity
  8
1-B
  6
Continuous
 62
     4
370
     9
100
AcDbLine
 10
-352.9307577459243
 20
-27.07255198504473
 30
0.0
 11
-362.2309257575639
 21
-27.07255198504473
 31
0.0
  0
LINE
  5
446
330
1F
100
AcDbEntity
  8
1-B
  6
Continuous
 62
     4
370
     9
100
AcDbLine
 10
-362.9309886897588
 20
-27.07255198504473
 30
0.0
 11
-377.999925424345
 21
-27.07255198504473
 31
0.0
  0
LINE
  5
447
330
1F
100
AcDbEntity
  8
1-B
  6
Continuous
 62
     4
370
     9
100
AcDbLine
 10
-352.9307577459243
 20
-26.37250761083652
 30
0.0
 11
-362.2309257575639
 21
-26.37250761083652
 31
0.0
  0
LINE
  5
448
330
1F
100
AcDbEntity
  8
1-B
  6
Continuous
 62
     4
370
     9
100
AcDbLine
 10
-362.9309886897588
 20
-26.37250761083652
 30
0.0
 11
-377.999925424345
 21
-26.37250761083652
 31
0.0
  0
LINE
  5
449
330
1F
100
AcDbEntity
  8
1-B
  6
Continuous
 62
     4
370
     9
100
AcDbLine
 10
-357.930724753948
 20
-36.37244162688387
 30
0.0
 11
-357.930724753948
 21
-27.07255198504473
 31
0.0
  0
LINE
  5
44A
330
1F
100
AcDbEntity
  8
1-B
  6
Continuous
 62
     4
370
     9
100
AcDbLine
 10
-357.930724753948
 20
-26.37250761083652
 30
0.0
 11
-357.930724753948
 21
-16.37257359478926
 31
0.0
  0
LINE
  5
44B
330
1F
100
AcDbEntity
  8
1-B
  6
Continuous
 62
     4
370
     9
100
AcDbLine
 10
-347.930586600047
 20
-31.37254885080699
 30
0.0
 11
-357.2307174957132
 21
-31.37254885080699
 31
0.0
  0
LINE
  5
44C
330
1F
100
AcDbEntity
  8
1-B
  6
Continuous
 62
     4
370
     9
100
AcDbLine
 10
-347.930586600047
 20
-32.07240764514816
 30
0.0
 11
-357.2307174957132
 21
-32.07240764514816
 31
0.0
  0
LINE
  5
44D
330
1F
100
AcDbEntity
  8
1-B
  6
Continuous
 62
     4
370
     9
100
AcDbLine
 10
-342.9307309399435
 20
-36.37244162688387
 30
0.0
 11
-352.2307504876895
 21
-36.37244162688387
 31
0.0
  0
LINE
  5
44E
330
1F
100
AcDbEntity
  8
1-B
  6
Continuous
 62
     4
370
     9
100
AcDbLine
 10
-352.9306649559908
 20
-36.37244162688387
 30
0.0
 11
-362.2308329676304
 21
-36.37244162688387
 31
0.0
  0
LINE
  5
44F
330
1F
100
AcDbEntity
  8
1-B
  6
Continuous
 62
     4
370
     9
100
AcDbLine
 10
-342.9307309399435
 20
-37.07244888511863
 30
0.0
 11
-352.2307504876895
 21
-37.07244888511863
 31
0.0
  0
LINE
  5
450
330
1F
100
AcDbEntity
  8
1-B
  6
Continuous
 62
     4
370
     9
100
AcDbLine
 10
-352.9306649559908
 20
-37.07244888511863
 30
0.0
 11
-362.2308329676304
 21
-37.07244888511863
 31
0.0
  0
LINE
  5
451
330
1F
100
AcDbEntity
  8
1-B
  6
Continuous
 62
     4
370
     9
100
AcDbLine
 10
-337.9304670041327
 20
-42.0724901250891
 30
0.0
 11
-347.2306350157722
 21
-42.0724901250891
 31
0.0
  0
LINE
  5
452
330
1F
100
AcDbEntity
  8
1-B
  6
Continuous
 62
     4
370
     9
100
AcDbLine
 10
-347.930586600047
 20
-42.0724901250891
 30
0.0
 11
-357.2307174957132
 21
-42.0724901250891
 31
0.0
  0
LINE
  5
453
330
1F
100
AcDbEntity
  8
1-B
  6
Continuous
 62
     4
370
     9
100
AcDbLine
 10
-337.9304670041327
 20
-41.37248286685426
 30
0.0
 11
-347.2306350157722
 21
-41.37248286685426
 31
0.0
  0
LINE
  5
454
330
1F
100
AcDbEntity
  8
1-B
  6
Continuous
 62
     4
370
     9
100
AcDbLine
 10
-347.930586600047
 20
-41.37248286685426
 30
0.0
 11
-357.2307174957132
 21
-41.37248286685426
 31
0.0
  0
LINE
  5
455
330
1F
100
AcDbEntity
  8
1-B
  6
Continuous
 62
     4
370
     9
100
AcDbLine
 10
-332.9304999961091
 20
-47.07253136505949
 30
0.0
 11
-342.2306680077486
 21
-47.07253136505949
 31
0.0
  0
LINE
  5
456
330
1F
100
AcDbEntity
  8
1-B
  6
Continuous
 62
     4
370
     9
100
AcDbLine
 10
-332.9304999961091
 20
-46.37248699085129
 30
0.0
 11
-342.2306680077486
 21
-46.37248699085129
 31
0.0
  0
LINE
  5
457
330
1F
100
AcDbEntity
  8
1-B
  6
Continuous
 62
     4
370
     9
100
AcDbLine
 10
-362.9308402258652
 20
-41.3723715189341
 30
0.0
 11
-362.9308402258652
 21
-32.07240764514816
 31
0.0
  0
LINE
  5
458
330
1F
100
AcDbEntity
  8
1-B
  6
Continuous
 62
     4
370
     9
100
AcDbLine
 10
-362.2309257575639
 20
-41.3723715189341
 30
0.0
 11
-362.2309257575639
 21
-32.07240764514816
 31
0.0
  0
LINE
  5
459
330
1F
100
AcDbEntity
  8
1-B
  6
Continuous
 62
     4
370
     9
100
AcDbLine
 10
-367.2310041135077
 20
-46.37237564293113
 30
0.0
 11
-367.2310041135077
 21
-37.07244888511863
 31
0.0
  0
LINE
  5
45A
330
1F
100
AcDbEntity
  8
1-B
  6
Continuous
 62
     4
370
     9
100
AcDbLine
 10
-367.930862907849
 20
-46.37237564293113
 30
0.0
 11
-367.930862907849
 21
-37.07244888511863
 31
0.0
  0
LINE
  5
45B
330
1F
100
AcDbEntity
  8
1-B
  6
Continuous
 62
     4
370
     9
100
AcDbLine
 10
-367.2310041135077
 20
-36.37244162688387
 30
0.0
 11
-367.2310041135077
 21
-27.07255198504473
 31
0.0
  0
LINE
  5
45C
330
1F
100
AcDbEntity
  8
1-B
  6
Continuous
 62
     4
370
     9
100
AcDbLine
 10
-367.9310113717426
 20
-36.37244162688387
 30
0.0
 11
-367.9310113717426
 21
-27.07255198504473
 31
0.0
  0
LINE
  5
45D
330
1F
100
AcDbEntity
  8
1-B
  6
Continuous
 62
     4
370
     9
100
AcDbLine
 10
-377.2312350573422
 20
-36.37244162688387
 30
0.0
 11
-377.2312350573422
 21
-27.07255198504473
 31
0.0
  0
LINE
  5
45E
330
1F
100
AcDbEntity
  8
1-B
  6
Continuous
 62
     4
370
     9
100
AcDbLine
 10
-377.9312608735638
 20
-36.37244162688387
 30
0.0
 11
-377.9312608735638
 21
-27.07255198504473
 31
0.0
  0
LINE
  5
45F
330
1F
100
AcDbEntity
  8
1-B
  6
Continuous
 62
     4
370
     9
100
AcDbLine
 10
-357.930724753948
 20
-32.07240764514816
 30
0.0
 11
-367.2310041135077
 21
-32.07240764514816
 31
0.0
  0
LINE
  5
460
330
1F
100
AcDbEntity
  8
1-B
  6
Continuous
 62
     4
370
     9
100
AcDbLine
 10
-367.9310113717426
 20
-32.07240764514816
 30
0.0
 11
-377.2312350573422
 21
-32.07240764514816
 31
0.0
  0
LINE
  5
461
330
1F
100
AcDbEntity
  8
1-B
  6
Continuous
 62
     4
370
     9
100
AcDbLine
 10
-357.930724753948
 20
-31.37254885080699
 30
0.0
 11
-367.2310041135077
 21
-31.37254885080699
 31
0.0
  0
LINE
  5
462
330
1F
100
AcDbEntity
  8
1-B
  6
Continuous
 62
     4
370
     9
100
AcDbLine
 10
-367.9310113717426
 20
-31.37254885080699
 30
0.0
 11
-377.2312350573422
 21
-31.37254885080699
 31
0.0
  0
LINE
  5
463
330
1F
100
AcDbEntity
  8
1-B
  6
Continuous
 62
     4
370
     9
100
AcDbLine
 10
-372.9312196335933
 20
-31.37254885080699
 30
0.0
 11
-372.9312196335933
 21
-27.07255198504473
 31
0.0
  0
LINE
  5
464
330
1F
100
AcDbEntity
  8
1-B
  6
Continuous
 62
     4
370
     9
100
AcDbLine
 10
-372.9312196335933
 20
-26.37250761083652
 30
0.0
 11
-372.9312196335933
 21
-22.0724736291009
 31
0.0
  0
LINE
  5
465
330
1F
100
AcDbEntity
  8
1-B
  6
Continuous
 62
     4
370
     9
100
AcDbLine
 10
-372.2311752593851
 20
-31.37254885080699
 30
0.0
 11
-372.2311752593851
 21
-27.07255198504473
 31
0.0
  0
LINE
  5
466
330
1F
100
AcDbEntity
  8
1-B
  6
Continuous
 62
     4
370
     9
100
AcDbLine
 10
-372.2311752593851
 20
-26.37250761083652
 30
0.0
 11
-372.2311752593851
 21
-22.0724736291009
 31
0.0
  0
LINE
  5
467
330
1F
100
AcDbEntity
  8
1-B
  6
Continuous
 62
     4
370
     9
100
AcDbLine
 10
-372.9311268436597
 20
-41.3723715189341
 30
0.0
 11
-372.9311268436597
 21
-37.07244888511863
 31
0.0
  0
LINE
  5
468
330
1F
100
AcDbEntity
  8
1-B
  6
Continuous
 62
     4
370
     9
100
AcDbLine
 10
-372.9311268436597
 20
-36.37244162688387
 30
0.0
 11
-372.9311268436597
 21
-32.07240764514816
 31
0.0
  0
LINE
  5
469
330
1F
100
AcDbEntity
  8
1-B
  6
Continuous
 62
     4
370
     9
100
AcDbLine
 10
-372.2311752593851
 20
-41.3723715189341
 30
0.0
 11
-372.2311752593851
 21
-37.07244888511863
 31
0.0
  0
LINE
  5
46A
330
1F
100
AcDbEntity
  8
1-B
  6
Continuous
 62
     4
370
     9
100
AcDbLine
 10
-372.2311752593851
 20
-36.37244162688387
 30
0.0
 11
-372.2311752593851
 21
-32.07240764514816
 31
0.0
  0
LINE
  5
46B
330
1F
100
AcDbEntity
  8
1-B
  6
Continuous
 62
     4
370
     9
100
AcDbLine
 10
-377.9313907794706
 20
-26.37250761083652
 30
0.0
 11
-377.9313907794706
 21
-16.37257359478926
 31
0.0
  0
LINE
  5
46C
330
1F
100
AcDbEntity
  8
1-B
  6
Continuous
 62
     4
370
     9
100
AcDbLine
 10
-377.2313278472757
 20
-26.37250761083652
 30
0.0
 11
-377.2313278472757
 21
-16.37257359478926
 31
0.0
  0
LINE
  5
46D
330
1F
100
AcDbEntity
  8
1-B
  6
Continuous
 62
     4
370
     9
100
AcDbLine
 10
-367.9311598356362
 20
-21.37246637086614
 30
0.0
 11
-377.2313278472757
 21
-21.37246637086614
 31
0.0
  0
LINE
  5
46E
330
1F
100
AcDbEntity
  8
1-B
  6
Continuous
 62
     4
370
     9
100
AcDbLine
 10
-377.9313907794706
 20
-21.37246637086614
 30
0.0
 11
-377.999925424345
 21
-21.37246637086614
 31
0.0
  0
LINE
  5
46F
330
1F
100
AcDbEntity
  8
1-B
  6
Continuous
 62
     4
370
     9
100
AcDbLine
 10
-367.9311598356362
 20
-22.0724736291009
 30
0.0
 11
-377.2313278472757
 21
-22.0724736291009
 31
0.0
  0
LINE
  5
470
330
1F
100
AcDbEntity
  8
1-B
  6
Continuous
 62
     4
370
     9
100
AcDbLine
 10
-377.9313907794706
 20
-22.0724736291009
 30
0.0
 11
-377.999925424345
 21
-22.0724736291009
 31
0.0
  0
LINE
  5
471
330
1F
100
AcDbEntity
  8
1-B
  6
Continuous
 62
     4
370
     9
100
AcDbLine
 10
-377.2312350573422
 20
-46.37248699085129
 30
0.0
 11
-377.2312350573422
 21
-37.07252311706543
 31
0.0
  0
LINE
  5
472
330
1F
100
AcDbEntity
  8
1-B
  6
Continuous
 62
     4
370
     9
100
AcDbLine
 10
-377.9310938516834
 20
-46.37248699085129
 30
0.0
 11
-377.9310938516834
 21
-37.07252311706543
 31
0.0
  0
LINE
  5
473
330
1F
100
AcDbEntity
  8
1-B
  6
Continuous
 62
     4
370
     9
100
AcDbLine
 10
-367.930862907849
 20
-42.0724901250891
 30
0.0
 11
-377.2312350573422
 21
-42.0724901250891
 31
0.0
  0
LINE
  5
474
330
1F
100
AcDbEntity
  8
1-B
  6
Continuous
 62
     4
370
     9
100
AcDbLine
 10
-377.9310938516834
 20
-42.0724901250891
 30
0.0
 11
-377.999925424345
 21
-42.0724901250891
 31
0.0
  0
LINE
  5
475
330
1F
100
AcDbEntity
  8
1-B
  6
Continuous
 62
     4
370
     9
100
AcDbLine
 10
-367.930862907849
 20
-41.37248286685426
 30
0.0
 11
-377.2312350573422
 21
-41.37248286685426
 31
0.0
  0
LINE
  5
476
330
1F
100
AcDbEntity
  8
1-B
  6
Continuous
 62
     4
370
     9
100
AcDbLine
 10
-377.9310938516834
 20
-41.37248286685426
 30
0.0
 11
-377.999925424345
 21
-41.37248286685426
 31
0.0
  0
LINE
  5
477
330
1F
100
AcDbEntity
  8
1-B
  6
Continuous
 62
     4
370
     9
100
AcDbLine
 10
-372.9309969377529
 20
-51.37252823082176
 30
0.0
 11
-372.9309969377529
 21
-42.0724901250891
 31
0.0
  0
LINE
  5
478
330
1F
100
AcDbEntity
  8
1-B
  6
Continuous
 62
     4
370
     9
100
AcDbLine
 10
-372.2310639114648
 20
-51.37252823082176
 30
0.0
 11
-372.2310639114648
 21
-42.0724901250891
 31
0.0
  0
LINE
  5
479
330
1F
100
AcDbEntity
  8
1-B
  6
Continuous
 62
     4
370
     9
100
AcDbLine
 10
-377.2310309194885
 20
-56.37245812287199
 30
0.0
 11
-377.2310309194885
 21
-47.07253136505949
 31
0.0
  0
LINE
  5
47A
330
1F
100
AcDbEntity
  8
1-B
  6
Continuous
 62
     4
370
     9
100
AcDbLine
 10
-367.2310041135077
 20
-56.37245812287199
 30
0.0
 11
-367.2310041135077
 21
-47.07253136505949
 31
0.0
  0
LINE
  5
47B
330
1F
100
AcDbEntity
  8
1-B
  6
Continuous
 62
     4
370
     9
100
AcDbLine
 10
-367.930862907849
 20
-56.37245812287199
 30
0.0
 11
-367.930862907849
 21
-47.07253136505949
 31
0.0
  0
LINE
  5
47C
330
1F
100
AcDbEntity
  8
1-B
  6
Continuous
 62
     4
370
     9
100
AcDbLine
 10
-372.9309969377529
 20
-61.37249936284246
 30
0.0
 11
-372.9309969377529
 21
-52.07242414113637
 31
0.0
  0
LINE
  5
47D
330
1F
100
AcDbEntity
  8
1-B
  6
Continuous
 62
     4
370
     9
100
AcDbLine
 10
-372.2309711215314
 20
-61.37249936284246
 30
0.0
 11
-372.2309711215314
 21
-52.07242414113637
 31
0.0
  0
LINE
  5
47E
330
1F
100
AcDbEntity
  8
1-B
  6
Continuous
 62
     4
370
     9
100
AcDbLine
 10
-377.2310309194885
 20
-66.37250348683949
 30
0.0
 11
-377.2310309194885
 21
-57.07246538110684
 31
0.0
  0
LINE
  5
47F
330
1F
100
AcDbEntity
  8
1-B
  6
Continuous
 62
     4
370
     9
100
AcDbLine
 10
-377.9310938516834
 20
-66.37250348683949
 30
0.0
 11
-377.9310938516834
 21
-57.07246538110684
 31
0.0
  0
LINE
  5
480
330
1F
100
AcDbEntity
  8
1-B
  6
Continuous
 62
     4
370
     9
100
AcDbLine
 10
-357.2307174957132
 20
-56.37245812287199
 30
0.0
 11
-357.2307174957132
 21
-47.07253136505949
 31
0.0
  0
LINE
  5
481
330
1F
100
AcDbEntity
  8
1-B
  6
Continuous
 62
     4
370
     9
100
AcDbLine
 10
-362.9309886897588
 20
-61.37257359478926
 30
0.0
 11
-362.9309886897588
 21
-52.07249837308316
 31
0.0
  0
LINE
  5
482
330
1F
100
AcDbEntity
  8
1-B
  6
Continuous
 62
     4
370
     9
100
AcDbLine
 10
-362.2309257575639
 20
-61.37257359478926
 30
0.0
 11
-362.2309257575639
 21
-52.07249837308316
 31
0.0
  0
LINE
  5
483
330
1F
100
AcDbEntity
  8
1-B
  6
Continuous
 62
     4
370
     9
100
AcDbLine
 10
-357.930724753948
 20
-56.37245812287199
 30
0.0
 11
-357.930724753948
 21
-47.07253136505949
 31
0.0
  0
LINE
  5
484
330
1F
100
AcDbEntity
  8
1-B
  6
Continuous
 62
     4
370
     9
100
AcDbLine
 10
-352.9306649559908
 20
-51.37252823082176
 30
0.0
 11
-352.9306649559908
 21
-42.07252724106246
 31
0.0
  0
LINE
  5
485
330
1F
100
AcDbEntity
  8
1-B
  6
Continuous
 62
     4
370
     9
100
AcDbLine
 10
-352.2307504876895
 20
-51.37252823082176
 30
0.0
 11
-352.2307504876895
 21
-42.07252724106246
 31
0.0
  0
LINE
  5
486
330
1F
100
AcDbEntity
  8
1-B
  6
Continuous
 62
     4
370
     9
100
AcDbLine
 10
-367.2310041135077
 20
-66.37250348683949
 30
0.0
 11
-367.2310041135077
 21
-57.07257672902699
 31
0.0
  0
LINE
  5
487
330
1F
100
AcDbEntity
  8
1-B
  6
Continuous
 62
     4
370
     9
100
AcDbLine
 10
-367.930862907849
 20
-66.37250348683949
 30
0.0
 11
-367.930862907849
 21
-57.07257672902699
 31
0.0
  0
LINE
  5
488
330
1F
100
AcDbEntity
  8
1-B
  6
Continuous
 62
     4
370
     9
100
AcDbLine
 10
-372.9309969377529
 20
-71.37250761083652
 30
0.0
 11
-372.9309969377529
 21
-62.07246950510387
 31
0.0
  0
LINE
  5
489
330
1F
100
AcDbEntity
  8
1-B
  6
Continuous
 62
     4
370
     9
100
AcDbLine
 10
-372.2309711215314
 20
-71.37250761083652
 30
0.0
 11
-372.2309711215314
 21
-62.07246950510387
 31
0.0
  0
LINE
  5
48A
330
1F
100
AcDbEntity
  8
1-B
  6
Continuous
 62
     4
370
     9
100
AcDbLine
 10
-342.9305268020899
 20
-46.37248699085129
 30
0.0
 11
-352.2307504876895
 21
-46.37248699085129
 31
0.0
  0
LINE
  5
48B
330
1F
100
AcDbEntity
  8
1-B
  6
Continuous
 62
     4
370
     9
100
AcDbLine
 10
-352.9306649559908
 20
-46.37248699085129
 30
0.0
 11
-362.2308329676304
 21
-46.37248699085129
 31
0.0
  0
LINE
  5
48C
330
1F
100
AcDbEntity
  8
1-B
  6
Continuous
 62
     4
370
     9
100
AcDbLine
 10
-342.9305268020899
 20
-47.07253136505949
 30
0.0
 11
-352.2307504876895
 21
-47.07253136505949
 31
0.0
  0
LINE
  5
48D
330
1F
100
AcDbEntity
  8
1-B
  6
Continuous
 62
     4
370
     9
100
AcDbLine
 10
-352.9306649559908
 20
-47.07253136505949
 30
0.0
 11
-362.2308329676304
 21
-47.07253136505949
 31
0.0
  0
LINE
  5
48E
330
1F
100
AcDbEntity
  8
1-B
  6
Continuous
 62
     4
370
     9
100
AcDbLine
 10
-347.930586600047
 20
-51.37252823082176
 30
0.0
 11
-357.2307174957132
 21
-51.37252823082176
 31
0.0
  0
LINE
  5
48F
330
1F
100
AcDbEntity
  8
1-B
  6
Continuous
 62
     4
370
     9
100
AcDbLine
 10
-357.930724753948
 20
-51.37252823082176
 30
0.0
 11
-367.2307999756541
 21
-51.37252823082176
 31
0.0
  0
LINE
  5
490
330
1F
100
AcDbEntity
  8
1-B
  6
Continuous
 62
     4
370
     9
100
AcDbLine
 10
-347.930586600047
 20
-52.07242414113637
 30
0.0
 11
-357.2307174957132
 21
-52.07249837308316
 31
0.0
  0
LINE
  5
491
330
1F
100
AcDbEntity
  8
1-B
  6
Continuous
 62
     4
370
     9
100
AcDbLine
 10
-357.930724753948
 20
-52.07249837308316
 30
0.0
 11
-367.2307999756541
 21
-52.07257260502996
 31
0.0
  0
LINE
  5
492
330
1F
100
AcDbEntity
  8
1-B
  6
Continuous
 62
     4
370
     9
100
AcDbLine
 10
-352.9307577459243
 20
-56.37245812287199
 30
0.0
 11
-362.2309257575639
 21
-56.37245812287199
 31
0.0
  0
LINE
  5
493
330
1F
100
AcDbEntity
  8
1-B
  6
Continuous
 62
     4
370
     9
100
AcDbLine
 10
-362.9309886897588
 20
-56.37245812287199
 30
0.0
 11
-372.2310639114648
 21
-56.37245812287199
 31
0.0
  0
LINE
  5
494
330
1F
100
AcDbEntity
  8
1-B
  6
Continuous
 62
     4
370
     9
100
AcDbLine
 10
-352.9307577459243
 20
-57.07246538110684
 30
0.0
 11
-362.2309257575639
 21
-57.07246538110684
 31
0.0
  0
LINE
  5
495
330
1F
100
AcDbEntity
  8
1-B
  6
Continuous
 62
     4
370
     9
100
AcDbLine
 10
-362.9309886897588
 20
-57.07246538110684
 30
0.0
 11
-372.2310639114648
 21
-57.07246538110684
 31
0.0
  0
LINE
  5
496
330
1F
100
AcDbEntity
  8
1-B
  6
Continuous
 62
     4
370
     9
100
AcDbLine
 10
-367.930862907849
 20
-61.37249936284246
 30
0.0
 11
-377.2310309194885
 21
-61.37249936284246
 31
0.0
  0
LINE
  5
497
330
1F
100
AcDbEntity
  8
1-B
  6
Continuous
 62
     4
370
     9
100
AcDbLine
 10
-357.930724753948
 20
-62.07246950510387
 30
0.0
 11
-367.2310041135077
 21
-62.07246950510387
 31
0.0
  0
LINE
  5
498
330
1F
100
AcDbEntity
  8
1-B
  6
Continuous
 62
     4
370
     9
100
AcDbLine
 10
-367.930862907849
 20
-62.07246950510387
 30
0.0
 11
-377.2310309194885
 21
-62.07246950510387
 31
0.0
  0
LINE
  5
499
330
1F
100
AcDbEntity
  8
1-B
  6
Continuous
 62
     4
370
     9
100
AcDbLine
 10
-372.9309969377529
 20
-66.37250348683949
 30
0.0
 11
-377.999925424345
 21
-66.37250348683949
 31
0.0
  0
LINE
  5
49A
330
1F
100
AcDbEntity
  8
1-B
  6
Continuous
 62
     4
370
     9
100
AcDbLine
 10
-372.9309969377529
 20
-67.0725478610477
 30
0.0
 11
-377.999925424345
 21
-67.0725478610477
 31
0.0
  0
LINE
  5
49B
330
1F
100
AcDbEntity
  8
1-B
  6
Continuous
 62
     4
370
     9
100
AcDbLine
 10
-367.2310041135077
 20
-76.3724375028868
 30
0.0
 11
-367.2310041135077
 21
-67.0725478610477
 31
0.0
  0
LINE
  5
49C
330
1F
100
AcDbEntity
  8
1-B
  6
Continuous
 62
     4
370
     9
100
AcDbLine
 10
-367.930862907849
 20
-76.3724375028868
 30
0.0
 11
-367.930862907849
 21
-67.0725478610477
 31
0.0
  0
LINE
  5
49D
330
1F
100
AcDbEntity
  8
1-B
  6
Continuous
 62
     4
370
     9
100
AcDbLine
 10
-362.9309886897588
 20
-71.37250761083652
 30
0.0
 11
-362.9309886897588
 21
-62.07246950510387
 31
0.0
  0
LINE
  5
49E
330
1F
100
AcDbEntity
  8
1-B
  6
Continuous
 62
     4
370
     9
100
AcDbLine
 10
-362.2309257575639
 20
-71.37250761083652
 30
0.0
 11
-362.2309257575639
 21
-62.07246950510387
 31
0.0
  0
LINE
  5
49F
330
1F
100
AcDbEntity
  8
1-B
  6
Continuous
 62
     4
370
     9
100
AcDbLine
 10
-357.930724753948
 20
-66.37250348683949
 30
0.0
 11
-357.930724753948
 21
-57.07246538110684
 31
0.0
  0
LINE
  5
4A0
330
1F
100
AcDbEntity
  8
1-B
  6
Continuous
 62
     4
370
     9
100
AcDbLine
 10
-357.2307174957132
 20
-66.37250348683949
 30
0.0
 11
-357.2307174957132
 21
-57.07246538110684
 31
0.0
  0
LINE
  5
4A1
330
1F
100
AcDbEntity
  8
1-B
  6
Continuous
 62
     4
370
     9
100
AcDbLine
 10
-377.2310309194885
 20
-76.3724375028868
 30
0.0
 11
-377.2310309194885
 21
-67.0725478610477
 31
0.0
  0
LINE
  5
4A2
330
1F
100
AcDbEntity
  8
1-B
  6
Continuous
 62
     4
370
     9
100
AcDbLine
 10
-377.9308897138297
 20
-76.3724375028868
 30
0.0
 11
-377.9308897138297
 21
-67.0725478610477
 31
0.0
  0
LINE
  5
4A3
330
1F
100
AcDbEntity
  8
1-B
  6
Continuous
 62
     4
370
     9
100
AcDbLine
 10
-372.9309969377529
 20
-81.37244162688383
 30
0.0
 11
-372.9309969377529
 21
-72.07258910101812
 31
0.0
  0
LINE
  5
4A4
330
1F
100
AcDbEntity
  8
1-B
  6
Continuous
 62
     4
370
     9
100
AcDbLine
 10
-372.2310639114648
 20
-81.37244162688383
 30
0.0
 11
-372.2310639114648
 21
-72.07258910101812
 31
0.0
  0
LINE
  5
4A5
330
1F
100
AcDbEntity
  8
1-B
  6
Continuous
 62
     4
370
     9
100
AcDbLine
 10
-377.9310938516834
 20
-82.07248600109203
 30
0.0
 11
-377.999925424345
 21
-82.07248600109203
 31
0.0
  0
LINE
  5
4A6
330
1F
100
AcDbEntity
  8
1-B
  6
Continuous
 62
     4
370
     9
100
AcDbLine
 10
-377.9310938516834
 20
-81.37244162688383
 30
0.0
 11
-377.999925424345
 21
-81.37244162688383
 31
0.0
  0
LINE
  5
4A7
330
1F
100
AcDbEntity
  8
1-B
  6
Continuous
 62
     4
370
     9
100
AcDbLine
 10
-362.9309886897588
 20
-77.0724447611216
 30
0.0
 11
-372.2310639114648
 21
-77.0724447611216
 31
0.0
  0
LINE
  5
4A8
330
1F
100
AcDbEntity
  8
1-B
  6
Continuous
 62
     4
370
     9
100
AcDbLine
 10
-372.9309969377529
 20
-77.0724447611216
 30
0.0
 11
-377.999925424345
 21
-77.0724447611216
 31
0.0
  0
LINE
  5
4A9
330
1F
100
AcDbEntity
  8
1-B
  6
Continuous
 62
     4
370
     9
100
AcDbLine
 10
-362.9309886897588
 20
-76.3724375028868
 30
0.0
 11
-372.2310639114648
 21
-76.3724375028868
 31
0.0
  0
LINE
  5
4AA
330
1F
100
AcDbEntity
  8
1-B
  6
Continuous
 62
     4
370
     9
100
AcDbLine
 10
-372.9309969377529
 20
-76.3724375028868
 30
0.0
 11
-377.999925424345
 21
-76.3724375028868
 31
0.0
  0
LINE
  5
4AB
330
1F
100
AcDbEntity
  8
1-B
  6
Continuous
 62
     4
370
     9
100
AcDbLine
 10
-357.930724753948
 20
-72.07258910101812
 30
0.0
 11
-367.2310041135077
 21
-72.07258910101812
 31
0.0
  0
LINE
  5
4AC
330
1F
100
AcDbEntity
  8
1-B
  6
Continuous
 62
     4
370
     9
100
AcDbLine
 10
-367.930862907849
 20
-72.07258910101812
 30
0.0
 11
-377.2310309194885
 21
-72.07258910101812
 31
0.0
  0
LINE
  5
4AD
330
1F
100
AcDbEntity
  8
1-B
  6
Continuous
 62
     4
370
     9
100
AcDbLine
 10
-357.930724753948
 20
-71.37250761083652
 30
0.0
 11
-367.2310041135077
 21
-71.37250761083652
 31
0.0
  0
LINE
  5
4AE
330
1F
100
AcDbEntity
  8
1-B
  6
Continuous
 62
     4
370
     9
100
AcDbLine
 10
-367.930862907849
 20
-71.37250761083652
 30
0.0
 11
-377.2310309194885
 21
-71.37250761083652
 31
0.0
  0
LINE
  5
4AF
330
1F
100
AcDbEntity
  8
1-B
  6
Continuous
 62
     4
370
     9
100
AcDbLine
 10
-352.9307577459243
 20
-67.0725478610477
 30
0.0
 11
-362.2309257575639
 21
-67.0725478610477
 31
0.0
  0
LINE
  5
4B0
330
1F
100
AcDbEntity
  8
1-B
  6
Continuous
 62
     4
370
     9
100
AcDbLine
 10
-362.9309886897588
 20
-67.0725478610477
 30
0.0
 11
-372.2309711215314
 21
-67.0725478610477
 31
0.0
  0
LINE
  5
4B1
330
1F
100
AcDbEntity
  8
1-B
  6
Continuous
 62
     4
370
     9
100
AcDbLine
 10
-352.9307577459243
 20
-66.37250348683949
 30
0.0
 11
-362.2309257575639
 21
-66.37250348683949
 31
0.0
  0
LINE
  5
4B2
330
1F
100
AcDbEntity
  8
1-B
  6
Continuous
 62
     4
370
     9
100
AcDbLine
 10
-362.9309886897588
 20
-66.37250348683949
 30
0.0
 11
-372.2309711215314
 21
-66.37250348683949
 31
0.0
  0
LINE
  5
4B3
330
1F
100
AcDbEntity
  8
1-B
  6
Continuous
 62
     4
370
     9
100
AcDbLine
 10
-347.930586600047
 20
-61.37249936284246
 30
0.0
 11
-357.2307174957132
 21
-61.37249936284246
 31
0.0
  0
LINE
  5
4B4
330
1F
100
AcDbEntity
  8
1-B
  6
Continuous
 62
     4
370
     9
100
AcDbLine
 10
-357.930724753948
 20
-61.37249936284246
 30
0.0
 11
-367.2310041135077
 21
-61.37249936284246
 31
0.0
  0
LINE
  5
4B5
330
1F
100
AcDbEntity
  8
1-B
  6
Continuous
 62
     4
370
     9
100
AcDbLine
 10
-347.930586600047
 20
-56.37245812287199
 30
0.0
 11
-347.930586600047
 21
-47.07253136505949
 31
0.0
  0
LINE
  5
4B6
330
1F
100
AcDbEntity
  8
1-B
  6
Continuous
 62
     4
370
     9
100
AcDbLine
 10
-347.2306350157722
 20
-56.37245812287199
 30
0.0
 11
-347.2306350157722
 21
-47.07253136505949
 31
0.0
  0
LINE
  5
4B7
330
1F
100
AcDbEntity
  8
1-B
  6
Continuous
 62
     4
370
     9
100
AcDbLine
 10
-352.9307577459243
 20
-61.37249936284246
 30
0.0
 11
-352.9307577459243
 21
-52.07246125710972
 31
0.0
  0
LINE
  5
4B8
330
1F
100
AcDbEntity
  8
1-B
  6
Continuous
 62
     4
370
     9
100
AcDbLine
 10
-352.2306948137294
 20
-61.37249936284246
 30
0.0
 11
-352.2306948137294
 21
-52.07246125710972
 31
0.0
  0
LINE
  5
4B9
330
1F
100
AcDbEntity
  8
1-B
  6
Continuous
 62
     4
370
     9
100
AcDbLine
 10
-337.9304670041327
 20
-52.07249837308316
 30
0.0
 11
-347.2305422258388
 21
-52.07257260502996
 31
0.0
  0
LINE
  5
4BA
330
1F
100
AcDbEntity
  8
1-B
  6
Continuous
 62
     4
370
     9
100
AcDbLine
 10
-337.9304670041327
 20
-51.37252823082176
 30
0.0
 11
-347.2305422258388
 21
-51.37252823082176
 31
0.0
  0
LINE
  5
4BB
330
1F
100
AcDbEntity
  8
1-B
  6
Continuous
 62
     7
370
     9
100
AcDbLine
 10
-386.8466847049879
 20
-87.7597294884759
 30
0.0
 11
-360.0808345347493
 21
-79.22246175198941
 31
0.0
  0
LINE
  5
4BC
330
1F
100
AcDbEntity
  8
1-B
  6
Continuous
 62
     7
370
     9
100
AcDbLine
 10
-360.0808345347493
 20
-79.22246175198941
 30
0.0
 11
-345.0806736988646
 21
-64.22248649597168
 31
0.0
  0
LINE
  5
4BD
330
1F
100
AcDbEntity
  8
1-B
  6
Continuous
 62
     4
370
     9
100
AcDbLine
 10
-332.2179660968533
 20
-47.07253136505949
 30
0.0
 11
-332.2304370639142
 21
-47.07253136505949
 31
0.0
  0
LINE
  5
4BE
330
1F
100
AcDbEntity
  8
1-B
  6
Continuous
 62
     4
370
     9
100
AcDbLine
 10
-331.6929235372039
 20
-46.37248699085129
 30
0.0
 11
-332.2304370639142
 21
-46.37248699085129
 31
0.0
  0
LINE
  5
4BF
330
1F
100
AcDbEntity
  8
1-B
  6
Continuous
 62
     4
370
     9
100
AcDbLine
 10
-332.2304370639142
 20
-47.08919643711394
 30
0.0
 11
-332.2304370639142
 21
-42.0724901250891
 31
0.0
  0
LINE
  5
4C0
330
1F
100
AcDbEntity
  8
1-B
  6
Continuous
 62
     4
370
     9
100
AcDbLine
 10
-332.930444322149
 20
-48.02251470411144
 30
0.0
 11
-332.930444322149
 21
-42.0724901250891
 31
0.0
  0
LINE
  5
4C1
330
1F
100
AcDbEntity
  8
1-B
  6
Continuous
 62
     4
370
     9
100
AcDbLine
 10
-342.9307309399435
 20
-61.35594563870816
 30
0.0
 11
-342.9307309399435
 21
-52.07242414113637
 31
0.0
  0
LINE
  5
4C2
330
1F
100
AcDbEntity
  8
1-B
  6
Continuous
 62
     4
370
     9
100
AcDbLine
 10
-342.2306680077486
 20
-60.42255313976386
 30
0.0
 11
-342.2306680077486
 21
-52.07242414113637
 31
0.0
  0
LINE
  5
4C3
330
1F
100
AcDbEntity
  8
1-B
  6
Continuous
 62
     4
370
     9
100
AcDbLine
 10
-337.9304670041327
 20
-47.07253136505949
 30
0.0
 11
-337.9304670041327
 21
-54.68902603355613
 31
0.0
  0
LINE
  5
4C4
330
1F
100
AcDbEntity
  8
1-B
  6
Continuous
 62
     4
370
     9
100
AcDbLine
 10
-337.2304040719379
 20
-53.75570776655863
 30
0.0
 11
-337.2304040719379
 21
-47.07253136505949
 31
0.0
  0
LINE
  5
4C5
330
1F
100
AcDbEntity
  8
1-B
  6
Continuous
 62
     4
370
     9
100
AcDbLine
 10
-335.9679970268311
 20
-52.07249837308316
 30
0.0
 11
-337.2304040719379
 21
-52.07249837308316
 31
0.0
  0
LINE
  5
4C6
330
1F
100
AcDbEntity
  8
1-B
  6
Continuous
 62
     4
370
     9
100
AcDbLine
 10
-335.4430286991285
 20
-51.37252823082176
 30
0.0
 11
-337.2304040719379
 21
-51.37252823082176
 31
0.0
  0
LINE
  5
4C7
330
1F
100
AcDbEntity
  8
1-B
  6
Continuous
 62
     4
370
     9
100
AcDbLine
 10
-339.1930410711196
 20
-56.37245812287199
 30
0.0
 11
-342.2305752178152
 21
-56.37245812287199
 31
0.0
  0
LINE
  5
4C8
330
1F
100
AcDbEntity
  8
1-B
  6
Continuous
 62
     4
370
     9
100
AcDbLine
 10
-339.7180650727824
 20
-57.07246538110684
 30
0.0
 11
-342.2305752178152
 21
-57.07246538110684
 31
0.0
  0
LINE
  5
4C9
330
1F
100
AcDbEntity
  8
1-B
  6
Continuous
 62
     4
370
     9
100
AcDbLine
 10
-343.4681145607469
 20
-62.07246950510387
 30
0.0
 11
-347.2305422258388
 21
-62.07246950510387
 31
0.0
  0
LINE
  5
4CA
330
1F
100
AcDbEntity
  8
1-B
  6
Continuous
 62
     4
370
     9
100
AcDbLine
 10
-342.9431462330443
 20
-61.37249936284246
 30
0.0
 11
-347.2305422258388
 21
-61.37249936284246
 31
0.0
  0
LINE
  5
4CB
330
1F
100
AcDbEntity
  8
1-B
  6
Continuous
 62
     4
370
     9
100
AcDbLine
 10
-357.2307174957132
 20
-76.3724003869134
 30
0.0
 11
-357.2307174957132
 21
-67.0725478610477
 31
0.0
  0
LINE
  5
4CC
330
1F
100
AcDbEntity
  8
1-B
  6
Continuous
 62
     4
370
     9
100
AcDbLine
 10
-352.2307504876895
 20
-71.37247049486312
 30
0.0
 11
-352.2307504876895
 21
-62.07246950510387
 31
0.0
  0
LINE
  5
4CD
330
1F
100
AcDbEntity
  8
1-B
  6
Continuous
 62
     4
370
     9
100
AcDbLine
 10
-347.2306350157722
 20
-66.37239213891934
 30
0.0
 11
-347.2306350157722
 21
-57.07246538110684
 31
0.0
  0
LINE
  5
4CE
330
1F
100
AcDbEntity
  8
1-B
  6
Continuous
 62
     4
370
     9
100
AcDbLine
 10
-347.2307278057058
 20
-66.37250348683949
 30
0.0
 11
-352.2307504876895
 21
-66.37250348683949
 31
0.0
  0
LINE
  5
4CF
330
1F
100
AcDbEntity
  8
1-B
  6
Continuous
 62
     4
370
     9
100
AcDbLine
 10
-347.9307350639405
 20
-67.0725478610477
 30
0.0
 11
-352.2307504876895
 21
-67.0725478610477
 31
0.0
  0
LINE
  5
4D0
330
1F
100
AcDbEntity
  8
1-B
  6
Continuous
 62
     4
370
     9
100
AcDbLine
 10
-352.9307020719643
 20
-72.07244063712453
 30
0.0
 11
-357.2307174957132
 21
-72.07244063712453
 31
0.0
  0
LINE
  5
4D1
330
1F
100
AcDbEntity
  8
1-B
  6
Continuous
 62
     4
370
     9
100
AcDbLine
 10
-352.2308061616496
 20
-71.37250761083652
 30
0.0
 11
-357.2307174957132
 21
-71.37250761083652
 31
0.0
  0
LINE
  5
4D2
330
1F
100
AcDbEntity
  8
1-B
  6
Continuous
 62
     4
370
     9
100
AcDbLine
 10
-357.930780427908
 20
-77.0724447611216
 30
0.0
 11
-362.2308329676304
 21
-77.0724447611216
 31
0.0
  0
LINE
  5
4D3
330
1F
100
AcDbEntity
  8
1-B
  6
Continuous
 62
     4
370
     9
100
AcDbLine
 10
-357.2307731696733
 20
-76.3724375028868
 30
0.0
 11
-362.2308329676304
 21
-76.3724375028868
 31
0.0
  0
LINE
  5
4D4
330
1F
100
AcDbEntity
  8
1-B
  6
Continuous
 62
     4
370
     9
100
AcDbLine
 10
-372.2310639114648
 20
-83.09788899808316
 30
0.0
 11
-372.2310639114648
 21
-82.07248600109203
 31
0.0
  0
LINE
  5
4D5
330
1F
100
AcDbEntity
  8
1-B
  6
Continuous
 62
     4
370
     9
100
AcDbLine
 10
-372.9309969377529
 20
-83.3211786940291
 30
0.0
 11
-372.9309969377529
 21
-82.07248600109203
 31
0.0
  0
LINE
  5
4D6
330
1F
100
AcDbEntity
  8
1-B
  6
Continuous
 62
     4
370
     9
100
AcDbLine
 10
-367.930862907849
 20
-81.72630531723433
 30
0.0
 11
-367.930862907849
 21
-77.0724447611216
 31
0.0
  0
LINE
  5
4D7
330
1F
100
AcDbEntity
  8
1-B
  6
Continuous
 62
     4
370
     9
100
AcDbLine
 10
-367.2310041135077
 20
-81.5030898532352
 30
0.0
 11
-367.2310041135077
 21
-77.0724447611216
 31
0.0
  0
LINE
  5
4D8
330
1F
100
AcDbEntity
  8
1-B
  6
Continuous
 62
     4
370
     9
100
AcDbLine
 10
-362.9309886897588
 20
-80.13154328835977
 30
0.0
 11
-362.9309886897588
 21
-72.07244063712453
 31
0.0
  0
LINE
  5
4D9
330
1F
100
AcDbEntity
  8
1-B
  6
Continuous
 62
     4
370
     9
100
AcDbLine
 10
-362.2309257575639
 20
-79.90825359241383
 30
0.0
 11
-362.2309257575639
 21
-72.07244063712453
 31
0.0
  0
LINE
  5
4DA
330
1F
100
AcDbEntity
  8
1-B
  6
Continuous
 62
     4
370
     9
100
AcDbLine
 10
-377.2310309194885
 20
-84.69268814293113
 30
0.0
 11
-377.2310309194885
 21
-77.0724447611216
 31
0.0
  0
LINE
  5
4DB
330
1F
100
AcDbEntity
  8
1-B
  6
Continuous
 62
     4
370
     9
100
AcDbLine
 10
-369.0161896438867
 20
-82.07248600109203
 30
0.0
 11
-377.2310309194885
 21
-82.07248600109203
 31
0.0
  0
LINE
  5
4DC
330
1F
100
AcDbEntity
  8
1-B
  6
Continuous
 62
     4
370
     9
100
AcDbLine
 10
-367.930862907849
 20
-81.37244162688383
 30
0.0
 11
-377.2310309194885
 21
-81.37244162688383
 31
0.0
  0
LINE
  5
4DD
330
1F
100
AcDbEntity
  8
1-B
  6
Continuous
 62
     4
370
     9
100
AcDbLine
 10
-366.821485021051
 20
-81.37244162688383
 30
0.0
 11
-367.2307999756541
 21
-81.37244162688383
 31
0.0
  0
LINE
  5
4DE
330
1F
100
AcDbEntity
  8
1-B
  6
Continuous
 62
     4
370
     9
100
AcDbLine
 10
-377.9310938516834
 20
-84.91597783887707
 30
0.0
 11
-377.9310938516834
 21
-77.0724447611216
 31
0.0
  0
LINE
  5
4DF
330
1F
100
AcDbEntity
  8
1-B
  6
Continuous
 62
     4
370
     9
100
AcDbLine
 10
-367.9309556977824
 20
-15.67249210460761
 30
0.0
 11
-367.9309556977824
 21
-6.372491114848316
 31
0.0
  0
LINE
  5
4E0
330
1F
100
AcDbEntity
  8
1-B
  6
Continuous
 62
     4
370
     9
100
AcDbLine
 10
-347.930586600047
 20
-22.0724736291009
 30
0.0
 11
-357.2307174957132
 21
-22.0724736291009
 31
0.0
  0
LINE
  5
4E1
330
1F
100
AcDbEntity
  8
1-B
  6
Continuous
 62
     4
370
     9
100
AcDbLine
 10
-380.9999353219378
 20
-129.3106534287736
 30
0.0
 11
-380.9999353219378
 21
4.18937873840332
 31
0.0
  0
LINE
  5
4E2
330
1F
100
AcDbEntity
  8
1-B
  6
Continuous
 62
     4
370
     9
100
AcDbLine
 10
-349.4999241871458
 20
-160.8106460055789
 30
0.0
 11
-215.9999105779555
 21
-160.8106460055789
 31
0.0
  0
LINE
  5
4E3
330
1F
100
AcDbEntity
  8
1-3
  6
Continuous
 62
     4
370
     9
100
AcDbLine
 10
-215.9999105779555
 20
4.18937873840332
 30
0.0
 11
-380.9999353219378
 21
4.18937873840332
 31
0.0
  0
LINE
  5
4E4
330
1F
100
AcDbEntity
  8
1-3
  6
Continuous
 62
     4
370
     9
100
AcDbLine
 10
-215.9999105779555
 20
-160.8106460055789
 30
0.0
 11
-215.9999105779555
 21
4.18937873840332
 31
0.0
  0
LINE
  5
4E5
330
1F
100
AcDbEntity
  8
1-9
  6
Continuous
 62
     2
370
     9
100
AcDbLine
 10
-290.7421277707343
 20
-82.77397789826261
 30
0.0
 11
-283.6711636792013
 21
-89.84497910576899
 31
0.0
  0
LINE
  5
4E6
330
1F
100
AcDbEntity
  8
1-9
  6
JWW_DASHED1
 62
     2
370
     9
100
AcDbLine
 10
-291.0958429971911
 20
-83.12761889277277
 30
0.0
 11
-284.0247304417647
 21
-90.1986572162525
 31
0.0
  0
LINE
  5
4E7
330
1F
100
AcDbEntity
  8
1-9
  6
JWW_DASHED1
 62
     2
370
     9
100
AcDbLine
 10
-297.4597477955443
 20
-89.49152369112582
 30
0.0
 11
-290.3886352401177
 21
-96.56256201460555
 31
0.0
  0
LINE
  5
4E8
330
1F
100
AcDbEntity
  8
1-9
  6
Continuous
 62
     2
370
     9
100
AcDbLine
 10
-297.813166094214
 20
-89.84516468563594
 30
0.0
 11
-290.7421277707343
 21
-96.91612877716886
 31
0.0
  0
LINE
  5
4E9
330
1F
100
AcDbEntity
  8
1-9
  6
Continuous
 62
     2
370
     9
100
AcDbLine
 10
-300.6415517308272
 20
-92.67355032224914
 30
0.0
 11
-293.5705876392943
 21
-99.74455152975547
 31
0.0
  0
LINE
  5
4EA
330
1F
100
AcDbEntity
  8
1-9
  6
Continuous
 62
     2
370
     9
100
AcDbLine
 10
-300.7304816030822
 20
-92.76236884658398
 30
0.0
 11
-293.6594432796026
 21
-99.8334442860371
 31
0.0
  0
LINE
  5
4EB
330
1F
100
AcDbEntity
  8
1-9
  6
Continuous
 62
     2
370
     9
100
AcDbLine
 10
-308.4197235794337
 20
-100.4516850548821
 30
0.0
 11
-301.3487594879007
 21
-107.5227604943353
 31
0.0
  0
LINE
  5
4EC
330
1F
100
AcDbEntity
  8
1-9
  6
Continuous
 62
     2
370
     9
100
AcDbLine
 10
-290.7421277707343
 20
-82.77397789826261
 30
0.0
 11
-308.4197235794337
 21
-100.4516850548821
 31
0.0
  0
LINE
  5
4ED
330
1F
100
AcDbEntity
  8
1-9
  6
Continuous
 62
     2
370
     9
100
AcDbLine
 10
-283.6711636792013
 20
-89.84497910576899
 30
0.0
 11
-301.3487594879007
 21
-107.5227604943353
 31
0.0
  0
LINE
  5
4EE
330
1F
100
AcDbEntity
  8
1-6
  6
Continuous
 62
     6
370
     5
100
AcDbLine
 10
-269.2795192271321
 20
-72.62509748098012
 30
0.0
 11
-273.5222461459455
 21
-68.382481910087
 31
0.0
  0
LINE
  5
4EF
330
1F
100
AcDbEntity
  8
1-6
  6
Continuous
 62
     6
370
     5
100
AcDbLine
 10
-274.2667925722546
 20
-61.27391933750465
 30
0.0
 11
-274.9363647323052
 21
-60.60427294550715
 31
0.0
  0
LINE
  5
4F0
330
1F
100
AcDbEntity
  8
1-6
  6
Continuous
 62
     6
370
     5
100
AcDbLine
 10
-273.1944378689184
 20
-64.98737247570136
 30
0.0
 11
-274.5827979697419
 21
-69.44314508180364
 31
0.0
  0
LINE
  5
4F1
330
1F
100
AcDbEntity
  8
1-6
  6
Continuous
 62
     6
370
     5
100
AcDbLine
 10
-275.879852776013
 20
-70.26723103909879
 30
0.0
 11
-275.7848358841212
 21
-70.36224793099066
 31
0.0
  0
LINE
  5
4F2
330
1F
100
AcDbEntity
  8
1-6
  6
Continuous
 62
     6
370
     5
100
AcDbLine
 10
-262.1709937705232
 20
-73.36971813923601
 30
0.0
 11
-261.5014216104724
 21
-74.03929029928672
 31
0.0
  0
LINE
  5
4F3
330
1F
100
AcDbEntity
  8
1-6
  6
Continuous
 62
     6
370
     5
100
AcDbLine
 10
-265.8845211406667
 20
-72.29728920395308
 30
0.0
 11
-270.3402195148221
 21
-73.68568642074996
 31
0.0
  0
LINE
  5
4F4
330
1F
100
AcDbEntity
  8
1-6
  6
Continuous
 62
     6
370
     5
100
AcDbLine
 10
-271.1644168200375
 20
-74.98281545896785
 30
0.0
 11
-271.2594337119294
 21
-74.88776145110258
 31
0.0
  0
LINE
  5
4F5
330
1F
100
AcDbEntity
  8
1-6
  6
Continuous
 62
     6
370
     5
100
AcDbLine
 10
-276.6900202432849
 20
-70.87144197000039
 30
0.0
 11
-271.7684421710721
 21
-75.79294581026645
 31
0.0
  0
LINE
  5
4F6
330
1F
100
AcDbEntity
  8
1-6
  6
Continuous
 62
     6
370
     5
100
AcDbLine
 10
-275.5020121668491
 20
-70.36243351085761
 30
0.0
 11
-273.5222461459455
 21
-68.382481910087
 31
0.0
  0
LINE
  5
4F7
330
1F
100
AcDbEntity
  8
1-6
  6
Continuous
 62
     6
370
     5
100
AcDbLine
 10
-274.7948786417224
 20
-71.06949280403754
 30
0.0
 11
-272.8151126208188
 21
-69.08954120326683
 31
0.0
  0
LINE
  5
4F8
330
1F
100
AcDbEntity
  8
1-6
  6
Continuous
 62
     6
370
     5
100
AcDbLine
 10
-271.9666414690029
 20
-73.89780420870395
 30
0.0
 11
-269.9865785203119
 21
-71.91796395585344
 31
0.0
  0
LINE
  5
4F9
330
1F
100
AcDbEntity
  8
1-6
  6
Continuous
 62
     6
370
     5
100
AcDbLine
 10
-271.2594337119294
 20
-74.60493773383062
 30
0.0
 11
-269.2796676910257
 21
-72.62509748098012
 31
0.0
  0
LINE
  5
4FA
330
1F
100
AcDbEntity
  8
1-9
  6
Continuous
 62
     2
370
     9
100
AcDbLine
 10
-275.3607487721068
 20
-72.20078767312539
 30
0.0
 11
-288.3379777100291
 21
-85.17820219091465
 31
0.0
  0
LINE
  5
4FB
330
1F
100
AcDbEntity
  8
1-9
  6
Continuous
 62
     2
370
     9
100
AcDbLine
 10
-275.5869335139776
 20
-71.86132498045222
 30
0.0
 11
-288.6209498911946
 21
-84.8952671257225
 31
0.0
  0
LINE
  5
4FC
330
1F
100
AcDbEntity
  8
1-9
  6
Continuous
 62
     2
370
     9
100
AcDbLine
 10
-272.8151126208188
 20
-74.74638670844
 30
0.0
 11
-285.792341558741
 21
-87.72376411025586
 31
0.0
  0
LINE
  5
4FD
330
1F
100
AcDbEntity
  8
1-9
  6
JWW_DASHED1
 62
     2
370
     9
100
AcDbLine
 10
-308.0662310488171
 20
-100.0981554082922
 30
0.0
 11
-300.9952669572841
 21
-107.1691194998251
 31
0.0
  0
LINE
  5
4FE
330
1F
100
AcDbEntity
  8
1-B
  6
Continuous
 62
     4
370
     9
100
AcDbLine
 10
-377.230938129555
 20
-30.35030071155441
 30
0.0
 11
-377.230938129555
 21
0.2489614228944959
 31
0.0
  0
LINE
  5
4FF
330
1F
100
AcDbEntity
  8
1-B
  6
Continuous
 62
     4
370
     9
100
AcDbLine
 10
-349.4999241871458
 20
-157.810636107986
 30
0.0
 11
-215.9999105779555
 21
-157.810636107986
 31
0.0
  0
LINE
  5
500
330
1F
100
AcDbEntity
  8
1-B
  6
Continuous
 62
     4
370
     9
100
AcDbLine
 10
-377.9309825037633
 20
-30.35030071155441
 30
0.0
 11
-377.9309825037633
 21
2.827111166876762
 31
0.0
  0
LINE
  5
501
330
1F
100
AcDbEntity
  8
1-B
  6
Continuous
 62
     4
370
     9
100
AcDbLine
 10
-327.9302731762716
 20
-36.37244162688387
 30
0.0
 11
-327.9302731762716
 21
-33.58885497015871
 31
0.0
  0
LINE
  5
502
330
1F
100
AcDbEntity
  8
1-B
  6
Continuous
 62
     4
370
     9
100
AcDbLine
 10
-329.8622338234422
 20
-32.07240764514816
 30
0.0
 11
-337.2304040719379
 21
-32.07240764514816
 31
0.0
  0
LINE
  5
503
330
1F
100
AcDbEntity
  8
1-B
  6
Continuous
 62
     4
370
     9
100
AcDbLine
 10
-330.7612569310226
 20
-31.37254885080699
 30
0.0
 11
-337.2304040719379
 21
-31.37254885080699
 31
0.0
  0
LINE
  5
504
330
1F
100
AcDbEntity
  8
1-B
  6
Continuous
 62
     4
370
     9
100
AcDbLine
 10
-337.2304040719379
 20
-36.37244162688387
 30
0.0
 11
-337.2304040719379
 21
-26.44302796028754
 31
0.0
  0
LINE
  5
505
330
1F
100
AcDbEntity
  8
1-B
  6
Continuous
 62
     4
370
     9
100
AcDbLine
 10
-337.9304670041327
 20
-36.37244162688387
 30
0.0
 11
-337.9304670041327
 21
-25.9206206347491
 31
0.0
  0
LINE
  5
506
330
1F
100
AcDbEntity
  8
1-B
  6
Continuous
 62
     4
370
     9
100
AcDbLine
 10
-342.2306680077486
 20
-31.37254885080699
 30
0.0
 11
-342.2306680077486
 21
-22.75770872992433
 31
0.0
  0
LINE
  5
507
330
1F
100
AcDbEntity
  8
1-B
  6
Continuous
 62
     4
370
     9
100
AcDbLine
 10
-342.9307309399435
 20
-31.37254885080699
 30
0.0
 11
-342.9307309399435
 21
-22.25022202569082
 31
0.0
  0
LINE
  5
508
330
1F
100
AcDbEntity
  8
1-B
  6
Continuous
 62
     4
370
     9
100
AcDbLine
 10
-343.1766057057005
 20
-22.0724736291009
 30
0.0
 11
-347.2306350157722
 21
-22.0724736291009
 31
0.0
  0
LINE
  5
509
330
1F
100
AcDbEntity
  8
1-B
  6
Continuous
 62
     4
370
     9
100
AcDbLine
 10
-344.1483204471754
 20
-21.37246637086614
 30
0.0
 11
-347.2306350157722
 21
-21.37246637086614
 31
0.0
  0
LINE
  5
50A
330
1F
100
AcDbEntity
  8
1-B
  6
Continuous
 62
     4
370
     9
100
AcDbLine
 10
-352.9307577459243
 20
-21.37246637086614
 30
0.0
 11
-352.9307577459243
 21
-15.22127321604137
 31
0.0
  0
LINE
  5
50B
330
1F
100
AcDbEntity
  8
1-B
  6
Continuous
 62
     4
370
     9
100
AcDbLine
 10
-352.2307504876895
 20
-21.37246637086614
 30
0.0
 11
-352.2307504876895
 21
-15.70014350478715
 31
0.0
  0
LINE
  5
50C
330
1F
100
AcDbEntity
  8
1-B
  6
Continuous
 62
     4
370
     9
100
AcDbLine
 10
-347.930586600047
 20
-26.37239626291637
 30
0.0
 11
-347.930586600047
 21
-18.68497296926137
 31
0.0
  0
LINE
  5
50D
330
1F
100
AcDbEntity
  8
1-B
  6
Continuous
 62
     4
370
     9
100
AcDbLine
 10
-347.2306350157722
 20
-26.37239626291637
 30
0.0
 11
-347.2306350157722
 21
-19.17787309595059
 31
0.0
  0
LINE
  5
50E
330
1F
100
AcDbEntity
  8
1-B
  6
Continuous
 62
     4
370
     9
100
AcDbLine
 10
-357.230661821753
 20
-15.67241787266082
 30
0.0
 11
-357.230661821753
 21
-12.32192183829645
 31
0.0
  0
LINE
  5
50F
330
1F
100
AcDbEntity
  8
1-B
  6
Continuous
 62
     4
370
     9
100
AcDbLine
 10
-357.930724753948
 20
-15.67241787266082
 30
0.0
 11
-357.930724753948
 21
-11.85667311178668
 31
0.0
  0
LINE
  5
510
330
1F
100
AcDbEntity
  8
1-B
  6
Continuous
 62
     4
370
     9
100
AcDbLine
 10
-358.6623548215155
 20
-11.37249523884543
 30
0.0
 11
-367.2309113235743
 21
-11.37249523884543
 31
0.0
  0
LINE
  5
511
330
1F
100
AcDbEntity
  8
1-B
  6
Continuous
 62
     4
370
     9
100
AcDbLine
 10
-359.7256161113699
 20
-10.67248798061058
 30
0.0
 11
-367.2309113235743
 21
-10.67248798061058
 31
0.0
  0
LINE
  5
512
330
1F
100
AcDbEntity
  8
1-B
  6
Continuous
 62
     4
370
     9
100
AcDbLine
 10
-362.2306845037368
 20
-10.67233951671699
 30
0.0
 11
-362.2306845037368
 21
-9.040275934580194
 31
0.0
  0
LINE
  5
513
330
1F
100
AcDbEntity
  8
1-B
  6
Continuous
 62
     4
370
     9
100
AcDbLine
 10
-362.9307474359317
 20
-10.67245086463723
 30
0.0
 11
-362.9307474359317
 21
-8.588388958492772
 31
0.0
  0
LINE
  5
514
330
1F
100
AcDbEntity
  8
1-B
  6
Continuous
 62
     4
370
     9
100
AcDbLine
 10
-366.4055077492235
 20
-6.372491114848316
 30
0.0
 11
-372.2308597736113
 21
-6.372491114848316
 31
0.0
  0
LINE
  5
515
330
1F
100
AcDbEntity
  8
1-B
  6
Continuous
 62
     4
370
     9
100
AcDbLine
 10
-367.5180033777866
 20
-5.672483856613553
 30
0.0
 11
-372.2308597736113
 21
-5.672483856613553
 31
0.0
  0
LINE
  5
516
330
1F
100
AcDbEntity
  8
1-B
  6
Continuous
 62
     4
370
     9
100
AcDbLine
 10
-372.9309227058061
 20
-10.67248798061058
 30
0.0
 11
-372.9309227058061
 21
-2.330895655863941
 31
0.0
  0
LINE
  5
517
330
1F
100
AcDbEntity
  8
1-B
  6
Continuous
 62
     4
370
     9
100
AcDbLine
 10
-372.2308597736113
 20
-10.67237663269043
 30
0.0
 11
-372.2308597736113
 21
-2.757098378361832
 31
0.0
  0
LINE
  5
518
330
1F
100
AcDbEntity
  8
1-B
  6
Continuous
 62
     4
370
     9
100
AcDbLine
 10
-374.5157376538108
 20
-1.37244987487793
 30
0.0
 11
-377.230938129555
 21
-1.37244987487793
 31
0.0
  0
LINE
  5
519
330
1F
100
AcDbEntity
  8
1-B
  6
Continuous
 62
     4
370
     9
100
AcDbLine
 10
-375.6826452993713
 20
-0.6724426166430817
 30
0.0
 11
-377.230938129555
 21
-0.6724426166430817
 31
0.0
  0
LINE
  5
51A
330
1F
100
AcDbEntity
  8
1-B
  6
Continuous
 62
     4
370
     9
100
AcDbLine
 10
-328.4678794929155
 20
-42.0724901250891
 30
0.0
 11
-337.2304040719379
 21
-42.0724901250891
 31
0.0
  0
LINE
  5
51B
330
1F
100
AcDbEntity
  8
1-B
  6
Continuous
 62
     4
370
     9
100
AcDbLine
 10
-327.9302731762716
 20
-41.35570644687957
 30
0.0
 11
-327.9302731762716
 21
-37.07248600109199
 31
0.0
  0
LINE
  5
51C
330
1F
100
AcDbEntity
  8
1-B
  6
Continuous
 62
     4
370
     9
100
AcDbLine
 10
-324.7177743309908
 20
-37.07244888511863
 30
0.0
 11
-332.2304370639142
 21
-37.07244888511863
 31
0.0
  0
LINE
  5
51D
330
1F
100
AcDbEntity
  8
1-B
  6
Continuous
 62
     4
370
     9
100
AcDbLine
 10
-324.4397756902602
 20
-36.37244162688387
 30
0.0
 11
-332.2304370639142
 21
-36.37244162688387
 31
0.0
  0
LINE
  5
51E
330
1F
100
AcDbEntity
  8
1-B
  6
Continuous
 62
     4
370
     9
100
AcDbLine
 10
-327.9428554912527
 20
-41.37248286685426
 30
0.0
 11
-337.2304040719379
 21
-41.37248286685426
 31
0.0
  0
LINE
  5
51F
330
1F
100
AcDbEntity
  8
1-B
  6
Continuous
 62
     4
370
     9
100
AcDbLine
 10
-327.2282802134602
 20
-36.37244162688387
 30
0.0
 11
-327.2282802134602
 21
-34.14410993215199
 31
0.0
  0
LINE
  5
520
330
1F
100
AcDbEntity
  8
1-B
  6
Continuous
 62
     4
370
     9
100
AcDbLine
 10
-327.2282802134602
 20
-40.4197158297977
 30
0.0
 11
-327.2282802134602
 21
-37.07248600109199
 31
0.0
  0
LINE
  5
521
330
1F
100
AcDbEntity
  8
1-B
  6
Continuous
 62
     4
370
     9
100
AcDbLine
 10
-332.2304370639142
 20
-31.37254885080699
 30
0.0
 11
-332.2304370639142
 21
-30.23668871699152
 31
0.0
  0
LINE
  5
522
330
1F
100
AcDbEntity
  8
1-B
  6
Continuous
 62
     4
370
     9
100
AcDbLine
 10
-332.9303515322155
 20
-31.37254885080699
 30
0.0
 11
-332.9303515322155
 21
-29.69898961041426
 31
0.0
  0
LINE
  5
523
330
1F
100
AcDbEntity
  8
1-B
  6
Continuous
 62
     4
370
     9
100
AcDbLine
 10
-352.9307577459243
 20
-15.67249210460761
 30
0.0
 11
-362.2309257575639
 21
-15.67249210460761
 31
0.0
  0
LINE
  5
524
330
1F
100
AcDbEntity
  8
1-B
  6
Continuous
 62
     4
370
     9
100
AcDbLine
 10
-337.9304670041327
 20
-27.07255198504473
 30
0.0
 11
-342.2305752178152
 21
-27.07255198504473
 31
0.0
  0
LINE
  5
525
330
1F
100
AcDbEntity
  8
1-B
  6
Continuous
 62
     4
370
     9
100
AcDbLine
 10
-337.9304670041327
 20
-26.37250761083652
 30
0.0
 11
-342.2305752178152
 21
-26.37250761083652
 31
0.0
  0
LINE
  5
526
330
1F
100
AcDbEntity
  8
1-B
  6
Continuous
 62
     4
370
     9
100
AcDbLine
 10
-337.2304040719379
 20
-27.07255198504473
 30
0.0
 11
-336.3905994999097
 21
-27.07255198504473
 31
0.0
  0
LINE
  5
527
330
1F
100
AcDbEntity
  8
1-4
  6
Continuous
 62
     7
370
     9
100
AcDbLine
 10
-176.8160949569146
 20
-160.8106460055789
 30
0.0
 11
-176.8160949569146
 21
4.18937873840332
 31
0.0
  0
LINE
  5
528
330
1F
100
AcDbEntity
  8
1-4
  6
Continuous
 62
     7
370
     9
100
AcDbLine
 10
-211.4998957315663
 20
-160.8106460055789
 30
0.0
 11
-175.9161068340261
 21
-160.8106460055789
 31
0.0
  0
LINE
  5
529
330
1F
100
AcDbEntity
  8
1-4
  6
Continuous
 62
     7
370
     9
100
AcDbLine
 10
-211.4998957315663
 20
4.18937873840332
 30
0.0
 11
-175.9161068340261
 21
4.18937873840332
 31
0.0
  0
LINE
  5
52A
330
1F
100
AcDbEntity
  8
1-4
  6
Continuous
 62
     7
370
     9
100
AcDbLine
 10
-176.8160949569146
 20
-160.8106460055789
 30
0.0
 11
-177.7950287552148
 21
-153.3748133375838
 31
0.0
  0
LINE
  5
52B
330
1F
100
AcDbEntity
  8
1-4
  6
Continuous
 62
     7
370
     9
100
AcDbLine
 10
-176.8160949569146
 20
-160.8106460055789
 30
0.0
 11
-175.8371611586144
 21
-153.3748133375838
 31
0.0
  0
LINE
  5
52C
330
1F
100
AcDbEntity
  8
1-4
  6
Continuous
 62
     7
370
     9
100
AcDbLine
 10
-176.8160949569146
 20
4.18937873840332
 30
0.0
 11
-177.7950287552148
 21
-3.246472487578473
 31
0.0
  0
LINE
  5
52D
330
1F
100
AcDbEntity
  8
1-4
  6
Continuous
 62
     7
370
     9
100
AcDbLine
 10
-176.8160949569146
 20
4.18937873840332
 30
0.0
 11
-175.8371611586144
 21
-3.246472487578473
 31
0.0
  0
LINE
  5
52E
330
1F
100
AcDbEntity
  8
1-4
  6
Continuous
 62
     7
370
     9
100
AcDbLine
 10
-380.9999353219378
 20
37.52598102672684
 30
0.0
 11
-215.9999105779555
 21
37.52598102672684
 31
0.0
  0
LINE
  5
52F
330
1F
100
AcDbEntity
  8
1-4
  6
Continuous
 62
     7
370
     9
100
AcDbLine
 10
-380.9999353219378
 20
8.689393584792697
 30
0.0
 11
-380.9999353219378
 21
38.42596914961536
 31
0.0
  0
LINE
  5
530
330
1F
100
AcDbEntity
  8
1-4
  6
Continuous
 62
     7
370
     9
100
AcDbLine
 10
-215.9999105779555
 20
8.689393584792697
 30
0.0
 11
-215.9999105779555
 21
38.42596914961536
 31
0.0
  0
LINE
  5
531
330
1F
100
AcDbEntity
  8
1-4
  6
Continuous
 62
     7
370
     9
100
AcDbLine
 10
-380.9999353219378
 20
37.52598102672684
 30
0.0
 11
-373.5641026539427
 21
38.50491482502707
 31
0.0
  0
LINE
  5
532
330
1F
100
AcDbEntity
  8
1-4
  6
Continuous
 62
     7
370
     9
100
AcDbLine
 10
-380.9999353219378
 20
37.52598102672684
 30
0.0
 11
-373.5641026539427
 21
36.54704722842652
 31
0.0
  0
LINE
  5
533
330
1F
100
AcDbEntity
  8
1-4
  6
Continuous
 62
     7
370
     9
100
AcDbLine
 10
-215.9999105779555
 20
37.52598102672684
 30
0.0
 11
-223.4357618039374
 21
38.50491482502707
 31
0.0
  0
LINE
  5
534
330
1F
100
AcDbEntity
  8
1-4
  6
Continuous
 62
     7
370
     9
100
AcDbLine
 10
-215.9999105779555
 20
37.52598102672684
 30
0.0
 11
-223.4357618039374
 21
36.54704722842652
 31
0.0
  0
LINE
  5
535
330
1F
100
AcDbEntity
  8
1-B
  6
Continuous
 62
     7
370
     9
100
AcDbLine
 10
-345.0806736988646
 20
-64.22248649597168
 30
0.0
 11
-322.1593146108947
 21
-33.66123111827949
 31
0.0
  0
LINE
  5
536
330
1F
100
AcDbEntity
  8
1-B
  6
Continuous
 62
     4
370
     9
100
AcDbLine
 10
-370.7026281270477
 20
362.9300337611019
 30
0.0
 11
-217.499915526752
 21
362.9300337611019
 31
0.0
  0
LINE
  5
537
330
1F
100
AcDbEntity
  8
1-9
  6
Continuous
 62
     2
370
     9
100
AcDbLine
 10
-273.0979363380907
 20
-74.46356299116805
 30
0.0
 11
-286.075165276013
 21
-87.4409403929839
 31
0.0
  0
LINE
  5
538
330
1F
100
AcDbEntity
  8
1-9
  6
Continuous
 62
     2
370
     9
100
AcDbLine
 10
-267.6904730581604
 20
-63.96486452463512
 30
0.0
 11
-267.1248256236165
 21
-63.96486452463512
 31
0.0
  0
LINE
  5
539
330
1F
100
AcDbEntity
  8
1-9
  6
Continuous
 62
     2
370
     9
100
AcDbLine
 10
-264.8620131896004
 20
-66.22771407462457
 30
0.0
 11
-264.8620131896004
 21
-66.79336150916848
 31
0.0
  0
LINE
  5
53A
330
1F
100
AcDbEntity
  8
1-9
  6
Continuous
 62
     2
370
     9
100
AcDbLine
 10
-267.1248256236165
 20
-63.96486452463512
 30
0.0
 11
-264.8620131896004
 21
-66.22771407462457
 31
0.0
  0
LINE
  5
53B
330
1F
100
AcDbEntity
  8
1-9
  6
Continuous
 62
     2
370
     9
100
AcDbLine
 10
-267.6904730581604
 20
-63.96486452463512
 30
0.0
 11
-264.8620131896004
 21
-66.79336150916848
 31
0.0
  0
LINE
  5
53C
330
1F
100
AcDbEntity
  8
1-9
  6
JWW_CENTER1
 62
     2
370
     9
100
AcDbLine
 10
-264.4728893245244
 20
-63.57585200747926
 30
0.0
 11
-287.8855339943407
 21
-86.98853379326899
 31
0.0
  0
LINE
  5
53D
330
1F
100
AcDbEntity
  8
1-9
  6
Continuous
 62
     2
370
     9
100
AcDbLine
 10
-267.1248256236165
 20
-63.96486452463512
 30
0.0
 11
-272.5322889035468
 21
-69.37236492053879
 31
0.0
  0
LINE
  5
53E
330
1F
100
AcDbEntity
  8
1-9
  6
Continuous
 62
     2
370
     9
100
AcDbLine
 10
-264.8620131896004
 20
-66.22771407462457
 30
0.0
 11
-270.269402237584
 21
-71.63514023858149
 31
0.0
  0
LINE
  5
53F
330
1F
100
AcDbEntity
  8
1-9
  6
Continuous
 62
     2
370
     9
100
AcDbLine
 10
-267.6904730581604
 20
-63.96486452463512
 30
0.0
 11
-272.8151126208188
 21
-69.08954120326683
 31
0.0
  0
LINE
  5
540
330
1F
100
AcDbEntity
  8
1-9
  6
Continuous
 62
     2
370
     9
100
AcDbLine
 10
-264.8620131896004
 20
-66.79336150916848
 30
0.0
 11
-269.9865785203119
 21
-71.91803818780024
 31
0.0
  0
ARC
  5
541
330
1F
100
AcDbEntity
  8
1-B
  6
Continuous
 62
     4
370
     9
100
AcDbCircle
 10
-372.2026330758441
 20
127.4301104674468
 30
0.0
 40
1.499998859457067
100
AcDbArc
 50
180.0
 51
0.0
  0
ARC
  5
542
330
1F
100
AcDbEntity
  8
1-B
  6
Continuous
 62
     4
370
     9
100
AcDbCircle
 10
-372.2026330758441
 20
361.4301030442522
 30
0.0
 40
1.499998859457067
100
AcDbArc
 50
0.0
 51
180.0
  0
ARC
  5
543
330
1F
100
AcDbEntity
  8
1-B
  6
Continuous
 62
     4
370
     9
100
AcDbCircle
 10
-217.499915526752
 20
361.4301030442522
 30
0.0
 40
1.49998030147037
100
AcDbArc
 50
270.0
 51
90.0
  0
ARC
  5
544
330
1F
100
AcDbEntity
  8
1-B
  6
Continuous
 62
     4
370
     9
100
AcDbCircle
 10
-217.4999526427255
 20
127.4301104674468
 30
0.0
 40
1.500004948796453
100
AcDbArc
 50
270.0
 51
90.0
  0
ARC
  5
545
330
1F
100
AcDbEntity
  8
1-6
  6
Continuous
 62
     6
370
     5
100
AcDbCircle
 10
-266.4336890830232
 20
214.9302383113552
 30
0.0
 40
2.500000322187269
100
AcDbArc
 50
270.0
 51
90.0
  0
ARC
  5
546
330
1F
100
AcDbEntity
  8
1-6
  6
Continuous
 62
     6
370
     5
100
AcDbCircle
 10
-266.4336890830232
 20
214.9302383113552
 30
0.0
 40
1.500000019331236
100
AcDbArc
 50
270.0
 51
90.0
  0
ARC
  5
547
330
1F
100
AcDbEntity
  8
1-6
  6
Continuous
 62
     6
370
     5
100
AcDbCircle
 10
-274.8687023128057
 20
214.9302383113552
 30
0.0
 40
1.500000019331236
100
AcDbArc
 50
90.0
 51
270.0
  0
ARC
  5
548
330
1F
100
AcDbEntity
  8
1-6
  6
Continuous
 62
     6
370
     5
100
AcDbCircle
 10
-274.8687023128057
 20
214.9302383113552
 30
0.0
 40
2.500000322187269
100
AcDbArc
 50
90.0
 51
270.0
  0
ARC
  5
549
330
1F
100
AcDbEntity
  8
1-6
  6
Continuous
 62
     6
370
     5
100
AcDbCircle
 10
-278.6642559841528
 20
214.9302383113552
 30
0.0
 40
1.500000019331236
100
AcDbArc
 50
105.2762451171875
 51
254.7237548828125
  0
ELLIPSE
  5
54A
330
1F
100
AcDbEntity
  8
1-6
  6
Continuous
 62
     6
370
     5
100
AcDbEllipse
 10
-276.661663639611
 20
214.9302383113552
 30
0.0
 11
1.996100037668304E-16
 21
3.259986413491739
 31
0.0
210
0.0
220
0.0
230
1.0
 40
0.6940000000000001
 41
2.069508660954732
 42
3.205408384894708
  0
ELLIPSE
  5
54B
330
1F
100
AcDbEntity
  8
1-6
  6
Continuous
 62
     6
370
     5
100
AcDbEllipse
 10
-276.661663639611
 20
214.9302383113552
 30
0.0
 11
1.996100037668304E-16
 21
3.259986413491739
 31
0.0
210
0.0
220
0.0
230
1.0
 40
0.6940000000000001
 41
6.219369309558561
 42
7.355262375595813
  0
ELLIPSE
  5
54C
330
1F
100
AcDbEntity
  8
1-9
  6
Continuous
 62
     2
370
     9
100
AcDbEllipse
 10
-270.8070271122144
 20
214.9302383113552
 30
0.0
 11
1.224608322639736E-16
 21
2.000003215428945
 31
0.0
210
0.0
220
0.0
230
1.0
 40
0.7071000000000001
 41
0.0
 42
6.283185307179586
  0
ELLIPSE
  5
54D
330
1F
100
AcDbEntity
  8
1-9
  6
Continuous
 62
     2
370
     9
100
AcDbEllipse
 10
-273.8332408870244
 20
214.9302383113552
 30
0.0
 11
1.224608322639736E-16
 21
2.000003215428945
 31
0.0
210
0.0
220
0.0
230
1.0
 40
0.7071000000000001
 41
0.7227478313855522
 42
2.368192030903152
  0
ELLIPSE
  5
54E
330
1F
100
AcDbEntity
  8
1-9
  6
Continuous
 62
     2
370
     9
100
AcDbEllipse
 10
-270.5242033949425
 20
214.9302383113552
 30
0.0
 11
9.796728448260743E-17
 21
1.599980012790577
 31
0.0
210
0.0
220
0.0
230
1.0
 40
0.7071000000000001
 41
0.0
 42
6.283185307179586
  0
ELLIPSE
  5
54F
330
1F
100
AcDbEntity
  8
1-6
  6
Continuous
 62
     6
370
     5
100
AcDbEllipse
 10
-273.8332408870244
 20
214.9302383113552
 30
0.0
 11
-0.0004242214729744654
 21
2.999857924081422
 31
0.0
210
0.0
220
0.0
230
1.0
 40
0.7070000000000001
 41
2.555871118191543
 42
3.982512133077105
  0
ELLIPSE
  5
550
330
1F
100
AcDbEntity
  8
1-6
  6
Continuous
 62
     6
370
     5
100
AcDbEllipse
 10
-273.8332408870244
 20
214.9302383113552
 30
0.0
 11
-0.0004242214729744654
 21
2.999857924081422
 31
0.0
210
0.0
220
0.0
230
1.0
 40
0.7070000000000001
 41
5.442070351668264
 42
6.868704176018882
  0
ELLIPSE
  5
551
330
1F
100
AcDbEntity
  8
1-9
  6
JWW_DASHED1
 62
     2
370
     9
100
AcDbEllipse
 10
-297.813166094214
 20
214.9302383113552
 30
0.0
 11
1.224608322639736E-16
 21
2.000003215428945
 31
0.0
210
0.0
220
0.0
230
1.0
 40
0.7071000000000001
 41
0.0
 42
3.141592653589793
  0
ARC
  5
552
330
1F
100
AcDbEntity
  8
1-B
  6
Continuous
 62
     4
370
     9
100
AcDbCircle
 10
-349.4999241871458
 20
-129.3106534287736
 30
0.0
 40
28.50000123719911
100
AcDbArc
 50
180.0
 51
270.0
  0
ARC
  5
553
330
1F
100
AcDbEntity
  8
1-B
  6
Continuous
 62
     4
370
     9
100
AcDbCircle
 10
-349.4999241871458
 20
-129.3106534287736
 30
0.0
 40
31.49999953605033
100
AcDbArc
 50
180.0
 51
270.0
  0
CIRCLE
  5
554
330
1F
100
AcDbEntity
  8
1-B
  6
Continuous
 62
     4
370
     9
100
AcDbCircle
 10
-379.4732254302835
 20
2.706669833209105
 30
0.0
 40
1.500005238764995
  0
CIRCLE
  5
555
330
1F
100
AcDbEntity
  8
1-B
  6
Continuous
 62
     4
370
     9
100
AcDbCircle
 10
-303.7526868527655
 20
363.2800373902191
 30
0.0
 40
0.3500000045106218
  0
CIRCLE
  5
556
330
1F
100
AcDbEntity
  8
1-B
  6
Continuous
 62
     4
370
     9
100
AcDbCircle
 10
-298.7527198447419
 20
363.2800373902191
 30
0.0
 40
0.3500000045106218
  0
CIRCLE
  5
557
330
1F
100
AcDbEntity
  8
1-B
  6
Continuous
 62
     4
370
     9
100
AcDbCircle
 10
-323.7530002765408
 20
363.2800373902191
 30
0.0
 40
0.3500000045106218
  0
CIRCLE
  5
558
330
1F
100
AcDbEntity
  8
1-B
  6
Continuous
 62
     4
370
     9
100
AcDbCircle
 10
-318.7530332685172
 20
363.2800373902191
 30
0.0
 40
0.3500000045106218
  0
CIRCLE
  5
559
330
1F
100
AcDbEntity
  8
1-B
  6
Continuous
 62
     4
370
     9
100
AcDbCircle
 10
-313.7529177966
 20
363.2800373902191
 30
0.0
 40
0.3500000045106218
  0
CIRCLE
  5
55A
330
1F
100
AcDbEntity
  8
1-B
  6
Continuous
 62
     4
370
     9
100
AcDbCircle
 10
-308.7528765566296
 20
363.2800373902191
 30
0.0
 40
0.3500000045106218
  0
CIRCLE
  5
55B
330
1F
100
AcDbEntity
  8
1-B
  6
Continuous
 62
     4
370
     9
100
AcDbCircle
 10
-343.7533137003163
 20
363.2800373902191
 30
0.0
 40
0.3500000045106218
  0
CIRCLE
  5
55C
330
1F
100
AcDbEntity
  8
1-B
  6
Continuous
 62
     4
370
     9
100
AcDbCircle
 10
-338.7532724603458
 20
363.2800373902191
 30
0.0
 40
0.3500000045106218
  0
CIRCLE
  5
55D
330
1F
100
AcDbEntity
  8
1-B
  6
Continuous
 62
     4
370
     9
100
AcDbCircle
 10
-333.7531569884285
 20
363.2800373902191
 30
0.0
 40
0.3500000045106218
  0
CIRCLE
  5
55E
330
1F
100
AcDbEntity
  8
1-B
  6
Continuous
 62
     4
370
     9
100
AcDbCircle
 10
-328.7531899804049
 20
363.2800373902191
 30
0.0
 40
0.3500000045106218
  0
CIRCLE
  5
55F
330
1F
100
AcDbEntity
  8
1-B
  6
Continuous
 62
     4
370
     9
100
AcDbCircle
 10
-363.7536271240916
 20
363.2800373902191
 30
0.0
 40
0.3500000045106218
  0
CIRCLE
  5
560
330
1F
100
AcDbEntity
  8
1-B
  6
Continuous
 62
     4
370
     9
100
AcDbCircle
 10
-358.7535858841212
 20
363.2800373902191
 30
0.0
 40
0.3500000045106218
  0
CIRCLE
  5
561
330
1F
100
AcDbEntity
  8
1-B
  6
Continuous
 62
     4
370
     9
100
AcDbCircle
 10
-353.7534704122039
 20
363.2800373902191
 30
0.0
 40
0.3500000045106218
  0
CIRCLE
  5
562
330
1F
100
AcDbEntity
  8
1-B
  6
Continuous
 62
     4
370
     9
100
AcDbCircle
 10
-348.7535034041802
 20
363.2800373902191
 30
0.0
 40
0.3500000045106218
  0
CIRCLE
  5
563
330
1F
100
AcDbEntity
  8
1-B
  6
Continuous
 62
     4
370
     9
100
AcDbCircle
 10
-368.7538168279556
 20
363.2800373902191
 30
0.0
 40
0.3500000045106218
  0
ARC
  5
564
330
1F
100
AcDbEntity
  8
1-6
  6
Continuous
 62
     6
370
     5
100
AcDbCircle
 10
-277.0953266727613
 20
-64.10226785814442
 30
0.0
 40
3.999999761581421
100
AcDbArc
 50
347.2164916992188
 51
45.00000000000001
  0
ARC
  5
565
330
1F
100
AcDbEntity
  8
1-6
  6
Continuous
 62
     6
370
     5
100
AcDbCircle
 10
-275.6433497935383
 20
-70.22091030430153
 30
0.0
 40
1.200000015464989
100
AcDbArc
 50
225.0
 51
315.0
  0
ARC
  5
566
330
1F
100
AcDbEntity
  8
1-6
  6
Continuous
 62
     6
370
     5
100
AcDbCircle
 10
-275.6433497935383
 20
-70.22091030430153
 30
0.0
 40
0.1999999844544643
100
AcDbArc
 50
225.0
 51
315.0
  0
ARC
  5
567
330
1F
100
AcDbEntity
  8
1-6
  6
Continuous
 62
     6
370
     5
100
AcDbCircle
 10
-269.3912383070519
 20
-66.83474581950418
 30
0.0
 40
7.340787359186121
100
AcDbArc
 50
131.6697998046875
 51
207.8784942626953
  0
ARC
  5
568
330
1F
100
AcDbEntity
  8
1-6
  6
Continuous
 62
     6
370
     5
100
AcDbCircle
 10
-269.3912383070519
 20
-66.83474581950418
 30
0.0
 40
8.340787372073612
100
AcDbArc
 50
131.6697998046875
 51
208.9449157714844
  0
ARC
  5
569
330
1F
100
AcDbEntity
  8
1-6
  6
Continuous
 62
     6
370
     5
100
AcDbCircle
 10
-264.9994536390831
 20
-76.19806665987582
 30
0.0
 40
3.999999761581421
100
AcDbArc
 50
45.0
 51
102.7835083007812
  0
ARC
  5
56A
330
1F
100
AcDbEntity
  8
1-6
  6
Continuous
 62
     6
370
     5
100
AcDbCircle
 10
-271.1181703171869
 20
-74.74638670844
 30
0.0
 40
1.200000015464989
100
AcDbArc
 50
135.0
 51
225.0
  0
ARC
  5
56B
330
1F
100
AcDbEntity
  8
1-6
  6
Continuous
 62
     6
370
     5
100
AcDbCircle
 10
-271.1181703171869
 20
-74.74638670844
 30
0.0
 40
0.1999999844544643
100
AcDbArc
 50
135.0
 51
225.0
  0
ARC
  5
56C
330
1F
100
AcDbEntity
  8
1-6
  6
Continuous
 62
     6
370
     5
100
AcDbCircle
 10
-267.7319316004429
 20
-68.49401541013972
 30
0.0
 40
7.340787359186121
100
AcDbArc
 50
242.1215057373047
 51
318.3302001953125
  0
ARC
  5
56D
330
1F
100
AcDbEntity
  8
1-6
  6
Continuous
 62
     6
370
     5
100
AcDbCircle
 10
-267.7319316004429
 20
-68.49401541013972
 30
0.0
 40
8.340787372073612
100
AcDbArc
 50
241.0550842285157
 51
318.3302001953125
  0
CIRCLE
  5
56E
330
1F
100
AcDbEntity
  8
1-B
  6
Continuous
 62
     4
370
     9
100
AcDbCircle
 10
-217.4629480172503
 20
-159.3233161616969
 30
0.0
 40
1.500005238764995
  0
ARC
  5
56F
330
1F
100
AcDbEntity
  8
1-B
  6
Continuous
 62
     4
370
     9
100
AcDbCircle
 10
-605.8168793411525
 20
-385.6275529088201
 30
0.0
 40
448.4999579352302
100
AcDbArc
 50
30.52757263183594
 51
59.46218872070313
  0
ARC
  5
570
330
1F
100
AcDbEntity
  8
1-B
  6
Continuous
 62
     4
370
     9
100
AcDbCircle
 10
-605.8168793411525
 20
-385.6275529088201
 30
0.0
 40
451.499967832823
100
AcDbArc
 50
30.3033447265625
 51
59.69845581054688
  0
ARC
  5
571
330
1F
100
AcDbEntity
  8
1-B
  6
JWW_CENTER1
 62
     4
370
     9
100
AcDbCircle
 10
-605.8168793411525
 20
-385.6275529088201
 30
0.0
 40
449.9999628840267
100
AcDbArc
 50
30.23538208007813
 51
59.68020629882812
  0
TEXT
  5
572
330
1F
100
AcDbEntity
  8
1-4
  6
Continuous
 62
     2
370
     9
100
AcDbText
 10
-308.2499229499467
 20
42.21799092431973
 30
0.0
 40
9.144
  1
165
 41
1.083333333333333
  7
ＭＳ ゴシック
100
AcDbText
  0
TEXT
  5
573
330
1F
100
AcDbEntity
  8
1-4
  6
Continuous
 62
     2
370
     9
100
AcDbText
 10
-181.5081048545075
 20
-88.06063363358781
 30
0.0
 40
9.144
  1
165
 50
90.0
 41
1.083333333333333
  7
ＭＳ ゴシック
100
AcDbText
  0
TEXT
  5
574
330
1F
100
AcDbEntity
  8
1-4
  6
Continuous
 62
     2
370
     9
100
AcDbText
 10
-407.2947779106203
 20
234.6800881978628
 30
0.0
 40
9.144
  1
237
 50
90.0
 41
1.083333333333333
  7
ＭＳ ゴシック
100
AcDbText
  0
TEXT
  5
575
330
1F
100
AcDbEntity
  8
1-4
  6
Continuous
 62
     2
370
     9
100
AcDbText
 10
-363.1754312626744
 20
-135.796200555878
 30
0.0
 40
9.144
  1
R30
 50
34.9998912280918
 41
1.083333333333335
  7
ＭＳ ゴシック
100
AcDbText
  0
LINE
  5
576
330
1F
100
AcDbEntity
  8
1-4
  6
Continuous
 62
     2
370
     9
100
AcDbLine
 10
-358.1267007428017
 20
-294.6212100135577
 30
0.0
 11
-358.1267007428017
 21
-275.1214240490043
 31
0.0
  0
LINE
  5
577
330
1F
100
AcDbEntity
  8
1-4
  6
Continuous
 62
     2
370
     9
100
AcDbLine
 10
-358.1267007428017
 20
-275.1214240490043
 30
0.0
 11
-208.1267997187308
 21
-275.1214240490043
 31
0.0
  0
LINE
  5
578
330
1F
100
AcDbEntity
  8
1-4
  6
Continuous
 62
     2
370
     9
100
AcDbLine
 10
-208.1267997187308
 20
-294.6212100135577
 30
0.0
 11
-208.1267997187308
 21
-275.1214240490043
 31
0.0
  0
LINE
  5
579
330
1F
100
AcDbEntity
  8
1-4
  6
Continuous
 62
     2
370
     9
100
AcDbLine
 10
-208.1267997187308
 20
-294.6212100135577
 30
0.0
 11
-358.1267007428017
 21
-294.6212100135577
 31
0.0
  0
TEXT
  5
57A
330
1F
100
AcDbEntity
  8
1-4
  6
Continuous
 62
     2
370
     9
100
AcDbText
 10
-343.1267502307662
 20
-289.1794017794202
 30
0.0
 40
9.144
  1
詳細図　Ｓ＝１：３
 41
1.111111111111111
  7
ＭＳ ゴシック
100
AcDbText
  0
LINE
  5
57B
330
1F
100
AcDbEntity
  8
1-5
  6
Continuous
 62
     7
370
     9
100
AcDbLine
 10
-342.9305268020899
 20
-46.37248699085129
 30
0.0
 11
-396.7468430770593
 21
46.84010707359169
 31
0.0
  0
LINE
  5
57C
330
1F
100
AcDbEntity
  8
1-5
  6
Continuous
 62
     7
370
     9
100
AcDbLine
 10
-342.9305268020899
 20
-46.37248699085129
 30
0.0
 11
-347.4962375196553
 21
-40.42233693866702
 31
0.0
  0
LINE
  5
57D
330
1F
100
AcDbEntity
  8
1-5
  6
Continuous
 62
     7
370
     9
100
AcDbLine
 10
-342.9305268020899
 20
-46.37248699085129
 30
0.0
 11
-345.8006525448281
 21
-39.44339049701664
 31
0.0
  0
LINE
  5
57E
330
1F
100
AcDbEntity
  8
1-5
  6
Continuous
 62
     7
370
     9
100
AcDbLine
 10
-262.5861190287114
 20
-73.00811146410372
 30
0.0
 11
-259.7159932859732
 21
-66.07901497026907
 31
0.0
  0
LINE
  5
57F
330
1F
100
AcDbEntity
  8
1-5
  6
Continuous
 62
     7
370
     9
100
AcDbLine
 10
-262.5861190287114
 20
-73.00811146410372
 30
0.0
 11
-258.020408311146
 21
-67.05796141191946
 31
0.0
  0
LINE
  5
580
330
1F
100
AcDbEntity
  8
1-5
  6
Continuous
 62
     7
370
     9
100
AcDbLine
 10
-262.5861190287114
 20
-73.00811146410372
 30
0.0
 11
-190.2836433636051
 21
52.22344990087291
 31
0.0
  0
TEXT
  5
581
330
1F
100
AcDbEntity
  8
1-E
  6
Continuous
 62
     2
370
     9
100
AcDbText
 10
-188.5953849605486
 20
57.97931494389447
 30
0.0
 40
9.144
  1
蝶ナット
 41
1.09375
  7
ＭＳ ゴシック
100
AcDbText
  0
TEXT
  5
582
330
1F
100
AcDbEntity
  8
1-E
  6
Continuous
 62
     2
370
     9
100
AcDbText
 10
-188.5953849605486
 20
37.30654194199695
 30
0.0
 40
9.144
  1
(SUS304)
 41
1.109375
  7
ＭＳ ゴシック
100
AcDbText
  0
LINE
  5
583
330
1F
100
AcDbEntity
  8
1-4
  6
Continuous
 62
     7
370
     9
100
AcDbLine
 10
-190.2836433636051
 20
52.22344990087291
 30
0.0
 11
-131.9110271424706
 21
52.22344990087291
 31
0.0
  0
LINE
  5
584
330
1F
100
AcDbEntity
  8
1-4
  6
Continuous
 62
     7
370
     9
100
AcDbLine
 10
-374.856480847566
 20
-148.0000677882014
 30
0.0
 11
-339.8099465828188
 21
-123.4602203079005
 31
0.0
  0
LINE
  5
585
330
1F
100
AcDbEntity
  8
1-4
  6
Continuous
 62
     7
370
     9
100
AcDbLine
 10
-374.856480847566
 20
-148.0000677882014
 30
0.0
 11
-369.3269008214901
 21
-142.933141231084
 31
0.0
  0
LINE
  5
586
330
1F
100
AcDbEntity
  8
1-4
  6
Continuous
 62
     7
370
     9
100
AcDbLine
 10
-374.856480847566
 20
-148.0000677882014
 30
0.0
 11
-368.2038995987293
 21
-144.5369531889386
 31
0.0
  0
LINE
  5
587
330
1F
100
AcDbEntity
  8
1-4
  6
Continuous
 62
     7
370
     9
100
AcDbLine
 10
-311.8899287499933
 20
-160.8106460055789
 30
0.0
 11
-352.6141843728519
 21
-231.3471258447926
 31
0.0
  0
LINE
  5
588
330
1F
100
AcDbEntity
  8
1-4
  6
Continuous
 62
     7
370
     9
100
AcDbLine
 10
-311.8899287499933
 20
-160.8106460055789
 30
0.0
 11
-314.7600544927315
 21
-167.7397424994136
 31
0.0
  0
LINE
  5
589
330
1F
100
AcDbEntity
  8
1-4
  6
Continuous
 62
     7
370
     9
100
AcDbLine
 10
-311.8899287499933
 20
-160.8106460055789
 30
0.0
 11
-316.4556394675587
 21
-166.7607960577632
 31
0.0
  0
TEXT
  5
58A
330
1F
100
AcDbEntity
  8
1-E
  6
Continuous
 62
     2
370
     9
100
AcDbText
 10
-464.6484200858146
 20
-225.7684153427867
 30
0.0
 40
9.144
  1
補強棒：Φ3
 41
1.113636363636364
  7
ＭＳ ゴシック
100
AcDbText
  0
TEXT
  5
58B
330
1F
100
AcDbEntity
  8
1-E
  6
Continuous
 62
     2
370
     9
100
AcDbText
 10
-465.6875970712646
 20
-244.5302058503353
 30
0.0
 40
9.144
  1
(SUS304/電解研磨)^J
 41
1.183823529411764
  7
ＭＳ ゴシック
100
AcDbText
  0
LINE
  5
58C
330
1F
100
AcDbEntity
  8
1-4
  6
Continuous
 62
     7
370
     9
100
AcDbLine
 10
-465.3125970712646
 20
-231.3471258447926
 30
0.0
 11
-352.6141843728519
 21
-231.3471258447926
 31
0.0
  0
LINE
  5
58D
330
1F
100
AcDbEntity
  8
1-5
  6
Continuous
 62
     7
370
     9
100
AcDbLine
 10
-300.4883468593433
 20
-106.6623388331434
 30
0.0
 11
-295.9226361417778
 21
-112.6124888853277
 31
0.0
  0
LINE
  5
58E
330
1F
100
AcDbEntity
  8
1-5
  6
Continuous
 62
     7
370
     9
100
AcDbLine
 10
-300.4883468593433
 20
-106.6623388331434
 30
0.0
 11
-297.6182211166051
 21
-113.591435326978
 31
0.0
  0
TEXT
  5
58F
330
1F
100
AcDbEntity
  8
1-E
  6
Continuous
 62
     2
370
     9
100
AcDbText
 10
-540.2018695320858
 20
34.040323725302
 30
0.0
 40
9.144
  1
(SUS304/電解研磨)
 41
1.117647058823529
  7
ＭＳ ゴシック
100
AcDbText
  0
TEXT
  5
590
330
1F
100
AcDbEntity
  8
1-E
  6
Continuous
 62
     2
370
     9
100
AcDbText
 10
-538.8817788399913
 20
52.65572883377966
 30
0.0
 40
9.144
  1
金網:Φ0.7×5メッシュ
 41
1.113095238095238
  7
ＭＳ ゴシック
100
AcDbText
  0
LINE
  5
591
330
1F
100
AcDbEntity
  8
1-4
  6
Continuous
 62
     7
370
     9
100
AcDbLine
 10
-542.0441750309424
 20
46.84010707359169
 30
0.0
 11
-396.7468430770593
 21
46.84010707359169
 31
0.0
  0
LINE
  5
592
330
1F
100
AcDbEntity
  8
1-0
  6
Continuous
 62
     3
370
     9
100
AcDbLine
 10
299.1176207981564
 20
135.7694546540771
 30
0.0
 11
394.1560268261524
 21
135.7694546540771
 31
0.0
  0
LINE
  5
593
330
1F
100
AcDbEntity
  8
1-0
  6
Continuous
 62
     3
370
     9
100
AcDbLine
 10
410.1966524323351
 20
135.7694546540771
 30
0.0
 11
452.1175317198204
 21
135.7694546540771
 31
0.0
  0
LINE
  5
594
330
1F
100
AcDbEntity
  8
1-6
  6
Continuous
 62
     6
370
     5
100
AcDbLine
 10
453.4403599350313
 20
135.2695024924428
 30
0.0
 11
556.8166111758215
 21
135.2695024924428
 31
0.0
  0
LINE
  5
595
330
1F
100
AcDbEntity
  8
1-6
  6
Continuous
 62
     6
370
     5
100
AcDbLine
 10
392.0367399128738
 20
128.7694934196494
 30
0.0
 11
406.9335849556733
 21
141.2695965195754
 31
0.0
  0
LINE
  5
596
330
1F
100
AcDbEntity
  8
1-6
  6
Continuous
 62
     6
370
     5
100
AcDbLine
 10
395.1482517434656
 20
128.7694934196494
 30
0.0
 11
407.6616518897949
 21
139.2696394091446
 31
0.0
  0
LINE
  5
597
330
1F
100
AcDbEntity
  8
1-6
  6
Continuous
 62
     6
370
     5
100
AcDbLine
 10
398.259620034938
 20
128.7694934196494
 30
0.0
 11
408.389570360023
 21
137.2696080667671
 31
0.0
  0
LINE
  5
598
330
1F
100
AcDbEntity
  8
1-6
  6
Continuous
 62
     6
370
     5
100
AcDbLine
 10
388.9252342264019
 20
128.7694934196494
 30
0.0
 11
406.2056664854452
 21
143.2695536300061
 31
0.0
  0
LINE
  5
599
330
1F
100
AcDbEntity
  8
1-6
  6
Continuous
 62
     6
370
     5
100
AcDbLine
 10
385.8138665846516
 20
128.7694934196494
 30
0.0
 11
405.4777480152172
 21
145.2695849723837
 31
0.0
  0
LINE
  5
59A
330
1F
100
AcDbEntity
  8
1-6
  6
Continuous
 62
     6
370
     5
100
AcDbLine
 10
149.0439447777509
 20
294.4216162552818
 30
0.0
 11
233.0563232218408
 21
378.4338951990758
 31
0.0
  0
TEXT
  5
59B
330
1F
100
AcDbEntity
  8
1-E
  6
Continuous
 62
     2
370
     9
100
AcDbText
 10
392.4227102889362
 20
318.3742031715598
 30
0.0
 40
9.144
  1
ルーフドレン
 41
1.104166666666667
  7
ＭＳ ゴシック
100
AcDbText
  0
LINE
  5
59C
330
1F
100
AcDbEntity
  8
1-E
  6
Continuous
 62
     7
370
     9
100
AcDbLine
 10
392.3040333123158
 20
315.3867254662122
 30
0.0
 11
472.874338775545
 21
315.3867254662122
 31
0.0
  0
TEXT
  5
59D
330
1F
100
AcDbEntity
  8
1-4
  6
Continuous
 62
     2
370
     9
100
AcDbText
 10
99.01265953785168
 20
-161.0872874824997
 30
0.0
 40
9.144
  1
※上図のルーフドレンは、ＥＸＣ－１５０です。
 41
1.119318181818182
  7
ＭＳ ゴシック
100
AcDbText
  0
TEXT
  5
59E
330
1F
100
AcDbEntity
  8
F-4
  6
Continuous
 62
     2
370
     9
100
AcDbText
 10
161.1045119503976
 20
-259.9767013265249
 30
0.0
 40
9.144
  1
ＥＸＨ、ＥＸＨＷ、ＥＸＣ、ＥＸＧ、ＥＸＣＷ、
 41
1.119318181818181
  7
ＭＳ ゴシック
100
AcDbText
  0
TEXT
  5
59F
330
1F
100
AcDbEntity
  8
F-4
  6
Continuous
 62
     2
370
     9
100
AcDbText
 10
160.909478264886
 20
-306.8604237296487
 30
0.0
 40
9.144
  1
ＥＳＸＣ、ＥＳＸＧ
 41
1.111111111111111
  7
ＭＳ ゴシック
100
AcDbText
  0
LINE
  5
5A0
330
1F
100
AcDbEntity
  8
1-4
  6
Continuous
 62
     7
370
     9
100
AcDbLine
 10
-413.2466929704868
 20
-160.8106460055789
 30
0.0
 11
-413.2466929704868
 21
4.18937873840332
 31
0.0
  0
LINE
  5
5A1
330
1F
100
AcDbEntity
  8
1-4
  6
Continuous
 62
     7
370
     9
100
AcDbLine
 10
-413.2466929704868
 20
-160.8106460055789
 30
0.0
 11
-414.2256394121372
 21
-153.3748095452754
 31
0.0
  0
LINE
  5
5A2
330
1F
100
AcDbEntity
  8
1-4
  6
Continuous
 62
     7
370
     9
100
AcDbLine
 10
-413.2466929704868
 20
-160.8106460055789
 30
0.0
 11
-412.2677465288364
 21
-153.3748095452754
 31
0.0
  0
LINE
  5
5A3
330
1F
100
AcDbEntity
  8
1-4
  6
Continuous
 62
     7
370
     9
100
AcDbLine
 10
-413.2466929704868
 20
4.18937873840332
 30
0.0
 11
-414.2256394121372
 21
-3.246457721900258
 31
0.0
  0
LINE
  5
5A4
330
1F
100
AcDbEntity
  8
1-4
  6
Continuous
 62
     7
370
     9
100
AcDbLine
 10
-413.2466929704868
 20
4.18937873840332
 30
0.0
 11
-412.2677465288364
 21
-3.246457721900258
 31
0.0
  0
LINE
  5
5A5
330
1F
100
AcDbEntity
  8
1-4
  6
Continuous
 62
     7
370
     9
100
AcDbLine
 10
-414.1466929704869
 20
-160.8106460055789
 30
0.0
 11
-355.4999241871458
 21
-160.8106460055789
 31
0.0
  0
LINE
  5
5A6
330
1F
100
AcDbEntity
  8
1-4
  6
Continuous
 62
     7
370
     9
100
AcDbLine
 10
-414.1466929704869
 20
4.18937873840332
 30
0.0
 11
-386.9999353219378
 21
4.189378738403319
 31
0.0
  0
TEXT
  5
5A7
330
1F
100
AcDbEntity
  8
1-4
  6
Continuous
 62
     2
370
   211
100
AcDbText
 10
-417.9386929704868
 20
-88.06063363358781
 30
0.0
 40
9.144
  1
165
 50
90.0
 41
1.083333333333333
  7
ＭＳ ゴシック
100
AcDbText
  0
LINE
  5
5A8
330
1F
100
AcDbEntity
  8
1-4
  6
Continuous
 62
     7
370
     9
100
AcDbLine
 10
-380.9999353219378
 20
-191.4258943238428
 30
0.0
 11
-215.9999105779555
 21
-191.4258943238428
 31
0.0
  0
LINE
  5
5A9
330
1F
100
AcDbEntity
  8
1-4
  6
Continuous
 62
     7
370
     9
100
AcDbLine
 10
-380.9999353219378
 20
-191.4258943238428
 30
0.0
 11
-373.5640988616342
 21
-190.4469478821924
 31
0.0
  0
LINE
  5
5AA
330
1F
100
AcDbEntity
  8
1-4
  6
Continuous
 62
     7
370
     9
100
AcDbLine
 10
-380.9999353219378
 20
-191.4258943238428
 30
0.0
 11
-373.5640988616342
 21
-192.4048407654932
 31
0.0
  0
LINE
  5
5AB
330
1F
100
AcDbEntity
  8
1-4
  6
Continuous
 62
     7
370
     9
100
AcDbLine
 10
-215.9999105779555
 20
-191.4258943238428
 30
0.0
 11
-223.4357470382591
 21
-190.4469478821924
 31
0.0
  0
LINE
  5
5AC
330
1F
100
AcDbEntity
  8
1-4
  6
Continuous
 62
     7
370
     9
100
AcDbLine
 10
-215.9999105779555
 20
-191.4258943238428
 30
0.0
 11
-223.4357470382591
 21
-192.4048407654932
 31
0.0
  0
LINE
  5
5AD
330
1F
100
AcDbEntity
  8
1-4
  6
Continuous
 62
     7
370
     9
100
AcDbLine
 10
-380.9999353219378
 20
-192.3258943238428
 30
0.0
 11
-380.9999353219378
 21
-135.3106534287736
 31
0.0
  0
LINE
  5
5AE
330
1F
100
AcDbEntity
  8
1-4
  6
Continuous
 62
     7
370
     9
100
AcDbLine
 10
-215.9999105779555
 20
-192.3258943238428
 30
0.0
 11
-215.9999105779555
 21
-166.8106460055789
 31
0.0
  0
TEXT
  5
5AF
330
1F
100
AcDbEntity
  8
1-4
  6
Continuous
 62
     2
370
   211
100
AcDbText
 10
-308.2499229499467
 20
-186.7338943238428
 30
0.0
 40
9.144
  1
165
 41
1.083333333333333
  7
ＭＳ ゴシック
100
AcDbText
  0
LINE
  5
5B0
330
1F
100
AcDbEntity
  8
1-5
  6
Continuous
 62
     7
370
     9
100
AcDbLine
 10
-300.4883468593433
 20
-106.6623388331434
 30
0.0
 11
-234.5569901237365
 21
-220.8587985111627
 31
0.0
  0
TEXT
  5
5B1
330
1F
100
AcDbEntity
  8
1-E
  6
Continuous
 62
     2
370
     9
100
AcDbText
 10
-225.8391519394829
 20
-215.7000366901376
 30
0.0
 40
9.144
  1
取付クリップ
 41
1.104166666666667
  7
ＭＳ ゴシック
100
AcDbText
  0
TEXT
  5
5B2
330
1F
100
AcDbEntity
  8
1-E
  6
Continuous
 62
     2
370
     9
100
AcDbText
 10
-227.7120060363825
 20
-235.5056268015984
 30
0.0
 40
9.144
  1
(SUS304CSP)^J
 41
1.114583333333333
  7
ＭＳ ゴシック
100
AcDbText
  0
LINE
  5
5B3
330
1F
100
AcDbEntity
  8
1-4
  6
Continuous
 62
     7
370
     9
100
AcDbLine
 10
-234.5569901237365
 20
-220.8587985111627
 30
0.0
 11
-142.9679353769143
 21
-220.8587985111627
 31
0.0
  0
ENDSEC
  0
SECTION
  2
OBJECTS
  0
DICTIONARY
  5
C
330
0
100
AcDbDictionary
281
     1
  3
ACAD_GROUP
350
D
  3
ACAD_LAYOUT
350
1A
  3
ACAD_MLEADERSTYLE
350
5B5
  3
ACAD_MLINESTYLE
350
17
  3
ACAD_PLOTSETTINGS
350
19
  3
ACAD_PLOTSTYLENAME
350
E
  3
ACAD_TABLESTYLE
350
5B4
  3
ACAD_VISUALSTYLE
350
2A
  0
DICTIONARY
  5
D
102
{ACAD_REACTORS
330
C
102
}
330
C
100
AcDbDictionary
281
     1
  0
DICTIONARY
  5
1A
102
{ACAD_REACTORS
330
C
102
}
330
C
100
AcDbDictionary
281
     1
  3
Layout1
350
1E
  3
Layout2
350
26
  3
Model
350
22
  0
DICTIONARY
  5
5B5
102
{ACAD_REACTORS
330
C
102
}
330
C
100
AcDbDictionary
281
     1
  0
DICTIONARY
  5
17
102
{ACAD_REACTORS
330
C
102
}
330
C
100
AcDbDictionary
281
     1
  3
Standard
350
18
  0
DICTIONARY
  5
19
102
{ACAD_REACTORS
330
C
102
}
330
C
100
AcDbDictionary
281
     1
  0
ACDBDICTIONARYWDFLT
  5
E
102
{ACAD_REACTORS
330
C
102
}
330
C
100
AcDbDictionary
281
     1
  3
Normal
350
F
100
AcDbDictionaryWithDefault
340
F
  0
DICTIONARY
  5
5B4
102
{ACAD_REACTORS
330
C
102
}
330
C
100
AcDbDictionary
281
     1
  0
DICTIONARY
  5
2A
102
{ACAD_REACTORS
330
C
102
}
330
C
100
AcDbDictionary
281
     1
  3
2dWireframe
350
2F
  3
3D Hidden
350
31
  3
3dWireframe
350
30
  3
Basic
350
32
  3
Brighten
350
36
  3
ColorChange
350
3A
  3
Conceptual
350
34
  3
Dim
350
35
  3
Facepattern
350
39
  3
Flat
350
2B
  3
FlatWithEdges
350
2C
  3
Gouraud
350
2D
  3
GouraudWithEdges
350
2E
  3
Linepattern
350
38
  3
Realistic
350
33
  3
Thicken
350
37
  0
LAYOUT
  5
1E
102
{ACAD_REACTORS
330
1A
102
}
330
1A
100
AcDbPlotSettings
  1

  2
none_device
  4

  6

 40
0.0
 41
0.0
 42
0.0
 43
0.0
 44
0.0
 45
0.0
 46
0.0
 47
0.0
 48
0.0
 49
0.0
140
0.0
141
0.0
142
1.0
143
1.0
 70
   688
 72
     0
 73
     0
 74
     5
  7

 75
    16
 76
     0
 77
     5
 78
   300
147
1.0
148
0.0
149
0.0
100
AcDbLayout
  1
Layout1
 70
     1
 71
     1
 10
0.0
 20
0.0
 11
420.0
 21
297.0
 12
0.0
 22
0.0
 32
0.0
 14
1.000000000000000E+20
 24
1.000000000000000E+20
 34
1.000000000000000E+20
 15
-1.000000000000000E+20
 25
-1.000000000000000E+20
 35
-1.000000000000000E+20
146
0.0
 13
0.0
 23
0.0
 33
0.0
 16
1.0
 26
0.0
 36
0.0
 17
0.0
 27
1.0
 37
0.0
 76
     0
330
1B
  0
LAYOUT
  5
26
102
{ACAD_REACTORS
330
1A
102
}
330
1A
100
AcDbPlotSettings
  1

  2
none_device
  4

  6

 40
0.0
 41
0.0
 42
0.0
 43
0.0
 44
0.0
 45
0.0
 46
0.0
 47
0.0
 48
0.0
 49
0.0
140
0.0
141
0.0
142
1.0
143
1.0
 70
   688
 72
     0
 73
     0
 74
     5
  7

 75
    16
 76
     0
 77
     5
 78
   300
147
1.0
148
0.0
149
0.0
100
AcDbLayout
  1
Layout2
 70
     1
 71
     2
 10
0.0
 20
0.0
 11
0.0
 21
0.0
 12
0.0
 22
0.0
 32
0.0
 14
0.0
 24
0.0
 34
0.0
 15
0.0
 25
0.0
 35
0.0
146
0.0
 13
0.0
 23
0.0
 33
0.0
 16
1.0
 26
0.0
 36
0.0
 17
0.0
 27
1.0
 37
0.0
 76
     0
330
23
  0
LAYOUT
  5
22
102
{ACAD_REACTORS
330
1A
102
}
330
1A
100
AcDbPlotSettings
  1

  2
none_device
  4

  6

 40
0.0
 41
0.0
 42
0.0
 43
0.0
 44
0.0
 45
0.0
 46
0.0
 47
0.0
 48
0.0
 49
0.0
140
0.0
141
0.0
142
1.0
143
1.0
 70
  1712
 72
     0
 73
     0
 74
     0
  7

 75
     0
 76
     0
 77
     5
 78
   300
147
1.0
148
0.0
149
0.0
100
AcDbLayout
  1
Model
 70
     1
 71
     0
 10
-630.0
 20
-445.5
 11
630.0
 21
445.5
 12
0.0
 22
0.0
 32
0.0
 14
-630.0
 24
-445.5
 34
0.0
 15
630.0
 25
445.5
 35
0.0
146
0.0
 13
0.0
 23
0.0
 33
0.0
 16
1.0
 26
0.0
 36
0.0
 17
0.0
 27
1.0
 37
0.0
 76
     0
330
1F
331
29
  0
MLINESTYLE
  5
18
102
{ACAD_REACTORS
330
17
102
}
330
17
100
AcDbMlineStyle
  2
Standard
 70
     0
  3

 62
   256
 51
90.0
 52
90.0
 71
     2
 49
0.5
 62
   256
  6
BYLAYER
 49
-0.5
 62
   256
  6
BYLAYER
  0
ACDBPLACEHOLDER
  5
F
102
{ACAD_REACTORS
330
E
102
}
330
E
  0
VISUALSTYLE
  5
2F
102
{ACAD_REACTORS
330
2A
102
}
330
2A
100
AcDbVisualStyle
  2
2dWireframe
 70
     4
 71
     0
 72
     2
 73
     0
 90
        0
 40
-0.6
 41
-30.0
 62
     5
 63
     7
421
 16777215
 74
     1
 91
        4
 64
     7
 65
   257
 75
     1
175
     1
 42
1.0
 92
        0
 66
   257
 43
1.0
 76
     1
 77
     6
 78
     2
 67
     7
 79
     5
170
     0
171
     0
290
     0
174
     0
 93
        1
 44
0.0
173
     0
291
     0
 45
0.0
1001
ACAD
1000
AcDbSavedByObjectVersion
1070
     0
  0
VISUALSTYLE
  5
31
102
{ACAD_REACTORS
330
2A
102
}
330
2A
100
AcDbVisualStyle
  2
3D Hidden
 70
     6
 71
     1
 72
     2
 73
     2
 90
        0
 40
-0.6
 41
-30.0
 62
     5
 63
     7
421
 16777215
 74
     2
 91
        2
 64
     7
 65
   257
 75
     2
175
     1
 42
40.0
 92
        0
 66
   257
 43
1.0
 76
     1
 77
     6
 78
     2
 67
     7
 79
     3
170
     0
171
     0
290
     0
174
     0
 93
        1
 44
0.0
173
     0
291
     0
 45
0.0
1001
ACAD
1000
AcDbSavedByObjectVersion
1070
     0
  0
VISUALSTYLE
  5
30
102
{ACAD_REACTORS
330
2A
102
}
330
2A
100
AcDbVisualStyle
  2
3dWireframe
 70
     5
 71
     0
 72
     2
 73
     0
 90
        0
 40
-0.6
 41
-30.0
 62
     5
 63
     7
421
 16777215
 74
     1
 91
        4
 64
     7
 65
   257
 75
     1
175
     1
 42
1.0
 92
        0
 66
   257
 43
1.0
 76
     1
 77
     6
 78
     2
 67
     7
 79
     5
170
     0
171
     0
290
     0
174
     0
 93
        1
 44
0.0
173
     0
291
     0
 45
0.0
1001
ACAD
1000
AcDbSavedByObjectVersion
1070
     0
  0
VISUALSTYLE
  5
32
102
{ACAD_REACTORS
330
2A
102
}
330
2A
100
AcDbVisualStyle
  2
Basic
 70
     7
 71
     1
 72
     0
 73
     1
 90
        0
 40
-0.6
 41
-30.0
 62
     5
 63
     7
421
 16777215
 74
     0
 91
        4
 64
     7
 65
   257
 75
     1
175
     1
 42
1.0
 92
        8
 66
     7
 43
1.0
 76
     1
 77
     6
 78
     2
 67
     7
 79
     5
170
     0
171
     0
290
     0
174
     0
 93
        1
 44
0.0
173
     0
291
     1
 45
0.0
1001
ACAD
1000
AcDbSavedByObjectVersion
1070
     0
  0
VISUALSTYLE
  5
36
102
{ACAD_REACTORS
330
2A
102
}
330
2A
100
AcDbVisualStyle
  2
Brighten
 70
    12
 71
     2
 72
     2
 73
     0
 90
        0
 40
-0.6
 41
-30.0
 62
     5
 63
     7
421
 16777215
 74
     1
 91
        4
 64
     7
 65
   257
 75
     1
175
     1
 42
1.0
 92
        8
 66
     7
 43
1.0
 76
     1
 77
     6
 78
     2
 67
     7
 79
     5
170
     0
171
     0
290
     0
174
     0
 93
        1
 44
50.0
173
     0
291
     1
 45
0.0
1001
ACAD
1000
AcDbSavedByObjectVersion
1070
     0
  0
VISUALSTYLE
  5
3A
102
{ACAD_REACTORS
330
2A
102
}
330
2A
100
AcDbVisualStyle
  2
ColorChange
 70
    16
 71
     2
 72
     2
 73
     3
 90
        0
 40
-0.6
 41
-30.0
 62
     5
 63
     8
421
  8421504
 74
     1
 91
        4
 64
     7
 65
   257
 75
     1
175
     1
 42
1.0
 92
        8
 66
     8
424
  8421504
 43
1.0
 76
     1
 77
     6
 78
     2
 67
     7
 79
     5
170
     0
171
     0
290
     0
174
     0
 93
        1
 44
0.0
173
     0
291
     1
 45
0.0
1001
ACAD
1000
AcDbSavedByObjectVersion
1070
     0
  0
VISUALSTYLE
  5
34
102
{ACAD_REACTORS
330
2A
102
}
330
2A
100
AcDbVisualStyle
  2
Conceptual
 70
     9
 71
     3
 72
     2
 73
     0
 90
        0
 40
-0.6
 41
-30.0
 62
     5
 63
     7
421
 16777215
 74
     2
 91
        2
 64
     7
 65
   257
 75
     1
175
     1
 42
40.0
 92
        8
 66
     7
 43
1.0
 76
     1
 77
     6
 78
     2
 67
     7
 79
     3
170
     0
171
     0
290
     0
174
     0
 93
        1
 44
0.0
173
     0
291
     0
 45
0.0
1001
ACAD
1000
AcDbSavedByObjectVersion
1070
     0
  0
VISUALSTYLE
  5
35
102
{ACAD_REACTORS
330
2A
102
}
330
2A
100
AcDbVisualStyle
  2
Dim
 70
    11
 71
     2
 72
     2
 73
     0
 90
        0
 40
-0.6
 41
-30.0
 62
     5
 63
     7
421
 16777215
 74
     1
 91
        4
 64
     7
 65
   257
 75
     1
175
     1
 42
1.0
 92
        8
 66
     7
 43
1.0
 76
     1
 77
     6
 78
     2
 67
     7
 79
     5
170
     0
171
     0
290
     0
174
     0
 93
        1
 44
-50.0
173
     0
291
     1
 45
0.0
1001
ACAD
1000
AcDbSavedByObjectVersion
1070
     0
  0
VISUALSTYLE
  5
39
102
{ACAD_REACTORS
330
2A
102
}
330
2A
100
AcDbVisualStyle
  2
Facepattern
 70
    15
 71
     2
 72
     2
 73
     0
 90
        0
 40
-0.6
 41
-30.0
 62
     5
 63
     7
421
 16777215
 74
     1
 91
        4
 64
     7
 65
   257
 75
     1
175
     1
 42
1.0
 92
        8
 66
     7
 43
1.0
 76
     1
 77
     6
 78
     2
 67
     7
 79
     5
170
     0
171
     0
290
     0
174
     0
 93
        1
 44
0.0
173
     0
291
     1
 45
0.0
1001
ACAD
1000
AcDbSavedByObjectVersion
1070
     0
  0
VISUALSTYLE
  5
2B
102
{ACAD_REACTORS
330
2A
102
}
330
2A
100
AcDbVisualStyle
  2
Flat
 70
     0
 71
     2
 72
     1
 73
     1
 90
        2
 40
-0.6
 41
30.0
 62
     5
 63
     7
421
 16777215
 74
     0
 91
        4
 64
     7
 65
   257
 75
     1
175
     1
 42
1.0
 92
        8
 66
     7
 43
1.0
 76
     1
 77
     6
 78
     2
 67
     7
 79
     5
170
     0
171
     0
290
     0
174
     0
 93
       13
 44
0.0
173
     0
291
     1
 45
0.0
1001
ACAD
1000
AcDbSavedByObjectVersion
1070
     0
  0
VISUALSTYLE
  5
2C
102
{ACAD_REACTORS
330
2A
102
}
330
2A
100
AcDbVisualStyle
  2
FlatWithEdges
 70
     1
 71
     2
 72
     1
 73
     1
 90
        2
 40
-0.6
 41
30.0
 62
     5
 63
     7
421
 16777215
 74
     1
 91
        4
 64
     7
 65
   257
 75
     1
175
     1
 42
1.0
 92
        0
 66
   257
 43
1.0
 76
     1
 77
     6
 78
     2
 67
     7
 79
     5
170
     0
171
     0
290
     0
174
     0
 93
       13
 44
0.0
173
     0
291
     1
 45
0.0
1001
ACAD
1000
AcDbSavedByObjectVersion
1070
     0
  0
VISUALSTYLE
  5
2D
102
{ACAD_REACTORS
330
2A
102
}
330
2A
100
AcDbVisualStyle
  2
Gouraud
 70
     2
 71
     2
 72
     2
 73
     1
 90
        2
 40
-0.6
 41
30.0
 62
     5
 63
     7
421
 16777215
 74
     0
 91
        4
 64
     7
 65
   257
 75
     1
175
     1
 42
1.0
 92
        0
 66
     7
 43
1.0
 76
     1
 77
     6
 78
     2
 67
     7
 79
     5
170
     0
171
     0
290
     0
174
     0
 93
       13
 44
0.0
173
     0
291
     1
 45
0.0
1001
ACAD
1000
AcDbSavedByObjectVersion
1070
     0
  0
VISUALSTYLE
  5
2E
102
{ACAD_REACTORS
330
2A
102
}
330
2A
100
AcDbVisualStyle
  2
GouraudWithEdges
 70
     3
 71
     2
 72
     2
 73
     1
 90
        2
 40
-0.6
 41
30.0
 62
     5
 63
     7
421
 16777215
 74
     1
 91
        4
 64
     7
 65
   257
 75
     1
175
     1
 42
1.0
 92
        0
 66
   257
 43
1.0
 76
     1
 77
     6
 78
     2
 67
     7
 79
     5
170
     0
171
     0
290
     0
174
     0
 93
       13
 44
0.0
173
     0
291
     1
 45
0.0
1001
ACAD
1000
AcDbSavedByObjectVersion
1070
     0
  0
VISUALSTYLE
  5
38
102
{ACAD_REACTORS
330
2A
102
}
330
2A
100
AcDbVisualStyle
  2
Linepattern
 70
    14
 71
     2
 72
     2
 73
     0
 90
        0
 40
-0.6
 41
-30.0
 62
     5
 63
     7
421
 16777215
 74
     1
 91
        4
 64
     7
 65
   257
 75
     7
175
     7
 42
1.0
 92
        8
 66
     7
 43
1.0
 76
     1
 77
     6
 78
     2
 67
     7
 79
     5
170
     0
171
     0
290
     0
174
     0
 93
        1
 44
0.0
173
     0
291
     1
 45
0.0
1001
ACAD
1000
AcDbSavedByObjectVersion
1070
     0
  0
VISUALSTYLE
  5
33
102
{ACAD_REACTORS
330
2A
102
}
330
2A
100
AcDbVisualStyle
  2
Realistic
 70
     8
 71
     2
 72
     2
 73
     0
 90
        0
 40
-0.6
 41
-30.0
 62
     5
 63
     7
421
 16777215
 74
     1
 91
        0
 64
     7
 65
   257
 75
     1
175
     1
 42
1.0
 92
        8
 66
     8
424
  7895160
 43
1.0
 76
     1
 77
     6
 78
     2
 67
     7
 79
     5
170
     0
171
     0
290
     0
174
     0
 93
       13
 44
0.0
173
     0
291
     0
 45
0.0
1001
ACAD
1000
AcDbSavedByObjectVersion
1070
     0
  0
VISUALSTYLE
  5
37
102
{ACAD_REACTORS
330
2A
102
}
330
2A
100
AcDbVisualStyle
  2
Thicken
 70
    13
 71
     2
 72
     2
 73
     0
 90
        0
 40
-0.6
 41
-30.0
 62
     5
 63
     7
421
 16777215
 74
     1
 91
        4
 64
     7
 65
   257
 75
     1
175
     1
 42
1.0
 92
       12
 66
     7
 43
1.0
 76
     1
 77
     6
 78
     2
 67
     7
 79
     5
170
     0
171
     0
290
     0
174
     0
 93
        1
 44
0.0
173
     0
291
     1
 45
0.0
1001
ACAD
1000
AcDbSavedByObjectVersion
1070
     0
  0
ENDSEC
  0
EOF
