  0
SECTION
  2
HEADER
  9
$ACADVER
  1
AC1018
  9
$ACADMAINTVER
 70
     0
  9
$DWGCODEPAGE
  3
ANSI_932
  9
$INSBASE
 10
0.0
 20
0.0
 30
0.0
  9
$EXTMIN
 10
-210.0
 20
-148.5
 30
0.0
  9
$EXTMAX
 10
210.0
 20
148.5
 30
0.0
  9
$LIMMIN
 10
-210.0
 20
-148.5
  9
$LIMMAX
 10
210.0
 20
148.5
  9
$ORTHOMODE
 70
     0
  9
$REGENMODE
 70
     1
  9
$FILLMODE
 70
     1
  9
$QTEXTMODE
 70
     0
  9
$MIRRTEXT
 70
     1
  9
$LTSCALE
 40
1.0
  9
$ATTMODE
 70
     1
  9
$TEXTSIZE
 40
2.5
  9
$TRACEWID
 40
1.0
  9
$TEXTSTYLE
  7
Standard
  9
$CLAYER
  8
0
  9
$CELTYPE
  6
ByLayer
  9
$CECOLOR
 62
   256
  9
$CELTSCALE
 40
1.0
  9
$DISPSILH
 70
     0
  9
$DIMSCALE
 40
1.0
  9
$DIMASZ
 40
2.5
  9
$DIMEXO
 40
0.625
  9
$DIMDLI
 40
3.75
  9
$DIMRND
 40
0.0
  9
$DIMDLE
 40
0.0
  9
$DIMEXE
 40
1.25
  9
$DIMTP
 40
0.0
  9
$DIMTM
 40
0.0
  9
$DIMTXT
 40
2.5
  9
$DIMCEN
 40
2.5
  9
$DIMTSZ
 40
0.0
  9
$DIMTOL
 70
     0
  9
$DIMLIM
 70
     0
  9
$DIMTIH
 70
     0
  9
$DIMTOH
 70
     0
  9
$DIMSE1
 70
     0
  9
$DIMSE2
 70
     0
  9
$DIMTAD
 70
     1
  9
$DIMZIN
 70
     8
  9
$DIMBLK
  1

  9
$DIMASO
 70
     1
  9
$DIMSHO
 70
     1
  9
$DIMPOST
  1

  9
$DIMAPOST
  1

  9
$DIMALT
 70
     0
  9
$DIMALTD
 70
     3
  9
$DIMALTF
 40
0.03937007874016
  9
$DIMLFAC
 40
1.0
  9
$DIMTOFL
 70
     1
  9
$DIMTVP
 40
0.0
  9
$DIMTIX
 70
     0
  9
$DIMSOXD
 70
     0
  9
$DIMSAH
 70
     0
  9
$DIMBLK1
  1

  9
$DIMBLK2
  1

  9
$DIMSTYLE
  2
ISO-25
  9
$DIMCLRD
 70
     0
  9
$DIMCLRE
 70
     0
  9
$DIMCLRT
 70
     0
  9
$DIMTFAC
 40
1.0
  9
$DIMGAP
 40
0.625
  9
$DIMJUST
 70
     0
  9
$DIMSD1
 70
     0
  9
$DIMSD2
 70
     0
  9
$DIMTOLJ
 70
     0
  9
$DIMTZIN
 70
     8
  9
$DIMALTZ
 70
     0
  9
$DIMALTTZ
 70
     0
  9
$DIMUPT
 70
     0
  9
$DIMDEC
 70
     2
  9
$DIMTDEC
 70
     2
  9
$DIMALTU
 70
     2
  9
$DIMALTTD
 70
     3
  9
$DIMTXSTY
  7
Standard
  9
$DIMAUNIT
 70
     0
  9
$DIMADEC
 70
     0
  9
$DIMALTRND
 40
0.0
  9
$DIMAZIN
 70
     0
  9
$DIMDSEP
 70
    44
  9
$DIMATFIT
 70
     3
  9
$DIMFRAC
 70
     0
  9
$DIMLDRBLK
  1

  9
$DIMLUNIT
 70
     2
  9
$DIMLWD
 70
    -2
  9
$DIMLWE
 70
    -2
  9
$DIMTMOVE
 70
     0
  9
$LUNITS
 70
     2
  9
$LUPREC
 70
     4
  9
$SKETCHINC
 40
1.0
  9
$FILLETRAD
 40
10.0
  9
$AUNITS
 70
     0
  9
$AUPREC
 70
     0
  9
$MENU
  1
.
  9
$ELEVATION
 40
0.0
  9
$PELEVATION
 40
0.0
  9
$THICKNESS
 40
0.0
  9
$LIMCHECK
 70
     0
  9
$CHAMFERA
 40
10.0
  9
$CHAMFERB
 40
10.0
  9
$CHAMFERC
 40
20.0
  9
$CHAMFERD
 40
0.0
  9
$SKPOLY
 70
     0
  9
$TDCREATE
 40
2459003.386668762
  9
$TDUCREATE
 40
2459003.011668762
  9
$TDUPDATE
 40
2459003.386668773
  9
$TDUUPDATE
 40
2459003.011668773
  9
$TDINDWG
 40
0.0000000116
  9
$TDUSRTIMER
 40
0.0000000116
  9
$USRTIMER
 70
     1
  9
$ANGBASE
 50
0.0
  9
$ANGDIR
 70
     0
  9
$PDMODE
 70
     0
  9
$PDSIZE
 40
0.0
  9
$PLINEWID
 40
0.0
  9
$SPLFRAME
 70
     0
  9
$SPLINETYPE
 70
     6
  9
$SPLINESEGS
 70
     8
  9
$HANDSEED
  5
1C0
  9
$SURFTAB1
 70
     6
  9
$SURFTAB2
 70
     6
  9
$SURFTYPE
 70
     6
  9
$SURFU
 70
     6
  9
$SURFV
 70
     6
  9
$UCSBASE
  2

  9
$UCSNAME
  2

  9
$UCSORG
 10
0.0
 20
0.0
 30
0.0
  9
$UCSXDIR
 10
1.0
 20
0.0
 30
0.0
  9
$UCSYDIR
 10
0.0
 20
1.0
 30
0.0
  9
$UCSORTHOREF
  2

  9
$UCSORTHOVIEW
 70
     0
  9
$UCSORGTOP
 10
0.0
 20
0.0
 30
0.0
  9
$UCSORGBOTTOM
 10
0.0
 20
0.0
 30
0.0
  9
$UCSORGLEFT
 10
0.0
 20
0.0
 30
0.0
  9
$UCSORGRIGHT
 10
0.0
 20
0.0
 30
0.0
  9
$UCSORGFRONT
 10
0.0
 20
0.0
 30
0.0
  9
$UCSORGBACK
 10
0.0
 20
0.0
 30
0.0
  9
$PUCSBASE
  2

  9
$PUCSNAME
  2

  9
$PUCSORG
 10
0.0
 20
0.0
 30
0.0
  9
$PUCSXDIR
 10
1.0
 20
0.0
 30
0.0
  9
$PUCSYDIR
 10
0.0
 20
1.0
 30
0.0
  9
$PUCSORTHOREF
  2

  9
$PUCSORTHOVIEW
 70
     0
  9
$PUCSORGTOP
 10
0.0
 20
0.0
 30
0.0
  9
$PUCSORGBOTTOM
 10
0.0
 20
0.0
 30
0.0
  9
$PUCSORGLEFT
 10
0.0
 20
0.0
 30
0.0
  9
$PUCSORGRIGHT
 10
0.0
 20
0.0
 30
0.0
  9
$PUCSORGFRONT
 10
0.0
 20
0.0
 30
0.0
  9
$PUCSORGBACK
 10
0.0
 20
0.0
 30
0.0
  9
$USERI1
 70
     0
  9
$USERI2
 70
     0
  9
$USERI3
 70
     0
  9
$USERI4
 70
     0
  9
$USERI5
 70
     0
  9
$USERR1
 40
0.0
  9
$USERR2
 40
0.0
  9
$USERR3
 40
0.0
  9
$USERR4
 40
0.0
  9
$USERR5
 40
0.0
  9
$WORLDVIEW
 70
     1
  9
$SHADEDGE
 70
     3
  9
$SHADEDIF
 70
    70
  9
$TILEMODE
 70
     1
  9
$MAXACTVP
 70
    64
  9
$PINSBASE
 10
0.0
 20
0.0
 30
0.0
  9
$PLIMCHECK
 70
     0
  9
$PEXTMIN
 10
1.000000000000000E+20
 20
1.000000000000000E+20
 30
1.000000000000000E+20
  9
$PEXTMAX
 10
-1.000000000000000E+20
 20
-1.000000000000000E+20
 30
-1.000000000000000E+20
  9
$PLIMMIN
 10
0.0
 20
0.0
  9
$PLIMMAX
 10
420.0
 20
297.0
  9
$UNITMODE
 70
     0
  9
$VISRETAIN
 70
     1
  9
$PLINEGEN
 70
     0
  9
$PSLTSCALE
 70
     1
  9
$TREEDEPTH
 70
  3020
  9
$CMLSTYLE
  2
Standard
  9
$CMLJUST
 70
     0
  9
$CMLSCALE
 40
20.0
  9
$PROXYGRAPHICS
 70
     1
  9
$MEASUREMENT
 70
     1
  9
$CELWEIGHT
370
    -1
  9
$ENDCAPS
280
     0
  9
$JOINSTYLE
280
     0
  9
$LWDISPLAY
290
     0
  9
$INSUNITS
 70
     4
  9
$HYPERLINKBASE
  1

  9
$STYLESHEET
  1

  9
$XEDIT
290
     1
  9
$CEPSNTYPE
380
     0
  9
$PSTYLEMODE
290
     1
  9
$FINGERPRINTGUID
  2
{EA9B0040-C1FF-4AC2-A278-EC27BE93B545}
  9
$VERSIONGUID
  2
{FAEB1C32-E019-11D5-929B-00C0DF256EC4}
  9
$EXTNAMES
290
     1
  9
$PSVPSCALE
 40
0.0
  9
$OLESTARTUP
290
     0
  9
$SORTENTS
280
   127
  9
$INDEXCTL
280
     0
  9
$HIDETEXT
280
     1
  9
$XCLIPFRAME
290
     0
  9
$HALOGAP
280
     0
  9
$OBSCOLOR
 70
   257
  9
$OBSLTYPE
280
     0
  9
$INTERSECTIONDISPLAY
280
     0
  9
$INTERSECTIONCOLOR
 70
   257
  9
$DIMASSOC
280
     2
  9
$PROJECTNAME
  1

  0
ENDSEC
  0
SECTION
  2
CLASSES
  0
CLASS
  1
ACDBDICTIONARYWDFLT
  2
AcDbDictionaryWithDefault
  3
ObjectDBX Classes
 90
        0
 91
        4
280
     0
281
     0
  0
CLASS
  1
VISUALSTYLE
  2
AcDbVisualStyle
  3
ObjectDBX Classes
 90
     4095
 91
        4
280
     0
281
     0
  0
ENDSEC
  0
SECTION
  2
TABLES
  0
TABLE
  2
VPORT
  5
8
330
0
100
AcDbSymbolTable
 70
     1
  0
VPORT
  5
29
330
8
100
AcDbSymbolTableRecord
100
AcDbViewportTableRecord
  2
*Active
 70
     0
 10
0.0
 20
0.0
 11
1.0
 21
1.0
 12
0.0
 22
0.0
 13
0.0
 23
0.0
 14
10.0
 24
10.0
 15
10.0
 25
10.0
 16
0.0
 26
0.0
 36
1.0
 17
0.0
 27
0.0
 37
0.0
 40
326.7
 41
1.414141414141414
 42
50.0
 43
0.0
 44
0.0
 50
0.0
 51
0.0
 71
     0
 72
 10000
 73
     1
 74
     3
 75
     0
 76
     0
 77
     0
 78
     0
281
     0
 65
     1
110
0.0
120
0.0
130
0.0
111
1.0
121
0.0
131
0.0
112
0.0
122
1.0
132
0.0
 79
     0
146
0.0
  0
ENDTAB
  0
TABLE
  2
LTYPE
  5
5
330
0
100
AcDbSymbolTable
 70
     2
  0
LTYPE
  5
14
330
5
100
AcDbSymbolTableRecord
100
AcDbLinetypeTableRecord
  2
ByBlock
 70
     0
  3

 72
    65
 73
     0
 40
0.0
  0
LTYPE
  5
15
330
5
100
AcDbSymbolTableRecord
100
AcDbLinetypeTableRecord
  2
ByLayer
 70
     0
  3

 72
    65
 73
     0
 40
0.0
  0
LTYPE
  5
16
330
5
100
AcDbSymbolTableRecord
100
AcDbLinetypeTableRecord
  2
Continuous
 70
     0
  3
Solid line
 72
    65
 73
     0
 40
0.0
  0
LTYPE
  5
3C
330
5
100
AcDbSymbolTableRecord
100
AcDbLinetypeTableRecord
  2
JWW_CENTER1
 70
     0
  3
-----  --  ----------  --  -----
 72
    65
 73
     4
 40
6.773333333333333
 49
4.233333333333333
 74
     0
 49
-0.8466666666666667
 74
     0
 49
0.8466666666666667
 74
     0
 49
-0.8466666666666667
 74
     0
  0
ENDTAB
  0
TABLE
  2
LAYER
  5
2
330
0
100
AcDbSymbolTable
 70
     6
  0
LAYER
  5
10
330
2
100
AcDbSymbolTableRecord
100
AcDbLayerTableRecord
  2
0
 70
     0
 62
     7
  6
Continuous
370
    -3
390
F
  0
LAYER
  5
3D
330
2
100
AcDbSymbolTableRecord
100
AcDbLayerTableRecord
  2
0-F
 70
     0
 62
     7
  6
Continuous
370
    -1
390
F
  0
LAYER
  5
3E
330
2
100
AcDbSymbolTableRecord
100
AcDbLayerTableRecord
  2
通り芯
 70
     0
 62
     7
  6
Continuous
370
    -1
390
F
  0
LAYER
  5
3F
330
2
100
AcDbSymbolTableRecord
100
AcDbLayerTableRecord
  2
その他
 70
     0
 62
     7
  6
Continuous
370
    -1
390
F
  0
LAYER
  5
40
330
2
100
AcDbSymbolTableRecord
100
AcDbLayerTableRecord
  2
F-4ﾚｲﾔ
 70
     0
 62
     7
  6
Continuous
370
    -1
390
F
  0
LAYER
  5
41
330
2
100
AcDbSymbolTableRecord
100
AcDbLayerTableRecord
  2
寸法
 70
     0
 62
     7
  6
Continuous
370
    -1
390
F
  0
ENDTAB
  0
TABLE
  2
STYLE
  5
3
330
0
100
AcDbSymbolTable
 70
     2
  0
STYLE
  5
11
330
3
100
AcDbSymbolTableRecord
100
AcDbTextStyleTableRecord
  2
Standard
 70
     0
 40
0.0
 41
1.0
 50
0.0
 71
     0
 42
2.5
  3
txt
  4

1001
ACAD
1000

1071
        0
  0
STYLE
  5
3B
330
3
100
AcDbSymbolTableRecord
100
AcDbTextStyleTableRecord
  2
ＭＳ ゴシック
 70
     0
 40
1.0
 41
1.0
 50
0.0
 71
     0
 42
10.0
  3

  4

1001
ACAD
1000
MS Gothic
1071
    32817
  0
ENDTAB
  0
TABLE
  2
VIEW
  5
6
330
0
100
AcDbSymbolTable
 70
     0
  0
ENDTAB
  0
TABLE
  2
UCS
  5
7
330
0
100
AcDbSymbolTable
 70
     0
  0
ENDTAB
  0
TABLE
  2
APPID
  5
9
330
0
100
AcDbSymbolTable
 70
     1
  0
APPID
  5
12
330
9
100
AcDbSymbolTableRecord
100
AcDbRegAppTableRecord
  2
ACAD
 70
     0
  0
ENDTAB
  0
TABLE
  2
DIMSTYLE
  5
A
330
0
100
AcDbSymbolTable
 70
     1
100
AcDbDimStyleTable
  0
DIMSTYLE
105
27
330
A
100
AcDbSymbolTableRecord
100
AcDbDimStyleTableRecord
  2
ISO-25
 70
     0
 41
2.5
 42
0.625
 43
3.75
 44
1.25
 73
     0
 74
     0
 77
     1
 78
     8
140
2.5
141
2.5
143
0.03937007874016
147
0.625
171
     3
172
     1
271
     2
272
     2
274
     3
278
    44
283
     0
284
     8
340
11
  0
ENDTAB
  0
TABLE
  2
BLOCK_RECORD
  5
1
330
0
100
AcDbSymbolTable
 70
     1
  0
BLOCK_RECORD
  5
1F
330
1
100
AcDbSymbolTableRecord
100
AcDbBlockTableRecord
  2
*Model_Space
340
22
  0
BLOCK_RECORD
  5
1B
330
1
100
AcDbSymbolTableRecord
100
AcDbBlockTableRecord
  2
*Paper_Space
340
1E
  0
BLOCK_RECORD
  5
23
330
1
100
AcDbSymbolTableRecord
100
AcDbBlockTableRecord
  2
*Paper_Space0
340
26
  0
ENDTAB
  0
ENDSEC
  0
SECTION
  2
BLOCKS
  0
BLOCK
  5
20
330
1F
100
AcDbEntity
  8
0
100
AcDbBlockBegin
  2
*Model_Space
 70
     0
 10
0.0
 20
0.0
 30
0.0
  3
*Model_Space
  1

  0
ENDBLK
  5
21
330
1F
100
AcDbEntity
  8
0
100
AcDbBlockEnd
  0
BLOCK
  5
1C
330
1B
100
AcDbEntity
 67
     1
  8
0
100
AcDbBlockBegin
  2
*Paper_Space
 70
     0
 10
0.0
 20
0.0
 30
0.0
  3
*Paper_Space
  1

  0
ENDBLK
  5
1D
330
1B
100
AcDbEntity
 67
     1
  8
0
100
AcDbBlockEnd
  0
BLOCK
  5
24
330
23
100
AcDbEntity
  8
0
100
AcDbBlockBegin
  2
*Paper_Space0
 70
     0
 10
0.0
 20
0.0
 30
0.0
  3
*Paper_Space0
  1

  0
ENDBLK
  5
25
330
23
100
AcDbEntity
  8
0
100
AcDbBlockEnd
  0
ENDSEC
  0
SECTION
  2
ENTITIES
  0
TEXT
  5
42
330
1F
100
AcDbEntity
  8
0-F
  6
Continuous
 62
     7
370
     9
100
AcDbText
 10
64.7061183111612
 20
-62.3863293688395
 30
0.0
 40
2.286
  1
3.5
 41
1.111111111111111
  7
ＭＳ ゴシック
100
AcDbText
  0
TEXT
  5
43
330
1F
100
AcDbEntity
  8
0-F
  6
Continuous
 62
     7
370
     9
100
AcDbText
 10
64.85158273575176
 20
-67.6957808663953
 30
0.0
 40
2.286
  1
3.5
 41
1.111111111111111
  7
ＭＳ ゴシック
100
AcDbText
  0
TEXT
  5
44
330
1F
100
AcDbEntity
  8
0-F
  6
Continuous
 62
     7
370
     9
100
AcDbText
 10
51.32339124882878
 20
-62.45906158113479
 30
0.0
 40
2.286
  1
4.5
 41
1.111111111111111
  7
ＭＳ ゴシック
100
AcDbText
  0
TEXT
  5
45
330
1F
100
AcDbEntity
  8
0-F
  6
Continuous
 62
     7
370
     9
100
AcDbText
 10
51.39612346112408
 20
-67.62304865410002
 30
0.0
 40
2.286
  1
4.5
 41
1.111111111111111
  7
ＭＳ ゴシック
100
AcDbText
  0
TEXT
  5
46
330
1F
100
AcDbEntity
  8
0-F
  6
Continuous
 62
     7
370
     9
100
AcDbText
 10
53.50099991932506
 20
-57.87693220653184
 30
0.0
 40
2.286
  1
4
  7
ＭＳ ゴシック
100
AcDbText
  0
TEXT
  5
47
330
1F
100
AcDbEntity
  8
0-F
  6
Continuous
 62
     7
370
     9
100
AcDbText
 10
53.86466098080148
 20
-72.4961068778841
 30
0.0
 40
2.286
  1
5
  7
ＭＳ ゴシック
100
AcDbText
  0
TEXT
  5
48
330
1F
100
AcDbEntity
  8
0-F
  6
Continuous
 62
     7
370
     9
100
AcDbText
 10
-64.73117352219676
 20
-57.50896028592082
 30
0.0
 40
2.286
  1
50
 41
1.083333333333336
  7
ＭＳ ゴシック
100
AcDbText
  0
TEXT
  5
49
330
1F
100
AcDbEntity
  8
0-F
  6
Continuous
 62
     7
370
     9
100
AcDbText
 10
-64.8381445672235
 20
-62.60452600572535
 30
0.0
 40
2.286
  1
65
 41
1.083333333333336
  7
ＭＳ ゴシック
100
AcDbText
  0
TEXT
  5
4A
330
1F
100
AcDbEntity
  8
0-F
  6
Continuous
 62
     7
370
     9
100
AcDbText
 10
-64.8381445672235
 20
-67.6957808663953
 30
0.0
 40
2.286
  1
80
 41
1.083333333333336
  7
ＭＳ ゴシック
100
AcDbText
  0
TEXT
  5
4B
330
1F
100
AcDbEntity
  8
0-F
  6
Continuous
 62
     7
370
     9
100
AcDbText
 10
-65.99968111476689
 20
-72.64157130247465
 30
0.0
 40
2.286
  1
100
 41
1.111111111111113
  7
ＭＳ ゴシック
100
AcDbText
  0
TEXT
  5
4C
330
1F
100
AcDbEntity
  8
0-F
  6
Continuous
 62
     7
370
     9
100
AcDbText
 10
64.62613959673793
 20
-57.4787202747061
 30
0.0
 40
2.286
  1
3.5
 41
1.111111111111108
  7
ＭＳ ゴシック
100
AcDbText
  0
TEXT
  5
4D
330
1F
100
AcDbEntity
  8
0-F
  6
Continuous
 62
     7
370
     9
100
AcDbText
 10
66.84775677614482
 20
-72.32316233710677
 30
0.0
 40
2.286
  1
5
  7
ＭＳ ゴシック
100
AcDbText
  0
LINE
  5
4E
330
1F
100
AcDbEntity
  8
0-F
  6
Continuous
 62
     7
370
     9
100
AcDbLine
 10
-69.1916219070912
 20
-73.55893199812493
 30
0.0
 11
74.55555489663054
 21
-73.55893199812493
 31
0.0
  0
LINE
  5
4F
330
1F
100
AcDbEntity
  8
0-F
  6
Continuous
 62
     7
370
     9
100
AcDbLine
 10
-69.1916219070912
 20
-68.53393199812493
 30
0.0
 11
74.55555489663054
 21
-68.53393199812493
 31
0.0
  0
LINE
  5
50
330
1F
100
AcDbEntity
  8
0-F
  6
Continuous
 62
     7
370
     9
100
AcDbLine
 10
-69.1916219070912
 20
-63.50893199812492
 30
0.0
 11
74.55555489663054
 21
-63.50893199812492
 31
0.0
  0
LINE
  5
51
330
1F
100
AcDbEntity
  8
0-F
  6
Continuous
 62
     7
370
     9
100
AcDbLine
 10
-69.1916219070912
 20
-58.48393199812492
 30
0.0
 11
74.55555489663054
 21
-58.48393199812492
 31
0.0
  0
LINE
  5
52
330
1F
100
AcDbEntity
  8
0-F
  6
Continuous
 62
     7
370
     9
100
AcDbLine
 10
-69.1916219070912
 20
-53.45893199812492
 30
0.0
 11
74.55555489663054
 21
-53.45893199812492
 31
0.0
  0
TEXT
  5
53
330
1F
100
AcDbEntity
  8
0-F
  6
Continuous
 62
     7
370
     9
100
AcDbText
 10
-21.5825172418417
 20
-88.59015877691314
 30
0.0
 40
2.286
  1
＊dねじ部は管用テーパねじ(JIS B 0203)に準拠しています。
 41
1.160606060606061
  7
ＭＳ ゴシック
100
AcDbText
  0
TEXT
  5
54
330
1F
100
AcDbEntity
  8
0-F
  6
Continuous
 62
     7
370
     9
100
AcDbText
 10
-21.44031395125352
 20
-82.33321399103379
 30
0.0
 40
2.286
  1
＊ａ寸法に合わせて、塩ビ床シートに穴をあけてください。
 41
1.160493827160494
  7
ＭＳ ゴシック
100
AcDbText
  0
TEXT
  5
55
330
1F
100
AcDbEntity
  8
0-F
  6
Continuous
 62
     7
370
     9
100
AcDbText
 10
53.72998717511811
 20
-43.70451769926208
 30
0.0
 40
2.286
  1
単位（ｍｍ）
 41
1.138888888888888
  7
ＭＳ ゴシック
100
AcDbText
  0
TEXT
  5
56
330
1F
100
AcDbEntity
  8
0-F
  6
Continuous
 62
     7
370
     9
100
AcDbText
 10
-70.73268346334162
 20
-42.89565121298148
 30
0.0
 40
2.286
  1
寸法表
 41
1.111111111111112
  7
ＭＳ ゴシック
100
AcDbText
  0
LINE
  5
57
330
1F
100
AcDbEntity
  8
0-F
  6
Continuous
 62
     7
370
     9
100
AcDbLine
 10
-69.1916219070912
 20
-45.85885636387174
 30
0.0
 11
74.55555489663054
 21
-45.85885636387174
 31
0.0
  0
LINE
  5
58
330
1F
100
AcDbEntity
  8
0-F
  6
Continuous
 62
     7
370
     9
100
AcDbLine
 10
-69.1916219070912
 20
-45.85885636387174
 30
0.0
 11
-69.1916219070912
 21
-73.55893199812493
 31
0.0
  0
LINE
  5
59
330
1F
100
AcDbEntity
  8
0-F
  6
Continuous
 62
     7
370
     9
100
AcDbLine
 10
48.25295936079129
 20
-45.85885636387174
 30
0.0
 11
48.25295936079129
 21
-73.55893199812493
 31
0.0
  0
LINE
  5
5A
330
1F
100
AcDbEntity
  8
0-F
  6
Continuous
 62
     7
370
     9
100
AcDbLine
 10
61.15555489663051
 20
-45.85885636387174
 30
0.0
 11
61.15555489663051
 21
-73.55893199812493
 31
0.0
  0
LINE
  5
5B
330
1F
100
AcDbEntity
  8
0-F
  6
Continuous
 62
     7
370
     9
100
AcDbLine
 10
74.55555489663054
 20
-45.85885636387174
 30
0.0
 11
74.55555489663054
 21
-73.55893199812493
 31
0.0
  0
TEXT
  5
5C
330
1F
100
AcDbEntity
  8
0-F
  6
Continuous
 62
     7
370
     9
100
AcDbText
 10
65.95856439871109
 20
-51.31068657344643
 30
0.0
 40
2.286
  1
t2
 41
1.083333333333333
  7
ＭＳ ゴシック
100
AcDbText
  0
TEXT
  5
5D
330
1F
100
AcDbEntity
  8
0-F
  6
Continuous
 62
     7
370
     9
100
AcDbText
 10
52.87961754104044
 20
-51.04606613641795
 30
0.0
 40
2.286
  1
t1
 41
1.083333333333333
  7
ＭＳ ゴシック
100
AcDbText
  0
TEXT
  5
5E
330
1F
100
AcDbEntity
  8
0-F
  6
Continuous
 62
     7
370
     9
100
AcDbText
 10
-66.83659558370233
 20
-51.20240639391059
 30
0.0
 40
2.286
  1
呼称
 41
1.083333333333333
  7
ＭＳ ゴシック
100
AcDbText
  0
LINE
  5
5F
330
1F
100
AcDbEntity
  8
通り芯
  6
Continuous
 62
     7
370
    80
100
AcDbLine
 10
-2.09456937793561
 20
117.4911485891966
 30
0.0
 11
-2.09456937793561
 21
74.72443888003895
 31
0.0
  0
LINE
  5
60
330
1F
100
AcDbEntity
  8
通り芯
  6
Continuous
 62
     7
370
    80
100
AcDbLine
 10
-40.98885496006682
 20
78.80443888003894
 30
0.0
 11
37.00411104227787
 21
78.80443888003894
 31
0.0
  0
ARC
  5
61
330
1F
100
AcDbEntity
  8
通り芯
  6
Continuous
 62
     7
370
    80
100
AcDbCircle
 10
-2.09456937793561
 20
78.80443888003894
 30
0.0
 40
35.0
100
AcDbArc
 50
0.0
 51
179.9999997943196
  0
ARC
  5
62
330
1F
100
AcDbEntity
  8
通り芯
  6
Continuous
 62
     7
370
    80
100
AcDbCircle
 10
-2.09456937793561
 20
78.80443888003894
 30
0.0
 40
32.16666666666666
100
AcDbArc
 50
0.0
 51
179.9999997943196
  0
ARC
  5
63
330
1F
100
AcDbEntity
  8
通り芯
  6
Continuous
 62
     7
370
    80
100
AcDbCircle
 10
-2.09456937793561
 20
78.80443888003894
 30
0.0
 40
31.66666666666666
100
AcDbArc
 50
0.0
 51
179.9999997943196
  0
ARC
  5
64
330
1F
100
AcDbEntity
  8
通り芯
  6
Continuous
 62
     7
370
    80
100
AcDbCircle
 10
-2.09456937793561
 20
78.80443888003894
 30
0.0
 40
23.25333333333333
100
AcDbArc
 50
0.0
 51
179.9999997943196
  0
ARC
  5
65
330
1F
100
AcDbEntity
  8
通り芯
  6
Continuous
 62
     7
370
    80
100
AcDbCircle
 10
-2.09456937793561
 20
78.80443888003894
 30
0.0
 40
23.16666666666666
100
AcDbArc
 50
0.0
 51
179.9999997943196
  0
ARC
  5
66
330
1F
100
AcDbEntity
  8
通り芯
  6
Continuous
 62
     7
370
    80
100
AcDbCircle
 10
-15.42790271126895
 20
78.80443888003894
 30
0.0
 40
1.0
100
AcDbArc
 50
0.0
 51
179.9999999999996
  0
ARC
  5
67
330
1F
100
AcDbEntity
  8
通り芯
  6
Continuous
 62
     7
370
    80
100
AcDbCircle
 10
11.23876395539773
 20
78.80443888003894
 30
0.0
 40
1.0
100
AcDbArc
 50
359.9999999999993
 51
179.9999999999988
  0
LINE
  5
68
330
1F
100
AcDbEntity
  8
通り芯
  6
JWW_CENTER1
 62
     7
370
     9
100
AcDbLine
 10
-2.09456937793561
 20
117.4911485891966
 30
0.0
 11
-2.09456937793561
 21
75.74550589822206
 31
0.0
  0
LINE
  5
69
330
1F
100
AcDbEntity
  8
通り芯
  6
JWW_CENTER1
 62
     7
370
     9
100
AcDbLine
 10
37.00411104227787
 20
78.80443888003894
 30
0.0
 11
-41.70408597384755
 21
78.80443888003894
 31
0.0
  0
LINE
  5
6A
330
1F
100
AcDbEntity
  8
通り芯
  6
Continuous
 62
     7
370
    80
100
AcDbLine
 10
-33.76123604460227
 20
20.24009300637742
 30
0.0
 11
-2.09456937793561
 21
20.24009300637742
 31
0.0
  0
LINE
  5
6B
330
1F
100
AcDbEntity
  8
通り芯
  6
Continuous
 62
     7
370
    80
100
AcDbLine
 10
-33.76123604460227
 20
20.24009300637742
 30
0.0
 11
-33.76123604460227
 21
20.07342633971075
 31
0.0
  0
LINE
  5
6C
330
1F
100
AcDbEntity
  8
通り芯
  6
Continuous
 62
     7
370
    80
100
AcDbLine
 10
-33.76123604460227
 20
20.07342633971075
 30
0.0
 11
-30.58623604460226
 21
18.24009300637742
 31
0.0
  0
LINE
  5
6D
330
1F
100
AcDbEntity
  8
通り芯
  6
Continuous
 62
     7
370
    80
100
AcDbLine
 10
-27.5695693779356
 20
18.24009300637742
 30
0.0
 11
-30.58623604460226
 21
18.24009300637742
 31
0.0
  0
LINE
  5
6E
330
1F
100
AcDbEntity
  8
通り芯
  6
Continuous
 62
     7
370
    80
100
AcDbLine
 10
-18.31123604460228
 20
13.57342633971075
 30
0.0
 11
-21.09456937793561
 21
13.57342633971075
 31
0.0
  0
LINE
  5
6F
330
1F
100
AcDbEntity
  8
通り芯
  6
Continuous
 62
     7
370
    80
100
AcDbLine
 10
-23.09456937793561
 20
13.57342633971075
 30
0.0
 11
-25.7945693779356
 21
13.57342633971075
 31
0.0
  0
ARC
  5
70
330
1F
100
AcDbEntity
  8
通り芯
  6
Continuous
 62
     7
370
    80
100
AcDbCircle
 10
-25.7945693779356
 20
14.57342633971075
 30
0.0
 40
1.0
100
AcDbArc
 50
181.9555553476406
 51
269.9999996914794
  0
LINE
  5
71
330
1F
100
AcDbEntity
  8
通り芯
  6
Continuous
 62
     7
370
    80
100
AcDbLine
 10
-26.7945693779356
 20
14.54009300637742
 30
0.0
 11
-26.90290271126895
 21
17.59842633971076
 31
0.0
  0
ARC
  5
72
330
1F
100
AcDbEntity
  8
通り芯
  6
Continuous
 62
     7
370
    80
100
AcDbCircle
 10
-27.5695693779356
 20
17.57342633971075
 30
0.0
 40
0.6666666666666666
100
AcDbArc
 50
2.011111108813077
 51
89.99999989715981
  0
LINE
  5
73
330
1F
100
AcDbEntity
  8
通り芯
  6
Continuous
 62
     7
370
    80
100
AcDbLine
 10
-23.42790271126895
 20
14.57342633971075
 30
0.0
 11
-23.42790271126895
 21
13.57342633971075
 31
0.0
  0
LINE
  5
74
330
1F
100
AcDbEntity
  8
通り芯
  6
Continuous
 62
     7
370
    80
100
AcDbLine
 10
-20.76123604460227
 20
13.57342633971075
 30
0.0
 11
-20.76123604460227
 21
14.57342633971075
 31
0.0
  0
LINE
  5
75
330
1F
100
AcDbEntity
  8
通り芯
  6
Continuous
 62
     7
370
    80
100
AcDbLine
 10
-21.2945693779356
 20
14.04009300637742
 30
0.0
 11
-20.09456937793561
 21
15.24009300637742
 31
0.0
  0
LINE
  5
76
330
1F
100
AcDbEntity
  8
通り芯
  6
Continuous
 62
     7
370
    80
100
AcDbLine
 10
-22.89456937793559
 20
14.04009300637742
 30
0.0
 11
-24.09456937793561
 21
15.24009300637742
 31
0.0
  0
LINE
  5
77
330
1F
100
AcDbEntity
  8
通り芯
  6
Continuous
 62
     7
370
    80
100
AcDbLine
 10
-2.09456937793561
 20
15.24009300637742
 30
0.0
 11
-25.31123604460228
 21
15.24009300637742
 31
0.0
  0
LINE
  5
78
330
1F
100
AcDbEntity
  8
通り芯
  6
Continuous
 62
     7
370
    80
100
AcDbLine
 10
-23.09456937793561
 20
14.24009300637742
 30
0.0
 11
-23.09456937793561
 21
10.1067596730441
 31
0.0
  0
LINE
  5
79
330
1F
100
AcDbEntity
  8
通り芯
  6
Continuous
 62
     7
370
    80
100
AcDbLine
 10
-21.09456937793561
 20
14.24009300637742
 30
0.0
 11
-21.09456937793561
 21
10.1067596730441
 31
0.0
  0
LINE
  5
7A
330
1F
100
AcDbEntity
  8
通り芯
  6
Continuous
 62
     7
370
    80
100
AcDbLine
 10
-22.89456937793559
 20
14.04009300637742
 30
0.0
 11
-22.89456937793559
 21
9.906759673044085
 31
0.0
  0
LINE
  5
7B
330
1F
100
AcDbEntity
  8
通り芯
  6
Continuous
 62
     7
370
    80
100
AcDbLine
 10
-21.2945693779356
 20
14.04009300637742
 30
0.0
 11
-21.2945693779356
 21
9.906759673044085
 31
0.0
  0
LINE
  5
7C
330
1F
100
AcDbEntity
  8
通り芯
  6
Continuous
 62
     7
370
    80
100
AcDbLine
 10
-23.09456937793561
 20
14.24009300637742
 30
0.0
 11
-21.09456937793561
 21
14.24009300637742
 31
0.0
  0
LINE
  5
7D
330
1F
100
AcDbEntity
  8
通り芯
  6
Continuous
 62
     7
370
    80
100
AcDbLine
 10
-22.89456937793559
 20
14.04009300637742
 30
0.0
 11
-21.2945693779356
 21
14.04009300637742
 31
0.0
  0
LINE
  5
7E
330
1F
100
AcDbEntity
  8
通り芯
  6
Continuous
 62
     7
370
    80
100
AcDbLine
 10
-32.31956937793561
 20
19.24009300637742
 30
0.0
 11
-37.09456937793561
 21
19.24009300637742
 31
0.0
  0
LINE
  5
7F
330
1F
100
AcDbEntity
  8
通り芯
  6
Continuous
 62
     7
370
    80
100
AcDbLine
 10
-34.26123604460227
 20
19.24009300637742
 30
0.0
 11
-27.58623604460226
 21
15.38175967304409
 31
0.0
  0
LINE
  5
80
330
1F
100
AcDbEntity
  8
通り芯
  6
Continuous
 62
     7
370
    80
100
AcDbLine
 10
-27.58623604460226
 20
15.38175967304409
 30
0.0
 11
-27.46956937793561
 21
13.19009300637742
 31
0.0
  0
LINE
  5
81
330
1F
100
AcDbEntity
  8
通り芯
  6
Continuous
 62
     7
370
    80
100
AcDbLine
 10
-2.09456937793561
 20
12.24842633971075
 30
0.0
 11
-21.2945693779356
 21
12.24842633971075
 31
0.0
  0
LINE
  5
82
330
1F
100
AcDbEntity
  8
通り芯
  6
Continuous
 62
     7
370
    80
100
AcDbLine
 10
-22.89456937793559
 20
12.24842633971075
 30
0.0
 11
-26.46956937793561
 21
12.24842633971075
 31
0.0
  0
ARC
  5
83
330
1F
100
AcDbEntity
  8
通り芯
  6
Continuous
 62
     7
370
    80
100
AcDbCircle
 10
-26.46956937793561
 20
13.24842633971075
 30
0.0
 40
1.0
100
AcDbArc
 50
183.01111090199
 51
269.9999996914794
  0
LINE
  5
84
330
1F
100
AcDbEntity
  8
通り芯
  6
Continuous
 62
     7
370
    80
100
AcDbLine
 10
-27.58623604460226
 20
15.38175967304409
 30
0.0
 11
-26.85290271126894
 21
15.38175967304409
 31
0.0
  0
LINE
  5
85
330
1F
100
AcDbEntity
  8
通り芯
  6
Continuous
 62
     7
370
    80
100
AcDbLine
 10
-22.89456937793559
 20
7.715093006377423
 30
0.0
 11
-22.89456937793559
 21
9.906759673044085
 31
0.0
  0
LINE
  5
86
330
1F
100
AcDbEntity
  8
通り芯
  6
Continuous
 62
     7
370
    80
100
AcDbLine
 10
-21.2945693779356
 20
9.906759673044085
 30
0.0
 11
-21.2945693779356
 21
7.906759673044085
 31
0.0
  0
LINE
  5
87
330
1F
100
AcDbEntity
  8
通り芯
  6
Continuous
 62
     7
370
    80
100
AcDbLine
 10
-18.31123604460228
 20
13.57342633971075
 30
0.0
 11
-2.09456937793561
 21
13.57342633971075
 31
0.0
  0
LINE
  5
88
330
1F
100
AcDbEntity
  8
通り芯
  6
Continuous
 62
     7
370
    80
100
AcDbLine
 10
-37.09456937793561
 20
19.24009300637742
 30
0.0
 11
-37.09456937793561
 21
17.90675967304409
 31
0.0
  0
LINE
  5
89
330
1F
100
AcDbEntity
  8
通り芯
  6
Continuous
 62
     7
370
    80
100
AcDbLine
 10
-36.76123604460227
 20
17.57342633971075
 30
0.0
 11
-35.15290271126895
 21
17.57342633971075
 31
0.0
  0
ARC
  5
8A
330
1F
100
AcDbEntity
  8
通り芯
  6
Continuous
 62
     7
370
    80
100
AcDbCircle
 10
-36.76123604460227
 20
17.90675967304409
 30
0.0
 40
0.3333333333333333
100
AcDbArc
 50
179.9999997943196
 51
269.9999996914794
  0
LINE
  5
8B
330
1F
100
AcDbEntity
  8
通り芯
  6
Continuous
 62
     7
370
    80
100
AcDbLine
 10
-19.59456937793561
 20
7.906759673044085
 30
0.0
 11
-19.59456937793561
 21
12.24842633971075
 31
0.0
  0
LINE
  5
8C
330
1F
100
AcDbEntity
  8
通り芯
  6
Continuous
 62
     7
370
    80
100
AcDbLine
 10
-34.31956937793561
 20
17.34842633971076
 30
0.0
 11
-30.30290271126895
 21
15.03175967304409
 31
0.0
  0
ARC
  5
8D
330
1F
100
AcDbEntity
  8
通り芯
  6
Continuous
 62
     7
370
    80
100
AcDbCircle
 10
-35.15290271126895
 20
15.90675967304409
 30
0.0
 40
1.666666666666667
100
AcDbArc
 50
59.99999993143987
 51
89.99999989715981
  0
LINE
  5
8E
330
1F
100
AcDbEntity
  8
通り芯
  6
Continuous
 62
     7
370
    80
100
AcDbLine
 10
-29.13623604460227
 20
13.13175967304409
 30
0.0
 11
-29.11956937793562
 21
12.78175967304409
 31
0.0
  0
ARC
  5
8F
330
1F
100
AcDbEntity
  8
通り芯
  6
Continuous
 62
     7
370
    80
100
AcDbCircle
 10
-31.46956937793561
 20
13.00675967304409
 30
0.0
 40
2.333333333333333
100
AcDbArc
 50
3.055555552064067
 51
59.99999993143988
  0
LINE
  5
90
330
1F
100
AcDbEntity
  8
通り芯
  6
Continuous
 62
     7
370
    80
100
AcDbLine
 10
-23.31123604460228
 20
-0.7682403269559046
 30
0.0
 11
-20.92790271126895
 21
-0.7682403269559046
 31
0.0
  0
ARC
  5
91
330
1F
100
AcDbEntity
  8
通り芯
  6
Continuous
 62
     7
370
    80
100
AcDbCircle
 10
-23.31123604460228
 20
-0.1015736602892403
 30
0.0
 40
0.6666666666666666
100
AcDbArc
 50
184.9999997886063
 51
269.9999996914794
  0
LINE
  5
92
330
1F
100
AcDbEntity
  8
通り芯
  6
Continuous
 62
     7
370
    80
100
AcDbLine
 10
-23.97790271126894
 20
-0.1599069936225774
 30
0.0
 11
-24.76123604460227
 21
8.748426339710754
 31
0.0
  0
ARC
  5
93
330
1F
100
AcDbEntity
  8
通り芯
  6
Continuous
 62
     7
370
    80
100
AcDbCircle
 10
-26.74456937793562
 20
8.57342633971075
 30
0.0
 40
2.0
100
AcDbArc
 50
4.999999994286657
 51
90.32222211901384
  0
LINE
  5
94
330
1F
100
AcDbEntity
  8
通り芯
  6
Continuous
 62
     7
370
    80
100
AcDbLine
 10
-25.76956937793559
 20
8.856759673044095
 30
0.0
 11
-25.31123604460228
 21
3.57342633971075
 31
0.0
  0
ARC
  5
95
330
1F
100
AcDbEntity
  8
通り芯
  6
Continuous
 62
     7
370
    80
100
AcDbCircle
 10
-27.76123604460227
 20
8.681759673044091
 30
0.0
 40
2.0
100
AcDbArc
 50
4.977777772089827
 51
76.89999991212878
  0
LINE
  5
96
330
1F
100
AcDbEntity
  8
通り芯
  6
Continuous
 62
     7
370
    80
100
AcDbLine
 10
-22.59456937793561
 20
6.240093006377421
 30
0.0
 11
-2.09456937793561
 21
6.240093006377421
 31
0.0
  0
ARC
  5
97
330
1F
100
AcDbEntity
  8
通り芯
  6
Continuous
 62
     7
370
    80
100
AcDbCircle
 10
-22.59456937793561
 20
6.57342633971075
 30
0.0
 40
0.3333333333333333
100
AcDbArc
 50
179.9999997943196
 51
269.9999996914794
  0
LINE
  5
98
330
1F
100
AcDbEntity
  8
通り芯
  6
Continuous
 62
     7
370
    80
100
AcDbLine
 10
-22.92790271126895
 20
7.57342633971075
 30
0.0
 11
-22.92790271126895
 21
6.57342633971075
 31
0.0
  0
LINE
  5
99
330
1F
100
AcDbEntity
  8
通り芯
  6
Continuous
 62
     7
370
    80
100
AcDbLine
 10
-22.59456937793561
 20
7.906759673044085
 30
0.0
 11
-2.09456937793561
 21
7.906759673044085
 31
0.0
  0
ARC
  5
9A
330
1F
100
AcDbEntity
  8
通り芯
  6
Continuous
 62
     7
370
    80
100
AcDbCircle
 10
-22.59456937793561
 20
7.57342633971075
 30
0.0
 40
0.3333333333333333
100
AcDbArc
 50
89.99999989715981
 51
179.9999997943196
  0
LINE
  5
9B
330
1F
100
AcDbEntity
  8
通り芯
  6
Continuous
 62
     7
370
    80
100
AcDbLine
 10
-20.92461068958033
 20
-0.7682403269559046
 30
0.0
 11
-20.71289496533555
 21
6.240093006377421
 31
0.0
  0
LINE
  5
9C
330
1F
100
AcDbEntity
  8
通り芯
  6
Continuous
 62
     7
370
    80
100
AcDbLine
 10
-26.77790271126895
 20
10.57342633971075
 30
0.0
 11
-26.75290271126894
 21
10.57342633971075
 31
0.0
  0
ARC
  5
9D
330
1F
100
AcDbEntity
  8
通り芯
  6
Continuous
 62
     7
370
    80
100
AcDbCircle
 10
-26.77790271126895
 20
12.90675967304409
 30
0.0
 40
2.333333333333333
100
AcDbArc
 50
183.0444442352853
 51
256.8999997064484
  0
LINE
  5
9E
330
1F
100
AcDbEntity
  8
通り芯
  6
Continuous
 62
     7
370
    80
100
AcDbLine
 10
-20.21227015687733
 20
6.240093006377421
 30
0.0
 11
-20.41157367562783
 21
-0.2687403296588613
 31
0.0
  0
LINE
  5
9F
330
1F
100
AcDbEntity
  8
通り芯
  6
Continuous
 62
     7
370
    80
100
AcDbLine
 10
-27.30290271126895
 20
10.63175967304409
 30
0.0
 11
-26.74456937793562
 21
10.57342633971075
 31
0.0
  0
LINE
  5
A0
330
1F
100
AcDbEntity
  8
通り芯
  6
Continuous
 62
     7
370
    80
100
AcDbLine
 10
-24.17790271126895
 20
2.565093006377424
 30
0.0
 11
-25.39456937793559
 21
3.565093006377424
 31
0.0
  0
LINE
  5
A1
330
1F
100
AcDbEntity
  8
通り芯
  6
Continuous
 62
     7
370
    80
100
AcDbLine
 10
-20.42790271126895
 20
-0.2682403269559046
 30
0.0
 11
-20.92790271126895
 21
-0.7599069936225789
 31
0.0
  0
LINE
  5
A2
330
1F
100
AcDbEntity
  8
通り芯
  6
Continuous
 62
     7
370
    80
100
AcDbLine
 10
-25.34456937793561
 20
20.24009300637742
 30
0.0
 11
-25.34456937793561
 21
19.14009300637743
 31
0.0
  0
LINE
  5
A3
330
1F
100
AcDbEntity
  8
通り芯
  6
Continuous
 62
     7
370
    80
100
AcDbLine
 10
-25.34456937793561
 20
19.14009300637743
 30
0.0
 11
-24.50290271126894
 21
19.14009300637743
 31
0.0
  0
LINE
  5
A4
330
1F
100
AcDbEntity
  8
通り芯
  6
Continuous
 62
     7
370
    80
100
AcDbLine
 10
-25.1695693779356
 20
19.14009300637743
 30
0.0
 11
-25.1695693779356
 21
16.30675967304409
 31
0.0
  0
LINE
  5
A5
330
1F
100
AcDbEntity
  8
通り芯
  6
Continuous
 62
     7
370
    80
100
AcDbLine
 10
-24.6695693779356
 20
16.30675967304409
 30
0.0
 11
-24.6695693779356
 21
18.64009300637743
 31
0.0
  0
LINE
  5
A6
330
1F
100
AcDbEntity
  8
通り芯
  6
Continuous
 62
     7
370
    80
100
AcDbLine
 10
-24.6695693779356
 20
18.64009300637743
 30
0.0
 11
-25.1695693779356
 21
19.14009300637743
 31
0.0
  0
LINE
  5
A7
330
1F
100
AcDbEntity
  8
通り芯
  6
Continuous
 62
     7
370
    80
100
AcDbLine
 10
-25.31123604460228
 20
16.30675967304409
 30
0.0
 11
-2.09456937793561
 21
16.30675967304409
 31
0.0
  0
ARC
  5
A8
330
1F
100
AcDbEntity
  8
通り芯
  6
Continuous
 62
     7
370
    80
100
AcDbCircle
 10
-23.98623604460229
 20
16.64842633971076
 30
0.0
 40
0.3333333333333333
100
AcDbArc
 50
269.9999996914794
 51
357.9444440354325
  0
LINE
  5
A9
330
1F
100
AcDbEntity
  8
通り芯
  6
Continuous
 62
     7
370
    80
100
AcDbLine
 10
-25.31123604460228
 20
15.24009300637742
 30
0.0
 11
-25.31123604460228
 21
16.30675967304409
 31
0.0
  0
LINE
  5
AA
330
1F
100
AcDbEntity
  8
通り芯
  6
Continuous
 62
     7
370
    80
100
AcDbLine
 10
-22.89456937793559
 20
9.906759673044085
 30
0.0
 11
-21.2945693779356
 21
9.906759673044085
 31
0.0
  0
LINE
  5
AB
330
1F
100
AcDbEntity
  8
通り芯
  6
Continuous
 62
     7
370
    80
100
AcDbLine
 10
-23.09456937793561
 20
10.1067596730441
 30
0.0
 11
-21.09456937793561
 21
10.1067596730441
 31
0.0
  0
LINE
  5
AC
330
1F
100
AcDbEntity
  8
通り芯
  6
Continuous
 62
     7
370
    80
100
AcDbLine
 10
-21.09456937793561
 20
10.1067596730441
 30
0.0
 11
-21.2945693779356
 21
9.906759673044085
 31
0.0
  0
LINE
  5
AD
330
1F
100
AcDbEntity
  8
通り芯
  6
Continuous
 62
     7
370
    80
100
AcDbLine
 10
-23.09456937793561
 20
10.1067596730441
 30
0.0
 11
-22.89456937793559
 21
9.906759673044085
 31
0.0
  0
LINE
  5
AE
330
1F
100
AcDbEntity
  8
通り芯
  6
Continuous
 62
     7
370
    80
100
AcDbLine
 10
-23.09456937793561
 20
9.58175967304409
 30
0.0
 11
-21.09456937793561
 21
9.58175967304409
 31
0.0
  0
LINE
  5
AF
330
1F
100
AcDbEntity
  8
通り芯
  6
Continuous
 62
     7
370
    80
100
AcDbLine
 10
-21.09456937793561
 20
9.58175967304409
 30
0.0
 11
-21.09456937793561
 21
10.1067596730441
 31
0.0
  0
LINE
  5
B0
330
1F
100
AcDbEntity
  8
通り芯
  6
Continuous
 62
     7
370
    80
100
AcDbLine
 10
-23.09456937793561
 20
10.1067596730441
 30
0.0
 11
-23.09456937793561
 21
9.58175967304409
 31
0.0
  0
LINE
  5
B1
330
1F
100
AcDbEntity
  8
通り芯
  6
Continuous
 62
     7
370
    80
100
AcDbLine
 10
-21.09456937793561
 20
9.58175967304409
 30
0.0
 11
-21.2945693779356
 21
9.381759673044087
 31
0.0
  0
LINE
  5
B2
330
1F
100
AcDbEntity
  8
通り芯
  6
Continuous
 62
     7
370
    80
100
AcDbLine
 10
-23.09456937793561
 20
9.58175967304409
 30
0.0
 11
-22.89456937793559
 21
9.381759673044087
 31
0.0
  0
LINE
  5
B3
330
1F
100
AcDbEntity
  8
通り芯
  6
Continuous
 62
     7
370
    80
100
AcDbLine
 10
-25.26123604460227
 20
19.14009300637743
 30
0.0
 11
-25.26123604460227
 21
20.24009300637742
 31
0.0
  0
LINE
  5
B4
330
1F
100
AcDbEntity
  8
通り芯
  6
Continuous
 62
     7
370
    80
100
AcDbLine
 10
-24.50290271126894
 20
19.14009300637743
 30
0.0
 11
-24.50290271126894
 21
18.14009300637743
 31
0.0
  0
LINE
  5
B5
330
1F
100
AcDbEntity
  8
通り芯
  6
Continuous
 62
     7
370
    80
100
AcDbLine
 10
-24.50290271126894
 20
18.14009300637743
 30
0.0
 11
-25.1695693779356
 21
18.14009300637743
 31
0.0
  0
ARC
  5
B6
330
1F
100
AcDbEntity
  8
通り芯
  6
Continuous
 62
     7
370
    80
100
AcDbCircle
 10
-22.9445693779356
 20
17.91509300637742
 30
0.0
 40
0.6666666666666666
100
AcDbArc
 50
89.99999989715981
 51
178.0111109077034
  0
LINE
  5
B7
330
1F
100
AcDbEntity
  8
通り芯
  6
Continuous
 62
     7
370
    80
100
AcDbLine
 10
-23.65290271126895
 20
16.63175967304409
 30
0.0
 11
-23.61123604460229
 21
17.93175967304409
 31
0.0
  0
LINE
  5
B8
330
1F
100
AcDbEntity
  8
通り芯
  6
Continuous
 62
     7
370
    80
100
AcDbLine
 10
-24.6695693779356
 20
16.30675967304409
 30
0.0
 11
-25.1695693779356
 21
16.80675967304409
 31
0.0
  0
LINE
  5
B9
330
1F
100
AcDbEntity
  8
通り芯
  6
Continuous
 62
     7
370
    80
100
AcDbLine
 10
29.57209728873105
 20
20.24009300637742
 30
0.0
 11
-2.09456937793561
 21
20.24009300637742
 31
0.0
  0
LINE
  5
BA
330
1F
100
AcDbEntity
  8
通り芯
  6
Continuous
 62
     7
370
    80
100
AcDbLine
 10
29.57209728873105
 20
20.24009300637742
 30
0.0
 11
29.57209728873105
 21
20.07342633971075
 31
0.0
  0
LINE
  5
BB
330
1F
100
AcDbEntity
  8
通り芯
  6
Continuous
 62
     7
370
    80
100
AcDbLine
 10
29.57209728873105
 20
20.07342633971075
 30
0.0
 11
26.39709728873104
 21
18.24009300637742
 31
0.0
  0
LINE
  5
BC
330
1F
100
AcDbEntity
  8
通り芯
  6
Continuous
 62
     7
370
    80
100
AcDbLine
 10
23.38043062206438
 20
18.24009300637742
 30
0.0
 11
26.39709728873104
 21
18.24009300637742
 31
0.0
  0
LINE
  5
BD
330
1F
100
AcDbEntity
  8
通り芯
  6
Continuous
 62
     7
370
    80
100
AcDbLine
 10
14.12209728873106
 20
13.57342633971075
 30
0.0
 11
16.90543062206439
 21
13.57342633971075
 31
0.0
  0
LINE
  5
BE
330
1F
100
AcDbEntity
  8
通り芯
  6
Continuous
 62
     7
370
    80
100
AcDbLine
 10
18.90543062206439
 20
13.57342633971075
 30
0.0
 11
21.60543062206441
 21
13.57342633971075
 31
0.0
  0
ARC
  5
BF
330
1F
100
AcDbEntity
  8
通り芯
  6
Continuous
 62
     7
370
    80
100
AcDbCircle
 10
21.60543062206441
 20
14.57342633971075
 30
0.0
 40
1.0
100
AcDbArc
 50
269.9999996914794
 51
358.0444440353182
  0
LINE
  5
C0
330
1F
100
AcDbEntity
  8
通り芯
  6
Continuous
 62
     7
370
    80
100
AcDbLine
 10
22.60543062206441
 20
14.54009300637742
 30
0.0
 11
22.7137639553977
 21
17.59842633971076
 31
0.0
  0
ARC
  5
C1
330
1F
100
AcDbEntity
  8
通り芯
  6
Continuous
 62
     7
370
    80
100
AcDbCircle
 10
23.38043062206438
 20
17.57342633971075
 30
0.0
 40
0.6666666666666666
100
AcDbArc
 50
89.99999989715981
 51
177.9888886855065
  0
LINE
  5
C2
330
1F
100
AcDbEntity
  8
通り芯
  6
Continuous
 62
     7
370
    80
100
AcDbLine
 10
19.23876395539773
 20
14.57342633971075
 30
0.0
 11
19.23876395539773
 21
13.57342633971075
 31
0.0
  0
LINE
  5
C3
330
1F
100
AcDbEntity
  8
通り芯
  6
Continuous
 62
     7
370
    80
100
AcDbLine
 10
16.57209728873105
 20
13.57342633971075
 30
0.0
 11
16.57209728873105
 21
14.57342633971075
 31
0.0
  0
LINE
  5
C4
330
1F
100
AcDbEntity
  8
通り芯
  6
Continuous
 62
     7
370
    80
100
AcDbLine
 10
17.10543062206438
 20
14.04009300637742
 30
0.0
 11
15.90543062206439
 21
15.24009300637742
 31
0.0
  0
LINE
  5
C5
330
1F
100
AcDbEntity
  8
通り芯
  6
Continuous
 62
     7
370
    80
100
AcDbLine
 10
18.70543062206437
 20
14.04009300637742
 30
0.0
 11
19.90543062206439
 21
15.24009300637742
 31
0.0
  0
LINE
  5
C6
330
1F
100
AcDbEntity
  8
通り芯
  6
Continuous
 62
     7
370
    80
100
AcDbLine
 10
-2.09456937793561
 20
15.24009300637742
 30
0.0
 11
21.12209728873106
 21
15.24009300637742
 31
0.0
  0
LINE
  5
C7
330
1F
100
AcDbEntity
  8
通り芯
  6
Continuous
 62
     7
370
    80
100
AcDbLine
 10
18.90543062206439
 20
14.24009300637742
 30
0.0
 11
18.90543062206439
 21
10.1067596730441
 31
0.0
  0
LINE
  5
C8
330
1F
100
AcDbEntity
  8
通り芯
  6
Continuous
 62
     7
370
    80
100
AcDbLine
 10
16.90543062206439
 20
14.24009300637742
 30
0.0
 11
16.90543062206439
 21
10.1067596730441
 31
0.0
  0
LINE
  5
C9
330
1F
100
AcDbEntity
  8
通り芯
  6
Continuous
 62
     7
370
    80
100
AcDbLine
 10
18.70543062206437
 20
14.04009300637742
 30
0.0
 11
18.70543062206437
 21
9.906759673044085
 31
0.0
  0
LINE
  5
CA
330
1F
100
AcDbEntity
  8
通り芯
  6
Continuous
 62
     7
370
    80
100
AcDbLine
 10
17.10543062206438
 20
14.04009300637742
 30
0.0
 11
17.10543062206438
 21
9.906759673044085
 31
0.0
  0
LINE
  5
CB
330
1F
100
AcDbEntity
  8
通り芯
  6
Continuous
 62
     7
370
    80
100
AcDbLine
 10
18.90543062206439
 20
14.24009300637742
 30
0.0
 11
16.90543062206439
 21
14.24009300637742
 31
0.0
  0
LINE
  5
CC
330
1F
100
AcDbEntity
  8
通り芯
  6
Continuous
 62
     7
370
    80
100
AcDbLine
 10
18.70543062206437
 20
14.04009300637742
 30
0.0
 11
17.10543062206438
 21
14.04009300637742
 31
0.0
  0
LINE
  5
CD
330
1F
100
AcDbEntity
  8
通り芯
  6
Continuous
 62
     7
370
    80
100
AcDbLine
 10
28.13043062206438
 20
19.24009300637742
 30
0.0
 11
32.90543062206436
 21
19.24009300637742
 31
0.0
  0
LINE
  5
CE
330
1F
100
AcDbEntity
  8
通り芯
  6
Continuous
 62
     7
370
    80
100
AcDbLine
 10
30.07209728873105
 20
19.24009300637742
 30
0.0
 11
23.39709728873104
 21
15.38175967304409
 31
0.0
  0
LINE
  5
CF
330
1F
100
AcDbEntity
  8
通り芯
  6
Continuous
 62
     7
370
    80
100
AcDbLine
 10
23.39709728873104
 20
15.38175967304409
 30
0.0
 11
23.28043062206439
 21
13.19009300637742
 31
0.0
  0
LINE
  5
D0
330
1F
100
AcDbEntity
  8
通り芯
  6
Continuous
 62
     7
370
    80
100
AcDbLine
 10
-2.09456937793561
 20
12.24842633971075
 30
0.0
 11
17.10543062206438
 21
12.24842633971075
 31
0.0
  0
LINE
  5
D1
330
1F
100
AcDbEntity
  8
通り芯
  6
Continuous
 62
     7
370
    80
100
AcDbLine
 10
18.70543062206437
 20
12.24842633971075
 30
0.0
 11
22.28043062206439
 21
12.24842633971075
 31
0.0
  0
ARC
  5
D2
330
1F
100
AcDbEntity
  8
通り芯
  6
Continuous
 62
     7
370
    80
100
AcDbCircle
 10
22.28043062206439
 20
13.24842633971075
 30
0.0
 40
1.0
100
AcDbArc
 50
269.9999996914794
 51
356.9888884809689
  0
LINE
  5
D3
330
1F
100
AcDbEntity
  8
通り芯
  6
Continuous
 62
     7
370
    80
100
AcDbLine
 10
23.39709728873104
 20
15.38175967304409
 30
0.0
 11
22.66376395539772
 21
15.38175967304409
 31
0.0
  0
LINE
  5
D4
330
1F
100
AcDbEntity
  8
通り芯
  6
Continuous
 62
     7
370
    80
100
AcDbLine
 10
18.70543062206437
 20
7.715093006377423
 30
0.0
 11
18.70543062206437
 21
9.906759673044085
 31
0.0
  0
LINE
  5
D5
330
1F
100
AcDbEntity
  8
通り芯
  6
Continuous
 62
     7
370
    80
100
AcDbLine
 10
17.10543062206438
 20
9.906759673044085
 30
0.0
 11
17.10543062206438
 21
7.906759673044085
 31
0.0
  0
LINE
  5
D6
330
1F
100
AcDbEntity
  8
通り芯
  6
Continuous
 62
     7
370
    80
100
AcDbLine
 10
14.12209728873106
 20
13.57342633971075
 30
0.0
 11
-2.09456937793561
 21
13.57342633971075
 31
0.0
  0
LINE
  5
D7
330
1F
100
AcDbEntity
  8
通り芯
  6
Continuous
 62
     7
370
    80
100
AcDbLine
 10
32.90543062206436
 20
19.24009300637742
 30
0.0
 11
32.90543062206436
 21
17.90675967304409
 31
0.0
  0
LINE
  5
D8
330
1F
100
AcDbEntity
  8
通り芯
  6
Continuous
 62
     7
370
    80
100
AcDbLine
 10
32.57209728873104
 20
17.57342633971075
 30
0.0
 11
30.9637639553977
 21
17.57342633971075
 31
0.0
  0
ARC
  5
D9
330
1F
100
AcDbEntity
  8
通り芯
  6
Continuous
 62
     7
370
    80
100
AcDbCircle
 10
32.57209728873104
 20
17.90675967304409
 30
0.0
 40
0.3333333333333333
100
AcDbArc
 50
269.9999996914794
 51
359.9999995886392
  0
LINE
  5
DA
330
1F
100
AcDbEntity
  8
通り芯
  6
Continuous
 62
     7
370
    80
100
AcDbLine
 10
15.40543062206439
 20
7.906759673044085
 30
0.0
 11
15.40543062206439
 21
12.24842633971075
 31
0.0
  0
LINE
  5
DB
330
1F
100
AcDbEntity
  8
通り芯
  6
Continuous
 62
     7
370
    80
100
AcDbLine
 10
30.13043062206438
 20
17.34842633971076
 30
0.0
 11
26.11376395539773
 21
15.03175967304409
 31
0.0
  0
ARC
  5
DC
330
1F
100
AcDbEntity
  8
通り芯
  6
Continuous
 62
     7
370
    80
100
AcDbCircle
 10
30.9637639553977
 20
15.90675967304409
 30
0.0
 40
1.666666666666667
100
AcDbArc
 50
89.99999989715981
 51
119.9999998628797
  0
LINE
  5
DD
330
1F
100
AcDbEntity
  8
通り芯
  6
Continuous
 62
     7
370
    80
100
AcDbLine
 10
24.94709728873105
 20
13.13175967304409
 30
0.0
 11
24.9304306220644
 21
12.78175967304409
 31
0.0
  0
ARC
  5
DE
330
1F
100
AcDbEntity
  8
通り芯
  6
Continuous
 62
     7
370
    80
100
AcDbCircle
 10
27.28043062206439
 20
13.00675967304409
 30
0.0
 40
2.333333333333333
100
AcDbArc
 50
119.9999998628797
 51
176.9444442422556
  0
LINE
  5
DF
330
1F
100
AcDbEntity
  8
通り芯
  6
Continuous
 62
     7
370
    80
100
AcDbLine
 10
19.12209728873106
 20
-0.7682403269559046
 30
0.0
 11
16.73876395539773
 21
-0.7682403269559046
 31
0.0
  0
ARC
  5
E0
330
1F
100
AcDbEntity
  8
通り芯
  6
Continuous
 62
     7
370
    80
100
AcDbCircle
 10
19.12209728873106
 20
-0.1015736602892403
 30
0.0
 40
0.6666666666666666
100
AcDbArc
 50
269.9999996914794
 51
354.9999995943526
  0
LINE
  5
E1
330
1F
100
AcDbEntity
  8
通り芯
  6
Continuous
 62
     7
370
    80
100
AcDbLine
 10
19.78876395539772
 20
-0.1599069936225774
 30
0.0
 11
20.57209728873105
 21
8.748426339710754
 31
0.0
  0
ARC
  5
E2
330
1F
100
AcDbEntity
  8
通り芯
  6
Continuous
 62
     7
370
    80
100
AcDbCircle
 10
22.5554306220644
 20
8.57342633971075
 30
0.0
 40
2.0
100
AcDbArc
 50
89.67777767530579
 51
174.999999800033
  0
LINE
  5
E3
330
1F
100
AcDbEntity
  8
通り芯
  6
Continuous
 62
     7
370
    80
100
AcDbLine
 10
21.58043062206437
 20
8.856759673044095
 30
0.0
 11
21.12209728873106
 21
3.57342633971075
 31
0.0
  0
ARC
  5
E4
330
1F
100
AcDbEntity
  8
通り芯
  6
Continuous
 62
     7
370
    80
100
AcDbCircle
 10
23.57209728873105
 20
8.681759673044091
 30
0.0
 40
2.0
100
AcDbArc
 50
103.0999998821909
 51
175.0222220222298
  0
LINE
  5
E5
330
1F
100
AcDbEntity
  8
通り芯
  6
Continuous
 62
     7
370
    80
100
AcDbLine
 10
18.40543062206439
 20
6.240093006377421
 30
0.0
 11
-2.09456937793561
 21
6.240093006377421
 31
0.0
  0
ARC
  5
E6
330
1F
100
AcDbEntity
  8
通り芯
  6
Continuous
 62
     7
370
    80
100
AcDbCircle
 10
18.40543062206439
 20
6.57342633971075
 30
0.0
 40
0.3333333333333333
100
AcDbArc
 50
269.9999996914794
 51
359.9999995886392
  0
LINE
  5
E7
330
1F
100
AcDbEntity
  8
通り芯
  6
Continuous
 62
     7
370
    80
100
AcDbLine
 10
18.73876395539773
 20
7.57342633971075
 30
0.0
 11
18.73876395539773
 21
6.57342633971075
 31
0.0
  0
LINE
  5
E8
330
1F
100
AcDbEntity
  8
通り芯
  6
Continuous
 62
     7
370
    80
100
AcDbLine
 10
18.40543062206439
 20
7.906759673044085
 30
0.0
 11
-2.09456937793561
 21
7.906759673044085
 31
0.0
  0
ARC
  5
E9
330
1F
100
AcDbEntity
  8
通り芯
  6
Continuous
 62
     7
370
    80
100
AcDbCircle
 10
18.40543062206439
 20
7.57342633971075
 30
0.0
 40
0.3333333333333333
100
AcDbArc
 50
0.0
 51
89.99999989715981
  0
LINE
  5
EA
330
1F
100
AcDbEntity
  8
通り芯
  6
Continuous
 62
     7
370
    80
100
AcDbLine
 10
16.7417355316251
 20
-0.7682403269559046
 30
0.0
 11
16.52442287012642
 21
6.240093006377421
 31
0.0
  0
LINE
  5
EB
330
1F
100
AcDbEntity
  8
通り芯
  6
Continuous
 62
     7
370
    80
100
AcDbLine
 10
22.5887639553977
 20
10.57342633971075
 30
0.0
 11
22.56376395539772
 21
10.57342633971075
 31
0.0
  0
ARC
  5
EC
330
1F
100
AcDbEntity
  8
通り芯
  6
Continuous
 62
     7
370
    80
100
AcDbCircle
 10
22.5887639553977
 20
12.90675967304409
 30
0.0
 40
2.333333333333333
100
AcDbArc
 50
283.0999996765105
 51
356.9555551476737
  0
LINE
  5
ED
330
1F
100
AcDbEntity
  8
通り芯
  6
Continuous
 62
     7
370
    80
100
AcDbLine
 10
16.02313140100611
 20
6.240093006377421
 30
0.0
 11
16.22243491975661
 21
-0.2687403296588613
 31
0.0
  0
LINE
  5
EE
330
1F
100
AcDbEntity
  8
通り芯
  6
Continuous
 62
     7
370
    80
100
AcDbLine
 10
23.11376395539773
 20
10.63175967304409
 30
0.0
 11
22.5554306220644
 21
10.57342633971075
 31
0.0
  0
LINE
  5
EF
330
1F
100
AcDbEntity
  8
通り芯
  6
Continuous
 62
     7
370
    80
100
AcDbLine
 10
19.98876395539773
 20
2.565093006377424
 30
0.0
 11
21.20543062206437
 21
3.565093006377424
 31
0.0
  0
LINE
  5
F0
330
1F
100
AcDbEntity
  8
通り芯
  6
Continuous
 62
     7
370
    80
100
AcDbLine
 10
16.23876395539773
 20
-0.2682403269559046
 30
0.0
 11
16.73876395539773
 21
-0.7599069936225789
 31
0.0
  0
LINE
  5
F1
330
1F
100
AcDbEntity
  8
通り芯
  6
Continuous
 62
     7
370
    80
100
AcDbLine
 10
21.15543062206439
 20
20.24009300637742
 30
0.0
 11
21.15543062206439
 21
19.14009300637743
 31
0.0
  0
LINE
  5
F2
330
1F
100
AcDbEntity
  8
通り芯
  6
Continuous
 62
     7
370
    80
100
AcDbLine
 10
21.15543062206439
 20
19.14009300637743
 30
0.0
 11
20.31376395539772
 21
19.14009300637743
 31
0.0
  0
LINE
  5
F3
330
1F
100
AcDbEntity
  8
通り芯
  6
Continuous
 62
     7
370
    80
100
AcDbLine
 10
20.98043062206441
 20
19.14009300637743
 30
0.0
 11
20.98043062206441
 21
16.30675967304409
 31
0.0
  0
LINE
  5
F4
330
1F
100
AcDbEntity
  8
通り芯
  6
Continuous
 62
     7
370
    80
100
AcDbLine
 10
20.48043062206441
 20
16.30675967304409
 30
0.0
 11
20.48043062206441
 21
18.64009300637743
 31
0.0
  0
LINE
  5
F5
330
1F
100
AcDbEntity
  8
通り芯
  6
Continuous
 62
     7
370
    80
100
AcDbLine
 10
20.48043062206441
 20
18.64009300637743
 30
0.0
 11
20.98043062206441
 21
19.14009300637743
 31
0.0
  0
LINE
  5
F6
330
1F
100
AcDbEntity
  8
通り芯
  6
Continuous
 62
     7
370
    80
100
AcDbLine
 10
21.12209728873106
 20
16.30675967304409
 30
0.0
 11
-2.09456937793561
 21
16.30675967304409
 31
0.0
  0
ARC
  5
F7
330
1F
100
AcDbEntity
  8
通り芯
  6
Continuous
 62
     7
370
    80
100
AcDbCircle
 10
19.79709728873107
 20
16.64842633971076
 30
0.0
 40
0.3333333333333333
100
AcDbArc
 50
182.0555553475263
 51
269.9999996914794
  0
LINE
  5
F8
330
1F
100
AcDbEntity
  8
通り芯
  6
Continuous
 62
     7
370
    80
100
AcDbLine
 10
21.12209728873106
 20
15.24009300637742
 30
0.0
 11
21.12209728873106
 21
16.30675967304409
 31
0.0
  0
LINE
  5
F9
330
1F
100
AcDbEntity
  8
通り芯
  6
Continuous
 62
     7
370
    80
100
AcDbLine
 10
18.70543062206437
 20
9.906759673044085
 30
0.0
 11
17.10543062206438
 21
9.906759673044085
 31
0.0
  0
LINE
  5
FA
330
1F
100
AcDbEntity
  8
通り芯
  6
Continuous
 62
     7
370
    80
100
AcDbLine
 10
18.90543062206439
 20
10.1067596730441
 30
0.0
 11
16.90543062206439
 21
10.1067596730441
 31
0.0
  0
LINE
  5
FB
330
1F
100
AcDbEntity
  8
通り芯
  6
Continuous
 62
     7
370
    80
100
AcDbLine
 10
16.90543062206439
 20
10.1067596730441
 30
0.0
 11
17.10543062206438
 21
9.906759673044085
 31
0.0
  0
LINE
  5
FC
330
1F
100
AcDbEntity
  8
通り芯
  6
Continuous
 62
     7
370
    80
100
AcDbLine
 10
18.90543062206439
 20
10.1067596730441
 30
0.0
 11
18.70543062206437
 21
9.906759673044085
 31
0.0
  0
LINE
  5
FD
330
1F
100
AcDbEntity
  8
通り芯
  6
Continuous
 62
     7
370
    80
100
AcDbLine
 10
18.90543062206439
 20
9.58175967304409
 30
0.0
 11
16.90543062206439
 21
9.58175967304409
 31
0.0
  0
LINE
  5
FE
330
1F
100
AcDbEntity
  8
通り芯
  6
Continuous
 62
     7
370
    80
100
AcDbLine
 10
16.90543062206439
 20
9.58175967304409
 30
0.0
 11
16.90543062206439
 21
10.1067596730441
 31
0.0
  0
LINE
  5
FF
330
1F
100
AcDbEntity
  8
通り芯
  6
Continuous
 62
     7
370
    80
100
AcDbLine
 10
18.90543062206439
 20
10.1067596730441
 30
0.0
 11
18.90543062206439
 21
9.58175967304409
 31
0.0
  0
LINE
  5
100
330
1F
100
AcDbEntity
  8
通り芯
  6
Continuous
 62
     7
370
    80
100
AcDbLine
 10
16.90543062206439
 20
9.58175967304409
 30
0.0
 11
17.10543062206438
 21
9.381759673044087
 31
0.0
  0
LINE
  5
101
330
1F
100
AcDbEntity
  8
通り芯
  6
Continuous
 62
     7
370
    80
100
AcDbLine
 10
18.90543062206439
 20
9.58175967304409
 30
0.0
 11
18.70543062206437
 21
9.381759673044087
 31
0.0
  0
LINE
  5
102
330
1F
100
AcDbEntity
  8
通り芯
  6
Continuous
 62
     7
370
    80
100
AcDbLine
 10
21.07209728873105
 20
19.14009300637743
 30
0.0
 11
21.07209728873105
 21
20.24009300637742
 31
0.0
  0
LINE
  5
103
330
1F
100
AcDbEntity
  8
通り芯
  6
Continuous
 62
     7
370
    80
100
AcDbLine
 10
20.31376395539772
 20
19.14009300637743
 30
0.0
 11
20.31376395539772
 21
18.14009300637743
 31
0.0
  0
LINE
  5
104
330
1F
100
AcDbEntity
  8
通り芯
  6
Continuous
 62
     7
370
    80
100
AcDbLine
 10
20.31376395539772
 20
18.14009300637743
 30
0.0
 11
20.98043062206441
 21
18.14009300637743
 31
0.0
  0
LINE
  5
105
330
1F
100
AcDbEntity
  8
通り芯
  6
Continuous
 62
     7
370
    80
100
AcDbLine
 10
13.77209728873104
 20
18.58175967304409
 30
0.0
 11
18.75543062206438
 21
18.58175967304409
 31
0.0
  0
ARC
  5
106
330
1F
100
AcDbEntity
  8
通り芯
  6
Continuous
 62
     7
370
    80
100
AcDbCircle
 10
18.75543062206438
 20
17.91509300637742
 30
0.0
 40
0.6666666666666666
100
AcDbArc
 50
1.988888886616248
 51
89.99999989715981
  0
LINE
  5
107
330
1F
100
AcDbEntity
  8
通り芯
  6
Continuous
 62
     7
370
    80
100
AcDbLine
 10
19.46376395539773
 20
16.63175967304409
 30
0.0
 11
19.42209728873107
 21
17.93175967304409
 31
0.0
  0
LINE
  5
108
330
1F
100
AcDbEntity
  8
通り芯
  6
Continuous
 62
     7
370
    80
100
AcDbLine
 10
20.48043062206441
 20
16.30675967304409
 30
0.0
 11
20.98043062206441
 21
16.80675967304409
 31
0.0
  0
LINE
  5
109
330
1F
100
AcDbEntity
  8
通り芯
  6
Continuous
 62
     7
370
    80
100
AcDbLine
 10
16.73876395539773
 20
-0.7599069936225789
 30
0.0
 11
-20.92461068958033
 21
-0.7682403269559046
 31
0.0
  0
LINE
  5
10A
330
1F
100
AcDbEntity
  8
通り芯
  6
Continuous
 62
     7
370
    80
100
AcDbLine
 10
-20.42790271126895
 20
-0.2682403269559046
 30
0.0
 11
16.22243491975661
 21
-0.2687403296588613
 31
0.0
  0
LINE
  5
10B
330
1F
100
AcDbEntity
  8
通り芯
  6
Continuous
 62
     7
370
    80
100
AcDbLine
 10
-16.42790271126895
 20
20.24009300637742
 30
0.0
 11
-16.42790271126895
 21
18.48410994223372
 31
0.0
  0
LINE
  5
10C
330
1F
100
AcDbEntity
  8
通り芯
  6
Continuous
 62
     7
370
    80
100
AcDbLine
 10
-14.42790271126895
 20
18.48410994223372
 30
0.0
 11
-14.42790271126895
 21
20.24009300637742
 31
0.0
  0
LINE
  5
10D
330
1F
100
AcDbEntity
  8
通り芯
  6
Continuous
 62
     7
370
    80
100
AcDbLine
 10
-15.42790271126895
 20
17.90675967304409
 30
0.0
 11
-16.42790271126895
 21
18.48410994223372
 31
0.0
  0
LINE
  5
10E
330
1F
100
AcDbEntity
  8
通り芯
  6
Continuous
 62
     7
370
    80
100
AcDbLine
 10
-15.42790271126895
 20
17.90675967304409
 30
0.0
 11
-14.42790271126895
 21
18.48410994223372
 31
0.0
  0
LINE
  5
10F
330
1F
100
AcDbEntity
  8
通り芯
  6
Continuous
 62
     7
370
    80
100
AcDbLine
 10
-14.42790271126895
 20
18.48410994223372
 30
0.0
 11
-16.42790271126895
 21
18.48410994223372
 31
0.0
  0
LINE
  5
110
330
1F
100
AcDbEntity
  8
通り芯
  6
Continuous
 62
     7
370
    80
100
AcDbLine
 10
-15.59456937793561
 20
16.90675967304409
 30
0.0
 11
-15.26123604460227
 21
16.90675967304409
 31
0.0
  0
ARC
  5
111
330
1F
100
AcDbEntity
  8
通り芯
  6
Continuous
 62
     7
370
    80
100
AcDbCircle
 10
-15.59456937793561
 20
18.57342633971075
 30
0.0
 40
1.666666666666667
100
AcDbArc
 50
189.8302280897886
 51
269.9999999999994
  0
ARC
  5
112
330
1F
100
AcDbEntity
  8
通り芯
  6
Continuous
 62
     7
370
    80
100
AcDbCircle
 10
-15.26123604460227
 20
18.57342633971075
 30
0.0
 40
1.666666666666667
100
AcDbArc
 50
269.9999999999994
 51
350.2350461649964
  0
ARC
  5
113
330
1F
100
AcDbEntity
  8
通り芯
  6
Continuous
 62
     7
370
    80
100
AcDbCircle
 10
-17.56520530248141
 20
18.23196762640917
 30
0.0
 40
0.3333333333333333
100
AcDbArc
 50
9.830228089789095
 51
90.03009231840561
  0
ARC
  5
114
330
1F
100
AcDbEntity
  8
通り芯
  6
Continuous
 62
     7
370
    80
100
AcDbCircle
 10
-13.29021239191144
 20
18.23421289579497
 30
0.0
 40
0.3333333333333333
100
AcDbArc
 50
90.03009231840561
 51
170.235046164997
  0
LINE
  5
115
330
1F
100
AcDbEntity
  8
通り芯
  6
Continuous
 62
     7
370
    80
100
AcDbLine
 10
-17.56538037248526
 20
18.56530091376823
 30
0.0
 11
-22.94455924860966
 21
18.56247571477867
 31
0.0
  0
LINE
  5
116
330
1F
100
AcDbEntity
  8
通り芯
  6
Continuous
 62
     7
370
    80
100
AcDbLine
 10
12.23876395539773
 20
20.24009300637742
 30
0.0
 11
12.23876395539773
 21
18.48410994223372
 31
0.0
  0
LINE
  5
117
330
1F
100
AcDbEntity
  8
通り芯
  6
Continuous
 62
     7
370
    80
100
AcDbLine
 10
10.23876395539773
 20
18.48410994223372
 30
0.0
 11
10.23876395539773
 21
20.24009300637742
 31
0.0
  0
LINE
  5
118
330
1F
100
AcDbEntity
  8
通り芯
  6
Continuous
 62
     7
370
    80
100
AcDbLine
 10
11.23876395539773
 20
17.90675967304409
 30
0.0
 11
12.23876395539773
 21
18.48410994223372
 31
0.0
  0
LINE
  5
119
330
1F
100
AcDbEntity
  8
通り芯
  6
Continuous
 62
     7
370
    80
100
AcDbLine
 10
11.23876395539773
 20
17.90675967304409
 30
0.0
 11
10.23876395539773
 21
18.48410994223372
 31
0.0
  0
LINE
  5
11A
330
1F
100
AcDbEntity
  8
通り芯
  6
Continuous
 62
     7
370
    80
100
AcDbLine
 10
10.23876395539773
 20
18.48410994223372
 30
0.0
 11
12.23876395539773
 21
18.48410994223372
 31
0.0
  0
LINE
  5
11B
330
1F
100
AcDbEntity
  8
通り芯
  6
Continuous
 62
     7
370
    80
100
AcDbLine
 10
11.40543062206439
 20
16.90675967304409
 30
0.0
 11
11.07209728873105
 21
16.90675967304409
 31
0.0
  0
ARC
  5
11C
330
1F
100
AcDbEntity
  8
通り芯
  6
Continuous
 62
     7
370
    80
100
AcDbCircle
 10
11.40543062206439
 20
18.57342633971075
 30
0.0
 40
1.666666666666667
100
AcDbArc
 50
269.9999999999994
 51
350.1697719102102
  0
ARC
  5
11D
330
1F
100
AcDbEntity
  8
通り芯
  6
Continuous
 62
     7
370
    80
100
AcDbCircle
 10
11.07209728873105
 20
18.57342633971075
 30
0.0
 40
1.666666666666667
100
AcDbArc
 50
189.7649538350024
 51
269.9999999999994
  0
ARC
  5
11E
330
1F
100
AcDbEntity
  8
通り芯
  6
Continuous
 62
     7
370
    80
100
AcDbCircle
 10
13.37606654661019
 20
18.23196762640917
 30
0.0
 40
0.3333333333333333
100
AcDbArc
 50
89.96990768159401
 51
170.1697719102105
  0
ARC
  5
11F
330
1F
100
AcDbEntity
  8
通り芯
  6
Continuous
 62
     7
370
    80
100
AcDbCircle
 10
9.101073636040187
 20
18.23421289579497
 30
0.0
 40
0.3333333333333333
100
AcDbArc
 50
9.764953835002638
 51
89.96990768159401
  0
LINE
  5
120
330
1F
100
AcDbEntity
  8
通り芯
  6
Continuous
 62
     7
370
    80
100
AcDbLine
 10
13.77209728873104
 20
18.58175967304409
 30
0.0
 11
13.37605801157369
 21
18.58155166922205
 31
0.0
  0
LINE
  5
121
330
1F
100
AcDbEntity
  8
通り芯
  6
Continuous
 62
     7
370
    80
100
AcDbLine
 10
9.101242529410715
 20
18.57930649302344
 30
0.0
 11
-13.29038746191528
 21
18.56754618315404
 31
0.0
  0
LINE
  5
122
330
1F
100
AcDbEntity
  8
通り芯
  6
Continuous
 62
     7
370
    80
100
AcDbLine
 10
-23.64456937793559
 20
15.24009300637742
 30
0.0
 11
-23.64456937793559
 21
16.30675967304409
 31
0.0
  0
LINE
  5
123
330
1F
100
AcDbEntity
  8
通り芯
  6
Continuous
 62
     7
370
    80
100
AcDbLine
 10
19.45543062206437
 20
15.24009300637742
 30
0.0
 11
19.45543062206437
 21
16.30675967304409
 31
0.0
  0
LINE
  5
124
330
1F
100
AcDbEntity
  8
通り芯
  6
Continuous
 62
     7
370
    80
100
AcDbLine
 10
16.23876395539773
 20
-0.7599069936225789
 30
0.0
 11
7.322097288731047
 21
-0.7599069936225789
 31
0.0
  0
TEXT
  5
125
330
1F
100
AcDbEntity
  8
通り芯
  6
Continuous
 62
     7
370
     9
100
AcDbText
 10
7.398312179573599
 20
21.88997085139199
 30
0.0
 40
2.286
  1
t2
 50
90.0
 41
1.083333333333333
  7
ＭＳ ゴシック
100
AcDbText
  0
TEXT
  5
126
330
1F
100
AcDbEntity
  8
通り芯
  6
Continuous
 62
     7
370
     9
100
AcDbText
 10
28.97604734000199
 20
14.1060745767108
 30
0.0
 40
2.286
  1
t1
 50
300.02909184
 41
1.083333333333332
  7
ＭＳ ゴシック
100
AcDbText
  0
LINE
  5
127
330
1F
100
AcDbEntity
  8
通り芯
  6
JWW_CENTER1
 62
     7
370
     9
100
AcDbLine
 10
-2.094569377935624
 20
24.40311434907453
 30
0.0
 11
-2.094569377935624
 21
-4.349762594929651
 31
0.0
  0
LINE
  5
128
330
1F
100
AcDbEntity
  8
その他
  6
Continuous
 62
     7
370
    80
100
AcDbLine
 10
-25.26123604460227
 20
20.74009300637742
 30
0.0
 11
-25.26123604460227
 21
31.24009300637743
 31
0.0
  0
LINE
  5
129
330
1F
100
AcDbEntity
  8
その他
  6
Continuous
 62
     7
370
    80
100
AcDbLine
 10
21.07209728873105
 20
20.74009300637742
 30
0.0
 11
21.07209728873105
 21
31.24009300637743
 31
0.0
  0
LINE
  5
12A
330
1F
100
AcDbEntity
  8
その他
  6
Continuous
 62
     7
370
    80
100
AcDbLine
 10
-25.26123604460227
 20
30.24009300637743
 30
0.0
 11
21.07209728873105
 21
30.24009300637743
 31
0.0
  0
LINE
  5
12B
330
1F
100
AcDbEntity
  8
その他
  6
Continuous
 62
     7
370
    80
100
AcDbLine
 10
-25.26123604460227
 20
30.24009300637743
 30
0.0
 11
-24.26979118322847
 21
30.37061919859746
 31
0.0
  0
LINE
  5
12C
330
1F
100
AcDbEntity
  8
その他
  6
Continuous
 62
     7
370
    80
100
AcDbLine
 10
-25.26123604460227
 20
30.24009300637743
 30
0.0
 11
-24.26979118322847
 21
30.10956681415737
 31
0.0
  0
LINE
  5
12D
330
1F
100
AcDbEntity
  8
その他
  6
Continuous
 62
     7
370
    80
100
AcDbLine
 10
21.07209728873105
 20
30.24009300637743
 30
0.0
 11
20.08065241292545
 21
30.1095669237777
 31
0.0
  0
LINE
  5
12E
330
1F
100
AcDbEntity
  8
その他
  6
Continuous
 62
     7
370
    80
100
AcDbLine
 10
21.07209728873105
 20
30.24009300637743
 30
0.0
 11
20.08065241292545
 21
30.37061908897714
 31
0.0
  0
LINE
  5
12F
330
1F
100
AcDbEntity
  8
その他
  6
Continuous
 62
     7
370
    80
100
AcDbLine
 10
-26.90331335105091
 20
18.09682187527292
 30
0.0
 11
-26.90331335105091
 21
36.24009300637744
 31
0.0
  0
LINE
  5
130
330
1F
100
AcDbEntity
  8
その他
  6
Continuous
 62
     7
370
    80
100
AcDbLine
 10
22.71417459526365
 20
18.09682187766465
 30
0.0
 11
22.71417459526365
 21
36.24009300637744
 31
0.0
  0
LINE
  5
131
330
1F
100
AcDbEntity
  8
その他
  6
Continuous
 62
     7
370
    80
100
AcDbLine
 10
-26.90331335105091
 20
35.24009300637744
 30
0.0
 11
22.71417459526365
 21
35.24009300637744
 31
0.0
  0
LINE
  5
132
330
1F
100
AcDbEntity
  8
その他
  6
Continuous
 62
     7
370
    80
100
AcDbLine
 10
-26.90331335105091
 20
35.24009300637744
 30
0.0
 11
-25.91186848967709
 21
35.37061919859747
 31
0.0
  0
LINE
  5
133
330
1F
100
AcDbEntity
  8
その他
  6
Continuous
 62
     7
370
    80
100
AcDbLine
 10
-26.90331335105091
 20
35.24009300637744
 30
0.0
 11
-25.91186848967709
 21
35.10956681415738
 31
0.0
  0
LINE
  5
134
330
1F
100
AcDbEntity
  8
その他
  6
Continuous
 62
     7
370
    80
100
AcDbLine
 10
22.71417459526365
 20
35.24009300637744
 30
0.0
 11
21.72272971945805
 21
35.10956692377771
 31
0.0
  0
LINE
  5
135
330
1F
100
AcDbEntity
  8
その他
  6
Continuous
 62
     7
370
    80
100
AcDbLine
 10
22.71417459526365
 20
35.24009300637744
 30
0.0
 11
21.72272971945805
 21
35.37061908897715
 31
0.0
  0
LINE
  5
136
330
1F
100
AcDbEntity
  8
その他
  6
Continuous
 62
     7
370
    80
100
AcDbLine
 10
-33.76123604460227
 20
20.74009300637742
 30
0.0
 11
-33.76123604460227
 21
41.24009300637744
 31
0.0
  0
LINE
  5
137
330
1F
100
AcDbEntity
  8
その他
  6
Continuous
 62
     7
370
    80
100
AcDbLine
 10
29.57209728873105
 20
20.74009300637742
 30
0.0
 11
29.57209728873105
 21
41.24009300637744
 31
0.0
  0
LINE
  5
138
330
1F
100
AcDbEntity
  8
その他
  6
Continuous
 62
     7
370
    80
100
AcDbLine
 10
-33.76123604460227
 20
40.24009300637744
 30
0.0
 11
29.57209728873105
 21
40.24009300637744
 31
0.0
  0
LINE
  5
139
330
1F
100
AcDbEntity
  8
その他
  6
Continuous
 62
     7
370
    80
100
AcDbLine
 10
-33.76123604460227
 20
40.24009300637744
 30
0.0
 11
-32.76979118322848
 21
40.37061919859748
 31
0.0
  0
LINE
  5
13A
330
1F
100
AcDbEntity
  8
その他
  6
Continuous
 62
     7
370
    80
100
AcDbLine
 10
-33.76123604460227
 20
40.24009300637744
 30
0.0
 11
-32.76979118322848
 21
40.10956681415738
 31
0.0
  0
LINE
  5
13B
330
1F
100
AcDbEntity
  8
その他
  6
Continuous
 62
     7
370
    80
100
AcDbLine
 10
29.57209728873105
 20
40.24009300637744
 30
0.0
 11
28.58065241292545
 21
40.10956692377772
 31
0.0
  0
LINE
  5
13C
330
1F
100
AcDbEntity
  8
その他
  6
Continuous
 62
     7
370
    80
100
AcDbLine
 10
29.57209728873105
 20
40.24009300637744
 30
0.0
 11
28.58065241292545
 21
40.37061908897715
 31
0.0
  0
LINE
  5
13D
330
1F
100
AcDbEntity
  8
その他
  6
Continuous
 62
     7
370
    80
100
AcDbLine
 10
-37.09456937793561
 20
19.74009300637742
 30
0.0
 11
-37.09456937793561
 21
46.24009300637744
 31
0.0
  0
LINE
  5
13E
330
1F
100
AcDbEntity
  8
その他
  6
Continuous
 62
     7
370
    80
100
AcDbLine
 10
32.90543062206436
 20
19.74009300637742
 30
0.0
 11
32.90543062206436
 21
46.24009300637744
 31
0.0
  0
LINE
  5
13F
330
1F
100
AcDbEntity
  8
その他
  6
Continuous
 62
     7
370
    80
100
AcDbLine
 10
-37.09456937793561
 20
45.24009300637744
 30
0.0
 11
32.90543062206436
 21
45.24009300637744
 31
0.0
  0
LINE
  5
140
330
1F
100
AcDbEntity
  8
その他
  6
Continuous
 62
     7
370
    80
100
AcDbLine
 10
-37.09456937793561
 20
45.24009300637744
 30
0.0
 11
-36.10312451656179
 21
45.37061919859747
 31
0.0
  0
LINE
  5
141
330
1F
100
AcDbEntity
  8
その他
  6
Continuous
 62
     7
370
    80
100
AcDbLine
 10
-37.09456937793561
 20
45.24009300637744
 30
0.0
 11
-36.10312451656179
 21
45.10956681415738
 31
0.0
  0
LINE
  5
142
330
1F
100
AcDbEntity
  8
その他
  6
Continuous
 62
     7
370
    80
100
AcDbLine
 10
32.90543062206436
 20
45.24009300637744
 30
0.0
 11
31.91398574625876
 21
45.10956692377772
 31
0.0
  0
LINE
  5
143
330
1F
100
AcDbEntity
  8
その他
  6
Continuous
 62
     7
370
    80
100
AcDbLine
 10
32.90543062206436
 20
45.24009300637744
 30
0.0
 11
31.91398574625876
 21
45.37061908897715
 31
0.0
  0
LINE
  5
144
330
1F
100
AcDbEntity
  8
その他
  6
Continuous
 62
     7
370
    80
100
AcDbLine
 10
42.90543062206436
 20
19.24009300637742
 30
0.0
 11
42.90543062206436
 21
-0.7682403269559046
 31
0.0
  0
LINE
  5
145
330
1F
100
AcDbEntity
  8
その他
  6
Continuous
 62
     7
370
    80
100
AcDbLine
 10
42.90543062206436
 20
19.24009300637742
 30
0.0
 11
43.03595681428445
 21
18.24864814500361
 31
0.0
  0
LINE
  5
146
330
1F
100
AcDbEntity
  8
その他
  6
Continuous
 62
     7
370
    80
100
AcDbLine
 10
42.90543062206436
 20
19.24009300637742
 30
0.0
 11
42.77490442984433
 21
18.24864814500361
 31
0.0
  0
LINE
  5
147
330
1F
100
AcDbEntity
  8
その他
  6
Continuous
 62
     7
370
    80
100
AcDbLine
 10
42.90543062206436
 20
-0.7682403269559046
 30
0.0
 11
42.77490453946464
 21
0.2232045488496865
 31
0.0
  0
LINE
  5
148
330
1F
100
AcDbEntity
  8
その他
  6
Continuous
 62
     7
370
    80
100
AcDbLine
 10
42.90543062206436
 20
-0.7682403269559046
 30
0.0
 11
43.0359567046641
 21
0.2232045488496865
 31
0.0
  0
LINE
  5
149
330
1F
100
AcDbEntity
  8
その他
  6
Continuous
 62
     7
370
    80
100
AcDbLine
 10
8.322097288731047
 20
18.5788972780861
 30
0.0
 11
8.322097288731047
 21
20.24009300637742
 31
0.0
  0
LINE
  5
14A
330
1F
100
AcDbEntity
  8
その他
  6
Continuous
 62
     7
370
    80
100
AcDbLine
 10
8.322097288731047
 20
20.24009300637742
 30
0.0
 11
8.191571206131332
 21
21.23153788218301
 31
0.0
  0
LINE
  5
14B
330
1F
100
AcDbEntity
  8
その他
  6
Continuous
 62
     7
370
    80
100
AcDbLine
 10
8.322097288731047
 20
20.24009300637742
 30
0.0
 11
8.452623371330763
 21
21.23153788218301
 31
0.0
  0
LINE
  5
14C
330
1F
100
AcDbEntity
  8
その他
  6
Continuous
 62
     7
370
    80
100
AcDbLine
 10
8.322097288731047
 20
18.5788972780861
 30
0.0
 11
8.452623371330763
 21
17.5874524022805
 31
0.0
  0
LINE
  5
14D
330
1F
100
AcDbEntity
  8
その他
  6
Continuous
 62
     7
370
    80
100
AcDbLine
 10
8.322097288731047
 20
18.5788972780861
 30
0.0
 11
8.191571206131332
 21
17.5874524022805
 31
0.0
  0
LINE
  5
14E
330
1F
100
AcDbEntity
  8
その他
  6
Continuous
 62
     7
370
    80
100
AcDbLine
 10
26.43520373677066
 20
17.13786864363377
 30
0.0
 11
27.26784057643332
 21
15.6973889275003
 31
0.0
  0
LINE
  5
14F
330
1F
100
AcDbEntity
  8
その他
  6
Continuous
 62
     7
370
    80
100
AcDbLine
 10
27.26784057643332
 20
15.6973889275003
 30
0.0
 11
27.87700466317839
 21
14.90434471976656
 31
0.0
  0
LINE
  5
150
330
1F
100
AcDbEntity
  8
その他
  6
Continuous
 62
     7
370
    80
100
AcDbLine
 10
27.26784057643332
 20
15.6973889275003
 30
0.0
 11
27.65099315995522
 21
14.77370386334667
 31
0.0
  0
LINE
  5
151
330
1F
100
AcDbEntity
  8
その他
  6
Continuous
 62
     7
370
    80
100
AcDbLine
 10
26.43520373677066
 20
17.13786864363377
 30
0.0
 11
25.8260396500256
 21
17.93091285136751
 31
0.0
  0
LINE
  5
152
330
1F
100
AcDbEntity
  8
その他
  6
Continuous
 62
     7
370
    80
100
AcDbLine
 10
26.43520373677066
 20
17.13786864363377
 30
0.0
 11
26.05205115324876
 21
18.0615537077874
 31
0.0
  0
LINE
  5
153
330
1F
100
AcDbEntity
  8
その他
  6
Continuous
 62
     7
370
    80
100
AcDbLine
 10
-20.92425045405423
 20
-16.37510394701275
 30
0.0
 11
16.73876395539773
 21
-16.37510394701275
 31
0.0
  0
LINE
  5
154
330
1F
100
AcDbEntity
  8
その他
  6
Continuous
 62
     7
370
     9
100
AcDbLine
 10
-19.59456937793561
 20
-11.37369357441993
 30
0.0
 11
15.40543062206439
 21
-11.37369357441993
 31
0.0
  0
TEXT
  5
155
330
1F
100
AcDbEntity
  8
その他
  6
Continuous
 62
     7
370
   211
100
AcDbText
 10
-3.5794384189584
 20
-10.79006620827607
 30
0.0
 40
2.286
  1
Ｄ
  7
ＭＳ ゴシック
100
AcDbText
  0
LINE
  5
156
330
1F
100
AcDbEntity
  8
その他
  6
Continuous
 62
     7
370
    80
100
AcDbLine
 10
16.73876395539773
 20
-16.37510394701275
 30
0.0
 11
16.73876395539773
 21
-3.003543105586246
 31
0.0
  0
LINE
  5
157
330
1F
100
AcDbEntity
  8
その他
  6
Continuous
 62
     7
370
    80
100
AcDbLine
 10
-20.92425045405423
 20
-16.37510394701275
 30
0.0
 11
-20.92425045405423
 21
-3.003543105586246
 31
0.0
  0
LINE
  5
158
330
1F
100
AcDbEntity
  8
その他
  6
Continuous
 62
     7
370
    80
100
AcDbLine
 10
-19.59456937793561
 20
-11.37369357441993
 30
0.0
 11
-19.59456937793561
 21
5.062054772095074
 31
0.0
  0
LINE
  5
159
330
1F
100
AcDbEntity
  8
その他
  6
Continuous
 62
     7
370
    80
100
AcDbLine
 10
15.40543062206439
 20
-11.37369357441993
 30
0.0
 11
15.40543062206439
 21
5.062054772095074
 31
0.0
  0
TEXT
  5
15A
330
1F
100
AcDbEntity
  8
その他
  6
Continuous
 62
     7
370
   211
100
AcDbText
 10
-3.497275491329344
 20
-15.56130613911458
 30
0.0
 40
2.286
  1
ｄ
  7
ＭＳ ゴシック
100
AcDbText
  0
TEXT
  5
15B
330
1F
100
AcDbEntity
  8
その他
  6
Continuous
 62
     7
370
     9
100
AcDbText
 10
-3.315024068084089
 20
30.81111819835559
 30
0.0
 40
2.286
  1
ｂ
  7
ＭＳ ゴシック
100
AcDbText
  0
TEXT
  5
15C
330
1F
100
AcDbEntity
  8
その他
  6
Continuous
 62
     7
370
     9
100
AcDbText
 10
-3.315024068084089
 20
35.74461889925387
 30
0.0
 40
2.286
  1
ａ
  7
ＭＳ ゴシック
100
AcDbText
  0
TEXT
  5
15D
330
1F
100
AcDbEntity
  8
その他
  6
Continuous
 62
     7
370
     9
100
AcDbText
 10
-3.523481844178381
 20
40.74760552551692
 30
0.0
 40
2.286
  1
Ｂ
  7
ＭＳ ゴシック
100
AcDbText
  0
TEXT
  5
15E
330
1F
100
AcDbEntity
  8
その他
  6
Continuous
 62
     7
370
     9
100
AcDbText
 10
-3.662453694907914
 20
45.82007807714471
 30
0.0
 40
2.286
  1
Ａ
  7
ＭＳ ゴシック
100
AcDbText
  0
TEXT
  5
15F
330
1F
100
AcDbEntity
  8
その他
  6
Continuous
 62
     7
370
     9
100
AcDbText
 10
42.27506484152283
 20
7.338815429679048
 30
0.0
 40
2.286
  1
Ｃ
 50
90.0
  7
ＭＳ ゴシック
100
AcDbText
  0
LINE
  5
160
330
1F
100
AcDbEntity
  8
その他
  6
Continuous
 62
     7
370
    80
100
AcDbLine
 10
8.322097288731047
 20
26.91774173831185
 30
0.0
 11
8.322097288731047
 21
20.24009300637742
 31
0.0
  0
LINE
  5
161
330
1F
100
AcDbEntity
  8
その他
  6
Continuous
 62
     7
370
    80
100
AcDbLine
 10
8.322097288731047
 20
14.87484979599171
 30
0.0
 11
8.322097288731047
 21
18.5788972780861
 31
0.0
  0
LINE
  5
162
330
1F
100
AcDbEntity
  8
その他
  6
Continuous
 62
     7
370
    80
100
AcDbLine
 10
24.97087509930649
 20
19.67118881341522
 30
0.0
 11
26.43520373677066
 21
17.13786864363377
 31
0.0
  0
LINE
  5
163
330
1F
100
AcDbEntity
  8
その他
  6
Continuous
 62
     7
370
    80
100
AcDbLine
 10
31.00803406930794
 20
9.226773403110226
 30
0.0
 11
27.26784057643332
 21
15.6973889275003
 31
0.0
  0
LINE
  5
164
330
1F
100
AcDbEntity
  8
その他
  6
Continuous
 62
     7
370
    80
100
AcDbLine
 10
-20.93767799670226
 20
-16.37037937421251
 30
0.0
 11
-19.94623313532847
 21
-16.23985318199248
 31
0.0
  0
LINE
  5
165
330
1F
100
AcDbEntity
  8
その他
  6
Continuous
 62
     7
370
    80
100
AcDbLine
 10
-20.93767799670226
 20
-16.37037937421251
 30
0.0
 11
-19.94623313532847
 21
-16.50090556643257
 31
0.0
  0
LINE
  5
166
330
1F
100
AcDbEntity
  8
その他
  6
Continuous
 62
     7
370
    80
100
AcDbLine
 10
16.77400085660011
 20
-16.37037937421251
 30
0.0
 11
15.78255598079452
 21
-16.50090545681224
 31
0.0
  0
LINE
  5
167
330
1F
100
AcDbEntity
  8
その他
  6
Continuous
 62
     7
370
    80
100
AcDbLine
 10
16.77400085660011
 20
-16.37037937421251
 30
0.0
 11
15.78255598079452
 21
-16.2398532916128
 31
0.0
  0
LINE
  5
168
330
1F
100
AcDbEntity
  8
その他
  6
Continuous
 62
     7
370
    80
100
AcDbLine
 10
15.40859376843872
 20
-11.37319968032439
 30
0.0
 11
14.41714889263312
 21
-11.50372576292412
 31
0.0
  0
LINE
  5
169
330
1F
100
AcDbEntity
  8
その他
  6
Continuous
 62
     7
370
    80
100
AcDbLine
 10
15.40859376843872
 20
-11.37319968032439
 30
0.0
 11
14.41714889263312
 21
-11.24267359772468
 31
0.0
  0
LINE
  5
16A
330
1F
100
AcDbEntity
  8
その他
  6
Continuous
 62
     7
370
    80
100
AcDbLine
 10
-19.60246343263183
 20
-11.37319051493821
 30
0.0
 11
-18.61101857125804
 21
-11.24266432271818
 31
0.0
  0
LINE
  5
16B
330
1F
100
AcDbEntity
  8
その他
  6
Continuous
 62
     7
370
    80
100
AcDbLine
 10
-19.60246343263183
 20
-11.37319051493821
 30
0.0
 11
-18.61101857125804
 21
-11.50371670715827
 31
0.0
  0
LINE
  5
16C
330
1F
100
AcDbEntity
  8
その他
  6
Continuous
 62
     7
370
    80
100
AcDbLine
 10
20.17457716679175
 20
-0.7682403269559046
 30
0.0
 11
43.90543062206436
 21
-0.7682403269559046
 31
0.0
  0
LINE
  5
16D
330
1F
100
AcDbEntity
  8
その他
  6
Continuous
 62
     7
370
    80
100
AcDbLine
 10
33.45349049558655
 20
19.24009300637742
 30
0.0
 11
43.90543062206436
 21
19.24009300637742
 31
0.0
  0
TEXT
  5
16E
330
1F
100
AcDbEntity
  8
F-4ﾚｲﾔ
  6
Continuous
 62
     2
370
     9
100
AcDbText
 10
1.244149388135156
 20
-118.6047317434288
 30
0.0
 40
3.048
  1
シート床用　床上掃除口　　ＣＫＨ
 41
1.1171875
  7
ＭＳ ゴシック
100
AcDbText
  0
TEXT
  5
16F
330
1F
100
AcDbEntity
  8
寸法
  6
Continuous
 62
     7
370
     9
100
AcDbText
 10
-77.12253950348205
 20
48.447050457313
 30
0.0
 40
2.286
  1
蓋
  7
ＭＳ ゴシック
100
AcDbText
  0
TEXT
  5
170
330
1F
100
AcDbEntity
  8
寸法
  6
Continuous
 62
     7
370
     9
100
AcDbText
 10
-68.53209570545883
 20
48.447050457313
 30
0.0
 40
2.286
  1
CAC202
 41
1.138888888888889
  7
ＭＳ ゴシック
100
AcDbText
  0
LINE
  5
171
330
1F
100
AcDbEntity
  8
寸法
  6
Continuous
 62
     7
370
     9
100
AcDbLine
 10
-34.56255589933772
 20
47.85920778741988
 30
0.0
 11
-78.02620558707298
 21
47.85920778741988
 31
0.0
  0
TEXT
  5
172
330
1F
100
AcDbEntity
  8
寸法
  6
Continuous
 62
     7
370
     9
100
AcDbText
 10
-77.26600287607472
 20
37.56946148801083
 30
0.0
 40
2.286
  1
シート押え
 41
1.133333333333333
  7
ＭＳ ゴシック
100
AcDbText
  0
TEXT
  5
173
330
1F
100
AcDbEntity
  8
寸法
  6
Continuous
 62
     7
370
     9
100
AcDbText
 10
-54.40580369027373
 20
37.42310161316013
 30
0.0
 40
2.286
  1
CAC202
 41
1.138888888888889
  7
ＭＳ ゴシック
100
AcDbText
  0
TEXT
  5
174
330
1F
100
AcDbEntity
  8
寸法
  6
Continuous
 62
     7
370
     9
100
AcDbText
 10
-77.94502880329279
 20
44.32891856308098
 30
0.0
 40
2.286
  1
ニッケルめっき
 41
1.142857142857143
  7
ＭＳ ゴシック
100
AcDbText
  0
TEXT
  5
175
330
1F
100
AcDbEntity
  8
寸法
  6
Continuous
 62
     7
370
     9
100
AcDbText
 10
-77.85721492398338
 20
33.20263322133218
 30
0.0
 40
2.286
  1
ニッケルめっき
 41
1.142857142857143
  7
ＭＳ ゴシック
100
AcDbText
  0
TEXT
  5
176
330
1F
100
AcDbEntity
  8
0-F
  6
Continuous
 62
     7
370
     9
100
AcDbText
 10
-40.43483567328543
 20
-67.33211980491885
 30
0.0
 40
2.286
  1
152
 41
1.111111111111111
  7
ＭＳ ゴシック
100
AcDbText
  0
TEXT
  5
177
330
1F
100
AcDbEntity
  8
0-F
  6
Continuous
 62
     7
370
     9
100
AcDbText
 10
-40.28937124869493
 20
-72.71430351476994
 30
0.0
 40
2.286
  1
190
 41
1.111111111111111
  7
ＭＳ ゴシック
100
AcDbText
  0
TEXT
  5
178
330
1F
100
AcDbEntity
  8
0-F
  6
Continuous
 62
     7
370
     9
100
AcDbText
 10
-26.18150091259077
 20
-57.51327114505542
 30
0.0
 40
2.286
  1
83
 41
1.083333333333333
  7
ＭＳ ゴシック
100
AcDbText
  0
TEXT
  5
179
330
1F
100
AcDbEntity
  8
0-F
  6
Continuous
 62
     7
370
     9
100
AcDbText
 10
-26.10876870029552
 20
-62.60452600572535
 30
0.0
 40
2.286
  1
96
 41
1.083333333333333
  7
ＭＳ ゴシック
100
AcDbText
  0
TEXT
  5
17A
330
1F
100
AcDbEntity
  8
0-F
  6
Continuous
 62
     7
370
     9
100
AcDbText
 10
-27.27030524783892
 20
-67.62304865409999
 30
0.0
 40
2.286
  1
110
 41
1.111111111111111
  7
ＭＳ ゴシック
100
AcDbText
  0
TEXT
  5
17B
330
1F
100
AcDbEntity
  8
0-F
  6
Continuous
 62
     7
370
     9
100
AcDbText
 10
-27.05210861095305
 20
-72.71430351476994
 30
0.0
 40
2.286
  1
148
 41
1.111111111111111
  7
ＭＳ ゴシック
100
AcDbText
  0
TEXT
  5
17C
330
1F
100
AcDbEntity
  8
0-F
  6
Continuous
 62
     7
370
     9
100
AcDbText
 10
-12.50784500107728
 20
-57.51327114505542
 30
0.0
 40
2.286
  1
77
 41
1.083333333333333
  7
ＭＳ ゴシック
100
AcDbText
  0
TEXT
  5
17D
330
1F
100
AcDbEntity
  8
0-F
  6
Continuous
 62
     7
370
     9
100
AcDbText
 10
-12.65330942566778
 20
-62.45906158113479
 30
0.0
 40
2.286
  1
88
 41
1.083333333333333
  7
ＭＳ ゴシック
100
AcDbText
  0
TEXT
  5
17E
330
1F
100
AcDbEntity
  8
0-F
  6
Continuous
 62
     7
370
     9
100
AcDbText
 10
-13.59664933632531
 20
-67.76851307869057
 30
0.0
 40
2.286
  1
101
 41
1.111111111111111
  7
ＭＳ ゴシック
100
AcDbText
  0
TEXT
  5
17F
330
1F
100
AcDbEntity
  8
0-F
  6
Continuous
 62
     7
370
     9
100
AcDbText
 10
-13.66938154862067
 20
-72.56883909017937
 30
0.0
 40
2.286
  1
139
 41
1.111111111111111
  7
ＭＳ ゴシック
100
AcDbText
  0
TEXT
  5
180
330
1F
100
AcDbEntity
  8
0-F
  6
Continuous
 62
     7
370
     9
100
AcDbText
 10
1.020346485845767
 20
-57.73146778194127
 30
0.0
 40
2.286
  1
49
 41
1.083333333333333
  7
ＭＳ ゴシック
100
AcDbText
  0
TEXT
  5
181
330
1F
100
AcDbEntity
  8
0-F
  6
Continuous
 62
     7
370
     9
100
AcDbText
 10
0.8748820612552102
 20
-62.3863293688395
 30
0.0
 40
2.286
  1
52
 41
1.083333333333333
  7
ＭＳ ゴシック
100
AcDbText
  0
TEXT
  5
182
330
1F
100
AcDbEntity
  8
0-F
  6
Continuous
 62
     7
370
     9
100
AcDbText
 10
1.020346485845767
 20
-67.62304865410002
 30
0.0
 40
2.286
  1
54
 41
1.083333333333333
  7
ＭＳ ゴシック
100
AcDbText
  0
TEXT
  5
183
330
1F
100
AcDbEntity
  8
0-F
  6
Continuous
 62
     7
370
     9
100
AcDbText
 10
0.8021498489599033
 20
-72.64157130247466
 30
0.0
 40
2.286
  1
60
 41
1.083333333333333
  7
ＭＳ ゴシック
100
AcDbText
  0
TEXT
  5
184
330
1F
100
AcDbEntity
  8
0-F
  6
Continuous
 62
     7
370
     9
100
AcDbText
 10
13.41384224727289
 20
-72.62757458332726
 30
0.0
 40
2.286
  1
105
 41
1.111111111111111
  7
ＭＳ ゴシック
100
AcDbText
  0
TEXT
  5
185
330
1F
100
AcDbEntity
  8
0-F
  6
Continuous
 62
     7
370
     9
100
AcDbText
 10
14.33277867668157
 20
-57.93938319018622
 30
0.0
 40
2.286
  1
50
 41
1.083333333333333
  7
ＭＳ ゴシック
100
AcDbText
  0
TEXT
  5
186
330
1F
100
AcDbEntity
  8
0-F
  6
Continuous
 62
     7
370
     9
100
AcDbText
 10
14.49081805415807
 20
-67.5769801811011
 30
0.0
 40
2.286
  1
72
 41
1.083333333333333
  7
ＭＳ ゴシック
100
AcDbText
  0
TEXT
  5
187
330
1F
100
AcDbEntity
  8
0-F
  6
Continuous
 62
     7
370
     9
100
AcDbText
 10
14.38983545509413
 20
-62.62883282696755
 30
0.0
 40
2.286
  1
60
 41
1.083333333333333
  7
ＭＳ ゴシック
100
AcDbText
  0
TEXT
  5
188
330
1F
100
AcDbEntity
  8
0-F
  6
Continuous
 62
     7
370
     9
100
AcDbText
 10
-40.34273323756683
 20
-62.42686762883966
 30
0.0
 40
2.286
  1
140
 41
1.111111111111111
  7
ＭＳ ゴシック
100
AcDbText
  0
TEXT
  5
189
330
1F
100
AcDbEntity
  8
0-F
  6
Continuous
 62
     7
370
     9
100
AcDbText
 10
-40.24175063850288
 20
-57.4787202747061
 30
0.0
 40
2.286
  1
120
 41
1.111111111111111
  7
ＭＳ ゴシック
100
AcDbText
  0
TEXT
  5
18A
330
1F
100
AcDbEntity
  8
0-F
  6
Continuous
 62
     7
370
     9
100
AcDbText
 10
-52.81389053908504
 20
-62.58564936067528
 30
0.0
 40
2.286
  1
158
 41
1.111111111111111
  7
ＭＳ ゴシック
100
AcDbText
  0
TEXT
  5
18B
330
1F
100
AcDbEntity
  8
0-F
  6
Continuous
 62
     7
370
     9
100
AcDbText
 10
-52.66842611449443
 20
-67.53143979675463
 30
0.0
 40
2.286
  1
171
 41
1.111111111111111
  7
ＭＳ ゴシック
100
AcDbText
  0
TEXT
  5
18C
330
1F
100
AcDbEntity
  8
0-F
  6
Continuous
 62
     7
370
     9
100
AcDbText
 10
-52.68499555623332
 20
-57.38711141736074
 30
0.0
 40
2.286
  1
140
 41
1.111111111111111
  7
ＭＳ ゴシック
100
AcDbText
  0
TEXT
  5
18D
330
1F
100
AcDbEntity
  8
0-F
  6
Continuous
 62
     7
370
     9
100
AcDbText
 10
-52.68499555623332
 20
-72.2315534797614
 30
0.0
 40
2.286
  1
210
 41
1.111111111111111
  7
ＭＳ ゴシック
100
AcDbText
  0
LINE
  5
18E
330
1F
100
AcDbEntity
  8
0-F
  6
Continuous
 62
     7
370
     9
100
AcDbLine
 10
-56.40178416935838
 20
-45.85885636387174
 30
0.0
 11
-56.40178416935838
 21
-73.55893199812493
 31
0.0
  0
LINE
  5
18F
330
1F
100
AcDbEntity
  8
0-F
  6
Continuous
 62
     7
370
     9
100
AcDbLine
 10
-43.73769501486505
 20
-45.85885636387174
 30
0.0
 11
-43.73769501486505
 21
-73.55893199812493
 31
0.0
  0
LINE
  5
190
330
1F
100
AcDbEntity
  8
0-F
  6
Continuous
 62
     7
370
     9
100
AcDbLine
 10
-30.33769501486507
 20
-45.85885636387174
 30
0.0
 11
-30.33769501486507
 21
-73.55893199812493
 31
0.0
  0
LINE
  5
191
330
1F
100
AcDbEntity
  8
0-F
  6
Continuous
 62
     7
370
     9
100
AcDbLine
 10
-16.93769501486498
 20
-45.85885636387174
 30
0.0
 11
-16.93769501486498
 21
-73.55893199812493
 31
0.0
  0
LINE
  5
192
330
1F
100
AcDbEntity
  8
0-F
  6
Continuous
 62
     7
370
     9
100
AcDbLine
 10
-3.537695014865005
 20
-45.85885636387174
 30
0.0
 11
-3.537695014865005
 21
-73.55893199812493
 31
0.0
  0
LINE
  5
193
330
1F
100
AcDbEntity
  8
0-F
  6
Continuous
 62
     7
370
     9
100
AcDbLine
 10
9.862304985134973
 20
-45.85885636387174
 30
0.0
 11
9.862304985134973
 21
-73.55893199812493
 31
0.0
  0
TEXT
  5
194
330
1F
100
AcDbEntity
  8
0-F
  6
Continuous
 62
     7
370
     9
100
AcDbText
 10
-39.4945720467913
 20
-51.11273941896743
 30
0.0
 40
2.286
  1
Ｂ
  7
ＭＳ ゴシック
100
AcDbText
  0
TEXT
  5
195
330
1F
100
AcDbEntity
  8
0-F
  6
Continuous
 62
     7
370
     9
100
AcDbText
 10
-12.23581166406644
 20
-51.11273941896743
 30
0.0
 40
2.286
  1
ｂ
  7
ＭＳ ゴシック
100
AcDbText
  0
TEXT
  5
196
330
1F
100
AcDbEntity
  8
0-F
  6
Continuous
 62
     7
370
     9
100
AcDbText
 10
-26.00320417048592
 20
-51.06603567549369
 30
0.0
 40
2.286
  1
ａ
  7
ＭＳ ゴシック
100
AcDbText
  0
TEXT
  5
197
330
1F
100
AcDbEntity
  8
0-F
  6
Continuous
 62
     7
370
     9
100
AcDbText
 10
1.06013237865271
 20
-51.16701827455764
 30
0.0
 40
2.286
  1
Ｃ
  7
ＭＳ ゴシック
100
AcDbText
  0
TEXT
  5
198
330
1F
100
AcDbEntity
  8
0-F
  6
Continuous
 62
     7
370
     9
100
AcDbText
 10
14.18787025696622
 20
-51.16701827455764
 30
0.0
 40
2.286
  1
Ｄ
  7
ＭＳ ゴシック
100
AcDbText
  0
TEXT
  5
199
330
1F
100
AcDbEntity
  8
0-F
  6
Continuous
 62
     7
370
     9
100
AcDbText
 10
-51.80047482884755
 20
-51.20046451150841
 30
0.0
 40
2.286
  1
Ａ
  7
ＭＳ ゴシック
100
AcDbText
  0
TEXT
  5
19A
330
1F
100
AcDbEntity
  8
0-F
  6
Continuous
 62
     7
370
     9
100
AcDbText
 10
24.89184857899424
 20
-67.40464198733828
 30
0.0
 40
2.286
  1
RC3
 41
1.111111111111111
  7
ＭＳ ゴシック
100
AcDbText
  0
TEXT
  5
19B
330
1F
100
AcDbEntity
  8
0-F
  6
Continuous
 62
     7
370
     9
100
AcDbText
 10
24.71032037230242
 20
-72.3966676713634
 30
0.0
 40
2.286
  1
RC4
 41
1.111111111111111
  7
ＭＳ ゴシック
100
AcDbText
  0
TEXT
  5
19C
330
1F
100
AcDbEntity
  8
0-F
  6
Continuous
 62
     7
370
     9
100
AcDbText
 10
25.16414088903198
 20
-57.42059061928803
 30
0.0
 40
2.286
  1
Rc2
 41
1.111111111111111
  7
ＭＳ ゴシック
100
AcDbText
  0
TEXT
  5
19D
330
1F
100
AcDbEntity
  8
0-F
  6
Continuous
 62
     7
370
     9
100
AcDbText
 10
30.86107167259247
 20
-72.13697364884035
 30
0.0
 40
2.286
  1
(113.030)
 41
1.148148148148148
  7
ＭＳ ゴシック
100
AcDbText
  0
TEXT
  5
19E
330
1F
100
AcDbEntity
  8
0-F
  6
Continuous
 62
     7
370
     9
100
AcDbText
 10
31.42039634684159
 20
-67.66237625484739
 30
0.0
 40
2.286
  1
(87.884)
 41
1.145833333333333
  7
ＭＳ ゴシック
100
AcDbText
  0
TEXT
  5
19F
330
1F
100
AcDbEntity
  8
0-F
  6
Continuous
 62
     7
370
     9
100
AcDbText
 10
31.42039634684159
 20
-57.37080224866359
 30
0.0
 40
2.286
  1
(59.614)
 41
1.145833333333333
  7
ＭＳ ゴシック
100
AcDbText
  0
TEXT
  5
1A0
330
1F
100
AcDbEntity
  8
0-F
  6
Continuous
 62
     7
370
     9
100
AcDbText
 10
24.14917558160304
 20
-62.29285938205585
 30
0.0
 40
2.286
  1
Rc2
 41
1.111111111111111
  7
ＭＳ ゴシック
100
AcDbText
  0
TEXT
  5
1A1
330
1F
100
AcDbEntity
  8
0-F
  6
Continuous
 62
     6
370
     9
100
AcDbText
 10
29.51869245439458
 20
-62.25149444720602
 30
0.0
 40
1.905
  1
1/2
 41
1.079999999999999
  7
ＭＳ ゴシック
100
AcDbText
  0
LINE
  5
1A2
330
1F
100
AcDbEntity
  8
0-F
  6
Continuous
 62
     7
370
     9
100
AcDbLine
 10
23.25295936079128
 20
-45.85885636387174
 30
0.0
 11
23.25295936079128
 21
-73.55893199812493
 31
0.0
  0
TEXT
  5
1A3
330
1F
100
AcDbEntity
  8
0-F
  6
Continuous
 62
     7
370
     9
100
AcDbText
 10
28.68199501086389
 20
-50.93511160602502
 30
0.0
 40
2.286
  1
ねじ径ｄ
 41
1.124999999999998
  7
ＭＳ ゴシック
100
AcDbText
  0
TEXT
  5
1A4
330
1F
100
AcDbEntity
  8
0-F
  6
Continuous
 62
     7
370
     9
100
AcDbText
 10
33.88142491353771
 20
-62.29285938205585
 30
0.0
 40
2.286
  1
(75.184)
 41
1.145833333333333
  7
ＭＳ ゴシック
100
AcDbText
  0
LINE
  5
1A5
330
1F
100
AcDbEntity
  8
寸法
  6
Continuous
 62
     7
370
     9
100
AcDbLine
 10
-40.30029129798315
 20
36.73585729876655
 30
0.0
 11
-30.77645734328367
 21
20.24009300637742
 31
0.0
  0
LINE
  5
1A6
330
1F
100
AcDbEntity
  8
寸法
  6
Continuous
 62
     7
370
     9
100
AcDbLine
 10
-40.30029129798315
 20
36.73585729876655
 30
0.0
 11
-77.95575026530148
 21
36.73585729876655
 31
0.0
  0
LINE
  5
1A7
330
1F
100
AcDbEntity
  8
寸法
  6
Continuous
 62
     7
370
     9
100
AcDbLine
 10
-30.77645734328367
 20
20.24009300637742
 30
0.0
 11
-31.8371175150635
 21
21.30075317815724
 31
0.0
  0
LINE
  5
1A8
330
1F
100
AcDbEntity
  8
寸法
  6
Continuous
 62
     7
370
     9
100
AcDbLine
 10
-30.77645734328367
 20
20.24009300637742
 30
0.0
 11
-31.16468591093745
 21
21.68898174581102
 31
0.0
  0
TEXT
  5
1A9
330
1F
100
AcDbEntity
  8
寸法
  6
Continuous
 62
     7
370
     9
100
AcDbText
 10
-51.19386672250793
 20
5.685786298910099
 30
0.0
 40
2.286
  1
パッキン
 41
1.125
  7
ＭＳ ゴシック
100
AcDbText
  0
LINE
  5
1AA
330
1F
100
AcDbEntity
  8
寸法
  6
Continuous
 62
     7
370
     9
100
AcDbLine
 10
-30.56848160565479
 20
5.080612345497465
 30
0.0
 11
-53.38065756191099
 21
5.080612345497465
 31
0.0
  0
TEXT
  5
1AB
330
1F
100
AcDbEntity
  8
寸法
  6
Continuous
 62
     7
370
     9
100
AcDbText
 10
-51.78421389107437
 20
1.914963466126456
 30
0.0
 40
2.286
  1
クロロプレン
 41
1.138888888888889
  7
ＭＳ ゴシック
100
AcDbText
  0
LINE
  5
1AC
330
1F
100
AcDbEntity
  8
寸法
  6
Continuous
 62
     7
370
     9
100
AcDbLine
 10
-30.56848160565479
 20
5.080612345497465
 30
0.0
 11
-24.70290271126894
 21
15.24009300637742
 31
0.0
  0
LINE
  5
1AD
330
1F
100
AcDbEntity
  8
寸法
  6
Continuous
 62
     7
370
     9
100
AcDbLine
 10
-24.70290271126894
 20
15.24009300637742
 30
0.0
 11
-25.09113127892272
 21
13.79120426694382
 31
0.0
  0
LINE
  5
1AE
330
1F
100
AcDbEntity
  8
寸法
  6
Continuous
 62
     7
370
     9
100
AcDbLine
 10
-24.70290271126894
 20
15.24009300637742
 30
0.0
 11
-25.76356288304877
 21
14.1794328345976
 31
0.0
  0
TEXT
  5
1AF
330
1F
100
AcDbEntity
  8
寸法
  6
Continuous
 62
     7
370
     9
100
AcDbText
 10
-65.82087302288002
 20
-10.65293245714241
 30
0.0
 40
2.286
  1
SUS304
 41
1.138888888888889
  7
ＭＳ ゴシック
100
AcDbText
  0
TEXT
  5
1B0
330
1F
100
AcDbEntity
  8
寸法
  6
Continuous
 62
     7
370
     9
100
AcDbText
 10
-65.92021380113476
 20
-6.281938213933461
 30
0.0
 40
2.286
  1
十字穴付皿小ねじ
 41
1.145833333333333
  7
ＭＳ ゴシック
100
AcDbText
  0
LINE
  5
1B1
330
1F
100
AcDbEntity
  8
寸法
  6
Continuous
 62
     7
370
     9
100
AcDbLine
 10
-68.30439247924875
 20
-6.983258443246044
 30
0.0
 11
-33.47974185108852
 21
-6.983258443246044
 31
0.0
  0
LINE
  5
1B2
330
1F
100
AcDbEntity
  8
寸法
  6
Continuous
 62
     7
370
     9
100
AcDbLine
 10
-33.47974185108852
 20
-6.983258443246044
 30
0.0
 11
-23.09456937793561
 21
11.00438792562053
 31
0.0
  0
LINE
  5
1B3
330
1F
100
AcDbEntity
  8
寸法
  6
Continuous
 62
     7
370
     9
100
AcDbLine
 10
-23.09456937793561
 20
11.00438792562053
 30
0.0
 11
-23.48279794558939
 21
9.555499186186925
 31
0.0
  0
LINE
  5
1B4
330
1F
100
AcDbEntity
  8
寸法
  6
Continuous
 62
     7
370
     9
100
AcDbLine
 10
-23.09456937793561
 20
11.00438792562053
 30
0.0
 11
-24.15522954971543
 21
9.943727753840706
 31
0.0
  0
LINE
  5
1B5
330
1F
100
AcDbEntity
  8
寸法
  6
Continuous
 62
     7
370
     9
100
AcDbLine
 10
-24.07663427740672
 20
1.202707760020032
 30
0.0
 11
-24.4648628450605
 21
-0.2461809794135708
 31
0.0
  0
LINE
  5
1B6
330
1F
100
AcDbEntity
  8
寸法
  6
Continuous
 62
     7
370
     9
100
AcDbLine
 10
-24.07663427740672
 20
1.202707760020032
 30
0.0
 11
-25.13729444918654
 21
0.1420475882402104
 31
0.0
  0
LINE
  5
1B7
330
1F
100
AcDbEntity
  8
寸法
  6
Continuous
 62
     7
370
     9
100
AcDbLine
 10
-34.56255589933772
 20
47.85920778741988
 30
0.0
 11
-18.61665254572369
 21
20.24009300637742
 31
0.0
  0
LINE
  5
1B8
330
1F
100
AcDbEntity
  8
寸法
  6
Continuous
 62
     7
370
     9
100
AcDbLine
 10
-18.61665254572369
 20
20.24009300637742
 30
0.0
 11
-19.67731271750351
 21
21.30075317815724
 31
0.0
  0
LINE
  5
1B9
330
1F
100
AcDbEntity
  8
寸法
  6
Continuous
 62
     7
370
     9
100
AcDbLine
 10
-18.61665254572369
 20
20.24009300637742
 30
0.0
 11
-19.00488111337746
 21
21.68898174581102
 31
0.0
  0
TEXT
  5
1BA
330
1F
100
AcDbEntity
  8
寸法
  6
Continuous
 62
     7
370
     9
100
AcDbText
 10
-66.78227743817033
 20
-15.82495591570593
 30
0.0
 40
2.286
  1
防水受つば　FC150
 41
1.156862745098039
  7
ＭＳ ゴシック
100
AcDbText
  0
TEXT
  5
1BB
330
1F
100
AcDbEntity
  8
寸法
  6
Continuous
 62
     7
370
     9
100
AcDbText
 10
-66.5994440213824
 20
-19.75587437664628
 30
0.0
 40
2.286
  1
樹脂系塗装
 41
1.133333333333332
  7
ＭＳ ゴシック
100
AcDbText
  0
LINE
  5
1BC
330
1F
100
AcDbEntity
  8
寸法
  6
Continuous
 62
     7
370
     9
100
AcDbLine
 10
-34.24667672332223
 20
-16.41232247143769
 30
0.0
 11
-24.07663427740672
 21
1.202707760020032
 31
0.0
  0
LINE
  5
1BD
330
1F
100
AcDbEntity
  8
寸法
  6
Continuous
 62
     7
370
     9
100
AcDbLine
 10
-68.30439247924875
 20
-16.41232247143769
 30
0.0
 11
-34.24667672332223
 21
-16.41232247143769
 31
0.0
  0
ENDSEC
  0
SECTION
  2
OBJECTS
  0
DICTIONARY
  5
C
330
0
100
AcDbDictionary
281
     1
  3
ACAD_GROUP
350
D
  3
ACAD_LAYOUT
350
1A
  3
ACAD_MLEADERSTYLE
350
1BF
  3
ACAD_MLINESTYLE
350
17
  3
ACAD_PLOTSETTINGS
350
19
  3
ACAD_PLOTSTYLENAME
350
E
  3
ACAD_TABLESTYLE
350
1BE
  3
ACAD_VISUALSTYLE
350
2A
  0
DICTIONARY
  5
D
102
{ACAD_REACTORS
330
C
102
}
330
C
100
AcDbDictionary
281
     1
  0
DICTIONARY
  5
1A
102
{ACAD_REACTORS
330
C
102
}
330
C
100
AcDbDictionary
281
     1
  3
Layout1
350
1E
  3
Layout2
350
26
  3
Model
350
22
  0
DICTIONARY
  5
1BF
102
{ACAD_REACTORS
330
C
102
}
330
C
100
AcDbDictionary
281
     1
  0
DICTIONARY
  5
17
102
{ACAD_REACTORS
330
C
102
}
330
C
100
AcDbDictionary
281
     1
  3
Standard
350
18
  0
DICTIONARY
  5
19
102
{ACAD_REACTORS
330
C
102
}
330
C
100
AcDbDictionary
281
     1
  0
ACDBDICTIONARYWDFLT
  5
E
102
{ACAD_REACTORS
330
C
102
}
330
C
100
AcDbDictionary
281
     1
  3
Normal
350
F
100
AcDbDictionaryWithDefault
340
F
  0
DICTIONARY
  5
1BE
102
{ACAD_REACTORS
330
C
102
}
330
C
100
AcDbDictionary
281
     1
  0
DICTIONARY
  5
2A
102
{ACAD_REACTORS
330
C
102
}
330
C
100
AcDbDictionary
281
     1
  3
2dWireframe
350
2F
  3
3D Hidden
350
31
  3
3dWireframe
350
30
  3
Basic
350
32
  3
Brighten
350
36
  3
ColorChange
350
3A
  3
Conceptual
350
34
  3
Dim
350
35
  3
Facepattern
350
39
  3
Flat
350
2B
  3
FlatWithEdges
350
2C
  3
Gouraud
350
2D
  3
GouraudWithEdges
350
2E
  3
Linepattern
350
38
  3
Realistic
350
33
  3
Thicken
350
37
  0
LAYOUT
  5
1E
102
{ACAD_REACTORS
330
1A
102
}
330
1A
100
AcDbPlotSettings
  1

  2
none_device
  4

  6

 40
0.0
 41
0.0
 42
0.0
 43
0.0
 44
0.0
 45
0.0
 46
0.0
 47
0.0
 48
0.0
 49
0.0
140
0.0
141
0.0
142
1.0
143
1.0
 70
   688
 72
     0
 73
     0
 74
     5
  7

 75
    16
 76
     0
 77
     5
 78
   300
147
1.0
148
0.0
149
0.0
100
AcDbLayout
  1
Layout1
 70
     1
 71
     1
 10
0.0
 20
0.0
 11
420.0
 21
297.0
 12
0.0
 22
0.0
 32
0.0
 14
1.000000000000000E+20
 24
1.000000000000000E+20
 34
1.000000000000000E+20
 15
-1.000000000000000E+20
 25
-1.000000000000000E+20
 35
-1.000000000000000E+20
146
0.0
 13
0.0
 23
0.0
 33
0.0
 16
1.0
 26
0.0
 36
0.0
 17
0.0
 27
1.0
 37
0.0
 76
     0
330
1B
  0
LAYOUT
  5
26
102
{ACAD_REACTORS
330
1A
102
}
330
1A
100
AcDbPlotSettings
  1

  2
none_device
  4

  6

 40
0.0
 41
0.0
 42
0.0
 43
0.0
 44
0.0
 45
0.0
 46
0.0
 47
0.0
 48
0.0
 49
0.0
140
0.0
141
0.0
142
1.0
143
1.0
 70
   688
 72
     0
 73
     0
 74
     5
  7

 75
    16
 76
     0
 77
     5
 78
   300
147
1.0
148
0.0
149
0.0
100
AcDbLayout
  1
Layout2
 70
     1
 71
     2
 10
0.0
 20
0.0
 11
0.0
 21
0.0
 12
0.0
 22
0.0
 32
0.0
 14
0.0
 24
0.0
 34
0.0
 15
0.0
 25
0.0
 35
0.0
146
0.0
 13
0.0
 23
0.0
 33
0.0
 16
1.0
 26
0.0
 36
0.0
 17
0.0
 27
1.0
 37
0.0
 76
     0
330
23
  0
LAYOUT
  5
22
102
{ACAD_REACTORS
330
1A
102
}
330
1A
100
AcDbPlotSettings
  1

  2
none_device
  4

  6

 40
0.0
 41
0.0
 42
0.0
 43
0.0
 44
0.0
 45
0.0
 46
0.0
 47
0.0
 48
0.0
 49
0.0
140
0.0
141
0.0
142
1.0
143
1.0
 70
  1712
 72
     0
 73
     0
 74
     0
  7

 75
     0
 76
     0
 77
     5
 78
   300
147
1.0
148
0.0
149
0.0
100
AcDbLayout
  1
Model
 70
     1
 71
     0
 10
-210.0
 20
-148.5
 11
210.0
 21
148.5
 12
0.0
 22
0.0
 32
0.0
 14
-210.0
 24
-148.5
 34
0.0
 15
210.0
 25
148.5
 35
0.0
146
0.0
 13
0.0
 23
0.0
 33
0.0
 16
1.0
 26
0.0
 36
0.0
 17
0.0
 27
1.0
 37
0.0
 76
     0
330
1F
331
29
  0
MLINESTYLE
  5
18
102
{ACAD_REACTORS
330
17
102
}
330
17
100
AcDbMlineStyle
  2
Standard
 70
     0
  3

 62
   256
 51
90.0
 52
90.0
 71
     2
 49
0.5
 62
   256
  6
BYLAYER
 49
-0.5
 62
   256
  6
BYLAYER
  0
ACDBPLACEHOLDER
  5
F
102
{ACAD_REACTORS
330
E
102
}
330
E
  0
VISUALSTYLE
  5
2F
102
{ACAD_REACTORS
330
2A
102
}
330
2A
100
AcDbVisualStyle
  2
2dWireframe
 70
     4
 71
     0
 72
     2
 73
     0
 90
        0
 40
-0.6
 41
-30.0
 62
     5
 63
     7
421
 16777215
 74
     1
 91
        4
 64
     7
 65
   257
 75
     1
175
     1
 42
1.0
 92
        0
 66
   257
 43
1.0
 76
     1
 77
     6
 78
     2
 67
     7
 79
     5
170
     0
171
     0
290
     0
174
     0
 93
        1
 44
0.0
173
     0
291
     0
 45
0.0
1001
ACAD
1000
AcDbSavedByObjectVersion
1070
     0
  0
VISUALSTYLE
  5
31
102
{ACAD_REACTORS
330
2A
102
}
330
2A
100
AcDbVisualStyle
  2
3D Hidden
 70
     6
 71
     1
 72
     2
 73
     2
 90
        0
 40
-0.6
 41
-30.0
 62
     5
 63
     7
421
 16777215
 74
     2
 91
        2
 64
     7
 65
   257
 75
     2
175
     1
 42
40.0
 92
        0
 66
   257
 43
1.0
 76
     1
 77
     6
 78
     2
 67
     7
 79
     3
170
     0
171
     0
290
     0
174
     0
 93
        1
 44
0.0
173
     0
291
     0
 45
0.0
1001
ACAD
1000
AcDbSavedByObjectVersion
1070
     0
  0
VISUALSTYLE
  5
30
102
{ACAD_REACTORS
330
2A
102
}
330
2A
100
AcDbVisualStyle
  2
3dWireframe
 70
     5
 71
     0
 72
     2
 73
     0
 90
        0
 40
-0.6
 41
-30.0
 62
     5
 63
     7
421
 16777215
 74
     1
 91
        4
 64
     7
 65
   257
 75
     1
175
     1
 42
1.0
 92
        0
 66
   257
 43
1.0
 76
     1
 77
     6
 78
     2
 67
     7
 79
     5
170
     0
171
     0
290
     0
174
     0
 93
        1
 44
0.0
173
     0
291
     0
 45
0.0
1001
ACAD
1000
AcDbSavedByObjectVersion
1070
     0
  0
VISUALSTYLE
  5
32
102
{ACAD_REACTORS
330
2A
102
}
330
2A
100
AcDbVisualStyle
  2
Basic
 70
     7
 71
     1
 72
     0
 73
     1
 90
        0
 40
-0.6
 41
-30.0
 62
     5
 63
     7
421
 16777215
 74
     0
 91
        4
 64
     7
 65
   257
 75
     1
175
     1
 42
1.0
 92
        8
 66
     7
 43
1.0
 76
     1
 77
     6
 78
     2
 67
     7
 79
     5
170
     0
171
     0
290
     0
174
     0
 93
        1
 44
0.0
173
     0
291
     1
 45
0.0
1001
ACAD
1000
AcDbSavedByObjectVersion
1070
     0
  0
VISUALSTYLE
  5
36
102
{ACAD_REACTORS
330
2A
102
}
330
2A
100
AcDbVisualStyle
  2
Brighten
 70
    12
 71
     2
 72
     2
 73
     0
 90
        0
 40
-0.6
 41
-30.0
 62
     5
 63
     7
421
 16777215
 74
     1
 91
        4
 64
     7
 65
   257
 75
     1
175
     1
 42
1.0
 92
        8
 66
     7
 43
1.0
 76
     1
 77
     6
 78
     2
 67
     7
 79
     5
170
     0
171
     0
290
     0
174
     0
 93
        1
 44
50.0
173
     0
291
     1
 45
0.0
1001
ACAD
1000
AcDbSavedByObjectVersion
1070
     0
  0
VISUALSTYLE
  5
3A
102
{ACAD_REACTORS
330
2A
102
}
330
2A
100
AcDbVisualStyle
  2
ColorChange
 70
    16
 71
     2
 72
     2
 73
     3
 90
        0
 40
-0.6
 41
-30.0
 62
     5
 63
     8
421
  8421504
 74
     1
 91
        4
 64
     7
 65
   257
 75
     1
175
     1
 42
1.0
 92
        8
 66
     8
424
  8421504
 43
1.0
 76
     1
 77
     6
 78
     2
 67
     7
 79
     5
170
     0
171
     0
290
     0
174
     0
 93
        1
 44
0.0
173
     0
291
     1
 45
0.0
1001
ACAD
1000
AcDbSavedByObjectVersion
1070
     0
  0
VISUALSTYLE
  5
34
102
{ACAD_REACTORS
330
2A
102
}
330
2A
100
AcDbVisualStyle
  2
Conceptual
 70
     9
 71
     3
 72
     2
 73
     0
 90
        0
 40
-0.6
 41
-30.0
 62
     5
 63
     7
421
 16777215
 74
     2
 91
        2
 64
     7
 65
   257
 75
     1
175
     1
 42
40.0
 92
        8
 66
     7
 43
1.0
 76
     1
 77
     6
 78
     2
 67
     7
 79
     3
170
     0
171
     0
290
     0
174
     0
 93
        1
 44
0.0
173
     0
291
     0
 45
0.0
1001
ACAD
1000
AcDbSavedByObjectVersion
1070
     0
  0
VISUALSTYLE
  5
35
102
{ACAD_REACTORS
330
2A
102
}
330
2A
100
AcDbVisualStyle
  2
Dim
 70
    11
 71
     2
 72
     2
 73
     0
 90
        0
 40
-0.6
 41
-30.0
 62
     5
 63
     7
421
 16777215
 74
     1
 91
        4
 64
     7
 65
   257
 75
     1
175
     1
 42
1.0
 92
        8
 66
     7
 43
1.0
 76
     1
 77
     6
 78
     2
 67
     7
 79
     5
170
     0
171
     0
290
     0
174
     0
 93
        1
 44
-50.0
173
     0
291
     1
 45
0.0
1001
ACAD
1000
AcDbSavedByObjectVersion
1070
     0
  0
VISUALSTYLE
  5
39
102
{ACAD_REACTORS
330
2A
102
}
330
2A
100
AcDbVisualStyle
  2
Facepattern
 70
    15
 71
     2
 72
     2
 73
     0
 90
        0
 40
-0.6
 41
-30.0
 62
     5
 63
     7
421
 16777215
 74
     1
 91
        4
 64
     7
 65
   257
 75
     1
175
     1
 42
1.0
 92
        8
 66
     7
 43
1.0
 76
     1
 77
     6
 78
     2
 67
     7
 79
     5
170
     0
171
     0
290
     0
174
     0
 93
        1
 44
0.0
173
     0
291
     1
 45
0.0
1001
ACAD
1000
AcDbSavedByObjectVersion
1070
     0
  0
VISUALSTYLE
  5
2B
102
{ACAD_REACTORS
330
2A
102
}
330
2A
100
AcDbVisualStyle
  2
Flat
 70
     0
 71
     2
 72
     1
 73
     1
 90
        2
 40
-0.6
 41
30.0
 62
     5
 63
     7
421
 16777215
 74
     0
 91
        4
 64
     7
 65
   257
 75
     1
175
     1
 42
1.0
 92
        8
 66
     7
 43
1.0
 76
     1
 77
     6
 78
     2
 67
     7
 79
     5
170
     0
171
     0
290
     0
174
     0
 93
       13
 44
0.0
173
     0
291
     1
 45
0.0
1001
ACAD
1000
AcDbSavedByObjectVersion
1070
     0
  0
VISUALSTYLE
  5
2C
102
{ACAD_REACTORS
330
2A
102
}
330
2A
100
AcDbVisualStyle
  2
FlatWithEdges
 70
     1
 71
     2
 72
     1
 73
     1
 90
        2
 40
-0.6
 41
30.0
 62
     5
 63
     7
421
 16777215
 74
     1
 91
        4
 64
     7
 65
   257
 75
     1
175
     1
 42
1.0
 92
        0
 66
   257
 43
1.0
 76
     1
 77
     6
 78
     2
 67
     7
 79
     5
170
     0
171
     0
290
     0
174
     0
 93
       13
 44
0.0
173
     0
291
     1
 45
0.0
1001
ACAD
1000
AcDbSavedByObjectVersion
1070
     0
  0
VISUALSTYLE
  5
2D
102
{ACAD_REACTORS
330
2A
102
}
330
2A
100
AcDbVisualStyle
  2
Gouraud
 70
     2
 71
     2
 72
     2
 73
     1
 90
        2
 40
-0.6
 41
30.0
 62
     5
 63
     7
421
 16777215
 74
     0
 91
        4
 64
     7
 65
   257
 75
     1
175
     1
 42
1.0
 92
        0
 66
     7
 43
1.0
 76
     1
 77
     6
 78
     2
 67
     7
 79
     5
170
     0
171
     0
290
     0
174
     0
 93
       13
 44
0.0
173
     0
291
     1
 45
0.0
1001
ACAD
1000
AcDbSavedByObjectVersion
1070
     0
  0
VISUALSTYLE
  5
2E
102
{ACAD_REACTORS
330
2A
102
}
330
2A
100
AcDbVisualStyle
  2
GouraudWithEdges
 70
     3
 71
     2
 72
     2
 73
     1
 90
        2
 40
-0.6
 41
30.0
 62
     5
 63
     7
421
 16777215
 74
     1
 91
        4
 64
     7
 65
   257
 75
     1
175
     1
 42
1.0
 92
        0
 66
   257
 43
1.0
 76
     1
 77
     6
 78
     2
 67
     7
 79
     5
170
     0
171
     0
290
     0
174
     0
 93
       13
 44
0.0
173
     0
291
     1
 45
0.0
1001
ACAD
1000
AcDbSavedByObjectVersion
1070
     0
  0
VISUALSTYLE
  5
38
102
{ACAD_REACTORS
330
2A
102
}
330
2A
100
AcDbVisualStyle
  2
Linepattern
 70
    14
 71
     2
 72
     2
 73
     0
 90
        0
 40
-0.6
 41
-30.0
 62
     5
 63
     7
421
 16777215
 74
     1
 91
        4
 64
     7
 65
   257
 75
     7
175
     7
 42
1.0
 92
        8
 66
     7
 43
1.0
 76
     1
 77
     6
 78
     2
 67
     7
 79
     5
170
     0
171
     0
290
     0
174
     0
 93
        1
 44
0.0
173
     0
291
     1
 45
0.0
1001
ACAD
1000
AcDbSavedByObjectVersion
1070
     0
  0
VISUALSTYLE
  5
33
102
{ACAD_REACTORS
330
2A
102
}
330
2A
100
AcDbVisualStyle
  2
Realistic
 70
     8
 71
     2
 72
     2
 73
     0
 90
        0
 40
-0.6
 41
-30.0
 62
     5
 63
     7
421
 16777215
 74
     1
 91
        0
 64
     7
 65
   257
 75
     1
175
     1
 42
1.0
 92
        8
 66
     8
424
  7895160
 43
1.0
 76
     1
 77
     6
 78
     2
 67
     7
 79
     5
170
     0
171
     0
290
     0
174
     0
 93
       13
 44
0.0
173
     0
291
     0
 45
0.0
1001
ACAD
1000
AcDbSavedByObjectVersion
1070
     0
  0
VISUALSTYLE
  5
37
102
{ACAD_REACTORS
330
2A
102
}
330
2A
100
AcDbVisualStyle
  2
Thicken
 70
    13
 71
     2
 72
     2
 73
     0
 90
        0
 40
-0.6
 41
-30.0
 62
     5
 63
     7
421
 16777215
 74
     1
 91
        4
 64
     7
 65
   257
 75
     1
175
     1
 42
1.0
 92
       12
 66
     7
 43
1.0
 76
     1
 77
     6
 78
     2
 67
     7
 79
     5
170
     0
171
     0
290
     0
174
     0
 93
        1
 44
0.0
173
     0
291
     1
 45
0.0
1001
ACAD
1000
AcDbSavedByObjectVersion
1070
     0
  0
ENDSEC
  0
EOF
