  0
SECTION
  2
HEADER
  9
$ACADVER
  1
AC1018
  9
$ACADMAINTVER
 70
     0
  9
$DWGCODEPAGE
  3
ANSI_932
  9
$INSBASE
 10
0.0
 20
0.0
 30
0.0
  9
$EXTMIN
 10
-630.0
 20
-445.5
 30
0.0
  9
$EXTMAX
 10
630.0
 20
445.5
 30
0.0
  9
$LIMMIN
 10
-630.0
 20
-445.5
  9
$LIMMAX
 10
630.0
 20
445.5
  9
$ORTHOMODE
 70
     0
  9
$REGENMODE
 70
     1
  9
$FILLMODE
 70
     1
  9
$QTEXTMODE
 70
     0
  9
$MIRRTEXT
 70
     1
  9
$LTSCALE
 40
3.0
  9
$ATTMODE
 70
     1
  9
$TEXTSIZE
 40
2.5
  9
$TRACEWID
 40
1.0
  9
$TEXTSTYLE
  7
Standard
  9
$CLAYER
  8
0
  9
$CELTYPE
  6
ByLayer
  9
$CECOLOR
 62
   256
  9
$CELTSCALE
 40
1.0
  9
$DISPSILH
 70
     0
  9
$DIMSCALE
 40
1.0
  9
$DIMASZ
 40
2.5
  9
$DIMEXO
 40
0.625
  9
$DIMDLI
 40
3.75
  9
$DIMRND
 40
0.0
  9
$DIMDLE
 40
0.0
  9
$DIMEXE
 40
1.25
  9
$DIMTP
 40
0.0
  9
$DIMTM
 40
0.0
  9
$DIMTXT
 40
2.5
  9
$DIMCEN
 40
2.5
  9
$DIMTSZ
 40
0.0
  9
$DIMTOL
 70
     0
  9
$DIMLIM
 70
     0
  9
$DIMTIH
 70
     0
  9
$DIMTOH
 70
     0
  9
$DIMSE1
 70
     0
  9
$DIMSE2
 70
     0
  9
$DIMTAD
 70
     1
  9
$DIMZIN
 70
     8
  9
$DIMBLK
  1

  9
$DIMASO
 70
     1
  9
$DIMSHO
 70
     1
  9
$DIMPOST
  1

  9
$DIMAPOST
  1

  9
$DIMALT
 70
     0
  9
$DIMALTD
 70
     3
  9
$DIMALTF
 40
0.03937007874016
  9
$DIMLFAC
 40
1.0
  9
$DIMTOFL
 70
     1
  9
$DIMTVP
 40
0.0
  9
$DIMTIX
 70
     0
  9
$DIMSOXD
 70
     0
  9
$DIMSAH
 70
     0
  9
$DIMBLK1
  1

  9
$DIMBLK2
  1

  9
$DIMSTYLE
  2
ISO-25
  9
$DIMCLRD
 70
     0
  9
$DIMCLRE
 70
     0
  9
$DIMCLRT
 70
     0
  9
$DIMTFAC
 40
1.0
  9
$DIMGAP
 40
0.625
  9
$DIMJUST
 70
     0
  9
$DIMSD1
 70
     0
  9
$DIMSD2
 70
     0
  9
$DIMTOLJ
 70
     0
  9
$DIMTZIN
 70
     8
  9
$DIMALTZ
 70
     0
  9
$DIMALTTZ
 70
     0
  9
$DIMUPT
 70
     0
  9
$DIMDEC
 70
     2
  9
$DIMTDEC
 70
     2
  9
$DIMALTU
 70
     2
  9
$DIMALTTD
 70
     3
  9
$DIMTXSTY
  7
Standard
  9
$DIMAUNIT
 70
     0
  9
$DIMADEC
 70
     0
  9
$DIMALTRND
 40
0.0
  9
$DIMAZIN
 70
     0
  9
$DIMDSEP
 70
    44
  9
$DIMATFIT
 70
     3
  9
$DIMFRAC
 70
     0
  9
$DIMLDRBLK
  1

  9
$DIMLUNIT
 70
     2
  9
$DIMLWD
 70
    -2
  9
$DIMLWE
 70
    -2
  9
$DIMTMOVE
 70
     0
  9
$LUNITS
 70
     2
  9
$LUPREC
 70
     4
  9
$SKETCHINC
 40
1.0
  9
$FILLETRAD
 40
10.0
  9
$AUNITS
 70
     0
  9
$AUPREC
 70
     0
  9
$MENU
  1
.
  9
$ELEVATION
 40
0.0
  9
$PELEVATION
 40
0.0
  9
$THICKNESS
 40
0.0
  9
$LIMCHECK
 70
     0
  9
$CHAMFERA
 40
10.0
  9
$CHAMFERB
 40
10.0
  9
$CHAMFERC
 40
20.0
  9
$CHAMFERD
 40
0.0
  9
$SKPOLY
 70
     0
  9
$TDCREATE
 40
2458093.469334803
  9
$TDUCREATE
 40
2458093.094334803
  9
$TDUPDATE
 40
2458093.469334815
  9
$TDUUPDATE
 40
2458093.094334815
  9
$TDINDWG
 40
0.0000000116
  9
$TDUSRTIMER
 40
0.0000000116
  9
$USRTIMER
 70
     1
  9
$ANGBASE
 50
0.0
  9
$ANGDIR
 70
     0
  9
$PDMODE
 70
     0
  9
$PDSIZE
 40
0.0
  9
$PLINEWID
 40
0.0
  9
$SPLFRAME
 70
     0
  9
$SPLINETYPE
 70
     6
  9
$SPLINESEGS
 70
     8
  9
$HANDSEED
  5
629
  9
$SURFTAB1
 70
     6
  9
$SURFTAB2
 70
     6
  9
$SURFTYPE
 70
     6
  9
$SURFU
 70
     6
  9
$SURFV
 70
     6
  9
$UCSBASE
  2

  9
$UCSNAME
  2

  9
$UCSORG
 10
0.0
 20
0.0
 30
0.0
  9
$UCSXDIR
 10
1.0
 20
0.0
 30
0.0
  9
$UCSYDIR
 10
0.0
 20
1.0
 30
0.0
  9
$UCSORTHOREF
  2

  9
$UCSORTHOVIEW
 70
     0
  9
$UCSORGTOP
 10
0.0
 20
0.0
 30
0.0
  9
$UCSORGBOTTOM
 10
0.0
 20
0.0
 30
0.0
  9
$UCSORGLEFT
 10
0.0
 20
0.0
 30
0.0
  9
$UCSORGRIGHT
 10
0.0
 20
0.0
 30
0.0
  9
$UCSORGFRONT
 10
0.0
 20
0.0
 30
0.0
  9
$UCSORGBACK
 10
0.0
 20
0.0
 30
0.0
  9
$PUCSBASE
  2

  9
$PUCSNAME
  2

  9
$PUCSORG
 10
0.0
 20
0.0
 30
0.0
  9
$PUCSXDIR
 10
1.0
 20
0.0
 30
0.0
  9
$PUCSYDIR
 10
0.0
 20
1.0
 30
0.0
  9
$PUCSORTHOREF
  2

  9
$PUCSORTHOVIEW
 70
     0
  9
$PUCSORGTOP
 10
0.0
 20
0.0
 30
0.0
  9
$PUCSORGBOTTOM
 10
0.0
 20
0.0
 30
0.0
  9
$PUCSORGLEFT
 10
0.0
 20
0.0
 30
0.0
  9
$PUCSORGRIGHT
 10
0.0
 20
0.0
 30
0.0
  9
$PUCSORGFRONT
 10
0.0
 20
0.0
 30
0.0
  9
$PUCSORGBACK
 10
0.0
 20
0.0
 30
0.0
  9
$USERI1
 70
     0
  9
$USERI2
 70
     0
  9
$USERI3
 70
     0
  9
$USERI4
 70
     0
  9
$USERI5
 70
     0
  9
$USERR1
 40
0.0
  9
$USERR2
 40
0.0
  9
$USERR3
 40
0.0
  9
$USERR4
 40
0.0
  9
$USERR5
 40
0.0
  9
$WORLDVIEW
 70
     1
  9
$SHADEDGE
 70
     3
  9
$SHADEDIF
 70
    70
  9
$TILEMODE
 70
     1
  9
$MAXACTVP
 70
    64
  9
$PINSBASE
 10
0.0
 20
0.0
 30
0.0
  9
$PLIMCHECK
 70
     0
  9
$PEXTMIN
 10
1.000000000000000E+20
 20
1.000000000000000E+20
 30
1.000000000000000E+20
  9
$PEXTMAX
 10
-1.000000000000000E+20
 20
-1.000000000000000E+20
 30
-1.000000000000000E+20
  9
$PLIMMIN
 10
0.0
 20
0.0
  9
$PLIMMAX
 10
420.0
 20
297.0
  9
$UNITMODE
 70
     0
  9
$VISRETAIN
 70
     1
  9
$PLINEGEN
 70
     0
  9
$PSLTSCALE
 70
     1
  9
$TREEDEPTH
 70
  3020
  9
$CMLSTYLE
  2
Standard
  9
$CMLJUST
 70
     0
  9
$CMLSCALE
 40
20.0
  9
$PROXYGRAPHICS
 70
     1
  9
$MEASUREMENT
 70
     1
  9
$CELWEIGHT
370
    -1
  9
$ENDCAPS
280
     0
  9
$JOINSTYLE
280
     0
  9
$LWDISPLAY
290
     0
  9
$INSUNITS
 70
     4
  9
$HYPERLINKBASE
  1

  9
$STYLESHEET
  1

  9
$XEDIT
290
     1
  9
$CEPSNTYPE
380
     0
  9
$PSTYLEMODE
290
     1
  9
$FINGERPRINTGUID
  2
{6BEB2BE0-31B6-480B-BE5A-612056207462}
  9
$VERSIONGUID
  2
{FAEB1C32-E019-11D5-929B-00C0DF256EC4}
  9
$EXTNAMES
290
     1
  9
$PSVPSCALE
 40
0.0
  9
$OLESTARTUP
290
     0
  9
$SORTENTS
280
   127
  9
$INDEXCTL
280
     0
  9
$HIDETEXT
280
     1
  9
$XCLIPFRAME
290
     0
  9
$HALOGAP
280
     0
  9
$OBSCOLOR
 70
   257
  9
$OBSLTYPE
280
     0
  9
$INTERSECTIONDISPLAY
280
     0
  9
$INTERSECTIONCOLOR
 70
   257
  9
$DIMASSOC
280
     2
  9
$PROJECTNAME
  1

  0
ENDSEC
  0
SECTION
  2
CLASSES
  0
CLASS
  1
ACDBDICTIONARYWDFLT
  2
AcDbDictionaryWithDefault
  3
ObjectDBX Classes
 90
        0
 91
        4
280
     0
281
     0
  0
CLASS
  1
VISUALSTYLE
  2
AcDbVisualStyle
  3
ObjectDBX Classes
 90
     4095
 91
        4
280
     0
281
     0
  0
ENDSEC
  0
SECTION
  2
TABLES
  0
TABLE
  2
VPORT
  5
8
330
0
100
AcDbSymbolTable
 70
     1
  0
VPORT
  5
29
330
8
100
AcDbSymbolTableRecord
100
AcDbViewportTableRecord
  2
*Active
 70
     0
 10
0.0
 20
0.0
 11
1.0
 21
1.0
 12
0.0
 22
0.0
 13
0.0
 23
0.0
 14
10.0
 24
10.0
 15
10.0
 25
10.0
 16
0.0
 26
0.0
 36
1.0
 17
0.0
 27
0.0
 37
0.0
 40
980.1
 41
1.414141414141414
 42
50.0
 43
0.0
 44
0.0
 50
0.0
 51
0.0
 71
     0
 72
 10000
 73
     1
 74
     3
 75
     0
 76
     0
 77
     0
 78
     0
281
     0
 65
     1
110
0.0
120
0.0
130
0.0
111
1.0
121
0.0
131
0.0
112
0.0
122
1.0
132
0.0
 79
     0
146
0.0
  0
ENDTAB
  0
TABLE
  2
LTYPE
  5
5
330
0
100
AcDbSymbolTable
 70
     4
  0
LTYPE
  5
14
330
5
100
AcDbSymbolTableRecord
100
AcDbLinetypeTableRecord
  2
ByBlock
 70
     0
  3

 72
    65
 73
     0
 40
0.0
  0
LTYPE
  5
15
330
5
100
AcDbSymbolTableRecord
100
AcDbLinetypeTableRecord
  2
ByLayer
 70
     0
  3

 72
    65
 73
     0
 40
0.0
  0
LTYPE
  5
16
330
5
100
AcDbSymbolTableRecord
100
AcDbLinetypeTableRecord
  2
Continuous
 70
     0
  3
Solid line
 72
    65
 73
     0
 40
0.0
  0
LTYPE
  5
3C
330
5
100
AcDbSymbolTableRecord
100
AcDbLinetypeTableRecord
  2
JWW_DASHED1
 70
     0
  3
-  --  --  --  --  --  --  --  -
 72
    65
 73
     2
 40
1.693333333333333
 49
0.8466666666666667
 74
     0
 49
-0.8466666666666667
 74
     0
  0
LTYPE
  5
3D
330
5
100
AcDbSymbolTableRecord
100
AcDbLinetypeTableRecord
  2
JWW_PHANTOM1
 70
     0
  3
----  -  -  --------  -  -  ----
 72
    65
 73
     6
 40
6.773333333333333
 49
3.386666666666667
 74
     0
 49
-0.8466666666666667
 74
     0
 49
0.4233333333333333
 74
     0
 49
-0.8466666666666667
 74
     0
 49
0.4233333333333333
 74
     0
 49
-0.8466666666666667
 74
     0
  0
LTYPE
  5
3E
330
5
100
AcDbSymbolTableRecord
100
AcDbLinetypeTableRecord
  2
JWW_CENTER1
 70
     0
  3
-----  --  ----------  --  -----
 72
    65
 73
     4
 40
6.773333333333333
 49
4.233333333333333
 74
     0
 49
-0.8466666666666667
 74
     0
 49
0.8466666666666667
 74
     0
 49
-0.8466666666666667
 74
     0
  0
ENDTAB
  0
TABLE
  2
LAYER
  5
2
330
0
100
AcDbSymbolTable
 70
    18
  0
LAYER
  5
10
330
2
100
AcDbSymbolTableRecord
100
AcDbLayerTableRecord
  2
0
 70
     0
 62
     7
  6
Continuous
370
    -3
390
F
  0
LAYER
  5
3F
330
2
100
AcDbSymbolTableRecord
100
AcDbLayerTableRecord
  2
1-0
 70
     0
 62
     7
  6
Continuous
370
    -3
390
F
  0
LAYER
  5
40
330
2
100
AcDbSymbolTableRecord
100
AcDbLayerTableRecord
  2
1-3
 70
     0
 62
     7
  6
Continuous
370
    -3
390
F
  0
LAYER
  5
41
330
2
100
AcDbSymbolTableRecord
100
AcDbLayerTableRecord
  2
1-1
 70
     0
 62
     7
  6
Continuous
370
    -3
390
F
  0
LAYER
  5
42
330
2
100
AcDbSymbolTableRecord
100
AcDbLayerTableRecord
  2
1-6
 70
     0
 62
     7
  6
Continuous
370
    -3
390
F
  0
LAYER
  5
43
330
2
100
AcDbSymbolTableRecord
100
AcDbLayerTableRecord
  2
1-E
 70
     0
 62
     7
  6
Continuous
370
    -3
390
F
  0
LAYER
  5
44
330
2
100
AcDbSymbolTableRecord
100
AcDbLayerTableRecord
  2
1-4
 70
     0
 62
     7
  6
Continuous
370
    -3
390
F
  0
LAYER
  5
45
330
2
100
AcDbSymbolTableRecord
100
AcDbLayerTableRecord
  2
1-9
 70
     0
 62
     7
  6
Continuous
370
    -3
390
F
  0
LAYER
  5
46
330
2
100
AcDbSymbolTableRecord
100
AcDbLayerTableRecord
  2
1-B
 70
     0
 62
     7
  6
Continuous
370
    -3
390
F
  0
LAYER
  5
47
330
2
100
AcDbSymbolTableRecord
100
AcDbLayerTableRecord
  2
0-9
 70
     0
 62
     7
  6
Continuous
370
    -3
390
F
  0
LAYER
  5
48
330
2
100
AcDbSymbolTableRecord
100
AcDbLayerTableRecord
  2
0-6
 70
     0
 62
     7
  6
Continuous
370
    -3
390
F
  0
LAYER
  5
49
330
2
100
AcDbSymbolTableRecord
100
AcDbLayerTableRecord
  2
0-B
 70
     0
 62
     7
  6
Continuous
370
    -3
390
F
  0
LAYER
  5
4A
330
2
100
AcDbSymbolTableRecord
100
AcDbLayerTableRecord
  2
0-4
 70
     0
 62
     7
  6
Continuous
370
    -3
390
F
  0
LAYER
  5
4B
330
2
100
AcDbSymbolTableRecord
100
AcDbLayerTableRecord
  2
0-E
 70
     0
 62
     7
  6
Continuous
370
    -3
390
F
  0
LAYER
  5
4C
330
2
100
AcDbSymbolTableRecord
100
AcDbLayerTableRecord
  2
1-2
 70
     0
 62
     7
  6
Continuous
370
    -3
390
F
  0
LAYER
  5
4D
330
2
100
AcDbSymbolTableRecord
100
AcDbLayerTableRecord
  2
0-5
 70
     0
 62
     7
  6
Continuous
370
    -3
390
F
  0
LAYER
  5
4E
330
2
100
AcDbSymbolTableRecord
100
AcDbLayerTableRecord
  2
F-4
 70
     0
 62
     7
  6
Continuous
370
    -3
390
F
  0
LAYER
  5
4F
330
2
100
AcDbSymbolTableRecord
100
AcDbLayerTableRecord
  2
F-5
 70
     0
 62
     7
  6
Continuous
370
    -3
390
F
  0
ENDTAB
  0
TABLE
  2
STYLE
  5
3
330
0
100
AcDbSymbolTable
 70
     2
  0
STYLE
  5
11
330
3
100
AcDbSymbolTableRecord
100
AcDbTextStyleTableRecord
  2
Standard
 70
     0
 40
0.0
 41
1.0
 50
0.0
 71
     0
 42
2.5
  3
txt
  4

1001
ACAD
1000

1071
        0
  0
STYLE
  5
3B
330
3
100
AcDbSymbolTableRecord
100
AcDbTextStyleTableRecord
  2
ＭＳ ゴシック
 70
     0
 40
1.0
 41
1.0
 50
0.0
 71
     0
 42
10.0
  3

  4

1001
ACAD
1000
MS Gothic
1071
    32817
  0
ENDTAB
  0
TABLE
  2
VIEW
  5
6
330
0
100
AcDbSymbolTable
 70
     0
  0
ENDTAB
  0
TABLE
  2
UCS
  5
7
330
0
100
AcDbSymbolTable
 70
     0
  0
ENDTAB
  0
TABLE
  2
APPID
  5
9
330
0
100
AcDbSymbolTable
 70
     1
  0
APPID
  5
12
330
9
100
AcDbSymbolTableRecord
100
AcDbRegAppTableRecord
  2
ACAD
 70
     0
  0
ENDTAB
  0
TABLE
  2
DIMSTYLE
  5
A
330
0
100
AcDbSymbolTable
 70
     1
100
AcDbDimStyleTable
  0
DIMSTYLE
105
27
330
A
100
AcDbSymbolTableRecord
100
AcDbDimStyleTableRecord
  2
ISO-25
 70
     0
 41
2.5
 42
0.625
 43
3.75
 44
1.25
 73
     0
 74
     0
 77
     1
 78
     8
140
2.5
141
2.5
143
0.03937007874016
147
0.625
171
     3
172
     1
271
     2
272
     2
274
     3
278
    44
283
     0
284
     8
340
11
  0
ENDTAB
  0
TABLE
  2
BLOCK_RECORD
  5
1
330
0
100
AcDbSymbolTable
 70
     1
  0
BLOCK_RECORD
  5
1F
330
1
100
AcDbSymbolTableRecord
100
AcDbBlockTableRecord
  2
*Model_Space
340
22
  0
BLOCK_RECORD
  5
1B
330
1
100
AcDbSymbolTableRecord
100
AcDbBlockTableRecord
  2
*Paper_Space
340
1E
  0
BLOCK_RECORD
  5
23
330
1
100
AcDbSymbolTableRecord
100
AcDbBlockTableRecord
  2
*Paper_Space0
340
26
  0
ENDTAB
  0
ENDSEC
  0
SECTION
  2
BLOCKS
  0
BLOCK
  5
20
330
1F
100
AcDbEntity
  8
0
100
AcDbBlockBegin
  2
*Model_Space
 70
     0
 10
0.0
 20
0.0
 30
0.0
  3
*Model_Space
  1

  0
ENDBLK
  5
21
330
1F
100
AcDbEntity
  8
0
100
AcDbBlockEnd
  0
BLOCK
  5
1C
330
1B
100
AcDbEntity
 67
     1
  8
0
100
AcDbBlockBegin
  2
*Paper_Space
 70
     0
 10
0.0
 20
0.0
 30
0.0
  3
*Paper_Space
  1

  0
ENDBLK
  5
1D
330
1B
100
AcDbEntity
 67
     1
  8
0
100
AcDbBlockEnd
  0
BLOCK
  5
24
330
23
100
AcDbEntity
  8
0
100
AcDbBlockBegin
  2
*Paper_Space0
 70
     0
 10
0.0
 20
0.0
 30
0.0
  3
*Paper_Space0
  1

  0
ENDBLK
  5
25
330
23
100
AcDbEntity
  8
0
100
AcDbBlockEnd
  0
ENDSEC
  0
SECTION
  2
ENTITIES
  0
LINE
  5
50
330
1F
100
AcDbEntity
  8
1-0
  6
Continuous
 62
     3
370
     9
100
AcDbLine
 10
203.36086788693
 20
135.4412940772805
 30
0.0
 11
204.3607722101986
 21
143.441270982897
 31
0.0
  0
LINE
  5
51
330
1F
100
AcDbEntity
  8
1-0
  6
Continuous
 62
     3
370
     9
100
AcDbLine
 10
203.36086788693
 20
135.4412940772805
 30
0.0
 11
206.3608035525761
 21
135.4412940772805
 31
0.0
  0
LINE
  5
52
330
1F
100
AcDbEntity
  8
1-0
  6
Continuous
 62
     3
370
     9
100
AcDbLine
 10
230.375506426837
 20
133.6327811576225
 30
0.0
 11
235.3462260478252
 21
132.3009115683066
 31
0.0
  0
LINE
  5
53
330
1F
100
AcDbEntity
  8
1-0
  6
Continuous
 62
     3
370
     9
100
AcDbLine
 10
220.1144244219806
 20
139.4880486565667
 30
0.0
 11
223.0119942330025
 21
138.7115824931377
 31
0.0
  0
LINE
  5
54
330
1F
100
AcDbEntity
  8
1-0
  6
Continuous
 62
     3
370
     9
100
AcDbLine
 10
228.2106059306377
 20
137.3186200116132
 30
0.0
 11
225.9098609718117
 21
137.9351905616555
 31
0.0
  0
LINE
  5
55
330
1F
100
AcDbEntity
  8
1-0
  6
Continuous
 62
     3
370
     9
100
AcDbLine
 10
228.9315465978675
 20
136.5532144082559
 30
0.0
 11
229.2942438898861
 21
134.7809266786318
 31
0.0
  0
LINE
  5
56
330
1F
100
AcDbEntity
  8
1-0
  6
Continuous
 62
     3
370
     9
100
AcDbLine
 10
238.0568798168286
 20
134.1081625448691
 30
0.0
 11
236.8565492372256
 21
132.7545429951436
 31
0.0
  0
LINE
  5
57
330
1F
100
AcDbEntity
  8
1-0
  6
Continuous
 62
     3
370
     9
100
AcDbLine
 10
224.1905006202492
 20
134.2546964078337
 30
0.0
 11
215.0028125659841
 21
136.7166731550888
 31
0.0
  0
LINE
  5
58
330
1F
100
AcDbEntity
  8
1-0
  6
JWW_DASHED1
 62
     3
370
     9
100
AcDbLine
 10
238.2093522355364
 20
128.2510392472551
 30
0.0
 11
238.9994028452281
 21
129.1421195365288
 31
0.0
  0
LINE
  5
59
330
1F
100
AcDbEntity
  8
1-0
  6
Continuous
 62
     3
370
     9
100
AcDbLine
 10
225.871111895587
 20
131.5570332295186
 30
0.0
 11
225.6323077227619
 21
132.7239594330659
 31
0.0
  0
LINE
  5
5A
330
1F
100
AcDbEntity
  8
1-0
  6
Continuous
 62
     3
370
     9
100
AcDbLine
 10
241.3647295977619
 20
133.7940871779984
 30
0.0
 11
239.0639104069891
 21
134.410509264147
 31
0.0
  0
LINE
  5
5B
330
1F
100
AcDbEntity
  8
1-0
  6
Continuous
 62
     3
370
     9
100
AcDbLine
 10
266.4988502296242
 20
128.5942877692145
 30
0.0
 11
268.3608101509714
 21
110.4412734572952
 31
0.0
  0
LINE
  5
5C
330
1F
100
AcDbEntity
  8
1-0
  6
Continuous
 62
     3
370
     9
100
AcDbLine
 10
250.0780012800888
 20
103.4413122228674
 30
0.0
 11
246.3608365445523
 21
103.4413122228674
 31
0.0
  0
LINE
  5
5D
330
1F
100
AcDbEntity
  8
1-0
  6
Continuous
 62
     3
370
     9
100
AcDbLine
 10
245.0524984823691
 20
112.1637886665963
 30
0.0
 11
246.3608365445523
 21
103.4413122228674
 31
0.0
  0
LINE
  5
5E
330
1F
100
AcDbEntity
  8
1-0
  6
JWW_DASHED1
 62
     3
370
     9
100
AcDbLine
 10
243.8597395613388
 20
128.9843766495988
 30
0.0
 11
241.0135382574958
 21
129.7470356709248
 31
0.0
  0
LINE
  5
5F
330
1F
100
AcDbEntity
  8
1-0
  6
Continuous
 62
     3
370
     9
100
AcDbLine
 10
227.381212389147
 20
130.2939766548776
 30
0.0
 11
226.9524486644848
 21
130.4088877085093
 31
0.0
  0
LINE
  5
60
330
1F
100
AcDbEntity
  8
1-0
  6
JWW_DASHED1
 62
     3
370
     9
100
AcDbLine
 10
227.381212389147
 20
130.2939766548776
 30
0.0
 11
236.6988063502956
 21
127.7974078204181
 31
0.0
  0
LINE
  5
61
330
1F
100
AcDbEntity
  8
1-0
  6
Continuous
 62
     3
370
     9
100
AcDbLine
 10
250.1056897962416
 20
131.45199502481
 30
0.0
 11
244.2625221046242
 21
133.0175467826225
 31
0.0
  0
LINE
  5
62
330
1F
100
AcDbEntity
  8
1-0
  6
JWW_DASHED1
 62
     3
370
     9
100
AcDbLine
 10
262.1077336491766
 20
116.5236907134185
 30
0.0
 11
256.0780953072214
 21
117.1829817488388
 31
0.0
  0
LINE
  5
63
330
1F
100
AcDbEntity
  8
1-0
  6
JWW_DASHED1
 62
     3
370
     9
100
AcDbLine
 10
262.9853037241344
 20
115.6939631281673
 30
0.0
 11
263.8608695365288
 21
110.4412734572952
 31
0.0
  0
LINE
  5
64
330
1F
100
AcDbEntity
  8
1-0
  6
JWW_DASHED1
 62
     3
370
     9
100
AcDbLine
 10
243.5691214896538
 20
113.4412833548881
 30
0.0
 11
246.3313664616766
 21
113.4412833548881
 31
0.0
  0
LINE
  5
65
330
1F
100
AcDbEntity
  8
1-0
  6
JWW_DASHED1
 62
     3
370
     9
100
AcDbLine
 10
246.0609394795186
 20
126.4522507126267
 30
0.0
 11
248.8862816063134
 21
103.4413122228674
 31
0.0
  0
LINE
  5
66
330
1F
100
AcDbEntity
  8
1-0
  6
JWW_DASHED1
 62
     3
370
     9
100
AcDbLine
 10
253.42660439981
 20
119.7995836412584
 30
0.0
 11
252.306741250528
 21
128.9197206239443
 31
0.0
  0
LINE
  5
67
330
1F
100
AcDbEntity
  8
1-0
  6
Continuous
 62
     3
370
     9
100
AcDbLine
 10
251.5667972049199
 20
102.1240663270693
 30
0.0
 11
253.8608612885347
 21
83.44129572687922
 31
0.0
  0
LINE
  5
68
330
1F
100
AcDbEntity
  8
1-0
  6
Continuous
 62
     3
370
     9
100
AcDbLine
 10
258.3608761349241
 20
108.4413163468645
 30
0.0
 11
258.3608761349241
 21
98.44127098289695
 31
0.0
  0
LINE
  5
69
330
1F
100
AcDbEntity
  8
1-0
  6
Continuous
 62
     3
370
     9
100
AcDbLine
 10
263.7127025707348
 20
108.4413163468645
 30
0.0
 11
263.8608695365288
 21
110.4412734572952
 31
0.0
  0
LINE
  5
6A
330
1F
100
AcDbEntity
  8
1-0
  6
Continuous
 62
     3
370
     9
100
AcDbLine
 10
403.3608101509714
 20
135.4412940772805
 30
0.0
 11
402.3609058277028
 21
143.441270982897
 31
0.0
  0
LINE
  5
6B
330
1F
100
AcDbEntity
  8
1-0
  6
Continuous
 62
     3
370
     9
100
AcDbLine
 10
403.3608101509714
 20
135.4412940772805
 30
0.0
 11
400.3608744853252
 21
135.4412940772805
 31
0.0
  0
LINE
  5
6C
330
1F
100
AcDbEntity
  8
1-0
  6
Continuous
 62
     3
370
     9
100
AcDbLine
 10
386.6074020798142
 20
139.4880486565667
 30
0.0
 11
383.7096838048988
 21
138.7115824931377
 31
0.0
  0
LINE
  5
6D
330
1F
100
AcDbEntity
  8
1-0
  6
Continuous
 62
     3
370
     9
100
AcDbLine
 10
382.531177417652
 20
134.2546964078337
 30
0.0
 11
391.7188654719174
 21
136.7166731550888
 31
0.0
  0
LINE
  5
6E
330
1F
100
AcDbEntity
  8
1-0
  6
Continuous
 62
     3
370
     9
100
AcDbLine
 10
368.5123258023648
 20
128.2510392472551
 30
0.0
 11
367.7222009607264
 21
129.1421195365288
 31
0.0
  0
LINE
  5
6F
330
1F
100
AcDbEntity
  8
1-0
  6
Continuous
 62
     3
370
     9
100
AcDbLine
 10
380.8505661423142
 20
131.5570332295186
 30
0.0
 11
381.0894445470863
 21
132.7239594330659
 31
0.0
  0
LINE
  5
70
330
1F
100
AcDbEntity
  8
1-0
  6
JWW_PHANTOM1
 62
     3
370
     9
100
AcDbLine
 10
361.6691795555322
 20
112.1637886665963
 30
0.0
 11
360.3609157252956
 21
103.4413122228674
 31
0.0
  0
LINE
  5
71
330
1F
100
AcDbEntity
  8
1-0
  6
Continuous
 62
     3
370
     9
100
AcDbLine
 10
362.8619384765625
 20
128.9843766495988
 30
0.0
 11
365.7082140123522
 21
129.7470356709248
 31
0.0
  0
LINE
  5
72
330
1F
100
AcDbEntity
  8
1-0
  6
Continuous
 62
     3
370
     9
100
AcDbLine
 10
370.0229459195523
 20
127.7974449363915
 30
0.0
 11
379.7693036053633
 21
130.4088877085093
 31
0.0
  0
LINE
  5
73
330
1F
100
AcDbEntity
  8
1-0
  6
JWW_PHANTOM1
 62
     3
370
     9
100
AcDbLine
 10
378.2395316459038
 20
129.0245361328125
 30
0.0
 11
376.5199485985009
 21
114.7617583403716
 31
0.0
  0
LINE
  5
74
330
1F
100
AcDbEntity
  8
1-0
  6
JWW_PHANTOM1
 62
     3
370
     9
100
AcDbLine
 10
375.0308557458827
 20
113.4412833548881
 30
0.0
 11
363.1526307801944
 21
113.4412833548881
 31
0.0
  0
LINE
  5
75
330
1F
100
AcDbEntity
  8
1-0
  6
Continuous
 62
     3
370
     9
100
AcDbLine
 10
360.6608127903294
 20
126.4522507126267
 30
0.0
 11
357.8353964315878
 21
103.4413122228674
 31
0.0
  0
LINE
  5
76
330
1F
100
AcDbEntity
  8
1-0
  6
Continuous
 62
     3
370
     9
100
AcDbLine
 10
343.0090496991133
 20
108.4413163468645
 30
0.0
 11
342.8608085013725
 21
110.4412734572952
 31
0.0
  0
LINE
  5
77
330
1F
100
AcDbEntity
  8
1-0
  6
Continuous
 62
     3
370
     9
100
AcDbLine
 10
263.8608695365288
 20
110.4412734572952
 30
0.0
 11
342.8608085013725
 21
110.4412734572952
 31
0.0
  0
LINE
  5
78
330
1F
100
AcDbEntity
  8
1-0
  6
Continuous
 62
     3
370
     9
100
AcDbLine
 10
356.6436025258658
 20
103.4413122228674
 30
0.0
 11
357.8353964315878
 21
103.4413122228674
 31
0.0
  0
LINE
  5
79
330
1F
100
AcDbEntity
  8
1-0
  6
JWW_PHANTOM1
 62
     3
370
     9
100
AcDbLine
 10
357.8353964315878
 20
103.4413122228674
 30
0.0
 11
360.3609157252956
 21
103.4413122228674
 31
0.0
  0
LINE
  5
7A
330
1F
100
AcDbEntity
  8
1-0
  6
Continuous
 62
     3
370
     9
100
AcDbLine
 10
355.1548066010347
 20
102.1240663270693
 30
0.0
 11
352.8608167493666
 21
83.44129572687922
 31
0.0
  0
LINE
  5
7B
330
1F
100
AcDbEntity
  8
1-0
  6
Continuous
 62
     3
370
     9
100
AcDbLine
 10
378.51092364337
 20
137.3186200116132
 30
0.0
 11
380.8117428341428
 21
137.9351905616555
 31
0.0
  0
LINE
  5
7C
330
1F
100
AcDbEntity
  8
1-0
  6
Continuous
 62
     3
370
     9
100
AcDbLine
 10
377.7901314400339
 20
136.5532144082559
 30
0.0
 11
377.4274341480153
 21
134.7809266786318
 31
0.0
  0
LINE
  5
7D
330
1F
100
AcDbEntity
  8
1-0
  6
Continuous
 62
     3
370
     9
100
AcDbLine
 10
376.3461716110642
 20
133.6327811576225
 30
0.0
 11
371.3756004539697
 21
132.3009115683066
 31
0.0
  0
LINE
  5
7E
330
1F
100
AcDbEntity
  8
1-0
  6
Continuous
 62
     3
370
     9
100
AcDbLine
 10
365.3570226720863
 20
133.7940871779984
 30
0.0
 11
367.6577676309122
 21
134.410509264147
 31
0.0
  0
LINE
  5
7F
330
1F
100
AcDbEntity
  8
1-0
  6
Continuous
 62
     3
370
     9
100
AcDbLine
 10
368.6647982210727
 20
134.1081625448691
 30
0.0
 11
369.8649803367822
 21
132.7546172270904
 31
0.0
  0
LINE
  5
80
330
1F
100
AcDbEntity
  8
1-0
  6
Continuous
 62
     3
370
     9
100
AcDbLine
 10
356.6160624736064
 20
131.45199502481
 30
0.0
 11
362.4592301652239
 21
133.0175467826225
 31
0.0
  0
LINE
  5
81
330
1F
100
AcDbEntity
  8
1-0
  6
Continuous
 62
     3
370
     9
100
AcDbLine
 10
353.2950736380913
 20
119.7995836412584
 30
0.0
 11
354.4149367873734
 21
128.9197948558911
 31
0.0
  0
LINE
  5
82
330
1F
100
AcDbEntity
  8
1-0
  6
Continuous
 62
     3
370
     9
100
AcDbLine
 10
344.6140928526183
 20
116.5236907134185
 30
0.0
 11
350.64358273068
 21
117.1829817488388
 31
0.0
  0
LINE
  5
83
330
1F
100
AcDbEntity
  8
1-0
  6
Continuous
 62
     3
370
     9
100
AcDbLine
 10
343.7363743137669
 20
115.6939631281673
 30
0.0
 11
342.8608085013725
 21
110.4412734572952
 31
0.0
  0
LINE
  5
84
330
1F
100
AcDbEntity
  8
1-0
  6
Continuous
 62
     3
370
     9
100
AcDbLine
 10
258.3608761349241
 20
108.4413163468645
 30
0.0
 11
348.3608761349241
 21
108.4413163468645
 31
0.0
  0
LINE
  5
85
330
1F
100
AcDbEntity
  8
1-3
  6
Continuous
 62
     4
370
     9
100
AcDbLine
 10
356.7020230679898
 20
103.4413493388409
 30
0.0
 11
360.2019851272172
 21
103.4413493388409
 31
0.0
  0
LINE
  5
86
330
1F
100
AcDbEntity
  8
1-3
  6
Continuous
 62
     4
370
     9
100
AcDbLine
 10
249.7019422376478
 20
103.4413493388409
 30
0.0
 11
246.2019801784206
 21
103.4413493388409
 31
0.0
  0
LINE
  5
87
330
1F
100
AcDbEntity
  8
1-0
  6
Continuous
 62
     3
370
     9
100
AcDbLine
 10
259.4187556086361
 20
83.44129572687922
 30
0.0
 11
260.9964071737753
 21
85.0188730600718
 31
0.0
  0
LINE
  5
88
330
1F
100
AcDbEntity
  8
1-0
  6
Continuous
 62
     3
370
     9
100
AcDbLine
 10
230.2016552074536
 20
114.7617212243983
 30
0.0
 11
228.4822206239444
 21
129.0245361328125
 31
0.0
  0
LINE
  5
89
330
1F
100
AcDbEntity
  8
1-0
  6
Continuous
 62
     3
370
     9
100
AcDbLine
 10
238.5358243375211
 20
120.6413368018898
 30
0.0
 11
232.1858751451647
 21
120.6413368018898
 31
0.0
  0
LINE
  5
8A
330
1F
100
AcDbEntity
  8
1-0
  6
Continuous
 62
     3
370
     9
100
AcDbLine
 10
238.5358243375211
 20
120.6413368018898
 30
0.0
 11
237.7208317937078
 21
121.441297376478
 31
0.0
  0
LINE
  5
8B
330
1F
100
AcDbEntity
  8
1-0
  6
Continuous
 62
     3
370
     9
100
AcDbLine
 10
233.0008676889781
 20
121.441297376478
 30
0.0
 11
232.1858751451647
 21
120.6413368018898
 31
0.0
  0
LINE
  5
8C
330
1F
100
AcDbEntity
  8
1-0
  6
Continuous
 62
     3
370
     9
100
AcDbLine
 10
237.7208317937078
 20
121.441297376478
 30
0.0
 11
233.0008676889781
 21
121.441297376478
 31
0.0
  0
LINE
  5
8D
330
1F
100
AcDbEntity
  8
1-0
  6
Continuous
 62
     3
370
     9
100
AcDbLine
 10
230.3609569652661
 20
96.44127675649281
 30
0.0
 11
222.3609800596495
 21
96.44127675649281
 31
0.0
  0
LINE
  5
8E
330
1F
100
AcDbEntity
  8
1-0
  6
Continuous
 62
     3
370
     9
100
AcDbLine
 10
238.3610081028294
 20
98.44127098289695
 30
0.0
 11
238.3610081028294
 21
111.441289128484
 31
0.0
  0
LINE
  5
8F
330
1F
100
AcDbEntity
  8
1-0
  6
Continuous
 62
     3
370
     9
100
AcDbLine
 10
230.3609569652661
 20
90.44125696130703
 30
0.0
 11
222.3609800596495
 21
90.44125696130703
 31
0.0
  0
LINE
  5
90
330
1F
100
AcDbEntity
  8
1-0
  6
JWW_CENTER1
 62
     3
370
     9
100
AcDbLine
 10
230.3608085013725
 20
93.44130397487336
 30
0.0
 11
219.3608959301098
 21
93.44130397487336
 31
0.0
  0
LINE
  5
91
330
1F
100
AcDbEntity
  8
1-0
  6
JWW_CENTER1
 62
     3
370
     9
100
AcDbLine
 10
235.360849741343
 20
98.44127098289695
 30
0.0
 11
235.360849741343
 21
124.4412701580976
 31
0.0
  0
LINE
  5
92
330
1F
100
AcDbEntity
  8
1-0
  6
Continuous
 62
     3
370
     9
100
AcDbLine
 10
232.3609140756969
 20
98.44127098289695
 30
0.0
 11
232.3609140756969
 21
111.441289128484
 31
0.0
  0
LINE
  5
93
330
1F
100
AcDbEntity
  8
1-0
  6
Continuous
 62
     3
370
     9
100
AcDbLine
 10
233.0008676889781
 20
111.441289128484
 30
0.0
 11
233.0008676889781
 21
121.441297376478
 31
0.0
  0
LINE
  5
94
330
1F
100
AcDbEntity
  8
1-0
  6
Continuous
 62
     3
370
     9
100
AcDbLine
 10
237.7208317937078
 20
111.441289128484
 30
0.0
 11
237.7208317937078
 21
121.441297376478
 31
0.0
  0
LINE
  5
95
330
1F
100
AcDbEntity
  8
1-0
  6
Continuous
 62
     3
370
     9
100
AcDbLine
 10
238.5358243375211
 20
111.441289128484
 30
0.0
 11
238.5358243375211
 21
120.6413368018898
 31
0.0
  0
LINE
  5
96
330
1F
100
AcDbEntity
  8
1-0
  6
Continuous
 62
     3
370
     9
100
AcDbLine
 10
232.1858751451647
 20
111.441289128484
 30
0.0
 11
232.1858751451647
 21
120.6413368018898
 31
0.0
  0
LINE
  5
97
330
1F
100
AcDbEntity
  8
1-0
  6
Continuous
 62
     3
370
     9
100
AcDbLine
 10
238.5358243375211
 20
111.441289128484
 30
0.0
 11
232.1858751451647
 21
111.441289128484
 31
0.0
  0
LINE
  5
98
330
1F
100
AcDbEntity
  8
1-0
  6
Continuous
 62
     3
370
     9
100
AcDbLine
 10
231.6908222920186
 20
113.4412833548881
 30
0.0
 11
232.1858751451647
 21
113.4412833548881
 31
0.0
  0
LINE
  5
99
330
1F
100
AcDbEntity
  8
1-0
  6
Continuous
 62
     3
370
     9
100
AcDbLine
 10
238.5358243375211
 20
113.4412833548881
 30
0.0
 11
243.5691214896538
 21
113.4412833548881
 31
0.0
  0
LINE
  5
9A
330
1F
100
AcDbEntity
  8
1-1
  6
Continuous
 62
     2
370
     9
100
AcDbLine
 10
213.3608019029772
 20
151.2976833034206
 30
0.0
 11
213.8608282965583
 21
153.2976404138514
 31
0.0
  0
LINE
  5
9B
330
1F
100
AcDbEntity
  8
1-1
  6
Continuous
 62
     2
370
     9
100
AcDbLine
 10
219.4197618639147
 20
153.2976404138514
 30
0.0
 11
213.8608282965583
 21
153.2976404138514
 31
0.0
  0
LINE
  5
9C
330
1F
100
AcDbEntity
  8
1-1
  6
Continuous
 62
     2
370
     9
100
AcDbLine
 10
232.8607920053844
 20
157.2976288666597
 30
0.0
 11
229.8608563397383
 21
157.2976288666597
 31
0.0
  0
LINE
  5
9D
330
1F
100
AcDbEntity
  8
1-1
  6
Continuous
 62
     2
370
     9
100
AcDbLine
 10
229.3678819811022
 20
154.0784120301943
 30
0.0
 11
229.8608563397383
 21
157.2976288666597
 31
0.0
  0
LINE
  5
9E
330
1F
100
AcDbEntity
  8
1-1
  6
Continuous
 62
     2
370
     9
100
AcDbLine
 10
232.8607920053844
 20
157.2976288666597
 30
0.0
 11
234.1288963524072
 21
150.5317580764359
 31
0.0
  0
LINE
  5
9F
330
1F
100
AcDbEntity
  8
1-1
  6
Continuous
 62
     2
370
     9
100
AcDbLine
 10
393.3608761349241
 20
151.2976833034206
 30
0.0
 11
392.860849741343
 21
153.2976404138514
 31
0.0
  0
LINE
  5
A0
330
1F
100
AcDbEntity
  8
1-1
  6
Continuous
 62
     2
370
     9
100
AcDbLine
 10
387.3019161739866
 20
153.2976404138514
 30
0.0
 11
392.860849741343
 21
153.2976404138514
 31
0.0
  0
LINE
  5
A1
330
1F
100
AcDbEntity
  8
1-1
  6
Continuous
 62
     2
370
     9
100
AcDbLine
 10
377.3539445206927
 20
154.0784120301943
 30
0.0
 11
376.8608216981631
 21
157.2976288666597
 31
0.0
  0
LINE
  5
A2
330
1F
100
AcDbEntity
  8
1-1
  6
Continuous
 62
     2
370
     9
100
AcDbLine
 10
254.3608876821158
 20
145.7976899018159
 30
0.0
 11
255.3607920053844
 21
140.7977228937923
 31
0.0
  0
LINE
  5
A3
330
1F
100
AcDbEntity
  8
1-1
  6
Continuous
 62
     2
370
     9
100
AcDbLine
 10
266.3609272724873
 20
145.7976899018159
 30
0.0
 11
265.3608744853252
 21
140.7977228937923
 31
0.0
  0
LINE
  5
A4
330
1F
100
AcDbEntity
  8
1-1
  6
Continuous
 62
     2
370
     9
100
AcDbLine
 10
272.6020524308489
 20
144.5917176942568
 30
0.0
 11
273.3608513909417
 21
140.7977228937923
 31
0.0
  0
LINE
  5
A5
330
1F
100
AcDbEntity
  8
1-1
  6
Continuous
 62
     2
370
     9
100
AcDbLine
 10
271.1311464051944
 20
145.7976899018159
 30
0.0
 11
247.4104020402239
 21
145.7976899018159
 31
0.0
  0
LINE
  5
A6
330
1F
100
AcDbEntity
  8
1-1
  6
Continuous
 62
     2
370
     9
100
AcDbLine
 10
247.4104020402239
 20
145.7976899018159
 30
0.0
 11
235.5770874023438
 21
148.9683590450802
 31
0.0
  0
LINE
  5
A7
330
1F
100
AcDbEntity
  8
1-1
  6
Continuous
 62
     2
370
     9
100
AcDbLine
 10
225.6259980072847
 20
151.6346963418497
 30
0.0
 11
219.4197618639147
 21
153.2976404138514
 31
0.0
  0
LINE
  5
A8
330
1F
100
AcDbEntity
  8
1-1
  6
JWW_DASHED1
 62
     2
370
     9
100
AcDbLine
 10
235.5770874023438
 20
148.9683590450802
 30
0.0
 11
225.6259980072847
 21
151.6346963418497
 31
0.0
  0
LINE
  5
A9
330
1F
100
AcDbEntity
  8
1-1
  6
Continuous
 62
     2
370
     9
100
AcDbLine
 10
359.6407916094806
 20
150.0603852143159
 30
0.0
 11
359.0836808488177
 21
146.9292816986909
 31
0.0
  0
LINE
  5
AA
330
1F
100
AcDbEntity
  8
1-1
  6
JWW_DASHED1
 62
     2
370
     9
100
AcDbLine
 10
372.9657229861699
 20
152.5213227143159
 30
0.0
 11
372.5927816854941
 21
150.5317580764359
 31
0.0
  0
LINE
  5
AB
330
1F
100
AcDbEntity
  8
1-1
  6
Continuous
 62
     2
370
     9
100
AcDbLine
 10
353.7132221943623
 20
144.2976849530195
 30
0.0
 11
357.6321493612753
 21
145.3476958403716
 31
0.0
  0
LINE
  5
AC
330
1F
100
AcDbEntity
  8
1-1
  6
JWW_DASHED1
 62
     2
370
     9
100
AcDbLine
 10
357.6321493612753
 20
145.3476958403716
 30
0.0
 11
381.0958284945102
 21
151.6347705737965
 31
0.0
  0
LINE
  5
AD
330
1F
100
AcDbEntity
  8
1-1
  6
Continuous
 62
     2
370
     9
100
AcDbLine
 10
381.0958284945102
 20
151.6347705737965
 30
0.0
 11
387.3019161739866
 21
153.2976404138514
 31
0.0
  0
LINE
  5
AE
330
1F
100
AcDbEntity
  8
1-1
  6
Continuous
 62
     2
370
     9
100
AcDbLine
 10
373.8608860325169
 20
157.2976288666597
 30
0.0
 11
372.9657229861699
 21
152.5213227143159
 31
0.0
  0
LINE
  5
AF
330
1F
100
AcDbEntity
  8
1-1
  6
Continuous
 62
     2
370
     9
100
AcDbLine
 10
373.8608860325169
 20
157.2976288666597
 30
0.0
 11
376.8608216981631
 21
157.2976288666597
 31
0.0
  0
LINE
  5
B0
330
1F
100
AcDbEntity
  8
1-1
  6
Continuous
 62
     4
370
     9
100
AcDbLine
 10
264.3608216981631
 20
124.6177566115921
 30
0.0
 11
256.3608447925466
 21
124.6177566115921
 31
0.0
  0
LINE
  5
B1
330
1F
100
AcDbEntity
  8
1-1
  6
Continuous
 62
     4
370
     9
100
AcDbLine
 10
256.3608447925466
 20
124.6177566115921
 30
0.0
 11
257.0372462917019
 21
123.9412437645165
 31
0.0
  0
LINE
  5
B2
330
1F
100
AcDbEntity
  8
1-1
  6
Continuous
 62
     4
370
     9
100
AcDbLine
 10
257.0372462917019
 20
123.9412437645165
 30
0.0
 11
263.6844201990077
 21
123.9412437645165
 31
0.0
  0
LINE
  5
B3
330
1F
100
AcDbEntity
  8
1-1
  6
Continuous
 62
     4
370
     9
100
AcDbLine
 10
263.6844201990077
 20
123.9412437645165
 30
0.0
 11
264.3608216981631
 21
124.6177566115921
 31
0.0
  0
LINE
  5
B4
330
1F
100
AcDbEntity
  8
1-1
  6
Continuous
 62
     4
370
     9
100
AcDbLine
 10
252.8608827333194
 20
151.5759046399916
 30
0.0
 11
252.8608827333194
 21
145.7976899018159
 31
0.0
  0
LINE
  5
B5
330
1F
100
AcDbEntity
  8
1-1
  6
Continuous
 62
     4
370
     9
100
AcDbLine
 10
267.860857989337
 20
151.5759046399916
 30
0.0
 11
267.860857989337
 21
145.7976899018159
 31
0.0
  0
LINE
  5
B6
330
1F
100
AcDbEntity
  8
1-1
  6
Continuous
 62
     4
370
     9
100
AcDbLine
 10
252.8608827333194
 20
145.7976899018159
 30
0.0
 11
267.860857989337
 21
145.7976899018159
 31
0.0
  0
LINE
  5
B7
330
1F
100
AcDbEntity
  8
1-1
  6
Continuous
 62
     4
370
     9
100
AcDbLine
 10
256.6135303394216
 20
151.5759046399916
 30
0.0
 11
256.6135303394216
 21
145.7976899018159
 31
0.0
  0
LINE
  5
B8
330
1F
100
AcDbEntity
  8
1-1
  6
Continuous
 62
     4
370
     9
100
AcDbLine
 10
264.1081361512881
 20
151.5759046399916
 30
0.0
 11
264.1081361512881
 21
145.7976899018159
 31
0.0
  0
LINE
  5
B9
330
1F
100
AcDbEntity
  8
1-1
  6
Continuous
 62
     4
370
     9
100
AcDbLine
 10
254.7373921162373
 20
152.2977360905828
 30
0.0
 11
265.9844228383658
 21
152.2977360905828
 31
0.0
  0
LINE
  5
BA
330
1F
100
AcDbEntity
  8
1-1
  6
Continuous
 62
     4
370
     9
100
AcDbLine
 10
257.0372462917019
 20
145.7976899018159
 30
0.0
 11
257.0372462917019
 21
123.9412437645165
 31
0.0
  0
LINE
  5
BB
330
1F
100
AcDbEntity
  8
1-1
  6
Continuous
 62
     4
370
     9
100
AcDbLine
 10
256.3608447925466
 20
145.7976899018159
 30
0.0
 11
256.3608447925466
 21
124.6177566115921
 31
0.0
  0
LINE
  5
BC
330
1F
100
AcDbEntity
  8
1-1
  6
Continuous
 62
     4
370
     9
100
AcDbLine
 10
263.6844201990077
 20
145.7976899018159
 30
0.0
 11
263.6844201990077
 21
123.9412437645165
 31
0.0
  0
LINE
  5
BD
330
1F
100
AcDbEntity
  8
1-1
  6
Continuous
 62
     4
370
     9
100
AcDbLine
 10
264.3608216981631
 20
145.7976899018159
 30
0.0
 11
264.3608216981631
 21
124.6177566115921
 31
0.0
  0
LINE
  5
BE
330
1F
100
AcDbEntity
  8
1-1
  6
Continuous
 62
     4
370
     9
100
AcDbLine
 10
264.3608216981631
 20
163.2646896774705
 30
0.0
 11
256.3608447925466
 21
163.2646896774705
 31
0.0
  0
LINE
  5
BF
330
1F
100
AcDbEntity
  8
1-1
  6
Continuous
 62
     4
370
     9
100
AcDbLine
 10
256.3608447925466
 20
163.2646896774705
 30
0.0
 11
257.0372462917019
 21
163.9412396405195
 31
0.0
  0
LINE
  5
C0
330
1F
100
AcDbEntity
  8
1-1
  6
Continuous
 62
     4
370
     9
100
AcDbLine
 10
257.0372462917019
 20
163.9412396405195
 30
0.0
 11
263.6844201990077
 21
163.9412396405195
 31
0.0
  0
LINE
  5
C1
330
1F
100
AcDbEntity
  8
1-1
  6
Continuous
 62
     4
370
     9
100
AcDbLine
 10
263.6844201990077
 20
163.9412396405195
 30
0.0
 11
264.3608216981631
 21
163.2646896774705
 31
0.0
  0
LINE
  5
C2
330
1F
100
AcDbEntity
  8
1-1
  6
Continuous
 62
     4
370
     9
100
AcDbLine
 10
257.0372462917019
 20
152.2977360905828
 30
0.0
 11
257.0372462917019
 21
163.9412396405195
 31
0.0
  0
LINE
  5
C3
330
1F
100
AcDbEntity
  8
1-1
  6
Continuous
 62
     4
370
     9
100
AcDbLine
 10
256.3608447925466
 20
152.2977360905828
 30
0.0
 11
256.3608447925466
 21
163.2646896774705
 31
0.0
  0
LINE
  5
C4
330
1F
100
AcDbEntity
  8
1-1
  6
Continuous
 62
     4
370
     9
100
AcDbLine
 10
263.6844201990077
 20
152.2977360905828
 30
0.0
 11
263.6844201990077
 21
163.9412396405195
 31
0.0
  0
LINE
  5
C5
330
1F
100
AcDbEntity
  8
1-1
  6
Continuous
 62
     4
370
     9
100
AcDbLine
 10
264.3608216981631
 20
152.2977360905828
 30
0.0
 11
264.3608216981631
 21
163.2646896774705
 31
0.0
  0
LINE
  5
C6
330
1F
100
AcDbEntity
  8
1-1
  6
Continuous
 62
     2
370
     9
100
AcDbLine
 10
256.3608447925466
 20
140.7977228937923
 30
0.0
 11
252.54769814981
 21
140.7977228937923
 31
0.0
  0
LINE
  5
C7
330
1F
100
AcDbEntity
  8
1-1
  6
Continuous
 62
     2
370
     9
100
AcDbLine
 10
372.8608332453549
 20
145.2871225717905
 30
0.0
 11
374.8609388196791
 21
145.8230772276183
 31
0.0
  0
LINE
  5
C8
330
1F
100
AcDbEntity
  8
1-1
  6
Continuous
 62
     2
370
     9
100
AcDbLine
 10
372.8608332453549
 20
145.2871225717905
 30
0.0
 11
371.8607804581927
 21
145.5367646088472
 31
0.0
  0
LINE
  5
C9
330
1F
100
AcDbEntity
  8
1-1
  6
Continuous
 62
     2
370
     9
100
AcDbLine
 10
354.1739798880913
 20
140.7977228937923
 30
0.0
 11
371.8607804581927
 21
145.5367646088472
 31
0.0
  0
LINE
  5
CA
330
1F
100
AcDbEntity
  8
1-1
  6
Continuous
 62
     2
370
     9
100
AcDbLine
 10
374.8609388196791
 20
145.8230772276183
 30
0.0
 11
375.8609916068413
 21
146.6085996885558
 31
0.0
  0
LINE
  5
CB
330
1F
100
AcDbEntity
  8
1-1
  6
Continuous
 62
     2
370
     9
100
AcDbLine
 10
375.8609916068413
 20
146.6085996885558
 30
0.0
 11
393.3608761349241
 21
151.2976833034206
 31
0.0
  0
LINE
  5
CC
330
1F
100
AcDbEntity
  8
1-1
  6
Continuous
 62
     2
370
     9
100
AcDbLine
 10
233.8608447925466
 20
145.2871225717905
 30
0.0
 11
231.8608876821158
 21
145.8230772276183
 31
0.0
  0
LINE
  5
CD
330
1F
100
AcDbEntity
  8
1-1
  6
Continuous
 62
     2
370
     9
100
AcDbLine
 10
231.8608876821158
 20
145.8230772276183
 30
0.0
 11
230.8608348949536
 21
146.6085996885558
 31
0.0
  0
LINE
  5
CE
330
1F
100
AcDbEntity
  8
1-1
  6
Continuous
 62
     2
370
     9
100
AcDbLine
 10
230.8608348949536
 20
146.6085996885558
 30
0.0
 11
213.3608019029772
 21
151.2976833034206
 31
0.0
  0
LINE
  5
CF
330
1F
100
AcDbEntity
  8
1-1
  6
Continuous
 62
     2
370
     9
100
AcDbLine
 10
233.8608447925466
 20
145.2871225717905
 30
0.0
 11
234.8608233477619
 21
145.5367646088472
 31
0.0
  0
LINE
  5
D0
330
1F
100
AcDbEntity
  8
1-1
  6
Continuous
 62
     2
370
     9
100
AcDbLine
 10
252.54769814981
 20
140.7977228937923
 30
0.0
 11
234.8608233477619
 21
145.5367646088472
 31
0.0
  0
LINE
  5
D1
330
1F
100
AcDbEntity
  8
1-1
  6
Continuous
 62
     2
370
     9
100
AcDbLine
 10
264.3608216981631
 20
140.7977228937923
 30
0.0
 11
354.1739798880913
 21
140.7977228937923
 31
0.0
  0
LINE
  5
D2
330
1F
100
AcDbEntity
  8
1-1
  6
Continuous
 62
     2
370
     9
100
AcDbLine
 10
347.1537162162163
 20
143.5723646009291
 30
0.0
 11
346.3609190244933
 21
140.7977228937923
 31
0.0
  0
LINE
  5
D3
330
1F
100
AcDbEntity
  8
1-1
  6
Continuous
 62
     2
370
     9
100
AcDbLine
 10
272.6609183646538
 20
144.2976849530195
 30
0.0
 11
353.7132221943623
 21
144.2976849530195
 31
0.0
  0
LINE
  5
D4
330
1F
100
AcDbEntity
  8
1-1
  6
Continuous
 62
     2
370
     9
100
AcDbLine
 10
369.8608233477619
 20
151.2976833034206
 30
0.0
 11
371.4914022909628
 21
151.2976833034206
 31
0.0
  0
LINE
  5
D5
330
1F
100
AcDbEntity
  8
1-0
  6
Continuous
 62
     3
370
     9
100
AcDbLine
 10
265.0067880991344
 20
129.9412264437289
 30
0.0
 11
264.3608216981631
 21
129.9412264437289
 31
0.0
  0
LINE
  5
D6
330
1F
100
AcDbEntity
  8
1-0
  6
Continuous
 62
     3
370
     9
100
AcDbLine
 10
256.3608447925466
 20
129.9412264437289
 30
0.0
 11
251.989176982158
 21
129.9412264437289
 31
0.0
  0
LINE
  5
D7
330
1F
100
AcDbEntity
  8
1-0
  6
Continuous
 62
     3
370
     9
100
AcDbLine
 10
222.3609800596495
 20
96.44127675649281
 30
0.0
 11
222.3609800596495
 21
90.44125696130703
 31
0.0
  0
LINE
  5
D8
330
1F
100
AcDbEntity
  8
1-0
  6
Continuous
 62
     3
370
     9
100
AcDbLine
 10
204.3607722101986
 20
143.441270982897
 30
0.0
 11
205.3608249973606
 21
143.441270982897
 31
0.0
  0
LINE
  5
D9
330
1F
100
AcDbEntity
  8
1-0
  6
Continuous
 62
     3
370
     9
100
AcDbLine
 10
205.3608249973606
 20
143.441270982897
 30
0.0
 11
217.216409219278
 21
140.2645148199958
 31
0.0
  0
LINE
  5
DA
330
1F
100
AcDbEntity
  8
1-0
  6
Continuous
 62
     3
370
     9
100
AcDbLine
 10
401.360704576647
 20
143.441270982897
 30
0.0
 11
389.5051945866766
 21
140.2645148199958
 31
0.0
  0
LINE
  5
DB
330
1F
100
AcDbEntity
  8
1-0
  6
Continuous
 62
     3
370
     9
100
AcDbLine
 10
401.360704576647
 20
143.441270982897
 30
0.0
 11
402.3609058277028
 21
143.441270982897
 31
0.0
  0
LINE
  5
DC
330
1F
100
AcDbEntity
  8
1-1
  6
JWW_CENTER1
 62
     4
370
     9
100
AcDbLine
 10
260.360759013408
 20
166.0811982025972
 30
0.0
 11
260.360759013408
 21
121.0133130872572
 31
0.0
  0
LINE
  5
DD
330
1F
100
AcDbEntity
  8
1-3
  6
Continuous
 62
     4
370
     9
100
AcDbLine
 10
360.2019851272172
 20
103.4413493388409
 30
0.0
 11
360.2019851272172
 21
63.4412792308911
 31
0.0
  0
LINE
  5
DE
330
1F
100
AcDbEntity
  8
1-3
  6
Continuous
 62
     4
370
     9
100
AcDbLine
 10
356.7020230679898
 20
103.4413493388409
 30
0.0
 11
356.7020230679898
 21
63.4412792308911
 31
0.0
  0
LINE
  5
DF
330
1F
100
AcDbEntity
  8
1-3
  6
Continuous
 62
     4
370
     9
100
AcDbLine
 10
249.7019422376478
 20
103.4413493388409
 30
0.0
 11
249.7019422376478
 21
63.4412792308911
 31
0.0
  0
LINE
  5
E0
330
1F
100
AcDbEntity
  8
1-3
  6
Continuous
 62
     4
370
     9
100
AcDbLine
 10
246.2019801784206
 20
103.4413493388409
 30
0.0
 11
246.2019801784206
 21
63.4412792308911
 31
0.0
  0
LINE
  5
E1
330
1F
100
AcDbEntity
  8
1-6
  6
Continuous
 62
     6
370
     5
100
AcDbLine
 10
402.3609058277028
 20
143.441270982897
 30
0.0
 11
439.6815367002745
 21
153.4412792308911
 31
0.0
  0
LINE
  5
E2
330
1F
100
AcDbEntity
  8
1-6
  6
Continuous
 62
     6
370
     5
100
AcDbLine
 10
438.6814096811656
 20
163.4412874788852
 30
0.0
 11
553.360859638936
 21
163.4412874788852
 31
0.0
  0
LINE
  5
E3
330
1F
100
AcDbEntity
  8
1-6
  6
Continuous
 62
     6
370
     5
100
AcDbLine
 10
439.6815367002745
 20
153.4412792308911
 30
0.0
 11
553.360859638936
 21
153.4412792308911
 31
0.0
  0
LINE
  5
E4
330
1F
100
AcDbEntity
  8
1-6
  6
Continuous
 62
     6
370
     5
100
AcDbLine
 10
413.0045050543708
 20
193.4413122228674
 30
0.0
 11
553.360859638936
 21
193.4413122228674
 31
0.0
  0
LINE
  5
E5
330
1F
100
AcDbEntity
  8
1-6
  6
Continuous
 62
     6
370
     5
100
AcDbLine
 10
376.8608216981631
 20
157.2976288666597
 30
0.0
 11
413.0045050543708
 21
193.4413122228674
 31
0.0
  0
LINE
  5
E6
330
1F
100
AcDbEntity
  8
1-6
  6
Continuous
 62
     2
370
     9
100
AcDbLine
 10
346.39892578125
 20
74.2412851694468
 30
0.0
 11
347.9764288824958
 21
72.66378206820102
 31
0.0
  0
LINE
  5
E7
330
1F
100
AcDbEntity
  8
1-0
  6
Continuous
 62
     3
370
     9
100
AcDbLine
 10
253.8608612885347
 20
83.44129572687922
 30
0.0
 11
259.4187556086361
 21
83.44129572687922
 31
0.0
  0
LINE
  5
E8
330
1F
100
AcDbEntity
  8
1-0
  6
Continuous
 62
     3
370
     9
100
AcDbLine
 10
347.3028481973184
 20
83.44129572687922
 30
0.0
 11
352.8608167493666
 21
83.44129572687922
 31
0.0
  0
LINE
  5
E9
330
1F
100
AcDbEntity
  8
1-0
  6
Continuous
 62
     3
370
     9
100
AcDbLine
 10
347.3028481973184
 20
83.44129572687922
 30
0.0
 11
345.7253450960727
 21
85.0188730600718
 31
0.0
  0
LINE
  5
EA
330
1F
100
AcDbEntity
  8
1-0
  6
Continuous
 62
     3
370
     9
100
AcDbLine
 10
346.39892578125
 20
74.2412851694468
 30
0.0
 11
344.5339223500845
 21
104.0813029521221
 31
0.0
  0
LINE
  5
EB
330
1F
100
AcDbEntity
  8
1-0
  6
Continuous
 62
     3
370
     9
100
AcDbLine
 10
347.9764288824958
 20
72.66378206820102
 30
0.0
 11
346.0128454259925
 21
104.0813029521221
 31
0.0
  0
LINE
  5
EC
330
1F
100
AcDbEntity
  8
1-0
  6
Continuous
 62
     3
370
     9
100
AcDbLine
 10
348.3608761349241
 20
108.4413163468645
 30
0.0
 11
348.3608761349241
 21
98.44127098289695
 31
0.0
  0
LINE
  5
ED
330
1F
100
AcDbEntity
  8
1-0
  6
Continuous
 62
     3
370
     9
100
AcDbLine
 10
348.3608761349241
 20
98.44127098289695
 30
0.0
 11
346.3653729413008
 21
98.44127098289695
 31
0.0
  0
LINE
  5
EE
330
1F
100
AcDbEntity
  8
1-6
  6
Continuous
 62
     2
370
     9
100
AcDbLine
 10
260.7088326119089
 20
104.0813029521221
 30
0.0
 11
346.0128454259925
 21
104.0813029521221
 31
0.0
  0
LINE
  5
EF
330
1F
100
AcDbEntity
  8
1-0
  6
Continuous
 62
     3
370
     9
100
AcDbLine
 10
260.3563050966006
 20
98.44127098289695
 30
0.0
 11
258.3608761349241
 21
98.44127098289695
 31
0.0
  0
LINE
  5
F0
330
1F
100
AcDbEntity
  8
1-0
  6
Continuous
 62
     3
370
     9
100
AcDbLine
 10
260.322826488598
 20
74.24124805347344
 30
0.0
 11
262.1878299197636
 21
104.0813029521221
 31
0.0
  0
LINE
  5
F1
330
1F
100
AcDbEntity
  8
1-0
  6
Continuous
 62
     3
370
     9
100
AcDbLine
 10
258.7451006915119
 20
72.66355937236071
 30
0.0
 11
260.7088326119089
 21
104.0813029521221
 31
0.0
  0
LINE
  5
F2
330
1F
100
AcDbEntity
  8
1-6
  6
Continuous
 62
     2
370
     9
100
AcDbLine
 10
260.322826488598
 20
74.2412851694468
 30
0.0
 11
258.7451006915119
 21
72.66355937236071
 31
0.0
  0
LINE
  5
F3
330
1F
100
AcDbEntity
  8
1-6
  6
Continuous
 62
     2
370
     9
100
AcDbLine
 10
347.9108820734799
 20
72.72932887721711
 30
0.0
 11
347.9108820734799
 21
13.44127510689407
 31
0.0
  0
LINE
  5
F4
330
1F
100
AcDbEntity
  8
1-6
  6
Continuous
 62
     2
370
     9
100
AcDbLine
 10
258.8108701963683
 20
72.72932887721711
 30
0.0
 11
258.8108701963683
 21
13.44127510689407
 31
0.0
  0
LINE
  5
F5
330
1F
100
AcDbEntity
  8
1-6
  6
Continuous
 62
     2
370
     9
100
AcDbLine
 10
258.8108701963683
 20
56.23246641416813
 30
0.0
 11
261.5144719304266
 21
57.32003866659633
 31
0.0
  0
LINE
  5
F6
330
1F
100
AcDbEntity
  8
1-6
  6
Continuous
 62
     2
370
     9
100
AcDbLine
 10
261.5144719304266
 20
57.32003866659633
 30
0.0
 11
266.1868533572636
 21
59.07966984929266
 31
0.0
  0
LINE
  5
F7
330
1F
100
AcDbEntity
  8
1-6
  6
Continuous
 62
     2
370
     9
100
AcDbLine
 10
266.1868533572636
 20
59.07966984929266
 30
0.0
 11
270.8896698822847
 21
60.51861902185391
 31
0.0
  0
LINE
  5
F8
330
1F
100
AcDbEntity
  8
1-6
  6
Continuous
 62
     2
370
     9
100
AcDbLine
 10
270.8896698822847
 20
60.51861902185391
 30
0.0
 11
275.6422218116555
 21
61.43393604175469
 31
0.0
  0
LINE
  5
F9
330
1F
100
AcDbEntity
  8
1-6
  6
Continuous
 62
     2
370
     9
100
AcDbLine
 10
275.6422218116555
 20
61.43393604175469
 30
0.0
 11
278.4291117900127
 21
61.64486611856
 31
0.0
  0
LINE
  5
FA
330
1F
100
AcDbEntity
  8
1-6
  6
Continuous
 62
     2
370
     9
100
AcDbLine
 10
278.4291117900127
 20
61.64486611856
 30
0.0
 11
281.1747288059544
 21
61.59642977327914
 31
0.0
  0
LINE
  5
FB
330
1F
100
AcDbEntity
  8
1-6
  6
Continuous
 62
     2
370
     9
100
AcDbLine
 10
281.1747288059544
 20
61.59642977327914
 30
0.0
 11
285.9472491290119
 21
61.10835472313133
 31
0.0
  0
LINE
  5
FC
330
1F
100
AcDbEntity
  8
1-6
  6
Continuous
 62
     2
370
     9
100
AcDbLine
 10
285.9472491290119
 20
61.10835472313133
 30
0.0
 11
290.7358035525761
 21
60.45826844911321
 31
0.0
  0
LINE
  5
FD
330
1F
100
AcDbEntity
  8
1-6
  6
Continuous
 62
     2
370
     9
100
AcDbLine
 10
290.7358035525761
 20
60.45826844911321
 30
0.0
 11
295.5021626240498
 21
60.05322183145063
 31
0.0
  0
LINE
  5
FE
330
1F
100
AcDbEntity
  8
1-6
  6
Continuous
 62
     2
370
     9
100
AcDbLine
 10
295.5021626240498
 20
60.05322183145063
 30
0.0
 11
298.2413956925677
 21
60.09096877639359
 31
0.0
  0
LINE
  5
FF
330
1F
100
AcDbEntity
  8
1-6
  6
Continuous
 62
     2
370
     9
100
AcDbLine
 10
298.2413956925677
 20
60.09096877639359
 30
0.0
 11
301.353198902027
 21
60.47059095228047
 31
0.0
  0
LINE
  5
100
330
1F
100
AcDbEntity
  8
1-6
  6
Continuous
 62
     2
370
     9
100
AcDbLine
 10
301.353198902027
 20
60.47059095228047
 30
0.0
 11
306.6630100559544
 21
61.75922043259078
 31
0.0
  0
LINE
  5
101
330
1F
100
AcDbEntity
  8
1-6
  6
Continuous
 62
     2
370
     9
100
AcDbLine
 10
306.6630100559544
 20
61.75922043259078
 30
0.0
 11
311.9492896827492
 21
63.41251435150977
 31
0.0
  0
LINE
  5
102
330
1F
100
AcDbEntity
  8
1-6
  6
Continuous
 62
     2
370
     9
100
AcDbLine
 10
311.9492896827492
 20
63.41251435150977
 30
0.0
 11
317.2658559438345
 21
64.9213529019743
 31
0.0
  0
LINE
  5
103
330
1F
100
AcDbEntity
  8
1-6
  6
Continuous
 62
     2
370
     9
100
AcDbLine
 10
317.2658559438345
 20
64.9213529019743
 30
0.0
 11
320.3846369562924
 21
65.52964658994938
 31
0.0
  0
LINE
  5
104
330
1F
100
AcDbEntity
  8
1-6
  6
Continuous
 62
     2
370
     9
100
AcDbLine
 10
320.3846369562924
 20
65.52964658994938
 30
0.0
 11
323.3410727011191
 21
65.8387113004118
 31
0.0
  0
LINE
  5
105
330
1F
100
AcDbEntity
  8
1-6
  6
Continuous
 62
     2
370
     9
100
AcDbLine
 10
323.3410727011191
 20
65.8387113004118
 30
0.0
 11
328.4898005305111
 21
65.94319276551946
 31
0.0
  0
LINE
  5
106
330
1F
100
AcDbEntity
  8
1-6
  6
Continuous
 62
     2
370
     9
100
AcDbLine
 10
328.4898005305111
 20
65.94319276551946
 30
0.0
 11
333.6602783203125
 21
65.85433712521117
 31
0.0
  0
LINE
  5
107
330
1F
100
AcDbEntity
  8
1-6
  6
Continuous
 62
     2
370
     9
100
AcDbLine
 10
333.6602783203125
 20
65.85433712521117
 30
0.0
 11
338.8018798828125
 21
65.97782196869727
 31
0.0
  0
LINE
  5
108
330
1F
100
AcDbEntity
  8
1-6
  6
Continuous
 62
     2
370
     9
100
AcDbLine
 10
338.8018798828125
 20
65.97782196869727
 30
0.0
 11
341.7508182010136
 21
66.30659526103258
 31
0.0
  0
LINE
  5
109
330
1F
100
AcDbEntity
  8
1-6
  6
Continuous
 62
     2
370
     9
100
AcDbLine
 10
341.7508182010136
 20
66.30659526103258
 30
0.0
 11
342.6157688450169
 21
66.45420548722555
 31
0.0
  0
LINE
  5
10A
330
1F
100
AcDbEntity
  8
1-6
  6
Continuous
 62
     2
370
     9
100
AcDbLine
 10
342.6157688450169
 20
66.45420548722555
 30
0.0
 11
344.1009274044553
 21
66.75740587389149
 31
0.0
  0
LINE
  5
10B
330
1F
100
AcDbEntity
  8
1-6
  6
Continuous
 62
     2
370
     9
100
AcDbLine
 10
344.1009274044553
 20
66.75740587389149
 30
0.0
 11
345.5801474081503
 21
67.10685276340797
 31
0.0
  0
LINE
  5
10C
330
1F
100
AcDbEntity
  8
1-6
  6
Continuous
 62
     2
370
     9
100
AcDbLine
 10
345.5801474081503
 20
67.10685276340797
 30
0.0
 11
347.0558042783995
 21
67.4845449086782
 31
0.0
  0
LINE
  5
10D
330
1F
100
AcDbEntity
  8
1-6
  6
Continuous
 62
     2
370
     9
100
AcDbLine
 10
347.0558042783995
 20
67.4845449086782
 30
0.0
 11
347.9108820734799
 21
67.7095419394004
 31
0.0
  0
LINE
  5
10E
330
1F
100
AcDbEntity
  8
1-6
  6
Continuous
 62
     2
370
     9
100
AcDbLine
 10
263.0108395138303
 20
104.0813029521221
 30
0.0
 11
263.0108395138303
 21
57.88357049065672
 31
0.0
  0
LINE
  5
10F
330
1F
100
AcDbEntity
  8
1-6
  6
Continuous
 62
     2
370
     9
100
AcDbLine
 10
343.7109127560178
 20
104.0813029521221
 30
0.0
 11
343.7109127560178
 21
66.67779211095868
 31
0.0
  0
LINE
  5
110
330
1F
100
AcDbEntity
  8
1-6
  6
Continuous
 62
     6
370
     5
100
AcDbLine
 10
348.7710076409417
 20
139.3499772355363
 30
0.0
 11
354.1739798880913
 21
140.7977228937923
 31
0.0
  0
LINE
  5
111
330
1F
100
AcDbEntity
  8
1-6
  6
Continuous
 62
     6
370
     5
100
AcDbLine
 10
345.1023905986064
 20
135.1297797125739
 30
0.0
 11
343.1010230811867
 21
118.8309680835621
 31
0.0
  0
LINE
  5
112
330
1F
100
AcDbEntity
  8
1-6
  6
Continuous
 62
     6
370
     5
100
AcDbLine
 10
204.3608464421453
 20
143.441270982897
 30
0.0
 11
167.0402155695736
 21
153.4412792308911
 31
0.0
  0
LINE
  5
113
330
1F
100
AcDbEntity
  8
1-6
  6
Continuous
 62
     6
370
     5
100
AcDbLine
 10
168.0403425886825
 20
163.4412874788852
 30
0.0
 11
53.36089263091219
 21
163.4412874788852
 31
0.0
  0
LINE
  5
114
330
1F
100
AcDbEntity
  8
1-6
  6
Continuous
 62
     6
370
     5
100
AcDbLine
 10
167.0402155695736
 20
153.4412792308911
 30
0.0
 11
53.36089263091219
 21
153.4412792308911
 31
0.0
  0
LINE
  5
115
330
1F
100
AcDbEntity
  8
1-6
  6
Continuous
 62
     6
370
     5
100
AcDbLine
 10
193.7172472154772
 20
193.4413122228674
 30
0.0
 11
53.36089263091219
 21
193.4413122228674
 31
0.0
  0
LINE
  5
116
330
1F
100
AcDbEntity
  8
1-6
  6
Continuous
 62
     6
370
     5
100
AcDbLine
 10
229.860930571685
 20
157.2976288666597
 30
0.0
 11
193.7172472154772
 21
193.4413122228674
 31
0.0
  0
LINE
  5
117
330
1F
100
AcDbEntity
  8
1-6
  6
Continuous
 62
     6
370
     5
100
AcDbLine
 10
256.3608447925466
 20
139.7759943781673
 30
0.0
 11
252.5477723817569
 21
140.7977228937923
 31
0.0
  0
LINE
  5
118
330
1F
100
AcDbEntity
  8
1-6
  6
Continuous
 62
     6
370
     5
100
AcDbLine
 10
553.360859638936
 20
155.4413105732686
 30
0.0
 11
439.4182359850084
 21
155.4413105732686
 31
0.0
  0
LINE
  5
119
330
1F
100
AcDbEntity
  8
1-6
  6
Continuous
 62
     6
370
     5
100
AcDbLine
 10
553.360859638936
 20
157.4413419156462
 30
0.0
 11
439.1549352697425
 21
157.4413419156462
 31
0.0
  0
LINE
  5
11A
330
1F
100
AcDbEntity
  8
1-6
  6
Continuous
 62
     6
370
     5
100
AcDbLine
 10
553.360859638936
 20
159.4413732580237
 30
0.0
 11
438.8916345544764
 21
159.4413732580237
 31
0.0
  0
LINE
  5
11B
330
1F
100
AcDbEntity
  8
1-6
  6
Continuous
 62
     6
370
     5
100
AcDbLine
 10
553.360859638936
 20
161.4414046004013
 30
0.0
 11
438.6283338392103
 21
161.4414046004013
 31
0.0
  0
LINE
  5
11C
330
1F
100
AcDbEntity
  8
1-6
  6
Continuous
 62
     6
370
     5
100
AcDbLine
 10
393.3608761349241
 20
151.2976833034206
 30
0.0
 11
438.6814096811656
 21
163.4412874788852
 31
0.0
  0
LINE
  5
11D
330
1F
100
AcDbEntity
  8
1-6
  6
Continuous
 62
     6
370
     5
100
AcDbLine
 10
349.9509244351773
 20
137.6804265202703
 30
0.0
 11
438.6283338392103
 21
161.4414046004013
 31
0.0
  0
LINE
  5
11E
330
1F
100
AcDbEntity
  8
1-6
  6
Continuous
 62
     6
370
     5
100
AcDbLine
 10
347.0160159549199
 20
134.304209116343
 30
0.0
 11
345.0861338022594
 21
118.5872274862754
 31
0.0
  0
LINE
  5
11F
330
1F
100
AcDbEntity
  8
1-6
  6
Continuous
 62
     6
370
     5
100
AcDbLine
 10
351.1200775971284
 20
135.9230965279245
 30
0.0
 11
438.8916345544764
 21
159.4413732580237
 31
0.0
  0
LINE
  5
120
330
1F
100
AcDbEntity
  8
1-6
  6
Continuous
 62
     6
370
     5
100
AcDbLine
 10
348.9189519108953
 20
133.3909705909523
 30
0.0
 11
347.071244523332
 21
118.3434868889886
 31
0.0
  0
LINE
  5
121
330
1F
100
AcDbEntity
  8
1-6
  6
Continuous
 62
     6
370
     5
100
AcDbLine
 10
350.8218136349241
 20
132.4777320655617
 30
0.0
 11
349.0563552444047
 21
118.0997462917019
 31
0.0
  0
LINE
  5
122
330
1F
100
AcDbEntity
  8
1-6
  6
Continuous
 62
     6
370
     5
100
AcDbLine
 10
352.2893049910263
 20
134.1658407675254
 30
0.0
 11
439.1549352697425
 21
157.4413419156462
 31
0.0
  0
LINE
  5
123
330
1F
100
AcDbEntity
  8
1-6
  6
Continuous
 62
     6
370
     5
100
AcDbLine
 10
353.4584581529772
 20
132.4085107751795
 30
0.0
 11
439.4182359850084
 21
155.4413105732686
 31
0.0
  0
LINE
  5
124
330
1F
100
AcDbEntity
  8
1-6
  6
Continuous
 62
     6
370
     5
100
AcDbLine
 10
352.7247495908995
 20
131.5644935401711
 30
0.0
 11
351.0414659654772
 21
117.8560056944152
 31
0.0
  0
LINE
  5
125
330
1F
100
AcDbEntity
  8
1-6
  6
Continuous
 62
     6
370
     5
100
AcDbLine
 10
362.4592301652239
 20
133.0174725506757
 30
0.0
 11
365.3570226720863
 21
133.7939387141048
 31
0.0
  0
LINE
  5
126
330
1F
100
AcDbEntity
  8
1-6
  6
Continuous
 62
     6
370
     5
100
AcDbLine
 10
367.6576933989655
 20
134.4106206120672
 30
0.0
 11
378.51092364337
 21
137.3187313595334
 31
0.0
  0
LINE
  5
127
330
1F
100
AcDbEntity
  8
1-6
  6
Continuous
 62
     6
370
     5
100
AcDbLine
 10
380.8118912980364
 20
137.9351163297087
 30
0.0
 11
383.7096838048988
 21
138.7115824931377
 31
0.0
  0
LINE
  5
128
330
1F
100
AcDbEntity
  8
1-6
  6
Continuous
 62
     6
370
     5
100
AcDbLine
 10
386.6074020798142
 20
139.4880486565667
 30
0.0
 11
389.5052688186234
 21
140.2645148199958
 31
0.0
  0
LINE
  5
129
330
1F
100
AcDbEntity
  8
1-6
  6
Continuous
 62
     6
370
     5
100
AcDbLine
 10
53.36089263091219
 20
161.4412561365077
 30
0.0
 11
167.7770418734164
 21
161.4412561365077
 31
0.0
  0
LINE
  5
12A
330
1F
100
AcDbEntity
  8
1-6
  6
Continuous
 62
     6
370
     5
100
AcDbLine
 10
53.36089263091219
 20
159.4412247941301
 30
0.0
 11
167.5137411581503
 21
159.4412247941301
 31
0.0
  0
LINE
  5
12B
330
1F
100
AcDbEntity
  8
1-6
  6
Continuous
 62
     6
370
     5
100
AcDbLine
 10
53.36089263091219
 20
157.4411934517526
 30
0.0
 11
167.2504404428844
 21
157.4411934517526
 31
0.0
  0
LINE
  5
12C
330
1F
100
AcDbEntity
  8
1-6
  6
Continuous
 62
     6
370
     5
100
AcDbLine
 10
53.36089263091219
 20
155.441162109375
 30
0.0
 11
166.9871397276183
 21
155.441162109375
 31
0.0
  0
LINE
  5
12D
330
1F
100
AcDbEntity
  8
1-6
  6
Continuous
 62
     6
370
     5
100
AcDbLine
 10
213.3608761349241
 20
151.2976833034206
 30
0.0
 11
168.0403425886825
 21
163.4412874788852
 31
0.0
  0
LINE
  5
12E
330
1F
100
AcDbEntity
  8
1-6
  6
Continuous
 62
     6
370
     5
100
AcDbLine
 10
256.3608447925466
 20
137.7052942224452
 30
0.0
 11
167.7770418734164
 21
161.4412561365077
 31
0.0
  0
LINE
  5
12F
330
1F
100
AcDbEntity
  8
1-6
  6
Continuous
 62
     6
370
     5
100
AcDbLine
 10
256.3608447925466
 20
135.6347054146432
 30
0.0
 11
167.5137411581503
 21
159.4412247941301
 31
0.0
  0
LINE
  5
130
330
1F
100
AcDbEntity
  8
1-6
  6
Continuous
 62
     6
370
     5
100
AcDbLine
 10
256.3608447925466
 20
133.5641166068413
 30
0.0
 11
167.2504404428844
 21
157.4411934517526
 31
0.0
  0
LINE
  5
131
330
1F
100
AcDbEntity
  8
1-6
  6
Continuous
 62
     6
370
     5
100
AcDbLine
 10
256.3608447925466
 20
131.4935649150127
 30
0.0
 11
166.9871397276183
 21
155.441162109375
 31
0.0
  0
LINE
  5
132
330
1F
100
AcDbEntity
  8
1-6
  6
Continuous
 62
     6
370
     5
100
AcDbLine
 10
217.216409219278
 20
140.2645148199958
 30
0.0
 11
220.1142017261403
 21
139.4880486565667
 31
0.0
  0
LINE
  5
133
330
1F
100
AcDbEntity
  8
1-6
  6
Continuous
 62
     6
370
     5
100
AcDbLine
 10
223.0120684649494
 20
138.7115824931377
 30
0.0
 11
225.9098609718117
 21
137.9351163297087
 31
0.0
  0
LINE
  5
134
330
1F
100
AcDbEntity
  8
1-6
  6
Continuous
 62
     6
370
     5
100
AcDbLine
 10
228.2106801625845
 20
137.3186571275866
 30
0.0
 11
239.0639846389358
 21
134.4105463801204
 31
0.0
  0
LINE
  5
135
330
1F
100
AcDbEntity
  8
1-6
  6
Continuous
 62
     6
370
     5
100
AcDbLine
 10
241.3647295977619
 20
133.7940871779984
 30
0.0
 11
244.2625221046242
 21
133.0176210145693
 31
0.0
  0
LINE
  5
136
330
1F
100
AcDbEntity
  8
1-6
  6
Continuous
 62
     6
370
     5
100
AcDbLine
 10
446.366717364337
 20
163.4412874788852
 30
0.0
 11
476.3667421083194
 21
193.4413122228674
 31
0.0
  0
LINE
  5
137
330
1F
100
AcDbEntity
  8
1-6
  6
Continuous
 62
     6
370
     5
100
AcDbLine
 10
442.1241389094174
 20
163.4412874788852
 30
0.0
 11
472.1241636533995
 21
193.4413122228674
 31
0.0
  0
LINE
  5
138
330
1F
100
AcDbEntity
  8
1-6
  6
Continuous
 62
     6
370
     5
100
AcDbLine
 10
437.5887154244089
 20
163.1485166807433
 30
0.0
 11
467.881510966533
 21
193.4413122228674
 31
0.0
  0
LINE
  5
139
330
1F
100
AcDbEntity
  8
1-6
  6
Continuous
 62
     6
370
     5
100
AcDbLine
 10
128.1687308646538
 20
163.4412874788852
 30
0.0
 11
158.1687556086361
 21
193.4413122228674
 31
0.0
  0
LINE
  5
13A
330
1F
100
AcDbEntity
  8
1-6
  6
Continuous
 62
     6
370
     5
100
AcDbLine
 10
123.9260781777872
 20
163.4412874788852
 30
0.0
 11
153.9261029217695
 21
193.4413122228674
 31
0.0
  0
LINE
  5
13B
330
1F
100
AcDbEntity
  8
1-6
  6
Continuous
 62
     6
370
     5
100
AcDbLine
 10
119.6834254909206
 20
163.4412874788852
 30
0.0
 11
149.683450234903
 21
193.4413122228674
 31
0.0
  0
LINE
  5
13C
330
1F
100
AcDbEntity
  8
1-6
  6
Continuous
 62
     6
370
     5
100
AcDbLine
 10
550.0135926942569
 20
63.4412792308911
 30
0.0
 11
553.360859638936
 21
66.78850905959672
 31
0.0
  0
LINE
  5
13D
330
1F
100
AcDbEntity
  8
1-6
  6
Continuous
 62
     6
370
     5
100
AcDbLine
 10
431.2197628536741
 20
63.4412792308911
 30
0.0
 11
521.2197628536741
 21
153.4412792308911
 31
0.0
  0
LINE
  5
13E
330
1F
100
AcDbEntity
  8
1-6
  6
Continuous
 62
     6
370
     5
100
AcDbLine
 10
426.9771101668075
 20
63.4412792308911
 30
0.0
 11
516.9771101668075
 21
153.4412792308911
 31
0.0
  0
LINE
  5
13F
330
1F
100
AcDbEntity
  8
1-6
  6
Continuous
 62
     6
370
     5
100
AcDbLine
 10
422.7344574799409
 20
63.4412792308911
 30
0.0
 11
512.7344574799409
 21
153.4412792308911
 31
0.0
  0
LINE
  5
140
330
1F
100
AcDbEntity
  8
1-6
  6
Continuous
 62
     6
370
     5
100
AcDbLine
 10
53.36089263091219
 20
67.42007446289062
 30
0.0
 11
139.3820602829392
 21
153.4412792308911
 31
0.0
  0
LINE
  5
141
330
1F
100
AcDbEntity
  8
1-6
  6
Continuous
 62
     6
370
     5
100
AcDbLine
 10
53.36089263091219
 20
71.66272714975719
 30
0.0
 11
135.1394818280195
 21
153.4412792308911
 31
0.0
  0
LINE
  5
142
330
1F
100
AcDbEntity
  8
1-6
  6
Continuous
 62
     6
370
     5
100
AcDbLine
 10
53.36089263091219
 20
75.90537983662375
 30
0.0
 11
130.8968291411529
 21
153.4412792308911
 31
0.0
  0
LINE
  5
143
330
1F
100
AcDbEntity
  8
1-6
  6
Continuous
 62
     6
370
     5
100
AcDbLine
 10
168.1760385874156
 20
63.4412792308911
 30
0.0
 11
229.0499465529983
 21
124.3151500805005
 31
0.0
  0
LINE
  5
144
330
1F
100
AcDbEntity
  8
1-6
  6
Continuous
 62
     6
370
     5
100
AcDbLine
 10
176.6612697292019
 20
63.4412792308911
 30
0.0
 11
229.9628510346284
 21
116.7427863043708
 31
0.0
  0
LINE
  5
145
330
1F
100
AcDbEntity
  8
1-6
  6
Continuous
 62
     6
370
     5
100
AcDbLine
 10
172.4186912742822
 20
63.4412792308911
 30
0.0
 11
229.5063987938134
 21
120.5289496344489
 31
0.0
  0
LINE
  5
146
330
1F
100
AcDbEntity
  8
1-6
  6
Continuous
 62
     6
370
     5
100
AcDbLine
 10
347.9108820734799
 20
63.4412792308911
 30
0.0
 11
553.360859638936
 21
63.4412792308911
 31
0.0
  0
LINE
  5
147
330
1F
100
AcDbEntity
  8
1-6
  6
Continuous
 62
     6
370
     5
100
AcDbLine
 10
258.8108701963683
 20
63.4412792308911
 30
0.0
 11
53.36089263091219
 21
63.4412792308911
 31
0.0
  0
LINE
  5
148
330
1F
100
AcDbEntity
  8
1-E
  6
Continuous
 62
     7
370
     9
100
AcDbLine
 10
122.3823506123311
 20
178.4413369668497
 30
0.0
 11
122.3823506123311
 21
223.4413369668497
 31
0.0
  0
LINE
  5
149
330
1F
100
AcDbEntity
  8
1-E
  6
Continuous
 62
     7
370
     9
100
AcDbLine
 10
487.6324050490922
 20
163.4412874788852
 30
0.0
 11
487.6324050490922
 21
223.4413369668497
 31
0.0
  0
LINE
  5
14A
330
1F
100
AcDbEntity
  8
1-E
  6
Continuous
 62
     7
370
     9
100
AcDbLine
 10
122.3823506123311
 20
78.44129160288219
 30
0.0
 11
122.3823506123311
 21
33.44129160288219
 31
0.0
  0
LINE
  5
14B
330
1F
100
AcDbEntity
  8
1-4
  6
Continuous
 62
     2
370
     9
100
AcDbLine
 10
228.3609998548353
 20
-36.05673547693195
 30
0.0
 11
228.3609998548353
 21
-16.55693095439187
 31
0.0
  0
LINE
  5
14C
330
1F
100
AcDbEntity
  8
1-4
  6
Continuous
 62
     2
370
     9
100
AcDbLine
 10
228.3609998548353
 20
-16.55693095439187
 30
0.0
 11
378.3609751108531
 21
-16.55693095439187
 31
0.0
  0
LINE
  5
14D
330
1F
100
AcDbEntity
  8
1-4
  6
Continuous
 62
     2
370
     9
100
AcDbLine
 10
378.3609751108531
 20
-36.05673547693195
 30
0.0
 11
378.3609751108531
 21
-16.55693095439187
 31
0.0
  0
LINE
  5
14E
330
1F
100
AcDbEntity
  8
1-4
  6
Continuous
 62
     2
370
     9
100
AcDbLine
 10
378.3609751108531
 20
-36.05673547693195
 30
0.0
 11
228.3609998548353
 21
-36.05673547693195
 31
0.0
  0
LINE
  5
14F
330
1F
100
AcDbEntity
  8
1-9
  6
JWW_DASHED1
 62
     2
370
     9
100
AcDbLine
 10
332.8579052074536
 20
204.2440647434545
 30
0.0
 11
342.7467882311022
 21
202.7569761533995
 31
0.0
  0
LINE
  5
150
330
1F
100
AcDbEntity
  8
1-9
  6
JWW_DASHED1
 62
     2
370
     9
100
AcDbLine
 10
331.5194289748734
 20
195.3441739468962
 30
0.0
 11
341.4083862304688
 21
193.8572338207348
 31
0.0
  0
LINE
  5
151
330
1F
100
AcDbEntity
  8
1-9
  6
JWW_DASHED1
 62
     2
370
     9
100
AcDbLine
 10
329.288981669658
 20
180.51092364337
 30
0.0
 11
339.1780131572002
 21
179.0239835172087
 31
0.0
  0
LINE
  5
152
330
1F
100
AcDbEntity
  8
1-9
  6
Continuous
 62
     2
370
     9
100
AcDbLine
 10
332.9321371542441
 20
204.738597972973
 30
0.0
 11
342.8210201778928
 21
203.2515093829181
 31
0.0
  0
LINE
  5
153
330
1F
100
AcDbEntity
  8
1-9
  6
Continuous
 62
     2
370
     9
100
AcDbLine
 10
331.4451970280828
 20
194.8497149493244
 30
0.0
 11
341.3340800517314
 21
193.3627748231631
 31
0.0
  0
LINE
  5
154
330
1F
100
AcDbEntity
  8
1-9
  6
Continuous
 62
     2
370
     9
100
AcDbLine
 10
330.8503022065034
 20
190.8941914326436
 30
0.0
 11
340.7392594620989
 21
189.4072513064823
 31
0.0
  0
LINE
  5
155
330
1F
100
AcDbEntity
  8
1-9
  6
Continuous
 62
     2
370
     9
100
AcDbLine
 10
330.8315215239655
 20
190.7699271537163
 30
0.0
 11
340.7207014754013
 21
189.2829127956081
 31
0.0
  0
LINE
  5
156
330
1F
100
AcDbEntity
  8
1-9
  6
Continuous
 62
     2
370
     9
100
AcDbLine
 10
329.2146754909206
 20
180.0163904138514
 30
0.0
 11
339.1034842826225
 21
178.5293760557433
 31
0.0
  0
LINE
  5
157
330
1F
100
AcDbEntity
  8
1-9
  6
Continuous
 62
     2
370
     9
100
AcDbLine
 10
332.9321371542441
 20
204.738597972973
 30
0.0
 11
329.2146754909206
 21
180.0163904138514
 31
0.0
  0
LINE
  5
158
330
1F
100
AcDbEntity
  8
1-9
  6
Continuous
 62
     2
370
     9
100
AcDbLine
 10
342.8210201778928
 20
203.2515093829181
 30
0.0
 11
339.1034842826225
 21
178.5293760557433
 31
0.0
  0
LINE
  5
159
330
1F
100
AcDbEntity
  8
1-B
  6
Continuous
 62
     4
370
     9
100
AcDbLine
 10
311.1740854624156
 20
213.2976156698691
 30
0.0
 11
305.1610008445947
 21
210.6732194230363
 31
0.0
  0
LINE
  5
15A
330
1F
100
AcDbEntity
  8
1-B
  6
Continuous
 62
     4
370
     9
100
AcDbLine
 10
310.2608840529983
 20
216.1723220412796
 30
0.0
 11
303.9609671927788
 21
213.422770732158
 31
0.0
  0
LINE
  5
15B
330
1F
100
AcDbEntity
  8
1-B
  6
Continuous
 62
     4
370
     9
100
AcDbLine
 10
295.5479637352197
 20
213.2976156698691
 30
0.0
 11
301.5610483530406
 21
210.6732194230363
 31
0.0
  0
LINE
  5
15C
330
1F
100
AcDbEntity
  8
1-B
  6
Continuous
 62
     4
370
     9
100
AcDbLine
 10
296.4610166807433
 20
216.1723220412796
 30
0.0
 11
302.7609335409628
 21
213.422770732158
 31
0.0
  0
LINE
  5
15D
330
1F
100
AcDbEntity
  8
1-B
  6
Continuous
 62
     4
370
     9
100
AcDbLine
 10
229.8670918232686
 20
159.0312046360326
 30
0.0
 11
229.4022513724663
 21
159.0312046360326
 31
0.0
  0
LINE
  5
15E
330
1F
100
AcDbEntity
  8
1-6
  6
Continuous
 62
     6
370
     5
100
AcDbLine
 10
332.6143501900339
 20
226.5179542335305
 30
0.0
 11
331.6778399493244
 21
226.6587722365921
 31
0.0
  0
LINE
  5
15F
330
1F
100
AcDbEntity
  8
1-6
  6
Continuous
 62
     6
370
     5
100
AcDbLine
 10
335.6830988703549
 20
224.1679934939823
 30
0.0
 11
337.213316221495
 21
219.7590612463049
 31
0.0
  0
LINE
  5
160
330
1F
100
AcDbEntity
  8
1-6
  6
Continuous
 62
     6
370
     5
100
AcDbLine
 10
336.6595458984375
 20
218.325493889886
 30
0.0
 11
336.7925695470863
 21
218.3054512642526
 31
0.0
  0
LINE
  5
161
330
1F
100
AcDbEntity
  8
1-6
  6
Continuous
 62
     6
370
     5
100
AcDbLine
 10
349.530029296875
 20
223.9743965767526
 30
0.0
 11
350.4665395375845
 21
223.8335043417441
 31
0.0
  0
LINE
  5
162
330
1F
100
AcDbEntity
  8
1-6
  6
Continuous
 62
     6
370
     5
100
AcDbLine
 10
345.9058771906674
 20
222.6307983398438
 30
0.0
 11
343.1468241923564
 21
218.8667932458827
 31
0.0
  0
LINE
  5
163
330
1F
100
AcDbEntity
  8
1-6
  6
Continuous
 62
     6
370
     5
100
AcDbLine
 10
343.2544605152028
 20
217.3337550807644
 30
0.0
 11
343.1214368665541
 21
217.3537977063978
 31
0.0
  0
LINE
  5
164
330
1F
100
AcDbEntity
  8
1-6
  6
Continuous
 62
     6
370
     5
100
AcDbLine
 10
337.0200162320523
 20
218.4733639278927
 30
0.0
 11
337.4364574535473
 21
221.2423640070735
 31
0.0
  0
LINE
  5
165
330
1F
100
AcDbEntity
  8
1-6
  6
Continuous
 62
     6
370
     5
100
AcDbLine
 10
338.0089342271959
 20
218.3247515704181
 30
0.0
 11
338.4253754486909
 21
221.0936031857052
 31
0.0
  0
LINE
  5
166
330
1F
100
AcDbEntity
  8
1-6
  6
Continuous
 62
     6
370
     5
100
AcDbLine
 10
341.9644577438767
 20
217.7299309807855
 30
0.0
 11
342.3808989653717
 21
220.4988568280195
 31
0.0
  0
LINE
  5
167
330
1F
100
AcDbEntity
  8
1-6
  6
Continuous
 62
     6
370
     5
100
AcDbLine
 10
342.9530788112331
 20
217.5812443913641
 30
0.0
 11
343.3695200327281
 21
220.350170238598
 31
0.0
  0
LINE
  5
168
330
1F
100
AcDbEntity
  8
1-B
  6
Continuous
 62
     4
370
     9
100
AcDbLine
 10
229.9352367504223
 20
158.3311231458509
 30
0.0
 11
229.4022513724663
 21
158.3311231458509
 31
0.0
  0
LINE
  5
169
330
1F
100
AcDbEntity
  8
1-B
  6
Continuous
 62
     4
370
     9
100
AcDbLine
 10
229.9027231577281
 20
159.1491591994827
 30
0.0
 11
243.4026934649494
 21
215.1491088867188
 31
0.0
  0
LINE
  5
16A
330
1F
100
AcDbEntity
  8
1-B
  6
Continuous
 62
     4
370
     9
100
AcDbLine
 10
302.7609335409628
 20
213.2976156698691
 30
0.0
 11
303.3608761349241
 21
213.2976156698691
 31
0.0
  0
LINE
  5
16B
330
1F
100
AcDbEntity
  8
1-B
  6
Continuous
 62
     4
370
     9
100
AcDbLine
 10
244.8609058277028
 20
213.2976156698691
 30
0.0
 11
295.5478152713261
 21
213.2976156698691
 31
0.0
  0
LINE
  5
16C
330
1F
100
AcDbEntity
  8
1-B
  6
Continuous
 62
     4
370
     9
100
AcDbLine
 10
255.9927285684122
 20
209.0312087600296
 30
0.0
 11
265.2928037901183
 21
209.0312087600296
 31
0.0
  0
LINE
  5
16D
330
1F
100
AcDbEntity
  8
1-B
  6
Continuous
 62
     4
370
     9
100
AcDbLine
 10
255.9927285684122
 20
208.3312015017948
 30
0.0
 11
265.2928037901183
 21
208.3312015017948
 31
0.0
  0
LINE
  5
16E
330
1F
100
AcDbEntity
  8
1-B
  6
Continuous
 62
     4
370
     9
100
AcDbLine
 10
265.9926625844595
 20
208.3312015017948
 30
0.0
 11
275.2927378061656
 21
208.3312015017948
 31
0.0
  0
LINE
  5
16F
330
1F
100
AcDbEntity
  8
1-B
  6
Continuous
 62
     4
370
     9
100
AcDbLine
 10
265.9926625844595
 20
209.0312087600296
 30
0.0
 11
275.2927378061656
 21
209.0312087600296
 31
0.0
  0
LINE
  5
170
330
1F
100
AcDbEntity
  8
1-B
  6
Continuous
 62
     4
370
     9
100
AcDbLine
 10
265.9926625844595
 20
198.3311932538007
 30
0.0
 11
275.2927378061656
 21
198.3311932538007
 31
0.0
  0
LINE
  5
171
330
1F
100
AcDbEntity
  8
1-B
  6
Continuous
 62
     4
370
     9
100
AcDbLine
 10
265.9926625844595
 20
199.0311262800888
 30
0.0
 11
275.2927378061656
 21
199.0311262800888
 31
0.0
  0
LINE
  5
172
330
1F
100
AcDbEntity
  8
1-B
  6
Continuous
 62
     4
370
     9
100
AcDbLine
 10
260.9926955764358
 20
203.3311602618244
 30
0.0
 11
270.2927707981419
 21
203.3311602618244
 31
0.0
  0
LINE
  5
173
330
1F
100
AcDbEntity
  8
1-B
  6
Continuous
 62
     4
370
     9
100
AcDbLine
 10
260.9926955764358
 20
204.0312417520059
 30
0.0
 11
270.2927707981419
 21
204.0312417520059
 31
0.0
  0
LINE
  5
174
330
1F
100
AcDbEntity
  8
1-B
  6
Continuous
 62
     4
370
     9
100
AcDbLine
 10
260.9926955764358
 20
208.3312015017948
 30
0.0
 11
260.9926955764358
 21
199.0311262800888
 31
0.0
  0
LINE
  5
175
330
1F
100
AcDbEntity
  8
1-B
  6
Continuous
 62
     4
370
     9
100
AcDbLine
 10
260.2926883182011
 20
208.3312015017948
 30
0.0
 11
260.2926883182011
 21
199.0311262800888
 31
0.0
  0
LINE
  5
176
330
1F
100
AcDbEntity
  8
1-B
  6
Continuous
 62
     4
370
     9
100
AcDbLine
 10
270.2927707981419
 20
208.3312015017948
 30
0.0
 11
270.2927707981419
 21
199.0311262800888
 31
0.0
  0
LINE
  5
177
330
1F
100
AcDbEntity
  8
1-B
  6
Continuous
 62
     4
370
     9
100
AcDbLine
 10
270.9927780563767
 20
208.3312015017948
 30
0.0
 11
270.9927780563767
 21
199.0311262800888
 31
0.0
  0
LINE
  5
178
330
1F
100
AcDbEntity
  8
1-B
  6
Continuous
 62
     4
370
     9
100
AcDbLine
 10
260.2926883182011
 20
213.2976156698691
 30
0.0
 11
260.2926883182011
 21
209.0312087600296
 31
0.0
  0
LINE
  5
179
330
1F
100
AcDbEntity
  8
1-B
  6
Continuous
 62
     4
370
     9
100
AcDbLine
 10
260.9926955764358
 20
213.2976156698691
 30
0.0
 11
260.9926955764358
 21
209.0312087600296
 31
0.0
  0
LINE
  5
17A
330
1F
100
AcDbEntity
  8
1-B
  6
Continuous
 62
     4
370
     9
100
AcDbLine
 10
265.2928037901183
 20
213.2976156698691
 30
0.0
 11
265.2928037901183
 21
204.0312417520059
 31
0.0
  0
LINE
  5
17B
330
1F
100
AcDbEntity
  8
1-B
  6
Continuous
 62
     4
370
     9
100
AcDbLine
 10
265.9926625844595
 20
213.2976156698691
 30
0.0
 11
265.9926625844595
 21
204.0312417520059
 31
0.0
  0
LINE
  5
17C
330
1F
100
AcDbEntity
  8
1-B
  6
Continuous
 62
     4
370
     9
100
AcDbLine
 10
270.2927707981419
 20
213.2976156698691
 30
0.0
 11
270.2927707981419
 21
209.0312087600296
 31
0.0
  0
LINE
  5
17D
330
1F
100
AcDbEntity
  8
1-B
  6
Continuous
 62
     4
370
     9
100
AcDbLine
 10
270.9927780563767
 20
213.2976156698691
 30
0.0
 11
270.9927780563767
 21
209.0312087600296
 31
0.0
  0
LINE
  5
17E
330
1F
100
AcDbEntity
  8
1-B
  6
Continuous
 62
     4
370
     9
100
AcDbLine
 10
275.2927378061656
 20
213.2976156698691
 30
0.0
 11
275.2927378061656
 21
204.0312417520059
 31
0.0
  0
LINE
  5
17F
330
1F
100
AcDbEntity
  8
1-B
  6
Continuous
 62
     4
370
     9
100
AcDbLine
 10
275.9927450644003
 20
213.2976156698691
 30
0.0
 11
275.9927450644003
 21
204.0312417520059
 31
0.0
  0
LINE
  5
180
330
1F
100
AcDbEntity
  8
1-B
  6
Continuous
 62
     4
370
     9
100
AcDbLine
 10
250.2926058382602
 20
216.6477034285263
 30
0.0
 11
250.2926058382602
 21
216.2976997994088
 31
0.0
  0
LINE
  5
181
330
1F
100
AcDbEntity
  8
1-B
  6
Continuous
 62
     4
370
     9
100
AcDbLine
 10
250.9927615603886
 20
216.6477034285263
 30
0.0
 11
250.9927615603886
 21
216.2976997994088
 31
0.0
  0
LINE
  5
182
330
1F
100
AcDbEntity
  8
1-B
  6
Continuous
 62
     4
370
     9
100
AcDbLine
 10
245.2927872941302
 20
210.1883363466006
 30
0.0
 11
245.2927872941302
 21
204.0312417520059
 31
0.0
  0
LINE
  5
183
330
1F
100
AcDbEntity
  8
1-B
  6
Continuous
 62
     4
370
     9
100
AcDbLine
 10
245.9926460884714
 20
213.0918447133658
 30
0.0
 11
245.9926460884714
 21
204.0312417520059
 31
0.0
  0
LINE
  5
184
330
1F
100
AcDbEntity
  8
1-B
  6
Continuous
 62
     4
370
     9
100
AcDbLine
 10
245.0138236380913
 20
209.0312087600296
 30
0.0
 11
245.2927872941302
 21
209.0312087600296
 31
0.0
  0
LINE
  5
185
330
1F
100
AcDbEntity
  8
1-B
  6
Continuous
 62
     4
370
     9
100
AcDbLine
 10
244.8450201910895
 20
208.3312015017948
 30
0.0
 11
245.2927872941302
 21
208.3312015017948
 31
0.0
  0
LINE
  5
186
330
1F
100
AcDbEntity
  8
1-B
  6
Continuous
 62
     4
370
     9
100
AcDbLine
 10
241.9278531461148
 20
209.0312087600296
 30
0.0
 11
241.4835007126267
 21
209.0312087600296
 31
0.0
  0
LINE
  5
187
330
1F
100
AcDbEntity
  8
1-B
  6
Continuous
 62
     4
370
     9
100
AcDbLine
 10
241.7590496991133
 20
208.3312015017948
 30
0.0
 11
241.4835007126267
 21
208.3312015017948
 31
0.0
  0
LINE
  5
188
330
1F
100
AcDbEntity
  8
1-B
  6
Continuous
 62
     4
370
     9
100
AcDbLine
 10
240.7224747941302
 20
204.0312417520059
 30
0.0
 11
240.2781223606419
 21
204.0312417520059
 31
0.0
  0
LINE
  5
189
330
1F
100
AcDbEntity
  8
1-B
  6
Continuous
 62
     4
370
     9
100
AcDbLine
 10
240.5536713471284
 20
203.3311602618244
 30
0.0
 11
240.2781223606419
 21
203.3311602618244
 31
0.0
  0
LINE
  5
18A
330
1F
100
AcDbEntity
  8
1-B
  6
Continuous
 62
     4
370
     9
100
AcDbLine
 10
239.5170964421453
 20
199.0312005120355
 30
0.0
 11
239.0727440086572
 21
199.0312005120355
 31
0.0
  0
LINE
  5
18B
330
1F
100
AcDbEntity
  8
1-B
  6
Continuous
 62
     4
370
     9
100
AcDbLine
 10
239.3484414590372
 20
198.3311190218539
 30
0.0
 11
239.0727440086572
 21
198.3311190218539
 31
0.0
  0
LINE
  5
18C
330
1F
100
AcDbEntity
  8
1-B
  6
Continuous
 62
     4
370
     9
100
AcDbLine
 10
238.3118665540541
 20
194.0311592720651
 30
0.0
 11
237.8673656566723
 21
194.0311592720651
 31
0.0
  0
LINE
  5
18D
330
1F
100
AcDbEntity
  8
1-B
  6
Continuous
 62
     4
370
     9
100
AcDbLine
 10
238.1430631070523
 20
193.3311520138302
 30
0.0
 11
237.8673656566723
 21
193.3311520138302
 31
0.0
  0
LINE
  5
18E
330
1F
100
AcDbEntity
  8
1-B
  6
Continuous
 62
     4
370
     9
100
AcDbLine
 10
237.1064882020694
 20
189.0311922640414
 30
0.0
 11
236.6621357685811
 21
189.0311922640414
 31
0.0
  0
LINE
  5
18F
330
1F
100
AcDbEntity
  8
1-B
  6
Continuous
 62
     4
370
     9
100
AcDbLine
 10
236.9376847550677
 20
188.3311107738598
 30
0.0
 11
236.6621357685811
 21
188.3311107738598
 31
0.0
  0
LINE
  5
190
330
1F
100
AcDbEntity
  8
1-B
  6
Continuous
 62
     4
370
     9
100
AcDbLine
 10
235.9011098500845
 20
184.0310767921242
 30
0.0
 11
235.4567574165962
 21
184.0310767921242
 31
0.0
  0
LINE
  5
191
330
1F
100
AcDbEntity
  8
1-B
  6
Continuous
 62
     4
370
     9
100
AcDbLine
 10
235.7323064030828
 20
183.3310695338894
 30
0.0
 11
235.4567574165962
 21
183.3310695338894
 31
0.0
  0
LINE
  5
192
330
1F
100
AcDbEntity
  8
1-B
  6
Continuous
 62
     4
370
     9
100
AcDbLine
 10
234.6957314980997
 20
179.0311097841006
 30
0.0
 11
234.2513790646116
 21
179.0311097841006
 31
0.0
  0
LINE
  5
193
330
1F
100
AcDbEntity
  8
1-B
  6
Continuous
 62
     4
370
     9
100
AcDbLine
 10
234.526928051098
 20
178.3311025258657
 30
0.0
 11
234.2513790646116
 21
178.3311025258657
 31
0.0
  0
LINE
  5
194
330
1F
100
AcDbEntity
  8
1-B
  6
Continuous
 62
     4
370
     9
100
AcDbLine
 10
233.4903531461148
 20
174.0310685441301
 30
0.0
 11
233.0460007126267
 21
174.0310685441301
 31
0.0
  0
LINE
  5
195
330
1F
100
AcDbEntity
  8
1-B
  6
Continuous
 62
     4
370
     9
100
AcDbLine
 10
233.3216981630069
 20
173.3309870539485
 30
0.0
 11
233.0460007126267
 21
173.3309870539485
 31
0.0
  0
LINE
  5
196
330
1F
100
AcDbEntity
  8
1-B
  6
Continuous
 62
     4
370
     9
100
AcDbLine
 10
232.2849747941302
 20
169.031064420133
 30
0.0
 11
231.8406223606419
 21
169.031064420133
 31
0.0
  0
LINE
  5
197
330
1F
100
AcDbEntity
  8
1-B
  6
Continuous
 62
     4
370
     9
100
AcDbLine
 10
232.116319811022
 20
168.3310200459248
 30
0.0
 11
231.8406223606419
 21
168.3310200459248
 31
0.0
  0
LINE
  5
198
330
1F
100
AcDbEntity
  8
1-B
  6
Continuous
 62
     4
370
     9
100
AcDbLine
 10
231.0795964421453
 20
164.0310231801626
 30
0.0
 11
230.6353924725508
 21
164.0310231801626
 31
0.0
  0
LINE
  5
199
330
1F
100
AcDbEntity
  8
1-B
  6
Continuous
 62
     4
370
     9
100
AcDbLine
 10
230.9109414590372
 20
163.3309788059545
 30
0.0
 11
230.6353924725508
 21
163.3309788059545
 31
0.0
  0
LINE
  5
19A
330
1F
100
AcDbEntity
  8
1-B
  6
Continuous
 62
     4
370
     9
100
AcDbLine
 10
245.2926388302366
 20
216.6477034285263
 30
0.0
 11
245.2926388302366
 21
216.2976997994088
 31
0.0
  0
LINE
  5
19B
330
1F
100
AcDbEntity
  8
1-B
  6
Continuous
 62
     4
370
     9
100
AcDbLine
 10
245.9926460884714
 20
216.6477034285263
 30
0.0
 11
245.9926460884714
 21
216.2976997994088
 31
0.0
  0
LINE
  5
19C
330
1F
100
AcDbEntity
  8
1-B
  6
Continuous
 62
     4
370
     9
100
AcDbLine
 10
255.2925728462839
 20
216.6477034285263
 30
0.0
 11
255.2925728462839
 21
216.2976997994088
 31
0.0
  0
LINE
  5
19D
330
1F
100
AcDbEntity
  8
1-B
  6
Continuous
 62
     4
370
     9
100
AcDbLine
 10
255.9927285684122
 20
216.6477034285263
 30
0.0
 11
255.9927285684122
 21
216.2976997994088
 31
0.0
  0
LINE
  5
19E
330
1F
100
AcDbEntity
  8
1-B
  6
Continuous
 62
     4
370
     9
100
AcDbLine
 10
260.2926883182011
 20
216.6477034285263
 30
0.0
 11
260.2926883182011
 21
216.2976997994088
 31
0.0
  0
LINE
  5
19F
330
1F
100
AcDbEntity
  8
1-B
  6
Continuous
 62
     4
370
     9
100
AcDbLine
 10
260.9926955764358
 20
216.6477034285263
 30
0.0
 11
260.9926955764358
 21
216.2976997994088
 31
0.0
  0
LINE
  5
1A0
330
1F
100
AcDbEntity
  8
1-B
  6
Continuous
 62
     4
370
     9
100
AcDbLine
 10
265.2926553262247
 20
216.6477034285263
 30
0.0
 11
265.2926553262247
 21
216.2976997994088
 31
0.0
  0
LINE
  5
1A1
330
1F
100
AcDbEntity
  8
1-B
  6
Continuous
 62
     4
370
     9
100
AcDbLine
 10
265.9928110483531
 20
216.6477034285263
 30
0.0
 11
265.9928110483531
 21
216.2976997994088
 31
0.0
  0
LINE
  5
1A2
330
1F
100
AcDbEntity
  8
1-B
  6
Continuous
 62
     4
370
     9
100
AcDbLine
 10
270.2926223342483
 20
216.6477034285263
 30
0.0
 11
270.2926223342483
 21
216.2976997994088
 31
0.0
  0
LINE
  5
1A3
330
1F
100
AcDbEntity
  8
1-B
  6
Continuous
 62
     4
370
     9
100
AcDbLine
 10
270.9927780563767
 20
216.6477034285263
 30
0.0
 11
270.9927780563767
 21
216.2976997994088
 31
0.0
  0
LINE
  5
1A4
330
1F
100
AcDbEntity
  8
1-B
  6
Continuous
 62
     4
370
     9
100
AcDbLine
 10
275.292589342272
 20
216.6477034285263
 30
0.0
 11
275.292589342272
 21
216.2976997994088
 31
0.0
  0
LINE
  5
1A5
330
1F
100
AcDbEntity
  8
1-B
  6
Continuous
 62
     4
370
     9
100
AcDbLine
 10
275.9927450644003
 20
216.6477034285263
 30
0.0
 11
275.9927450644003
 21
216.2976997994088
 31
0.0
  0
LINE
  5
1A6
330
1F
100
AcDbEntity
  8
1-B
  6
Continuous
 62
     4
370
     9
100
AcDbLine
 10
280.2927048141892
 20
216.6477034285263
 30
0.0
 11
280.2927048141892
 21
216.2976997994088
 31
0.0
  0
LINE
  5
1A7
330
1F
100
AcDbEntity
  8
1-B
  6
Continuous
 62
     4
370
     9
100
AcDbLine
 10
280.9927120724241
 20
216.6477034285263
 30
0.0
 11
280.9927120724241
 21
216.2976997994088
 31
0.0
  0
LINE
  5
1A8
330
1F
100
AcDbEntity
  8
1-B
  6
Continuous
 62
     4
370
     9
100
AcDbLine
 10
285.2926718222128
 20
216.6477034285263
 30
0.0
 11
285.2926718222128
 21
216.2976997994088
 31
0.0
  0
LINE
  5
1A9
330
1F
100
AcDbEntity
  8
1-B
  6
Continuous
 62
     4
370
     9
100
AcDbLine
 10
285.9928275443413
 20
216.6477034285263
 30
0.0
 11
285.9928275443413
 21
216.2976997994088
 31
0.0
  0
LINE
  5
1AA
330
1F
100
AcDbEntity
  8
1-B
  6
Continuous
 62
     4
370
     9
100
AcDbLine
 10
290.2926388302366
 20
216.6477034285263
 30
0.0
 11
290.2926388302366
 21
216.2976997994088
 31
0.0
  0
LINE
  5
1AB
330
1F
100
AcDbEntity
  8
1-B
  6
Continuous
 62
     4
370
     9
100
AcDbLine
 10
290.9927945523648
 20
216.6477034285263
 30
0.0
 11
290.9927945523648
 21
216.2976997994088
 31
0.0
  0
LINE
  5
1AC
330
1F
100
AcDbEntity
  8
1-B
  6
Continuous
 62
     4
370
     9
100
AcDbLine
 10
295.2927543021538
 20
216.6477034285263
 30
0.0
 11
295.2927543021538
 21
216.2976997994088
 31
0.0
  0
LINE
  5
1AD
330
1F
100
AcDbEntity
  8
1-B
  6
Continuous
 62
     4
370
     9
100
AcDbLine
 10
295.9927615603886
 20
216.6477034285263
 30
0.0
 11
295.9927615603886
 21
216.2976997994088
 31
0.0
  0
LINE
  5
1AE
330
1F
100
AcDbEntity
  8
1-B
  6
Continuous
 62
     4
370
     9
100
AcDbLine
 10
300.2927213101773
 20
216.6477034285263
 30
0.0
 11
300.2927213101773
 21
216.2976997994088
 31
0.0
  0
LINE
  5
1AF
330
1F
100
AcDbEntity
  8
1-B
  6
Continuous
 62
     4
370
     9
100
AcDbLine
 10
300.9928770323058
 20
216.6477034285263
 30
0.0
 11
300.9928770323058
 21
216.2976997994088
 31
0.0
  0
LINE
  5
1B0
330
1F
100
AcDbEntity
  8
1-B
  6
Continuous
 62
     4
370
     9
100
AcDbLine
 10
376.8546604465794
 20
159.0312046360326
 30
0.0
 11
377.3196493612753
 21
159.0312046360326
 31
0.0
  0
LINE
  5
1B1
330
1F
100
AcDbEntity
  8
1-B
  6
Continuous
 62
     4
370
     9
100
AcDbLine
 10
376.7866639833194
 20
158.3311231458509
 30
0.0
 11
377.3196493612753
 21
158.3311231458509
 31
0.0
  0
LINE
  5
1B2
330
1F
100
AcDbEntity
  8
1-B
  6
Continuous
 62
     4
370
     9
100
AcDbLine
 10
376.8191775760136
 20
159.1491591994827
 30
0.0
 11
363.3192072687924
 21
215.1491088867188
 31
0.0
  0
LINE
  5
1B3
330
1F
100
AcDbEntity
  8
1-B
  6
Continuous
 62
     4
370
     9
100
AcDbLine
 10
360.6795192409206
 20
213.2976156698691
 30
0.0
 11
373.9027528505069
 21
158.4461084314295
 31
0.0
  0
LINE
  5
1B4
330
1F
100
AcDbEntity
  8
1-B
  6
Continuous
 62
     4
370
     9
100
AcDbLine
 10
356.4291464315878
 20
216.6477034285263
 30
0.0
 11
356.4291464315878
 21
216.2976997994088
 31
0.0
  0
LINE
  5
1B5
330
1F
100
AcDbEntity
  8
1-B
  6
Continuous
 62
     4
370
     9
100
AcDbLine
 10
355.7291391733531
 20
216.6477034285263
 30
0.0
 11
355.7291391733531
 21
216.2976997994088
 31
0.0
  0
LINE
  5
1B6
330
1F
100
AcDbEntity
  8
1-B
  6
Continuous
 62
     4
370
     9
100
AcDbLine
 10
364.7940475876267
 20
209.0312087600296
 30
0.0
 11
365.2384000211148
 21
209.0312087600296
 31
0.0
  0
LINE
  5
1B7
330
1F
100
AcDbEntity
  8
1-B
  6
Continuous
 62
     4
370
     9
100
AcDbLine
 10
364.9627025707348
 20
208.3312015017948
 30
0.0
 11
365.2384000211148
 21
208.3312015017948
 31
0.0
  0
LINE
  5
1B8
330
1F
100
AcDbEntity
  8
1-B
  6
Continuous
 62
     4
370
     9
100
AcDbLine
 10
365.9994259396116
 20
204.0312417520059
 30
0.0
 11
366.4437783730997
 21
204.0312417520059
 31
0.0
  0
LINE
  5
1B9
330
1F
100
AcDbEntity
  8
1-B
  6
Continuous
 62
     4
370
     9
100
AcDbLine
 10
366.1680809227197
 20
203.3311602618244
 30
0.0
 11
366.4437783730997
 21
203.3311602618244
 31
0.0
  0
LINE
  5
1BA
330
1F
100
AcDbEntity
  8
1-B
  6
Continuous
 62
     4
370
     9
100
AcDbLine
 10
367.2046558277028
 20
199.0312005120355
 30
0.0
 11
367.6491567250845
 21
199.0312005120355
 31
0.0
  0
LINE
  5
1BB
330
1F
100
AcDbEntity
  8
1-B
  6
Continuous
 62
     4
370
     9
100
AcDbLine
 10
367.3734592747044
 20
198.3311190218539
 30
0.0
 11
367.6491567250845
 21
198.3311190218539
 31
0.0
  0
LINE
  5
1BC
330
1F
100
AcDbEntity
  8
1-B
  6
Continuous
 62
     4
370
     9
100
AcDbLine
 10
368.4100341796875
 20
194.0311592720651
 30
0.0
 11
368.8545350770694
 21
194.0311592720651
 31
0.0
  0
LINE
  5
1BD
330
1F
100
AcDbEntity
  8
1-B
  6
Continuous
 62
     4
370
     9
100
AcDbLine
 10
368.5788376266892
 20
193.3311520138302
 30
0.0
 11
368.8545350770694
 21
193.3311520138302
 31
0.0
  0
LINE
  5
1BE
330
1F
100
AcDbEntity
  8
1-B
  6
Continuous
 62
     4
370
     9
100
AcDbLine
 10
369.6154125316723
 20
189.0311922640414
 30
0.0
 11
370.0597649651605
 21
189.0311922640414
 31
0.0
  0
LINE
  5
1BF
330
1F
100
AcDbEntity
  8
1-B
  6
Continuous
 62
     4
370
     9
100
AcDbLine
 10
369.7842159786741
 20
188.3311107738598
 30
0.0
 11
370.0597649651605
 21
188.3311107738598
 31
0.0
  0
LINE
  5
1C0
330
1F
100
AcDbEntity
  8
1-B
  6
Continuous
 62
     4
370
     9
100
AcDbLine
 10
370.8207908836572
 20
184.0310767921242
 30
0.0
 11
371.2651433171453
 21
184.0310767921242
 31
0.0
  0
LINE
  5
1C1
330
1F
100
AcDbEntity
  8
1-B
  6
Continuous
 62
     4
370
     9
100
AcDbLine
 10
370.9895943306589
 20
183.3310695338894
 30
0.0
 11
371.2651433171453
 21
183.3310695338894
 31
0.0
  0
LINE
  5
1C2
330
1F
100
AcDbEntity
  8
1-B
  6
Continuous
 62
     4
370
     9
100
AcDbLine
 10
372.0261692356419
 20
179.0311097841006
 30
0.0
 11
372.4705216691302
 21
179.0311097841006
 31
0.0
  0
LINE
  5
1C3
330
1F
100
AcDbEntity
  8
1-B
  6
Continuous
 62
     4
370
     9
100
AcDbLine
 10
372.19482421875
 20
178.3311025258657
 30
0.0
 11
372.4705216691302
 21
178.3311025258657
 31
0.0
  0
LINE
  5
1C4
330
1F
100
AcDbEntity
  8
1-B
  6
Continuous
 62
     4
370
     9
100
AcDbLine
 10
373.2313991237331
 20
174.0310685441301
 30
0.0
 11
373.6759000211148
 21
174.0310685441301
 31
0.0
  0
LINE
  5
1C5
330
1F
100
AcDbEntity
  8
1-B
  6
Continuous
 62
     4
370
     9
100
AcDbLine
 10
373.4002025707348
 20
173.3309870539485
 30
0.0
 11
373.6759000211148
 21
173.3309870539485
 31
0.0
  0
LINE
  5
1C6
330
1F
100
AcDbEntity
  8
1-B
  6
Continuous
 62
     4
370
     9
100
AcDbLine
 10
374.436777475718
 20
169.031064420133
 30
0.0
 11
374.8812783730997
 21
169.031064420133
 31
0.0
  0
LINE
  5
1C7
330
1F
100
AcDbEntity
  8
1-B
  6
Continuous
 62
     4
370
     9
100
AcDbLine
 10
374.6055809227197
 20
168.3310200459248
 30
0.0
 11
374.8812783730997
 21
168.3310200459248
 31
0.0
  0
LINE
  5
1C8
330
1F
100
AcDbEntity
  8
1-B
  6
Continuous
 62
     4
370
     9
100
AcDbLine
 10
375.6421558277028
 20
164.0310231801626
 30
0.0
 11
376.0865082611909
 21
164.0310231801626
 31
0.0
  0
LINE
  5
1C9
330
1F
100
AcDbEntity
  8
1-B
  6
Continuous
 62
     4
370
     9
100
AcDbLine
 10
375.8109592747044
 20
163.3309788059545
 30
0.0
 11
376.0865082611909
 21
163.3309788059545
 31
0.0
  0
LINE
  5
1CA
330
1F
100
AcDbEntity
  8
1-B
  6
Continuous
 62
     4
370
     9
100
AcDbLine
 10
361.4292619035052
 20
216.6477034285263
 30
0.0
 11
361.4292619035052
 21
216.2976997994088
 31
0.0
  0
LINE
  5
1CB
330
1F
100
AcDbEntity
  8
1-B
  6
Continuous
 62
     4
370
     9
100
AcDbLine
 10
360.7292546452703
 20
216.6477034285263
 30
0.0
 11
360.7292546452703
 21
216.2976997994088
 31
0.0
  0
LINE
  5
1CC
330
1F
100
AcDbEntity
  8
1-B
  6
Continuous
 62
     4
370
     9
100
AcDbLine
 10
351.4291794235642
 20
216.6477034285263
 30
0.0
 11
351.4291794235642
 21
216.2976997994088
 31
0.0
  0
LINE
  5
1CD
330
1F
100
AcDbEntity
  8
1-B
  6
Continuous
 62
     4
370
     9
100
AcDbLine
 10
350.7291721653294
 20
216.6477034285263
 30
0.0
 11
350.7291721653294
 21
216.2976997994088
 31
0.0
  0
LINE
  5
1CE
330
1F
100
AcDbEntity
  8
1-B
  6
Continuous
 62
     4
370
     9
100
AcDbLine
 10
346.4292124155406
 20
216.6477034285263
 30
0.0
 11
346.4292124155406
 21
216.2976997994088
 31
0.0
  0
LINE
  5
1CF
330
1F
100
AcDbEntity
  8
1-B
  6
Continuous
 62
     4
370
     9
100
AcDbLine
 10
345.7290566934122
 20
216.6477034285263
 30
0.0
 11
345.7290566934122
 21
216.2976997994088
 31
0.0
  0
LINE
  5
1D0
330
1F
100
AcDbEntity
  8
1-B
  6
Continuous
 62
     4
370
     9
100
AcDbLine
 10
336.4292783994933
 20
216.6477034285263
 30
0.0
 11
336.4292783994933
 21
216.2976997994088
 31
0.0
  0
LINE
  5
1D1
330
1F
100
AcDbEntity
  8
1-B
  6
Continuous
 62
     4
370
     9
100
AcDbLine
 10
335.7291226773648
 20
216.6477034285263
 30
0.0
 11
335.7291226773648
 21
216.2976997994088
 31
0.0
  0
LINE
  5
1D2
330
1F
100
AcDbEntity
  8
1-B
  6
Continuous
 62
     4
370
     9
100
AcDbLine
 10
331.4293113914697
 20
216.6477034285263
 30
0.0
 11
331.4293113914697
 21
216.2976997994088
 31
0.0
  0
LINE
  5
1D3
330
1F
100
AcDbEntity
  8
1-B
  6
Continuous
 62
     4
370
     9
100
AcDbLine
 10
330.7291556693413
 20
216.6477034285263
 30
0.0
 11
330.7291556693413
 21
216.2976997994088
 31
0.0
  0
LINE
  5
1D4
330
1F
100
AcDbEntity
  8
1-B
  6
Continuous
 62
     4
370
     9
100
AcDbLine
 10
326.4291959195523
 20
216.6477034285263
 30
0.0
 11
326.4291959195523
 21
216.2976997994088
 31
0.0
  0
LINE
  5
1D5
330
1F
100
AcDbEntity
  8
1-B
  6
Continuous
 62
     4
370
     9
100
AcDbLine
 10
325.7291886613177
 20
216.6477034285263
 30
0.0
 11
325.7291886613177
 21
216.2976997994088
 31
0.0
  0
LINE
  5
1D6
330
1F
100
AcDbEntity
  8
1-B
  6
Continuous
 62
     4
370
     9
100
AcDbLine
 10
321.4292289115288
 20
216.6477034285263
 30
0.0
 11
321.4292289115288
 21
216.2976997994088
 31
0.0
  0
LINE
  5
1D7
330
1F
100
AcDbEntity
  8
1-B
  6
Continuous
 62
     4
370
     9
100
AcDbLine
 10
320.7290731894003
 20
216.6477034285263
 30
0.0
 11
320.7290731894003
 21
216.2976997994088
 31
0.0
  0
LINE
  5
1D8
330
1F
100
AcDbEntity
  8
1-B
  6
Continuous
 62
     4
370
     9
100
AcDbLine
 10
316.4291134396116
 20
216.6477034285263
 30
0.0
 11
316.4291134396116
 21
216.2976997994088
 31
0.0
  0
LINE
  5
1D9
330
1F
100
AcDbEntity
  8
1-B
  6
Continuous
 62
     4
370
     9
100
AcDbLine
 10
315.7291061813767
 20
216.6477034285263
 30
0.0
 11
315.7291061813767
 21
216.2976997994088
 31
0.0
  0
LINE
  5
1DA
330
1F
100
AcDbEntity
  8
1-B
  6
Continuous
 62
     4
370
     9
100
AcDbLine
 10
311.4291464315878
 20
216.6477034285263
 30
0.0
 11
311.4291464315878
 21
216.2976997994088
 31
0.0
  0
LINE
  5
1DB
330
1F
100
AcDbEntity
  8
1-B
  6
Continuous
 62
     4
370
     9
100
AcDbLine
 10
310.7289907094595
 20
216.6477034285263
 30
0.0
 11
310.7289907094595
 21
216.2976997994088
 31
0.0
  0
LINE
  5
1DC
330
1F
100
AcDbEntity
  8
1-B
  6
Continuous
 62
     4
370
     9
100
AcDbLine
 10
306.4291794235642
 20
216.6477034285263
 30
0.0
 11
306.4291794235642
 21
216.2976997994088
 31
0.0
  0
LINE
  5
1DD
330
1F
100
AcDbEntity
  8
1-B
  6
Continuous
 62
     4
370
     9
100
AcDbLine
 10
305.7290237014358
 20
216.6477034285263
 30
0.0
 11
305.7290237014358
 21
216.2976997994088
 31
0.0
  0
LINE
  5
1DE
330
1F
100
AcDbEntity
  8
1-B
  6
Continuous
 62
     4
370
     9
100
AcDbLine
 10
275.9927450644003
 20
208.3312015017948
 30
0.0
 11
281.3398206556166
 21
208.3312015017948
 31
0.0
  0
LINE
  5
1DF
330
1F
100
AcDbEntity
  8
1-B
  6
Continuous
 62
     4
370
     9
100
AcDbLine
 10
275.9927450644003
 20
209.0312087600296
 30
0.0
 11
281.4967469911319
 21
209.0312087600296
 31
0.0
  0
LINE
  5
1E0
330
1F
100
AcDbEntity
  8
1-B
  6
Continuous
 62
     4
370
     9
100
AcDbLine
 10
280.2927048141892
 20
213.2976156698691
 30
0.0
 11
280.2927048141892
 21
209.0312087600296
 31
0.0
  0
LINE
  5
1E1
330
1F
100
AcDbEntity
  8
1-B
  6
Continuous
 62
     4
370
     9
100
AcDbLine
 10
280.9927120724241
 20
213.2976156698691
 30
0.0
 11
280.9927120724241
 21
209.0312087600296
 31
0.0
  0
LINE
  5
1E2
330
1F
100
AcDbEntity
  8
1-B
  6
Continuous
 62
     4
370
     9
100
AcDbLine
 10
280.9927120724241
 20
208.3312015017948
 30
0.0
 11
280.9927120724241
 21
206.7825003959038
 31
0.0
  0
LINE
  5
1E3
330
1F
100
AcDbEntity
  8
1-B
  6
Continuous
 62
     4
370
     9
100
AcDbLine
 10
280.2927048141892
 20
208.3312015017948
 30
0.0
 11
280.2927048141892
 21
203.6594139305321
 31
0.0
  0
LINE
  5
1E4
330
1F
100
AcDbEntity
  8
1-B
  6
Continuous
 62
     4
370
     9
100
AcDbLine
 10
270.9927780563767
 20
204.0312417520059
 30
0.0
 11
280.2927048141892
 21
204.0312417520059
 31
0.0
  0
LINE
  5
1E5
330
1F
100
AcDbEntity
  8
1-B
  6
Continuous
 62
     4
370
     9
100
AcDbLine
 10
270.9927780563767
 20
203.3311602618244
 30
0.0
 11
280.2192151868666
 21
203.3311602618244
 31
0.0
  0
LINE
  5
1E6
330
1F
100
AcDbEntity
  8
1-B
  6
Continuous
 62
     4
370
     9
100
AcDbLine
 10
275.9927450644003
 20
198.3311932538007
 30
0.0
 11
279.098461254223
 21
198.3311932538007
 31
0.0
  0
LINE
  5
1E7
330
1F
100
AcDbEntity
  8
1-B
  6
Continuous
 62
     4
370
     9
100
AcDbLine
 10
275.9927450644003
 20
199.0311262800888
 30
0.0
 11
279.2553875897383
 21
199.0311262800888
 31
0.0
  0
LINE
  5
1E8
330
1F
100
AcDbEntity
  8
1-B
  6
Continuous
 62
     4
370
     9
100
AcDbLine
 10
265.2928037901183
 20
203.3311602618244
 30
0.0
 11
265.2928037901183
 21
194.0310850401183
 31
0.0
  0
LINE
  5
1E9
330
1F
100
AcDbEntity
  8
1-B
  6
Continuous
 62
     4
370
     9
100
AcDbLine
 10
265.9926625844595
 20
203.3311602618244
 30
0.0
 11
265.9926625844595
 21
194.0310850401183
 31
0.0
  0
LINE
  5
1EA
330
1F
100
AcDbEntity
  8
1-B
  6
Continuous
 62
     4
370
     9
100
AcDbLine
 10
245.9926460884714
 20
209.0312087600296
 30
0.0
 11
255.2927213101773
 21
209.0312087600296
 31
0.0
  0
LINE
  5
1EB
330
1F
100
AcDbEntity
  8
1-B
  6
Continuous
 62
     4
370
     9
100
AcDbLine
 10
245.9926460884714
 20
208.3312015017948
 30
0.0
 11
255.2927213101773
 21
208.3312015017948
 31
0.0
  0
LINE
  5
1EC
330
1F
100
AcDbEntity
  8
1-B
  6
Continuous
 62
     4
370
     9
100
AcDbLine
 10
250.2926058382602
 20
213.2976156698691
 30
0.0
 11
250.2926058382602
 21
209.0312087600296
 31
0.0
  0
LINE
  5
1ED
330
1F
100
AcDbEntity
  8
1-B
  6
Continuous
 62
     4
370
     9
100
AcDbLine
 10
250.9927615603886
 20
213.2976156698691
 30
0.0
 11
250.9927615603886
 21
209.0312087600296
 31
0.0
  0
LINE
  5
1EE
330
1F
100
AcDbEntity
  8
1-B
  6
Continuous
 62
     4
370
     9
100
AcDbLine
 10
243.8084452861064
 20
204.0312417520059
 30
0.0
 11
250.2926058382602
 21
204.0312417520059
 31
0.0
  0
LINE
  5
1EF
330
1F
100
AcDbEntity
  8
1-B
  6
Continuous
 62
     4
370
     9
100
AcDbLine
 10
243.6396418391049
 20
203.3311602618244
 30
0.0
 11
250.2926058382602
 21
203.3311602618244
 31
0.0
  0
LINE
  5
1F0
330
1F
100
AcDbEntity
  8
1-B
  6
Continuous
 62
     4
370
     9
100
AcDbLine
 10
255.2927213101773
 20
213.2976156698691
 30
0.0
 11
255.2927213101773
 21
204.0312417520059
 31
0.0
  0
LINE
  5
1F1
330
1F
100
AcDbEntity
  8
1-B
  6
Continuous
 62
     4
370
     9
100
AcDbLine
 10
255.9927285684122
 20
213.2976156698691
 30
0.0
 11
255.9927285684122
 21
204.0312417520059
 31
0.0
  0
LINE
  5
1F2
330
1F
100
AcDbEntity
  8
1-B
  6
Continuous
 62
     4
370
     9
100
AcDbLine
 10
250.9927615603886
 20
204.0312417520059
 30
0.0
 11
260.2926883182011
 21
204.0312417520059
 31
0.0
  0
LINE
  5
1F3
330
1F
100
AcDbEntity
  8
1-B
  6
Continuous
 62
     4
370
     9
100
AcDbLine
 10
250.9927615603886
 20
203.3311602618244
 30
0.0
 11
260.2926883182011
 21
203.3311602618244
 31
0.0
  0
LINE
  5
1F4
330
1F
100
AcDbEntity
  8
1-B
  6
Continuous
 62
     4
370
     9
100
AcDbLine
 10
255.9927285684122
 20
199.0311262800888
 30
0.0
 11
265.2928037901183
 21
199.0311262800888
 31
0.0
  0
LINE
  5
1F5
330
1F
100
AcDbEntity
  8
1-B
  6
Continuous
 62
     4
370
     9
100
AcDbLine
 10
255.9927285684122
 20
198.3311932538007
 30
0.0
 11
265.2928037901183
 21
198.3311932538007
 31
0.0
  0
LINE
  5
1F6
330
1F
100
AcDbEntity
  8
1-B
  6
Continuous
 62
     4
370
     9
100
AcDbLine
 10
250.9927615603886
 20
208.3312015017948
 30
0.0
 11
250.9927615603886
 21
199.0311262800888
 31
0.0
  0
LINE
  5
1F7
330
1F
100
AcDbEntity
  8
1-B
  6
Continuous
 62
     4
370
     9
100
AcDbLine
 10
250.2926058382602
 20
208.3312015017948
 30
0.0
 11
250.2926058382602
 21
199.0311262800888
 31
0.0
  0
LINE
  5
1F8
330
1F
100
AcDbEntity
  8
1-B
  6
Continuous
 62
     4
370
     9
100
AcDbLine
 10
242.6030669341217
 20
199.0311262800888
 30
0.0
 11
245.2927872941302
 21
199.0311262800888
 31
0.0
  0
LINE
  5
1F9
330
1F
100
AcDbEntity
  8
1-B
  6
Continuous
 62
     4
370
     9
100
AcDbLine
 10
245.9926460884714
 20
199.0311262800888
 30
0.0
 11
255.2927213101773
 21
199.0311262800888
 31
0.0
  0
LINE
  5
1FA
330
1F
100
AcDbEntity
  8
1-B
  6
Continuous
 62
     4
370
     9
100
AcDbLine
 10
242.43426348712
 20
198.3311932538007
 30
0.0
 11
245.2927872941302
 21
198.3311932538007
 31
0.0
  0
LINE
  5
1FB
330
1F
100
AcDbEntity
  8
1-B
  6
Continuous
 62
     4
370
     9
100
AcDbLine
 10
245.9926460884714
 20
198.3311932538007
 30
0.0
 11
255.2927213101773
 21
198.3311932538007
 31
0.0
  0
LINE
  5
1FC
330
1F
100
AcDbEntity
  8
1-B
  6
Continuous
 62
     4
370
     9
100
AcDbLine
 10
245.2927872941302
 20
203.3311602618244
 30
0.0
 11
245.2927872941302
 21
194.0310850401183
 31
0.0
  0
LINE
  5
1FD
330
1F
100
AcDbEntity
  8
1-B
  6
Continuous
 62
     4
370
     9
100
AcDbLine
 10
245.9926460884714
 20
203.3311602618244
 30
0.0
 11
245.9926460884714
 21
194.0310850401183
 31
0.0
  0
LINE
  5
1FE
330
1F
100
AcDbEntity
  8
1-B
  6
Continuous
 62
     4
370
     9
100
AcDbLine
 10
241.3976885821369
 20
194.0310850401183
 30
0.0
 11
250.2926058382602
 21
194.0310850401183
 31
0.0
  0
LINE
  5
1FF
330
1F
100
AcDbEntity
  8
1-B
  6
Continuous
 62
     4
370
     9
100
AcDbLine
 10
241.2288851351352
 20
193.3311520138302
 30
0.0
 11
250.2926058382602
 21
193.3311520138302
 31
0.0
  0
LINE
  5
200
330
1F
100
AcDbEntity
  8
1-B
  6
Continuous
 62
     4
370
     9
100
AcDbLine
 10
255.2927213101773
 20
203.3311602618244
 30
0.0
 11
255.2927213101773
 21
194.0310850401183
 31
0.0
  0
LINE
  5
201
330
1F
100
AcDbEntity
  8
1-B
  6
Continuous
 62
     4
370
     9
100
AcDbLine
 10
255.9927285684122
 20
203.3311602618244
 30
0.0
 11
255.9927285684122
 21
194.0310850401183
 31
0.0
  0
LINE
  5
202
330
1F
100
AcDbEntity
  8
1-B
  6
Continuous
 62
     4
370
     9
100
AcDbLine
 10
250.9927615603886
 20
194.0310850401183
 30
0.0
 11
260.2926883182011
 21
194.0310850401183
 31
0.0
  0
LINE
  5
203
330
1F
100
AcDbEntity
  8
1-B
  6
Continuous
 62
     4
370
     9
100
AcDbLine
 10
250.9927615603886
 20
193.3311520138302
 30
0.0
 11
260.2926883182011
 21
193.3311520138302
 31
0.0
  0
LINE
  5
204
330
1F
100
AcDbEntity
  8
1-B
  6
Continuous
 62
     4
370
     9
100
AcDbLine
 10
240.0236552470439
 20
188.3311850058066
 30
0.0
 11
245.2927872941302
 21
188.3311850058066
 31
0.0
  0
LINE
  5
205
330
1F
100
AcDbEntity
  8
1-B
  6
Continuous
 62
     4
370
     9
100
AcDbLine
 10
240.192310230152
 20
189.0310438001478
 30
0.0
 11
245.2927872941302
 21
189.0310438001478
 31
0.0
  0
LINE
  5
206
330
1F
100
AcDbEntity
  8
1-B
  6
Continuous
 62
     4
370
     9
100
AcDbLine
 10
240.2926718222128
 20
189.4476334855363
 30
0.0
 11
240.2926718222128
 21
189.0310438001478
 31
0.0
  0
LINE
  5
207
330
1F
100
AcDbEntity
  8
1-B
  6
Continuous
 62
     4
370
     9
100
AcDbLine
 10
240.9926790804477
 20
192.3512903161952
 30
0.0
 11
240.9926790804477
 21
189.0310438001478
 31
0.0
  0
LINE
  5
208
330
1F
100
AcDbEntity
  8
1-B
  6
Continuous
 62
     4
370
     9
100
AcDbLine
 10
250.2926058382602
 20
198.3311932538007
 30
0.0
 11
250.2926058382602
 21
189.0310438001478
 31
0.0
  0
LINE
  5
209
330
1F
100
AcDbEntity
  8
1-B
  6
Continuous
 62
     4
370
     9
100
AcDbLine
 10
250.9927615603886
 20
198.3311932538007
 30
0.0
 11
250.9927615603886
 21
189.0310438001478
 31
0.0
  0
LINE
  5
20A
330
1F
100
AcDbEntity
  8
1-B
  6
Continuous
 62
     4
370
     9
100
AcDbLine
 10
245.9926460884714
 20
189.0310438001478
 30
0.0
 11
255.2927213101773
 21
189.0310438001478
 31
0.0
  0
LINE
  5
20B
330
1F
100
AcDbEntity
  8
1-B
  6
Continuous
 62
     4
370
     9
100
AcDbLine
 10
245.9926460884714
 20
188.3311850058066
 30
0.0
 11
255.2927213101773
 21
188.3311850058066
 31
0.0
  0
LINE
  5
20C
330
1F
100
AcDbEntity
  8
1-B
  6
Continuous
 62
     4
370
     9
100
AcDbLine
 10
245.2927872941302
 20
193.3311520138302
 30
0.0
 11
245.2927872941302
 21
184.0310767921242
 31
0.0
  0
LINE
  5
20D
330
1F
100
AcDbEntity
  8
1-B
  6
Continuous
 62
     4
370
     9
100
AcDbLine
 10
245.9926460884714
 20
193.3311520138302
 30
0.0
 11
245.9926460884714
 21
184.0310767921242
 31
0.0
  0
LINE
  5
20E
330
1F
100
AcDbEntity
  8
1-B
  6
Continuous
 62
     4
370
     9
100
AcDbLine
 10
238.8181284311656
 20
183.3310695338894
 30
0.0
 11
240.2926718222128
 21
183.3310695338894
 31
0.0
  0
LINE
  5
20F
330
1F
100
AcDbEntity
  8
1-B
  6
Continuous
 62
     4
370
     9
100
AcDbLine
 10
240.9926790804477
 20
183.3310695338894
 30
0.0
 11
250.2926058382602
 21
183.3310695338894
 31
0.0
  0
LINE
  5
210
330
1F
100
AcDbEntity
  8
1-B
  6
Continuous
 62
     4
370
     9
100
AcDbLine
 10
238.9869318781674
 20
184.0310767921242
 30
0.0
 11
240.2926718222128
 21
184.0310767921242
 31
0.0
  0
LINE
  5
211
330
1F
100
AcDbEntity
  8
1-B
  6
Continuous
 62
     4
370
     9
100
AcDbLine
 10
240.9926790804477
 20
184.0310767921242
 30
0.0
 11
250.2926058382602
 21
184.0310767921242
 31
0.0
  0
LINE
  5
212
330
1F
100
AcDbEntity
  8
1-B
  6
Continuous
 62
     4
370
     9
100
AcDbLine
 10
240.9926790804477
 20
188.3311850058066
 30
0.0
 11
240.9926790804477
 21
179.0310355521538
 31
0.0
  0
LINE
  5
213
330
1F
100
AcDbEntity
  8
1-B
  6
Continuous
 62
     4
370
     9
100
AcDbLine
 10
240.2926718222128
 20
188.3311850058066
 30
0.0
 11
240.2926718222128
 21
179.0310355521538
 31
0.0
  0
LINE
  5
214
330
1F
100
AcDbEntity
  8
1-B
  6
Continuous
 62
     4
370
     9
100
AcDbLine
 10
237.7815535261825
 20
179.0310355521538
 30
0.0
 11
245.2927872941302
 21
179.0310355521538
 31
0.0
  0
LINE
  5
215
330
1F
100
AcDbEntity
  8
1-B
  6
Continuous
 62
     4
370
     9
100
AcDbLine
 10
237.6128985430744
 20
178.3311025258657
 30
0.0
 11
245.2927872941302
 21
178.3311025258657
 31
0.0
  0
LINE
  5
216
330
1F
100
AcDbEntity
  8
1-B
  6
Continuous
 62
     4
370
     9
100
AcDbLine
 10
250.2926058382602
 20
188.3311850058066
 30
0.0
 11
250.2926058382602
 21
179.0310355521538
 31
0.0
  0
LINE
  5
217
330
1F
100
AcDbEntity
  8
1-B
  6
Continuous
 62
     4
370
     9
100
AcDbLine
 10
250.9927615603886
 20
188.3311850058066
 30
0.0
 11
250.9927615603886
 21
179.0310355521538
 31
0.0
  0
LINE
  5
218
330
1F
100
AcDbEntity
  8
1-B
  6
Continuous
 62
     4
370
     9
100
AcDbLine
 10
245.2927872941302
 20
183.3310695338894
 30
0.0
 11
245.2927872941302
 21
174.0309943121833
 31
0.0
  0
LINE
  5
219
330
1F
100
AcDbEntity
  8
1-B
  6
Continuous
 62
     4
370
     9
100
AcDbLine
 10
245.9926460884714
 20
183.3310695338894
 30
0.0
 11
245.9926460884714
 21
174.0309943121833
 31
0.0
  0
LINE
  5
21A
330
1F
100
AcDbEntity
  8
1-B
  6
Continuous
 62
     4
370
     9
100
AcDbLine
 10
236.5763236380913
 20
174.0309943121833
 30
0.0
 11
240.2926718222128
 21
174.0309943121833
 31
0.0
  0
LINE
  5
21B
330
1F
100
AcDbEntity
  8
1-B
  6
Continuous
 62
     4
370
     9
100
AcDbLine
 10
240.9926790804477
 20
174.0309943121833
 30
0.0
 11
250.2926058382602
 21
174.0309943121833
 31
0.0
  0
LINE
  5
21C
330
1F
100
AcDbEntity
  8
1-B
  6
Continuous
 62
     4
370
     9
100
AcDbLine
 10
236.4075201910895
 20
173.3309870539485
 30
0.0
 11
240.2926718222128
 21
173.3309870539485
 31
0.0
  0
LINE
  5
21D
330
1F
100
AcDbEntity
  8
1-B
  6
Continuous
 62
     4
370
     9
100
AcDbLine
 10
240.9926790804477
 20
178.3311025258657
 30
0.0
 11
240.9926790804477
 21
169.031064420133
 31
0.0
  0
LINE
  5
21E
330
1F
100
AcDbEntity
  8
1-B
  6
Continuous
 62
     4
370
     9
100
AcDbLine
 10
240.2926718222128
 20
178.3311025258657
 30
0.0
 11
240.2926718222128
 21
169.031064420133
 31
0.0
  0
LINE
  5
21F
330
1F
100
AcDbEntity
  8
1-B
  6
Continuous
 62
     4
370
     9
100
AcDbLine
 10
235.9927120724241
 20
164.0310974121094
 30
0.0
 11
235.9927120724241
 21
171.6105132231841
 31
0.0
  0
LINE
  5
220
330
1F
100
AcDbEntity
  8
1-B
  6
Continuous
 62
     4
370
     9
100
AcDbLine
 10
235.2021418391049
 20
168.3310942778716
 30
0.0
 11
235.2928532780828
 21
168.3310942778716
 31
0.0
  0
LINE
  5
221
330
1F
100
AcDbEntity
  8
1-B
  6
Continuous
 62
     4
370
     9
100
AcDbLine
 10
235.9927120724241
 20
168.3310942778716
 30
0.0
 11
245.2927872941302
 21
168.3310942778716
 31
0.0
  0
LINE
  5
222
330
1F
100
AcDbEntity
  8
1-B
  6
Continuous
 62
     4
370
     9
100
AcDbLine
 10
235.9927120724241
 20
169.031064420133
 30
0.0
 11
245.2927872941302
 21
169.031064420133
 31
0.0
  0
LINE
  5
223
330
1F
100
AcDbEntity
  8
1-B
  6
Continuous
 62
     4
370
     9
100
AcDbLine
 10
235.2928532780828
 20
168.7070790883657
 30
0.0
 11
235.2928532780828
 21
164.0310974121094
 31
0.0
  0
LINE
  5
224
330
1F
100
AcDbEntity
  8
1-B
  6
Continuous
 62
     4
370
     9
100
AcDbLine
 10
234.1655669341217
 20
164.0310974121094
 30
0.0
 11
240.2926718222128
 21
164.0310974121094
 31
0.0
  0
LINE
  5
225
330
1F
100
AcDbEntity
  8
1-B
  6
Continuous
 62
     4
370
     9
100
AcDbLine
 10
233.99676348712
 20
163.3310901538746
 30
0.0
 11
240.2926718222128
 21
163.3310901538746
 31
0.0
  0
LINE
  5
226
330
1F
100
AcDbEntity
  8
1-B
  6
Continuous
 62
     4
370
     9
100
AcDbLine
 10
245.2927872941302
 20
173.3309870539485
 30
0.0
 11
245.2927872941302
 21
164.0310974121094
 31
0.0
  0
LINE
  5
227
330
1F
100
AcDbEntity
  8
1-B
  6
Continuous
 62
     4
370
     9
100
AcDbLine
 10
245.9926460884714
 20
173.3309870539485
 30
0.0
 11
245.9926460884714
 21
164.0310974121094
 31
0.0
  0
LINE
  5
228
330
1F
100
AcDbEntity
  8
0-9
  6
JWW_DASHED1
 62
     2
370
     9
100
AcDbLine
 10
-230.6449683936866
 20
212.1531075142526
 30
0.0
 11
-226.2745625263936
 21
234.224492253484
 31
0.0
  0
LINE
  5
229
330
1F
100
AcDbEntity
  8
0-9
  6
JWW_DASHED1
 62
     2
370
     9
100
AcDbLine
 10
-213.0622410129856
 20
208.6714807458827
 30
0.0
 11
-208.6918351456926
 21
230.7428654851141
 31
0.0
  0
LINE
  5
22A
330
1F
100
AcDbEntity
  8
0-6
  6
Continuous
 62
     6
370
     5
100
AcDbLine
 10
-218.0292490366343
 20
210.4193461650127
 30
0.0
 11
-217.7914098791173
 21
211.6196767446158
 31
0.0
  0
LINE
  5
22B
330
1F
100
AcDbEntity
  8
0-6
  6
Continuous
 62
     6
370
     5
100
AcDbLine
 10
-216.7351635082348
 20
212.9277178790119
 30
0.0
 11
-216.6414085594384
 21
212.9722570470862
 31
0.0
  0
LINE
  5
22C
330
1F
100
AcDbEntity
  8
0-6
  6
Continuous
 62
     6
370
     5
100
AcDbLine
 10
-225.3862288191512
 20
211.8762223527238
 30
0.0
 11
-225.148835053315
 21
213.0764787003801
 31
0.0
  0
LINE
  5
22D
330
1F
100
AcDbEntity
  8
0-6
  6
Continuous
 62
     6
370
     5
100
AcDbLine
 10
-225.6269630225929
 20
214.6883511929899
 30
0.0
 11
-225.6968895164696
 21
214.7651812579181
 31
0.0
  0
LINE
  5
22E
330
1F
100
AcDbEntity
  8
0-6
  6
Continuous
 62
     6
370
     5
100
AcDbLine
 10
-213.9503520243877
 20
231.0197506466427
 30
0.0
 11
-214.1879684860641
 21
229.8194200670398
 31
0.0
  0
LINE
  5
22F
330
1F
100
AcDbEntity
  8
0-6
  6
Continuous
 62
     6
370
     5
100
AcDbLine
 10
-213.7096178209459
 20
228.2075475744299
 30
0.0
 11
-213.6399140229096
 21
228.1307175095017
 31
0.0
  0
LINE
  5
230
330
1F
100
AcDbEntity
  8
0-6
  6
Continuous
 62
     6
370
     5
100
AcDbLine
 10
-221.3075545027449
 20
232.4763299065667
 30
0.0
 11
-221.5451709644214
 21
231.2762962547509
 31
0.0
  0
LINE
  5
231
330
1F
100
AcDbEntity
  8
0-6
  6
Continuous
 62
     6
370
     5
100
AcDbLine
 10
-222.6016400311444
 20
229.968180888408
 30
0.0
 11
-222.6951722841005
 21
229.9236417203337
 31
0.0
  0
LINE
  5
232
330
1F
100
AcDbEntity
  8
0-6
  6
Continuous
 62
     6
370
     5
100
AcDbLine
 10
-219.5008231498099
 20
210.7107807881123
 30
0.0
 11
-219.262983992293
 21
211.9111113677154
 31
0.0
  0
LINE
  5
233
330
1F
100
AcDbEntity
  8
0-6
  6
Continuous
 62
     6
370
     5
100
AcDbLine
 10
-215.421703441723
 20
231.3110368058488
 30
0.0
 11
-215.6593199033994
 21
230.1108546901394
 31
0.0
  0
LINE
  5
234
330
1F
100
AcDbEntity
  8
0-6
  6
Continuous
 62
     6
370
     5
100
AcDbLine
 10
-219.8359803895692
 20
232.1850437473607
 30
0.0
 11
-220.0738195470861
 21
230.9850100955448
 31
0.0
  0
LINE
  5
235
330
1F
100
AcDbEntity
  8
0-6
  6
Continuous
 62
     6
370
     5
100
AcDbLine
 10
-223.9151000976562
 20
211.584861961571
 30
0.0
 11
-223.6772609401394
 21
212.785192541174
 31
0.0
  0
LINE
  5
236
330
1F
100
AcDbEntity
  8
0-6
  6
Continuous
 62
     6
370
     5
100
AcDbLine
 10
-217.3266436602618
 20
214.3061308989654
 30
0.0
 11
-217.1460373337204
 21
214.3846682986698
 31
0.0
  0
LINE
  5
237
330
1F
100
AcDbEntity
  8
0-6
  6
Continuous
 62
     6
370
     5
100
AcDbLine
 10
-224.5549052470439
 20
215.737322833087
 30
0.0
 11
-224.6918631888724
 21
215.8788831556166
 31
0.0
  0
LINE
  5
238
330
1F
100
AcDbEntity
  8
0-6
  6
Continuous
 62
     6
370
     5
100
AcDbLine
 10
-214.6447176546663
 20
227.0170156118033
 30
0.0
 11
-214.7816755964949
 21
227.1586501662796
 31
0.0
  0
LINE
  5
239
330
1F
100
AcDbEntity
  8
0-6
  6
Continuous
 62
     6
370
     5
100
AcDbLine
 10
-222.009937183277
 20
228.5898421004013
 30
0.0
 11
-222.1907662056587
 21
228.5110820048565
 31
0.0
  0
LINE
  5
23A
330
1F
100
AcDbEntity
  8
0-9
  6
JWW_DASHED1
 62
     2
370
     9
100
AcDbLine
 10
-230.4991026182432
 20
212.8885234111065
 30
0.0
 11
-225.3862288191512
 21
211.8764450485642
 31
0.0
  0
LINE
  5
23B
330
1F
100
AcDbEntity
  8
0-9
  6
JWW_DASHED1
 62
     2
370
     9
100
AcDbLine
 10
-218.0292490366343
 20
210.4193461650127
 30
0.0
 11
-212.9163752375422
 21
209.4071193385769
 31
0.0
  0
LINE
  5
23C
330
1F
100
AcDbEntity
  8
0-9
  6
JWW_DASHED1
 62
     2
370
     9
100
AcDbLine
 10
-226.4204283018369
 20
233.488779428843
 30
0.0
 11
-221.3075545027449
 21
232.4763299065667
 31
0.0
  0
LINE
  5
23D
330
1F
100
AcDbEntity
  8
0-9
  6
JWW_DASHED1
 62
     2
370
     9
100
AcDbLine
 10
-213.9503520243877
 20
231.0197506466427
 30
0.0
 11
-208.8374782252956
 21
230.007152660473
 31
0.0
  0
LINE
  5
23E
330
1F
100
AcDbEntity
  8
0-9
  6
JWW_DASHED1
 62
     2
370
     9
100
AcDbLine
 10
-226.2745625263936
 20
234.224492253484
 30
0.0
 11
-221.0875310124577
 21
233.1974932696369
 31
0.0
  0
LINE
  5
23F
330
1F
100
AcDbEntity
  8
0-9
  6
JWW_DASHED1
 62
     2
370
     9
100
AcDbLine
 10
-213.8790893554688
 20
231.7700129328548
 30
0.0
 11
-208.6918351456926
 21
230.7428654851141
 31
0.0
  0
LINE
  5
240
330
1F
100
AcDbEntity
  8
0-9
  6
JWW_DASHED1
 62
     2
370
     9
100
AcDbLine
 10
-230.6449683936866
 20
212.1531075142526
 30
0.0
 11
-225.4577141839105
 21
211.1258858345651
 31
0.0
  0
LINE
  5
241
330
1F
100
AcDbEntity
  8
0-9
  6
JWW_DASHED1
 62
     2
370
     9
100
AcDbLine
 10
-218.2492725269214
 20
209.6986281936234
 30
0.0
 11
-213.0622410129856
 21
208.6714807458827
 31
0.0
  0
LINE
  5
242
330
1F
100
AcDbEntity
  8
0-B
  6
Continuous
 62
     4
370
     9
100
AcDbLine
 10
-270.3890496331292
 20
236.9421238254857
 30
0.0
 11
-353.6095943966427
 21
236.9421238254857
 31
0.0
  0
LINE
  5
243
330
1F
100
AcDbEntity
  8
0-B
  6
Continuous
 62
     4
370
     9
100
AcDbLine
 10
-265.8890347867398
 20
236.9421238254857
 30
0.0
 11
-182.6687127190667
 21
236.9421238254857
 31
0.0
  0
LINE
  5
244
330
1F
100
AcDbEntity
  8
0-B
  6
Continuous
 62
     4
370
     9
100
AcDbLine
 10
-178.1671390017948
 20
236.9421238254857
 30
0.0
 11
-160.6409763645481
 21
236.9421238254857
 31
0.0
  0
LINE
  5
245
330
1F
100
AcDbEntity
  8
0-B
  6
Continuous
 62
     4
370
     9
100
AcDbLine
 10
-270.3890496331292
 20
149.2215642155828
 30
0.0
 11
-270.3890496331292
 21
320.1624458931589
 31
0.0
  0
LINE
  5
246
330
1F
100
AcDbEntity
  8
0-B
  6
Continuous
 62
     4
370
     9
100
AcDbLine
 10
-265.8890347867398
 20
149.2215642155828
 30
0.0
 11
-265.8890347867398
 21
320.1624458931589
 31
0.0
  0
LINE
  5
247
330
1F
100
AcDbEntity
  8
0-B
  6
Continuous
 62
     4
370
     9
100
AcDbLine
 10
-270.3890496331292
 20
324.6640196104308
 30
0.0
 11
-270.3890496331292
 21
342.1901822476773
 31
0.0
  0
LINE
  5
248
330
1F
100
AcDbEntity
  8
0-B
  6
Continuous
 62
     4
370
     9
100
AcDbLine
 10
-265.8890347867398
 20
324.6640196104308
 30
0.0
 11
-265.8890347867398
 21
342.1901822476773
 31
0.0
  0
LINE
  5
249
330
1F
100
AcDbEntity
  8
0-B
  6
Continuous
 62
     4
370
     9
100
AcDbLine
 10
-358.1109454180743
 20
236.9421238254857
 30
0.0
 11
-375.6371080553209
 21
236.9421238254857
 31
0.0
  0
LINE
  5
24A
330
1F
100
AcDbEntity
  8
0-B
  6
Continuous
 62
     4
370
     9
100
AcDbLine
 10
-372.0205276076858
 20
247.0781992319468
 30
0.0
 11
-372.0205276076858
 21
261.0281636006123
 31
0.0
  0
LINE
  5
24B
330
1F
100
AcDbEntity
  8
0-B
  6
Continuous
 62
     4
370
     9
100
AcDbLine
 10
-370.9702940244932
 20
247.0781992319468
 30
0.0
 11
-370.9702940244932
 21
261.0281636006123
 31
0.0
  0
LINE
  5
24C
330
1F
100
AcDbEntity
  8
0-B
  6
Continuous
 62
     4
370
     9
100
AcDbLine
 10
-363.4701208166174
 20
254.5781497439823
 30
0.0
 11
-363.4701208166174
 21
268.5281883445946
 31
0.0
  0
LINE
  5
24D
330
1F
100
AcDbEntity
  8
0-B
  6
Continuous
 62
     4
370
     9
100
AcDbLine
 10
-364.5201317039696
 20
254.5781497439823
 30
0.0
 11
-364.5201317039696
 21
268.5281883445946
 31
0.0
  0
LINE
  5
24E
330
1F
100
AcDbEntity
  8
0-B
  6
Continuous
 62
     4
370
     9
100
AcDbLine
 10
-363.4701208166174
 20
261.0281636006123
 30
0.0
 11
-349.5200079840583
 21
261.0281636006123
 31
0.0
  0
LINE
  5
24F
330
1F
100
AcDbEntity
  8
0-B
  6
Continuous
 62
     4
370
     9
100
AcDbLine
 10
-363.4701208166174
 20
262.0782487199114
 30
0.0
 11
-349.5200079840583
 21
262.0782487199114
 31
0.0
  0
LINE
  5
250
330
1F
100
AcDbEntity
  8
0-B
  6
Continuous
 62
     4
370
     9
100
AcDbLine
 10
-349.5200079840583
 20
254.5781497439823
 30
0.0
 11
-349.5200079840583
 21
268.5281883445946
 31
0.0
  0
LINE
  5
251
330
1F
100
AcDbEntity
  8
0-B
  6
Continuous
 62
     4
370
     9
100
AcDbLine
 10
-348.469997096706
 20
254.5781497439823
 30
0.0
 11
-348.469997096706
 21
268.5281883445946
 31
0.0
  0
LINE
  5
252
330
1F
100
AcDbEntity
  8
0-B
  6
Continuous
 62
     4
370
     9
100
AcDbLine
 10
-355.9701703045819
 20
253.5282873205237
 30
0.0
 11
-342.0200574720228
 21
253.5282873205237
 31
0.0
  0
LINE
  5
253
330
1F
100
AcDbEntity
  8
0-B
  6
Continuous
 62
     4
370
     9
100
AcDbLine
 10
-355.9701703045819
 20
254.5781497439823
 30
0.0
 11
-342.0200574720228
 21
254.5781497439823
 31
0.0
  0
LINE
  5
254
330
1F
100
AcDbEntity
  8
0-B
  6
Continuous
 62
     4
370
     9
100
AcDbLine
 10
-357.0199584960938
 20
247.0781992319468
 30
0.0
 11
-357.0199584960938
 21
261.0281636006123
 31
0.0
  0
LINE
  5
255
330
1F
100
AcDbEntity
  8
0-B
  6
Continuous
 62
     4
370
     9
100
AcDbLine
 10
-355.9701703045819
 20
247.0781992319468
 30
0.0
 11
-355.9701703045819
 21
261.0281636006123
 31
0.0
  0
LINE
  5
256
330
1F
100
AcDbEntity
  8
0-B
  6
Continuous
 62
     4
370
     9
100
AcDbLine
 10
-355.9701703045819
 20
268.5281883445946
 30
0.0
 11
-342.0200574720228
 21
268.5281883445946
 31
0.0
  0
LINE
  5
257
330
1F
100
AcDbEntity
  8
0-B
  6
Continuous
 62
     4
370
     9
100
AcDbLine
 10
-355.9701703045819
 20
269.5781992319468
 30
0.0
 11
-342.0200574720228
 21
269.5781992319468
 31
0.0
  0
LINE
  5
258
330
1F
100
AcDbEntity
  8
0-B
  6
Continuous
 62
     4
370
     9
100
AcDbLine
 10
-342.0200574720228
 20
277.0782239759291
 30
0.0
 11
-342.0200574720228
 21
291.028039880701
 31
0.0
  0
LINE
  5
259
330
1F
100
AcDbEntity
  8
0-B
  6
Continuous
 62
     4
370
     9
100
AcDbLine
 10
-340.9698238888302
 20
277.0782239759291
 30
0.0
 11
-340.9698238888302
 21
291.028039880701
 31
0.0
  0
LINE
  5
25A
330
1F
100
AcDbEntity
  8
0-B
  6
Continuous
 62
     4
370
     9
100
AcDbLine
 10
-363.4701208166174
 20
277.0782239759291
 30
0.0
 11
-349.5200079840583
 21
277.0782239759291
 31
0.0
  0
LINE
  5
25B
330
1F
100
AcDbEntity
  8
0-B
  6
Continuous
 62
     4
370
     9
100
AcDbLine
 10
-363.4701208166174
 20
276.0282130885769
 30
0.0
 11
-349.5200079840583
 21
276.0282130885769
 31
0.0
  0
LINE
  5
25C
330
1F
100
AcDbEntity
  8
0-B
  6
Continuous
 62
     4
370
     9
100
AcDbLine
 10
-349.5200079840583
 20
284.5781002560178
 30
0.0
 11
-349.5200079840583
 21
298.5282130885769
 31
0.0
  0
LINE
  5
25D
330
1F
100
AcDbEntity
  8
0-B
  6
Continuous
 62
     4
370
     9
100
AcDbLine
 10
-348.469997096706
 20
284.5781002560178
 30
0.0
 11
-348.469997096706
 21
298.5282130885769
 31
0.0
  0
LINE
  5
25E
330
1F
100
AcDbEntity
  8
0-B
  6
Continuous
 62
     4
370
     9
100
AcDbLine
 10
-355.9701703045819
 20
283.5283120645059
 30
0.0
 11
-342.0200574720228
 21
283.5283120645059
 31
0.0
  0
LINE
  5
25F
330
1F
100
AcDbEntity
  8
0-B
  6
Continuous
 62
     4
370
     9
100
AcDbLine
 10
-355.9701703045819
 20
284.5781002560178
 30
0.0
 11
-342.0200574720228
 21
284.5781002560178
 31
0.0
  0
LINE
  5
260
330
1F
100
AcDbEntity
  8
0-B
  6
Continuous
 62
     4
370
     9
100
AcDbLine
 10
-357.0199584960938
 20
277.0782239759291
 30
0.0
 11
-357.0199584960938
 21
291.028039880701
 31
0.0
  0
LINE
  5
261
330
1F
100
AcDbEntity
  8
0-B
  6
Continuous
 62
     4
370
     9
100
AcDbLine
 10
-355.9701703045819
 20
277.0782239759291
 30
0.0
 11
-355.9701703045819
 21
291.028039880701
 31
0.0
  0
LINE
  5
262
330
1F
100
AcDbEntity
  8
0-B
  6
Continuous
 62
     4
370
     9
100
AcDbLine
 10
-355.9701703045819
 20
298.5282130885769
 30
0.0
 11
-342.0200574720228
 21
298.5282130885769
 31
0.0
  0
LINE
  5
263
330
1F
100
AcDbEntity
  8
0-B
  6
Continuous
 62
     4
370
     9
100
AcDbLine
 10
-355.9701703045819
 20
299.5782239759291
 30
0.0
 11
-342.0200574720228
 21
299.5782239759291
 31
0.0
  0
LINE
  5
264
330
1F
100
AcDbEntity
  8
0-B
  6
Continuous
 62
     4
370
     9
100
AcDbLine
 10
-340.9698238888302
 20
262.0782487199114
 30
0.0
 11
-340.9698238888302
 21
276.0282130885769
 31
0.0
  0
LINE
  5
265
330
1F
100
AcDbEntity
  8
0-B
  6
Continuous
 62
     4
370
     9
100
AcDbLine
 10
-342.0200574720228
 20
262.0782487199114
 30
0.0
 11
-342.0200574720228
 21
276.0282130885769
 31
0.0
  0
LINE
  5
266
330
1F
100
AcDbEntity
  8
0-B
  6
Continuous
 62
     4
370
     9
100
AcDbLine
 10
-355.9701703045819
 20
262.0782487199114
 30
0.0
 11
-355.9701703045819
 21
276.0282130885769
 31
0.0
  0
LINE
  5
267
330
1F
100
AcDbEntity
  8
0-B
  6
Continuous
 62
     4
370
     9
100
AcDbLine
 10
-357.0199584960938
 20
262.0782487199114
 30
0.0
 11
-357.0199584960938
 21
276.0282130885769
 31
0.0
  0
LINE
  5
268
330
1F
100
AcDbEntity
  8
0-B
  6
Continuous
 62
     4
370
     9
100
AcDbLine
 10
-348.469997096706
 20
269.5781992319468
 30
0.0
 11
-348.469997096706
 21
283.5283120645059
 31
0.0
  0
LINE
  5
269
330
1F
100
AcDbEntity
  8
0-B
  6
Continuous
 62
     4
370
     9
100
AcDbLine
 10
-349.5200079840583
 20
269.5781992319468
 30
0.0
 11
-349.5200079840583
 21
283.5283120645059
 31
0.0
  0
LINE
  5
26A
330
1F
100
AcDbEntity
  8
0-B
  6
Continuous
 62
     4
370
     9
100
AcDbLine
 10
-363.4701208166174
 20
269.5781992319468
 30
0.0
 11
-363.4701208166174
 21
283.5283120645059
 31
0.0
  0
LINE
  5
26B
330
1F
100
AcDbEntity
  8
0-B
  6
Continuous
 62
     4
370
     9
100
AcDbLine
 10
-364.5201317039696
 20
269.5781992319468
 30
0.0
 11
-364.5201317039696
 21
283.5283120645059
 31
0.0
  0
LINE
  5
26C
330
1F
100
AcDbEntity
  8
0-B
  6
Continuous
 62
     4
370
     9
100
AcDbLine
 10
-340.9698238888302
 20
292.0781992319468
 30
0.0
 11
-340.9698238888302
 21
306.0283120645059
 31
0.0
  0
LINE
  5
26D
330
1F
100
AcDbEntity
  8
0-B
  6
Continuous
 62
     4
370
     9
100
AcDbLine
 10
-342.0200574720228
 20
292.0781992319468
 30
0.0
 11
-342.0200574720228
 21
306.0283120645059
 31
0.0
  0
LINE
  5
26E
330
1F
100
AcDbEntity
  8
0-B
  6
Continuous
 62
     4
370
     9
100
AcDbLine
 10
-333.4696506809544
 20
284.5781002560178
 30
0.0
 11
-333.4696506809544
 21
298.5282130885769
 31
0.0
  0
LINE
  5
26F
330
1F
100
AcDbEntity
  8
0-B
  6
Continuous
 62
     4
370
     9
100
AcDbLine
 10
-334.5196615683066
 20
284.5781002560178
 30
0.0
 11
-334.5196615683066
 21
298.5282130885769
 31
0.0
  0
LINE
  5
270
330
1F
100
AcDbEntity
  8
0-B
  6
Continuous
 62
     4
370
     9
100
AcDbLine
 10
-333.4696506809544
 20
277.0782239759291
 30
0.0
 11
-319.5195378483953
 21
277.0782239759291
 31
0.0
  0
LINE
  5
271
330
1F
100
AcDbEntity
  8
0-B
  6
Continuous
 62
     4
370
     9
100
AcDbLine
 10
-333.4696506809544
 20
276.0282130885769
 30
0.0
 11
-319.5195378483953
 21
276.0282130885769
 31
0.0
  0
LINE
  5
272
330
1F
100
AcDbEntity
  8
0-B
  6
Continuous
 62
     4
370
     9
100
AcDbLine
 10
-333.4696506809544
 20
291.028039880701
 30
0.0
 11
-319.5195378483953
 21
291.028039880701
 31
0.0
  0
LINE
  5
273
330
1F
100
AcDbEntity
  8
0-B
  6
Continuous
 62
     4
370
     9
100
AcDbLine
 10
-333.4696506809544
 20
292.0781992319468
 30
0.0
 11
-319.5195378483953
 21
292.0781992319468
 31
0.0
  0
LINE
  5
274
330
1F
100
AcDbEntity
  8
0-B
  6
Continuous
 62
     4
370
     9
100
AcDbLine
 10
-319.5195378483953
 20
284.5781002560178
 30
0.0
 11
-319.5195378483953
 21
298.5282130885769
 31
0.0
  0
LINE
  5
275
330
1F
100
AcDbEntity
  8
0-B
  6
Continuous
 62
     4
370
     9
100
AcDbLine
 10
-318.469526961043
 20
284.5781002560178
 30
0.0
 11
-318.469526961043
 21
298.5282130885769
 31
0.0
  0
LINE
  5
276
330
1F
100
AcDbEntity
  8
0-B
  6
Continuous
 62
     4
370
     9
100
AcDbLine
 10
-327.0197110562711
 20
277.0782239759291
 30
0.0
 11
-327.0197110562711
 21
291.028039880701
 31
0.0
  0
LINE
  5
277
330
1F
100
AcDbEntity
  8
0-B
  6
Continuous
 62
     4
370
     9
100
AcDbLine
 10
-325.9697001689189
 20
277.0782239759291
 30
0.0
 11
-325.9697001689189
 21
291.028039880701
 31
0.0
  0
LINE
  5
278
330
1F
100
AcDbEntity
  8
0-B
  6
Continuous
 62
     4
370
     9
100
AcDbLine
 10
-325.9697001689189
 20
298.5282130885769
 30
0.0
 11
-312.0195873363598
 21
298.5282130885769
 31
0.0
  0
LINE
  5
279
330
1F
100
AcDbEntity
  8
0-B
  6
Continuous
 62
     4
370
     9
100
AcDbLine
 10
-325.9697001689189
 20
299.5782239759291
 30
0.0
 11
-312.0195873363598
 21
299.5782239759291
 31
0.0
  0
LINE
  5
27A
330
1F
100
AcDbEntity
  8
0-B
  6
Continuous
 62
     4
370
     9
100
AcDbLine
 10
-312.0195873363598
 20
307.0782487199114
 30
0.0
 11
-312.0195873363598
 21
321.0282130885769
 31
0.0
  0
LINE
  5
27B
330
1F
100
AcDbEntity
  8
0-B
  6
Continuous
 62
     4
370
     9
100
AcDbLine
 10
-310.9693537531672
 20
307.0782487199114
 30
0.0
 11
-310.9693537531672
 21
321.0282130885769
 31
0.0
  0
LINE
  5
27C
330
1F
100
AcDbEntity
  8
0-B
  6
Continuous
 62
     4
370
     9
100
AcDbLine
 10
-333.4696506809544
 20
307.0782487199114
 30
0.0
 11
-319.5195378483953
 21
307.0782487199114
 31
0.0
  0
LINE
  5
27D
330
1F
100
AcDbEntity
  8
0-B
  6
Continuous
 62
     4
370
     9
100
AcDbLine
 10
-333.4696506809544
 20
306.0283120645059
 30
0.0
 11
-319.5195378483953
 21
306.0283120645059
 31
0.0
  0
LINE
  5
27E
330
1F
100
AcDbEntity
  8
0-B
  6
Continuous
 62
     4
370
     9
100
AcDbLine
 10
-333.4696506809544
 20
321.0282130885769
 30
0.0
 11
-319.5195378483953
 21
321.0282130885769
 31
0.0
  0
LINE
  5
27F
330
1F
100
AcDbEntity
  8
0-B
  6
Continuous
 62
     4
370
     9
100
AcDbLine
 10
-333.4696506809544
 20
322.0781497439823
 30
0.0
 11
-319.5195378483953
 21
322.0781497439823
 31
0.0
  0
LINE
  5
280
330
1F
100
AcDbEntity
  8
0-B
  6
Continuous
 62
     4
370
     9
100
AcDbLine
 10
-319.5195378483953
 20
314.578125
 30
0.0
 11
-319.5195378483953
 21
328.5282378325592
 31
0.0
  0
LINE
  5
281
330
1F
100
AcDbEntity
  8
0-B
  6
Continuous
 62
     4
370
     9
100
AcDbLine
 10
-318.469526961043
 20
314.578125
 30
0.0
 11
-318.469526961043
 21
328.5282378325592
 31
0.0
  0
LINE
  5
282
330
1F
100
AcDbEntity
  8
0-B
  6
Continuous
 62
     4
370
     9
100
AcDbLine
 10
-325.9697001689189
 20
313.5283368084882
 30
0.0
 11
-312.0195873363598
 21
313.5283368084882
 31
0.0
  0
LINE
  5
283
330
1F
100
AcDbEntity
  8
0-B
  6
Continuous
 62
     4
370
     9
100
AcDbLine
 10
-325.9697001689189
 20
314.578125
 30
0.0
 11
-312.0195873363598
 21
314.578125
 31
0.0
  0
LINE
  5
284
330
1F
100
AcDbEntity
  8
0-B
  6
Continuous
 62
     4
370
     9
100
AcDbLine
 10
-327.0197110562711
 20
307.0782487199114
 30
0.0
 11
-327.0197110562711
 21
321.0282130885769
 31
0.0
  0
LINE
  5
285
330
1F
100
AcDbEntity
  8
0-B
  6
Continuous
 62
     4
370
     9
100
AcDbLine
 10
-325.9697001689189
 20
307.0782487199114
 30
0.0
 11
-325.9697001689189
 21
321.0282130885769
 31
0.0
  0
LINE
  5
286
330
1F
100
AcDbEntity
  8
0-B
  6
Continuous
 62
     4
370
     9
100
AcDbLine
 10
-333.4696506809544
 20
269.5781992319468
 30
0.0
 11
-333.4696506809544
 21
283.5283120645059
 31
0.0
  0
LINE
  5
287
330
1F
100
AcDbEntity
  8
0-B
  6
Continuous
 62
     4
370
     9
100
AcDbLine
 10
-334.5196615683066
 20
269.5781992319468
 30
0.0
 11
-334.5196615683066
 21
283.5283120645059
 31
0.0
  0
LINE
  5
288
330
1F
100
AcDbEntity
  8
0-B
  6
Continuous
 62
     4
370
     9
100
AcDbLine
 10
-310.9693537531672
 20
292.0781992319468
 30
0.0
 11
-310.9693537531672
 21
306.0283120645059
 31
0.0
  0
LINE
  5
289
330
1F
100
AcDbEntity
  8
0-B
  6
Continuous
 62
     4
370
     9
100
AcDbLine
 10
-312.0195873363598
 20
292.0781992319468
 30
0.0
 11
-312.0195873363598
 21
306.0283120645059
 31
0.0
  0
LINE
  5
28A
330
1F
100
AcDbEntity
  8
0-B
  6
Continuous
 62
     4
370
     9
100
AcDbLine
 10
-325.9694774730785
 20
292.0781992319468
 30
0.0
 11
-325.9694774730785
 21
306.0283120645059
 31
0.0
  0
LINE
  5
28B
330
1F
100
AcDbEntity
  8
0-B
  6
Continuous
 62
     4
370
     9
100
AcDbLine
 10
-327.0197110562711
 20
292.0781992319468
 30
0.0
 11
-327.0197110562711
 21
306.0283120645059
 31
0.0
  0
LINE
  5
28C
330
1F
100
AcDbEntity
  8
0-B
  6
Continuous
 62
     4
370
     9
100
AcDbLine
 10
-318.469526961043
 20
299.5782239759291
 30
0.0
 11
-318.469526961043
 21
313.5283368084882
 31
0.0
  0
LINE
  5
28D
330
1F
100
AcDbEntity
  8
0-B
  6
Continuous
 62
     4
370
     9
100
AcDbLine
 10
-319.5195378483953
 20
299.5782239759291
 30
0.0
 11
-319.5195378483953
 21
313.5283368084882
 31
0.0
  0
LINE
  5
28E
330
1F
100
AcDbEntity
  8
0-B
  6
Continuous
 62
     4
370
     9
100
AcDbLine
 10
-333.4696506809544
 20
299.5782239759291
 30
0.0
 11
-333.4696506809544
 21
313.5283368084882
 31
0.0
  0
LINE
  5
28F
330
1F
100
AcDbEntity
  8
0-B
  6
Continuous
 62
     4
370
     9
100
AcDbLine
 10
-334.5196615683066
 20
299.5782239759291
 30
0.0
 11
-334.5196615683066
 21
313.5283368084882
 31
0.0
  0
LINE
  5
290
330
1F
100
AcDbEntity
  8
0-B
  6
Continuous
 62
     4
370
     9
100
AcDbLine
 10
-303.4691805452914
 20
314.578125
 30
0.0
 11
-303.4691805452914
 21
328.5282378325592
 31
0.0
  0
LINE
  5
291
330
1F
100
AcDbEntity
  8
0-B
  6
Continuous
 62
     4
370
     9
100
AcDbLine
 10
-304.5191914326435
 20
314.578125
 30
0.0
 11
-304.5191914326435
 21
328.5282378325592
 31
0.0
  0
LINE
  5
292
330
1F
100
AcDbEntity
  8
0-B
  6
Continuous
 62
     4
370
     9
100
AcDbLine
 10
-303.4691805452914
 20
337.0781992319469
 30
0.0
 11
-289.5190677127323
 21
337.0781992319469
 31
0.0
  0
LINE
  5
293
330
1F
100
AcDbEntity
  8
0-B
  6
Continuous
 62
     4
370
     9
100
AcDbLine
 10
-303.4691805452914
 20
336.0281883445947
 30
0.0
 11
-289.5190677127323
 21
336.0281883445947
 31
0.0
  0
LINE
  5
294
330
1F
100
AcDbEntity
  8
0-B
  6
Continuous
 62
     4
370
     9
100
AcDbLine
 10
-303.4691805452914
 20
299.5782239759291
 30
0.0
 11
-303.4691805452914
 21
313.5283368084882
 31
0.0
  0
LINE
  5
295
330
1F
100
AcDbEntity
  8
0-B
  6
Continuous
 62
     4
370
     9
100
AcDbLine
 10
-304.5191914326435
 20
299.5782239759291
 30
0.0
 11
-304.5191914326435
 21
313.5283368084882
 31
0.0
  0
LINE
  5
296
330
1F
100
AcDbEntity
  8
0-B
  6
Continuous
 62
     4
370
     9
100
AcDbLine
 10
-297.0192409206081
 20
322.0782982078758
 30
0.0
 11
-297.0192409206081
 21
336.0281883445947
 31
0.0
  0
LINE
  5
297
330
1F
100
AcDbEntity
  8
0-B
  6
Continuous
 62
     4
370
     9
100
AcDbLine
 10
-295.9694527290962
 20
322.0782982078758
 30
0.0
 11
-295.9694527290962
 21
336.0281883445947
 31
0.0
  0
LINE
  5
298
330
1F
100
AcDbEntity
  8
0-B
  6
Continuous
 62
     4
370
     9
100
AcDbLine
 10
-370.9702940244932
 20
253.5280646246833
 30
0.0
 11
-357.0201811919341
 21
253.5280646246833
 31
0.0
  0
LINE
  5
299
330
1F
100
AcDbEntity
  8
0-B
  6
Continuous
 62
     4
370
     9
100
AcDbLine
 10
-370.9702940244932
 20
254.5781497439823
 30
0.0
 11
-357.0201811919341
 21
254.5781497439823
 31
0.0
  0
LINE
  5
29A
330
1F
100
AcDbEntity
  8
0-B
  6
Continuous
 62
     4
370
     9
100
AcDbLine
 10
-370.9702940244932
 20
269.5781992319468
 30
0.0
 11
-357.0201811919341
 21
269.5781992319468
 31
0.0
  0
LINE
  5
29B
330
1F
100
AcDbEntity
  8
0-B
  6
Continuous
 62
     4
370
     9
100
AcDbLine
 10
-370.9702940244932
 20
268.5281883445946
 30
0.0
 11
-357.0201811919341
 21
268.5281883445946
 31
0.0
  0
LINE
  5
29C
330
1F
100
AcDbEntity
  8
0-B
  6
Continuous
 62
     4
370
     9
100
AcDbLine
 10
-348.4697744008657
 20
261.0281636006123
 30
0.0
 11
-334.5196615683066
 21
261.0281636006123
 31
0.0
  0
LINE
  5
29D
330
1F
100
AcDbEntity
  8
0-B
  6
Continuous
 62
     4
370
     9
100
AcDbLine
 10
-348.4697744008657
 20
262.0782487199114
 30
0.0
 11
-334.5196615683066
 21
262.0782487199114
 31
0.0
  0
LINE
  5
29E
330
1F
100
AcDbEntity
  8
0-B
  6
Continuous
 62
     4
370
     9
100
AcDbLine
 10
-348.4697744008657
 20
277.0782239759291
 30
0.0
 11
-334.5196615683066
 21
277.0782239759291
 31
0.0
  0
LINE
  5
29F
330
1F
100
AcDbEntity
  8
0-B
  6
Continuous
 62
     4
370
     9
100
AcDbLine
 10
-348.4697744008657
 20
276.0282130885769
 30
0.0
 11
-334.5196615683066
 21
276.0282130885769
 31
0.0
  0
LINE
  5
2A0
330
1F
100
AcDbEntity
  8
0-B
  6
Continuous
 62
     4
370
     9
100
AcDbLine
 10
-348.4697744008657
 20
291.028039880701
 30
0.0
 11
-334.5196615683066
 21
291.028039880701
 31
0.0
  0
LINE
  5
2A1
330
1F
100
AcDbEntity
  8
0-B
  6
Continuous
 62
     4
370
     9
100
AcDbLine
 10
-348.4697744008657
 20
292.0781992319468
 30
0.0
 11
-334.5196615683066
 21
292.0781992319468
 31
0.0
  0
LINE
  5
2A2
330
1F
100
AcDbEntity
  8
0-B
  6
Continuous
 62
     4
370
     9
100
AcDbLine
 10
-348.4697744008657
 20
307.0782487199114
 30
0.0
 11
-334.5196615683066
 21
307.0782487199114
 31
0.0
  0
LINE
  5
2A3
330
1F
100
AcDbEntity
  8
0-B
  6
Continuous
 62
     4
370
     9
100
AcDbLine
 10
-348.4697744008657
 20
306.0283120645059
 30
0.0
 11
-334.5196615683066
 21
306.0283120645059
 31
0.0
  0
LINE
  5
2A4
330
1F
100
AcDbEntity
  8
0-B
  6
Continuous
 62
     4
370
     9
100
AcDbLine
 10
-340.9698238888302
 20
269.5781992319468
 30
0.0
 11
-327.0197110562711
 21
269.5781992319468
 31
0.0
  0
LINE
  5
2A5
330
1F
100
AcDbEntity
  8
0-B
  6
Continuous
 62
     4
370
     9
100
AcDbLine
 10
-340.9698238888302
 20
268.5281883445946
 30
0.0
 11
-327.0197110562711
 21
268.5281883445946
 31
0.0
  0
LINE
  5
2A6
330
1F
100
AcDbEntity
  8
0-B
  6
Continuous
 62
     4
370
     9
100
AcDbLine
 10
-340.9698238888302
 20
283.5280893686655
 30
0.0
 11
-327.0197110562711
 21
283.5280893686655
 31
0.0
  0
LINE
  5
2A7
330
1F
100
AcDbEntity
  8
0-B
  6
Continuous
 62
     4
370
     9
100
AcDbLine
 10
-340.9698238888302
 20
284.5781002560178
 30
0.0
 11
-327.0197110562711
 21
284.5781002560178
 31
0.0
  0
LINE
  5
2A8
330
1F
100
AcDbEntity
  8
0-B
  6
Continuous
 62
     4
370
     9
100
AcDbLine
 10
-340.9698238888302
 20
299.5782239759291
 30
0.0
 11
-327.0197110562711
 21
299.5782239759291
 31
0.0
  0
LINE
  5
2A9
330
1F
100
AcDbEntity
  8
0-B
  6
Continuous
 62
     4
370
     9
100
AcDbLine
 10
-340.9698238888302
 20
298.5282130885769
 30
0.0
 11
-327.0197110562711
 21
298.5282130885769
 31
0.0
  0
LINE
  5
2AA
330
1F
100
AcDbEntity
  8
0-B
  6
Continuous
 62
     4
370
     9
100
AcDbLine
 10
-340.9698238888302
 20
313.5281141126478
 30
0.0
 11
-327.0197110562711
 21
313.5281141126478
 31
0.0
  0
LINE
  5
2AB
330
1F
100
AcDbEntity
  8
0-B
  6
Continuous
 62
     4
370
     9
100
AcDbLine
 10
-340.9698238888302
 20
314.578125
 30
0.0
 11
-327.0197110562711
 21
314.578125
 31
0.0
  0
LINE
  5
2AC
330
1F
100
AcDbEntity
  8
0-B
  6
Continuous
 62
     4
370
     9
100
AcDbLine
 10
-318.4693042652027
 20
307.0782487199114
 30
0.0
 11
-304.519414128484
 21
307.0782487199114
 31
0.0
  0
LINE
  5
2AD
330
1F
100
AcDbEntity
  8
0-B
  6
Continuous
 62
     4
370
     9
100
AcDbLine
 10
-318.4693042652027
 20
306.0283120645059
 30
0.0
 11
-304.519414128484
 21
306.0283120645059
 31
0.0
  0
LINE
  5
2AE
330
1F
100
AcDbEntity
  8
0-B
  6
Continuous
 62
     4
370
     9
100
AcDbLine
 10
-318.4693042652027
 20
321.0282130885769
 30
0.0
 11
-304.519414128484
 21
321.0282130885769
 31
0.0
  0
LINE
  5
2AF
330
1F
100
AcDbEntity
  8
0-B
  6
Continuous
 62
     4
370
     9
100
AcDbLine
 10
-318.4693042652027
 20
322.0781497439823
 30
0.0
 11
-304.519414128484
 21
322.0781497439823
 31
0.0
  0
LINE
  5
2B0
330
1F
100
AcDbEntity
  8
0-B
  6
Continuous
 62
     4
370
     9
100
AcDbLine
 10
-310.9693537531672
 20
313.5281141126478
 30
0.0
 11
-297.0194636164485
 21
313.5281141126478
 31
0.0
  0
LINE
  5
2B1
330
1F
100
AcDbEntity
  8
0-B
  6
Continuous
 62
     4
370
     9
100
AcDbLine
 10
-310.9693537531672
 20
314.578125
 30
0.0
 11
-297.0194636164485
 21
314.578125
 31
0.0
  0
LINE
  5
2B2
330
1F
100
AcDbEntity
  8
0-B
  6
Continuous
 62
     4
370
     9
100
AcDbLine
 10
-310.9693537531672
 20
329.5782487199114
 30
0.0
 11
-297.0194636164485
 21
329.5782487199114
 31
0.0
  0
LINE
  5
2B3
330
1F
100
AcDbEntity
  8
0-B
  6
Continuous
 62
     4
370
     9
100
AcDbLine
 10
-310.9693537531672
 20
328.5282378325592
 30
0.0
 11
-297.0194636164485
 21
328.5282378325592
 31
0.0
  0
LINE
  5
2B4
330
1F
100
AcDbEntity
  8
0-B
  6
Continuous
 62
     7
370
     9
100
AcDbLine
 10
-343.2985542915962
 20
248.6142809068835
 30
0.0
 11
-323.0243249841639
 21
266.8089764569257
 31
0.0
  0
LINE
  5
2B5
330
1F
100
AcDbEntity
  8
0-B
  6
Continuous
 62
     7
370
     9
100
AcDbLine
 10
-323.0243249841639
 20
266.8089764569257
 30
0.0
 11
-300.1507898279139
 21
302.6788181614232
 31
0.0
  0
LINE
  5
2B6
330
1F
100
AcDbEntity
  8
0-B
  6
Continuous
 62
     7
370
     9
100
AcDbLine
 10
-300.1507898279139
 20
302.6788181614232
 30
0.0
 11
-288.4692795212204
 21
332.867169354413
 31
0.0
  0
LINE
  5
2B7
330
1F
100
AcDbEntity
  8
0-B
  6
Continuous
 62
     7
370
     9
100
AcDbLine
 10
-288.4692795212204
 20
332.867169354413
 30
0.0
 11
-283.598921492293
 21
349.6683085673564
 31
0.0
  0
LINE
  5
2B8
330
1F
100
AcDbEntity
  8
0-B
  6
Continuous
 62
     4
370
     9
100
AcDbLine
 10
-295.9694527290962
 20
329.5782487199114
 30
0.0
 11
-289.7419862489443
 21
329.5782487199114
 31
0.0
  0
LINE
  5
2B9
330
1F
100
AcDbEntity
  8
0-B
  6
Continuous
 62
     4
370
     9
100
AcDbLine
 10
-295.9694527290962
 20
328.5282378325592
 30
0.0
 11
-290.1481834617821
 21
328.5282378325592
 31
0.0
  0
LINE
  5
2BA
330
1F
100
AcDbEntity
  8
0-B
  6
Continuous
 62
     4
370
     9
100
AcDbLine
 10
-303.4691805452914
 20
322.0781497439823
 30
0.0
 11
-292.6441584406672
 21
322.0781497439823
 31
0.0
  0
LINE
  5
2BB
330
1F
100
AcDbEntity
  8
0-B
  6
Continuous
 62
     4
370
     9
100
AcDbLine
 10
-303.4691805452914
 20
321.0282130885769
 30
0.0
 11
-293.0503556535051
 21
321.0282130885769
 31
0.0
  0
LINE
  5
2BC
330
1F
100
AcDbEntity
  8
0-B
  6
Continuous
 62
     4
370
     9
100
AcDbLine
 10
-297.0192409206081
 20
310.7718076963683
 30
0.0
 11
-297.0192409206081
 21
321.0282130885769
 31
0.0
  0
LINE
  5
2BD
330
1F
100
AcDbEntity
  8
0-B
  6
Continuous
 62
     4
370
     9
100
AcDbLine
 10
-295.9694527290962
 20
314.578125
 30
0.0
 11
-295.5463306323902
 21
314.578125
 31
0.0
  0
LINE
  5
2BE
330
1F
100
AcDbEntity
  8
0-B
  6
Continuous
 62
     4
370
     9
100
AcDbLine
 10
-295.9694527290962
 20
313.4849111196158
 30
0.0
 11
-295.9694527290962
 21
321.0282130885769
 31
0.0
  0
LINE
  5
2BF
330
1F
100
AcDbEntity
  8
0-B
  6
Continuous
 62
     4
370
     9
100
AcDbLine
 10
-303.4691805452914
 20
306.0283120645059
 30
0.0
 11
-298.854700036951
 21
306.0283120645059
 31
0.0
  0
LINE
  5
2C0
330
1F
100
AcDbEntity
  8
0-B
  6
Continuous
 62
     4
370
     9
100
AcDbLine
 10
-303.4691805452914
 20
307.0782487199114
 30
0.0
 11
-298.4482801282728
 21
307.0782487199114
 31
0.0
  0
LINE
  5
2C1
330
1F
100
AcDbEntity
  8
0-B
  6
Continuous
 62
     4
370
     9
100
AcDbLine
 10
-304.5191914326435
 20
295.8283971838049
 30
0.0
 11
-304.5191914326435
 21
298.5282130885769
 31
0.0
  0
LINE
  5
2C2
330
1F
100
AcDbEntity
  8
0-B
  6
Continuous
 62
     4
370
     9
100
AcDbLine
 10
-303.4691805452914
 20
297.4750844594595
 30
0.0
 11
-303.4691805452914
 21
298.5282130885769
 31
0.0
  0
LINE
  5
2C3
330
1F
100
AcDbEntity
  8
0-B
  6
Continuous
 62
     4
370
     9
100
AcDbLine
 10
-310.9693537531672
 20
299.5782239759291
 30
0.0
 11
-302.1278834987331
 21
299.5782239759291
 31
0.0
  0
LINE
  5
2C4
330
1F
100
AcDbEntity
  8
0-B
  6
Continuous
 62
     4
370
     9
100
AcDbLine
 10
-310.9693537531672
 20
298.5282130885769
 30
0.0
 11
-302.7975298907305
 21
298.5282130885769
 31
0.0
  0
LINE
  5
2C5
330
1F
100
AcDbEntity
  8
0-B
  6
Continuous
 62
     4
370
     9
100
AcDbLine
 10
-318.4693042652027
 20
292.0781992319468
 30
0.0
 11
-306.9107220623944
 21
292.0781992319468
 31
0.0
  0
LINE
  5
2C6
330
1F
100
AcDbEntity
  8
0-B
  6
Continuous
 62
     4
370
     9
100
AcDbLine
 10
-318.4693042652027
 20
291.028039880701
 30
0.0
 11
-307.5803684543919
 21
291.028039880701
 31
0.0
  0
LINE
  5
2C7
330
1F
100
AcDbEntity
  8
0-B
  6
Continuous
 62
     4
370
     9
100
AcDbLine
 10
-312.0195873363598
 20
284.0665679106842
 30
0.0
 11
-312.0195873363598
 21
291.028039880701
 31
0.0
  0
LINE
  5
2C8
330
1F
100
AcDbEntity
  8
0-B
  6
Continuous
 62
     4
370
     9
100
AcDbLine
 10
-310.9693537531672
 20
285.713180954392
 30
0.0
 11
-310.9693537531672
 21
291.028039880701
 31
0.0
  0
LINE
  5
2C9
330
1F
100
AcDbEntity
  8
0-B
  6
Continuous
 62
     4
370
     9
100
AcDbLine
 10
-325.9697001689189
 20
283.5283120645059
 30
0.0
 11
-312.3627616263724
 21
283.5283120645059
 31
0.0
  0
LINE
  5
2CA
330
1F
100
AcDbEntity
  8
0-B
  6
Continuous
 62
     4
370
     9
100
AcDbLine
 10
-325.9697001689189
 20
284.5781002560178
 30
0.0
 11
-312.0195873363598
 21
284.5781002560178
 31
0.0
  0
LINE
  5
2CB
330
1F
100
AcDbEntity
  8
0-B
  6
Continuous
 62
     4
370
     9
100
AcDbLine
 10
-319.5195378483953
 20
272.3051097972973
 30
0.0
 11
-319.5195378483953
 21
283.5283120645059
 31
0.0
  0
LINE
  5
2CC
330
1F
100
AcDbEntity
  8
0-B
  6
Continuous
 62
     4
370
     9
100
AcDbLine
 10
-318.469526961043
 20
273.9517228410051
 30
0.0
 11
-318.469526961043
 21
283.5283120645059
 31
0.0
  0
LINE
  5
2CD
330
1F
100
AcDbEntity
  8
0-B
  6
Continuous
 62
     4
370
     9
100
AcDbLine
 10
-318.4693042652027
 20
276.0282130885769
 30
0.0
 11
-317.1453774941934
 21
276.0282130885769
 31
0.0
  0
LINE
  5
2CE
330
1F
100
AcDbEntity
  8
0-B
  6
Continuous
 62
     4
370
     9
100
AcDbLine
 10
-318.4693042652027
 20
277.0782239759291
 30
0.0
 11
-316.4757311021959
 21
277.0782239759291
 31
0.0
  0
LINE
  5
2CF
330
1F
100
AcDbEntity
  8
0-B
  6
Continuous
 62
     4
370
     9
100
AcDbLine
 10
-325.9697001689189
 20
269.5781992319468
 30
0.0
 11
-321.2583469700169
 21
269.5781992319468
 31
0.0
  0
LINE
  5
2D0
330
1F
100
AcDbEntity
  8
0-B
  6
Continuous
 62
     4
370
     9
100
AcDbLine
 10
-325.9697001689189
 20
268.5281883445946
 30
0.0
 11
-321.9279933620143
 21
268.5281883445946
 31
0.0
  0
LINE
  5
2D1
330
1F
100
AcDbEntity
  8
0-B
  6
Continuous
 62
     4
370
     9
100
AcDbLine
 10
-327.0197110562711
 20
263.2235734269426
 30
0.0
 11
-327.0197110562711
 21
276.0282130885769
 31
0.0
  0
LINE
  5
2D2
330
1F
100
AcDbEntity
  8
0-B
  6
Continuous
 62
     4
370
     9
100
AcDbLine
 10
-325.9697001689189
 20
264.1656510636614
 30
0.0
 11
-325.9697001689189
 21
276.0282130885769
 31
0.0
  0
LINE
  5
2D3
330
1F
100
AcDbEntity
  8
0-B
  6
Continuous
 62
     4
370
     9
100
AcDbLine
 10
-333.4696506809544
 20
262.0782487199114
 30
0.0
 11
-328.2957582216005
 21
262.0782487199114
 31
0.0
  0
LINE
  5
2D4
330
1F
100
AcDbEntity
  8
0-B
  6
Continuous
 62
     4
370
     9
100
AcDbLine
 10
-333.4696506809544
 20
261.0281636006123
 30
0.0
 11
-329.465802166913
 21
261.0281636006123
 31
0.0
  0
LINE
  5
2D5
330
1F
100
AcDbEntity
  8
0-B
  6
Continuous
 62
     4
370
     9
100
AcDbLine
 10
-333.4696506809544
 20
257.435040448163
 30
0.0
 11
-333.4696506809544
 21
268.5281883445946
 31
0.0
  0
LINE
  5
2D6
330
1F
100
AcDbEntity
  8
0-B
  6
Continuous
 62
     4
370
     9
100
AcDbLine
 10
-334.5196615683066
 20
256.4926658836571
 30
0.0
 11
-334.5196615683066
 21
268.5281883445946
 31
0.0
  0
LINE
  5
2D7
330
1F
100
AcDbEntity
  8
0-B
  6
Continuous
 62
     4
370
     9
100
AcDbLine
 10
-340.9698238888302
 20
254.5781497439823
 30
0.0
 11
-336.6528650232264
 21
254.5781497439823
 31
0.0
  0
LINE
  5
2D8
330
1F
100
AcDbEntity
  8
0-B
  6
Continuous
 62
     4
370
     9
100
AcDbLine
 10
-340.9698238888302
 20
253.5280646246833
 30
0.0
 11
-337.8231316643792
 21
253.5280646246833
 31
0.0
  0
LINE
  5
2D9
330
1F
100
AcDbEntity
  8
0-B
  6
Continuous
 62
     4
370
     9
100
AcDbLine
 10
-340.9698238888302
 20
250.7040586729308
 30
0.0
 11
-340.9698238888302
 21
261.0281636006123
 31
0.0
  0
LINE
  5
2DA
330
1F
100
AcDbEntity
  8
0-B
  6
Continuous
 62
     4
370
     9
100
AcDbLine
 10
-342.0200574720228
 20
249.761609876478
 30
0.0
 11
-342.0200574720228
 21
261.0281636006123
 31
0.0
  0
LINE
  5
2DB
330
1F
100
AcDbEntity
  8
0-B
  6
Continuous
 62
     4
370
     9
100
AcDbLine
 10
-348.469997096706
 20
247.8820569837416
 30
0.0
 11
-348.469997096706
 21
253.5280646246833
 31
0.0
  0
LINE
  5
2DC
330
1F
100
AcDbEntity
  8
0-B
  6
Continuous
 62
     4
370
     9
100
AcDbLine
 10
-349.5200079840583
 20
247.7332961623734
 30
0.0
 11
-349.5200079840583
 21
253.5280646246833
 31
0.0
  0
LINE
  5
2DD
330
1F
100
AcDbEntity
  8
0-B
  6
Continuous
 62
     4
370
     9
100
AcDbLine
 10
-372.0205276076858
 20
244.547409470017
 30
0.0
 11
-372.0205276076858
 21
246.0282625765414
 31
0.0
  0
LINE
  5
2DE
330
1F
100
AcDbEntity
  8
0-B
  6
Continuous
 62
     4
370
     9
100
AcDbLine
 10
-370.9702940244932
 20
244.6960960594384
 30
0.0
 11
-370.9702940244932
 21
246.0282625765414
 31
0.0
  0
LINE
  5
2DF
330
1F
100
AcDbEntity
  8
0-B
  6
Continuous
 62
     4
370
     9
100
AcDbLine
 10
-363.4701208166174
 20
247.0781992319468
 30
0.0
 11
-354.1462913719383
 21
247.0781992319468
 31
0.0
  0
LINE
  5
2E0
330
1F
100
AcDbEntity
  8
0-B
  6
Continuous
 62
     4
370
     9
100
AcDbLine
 10
-363.4701208166174
 20
246.0282625765414
 30
0.0
 11
-361.561840160473
 21
246.0282625765414
 31
0.0
  0
LINE
  5
2E1
330
1F
100
AcDbEntity
  8
0-B
  6
Continuous
 62
     4
370
     9
100
AcDbLine
 10
-364.5201317039696
 20
245.6092974688556
 30
0.0
 11
-364.5201317039696
 21
253.5280646246833
 31
0.0
  0
LINE
  5
2E2
330
1F
100
AcDbEntity
  8
0-B
  6
Continuous
 62
     4
370
     9
100
AcDbLine
 10
-363.4701208166174
 20
245.7580582902238
 30
0.0
 11
-363.4701208166174
 21
253.5280646246833
 31
0.0
  0
LINE
  5
2E3
330
1F
100
AcDbEntity
  8
0-B
  6
Continuous
 62
     4
370
     9
100
AcDbLine
 10
-289.5190677127323
 20
330.1539916992188
 30
0.0
 11
-289.5190677127323
 21
343.4844162399705
 31
0.0
  0
LINE
  5
2E4
330
1F
100
AcDbEntity
  8
0-B
  6
Continuous
 62
     4
370
     9
100
AcDbLine
 10
-288.4692795212204
 20
332.867169354413
 30
0.0
 11
-288.4692795212204
 21
343.4844162399705
 31
0.0
  0
LINE
  5
2E5
330
1F
100
AcDbEntity
  8
0-B
  6
Continuous
 62
     4
370
     9
100
AcDbLine
 10
-297.0192409206081
 20
337.0781992319469
 30
0.0
 11
-297.0192409206081
 21
341.7757452887458
 31
0.0
  0
LINE
  5
2E6
330
1F
100
AcDbEntity
  8
0-B
  6
Continuous
 62
     4
370
     9
100
AcDbLine
 10
-295.9694527290962
 20
337.0781992319469
 30
0.0
 11
-295.9694527290962
 21
341.7757452887458
 31
0.0
  0
LINE
  5
2E7
330
1F
100
AcDbEntity
  8
0-B
  6
Continuous
 62
     4
370
     9
100
AcDbLine
 10
-304.5191914326435
 20
329.578397183805
 30
0.0
 11
-304.5191914326435
 21
339.5031342377534
 31
0.0
  0
LINE
  5
2E8
330
1F
100
AcDbEntity
  8
0-B
  6
Continuous
 62
     4
370
     9
100
AcDbLine
 10
-303.4694032411318
 20
329.578397183805
 30
0.0
 11
-303.4694032411318
 21
339.5031342377534
 31
0.0
  0
LINE
  5
2E9
330
1F
100
AcDbEntity
  8
0-B
  6
Continuous
 62
     4
370
     9
100
AcDbLine
 10
-312.0195873363598
 20
322.0782982078758
 30
0.0
 11
-312.0195873363598
 21
336.6272401551942
 31
0.0
  0
LINE
  5
2EA
330
1F
100
AcDbEntity
  8
0-B
  6
Continuous
 62
     4
370
     9
100
AcDbLine
 10
-310.9693537531672
 20
322.0782982078758
 30
0.0
 11
-310.9693537531672
 21
336.6272401551942
 31
0.0
  0
LINE
  5
2EB
330
1F
100
AcDbEntity
  8
0-B
  6
Continuous
 62
     4
370
     9
100
AcDbLine
 10
-311.2258993612753
 20
337.0781992319469
 30
0.0
 11
-304.519414128484
 21
337.0781992319469
 31
0.0
  0
LINE
  5
2EC
330
1F
100
AcDbEntity
  8
0-B
  6
Continuous
 62
     4
370
     9
100
AcDbLine
 10
-310.9693537531672
 20
336.0281883445947
 30
0.0
 11
-304.519414128484
 21
336.0281883445947
 31
0.0
  0
LINE
  5
2ED
330
1F
100
AcDbEntity
  8
0-B
  6
Continuous
 62
     4
370
     9
100
AcDbLine
 10
-319.5195378483953
 20
329.578397183805
 30
0.0
 11
-319.5195378483953
 21
333.1030784813134
 31
0.0
  0
LINE
  5
2EE
330
1F
100
AcDbEntity
  8
0-B
  6
Continuous
 62
     4
370
     9
100
AcDbLine
 10
-318.4697496568834
 20
329.578397183805
 30
0.0
 11
-318.4697496568834
 21
333.1030784813134
 31
0.0
  0
LINE
  5
2EF
330
1F
100
AcDbEntity
  8
0-B
  6
Continuous
 62
     4
370
     9
100
AcDbLine
 10
-326.1654498126055
 20
329.5782487199114
 30
0.0
 11
-312.0195873363598
 21
329.5782487199114
 31
0.0
  0
LINE
  5
2F0
330
1F
100
AcDbEntity
  8
0-B
  6
Continuous
 62
     4
370
     9
100
AcDbLine
 10
-334.5196615683066
 20
314.578125
 30
0.0
 11
-334.5196615683066
 21
323.759874498522
 31
0.0
  0
LINE
  5
2F1
330
1F
100
AcDbEntity
  8
0-B
  6
Continuous
 62
     4
370
     9
100
AcDbLine
 10
-333.4696506809544
 20
314.578125
 30
0.0
 11
-333.4696506809544
 21
323.759874498522
 31
0.0
  0
LINE
  5
2F2
330
1F
100
AcDbEntity
  8
0-B
  6
Continuous
 62
     4
370
     9
100
AcDbLine
 10
-336.8864729597761
 20
322.0781497439823
 30
0.0
 11
-334.5196615683066
 21
322.0781497439823
 31
0.0
  0
LINE
  5
2F3
330
1F
100
AcDbEntity
  8
0-B
  6
Continuous
 62
     4
370
     9
100
AcDbLine
 10
-336.8864729597761
 20
321.0282130885769
 30
0.0
 11
-334.5196615683066
 21
321.0282130885769
 31
0.0
  0
LINE
  5
2F4
330
1F
100
AcDbEntity
  8
0-B
  6
Continuous
 62
     4
370
     9
100
AcDbLine
 10
-342.0200574720228
 20
307.0782487199114
 30
0.0
 11
-342.0200574720228
 21
317.690076673353
 31
0.0
  0
LINE
  5
2F5
330
1F
100
AcDbEntity
  8
0-B
  6
Continuous
 62
     4
370
     9
100
AcDbLine
 10
-340.9698238888302
 20
307.0782487199114
 30
0.0
 11
-340.9698238888302
 21
317.690076673353
 31
0.0
  0
LINE
  5
2F6
330
1F
100
AcDbEntity
  8
0-B
  6
Continuous
 62
     4
370
     9
100
AcDbLine
 10
-345.4232953045819
 20
314.578125
 30
0.0
 11
-342.0200574720228
 21
314.578125
 31
0.0
  0
LINE
  5
2F7
330
1F
100
AcDbEntity
  8
0-B
  6
Continuous
 62
     4
370
     9
100
AcDbLine
 10
-345.4232953045819
 20
313.5283368084882
 30
0.0
 11
-342.0200574720228
 21
313.5283368084882
 31
0.0
  0
LINE
  5
2F8
330
1F
100
AcDbEntity
  8
0-B
  6
Continuous
 62
     4
370
     9
100
AcDbLine
 10
-349.5200079840583
 20
299.5782239759291
 30
0.0
 11
-349.5200079840583
 21
310.3998314110008
 31
0.0
  0
LINE
  5
2F9
330
1F
100
AcDbEntity
  8
0-B
  6
Continuous
 62
     4
370
     9
100
AcDbLine
 10
-348.469997096706
 20
299.5782239759291
 30
0.0
 11
-348.469997096706
 21
310.3998314110008
 31
0.0
  0
LINE
  5
2FA
330
1F
100
AcDbEntity
  8
0-B
  6
Continuous
 62
     4
370
     9
100
AcDbLine
 10
-352.4422228014147
 20
307.0782487199114
 30
0.0
 11
-349.5200079840583
 21
307.0782487199114
 31
0.0
  0
LINE
  5
2FB
330
1F
100
AcDbEntity
  8
0-B
  6
Continuous
 62
     4
370
     9
100
AcDbLine
 10
-352.4422228014147
 20
306.0283120645059
 30
0.0
 11
-349.5200079840583
 21
306.0283120645059
 31
0.0
  0
LINE
  5
2FC
330
1F
100
AcDbEntity
  8
0-B
  6
Continuous
 62
     4
370
     9
100
AcDbLine
 10
-357.0199584960938
 20
292.0781992319468
 30
0.0
 11
-357.0199584960938
 21
301.5074380410684
 31
0.0
  0
LINE
  5
2FD
330
1F
100
AcDbEntity
  8
0-B
  6
Continuous
 62
     4
370
     9
100
AcDbLine
 10
-355.9699476087415
 20
292.0781992319468
 30
0.0
 11
-355.9699476087415
 21
301.5074380410684
 31
0.0
  0
LINE
  5
2FE
330
1F
100
AcDbEntity
  8
0-B
  6
Continuous
 62
     4
370
     9
100
AcDbLine
 10
-358.2982326198268
 20
299.5782239759291
 30
0.0
 11
-357.0201811919341
 21
299.5782239759291
 31
0.0
  0
LINE
  5
2FF
330
1F
100
AcDbEntity
  8
0-B
  6
Continuous
 62
     4
370
     9
100
AcDbLine
 10
-358.2982326198268
 20
298.5282130885769
 30
0.0
 11
-357.0201811919341
 21
298.5282130885769
 31
0.0
  0
LINE
  5
300
330
1F
100
AcDbEntity
  8
0-B
  6
Continuous
 62
     4
370
     9
100
AcDbLine
 10
-363.2024404164907
 20
291.028039880701
 30
0.0
 11
-349.5200079840583
 21
291.028039880701
 31
0.0
  0
LINE
  5
301
330
1F
100
AcDbEntity
  8
0-B
  6
Continuous
 62
     4
370
     9
100
AcDbLine
 10
-363.2024404164907
 20
292.0781992319468
 30
0.0
 11
-349.5200079840583
 21
292.0781992319468
 31
0.0
  0
LINE
  5
302
330
1F
100
AcDbEntity
  8
0-B
  6
Continuous
 62
     4
370
     9
100
AcDbLine
 10
-363.4701208166174
 20
284.5781002560178
 30
0.0
 11
-363.4701208166174
 21
290.2143092799831
 31
0.0
  0
LINE
  5
303
330
1F
100
AcDbEntity
  8
0-B
  6
Continuous
 62
     4
370
     9
100
AcDbLine
 10
-364.5201317039696
 20
284.5781002560178
 30
0.0
 11
-364.5201317039696
 21
290.2143092799831
 31
0.0
  0
LINE
  5
304
330
1F
100
AcDbEntity
  8
0-B
  6
Continuous
 62
     4
370
     9
100
AcDbLine
 10
-367.3080609295819
 20
284.5781002560178
 30
0.0
 11
-357.0201811919341
 21
284.5781002560178
 31
0.0
  0
LINE
  5
305
330
1F
100
AcDbEntity
  8
0-B
  6
Continuous
 62
     4
370
     9
100
AcDbLine
 10
-367.3080609295819
 20
283.5280893686655
 30
0.0
 11
-357.0201811919341
 21
283.5280893686655
 31
0.0
  0
LINE
  5
306
330
1F
100
AcDbEntity
  8
0-B
  6
Continuous
 62
     4
370
     9
100
AcDbLine
 10
-370.6970462283573
 20
277.0782239759291
 30
0.0
 11
-364.5201317039696
 21
277.0782239759291
 31
0.0
  0
LINE
  5
307
330
1F
100
AcDbEntity
  8
0-B
  6
Continuous
 62
     4
370
     9
100
AcDbLine
 10
-370.6970462283573
 20
276.0282130885769
 30
0.0
 11
-364.5201317039696
 21
276.0282130885769
 31
0.0
  0
LINE
  5
308
330
1F
100
AcDbEntity
  8
0-B
  6
Continuous
 62
     4
370
     9
100
AcDbLine
 10
-372.0205276076858
 20
262.0782487199114
 30
0.0
 11
-372.0205276076858
 21
274.5488446209882
 31
0.0
  0
LINE
  5
309
330
1F
100
AcDbEntity
  8
0-B
  6
Continuous
 62
     4
370
     9
100
AcDbLine
 10
-370.9702940244932
 20
262.0782487199114
 30
0.0
 11
-370.9702940244932
 21
274.5488446209882
 31
0.0
  0
LINE
  5
30A
330
1F
100
AcDbEntity
  8
0-B
  6
Continuous
 62
     4
370
     9
100
AcDbLine
 10
-373.4475625527871
 20
269.5781992319468
 30
0.0
 11
-372.0205276076858
 21
269.5781992319468
 31
0.0
  0
LINE
  5
30B
330
1F
100
AcDbEntity
  8
0-B
  6
Continuous
 62
     4
370
     9
100
AcDbLine
 10
-373.4475625527871
 20
268.5281883445946
 30
0.0
 11
-372.0205276076858
 21
268.5281883445946
 31
0.0
  0
LINE
  5
30C
330
1F
100
AcDbEntity
  8
0-B
  6
Continuous
 62
     4
370
     9
100
AcDbLine
 10
-375.6059306376689
 20
262.0782487199114
 30
0.0
 11
-364.5201317039696
 21
262.0782487199114
 31
0.0
  0
LINE
  5
30D
330
1F
100
AcDbEntity
  8
0-B
  6
Continuous
 62
     4
370
     9
100
AcDbLine
 10
-375.6059306376689
 20
261.0281636006123
 30
0.0
 11
-364.5201317039696
 21
261.0281636006123
 31
0.0
  0
LINE
  5
30E
330
1F
100
AcDbEntity
  8
0-B
  6
Continuous
 62
     4
370
     9
100
AcDbLine
 10
-377.2071137299408
 20
254.5781497439823
 30
0.0
 11
-372.0205276076858
 21
254.5781497439823
 31
0.0
  0
LINE
  5
30F
330
1F
100
AcDbEntity
  8
0-B
  6
Continuous
 62
     4
370
     9
100
AcDbLine
 10
-378.2756083720439
 20
247.0781992319468
 30
0.0
 11
-364.5201317039696
 21
247.0781992319468
 31
0.0
  0
LINE
  5
310
330
1F
100
AcDbEntity
  8
0-B
  6
Continuous
 62
     4
370
     9
100
AcDbLine
 10
-378.2756083720439
 20
246.0282625765414
 30
0.0
 11
-364.5201317039696
 21
246.0282625765414
 31
0.0
  0
LINE
  5
311
330
1F
100
AcDbEntity
  8
0-B
  6
Continuous
 62
     7
370
     9
100
AcDbLine
 10
-384.6193220808699
 20
242.7633930927998
 30
0.0
 11
-343.2985542915962
 21
248.6142809068835
 31
0.0
  0
LINE
  5
312
330
1F
100
AcDbEntity
  8
0-B
  6
Continuous
 62
     4
370
     9
100
AcDbLine
 10
-377.2071137299408
 20
253.5282873205237
 30
0.0
 11
-372.0205276076858
 21
253.5282873205237
 31
0.0
  0
LINE
  5
313
330
1F
100
AcDbEntity
  8
0-B
  6
Continuous
 62
     4
370
     9
100
AcDbLine
 10
-270.3892723289696
 20
232.4418862832559
 30
0.0
 11
-353.6095943966427
 21
232.4418862832559
 31
0.0
  0
LINE
  5
314
330
1F
100
AcDbEntity
  8
0-B
  6
Continuous
 62
     4
370
     9
100
AcDbLine
 10
-358.1111681139147
 20
232.4418862832559
 30
0.0
 11
-375.6373307511613
 21
232.4418862832559
 31
0.0
  0
LINE
  5
315
330
1F
100
AcDbEntity
  8
0-B
  6
Continuous
 62
     4
370
     9
100
AcDbLine
 10
-265.8892574825802
 20
144.7199904983109
 30
0.0
 11
-265.8892574825802
 21
127.1938278610642
 31
0.0
  0
LINE
  5
316
330
1F
100
AcDbEntity
  8
0-B
  6
Continuous
 62
     4
370
     9
100
AcDbLine
 10
-270.3892723289696
 20
144.7199904983109
 30
0.0
 11
-270.3892723289696
 21
127.1938278610642
 31
0.0
  0
LINE
  5
317
330
1F
100
AcDbEntity
  8
0-B
  6
Continuous
 62
     4
370
     9
100
AcDbLine
 10
-178.1673616976351
 20
232.4418862832559
 30
0.0
 11
-160.6411990603885
 21
232.4418862832559
 31
0.0
  0
LINE
  5
318
330
1F
100
AcDbEntity
  8
0-B
  6
JWW_CENTER1
 62
     4
370
     9
100
AcDbLine
 10
-395.4423399229308
 20
234.6920050543708
 30
0.0
 11
-140.8359671927787
 21
234.6920050543708
 31
0.0
  0
LINE
  5
319
330
1F
100
AcDbEntity
  8
0-B
  6
JWW_CENTER1
 62
     4
370
     9
100
AcDbLine
 10
-268.1391535578547
 20
361.9953398833405
 30
0.0
 11
-268.1391535578547
 21
107.388744457348
 31
0.0
  0
LINE
  5
31A
330
1F
100
AcDbEntity
  8
0-B
  6
Continuous
 62
     4
370
     9
100
AcDbLine
 10
-265.8892574825802
 20
232.4418862832559
 30
0.0
 11
-221.3144580737964
 21
232.4418862832559
 31
0.0
  0
LINE
  5
31B
330
1F
100
AcDbEntity
  8
0-B
  6
Continuous
 62
     4
370
     9
100
AcDbLine
 10
-213.9438938450169
 20
232.4418862832559
 30
0.0
 11
-182.6687127190667
 21
232.4418862832559
 31
0.0
  0
LINE
  5
31C
330
1F
100
AcDbEntity
  8
0-9
  6
JWW_DASHED1
 62
     2
370
     9
100
AcDbLine
 10
-225.4419398952175
 20
-100.8222161370355
 30
0.0
 11
-210.6086153597444
 21
-103.052774790171
 31
0.0
  0
LINE
  5
31D
330
1F
100
AcDbEntity
  8
0-9
  6
JWW_DASHED1
 62
     2
370
     9
100
AcDbLine
 10
-227.4495057801942
 20
-114.1721265638196
 30
0.0
 11
-212.6162925926415
 21
-116.4025367530616
 31
0.0
  0
LINE
  5
31E
330
1F
100
AcDbEntity
  8
0-9
  6
JWW_DASHED1
 62
     2
370
     9
100
AcDbLine
 10
-230.7950653900971
 20
-136.4220762510557
 30
0.0
 11
-215.9617779705975
 21
-138.6523750923775
 31
0.0
  0
LINE
  5
31F
330
1F
100
AcDbEntity
  8
0-9
  6
Continuous
 62
     2
370
     9
100
AcDbLine
 10
-225.3304806271115
 20
-100.0805647566512
 30
0.0
 11
-210.4973787874788
 21
-102.3110491778399
 31
0.0
  0
LINE
  5
320
330
1F
100
AcDbEntity
  8
0-9
  6
Continuous
 62
     2
370
     9
100
AcDbLine
 10
-227.5608908163534
 20
-114.9137779442039
 30
0.0
 11
-212.7277889767209
 21
-117.1442994813661
 31
0.0
  0
LINE
  5
321
330
1F
100
AcDbEntity
  8
0-9
  6
Continuous
 62
     2
370
     9
100
AcDbLine
 10
-228.4532330487225
 20
-120.8470632192251
 30
0.0
 11
-213.6199085132495
 21
-123.077658988334
 31
0.0
  0
LINE
  5
322
330
1F
100
AcDbEntity
  8
0-9
  6
Continuous
 62
     2
370
     9
100
AcDbLine
 10
-228.4812556086359
 20
-121.0333482896959
 30
0.0
 11
-213.647745493296
 21
-123.2639811747783
 31
0.0
  0
LINE
  5
323
330
1F
100
AcDbEntity
  8
0-9
  6
Continuous
 62
     2
370
     9
100
AcDbLine
 10
-230.9066731220967
 20
-137.1636533994932
 30
0.0
 11
-216.0735712824641
 21
-139.3942120526288
 31
0.0
  0
LINE
  5
324
330
1F
100
AcDbEntity
  8
0-9
  6
Continuous
 62
     2
370
     9
100
AcDbLine
 10
-225.3304806271115
 20
-100.0805647566512
 30
0.0
 11
-230.9066731220967
 21
-137.1636533994932
 31
0.0
  0
LINE
  5
325
330
1F
100
AcDbEntity
  8
0-9
  6
Continuous
 62
     2
370
     9
100
AcDbLine
 10
-210.4973787874788
 20
-102.3110491778399
 30
0.0
 11
-216.0735712824641
 21
-139.3942120526288
 31
0.0
  0
LINE
  5
326
330
1F
100
AcDbEntity
  8
0-6
  6
Continuous
 62
     6
370
     5
100
AcDbLine
 10
-224.25894247519
 20
-57.11455721468539
 30
0.0
 11
-225.6637078362542
 21
-56.90325597814609
 31
0.0
  0
LINE
  5
327
330
1F
100
AcDbEntity
  8
0-6
  6
Continuous
 62
     6
370
     5
100
AcDbLine
 10
-219.6558194547086
 20
-60.63942409206078
 30
0.0
 11
-217.3604934279983
 21
-67.25297092747043
 31
0.0
  0
LINE
  5
328
330
1F
100
AcDbEntity
  8
0-6
  6
Continuous
 62
     6
370
     5
100
AcDbLine
 10
-218.1911489125845
 20
-69.40328484612539
 30
0.0
 11
-217.9916134396115
 21
-69.43334878457559
 31
0.0
  0
LINE
  5
329
330
1F
100
AcDbEntity
  8
0-6
  6
Continuous
 62
     6
370
     5
100
AcDbLine
 10
-198.8854238149282
 20
-60.92993081582554
 30
0.0
 11
-197.480658453864
 21
-61.14123205236484
 31
0.0
  0
LINE
  5
32A
330
1F
100
AcDbEntity
  8
0-6
  6
Continuous
 62
     6
370
     5
100
AcDbLine
 10
-204.3216519742398
 20
-62.94521682326855
 30
0.0
 11
-208.4602314717061
 21
-68.59126158018367
 31
0.0
  0
LINE
  5
32B
330
1F
100
AcDbEntity
  8
0-6
  6
Continuous
 62
     6
370
     5
100
AcDbLine
 10
-208.2987769874366
 20
-70.89085594383445
 30
0.0
 11
-208.4983124604096
 21
-70.86082912135765
 31
0.0
  0
LINE
  5
32C
330
1F
100
AcDbEntity
  8
0-6
  6
Continuous
 62
     6
370
     5
100
AcDbLine
 10
-217.6504434121621
 20
-69.18136844119508
 30
0.0
 11
-217.0257815799198
 21
-65.02790543839734
 31
0.0
  0
LINE
  5
32D
330
1F
100
AcDbEntity
  8
0-6
  6
Continuous
 62
     6
370
     5
100
AcDbLine
 10
-216.1670664194468
 20
-69.40436120935387
 30
0.0
 11
-215.5424045872044
 21
-65.25100955447633
 31
0.0
  0
LINE
  5
32E
330
1F
100
AcDbEntity
  8
0-6
  6
Continuous
 62
     6
370
     5
100
AcDbLine
 10
-210.2337811444256
 20
-70.29659209380277
 30
0.0
 11
-209.6091193121833
 21
-66.14324043892523
 31
0.0
  0
LINE
  5
32F
330
1F
100
AcDbEntity
  8
0-6
  6
Continuous
 62
     6
370
     5
100
AcDbLine
 10
-208.750849543391
 20
-70.51962197793496
 30
0.0
 11
-208.1261877111486
 21
-66.36623320708402
 31
0.0
  0
LINE
  5
330
330
1F
100
AcDbEntity
  8
0-B
  6
Continuous
 62
     4
370
     9
100
AcDbLine
 10
-256.4195251464844
 20
-76.94517640809754
 30
0.0
 11
-265.4391149572424
 21
-80.88162231445312
 31
0.0
  0
LINE
  5
331
330
1F
100
AcDbEntity
  8
0-B
  6
Continuous
 62
     4
370
     9
100
AcDbLine
 10
-257.7891416807432
 20
-72.63304261903504
 30
0.0
 11
-267.2391283189928
 21
-76.75736958271746
 31
0.0
  0
LINE
  5
332
330
1F
100
AcDbEntity
  8
0-B
  6
Continuous
 62
     4
370
     9
100
AcDbLine
 10
-279.8586335053315
 20
-76.94517640809754
 30
0.0
 11
-270.8390436945735
 21
-80.88162231445312
 31
0.0
  0
LINE
  5
333
330
1F
100
AcDbEntity
  8
0-B
  6
Continuous
 62
     4
370
     9
100
AcDbLine
 10
-278.4890912030194
 20
-72.63304261903504
 30
0.0
 11
-269.0391787967166
 21
-76.75736958271746
 31
0.0
  0
LINE
  5
334
330
1F
100
AcDbEntity
  8
0-B
  6
Continuous
 62
     4
370
     9
100
AcDbLine
 10
-378.3265314875422
 20
-158.1677683237436
 30
0.0
 11
-358.0764646787901
 21
-74.16778811892945
 31
0.0
  0
LINE
  5
335
330
1F
100
AcDbEntity
  8
0-B
  6
Continuous
 62
     4
370
     9
100
AcDbLine
 10
-269.0391787967166
 20
-76.94510217615074
 30
0.0
 11
-268.1391535578547
 21
-76.94510217615074
 31
0.0
  0
LINE
  5
336
330
1F
100
AcDbEntity
  8
0-B
  6
Continuous
 62
     4
370
     9
100
AcDbLine
 10
-355.8891461346601
 20
-76.94510217615074
 30
0.0
 11
-279.8588190851985
 21
-76.94510217615074
 31
0.0
  0
LINE
  5
337
330
1F
100
AcDbEntity
  8
0-B
  6
Continuous
 62
     4
370
     9
100
AcDbLine
 10
-347.7415590028505
 20
-71.91989630621832
 30
0.0
 11
-347.7415590028505
 21
-72.44501309781461
 31
0.0
  0
LINE
  5
338
330
1F
100
AcDbEntity
  8
0-B
  6
Continuous
 62
     4
370
     9
100
AcDbLine
 10
-346.6913996516047
 20
-71.91989630621832
 30
0.0
 11
-346.6913996516047
 21
-72.44501309781461
 31
0.0
  0
LINE
  5
339
330
1F
100
AcDbEntity
  8
0-B
  6
Continuous
 62
     4
370
     9
100
AcDbLine
 10
-355.2416579787795
 20
-71.91989630621832
 30
0.0
 11
-355.2416579787795
 21
-72.44501309781461
 31
0.0
  0
LINE
  5
33A
330
1F
100
AcDbEntity
  8
0-B
  6
Continuous
 62
     4
370
     9
100
AcDbLine
 10
-354.1914986275338
 20
-71.91989630621832
 30
0.0
 11
-354.1914986275338
 21
-72.44501309781461
 31
0.0
  0
LINE
  5
33B
330
1F
100
AcDbEntity
  8
0-B
  6
Continuous
 62
     4
370
     9
100
AcDbLine
 10
-340.2415713748417
 20
-71.91989630621832
 30
0.0
 11
-340.2415713748417
 21
-72.44501309781461
 31
0.0
  0
LINE
  5
33C
330
1F
100
AcDbEntity
  8
0-B
  6
Continuous
 62
     4
370
     9
100
AcDbLine
 10
-339.1914120235958
 20
-71.91989630621832
 30
0.0
 11
-339.1914120235958
 21
-72.44501309781461
 31
0.0
  0
LINE
  5
33D
330
1F
100
AcDbEntity
  8
0-B
  6
Continuous
 62
     4
370
     9
100
AcDbLine
 10
-332.7415837468328
 20
-71.91989630621832
 30
0.0
 11
-332.7415837468328
 21
-72.44501309781461
 31
0.0
  0
LINE
  5
33E
330
1F
100
AcDbEntity
  8
0-B
  6
Continuous
 62
     4
370
     9
100
AcDbLine
 10
-331.691424395587
 20
-71.91989630621832
 30
0.0
 11
-331.691424395587
 21
-72.44501309781461
 31
0.0
  0
LINE
  5
33F
330
1F
100
AcDbEntity
  8
0-B
  6
Continuous
 62
     4
370
     9
100
AcDbLine
 10
-325.2415590028505
 20
-71.91989630621832
 30
0.0
 11
-325.2415590028505
 21
-72.44501309781461
 31
0.0
  0
LINE
  5
340
330
1F
100
AcDbEntity
  8
0-B
  6
Continuous
 62
     4
370
     9
100
AcDbLine
 10
-324.1914367675781
 20
-71.91989630621832
 30
0.0
 11
-324.1914367675781
 21
-72.44501309781461
 31
0.0
  0
LINE
  5
341
330
1F
100
AcDbEntity
  8
0-B
  6
Continuous
 62
     4
370
     9
100
AcDbLine
 10
-317.7415713748417
 20
-71.91989630621832
 30
0.0
 11
-317.7415713748417
 21
-72.44501309781461
 31
0.0
  0
LINE
  5
342
330
1F
100
AcDbEntity
  8
0-B
  6
Continuous
 62
     4
370
     9
100
AcDbLine
 10
-316.6914491395693
 20
-71.91989630621832
 30
0.0
 11
-316.6914491395693
 21
-72.44501309781461
 31
0.0
  0
LINE
  5
343
330
1F
100
AcDbEntity
  8
0-B
  6
Continuous
 62
     4
370
     9
100
AcDbLine
 10
-310.2415837468328
 20
-71.91989630621832
 30
0.0
 11
-310.2415837468328
 21
-72.44501309781461
 31
0.0
  0
LINE
  5
344
330
1F
100
AcDbEntity
  8
0-B
  6
Continuous
 62
     4
370
     9
100
AcDbLine
 10
-309.191424395587
 20
-71.91989630621832
 30
0.0
 11
-309.191424395587
 21
-72.44501309781461
 31
0.0
  0
LINE
  5
345
330
1F
100
AcDbEntity
  8
0-B
  6
Continuous
 62
     4
370
     9
100
AcDbLine
 10
-302.7415590028505
 20
-71.91989630621832
 30
0.0
 11
-302.7415590028505
 21
-72.44501309781461
 31
0.0
  0
LINE
  5
346
330
1F
100
AcDbEntity
  8
0-B
  6
Continuous
 62
     4
370
     9
100
AcDbLine
 10
-301.6914367675781
 20
-71.91989630621832
 30
0.0
 11
-301.6914367675781
 21
-72.44501309781461
 31
0.0
  0
LINE
  5
347
330
1F
100
AcDbEntity
  8
0-B
  6
Continuous
 62
     4
370
     9
100
AcDbLine
 10
-295.2415342588682
 20
-71.91989630621832
 30
0.0
 11
-295.2415342588682
 21
-72.44501309781461
 31
0.0
  0
LINE
  5
348
330
1F
100
AcDbEntity
  8
0-B
  6
Continuous
 62
     4
370
     9
100
AcDbLine
 10
-294.1914120235958
 20
-71.91989630621832
 30
0.0
 11
-294.1914120235958
 21
-72.44501309781461
 31
0.0
  0
LINE
  5
349
330
1F
100
AcDbEntity
  8
0-B
  6
Continuous
 62
     4
370
     9
100
AcDbLine
 10
-287.741509514886
 20
-71.91989630621832
 30
0.0
 11
-287.741509514886
 21
-72.44501309781461
 31
0.0
  0
LINE
  5
34A
330
1F
100
AcDbEntity
  8
0-B
  6
Continuous
 62
     4
370
     9
100
AcDbLine
 10
-286.6913501636402
 20
-71.91989630621832
 30
0.0
 11
-286.6913501636402
 21
-72.44501309781461
 31
0.0
  0
LINE
  5
34B
330
1F
100
AcDbEntity
  8
0-B
  6
Continuous
 62
     4
370
     9
100
AcDbLine
 10
-280.2414847709037
 20
-71.91989630621832
 30
0.0
 11
-280.2414847709037
 21
-72.44501309781461
 31
0.0
  0
LINE
  5
34C
330
1F
100
AcDbEntity
  8
0-B
  6
Continuous
 62
     4
370
     9
100
AcDbLine
 10
-279.1913254196579
 20
-71.91989630621832
 30
0.0
 11
-279.1913254196579
 21
-72.44501309781461
 31
0.0
  0
LINE
  5
34D
330
1F
100
AcDbEntity
  8
0-B
  6
Continuous
 62
     4
370
     9
100
AcDbLine
 10
-272.741422910948
 20
-71.91989630621832
 30
0.0
 11
-272.741422910948
 21
-72.44501309781461
 31
0.0
  0
LINE
  5
34E
330
1F
100
AcDbEntity
  8
0-B
  6
Continuous
 62
     4
370
     9
100
AcDbLine
 10
-271.6913006756757
 20
-71.91989630621832
 30
0.0
 11
-271.6913006756757
 21
-72.44501309781461
 31
0.0
  0
LINE
  5
34F
330
1F
100
AcDbEntity
  8
0-B
  6
Continuous
 62
     4
370
     9
100
AcDbLine
 10
-157.8985513223184
 20
-158.3447372848923
 30
0.0
 11
-157.2010679502744
 21
-158.3447372848923
 31
0.0
  0
LINE
  5
350
330
1F
100
AcDbEntity
  8
0-B
  6
Continuous
 62
     4
370
     9
100
AcDbLine
 10
-158.0006202491554
 20
-159.3948224041913
 30
0.0
 11
-157.2010679502744
 21
-159.3948224041913
 31
0.0
  0
LINE
  5
351
330
1F
100
AcDbEntity
  8
0-B
  6
Continuous
 62
     4
370
     9
100
AcDbLine
 10
-157.9517756281672
 20
-158.1677683237436
 30
0.0
 11
-178.2018424369193
 21
-74.16778811892945
 31
0.0
  0
LINE
  5
352
330
1F
100
AcDbEntity
  8
0-B
  6
Continuous
 62
     4
370
     9
100
AcDbLine
 10
-188.5367481128589
 20
-71.91989630621832
 30
0.0
 11
-188.5367481128589
 21
-72.44501309781461
 31
0.0
  0
LINE
  5
353
330
1F
100
AcDbEntity
  8
0-B
  6
Continuous
 62
     4
370
     9
100
AcDbLine
 10
-189.5869074641047
 20
-71.91989630621832
 30
0.0
 11
-189.5869074641047
 21
-72.44501309781461
 31
0.0
  0
LINE
  5
354
330
1F
100
AcDbEntity
  8
0-B
  6
Continuous
 62
     4
370
     9
100
AcDbLine
 10
-175.9895448426942
 20
-83.34463830896324
 30
0.0
 11
-175.3229419605152
 21
-83.34463830896324
 31
0.0
  0
LINE
  5
355
330
1F
100
AcDbEntity
  8
0-B
  6
Continuous
 62
     4
370
     9
100
AcDbLine
 10
-175.7364139041385
 20
-84.39472342826222
 30
0.0
 11
-175.3229419605152
 21
-84.39472342826222
 31
0.0
  0
LINE
  5
356
330
1F
100
AcDbEntity
  8
0-B
  6
Continuous
 62
     4
370
     9
100
AcDbLine
 10
-174.1815515466638
 20
-90.8446630529455
 30
0.0
 11
-173.5149486644848
 21
-90.8446630529455
 31
0.0
  0
LINE
  5
357
330
1F
100
AcDbEntity
  8
0-B
  6
Continuous
 62
     4
370
     9
100
AcDbLine
 10
-173.928420608108
 20
-91.89474817224449
 30
0.0
 11
-173.5149486644848
 21
-91.89474817224449
 31
0.0
  0
LINE
  5
358
330
1F
100
AcDbEntity
  8
0-B
  6
Continuous
 62
     4
370
     9
100
AcDbLine
 10
-172.3734840186866
 20
-98.34476202887457
 30
0.0
 11
-171.7068811365076
 21
-98.34476202887457
 31
0.0
  0
LINE
  5
359
330
1F
100
AcDbEntity
  8
0-B
  6
Continuous
 62
     4
370
     9
100
AcDbLine
 10
-172.1203530801309
 20
-99.39477291622676
 30
0.0
 11
-171.7068811365076
 21
-99.39477291622676
 31
0.0
  0
LINE
  5
35A
330
1F
100
AcDbEntity
  8
0-B
  6
Continuous
 62
     4
370
     9
100
AcDbLine
 10
-170.5654907226562
 20
-105.84471254091
 30
0.0
 11
-169.8988878404772
 21
-105.84471254091
 31
0.0
  0
LINE
  5
35B
330
1F
100
AcDbEntity
  8
0-B
  6
Continuous
 62
     4
370
     9
100
AcDbLine
 10
-170.3122855521537
 20
-106.894797660209
 30
0.0
 11
-169.8988878404772
 21
-106.894797660209
 31
0.0
  0
LINE
  5
35C
330
1F
100
AcDbEntity
  8
0-B
  6
Continuous
 62
     4
370
     9
100
AcDbLine
 10
-168.7574231946791
 20
-113.3448115168391
 30
0.0
 11
-168.0908203125
 21
-113.3448115168391
 31
0.0
  0
LINE
  5
35D
330
1F
100
AcDbEntity
  8
0-B
  6
Continuous
 62
     4
370
     9
100
AcDbLine
 10
-168.5042922561233
 20
-114.3948224041913
 30
0.0
 11
-168.0908203125
 21
-114.3948224041913
 31
0.0
  0
LINE
  5
35E
330
1F
100
AcDbEntity
  8
0-B
  6
Continuous
 62
     4
370
     9
100
AcDbLine
 10
-166.9494298986486
 20
-120.8448362608214
 30
0.0
 11
-166.2828270164696
 21
-120.8448362608214
 31
0.0
  0
LINE
  5
35F
330
1F
100
AcDbEntity
  8
0-B
  6
Continuous
 62
     4
370
     9
100
AcDbLine
 10
-166.6962989600929
 20
-121.8949213801204
 30
0.0
 11
-166.2828270164696
 21
-121.8949213801204
 31
0.0
  0
LINE
  5
360
330
1F
100
AcDbEntity
  8
0-B
  6
Continuous
 62
     4
370
     9
100
AcDbLine
 10
-165.1413623706714
 20
-128.3448610048036
 30
0.0
 11
-164.4748337204391
 21
-128.3448610048036
 31
0.0
  0
LINE
  5
361
330
1F
100
AcDbEntity
  8
0-B
  6
Continuous
 62
     4
370
     9
100
AcDbLine
 10
-164.8882314321157
 20
-129.3949461241026
 30
0.0
 11
-164.4748337204391
 21
-129.3949461241026
 31
0.0
  0
LINE
  5
362
330
1F
100
AcDbEntity
  8
0-B
  6
Continuous
 62
     4
370
     9
100
AcDbLine
 10
-163.333369074641
 20
-135.8448857487859
 30
0.0
 11
-162.6667661924619
 21
-135.8448857487859
 31
0.0
  0
LINE
  5
363
330
1F
100
AcDbEntity
  8
0-B
  6
Continuous
 62
     4
370
     9
100
AcDbLine
 10
-163.0802381360853
 20
-136.8949708680849
 30
0.0
 11
-162.6667661924619
 21
-136.8949708680849
 31
0.0
  0
LINE
  5
364
330
1F
100
AcDbEntity
  8
0-B
  6
Continuous
 62
     4
370
     9
100
AcDbLine
 10
-161.5253015466638
 20
-143.3449104927681
 30
0.0
 11
-160.8587728964316
 21
-143.3449104927681
 31
0.0
  0
LINE
  5
365
330
1F
100
AcDbEntity
  8
0-B
  6
Continuous
 62
     4
370
     9
100
AcDbLine
 10
-161.272170608108
 20
-144.3949956120671
 30
0.0
 11
-160.8587728964316
 21
-144.3949956120671
 31
0.0
  0
LINE
  5
366
330
1F
100
AcDbEntity
  8
0-B
  6
Continuous
 62
     4
370
     9
100
AcDbLine
 10
-159.7173082506334
 20
-150.8449352367504
 30
0.0
 11
-159.0507053684544
 21
-150.8449352367504
 31
0.0
  0
LINE
  5
367
330
1F
100
AcDbEntity
  8
0-B
  6
Continuous
 62
     4
370
     9
100
AcDbLine
 10
-159.4641773120777
 20
-151.8950203560494
 30
0.0
 11
-159.0507053684544
 21
-151.8950203560494
 31
0.0
  0
LINE
  5
368
330
1F
100
AcDbEntity
  8
0-B
  6
Continuous
 62
     4
370
     9
100
AcDbLine
 10
-181.0366491369298
 20
-71.91989630621832
 30
0.0
 11
-181.0366491369298
 21
-72.44501309781461
 31
0.0
  0
LINE
  5
369
330
1F
100
AcDbEntity
  8
0-B
  6
Continuous
 62
     4
370
     9
100
AcDbLine
 10
-182.0868084881756
 20
-71.91989630621832
 30
0.0
 11
-182.0868084881756
 21
-72.44501309781461
 31
0.0
  0
LINE
  5
36A
330
1F
100
AcDbEntity
  8
0-B
  6
Continuous
 62
     4
370
     9
100
AcDbLine
 10
-196.0367357408678
 20
-71.91989630621832
 30
0.0
 11
-196.0367357408678
 21
-72.44501309781461
 31
0.0
  0
LINE
  5
36B
330
1F
100
AcDbEntity
  8
0-B
  6
Continuous
 62
     4
370
     9
100
AcDbLine
 10
-197.0868950921136
 20
-71.91989630621832
 30
0.0
 11
-197.0868950921136
 21
-72.44501309781461
 31
0.0
  0
LINE
  5
36C
330
1F
100
AcDbEntity
  8
0-B
  6
Continuous
 62
     4
370
     9
100
AcDbLine
 10
-203.5367233688766
 20
-71.91989630621832
 30
0.0
 11
-203.5367233688766
 21
-72.44501309781461
 31
0.0
  0
LINE
  5
36D
330
1F
100
AcDbEntity
  8
0-B
  6
Continuous
 62
     4
370
     9
100
AcDbLine
 10
-204.5868827201224
 20
-71.91989630621832
 30
0.0
 11
-204.5868827201224
 21
-72.44501309781461
 31
0.0
  0
LINE
  5
36E
330
1F
100
AcDbEntity
  8
0-B
  6
Continuous
 62
     4
370
     9
100
AcDbLine
 10
-218.5367357408678
 20
-71.91989630621832
 30
0.0
 11
-218.5367357408678
 21
-72.44501309781461
 31
0.0
  0
LINE
  5
36F
330
1F
100
AcDbEntity
  8
0-B
  6
Continuous
 62
     4
370
     9
100
AcDbLine
 10
-219.5868579761402
 20
-71.91989630621832
 30
0.0
 11
-219.5868579761402
 21
-72.44501309781461
 31
0.0
  0
LINE
  5
370
330
1F
100
AcDbEntity
  8
0-B
  6
Continuous
 62
     4
370
     9
100
AcDbLine
 10
-226.0367233688766
 20
-71.91989630621832
 30
0.0
 11
-226.0367233688766
 21
-72.44501309781461
 31
0.0
  0
LINE
  5
371
330
1F
100
AcDbEntity
  8
0-B
  6
Continuous
 62
     4
370
     9
100
AcDbLine
 10
-227.0868827201224
 20
-71.91989630621832
 30
0.0
 11
-227.0868827201224
 21
-72.44501309781461
 31
0.0
  0
LINE
  5
372
330
1F
100
AcDbEntity
  8
0-B
  6
Continuous
 62
     4
370
     9
100
AcDbLine
 10
-233.5367481128589
 20
-71.91989630621832
 30
0.0
 11
-233.5367481128589
 21
-72.44501309781461
 31
0.0
  0
LINE
  5
373
330
1F
100
AcDbEntity
  8
0-B
  6
Continuous
 62
     4
370
     9
100
AcDbLine
 10
-234.5868703481313
 20
-71.91989630621832
 30
0.0
 11
-234.5868703481313
 21
-72.44501309781461
 31
0.0
  0
LINE
  5
374
330
1F
100
AcDbEntity
  8
0-B
  6
Continuous
 62
     4
370
     9
100
AcDbLine
 10
-241.0367728568412
 20
-71.91989630621832
 30
0.0
 11
-241.0367728568412
 21
-72.44501309781461
 31
0.0
  0
LINE
  5
375
330
1F
100
AcDbEntity
  8
0-B
  6
Continuous
 62
     4
370
     9
100
AcDbLine
 10
-242.0868950921136
 20
-71.91989630621832
 30
0.0
 11
-242.0868950921136
 21
-72.44501309781461
 31
0.0
  0
LINE
  5
376
330
1F
100
AcDbEntity
  8
0-B
  6
Continuous
 62
     4
370
     9
100
AcDbLine
 10
-248.5367976008235
 20
-71.91989630621832
 30
0.0
 11
-248.5367976008235
 21
-72.44501309781461
 31
0.0
  0
LINE
  5
377
330
1F
100
AcDbEntity
  8
0-B
  6
Continuous
 62
     4
370
     9
100
AcDbLine
 10
-249.5869569520692
 20
-71.91989630621832
 30
0.0
 11
-249.5869569520692
 21
-72.44501309781461
 31
0.0
  0
LINE
  5
378
330
1F
100
AcDbEntity
  8
0-B
  6
Continuous
 62
     4
370
     9
100
AcDbLine
 10
-256.0368223448057
 20
-71.91989630621832
 30
0.0
 11
-256.0368223448057
 21
-72.44501309781461
 31
0.0
  0
LINE
  5
379
330
1F
100
AcDbEntity
  8
0-B
  6
Continuous
 62
     4
370
     9
100
AcDbLine
 10
-257.0869816960515
 20
-71.91989630621832
 30
0.0
 11
-257.0869816960515
 21
-72.44501309781461
 31
0.0
  0
LINE
  5
37A
330
1F
100
AcDbEntity
  8
0-B
  6
Continuous
 62
     4
370
     9
100
AcDbLine
 10
-263.5368842047613
 20
-71.91989630621832
 30
0.0
 11
-263.5368842047613
 21
-72.44501309781461
 31
0.0
  0
LINE
  5
37B
330
1F
100
AcDbEntity
  8
0-B
  6
Continuous
 62
     4
370
     9
100
AcDbLine
 10
-264.5870064400337
 20
-71.91989630621832
 30
0.0
 11
-264.5870064400337
 21
-72.44501309781461
 31
0.0
  0
LINE
  5
37C
330
1F
100
AcDbEntity
  8
0-B
  6
Continuous
 62
     4
370
     9
100
AcDbLine
 10
-346.6913996516047
 20
-91.89482240419129
 30
0.0
 11
-346.6913996516047
 21
-105.8449352367504
 31
0.0
  0
LINE
  5
37D
330
1F
100
AcDbEntity
  8
0-B
  6
Continuous
 62
     4
370
     9
100
AcDbLine
 10
-347.7415590028505
 20
-91.89482240419129
 30
0.0
 11
-347.7415590028505
 21
-105.8449352367504
 31
0.0
  0
LINE
  5
37E
330
1F
100
AcDbEntity
  8
0-B
  6
Continuous
 62
     4
370
     9
100
AcDbLine
 10
-346.6913996516047
 20
-84.39472342826222
 30
0.0
 11
-340.241422910948
 21
-84.39472342826222
 31
0.0
  0
LINE
  5
37F
330
1F
100
AcDbEntity
  8
0-B
  6
Continuous
 62
     4
370
     9
100
AcDbLine
 10
-346.6913996516047
 20
-83.34471254091004
 30
0.0
 11
-340.241422910948
 21
-83.34471254091004
 31
0.0
  0
LINE
  5
380
330
1F
100
AcDbEntity
  8
0-B
  6
Continuous
 62
     4
370
     9
100
AcDbLine
 10
-339.1914491395693
 20
-83.34471254091004
 30
0.0
 11
-325.2413734229835
 21
-83.34471254091004
 31
0.0
  0
LINE
  5
381
330
1F
100
AcDbEntity
  8
0-B
  6
Continuous
 62
     4
370
     9
100
AcDbLine
 10
-339.1914491395693
 20
-84.39472342826222
 30
0.0
 11
-325.2413734229835
 21
-84.39472342826222
 31
0.0
  0
LINE
  5
382
330
1F
100
AcDbEntity
  8
0-B
  6
Continuous
 62
     4
370
     9
100
AcDbLine
 10
-324.1914367675781
 20
-84.39472342826222
 30
0.0
 11
-310.2414352829392
 21
-84.39472342826222
 31
0.0
  0
LINE
  5
383
330
1F
100
AcDbEntity
  8
0-B
  6
Continuous
 62
     4
370
     9
100
AcDbLine
 10
-324.1914367675781
 20
-83.34471254091004
 30
0.0
 11
-310.2414352829392
 21
-83.34471254091004
 31
0.0
  0
LINE
  5
384
330
1F
100
AcDbEntity
  8
0-B
  6
Continuous
 62
     4
370
     9
100
AcDbLine
 10
-346.6913996516047
 20
-99.39477291622676
 30
0.0
 11
-325.2413734229835
 21
-99.39477291622676
 31
0.0
  0
LINE
  5
385
330
1F
100
AcDbEntity
  8
0-B
  6
Continuous
 62
     4
370
     9
100
AcDbLine
 10
-324.1914367675781
 20
-99.39477291622676
 30
0.0
 11
-310.2414352829392
 21
-99.39477291622676
 31
0.0
  0
LINE
  5
386
330
1F
100
AcDbEntity
  8
0-B
  6
Continuous
 62
     4
370
     9
100
AcDbLine
 10
-346.6913996516047
 20
-98.34483626082137
 30
0.0
 11
-325.2413734229835
 21
-98.34483626082137
 31
0.0
  0
LINE
  5
387
330
1F
100
AcDbEntity
  8
0-B
  6
Continuous
 62
     4
370
     9
100
AcDbLine
 10
-324.1914367675781
 20
-98.34483626082137
 30
0.0
 11
-310.2414352829392
 21
-98.34483626082137
 31
0.0
  0
LINE
  5
388
330
1F
100
AcDbEntity
  8
0-B
  6
Continuous
 62
     4
370
     9
100
AcDbLine
 10
-339.1914491395693
 20
-91.89482240419129
 30
0.0
 11
-332.7414723989126
 21
-91.89482240419129
 31
0.0
  0
LINE
  5
389
330
1F
100
AcDbEntity
  8
0-B
  6
Continuous
 62
     4
370
     9
100
AcDbLine
 10
-331.6914615115604
 20
-91.89482240419129
 30
0.0
 11
-317.7413857949746
 21
-91.89482240419129
 31
0.0
  0
LINE
  5
38A
330
1F
100
AcDbEntity
  8
0-B
  6
Continuous
 62
     4
370
     9
100
AcDbLine
 10
-339.1914491395693
 20
-90.8447372848923
 30
0.0
 11
-332.7414723989126
 21
-90.8447372848923
 31
0.0
  0
LINE
  5
38B
330
1F
100
AcDbEntity
  8
0-B
  6
Continuous
 62
     4
370
     9
100
AcDbLine
 10
-331.6914615115604
 20
-90.8447372848923
 30
0.0
 11
-317.7413857949746
 21
-90.8447372848923
 31
0.0
  0
LINE
  5
38C
330
1F
100
AcDbEntity
  8
0-B
  6
Continuous
 62
     4
370
     9
100
AcDbLine
 10
-331.6914615115604
 20
-84.39472342826222
 30
0.0
 11
-331.6914615115604
 21
-98.34483626082137
 31
0.0
  0
LINE
  5
38D
330
1F
100
AcDbEntity
  8
0-B
  6
Continuous
 62
     4
370
     9
100
AcDbLine
 10
-332.7414723989126
 20
-84.39472342826222
 30
0.0
 11
-332.7414723989126
 21
-98.34483626082137
 31
0.0
  0
LINE
  5
38E
330
1F
100
AcDbEntity
  8
0-B
  6
Continuous
 62
     4
370
     9
100
AcDbLine
 10
-317.7413857949746
 20
-84.39472342826222
 30
0.0
 11
-317.7413857949746
 21
-98.34483626082137
 31
0.0
  0
LINE
  5
38F
330
1F
100
AcDbEntity
  8
0-B
  6
Continuous
 62
     4
370
     9
100
AcDbLine
 10
-316.6914120235958
 20
-84.39472342826222
 30
0.0
 11
-316.6914120235958
 21
-98.34483626082137
 31
0.0
  0
LINE
  5
390
330
1F
100
AcDbEntity
  8
0-B
  6
Continuous
 62
     4
370
     9
100
AcDbLine
 10
-340.241422910948
 20
-76.94502794420394
 30
0.0
 11
-340.241422910948
 21
-98.34483626082137
 31
0.0
  0
LINE
  5
391
330
1F
100
AcDbEntity
  8
0-B
  6
Continuous
 62
     4
370
     9
100
AcDbLine
 10
-339.1914491395693
 20
-76.94502794420394
 30
0.0
 11
-339.1914491395693
 21
-98.34483626082137
 31
0.0
  0
LINE
  5
392
330
1F
100
AcDbEntity
  8
0-B
  6
Continuous
 62
     4
370
     9
100
AcDbLine
 10
-332.7414723989126
 20
-76.94502794420394
 30
0.0
 11
-332.7414723989126
 21
-83.34471254091004
 31
0.0
  0
LINE
  5
393
330
1F
100
AcDbEntity
  8
0-B
  6
Continuous
 62
     4
370
     9
100
AcDbLine
 10
-331.6914615115604
 20
-76.94502794420394
 30
0.0
 11
-331.6914615115604
 21
-83.34471254091004
 31
0.0
  0
LINE
  5
394
330
1F
100
AcDbEntity
  8
0-B
  6
Continuous
 62
     4
370
     9
100
AcDbLine
 10
-325.2413734229835
 20
-76.94502794420394
 30
0.0
 11
-325.2413734229835
 21
-90.8447372848923
 31
0.0
  0
LINE
  5
395
330
1F
100
AcDbEntity
  8
0-B
  6
Continuous
 62
     4
370
     9
100
AcDbLine
 10
-324.1914367675781
 20
-76.94502794420394
 30
0.0
 11
-324.1914367675781
 21
-90.8447372848923
 31
0.0
  0
LINE
  5
396
330
1F
100
AcDbEntity
  8
0-B
  6
Continuous
 62
     4
370
     9
100
AcDbLine
 10
-317.7413857949746
 20
-76.94502794420394
 30
0.0
 11
-317.7413857949746
 21
-83.34471254091004
 31
0.0
  0
LINE
  5
397
330
1F
100
AcDbEntity
  8
0-B
  6
Continuous
 62
     4
370
     9
100
AcDbLine
 10
-316.6914120235958
 20
-76.94502794420394
 30
0.0
 11
-316.6914120235958
 21
-83.34471254091004
 31
0.0
  0
LINE
  5
398
330
1F
100
AcDbEntity
  8
0-B
  6
Continuous
 62
     4
370
     9
100
AcDbLine
 10
-310.2414352829392
 20
-76.94502794420394
 30
0.0
 11
-310.2414352829392
 21
-90.8447372848923
 31
0.0
  0
LINE
  5
399
330
1F
100
AcDbEntity
  8
0-B
  6
Continuous
 62
     4
370
     9
100
AcDbLine
 10
-309.191424395587
 20
-76.94502794420394
 30
0.0
 11
-309.191424395587
 21
-90.8447372848923
 31
0.0
  0
LINE
  5
39A
330
1F
100
AcDbEntity
  8
0-B
  6
Continuous
 62
     4
370
     9
100
AcDbLine
 10
-347.7415590028505
 20
-76.94502794420394
 30
0.0
 11
-347.7415590028505
 21
-90.8447372848923
 31
0.0
  0
LINE
  5
39B
330
1F
100
AcDbEntity
  8
0-B
  6
Continuous
 62
     4
370
     9
100
AcDbLine
 10
-346.6913996516047
 20
-76.94502794420394
 30
0.0
 11
-346.6913996516047
 21
-90.8447372848923
 31
0.0
  0
LINE
  5
39C
330
1F
100
AcDbEntity
  8
0-B
  6
Continuous
 62
     4
370
     9
100
AcDbLine
 10
-354.1914986275338
 20
-91.89482240419129
 30
0.0
 11
-354.1914986275338
 21
-98.34483626082137
 31
0.0
  0
LINE
  5
39D
330
1F
100
AcDbEntity
  8
0-B
  6
Continuous
 62
     4
370
     9
100
AcDbLine
 10
-355.2414352829392
 20
-91.89482240419129
 30
0.0
 11
-355.2414352829392
 21
-98.34483626082137
 31
0.0
  0
LINE
  5
39E
330
1F
100
AcDbEntity
  8
0-B
  6
Continuous
 62
     4
370
     9
100
AcDbLine
 10
-354.1914986275338
 20
-84.39472342826222
 30
0.0
 11
-347.7415590028505
 21
-84.39472342826222
 31
0.0
  0
LINE
  5
39F
330
1F
100
AcDbEntity
  8
0-B
  6
Continuous
 62
     4
370
     9
100
AcDbLine
 10
-354.1914986275338
 20
-83.34471254091004
 30
0.0
 11
-347.7415590028505
 21
-83.34471254091004
 31
0.0
  0
LINE
  5
3A0
330
1F
100
AcDbEntity
  8
0-B
  6
Continuous
 62
     4
370
     9
100
AcDbLine
 10
-354.1914986275338
 20
-106.8948718921558
 30
0.0
 11
-340.241422910948
 21
-106.8948718921558
 31
0.0
  0
LINE
  5
3A1
330
1F
100
AcDbEntity
  8
0-B
  6
Continuous
 62
     4
370
     9
100
AcDbLine
 10
-354.1914986275338
 20
-105.8449352367504
 30
0.0
 11
-340.241422910948
 21
-105.8449352367504
 31
0.0
  0
LINE
  5
3A2
330
1F
100
AcDbEntity
  8
0-B
  6
Continuous
 62
     4
370
     9
100
AcDbLine
 10
-354.1914986275338
 20
-121.8949213801204
 30
0.0
 11
-340.241422910948
 21
-121.8949213801204
 31
0.0
  0
LINE
  5
3A3
330
1F
100
AcDbEntity
  8
0-B
  6
Continuous
 62
     4
370
     9
100
AcDbLine
 10
-354.1914986275338
 20
-120.8449847247149
 30
0.0
 11
-340.241422910948
 21
-120.8449847247149
 31
0.0
  0
LINE
  5
3A4
330
1F
100
AcDbEntity
  8
0-B
  6
Continuous
 62
     4
370
     9
100
AcDbLine
 10
-355.2414352829392
 20
-99.39477291622676
 30
0.0
 11
-355.2414352829392
 21
-113.3448857487859
 31
0.0
  0
LINE
  5
3A5
330
1F
100
AcDbEntity
  8
0-B
  6
Continuous
 62
     4
370
     9
100
AcDbLine
 10
-354.1914986275338
 20
-99.39477291622676
 30
0.0
 11
-354.1914986275338
 21
-113.3448857487859
 31
0.0
  0
LINE
  5
3A6
330
1F
100
AcDbEntity
  8
0-B
  6
Continuous
 62
     4
370
     9
100
AcDbLine
 10
-354.1914986275338
 20
-114.3948224041913
 30
0.0
 11
-354.1914986275338
 21
-128.3449352367504
 31
0.0
  0
LINE
  5
3A7
330
1F
100
AcDbEntity
  8
0-B
  6
Continuous
 62
     4
370
     9
100
AcDbLine
 10
-355.2414352829392
 20
-114.3948224041913
 30
0.0
 11
-355.2414352829392
 21
-128.3449352367504
 31
0.0
  0
LINE
  5
3A8
330
1F
100
AcDbEntity
  8
0-B
  6
Continuous
 62
     4
370
     9
100
AcDbLine
 10
-361.6914491395693
 20
-129.3948718921558
 30
0.0
 11
-347.7415590028505
 21
-129.3948718921558
 31
0.0
  0
LINE
  5
3A9
330
1F
100
AcDbEntity
  8
0-B
  6
Continuous
 62
     4
370
     9
100
AcDbLine
 10
-361.6914491395693
 20
-128.3449352367504
 30
0.0
 11
-347.7415590028505
 21
-128.3449352367504
 31
0.0
  0
LINE
  5
3AA
330
1F
100
AcDbEntity
  8
0-B
  6
Continuous
 62
     4
370
     9
100
AcDbLine
 10
-361.6914491395693
 20
-114.3948224041913
 30
0.0
 11
-347.7415590028505
 21
-114.3948224041913
 31
0.0
  0
LINE
  5
3AB
330
1F
100
AcDbEntity
  8
0-B
  6
Continuous
 62
     4
370
     9
100
AcDbLine
 10
-361.6914491395693
 20
-113.3448857487859
 30
0.0
 11
-347.7415590028505
 21
-113.3448857487859
 31
0.0
  0
LINE
  5
3AC
330
1F
100
AcDbEntity
  8
0-B
  6
Continuous
 62
     4
370
     9
100
AcDbLine
 10
-347.7415590028505
 20
-106.8948718921558
 30
0.0
 11
-347.7415590028505
 21
-120.8449847247149
 31
0.0
  0
LINE
  5
3AD
330
1F
100
AcDbEntity
  8
0-B
  6
Continuous
 62
     4
370
     9
100
AcDbLine
 10
-346.6913996516047
 20
-106.8948718921558
 30
0.0
 11
-346.6913996516047
 21
-120.8449847247149
 31
0.0
  0
LINE
  5
3AE
330
1F
100
AcDbEntity
  8
0-B
  6
Continuous
 62
     4
370
     9
100
AcDbLine
 10
-339.1914491395693
 20
-99.39477291622676
 30
0.0
 11
-339.1914491395693
 21
-113.3448857487859
 31
0.0
  0
LINE
  5
3AF
330
1F
100
AcDbEntity
  8
0-B
  6
Continuous
 62
     4
370
     9
100
AcDbLine
 10
-339.1914491395693
 20
-114.3948224041913
 30
0.0
 11
-339.1914491395693
 21
-128.3449352367504
 31
0.0
  0
LINE
  5
3B0
330
1F
100
AcDbEntity
  8
0-B
  6
Continuous
 62
     4
370
     9
100
AcDbLine
 10
-340.241422910948
 20
-99.39477291622676
 30
0.0
 11
-340.241422910948
 21
-113.3448857487859
 31
0.0
  0
LINE
  5
3B1
330
1F
100
AcDbEntity
  8
0-B
  6
Continuous
 62
     4
370
     9
100
AcDbLine
 10
-340.241422910948
 20
-114.3948224041913
 30
0.0
 11
-340.241422910948
 21
-128.3449352367504
 31
0.0
  0
LINE
  5
3B2
330
1F
100
AcDbEntity
  8
0-B
  6
Continuous
 62
     4
370
     9
100
AcDbLine
 10
-346.6913996516047
 20
-114.3948224041913
 30
0.0
 11
-332.7414723989126
 21
-114.3948224041913
 31
0.0
  0
LINE
  5
3B3
330
1F
100
AcDbEntity
  8
0-B
  6
Continuous
 62
     4
370
     9
100
AcDbLine
 10
-346.6913996516047
 20
-113.3448857487859
 30
0.0
 11
-332.7414723989126
 21
-113.3448857487859
 31
0.0
  0
LINE
  5
3B4
330
1F
100
AcDbEntity
  8
0-B
  6
Continuous
 62
     4
370
     9
100
AcDbLine
 10
-332.7414723989126
 20
-99.39477291622676
 30
0.0
 11
-332.7414723989126
 21
-105.8449352367504
 31
0.0
  0
LINE
  5
3B5
330
1F
100
AcDbEntity
  8
0-B
  6
Continuous
 62
     4
370
     9
100
AcDbLine
 10
-331.6914615115604
 20
-99.39477291622676
 30
0.0
 11
-331.6914615115604
 21
-105.8449352367504
 31
0.0
  0
LINE
  5
3B6
330
1F
100
AcDbEntity
  8
0-B
  6
Continuous
 62
     4
370
     9
100
AcDbLine
 10
-331.6914615115604
 20
-106.8948718921558
 30
0.0
 11
-331.6914615115604
 21
-120.8449847247149
 31
0.0
  0
LINE
  5
3B7
330
1F
100
AcDbEntity
  8
0-B
  6
Continuous
 62
     4
370
     9
100
AcDbLine
 10
-332.7414723989126
 20
-106.8948718921558
 30
0.0
 11
-332.7414723989126
 21
-120.8449847247149
 31
0.0
  0
LINE
  5
3B8
330
1F
100
AcDbEntity
  8
0-B
  6
Continuous
 62
     4
370
     9
100
AcDbLine
 10
-339.1914491395693
 20
-106.8948718921558
 30
0.0
 11
-325.2413734229835
 21
-106.8948718921558
 31
0.0
  0
LINE
  5
3B9
330
1F
100
AcDbEntity
  8
0-B
  6
Continuous
 62
     4
370
     9
100
AcDbLine
 10
-339.1914491395693
 20
-105.8449352367504
 30
0.0
 11
-325.2413734229835
 21
-105.8449352367504
 31
0.0
  0
LINE
  5
3BA
330
1F
100
AcDbEntity
  8
0-B
  6
Continuous
 62
     7
370
     9
100
AcDbLine
 10
-298.1038067791913
 20
-70.71600259316934
 30
0.0
 11
-302.4332737278294
 21
-81.10676780906883
 31
0.0
  0
LINE
  5
3BB
330
1F
100
AcDbEntity
  8
0-B
  6
Continuous
 62
     7
370
     9
100
AcDbLine
 10
-302.4332737278294
 20
-81.10676780906883
 30
0.0
 11
-304.1650308145059
 21
-97.55871994430953
 31
0.0
  0
LINE
  5
3BC
330
1F
100
AcDbEntity
  8
0-B
  6
Continuous
 62
     7
370
     9
100
AcDbLine
 10
-304.1650308145059
 20
-97.55871994430953
 30
0.0
 11
-313.6898803710938
 21
-111.4129993335621
 31
0.0
  0
LINE
  5
3BD
330
1F
100
AcDbEntity
  8
0-B
  6
Continuous
 62
     7
370
     9
100
AcDbLine
 10
-313.6898803710938
 20
-111.4129993335621
 30
0.0
 11
-331.8736267089844
 21
-127.8649514688028
 31
0.0
  0
LINE
  5
3BE
330
1F
100
AcDbEntity
  8
0-B
  6
Continuous
 62
     7
370
     9
100
AcDbLine
 10
-331.8736267089844
 20
-127.8649514688028
 30
0.0
 11
-348.3256159601985
 21
-142.585146517367
 31
0.0
  0
LINE
  5
3BF
330
1F
100
AcDbEntity
  8
0-B
  6
Continuous
 62
     7
370
     9
100
AcDbLine
 10
-348.3256159601985
 20
-142.585146517367
 30
0.0
 11
-361.7469375197952
 21
-144.7498985496727
 31
0.0
  0
LINE
  5
3C0
330
1F
100
AcDbEntity
  8
0-B
  6
Continuous
 62
     7
370
     9
100
AcDbLine
 10
-361.7469375197952
 20
-144.7498985496727
 30
0.0
 11
-382.0954358899915
 21
-146.0487349226668
 31
0.0
  0
LINE
  5
3C1
330
1F
100
AcDbEntity
  8
0-B
  6
Continuous
 62
     4
370
     9
100
AcDbLine
 10
-354.1914986275338
 20
-136.8949708680849
 30
0.0
 11
-341.9659423828125
 21
-136.8949708680849
 31
0.0
  0
LINE
  5
3C2
330
1F
100
AcDbEntity
  8
0-B
  6
Continuous
 62
     4
370
     9
100
AcDbLine
 10
-354.1914986275338
 20
-135.8450342126795
 30
0.0
 11
-340.7924837679476
 21
-135.8450342126795
 31
0.0
  0
LINE
  5
3C3
330
1F
100
AcDbEntity
  8
0-B
  6
Continuous
 62
     4
370
     9
100
AcDbLine
 10
-340.241422910948
 20
-129.3948718921558
 30
0.0
 11
-340.241422910948
 21
-135.3519856220967
 31
0.0
  0
LINE
  5
3C4
330
1F
100
AcDbEntity
  8
0-B
  6
Continuous
 62
     4
370
     9
100
AcDbLine
 10
-339.1914491395693
 20
-129.3948718921558
 30
0.0
 11
-339.1914491395693
 21
-134.4125061035156
 31
0.0
  0
LINE
  5
3C5
330
1F
100
AcDbEntity
  8
0-B
  6
Continuous
 62
     4
370
     9
100
AcDbLine
 10
-346.6913996516047
 20
-129.3948718921558
 30
0.0
 11
-333.5834853713577
 21
-129.3948718921558
 31
0.0
  0
LINE
  5
3C6
330
1F
100
AcDbEntity
  8
0-B
  6
Continuous
 62
     4
370
     9
100
AcDbLine
 10
-332.7414723989126
 20
-121.8949213801204
 30
0.0
 11
-332.7414723989126
 21
-128.6414918641786
 31
0.0
  0
LINE
  5
3C7
330
1F
100
AcDbEntity
  8
0-B
  6
Continuous
 62
     4
370
     9
100
AcDbLine
 10
-331.6914615115604
 20
-121.8949213801204
 30
0.0
 11
-331.6914615115604
 21
-127.7001565469278
 31
0.0
  0
LINE
  5
3C8
330
1F
100
AcDbEntity
  8
0-B
  6
Continuous
 62
     4
370
     9
100
AcDbLine
 10
-339.1914491395693
 20
-121.8949213801204
 30
0.0
 11
-325.2751489587732
 21
-121.8949213801204
 31
0.0
  0
LINE
  5
3C9
330
1F
100
AcDbEntity
  8
0-B
  6
Continuous
 62
     4
370
     9
100
AcDbLine
 10
-324.1914367675781
 20
-105.8449352367504
 30
0.0
 11
-309.8618131070523
 21
-105.8449352367504
 31
0.0
  0
LINE
  5
3CA
330
1F
100
AcDbEntity
  8
0-B
  6
Continuous
 62
     4
370
     9
100
AcDbLine
 10
-324.1914367675781
 20
-106.8948718921558
 30
0.0
 11
-310.5836445576435
 21
-106.8948718921558
 31
0.0
  0
LINE
  5
3CB
330
1F
100
AcDbEntity
  8
0-B
  6
Continuous
 62
     4
370
     9
100
AcDbLine
 10
-309.191424395587
 20
-98.34483626082137
 30
0.0
 11
-304.7055136190878
 21
-98.34483626082137
 31
0.0
  0
LINE
  5
3CC
330
1F
100
AcDbEntity
  8
0-B
  6
Continuous
 62
     4
370
     9
100
AcDbLine
 10
-309.191424395587
 20
-99.39477291622676
 30
0.0
 11
-305.427345069679
 21
-99.39477291622676
 31
0.0
  0
LINE
  5
3CD
330
1F
100
AcDbEntity
  8
0-B
  6
Continuous
 62
     4
370
     9
100
AcDbLine
 10
-309.191424395587
 20
-91.89482240419129
 30
0.0
 11
-309.191424395587
 21
-104.8698243837099
 31
0.0
  0
LINE
  5
3CE
330
1F
100
AcDbEntity
  8
0-B
  6
Continuous
 62
     4
370
     9
100
AcDbLine
 10
-310.2414352829392
 20
-91.89482240419129
 30
0.0
 11
-310.2414352829392
 21
-106.3970724569784
 31
0.0
  0
LINE
  5
3CF
330
1F
100
AcDbEntity
  8
0-B
  6
Continuous
 62
     4
370
     9
100
AcDbLine
 10
-309.191424395587
 20
-83.34471254091004
 30
0.0
 11
-302.6688488109692
 21
-83.34471254091004
 31
0.0
  0
LINE
  5
3D0
330
1F
100
AcDbEntity
  8
0-B
  6
Continuous
 62
     4
370
     9
100
AcDbLine
 10
-309.191424395587
 20
-84.39472342826222
 30
0.0
 11
-302.7793801797403
 21
-84.39472342826222
 31
0.0
  0
LINE
  5
3D1
330
1F
100
AcDbEntity
  8
0-B
  6
Continuous
 62
     4
370
     9
100
AcDbLine
 10
-316.6914120235958
 20
-90.8447372848923
 30
0.0
 11
-303.4583426810599
 21
-90.8447372848923
 31
0.0
  0
LINE
  5
3D2
330
1F
100
AcDbEntity
  8
0-B
  6
Continuous
 62
     4
370
     9
100
AcDbLine
 10
-316.6914120235958
 20
-91.89482240419129
 30
0.0
 11
-303.568874049831
 21
-91.89482240419129
 31
0.0
  0
LINE
  5
3D3
330
1F
100
AcDbEntity
  8
0-B
  6
Continuous
 62
     4
370
     9
100
AcDbLine
 10
-362.7414600269215
 20
-121.8949213801204
 30
0.0
 11
-362.7414600269215
 21
-135.8450342126795
 31
0.0
  0
LINE
  5
3D4
330
1F
100
AcDbEntity
  8
0-B
  6
Continuous
 62
     4
370
     9
100
AcDbLine
 10
-362.7414600269215
 20
-136.8949708680849
 30
0.0
 11
-362.7414600269215
 21
-144.8133668641786
 31
0.0
  0
LINE
  5
3D5
330
1F
100
AcDbEntity
  8
0-B
  6
Continuous
 62
     4
370
     9
100
AcDbLine
 10
-361.6914491395693
 20
-121.8949213801204
 30
0.0
 11
-361.6914491395693
 21
-135.8450342126795
 31
0.0
  0
LINE
  5
3D6
330
1F
100
AcDbEntity
  8
0-B
  6
Continuous
 62
     4
370
     9
100
AcDbLine
 10
-361.6914491395693
 20
-136.8949708680849
 30
0.0
 11
-361.6914491395693
 21
-144.7463354162268
 31
0.0
  0
LINE
  5
3D7
330
1F
100
AcDbEntity
  8
0-B
  6
Continuous
 62
     4
370
     9
100
AcDbLine
 10
-347.7415590028505
 20
-121.8949213801204
 30
0.0
 11
-347.7415590028505
 21
-135.8450342126795
 31
0.0
  0
LINE
  5
3D8
330
1F
100
AcDbEntity
  8
0-B
  6
Continuous
 62
     4
370
     9
100
AcDbLine
 10
-347.7415590028505
 20
-136.8949708680849
 30
0.0
 11
-347.7415590028505
 21
-142.0625536119616
 31
0.0
  0
LINE
  5
3D9
330
1F
100
AcDbEntity
  8
0-B
  6
Continuous
 62
     4
370
     9
100
AcDbLine
 10
-346.6913996516047
 20
-121.8949213801204
 30
0.0
 11
-346.6913996516047
 21
-135.8450342126795
 31
0.0
  0
LINE
  5
3DA
330
1F
100
AcDbEntity
  8
0-B
  6
Continuous
 62
     4
370
     9
100
AcDbLine
 10
-346.6913996516047
 20
-136.8949708680849
 30
0.0
 11
-346.6913996516047
 21
-141.1229998614337
 31
0.0
  0
LINE
  5
3DB
330
1F
100
AcDbEntity
  8
0-B
  6
Continuous
 62
     4
370
     9
100
AcDbLine
 10
-346.6913996516047
 20
-128.3449352367504
 30
0.0
 11
-332.7414723989126
 21
-128.3449352367504
 31
0.0
  0
LINE
  5
3DC
330
1F
100
AcDbEntity
  8
0-B
  6
Continuous
 62
     4
370
     9
100
AcDbLine
 10
-325.2413734229835
 20
-91.89482240419129
 30
0.0
 11
-325.2413734229835
 21
-113.3448857487859
 31
0.0
  0
LINE
  5
3DD
330
1F
100
AcDbEntity
  8
0-B
  6
Continuous
 62
     4
370
     9
100
AcDbLine
 10
-324.1914367675781
 20
-91.89482240419129
 30
0.0
 11
-324.1914367675781
 21
-113.3448857487859
 31
0.0
  0
LINE
  5
3DE
330
1F
100
AcDbEntity
  8
0-B
  6
Continuous
 62
     4
370
     9
100
AcDbLine
 10
-324.1914367675781
 20
-114.3948224041913
 30
0.0
 11
-324.1914367675781
 21
-120.8449847247149
 31
0.0
  0
LINE
  5
3DF
330
1F
100
AcDbEntity
  8
0-B
  6
Continuous
 62
     4
370
     9
100
AcDbLine
 10
-325.2413734229835
 20
-114.3948224041913
 30
0.0
 11
-325.2413734229835
 21
-121.8949213801204
 31
0.0
  0
LINE
  5
3E0
330
1F
100
AcDbEntity
  8
0-B
  6
Continuous
 62
     4
370
     9
100
AcDbLine
 10
-339.1914491395693
 20
-120.8449847247149
 30
0.0
 11
-325.2413734229835
 21
-120.8449847247149
 31
0.0
  0
LINE
  5
3E1
330
1F
100
AcDbEntity
  8
0-B
  6
Continuous
 62
     4
370
     9
100
AcDbLine
 10
-331.6914615115604
 20
-113.3448857487859
 30
0.0
 11
-317.7413857949746
 21
-113.3448857487859
 31
0.0
  0
LINE
  5
3E2
330
1F
100
AcDbEntity
  8
0-B
  6
Continuous
 62
     4
370
     9
100
AcDbLine
 10
-316.6914120235958
 20
-113.3448857487859
 30
0.0
 11
-315.8251252045502
 21
-113.3448857487859
 31
0.0
  0
LINE
  5
3E3
330
1F
100
AcDbEntity
  8
0-B
  6
Continuous
 62
     4
370
     9
100
AcDbLine
 10
-331.6914615115604
 20
-114.3948224041913
 30
0.0
 11
-317.7413857949746
 21
-114.3948224041913
 31
0.0
  0
LINE
  5
3E4
330
1F
100
AcDbEntity
  8
0-B
  6
Continuous
 62
     4
370
     9
100
AcDbLine
 10
-317.7413857949746
 20
-99.39477291622676
 30
0.0
 11
-317.7413857949746
 21
-105.8449352367504
 31
0.0
  0
LINE
  5
3E5
330
1F
100
AcDbEntity
  8
0-B
  6
Continuous
 62
     4
370
     9
100
AcDbLine
 10
-317.7413857949746
 20
-106.8948718921558
 30
0.0
 11
-317.7413857949746
 21
-115.0786470980257
 31
0.0
  0
LINE
  5
3E6
330
1F
100
AcDbEntity
  8
0-B
  6
Continuous
 62
     4
370
     9
100
AcDbLine
 10
-316.6914120235958
 20
-99.39477291622676
 30
0.0
 11
-316.6914120235958
 21
-105.8449352367504
 31
0.0
  0
LINE
  5
3E7
330
1F
100
AcDbEntity
  8
0-B
  6
Continuous
 62
     4
370
     9
100
AcDbLine
 10
-316.6914120235958
 20
-106.8948718921558
 30
0.0
 11
-316.6914120235958
 21
-114.1286266430004
 31
0.0
  0
LINE
  5
3E8
330
1F
100
AcDbEntity
  8
0-B
  6
Continuous
 62
     4
370
     9
100
AcDbLine
 10
-302.7414105389569
 20
-76.94502794420394
 30
0.0
 11
-302.7414105389569
 21
-84.03403039880699
 31
0.0
  0
LINE
  5
3E9
330
1F
100
AcDbEntity
  8
0-B
  6
Continuous
 62
     4
370
     9
100
AcDbLine
 10
-301.6913996516047
 20
-76.94502794420394
 30
0.0
 11
-301.6913996516047
 21
-79.3263145652977
 31
0.0
  0
LINE
  5
3EA
330
1F
100
AcDbEntity
  8
0-B
  6
Continuous
 62
     4
370
     9
100
AcDbLine
 10
-355.2414352829392
 20
-81.60909539300039
 30
0.0
 11
-355.2414352829392
 21
-90.8447372848923
 31
0.0
  0
LINE
  5
3EB
330
1F
100
AcDbEntity
  8
0-B
  6
Continuous
 62
     4
370
     9
100
AcDbLine
 10
-354.1914986275338
 20
-77.25375861090582
 30
0.0
 11
-354.1914986275338
 21
-90.8447372848923
 31
0.0
  0
LINE
  5
3EC
330
1F
100
AcDbEntity
  8
0-B
  6
Continuous
 62
     4
370
     9
100
AcDbLine
 10
-355.9129745895798
 20
-84.39472342826222
 30
0.0
 11
-355.2414352829392
 21
-84.39472342826222
 31
0.0
  0
LINE
  5
3ED
330
1F
100
AcDbEntity
  8
0-B
  6
Continuous
 62
     4
370
     9
100
AcDbLine
 10
-355.6598436510241
 20
-83.34471254091004
 30
0.0
 11
-355.2414352829392
 21
-83.34471254091004
 31
0.0
  0
LINE
  5
3EE
330
1F
100
AcDbEntity
  8
0-B
  6
Continuous
 62
     4
370
     9
100
AcDbLine
 10
-357.4678740630279
 20
-90.8447372848923
 30
0.0
 11
-340.241422910948
 21
-90.8447372848923
 31
0.0
  0
LINE
  5
3EF
330
1F
100
AcDbEntity
  8
0-B
  6
Continuous
 62
     4
370
     9
100
AcDbLine
 10
-357.721042117557
 20
-91.89482240419129
 30
0.0
 11
-340.241422910948
 21
-91.89482240419129
 31
0.0
  0
LINE
  5
3F0
330
1F
100
AcDbEntity
  8
0-B
  6
Continuous
 62
     4
370
     9
100
AcDbLine
 10
-359.2759415910051
 20
-98.34483626082137
 30
0.0
 11
-347.7415590028505
 21
-98.34483626082137
 31
0.0
  0
LINE
  5
3F1
330
1F
100
AcDbEntity
  8
0-B
  6
Continuous
 62
     4
370
     9
100
AcDbLine
 10
-359.5290725295608
 20
-99.39477291622676
 30
0.0
 11
-347.7415590028505
 21
-99.39477291622676
 31
0.0
  0
LINE
  5
3F2
330
1F
100
AcDbEntity
  8
0-B
  6
Continuous
 62
     4
370
     9
100
AcDbLine
 10
-361.0840091189823
 20
-105.8449352367504
 30
0.0
 11
-355.2414352829392
 21
-105.8449352367504
 31
0.0
  0
LINE
  5
3F3
330
1F
100
AcDbEntity
  8
0-B
  6
Continuous
 62
     4
370
     9
100
AcDbLine
 10
-361.337140057538
 20
-106.8948718921558
 30
0.0
 11
-355.2414352829392
 21
-106.8948718921558
 31
0.0
  0
LINE
  5
3F4
330
1F
100
AcDbEntity
  8
0-B
  6
Continuous
 62
     4
370
     9
100
AcDbLine
 10
-361.6914491395693
 20
-108.3645902066617
 30
0.0
 11
-361.6914491395693
 21
-120.8449847247149
 31
0.0
  0
LINE
  5
3F5
330
1F
100
AcDbEntity
  8
0-B
  6
Continuous
 62
     4
370
     9
100
AcDbLine
 10
-362.7414600269215
 20
-112.7202239165435
 30
0.0
 11
-362.7414600269215
 21
-120.8449847247149
 31
0.0
  0
LINE
  5
3F6
330
1F
100
AcDbEntity
  8
0-B
  6
Continuous
 62
     4
370
     9
100
AcDbLine
 10
-362.892039530986
 20
-113.3448857487859
 30
0.0
 11
-362.7414600269215
 21
-113.3448857487859
 31
0.0
  0
LINE
  5
3F7
330
1F
100
AcDbEntity
  8
0-B
  6
Continuous
 62
     4
370
     9
100
AcDbLine
 10
-363.1451704695418
 20
-114.3948224041913
 30
0.0
 11
-362.7414600269215
 21
-114.3948224041913
 31
0.0
  0
LINE
  5
3F8
330
1F
100
AcDbEntity
  8
0-B
  6
Continuous
 62
     4
370
     9
100
AcDbLine
 10
-364.7001070589632
 20
-120.8449847247149
 30
0.0
 11
-355.2414352829392
 21
-120.8449847247149
 31
0.0
  0
LINE
  5
3F9
330
1F
100
AcDbEntity
  8
0-B
  6
Continuous
 62
     4
370
     9
100
AcDbLine
 10
-364.9532008815456
 20
-121.8949213801204
 30
0.0
 11
-355.2414352829392
 21
-121.8949213801204
 31
0.0
  0
LINE
  5
3FA
330
1F
100
AcDbEntity
  8
0-B
  6
Continuous
 62
     4
370
     9
100
AcDbLine
 10
-366.508137470967
 20
-128.3449352367504
 30
0.0
 11
-362.7414600269215
 21
-128.3449352367504
 31
0.0
  0
LINE
  5
3FB
330
1F
100
AcDbEntity
  8
0-B
  6
Continuous
 62
     4
370
     9
100
AcDbLine
 10
-366.7612312935494
 20
-129.3948718921558
 30
0.0
 11
-362.7414600269215
 21
-129.3948718921558
 31
0.0
  0
LINE
  5
3FC
330
1F
100
AcDbEntity
  8
0-B
  6
Continuous
 62
     4
370
     9
100
AcDbLine
 10
-368.3162049989443
 20
-135.8450342126795
 30
0.0
 11
-355.2414352829392
 21
-135.8450342126795
 31
0.0
  0
LINE
  5
3FD
330
1F
100
AcDbEntity
  8
0-B
  6
Continuous
 62
     4
370
     9
100
AcDbLine
 10
-368.5692988215266
 20
-136.8949708680849
 30
0.0
 11
-355.2414352829392
 21
-136.8949708680849
 31
0.0
  0
LINE
  5
3FE
330
1F
100
AcDbEntity
  8
0-B
  6
Continuous
 62
     4
370
     9
100
AcDbLine
 10
-370.124235410948
 20
-143.3449847247149
 30
0.0
 11
-362.7414600269215
 21
-143.3449847247149
 31
0.0
  0
LINE
  5
3FF
330
1F
100
AcDbEntity
  8
0-B
  6
Continuous
 62
     4
370
     9
100
AcDbLine
 10
-370.3773292335304
 20
-144.3949213801204
 30
0.0
 11
-362.7414600269215
 21
-144.3949213801204
 31
0.0
  0
LINE
  5
400
330
1F
100
AcDbEntity
  8
0-B
  6
Continuous
 62
     4
370
     9
100
AcDbLine
 10
-369.1914738835515
 20
-139.4757929621516
 30
0.0
 11
-369.1914738835515
 21
-143.3449847247149
 31
0.0
  0
LINE
  5
401
330
1F
100
AcDbEntity
  8
0-B
  6
Continuous
 62
     4
370
     9
100
AcDbLine
 10
-369.1914738835515
 20
-144.3949213801204
 30
0.0
 11
-369.1914738835515
 21
-145.225057241079
 31
0.0
  0
LINE
  5
402
330
1F
100
AcDbEntity
  8
0-B
  6
Continuous
 62
     4
370
     9
100
AcDbLine
 10
-370.2414847709037
 20
-144.3949213801204
 30
0.0
 11
-370.2414847709037
 21
-145.2920886890308
 31
0.0
  0
LINE
  5
403
330
1F
100
AcDbEntity
  8
0-B
  6
Continuous
 62
     4
370
     9
100
AcDbLine
 10
-361.6914491395693
 20
-143.3449847247149
 30
0.0
 11
-353.0364124194996
 21
-143.3449847247149
 31
0.0
  0
LINE
  5
404
330
1F
100
AcDbEntity
  8
0-B
  6
Continuous
 62
     4
370
     9
100
AcDbLine
 10
-355.2414352829392
 20
-129.3948718921558
 30
0.0
 11
-355.2414352829392
 21
-143.3449847247149
 31
0.0
  0
LINE
  5
405
330
1F
100
AcDbEntity
  8
0-B
  6
Continuous
 62
     4
370
     9
100
AcDbLine
 10
-354.1914986275338
 20
-129.3948718921558
 30
0.0
 11
-354.1914986275338
 21
-143.3449847247149
 31
0.0
  0
LINE
  5
406
330
1F
100
AcDbEntity
  8
0-B
  6
Continuous
 62
     4
370
     9
100
AcDbLine
 10
-361.6914491395693
 20
-144.3949213801204
 30
0.0
 11
-359.5460716453758
 21
-144.3949213801204
 31
0.0
  0
LINE
  5
407
330
1F
100
AcDbEntity
  8
0-B
  6
Continuous
 62
     4
370
     9
100
AcDbLine
 10
-376.1391758274387
 20
-160.9450081490181
 30
0.0
 11
-160.1391684042441
 21
-160.9450081490181
 31
0.0
  0
LINE
  5
408
330
1F
100
AcDbEntity
  8
0-B
  6
Continuous
 62
     4
370
     9
100
AcDbLine
 10
-160.1391684042441
 20
-156.4449933026288
 30
0.0
 11
-376.1391758274387
 21
-156.4449933026288
 31
0.0
  0
LINE
  5
409
330
1F
100
AcDbEntity
  8
0-B
  6
Continuous
 62
     4
370
     9
100
AcDbLine
 10
-354.1170811008762
 20
-76.94510217615074
 30
0.0
 11
-373.282285123258
 21
-156.4449933026288
 31
0.0
  0
LINE
  5
40A
330
1F
100
AcDbEntity
  8
0-B
  6
Continuous
 62
     4
370
     9
100
AcDbLine
 10
-182.1612260148332
 20
-76.94510217615074
 30
0.0
 11
-162.9960591084248
 21
-156.4449933026288
 31
0.0
  0
LINE
  5
40B
330
1F
100
AcDbEntity
  8
0-B
  6
Continuous
 62
     4
370
     9
100
AcDbLine
 10
-360.5418932115709
 20
-84.39472342826222
 30
0.0
 11
-360.9553651551943
 21
-84.39472342826222
 31
0.0
  0
LINE
  5
40C
330
1F
100
AcDbEntity
  8
0-B
  6
Continuous
 62
     4
370
     9
100
AcDbLine
 10
-360.2887622730152
 20
-83.34471254091004
 30
0.0
 11
-360.9553651551943
 21
-83.34471254091004
 31
0.0
  0
LINE
  5
40D
330
1F
100
AcDbEntity
  8
0-B
  6
Continuous
 62
     4
370
     9
100
AcDbLine
 10
-362.3499607395481
 20
-91.89482240419129
 30
0.0
 11
-362.7634326831715
 21
-91.89482240419129
 31
0.0
  0
LINE
  5
40E
330
1F
100
AcDbEntity
  8
0-B
  6
Continuous
 62
     4
370
     9
100
AcDbLine
 10
-362.0968298009924
 20
-90.8448115168391
 30
0.0
 11
-362.7634326831715
 21
-90.8448115168391
 31
0.0
  0
LINE
  5
40F
330
1F
100
AcDbEntity
  8
0-B
  6
Continuous
 62
     4
370
     9
100
AcDbLine
 10
-364.1580282675253
 20
-99.39492138012035
 30
0.0
 11
-364.5715002111486
 21
-99.39492138012035
 31
0.0
  0
LINE
  5
410
330
1F
100
AcDbEntity
  8
0-B
  6
Continuous
 62
     4
370
     9
100
AcDbLine
 10
-363.9048973289696
 20
-98.34491049276812
 30
0.0
 11
-364.5715002111486
 21
-98.34491049276812
 31
0.0
  0
LINE
  5
411
330
1F
100
AcDbEntity
  8
0-B
  6
Continuous
 62
     4
370
     9
100
AcDbLine
 10
-365.9660957955026
 20
-106.8950203560494
 30
0.0
 11
-366.3795677391258
 21
-106.8950203560494
 31
0.0
  0
LINE
  5
412
330
1F
100
AcDbEntity
  8
0-B
  6
Continuous
 62
     4
370
     9
100
AcDbLine
 10
-365.7129648569468
 20
-105.8450094686972
 30
0.0
 11
-366.3795677391258
 21
-105.8450094686972
 31
0.0
  0
LINE
  5
413
330
1F
100
AcDbEntity
  8
0-B
  6
Continuous
 62
     4
370
     9
100
AcDbLine
 10
-367.7741633234797
 20
-114.3951193319784
 30
0.0
 11
-368.187635267103
 21
-114.3951193319784
 31
0.0
  0
LINE
  5
414
330
1F
100
AcDbEntity
  8
0-B
  6
Continuous
 62
     4
370
     9
100
AcDbLine
 10
-367.521032384924
 20
-113.3451084446262
 30
0.0
 11
-368.187635267103
 21
-113.3451084446262
 31
0.0
  0
LINE
  5
415
330
1F
100
AcDbEntity
  8
0-B
  6
Continuous
 62
     4
370
     9
100
AcDbLine
 10
-369.5822308514569
 20
-121.8952183079075
 30
0.0
 11
-369.9957027950802
 21
-121.8952183079075
 31
0.0
  0
LINE
  5
416
330
1F
100
AcDbEntity
  8
0-B
  6
Continuous
 62
     4
370
     9
100
AcDbLine
 10
-369.3290999129011
 20
-120.8452074205553
 30
0.0
 11
-369.9957027950802
 21
-120.8452074205553
 31
0.0
  0
LINE
  5
417
330
1F
100
AcDbEntity
  8
0-B
  6
Continuous
 62
     4
370
     9
100
AcDbLine
 10
-371.3902983794341
 20
-129.3953172838366
 30
0.0
 11
-371.8037703230574
 21
-129.3953172838366
 31
0.0
  0
LINE
  5
418
330
1F
100
AcDbEntity
  8
0-B
  6
Continuous
 62
     4
370
     9
100
AcDbLine
 10
-371.1371674408783
 20
-128.3453063964844
 30
0.0
 11
-371.8037703230574
 21
-128.3453063964844
 31
0.0
  0
LINE
  5
419
330
1F
100
AcDbEntity
  8
0-B
  6
Continuous
 62
     4
370
     9
100
AcDbLine
 10
-373.1983659074113
 20
-136.8954162597656
 30
0.0
 11
-373.6118378510346
 21
-136.8954162597656
 31
0.0
  0
LINE
  5
41A
330
1F
100
AcDbEntity
  8
0-B
  6
Continuous
 62
     4
370
     9
100
AcDbLine
 10
-372.9452349688555
 20
-135.8454053724134
 30
0.0
 11
-373.6118378510346
 21
-135.8454053724134
 31
0.0
  0
LINE
  5
41B
330
1F
100
AcDbEntity
  8
0-B
  6
Continuous
 62
     4
370
     9
100
AcDbLine
 10
-375.0064334353885
 20
-144.3955152356946
 30
0.0
 11
-375.4199053790118
 21
-144.3955152356946
 31
0.0
  0
LINE
  5
41C
330
1F
100
AcDbEntity
  8
0-B
  6
Continuous
 62
     4
370
     9
100
AcDbLine
 10
-374.7533024968328
 20
-143.3455043483424
 30
0.0
 11
-375.4199053790118
 21
-143.3455043483424
 31
0.0
  0
LINE
  5
41D
330
1F
100
AcDbEntity
  8
0-B
  6
Continuous
 62
     4
370
     9
100
AcDbLine
 10
-376.8145009633657
 20
-151.8956142116237
 30
0.0
 11
-377.227972906989
 21
-151.8956142116237
 31
0.0
  0
LINE
  5
41E
330
1F
100
AcDbEntity
  8
0-B
  6
Continuous
 62
     4
370
     9
100
AcDbLine
 10
-376.5613700248099
 20
-150.8456033242715
 30
0.0
 11
-377.227972906989
 21
-150.8456033242715
 31
0.0
  0
LINE
  5
41F
330
1F
100
AcDbEntity
  8
0-B
  6
Continuous
 62
     4
370
     9
100
AcDbLine
 10
-378.3694375527871
 20
-158.3457023002006
 30
0.0
 11
-379.0360404349662
 21
-158.3457023002006
 31
0.0
  0
LINE
  5
420
330
1F
100
AcDbEntity
  8
0-B
  6
Continuous
 62
     4
370
     9
100
AcDbLine
 10
-378.2773157068201
 20
-159.3957131875528
 30
0.0
 11
-379.0360404349662
 21
-159.3957131875528
 31
0.0
  0
LINE
  5
421
330
1F
100
AcDbEntity
  8
0-B
  6
JWW_CENTER1
 62
     4
370
     9
100
AcDbLine
 10
-268.1391535578547
 20
-65.3076856458509
 30
0.0
 11
-268.1391535578547
 21
-165.809873013883
 31
0.0
  0
LINE
  5
422
330
1F
100
AcDbEntity
  8
0-4
  6
Continuous
 62
     7
370
     9
100
AcDbLine
 10
-358.1391535578547
 20
-42.4450997017525
 30
0.0
 11
-178.1391535578547
 21
-42.4450997017525
 31
0.0
  0
LINE
  5
423
330
1F
100
AcDbEntity
  8
0-4
  6
Continuous
 62
     7
370
     9
100
AcDbLine
 10
-358.1391535578547
 20
-67.19514424092058
 30
0.0
 11
-358.1391535578547
 21
-41.54511157886398
 31
0.0
  0
LINE
  5
424
330
1F
100
AcDbEntity
  8
0-4
  6
Continuous
 62
     7
370
     9
100
AcDbLine
 10
-178.1391535578547
 20
-67.19514424092058
 30
0.0
 11
-178.1391535578547
 21
-41.54511157886398
 31
0.0
  0
LINE
  5
425
330
1F
100
AcDbEntity
  8
0-4
  6
Continuous
 62
     7
370
     9
100
AcDbLine
 10
-358.1391535578547
 20
-42.4450997017525
 30
0.0
 11
-350.7033208898596
 21
-41.46616590345226
 31
0.0
  0
LINE
  5
426
330
1F
100
AcDbEntity
  8
0-4
  6
Continuous
 62
     7
370
     9
100
AcDbLine
 10
-358.1391535578547
 20
-42.4450997017525
 30
0.0
 11
-350.7033208898596
 21
-43.42403350005273
 31
0.0
  0
LINE
  5
427
330
1F
100
AcDbEntity
  8
0-4
  6
Continuous
 62
     7
370
     9
100
AcDbLine
 10
-178.1391535578547
 20
-42.4450997017525
 30
0.0
 11
-185.5750047838366
 21
-41.46616590345226
 31
0.0
  0
LINE
  5
428
330
1F
100
AcDbEntity
  8
0-4
  6
Continuous
 62
     7
370
     9
100
AcDbLine
 10
-178.1391535578547
 20
-42.4450997017525
 30
0.0
 11
-185.5750047838366
 21
-43.42403350005273
 31
0.0
  0
LINE
  5
429
330
1F
100
AcDbEntity
  8
0-4
  6
Continuous
 62
     7
370
     9
100
AcDbLine
 10
-378.3891832506334
 20
-190.9450143350137
 30
0.0
 11
-157.8891609810494
 21
-190.9450143350137
 31
0.0
  0
LINE
  5
42A
330
1F
100
AcDbEntity
  8
0-4
  6
Continuous
 62
     7
370
     9
100
AcDbLine
 10
-378.3891832506334
 20
-166.1950440277924
 30
0.0
 11
-378.3891832506334
 21
-191.8450210158889
 31
0.0
  0
LINE
  5
42B
330
1F
100
AcDbEntity
  8
0-4
  6
Continuous
 62
     7
370
     9
100
AcDbLine
 10
-157.8891609810494
 20
-166.1950440277924
 30
0.0
 11
-157.8891609810494
 21
-191.8450210158889
 31
0.0
  0
LINE
  5
42C
330
1F
100
AcDbEntity
  8
0-4
  6
Continuous
 62
     7
370
     9
100
AcDbLine
 10
-378.3891832506334
 20
-190.9450143350137
 30
0.0
 11
-370.9533505826383
 21
-189.9660619787268
 31
0.0
  0
LINE
  5
42D
330
1F
100
AcDbEntity
  8
0-4
  6
Continuous
 62
     7
370
     9
100
AcDbLine
 10
-378.3891832506334
 20
-190.9450143350137
 30
0.0
 11
-370.9533505826383
 21
-191.9239666913007
 31
0.0
  0
LINE
  5
42E
330
1F
100
AcDbEntity
  8
0-4
  6
Continuous
 62
     7
370
     9
100
AcDbLine
 10
-157.8891609810494
 20
-190.9450143350137
 30
0.0
 11
-165.3250122070312
 21
-189.9660619787268
 31
0.0
  0
LINE
  5
42F
330
1F
100
AcDbEntity
  8
0-4
  6
Continuous
 62
     7
370
     9
100
AcDbLine
 10
-157.8891609810494
 20
-190.9450143350137
 30
0.0
 11
-165.3250122070312
 21
-191.9239666913007
 31
0.0
  0
LINE
  5
430
330
1F
100
AcDbEntity
  8
0-4
  6
Continuous
 62
     7
370
     9
100
AcDbLine
 10
-127.8891733530405
 20
-160.9450081490181
 30
0.0
 11
-127.8891733530405
 21
-72.44508732976136
 31
0.0
  0
LINE
  5
431
330
1F
100
AcDbEntity
  8
0-4
  6
Continuous
 62
     7
370
     9
100
AcDbLine
 10
-152.6391807762352
 20
-160.9450081490181
 30
0.0
 11
-126.989185230152
 21
-160.9450081490181
 31
0.0
  0
LINE
  5
432
330
1F
100
AcDbEntity
  8
0-4
  6
Continuous
 62
     7
370
     9
100
AcDbLine
 10
-172.8891733530405
 20
-72.44508732976136
 30
0.0
 11
-126.989185230152
 21
-72.44508732976136
 31
0.0
  0
LINE
  5
433
330
1F
100
AcDbEntity
  8
0-4
  6
Continuous
 62
     7
370
     9
100
AcDbLine
 10
-127.8891733530405
 20
-160.9450081490181
 30
0.0
 11
-128.8681071513408
 21
-153.509175481023
 31
0.0
  0
LINE
  5
434
330
1F
100
AcDbEntity
  8
0-4
  6
Continuous
 62
     7
370
     9
100
AcDbLine
 10
-127.8891733530405
 20
-160.9450081490181
 30
0.0
 11
-126.9102395547402
 21
-153.509175481023
 31
0.0
  0
LINE
  5
435
330
1F
100
AcDbEntity
  8
0-4
  6
Continuous
 62
     7
370
     9
100
AcDbLine
 10
-127.8891733530405
 20
-72.44508732976136
 30
0.0
 11
-128.8681071513408
 21
-79.88093855574324
 31
0.0
  0
LINE
  5
436
330
1F
100
AcDbEntity
  8
0-4
  6
Continuous
 62
     7
370
     9
100
AcDbLine
 10
-127.8891733530405
 20
-72.44508732976136
 30
0.0
 11
-126.9102395547402
 21
-79.88093855574324
 31
0.0
  0
LINE
  5
437
330
1F
100
AcDbEntity
  8
0-E
  6
Continuous
 62
     7
370
     9
100
AcDbLine
 10
-197.4807698017842
 20
-61.14108358847125
 30
0.0
 11
-194.6106286951013
 21
-54.21197674725508
 31
0.0
  0
LINE
  5
438
330
1F
100
AcDbEntity
  8
0-E
  6
Continuous
 62
     7
370
     9
100
AcDbLine
 10
-197.4807698017842
 20
-61.14108358847125
 30
0.0
 11
-192.9150596824852
 21
-55.19094766152867
 31
0.0
  0
LINE
  5
439
330
1F
100
AcDbEntity
  8
0-E
  6
Continuous
 62
     7
370
     9
100
AcDbLine
 10
-216.0735341664907
 20
-139.3941749366554
 30
0.0
 11
-211.5078240471917
 21
-145.3443294215846
 31
0.0
  0
LINE
  5
43A
330
1F
100
AcDbEntity
  8
0-E
  6
Continuous
 62
     7
370
     9
100
AcDbLine
 10
-216.0735341664907
 20
-139.3941749366554
 30
0.0
 11
-213.2033930598078
 21
-146.3232632198849
 31
0.0
  0
LINE
  5
43B
330
1F
100
AcDbEntity
  8
0-E
  6
Continuous
 62
     7
370
     9
100
AcDbLine
 10
-347.7415590028505
 20
-102.6198540764886
 30
0.0
 11
-352.3072691221495
 21
-96.66971814954601
 31
0.0
  0
LINE
  5
43C
330
1F
100
AcDbEntity
  8
0-E
  6
Continuous
 62
     7
370
     9
100
AcDbLine
 10
-347.7415590028505
 20
-102.6198540764886
 30
0.0
 11
-350.6116815515467
 21
-95.69074723527238
 31
0.0
  0
LINE
  5
43D
330
1F
100
AcDbEntity
  8
0-E
  6
Continuous
 62
     7
370
     9
100
AcDbLine
 10
-176.6397795806059
 20
-90.63150601773648
 30
0.0
 11
-172.0740694613069
 21
-84.6813700907939
 31
0.0
  0
LINE
  5
43E
330
1F
100
AcDbEntity
  8
0-E
  6
Continuous
 62
     7
370
     9
100
AcDbLine
 10
-176.6397795806059
 20
-90.63150601773648
 30
0.0
 11
-173.7696384739231
 21
-83.70239917652023
 31
0.0
  0
LINE
  5
43F
330
1F
100
AcDbEntity
  8
0-E
  6
Continuous
 62
     7
370
     9
100
AcDbLine
 10
-347.7415590028505
 20
-102.6198540764886
 30
0.0
 11
-382.4834833918391
 21
-42.4450997017525
 31
0.0
  0
LINE
  5
440
330
1F
100
AcDbEntity
  8
0-E
  6
Continuous
 62
     7
370
     9
100
AcDbLine
 10
-197.4807698017842
 20
-61.14108358847125
 30
0.0
 11
-169.3661622743348
 21
-12.44511207374367
 31
0.0
  0
LINE
  5
441
330
1F
100
AcDbEntity
  8
0-E
  6
Continuous
 62
     7
370
     9
100
AcDbLine
 10
-216.0735341664907
 20
-139.3941749366554
 30
0.0
 11
-168.9901403478673
 21
-220.9450205210093
 31
0.0
  0
LINE
  5
442
330
1F
100
AcDbEntity
  8
1-2
  6
Continuous
 62
     6
370
     5
100
AcDbLine
 10
361.6106847814613
 20
158.3673854518581
 30
0.0
 11
372.1106451910895
 21
158.3673854518581
 31
0.0
  0
LINE
  5
443
330
1F
100
AcDbEntity
  8
1-2
  6
Continuous
 62
     6
370
     5
100
AcDbLine
 10
366.3606385926944
 20
159.3674011230469
 30
0.0
 11
367.3606913798564
 21
159.3674011230469
 31
0.0
  0
LINE
  5
444
330
1F
100
AcDbEntity
  8
1-2
  6
Continuous
 62
     6
370
     5
100
AcDbLine
 10
367.3606913798564
 20
162.2493451092695
 30
0.0
 11
367.3606913798564
 21
159.3674011230469
 31
0.0
  0
LINE
  5
445
330
1F
100
AcDbEntity
  8
1-2
  6
Continuous
 62
     6
370
     5
100
AcDbLine
 10
366.3606385926944
 20
162.2493451092695
 30
0.0
 11
366.3606385926944
 21
159.3674011230469
 31
0.0
  0
LINE
  5
446
330
1F
100
AcDbEntity
  8
1-2
  6
Continuous
 62
     6
370
     5
100
AcDbLine
 10
364.3608299461572
 20
146.3673458614865
 30
0.0
 11
369.3607969541808
 21
146.3673458614865
 31
0.0
  0
LINE
  5
447
330
1F
100
AcDbEntity
  8
1-2
  6
Continuous
 62
     6
370
     5
100
AcDbLine
 10
363.8608035525761
 20
146.867409371041
 30
0.0
 11
369.8608233477619
 21
146.867409371041
 31
0.0
  0
LINE
  5
448
330
1F
100
AcDbEntity
  8
1-2
  6
Continuous
 62
     6
370
     5
100
AcDbLine
 10
363.8608035525761
 20
146.867409371041
 30
0.0
 11
364.3608299461572
 21
146.3673458614865
 31
0.0
  0
LINE
  5
449
330
1F
100
AcDbEntity
  8
1-2
  6
Continuous
 62
     6
370
     5
100
AcDbLine
 10
369.8608233477619
 20
146.867409371041
 30
0.0
 11
369.3607969541808
 21
146.3673458614865
 31
0.0
  0
LINE
  5
44A
330
1F
100
AcDbEntity
  8
1-2
  6
Continuous
 62
     6
370
     5
100
AcDbLine
 10
369.3607969541808
 20
158.3673854518581
 30
0.0
 11
369.3607969541808
 21
146.3673458614865
 31
0.0
  0
LINE
  5
44B
330
1F
100
AcDbEntity
  8
1-2
  6
Continuous
 62
     6
370
     5
100
AcDbLine
 10
364.3608299461572
 20
158.3673854518581
 30
0.0
 11
364.3608299461572
 21
146.3673458614865
 31
0.0
  0
LINE
  5
44C
330
1F
100
AcDbEntity
  8
1-2
  6
Continuous
 62
     6
370
     5
100
AcDbLine
 10
363.8608035525761
 20
158.3673854518581
 30
0.0
 11
363.8608035525761
 21
146.867409371041
 31
0.0
  0
LINE
  5
44D
330
1F
100
AcDbEntity
  8
1-2
  6
Continuous
 62
     6
370
     5
100
AcDbLine
 10
235.7115214579814
 20
152.1187999828442
 30
0.0
 11
234.8608233477619
 21
156.7976767050254
 31
0.0
  0
LINE
  5
44E
330
1F
100
AcDbEntity
  8
1-2
  6
Continuous
 62
     6
370
     5
100
AcDbLine
 10
249.507677232897
 20
153.5212270375845
 30
0.0
 11
257.1749465529983
 21
182.1363063502956
 31
0.0
  0
LINE
  5
44F
330
1F
100
AcDbEntity
  8
1-2
  6
Continuous
 62
     6
370
     5
100
AcDbLine
 10
297.3608563397383
 20
196.2256783150338
 30
0.0
 11
298.8607870565878
 21
191.7564697265625
 31
0.0
  0
LINE
  5
450
330
1F
100
AcDbEntity
  8
1-2
  6
Continuous
 62
     6
370
     5
100
AcDbLine
 10
289.8607573638092
 20
195.932907516892
 30
0.0
 11
288.3608266469595
 21
191.3389892578125
 31
0.0
  0
LINE
  5
451
330
1F
100
AcDbEntity
  8
1-2
  6
Continuous
 62
     6
370
     5
100
AcDbLine
 10
283.3607111750424
 20
194.4931789088894
 30
0.0
 11
284.3607639622044
 21
195.5746641416808
 31
0.0
  0
LINE
  5
452
330
1F
100
AcDbEntity
  8
1-2
  6
Continuous
 62
     6
370
     5
100
AcDbLine
 10
283.3607111750424
 20
194.4931789088894
 30
0.0
 11
284.8607903557855
 21
191.0996654613598
 31
0.0
  0
LINE
  5
453
330
1F
100
AcDbEntity
  8
1-2
  6
Continuous
 62
     6
370
     5
100
AcDbLine
 10
262.3607903557855
 20
192.843225427576
 30
0.0
 11
263.3608431429477
 21
192.0637899862754
 31
0.0
  0
LINE
  5
454
330
1F
100
AcDbEntity
  8
1-2
  6
Continuous
 62
     6
370
     5
100
AcDbLine
 10
263.3608431429477
 20
192.0637899862754
 30
0.0
 11
261.8607639622044
 21
187.8654537716427
 31
0.0
  0
LINE
  5
455
330
1F
100
AcDbEntity
  8
1-2
  6
Continuous
 62
     6
370
     5
100
AcDbLine
 10
258.7373805690456
 20
185.2976965002112
 30
0.0
 11
253.5355026657517
 21
185.2976965002112
 31
0.0
  0
LINE
  5
456
330
1F
100
AcDbEntity
  8
1-2
  6
Continuous
 62
     6
370
     5
100
AcDbLine
 10
371.0099338840794
 20
152.1187999828442
 30
0.0
 11
371.8606319942991
 21
156.7976767050254
 31
0.0
  0
LINE
  5
457
330
1F
100
AcDbEntity
  8
1-2
  6
Continuous
 62
     6
370
     5
100
AcDbLine
 10
309.3608959301098
 20
196.2256783150338
 30
0.0
 11
307.8608167493666
 21
191.7564697265625
 31
0.0
  0
LINE
  5
458
330
1F
100
AcDbEntity
  8
1-2
  6
Continuous
 62
     6
370
     5
100
AcDbLine
 10
316.8606979782517
 20
195.932907516892
 30
0.0
 11
318.360777158995
 21
191.3389892578125
 31
0.0
  0
LINE
  5
459
330
1F
100
AcDbEntity
  8
1-2
  6
JWW_DASHED1
 62
     6
370
     5
100
AcDbLine
 10
347.9843717008023
 20
185.2976965002112
 30
0.0
 11
353.1862496040964
 21
185.2976965002112
 31
0.0
  0
LINE
  5
45A
330
1F
100
AcDbEntity
  8
1-2
  6
Continuous
 62
     6
370
     5
100
AcDbLine
 10
244.3985892630913
 20
157.2311912742821
 30
0.0
 11
234.8608233477619
 21
156.7976767050254
 31
0.0
  0
LINE
  5
45B
330
1F
100
AcDbEntity
  8
1-2
  6
Continuous
 62
     6
370
     5
100
AcDbLine
 10
244.6502355627113
 20
152.7800581648544
 30
0.0
 11
252.828369140625
 21
183.3010055954392
 31
0.0
  0
LINE
  5
45C
330
1F
100
AcDbEntity
  8
1-2
  6
Continuous
 62
     6
370
     5
100
AcDbLine
 10
370.8608761349241
 20
157.8441244589316
 30
0.0
 11
371.8606319942991
 21
156.7976767050254
 31
0.0
  0
LINE
  5
45D
330
1F
100
AcDbEntity
  8
1-2
  6
Continuous
 62
     6
370
     5
100
AcDbLine
 10
361.8981108794342
 20
152.4279389252534
 30
0.0
 11
363.1107639622044
 21
157.1953743599557
 31
0.0
  0
LINE
  5
45E
330
1F
100
AcDbEntity
  8
1-2
  6
Continuous
 62
     6
370
     5
100
AcDbLine
 10
369.8608233477619
 20
158.3673854518581
 30
0.0
 11
369.8608233477619
 21
146.867409371041
 31
0.0
  0
LINE
  5
45F
330
1F
100
AcDbEntity
  8
1-2
  6
JWW_CENTER1
 62
     6
370
     5
100
AcDbLine
 10
366.8606649862753
 20
143.367373079867
 30
0.0
 11
366.8606649862753
 21
165.2493550068623
 31
0.0
  0
LINE
  5
460
330
1F
100
AcDbEntity
  8
1-2
  6
Continuous
 62
     6
370
     5
100
AcDbLine
 10
303.3608761349241
 20
151.2976833034206
 30
0.0
 11
363.8608035525761
 21
151.2976833034206
 31
0.0
  0
LINE
  5
461
330
1F
100
AcDbEntity
  8
1-2
  6
Continuous
 62
     6
370
     5
100
AcDbLine
 10
369.8608233477619
 20
151.2976833034206
 30
0.0
 11
370.0260636613177
 21
151.2976833034206
 31
0.0
  0
LINE
  5
462
330
1F
100
AcDbEntity
  8
1-2
  6
Continuous
 62
     6
370
     5
100
AcDbLine
 10
369.8608233477619
 20
156.8885737238704
 30
0.0
 11
371.8606319942991
 21
156.7976767050254
 31
0.0
  0
LINE
  5
463
330
1F
100
AcDbEntity
  8
1-2
  6
Continuous
 62
     6
370
     5
100
AcDbLine
 10
369.8608233477619
 20
157.8896286423142
 30
0.0
 11
370.8608761349241
 21
157.8441244589316
 31
0.0
  0
LINE
  5
464
330
1F
100
AcDbEntity
  8
1-2
  6
Continuous
 62
     6
370
     5
100
AcDbLine
 10
362.3230145428633
 20
157.2311912742821
 30
0.0
 11
363.8608035525761
 21
157.1612647804055
 31
0.0
  0
LINE
  5
465
330
1F
100
AcDbEntity
  8
1-2
  6
Continuous
 62
     6
370
     5
100
AcDbLine
 10
362.0513256176098
 20
158.2445686958932
 30
0.0
 11
363.8608035525761
 21
158.1623196988493
 31
0.0
  0
LINE
  5
466
330
1F
100
AcDbEntity
  8
1-2
  6
Continuous
 62
     6
370
     5
100
AcDbLine
 10
357.2137781091639
 20
153.5212270375845
 30
0.0
 11
349.5465087890625
 21
182.1363063502956
 31
0.0
  0
LINE
  5
467
330
1F
100
AcDbEntity
  8
1-2
  6
Continuous
 62
     6
370
     5
100
AcDbLine
 10
360.4820622624578
 20
158.7114876412057
 30
0.0
 11
353.8932346653294
 21
183.3010055954392
 31
0.0
  0
LINE
  5
468
330
1F
100
AcDbEntity
  8
1-2
  6
Continuous
 62
     6
370
     5
100
AcDbLine
 10
303.3608761349241
 20
151.2976833034206
 30
0.0
 11
267.8607837573903
 21
151.2976833034206
 31
0.0
  0
LINE
  5
469
330
1F
100
AcDbEntity
  8
1-2
  6
Continuous
 62
     6
370
     5
100
AcDbLine
 10
252.8608827333194
 20
151.2976833034206
 30
0.0
 11
236.6953916807433
 21
151.2976833034206
 31
0.0
  0
LINE
  5
46A
330
1F
100
AcDbEntity
  8
1-0
  6
JWW_CENTER1
 62
     3
370
     9
100
AcDbLine
 10
303.3608761349241
 20
207.731481603674
 30
0.0
 11
303.3608761349241
 21
-7.115480990023201
 31
0.0
  0
LINE
  5
46B
330
1F
100
AcDbEntity
  8
1-B
  6
Continuous
 62
     4
370
     9
100
AcDbLine
 10
275.9927450644003
 20
203.3311602618244
 30
0.0
 11
275.9927450644003
 21
194.7950802364865
 31
0.0
  0
LINE
  5
46C
330
1F
100
AcDbEntity
  8
1-B
  6
Continuous
 62
     4
370
     9
100
AcDbLine
 10
275.2927378061656
 20
203.3311602618244
 30
0.0
 11
275.2927378061656
 21
194.7169882284629
 31
0.0
  0
LINE
  5
46D
330
1F
100
AcDbEntity
  8
1-B
  6
Continuous
 62
     4
370
     9
100
AcDbLine
 10
270.9927780563767
 20
198.3311190218539
 30
0.0
 11
270.9927780563767
 21
194.1933560758024
 31
0.0
  0
LINE
  5
46E
330
1F
100
AcDbEntity
  8
1-B
  6
Continuous
 62
     4
370
     9
100
AcDbLine
 10
270.2927707981419
 20
198.3311190218539
 30
0.0
 11
270.2927707981419
 21
194.101011533995
 31
0.0
  0
LINE
  5
46F
330
1F
100
AcDbEntity
  8
1-B
  6
Continuous
 62
     4
370
     9
100
AcDbLine
 10
260.9926955764358
 20
194.0310850401183
 30
0.0
 11
269.7731471706081
 21
194.0310850401183
 31
0.0
  0
LINE
  5
470
330
1F
100
AcDbEntity
  8
1-B
  6
Continuous
 62
     4
370
     9
100
AcDbLine
 10
260.9926955764358
 20
193.3311520138302
 30
0.0
 11
264.9623973949536
 21
193.3311520138302
 31
0.0
  0
LINE
  5
471
330
1F
100
AcDbEntity
  8
1-B
  6
Continuous
 62
     4
370
     9
100
AcDbLine
 10
260.2926883182011
 20
198.3311932538007
 30
0.0
 11
260.2926883182011
 21
192.1016482791385
 31
0.0
  0
LINE
  5
472
330
1F
100
AcDbEntity
  8
1-B
  6
Continuous
 62
     4
370
     9
100
AcDbLine
 10
260.9926955764358
 20
198.3311932538007
 30
0.0
 11
260.9926955764358
 21
192.3956810203759
 31
0.0
  0
LINE
  5
473
330
1F
100
AcDbEntity
  8
1-B
  6
Continuous
 62
     4
370
     9
100
AcDbLine
 10
255.9927285684122
 20
193.3311520138302
 30
0.0
 11
255.9927285684122
 21
189.0112981023016
 31
0.0
  0
LINE
  5
474
330
1F
100
AcDbEntity
  8
1-B
  6
Continuous
 62
     4
370
     9
100
AcDbLine
 10
255.2927213101773
 20
193.3311520138302
 30
0.0
 11
255.2927213101773
 21
188.1977159654773
 31
0.0
  0
LINE
  5
475
330
1F
100
AcDbEntity
  8
1-B
  6
Continuous
 62
     4
370
     9
100
AcDbLine
 10
250.9927615603886
 20
184.0310767921242
 30
0.0
 11
253.046314136402
 21
184.0310767921242
 31
0.0
  0
LINE
  5
476
330
1F
100
AcDbEntity
  8
1-B
  6
Continuous
 62
     4
370
     9
100
AcDbLine
 10
250.9927615603886
 20
183.3310695338894
 30
0.0
 11
252.8364604228252
 21
183.3310695338894
 31
0.0
  0
LINE
  5
477
330
1F
100
AcDbEntity
  8
1-B
  6
Continuous
 62
     4
370
     9
100
AcDbLine
 10
245.9926460884714
 20
179.0310355521538
 30
0.0
 11
251.6842321447425
 21
179.0310355521538
 31
0.0
  0
LINE
  5
478
330
1F
100
AcDbEntity
  8
1-B
  6
Continuous
 62
     4
370
     9
100
AcDbLine
 10
245.9926460884714
 20
178.3311025258657
 30
0.0
 11
251.4966480152028
 21
178.3311025258657
 31
0.0
  0
LINE
  5
479
330
1F
100
AcDbEntity
  8
1-B
  6
Continuous
 62
     4
370
     9
100
AcDbLine
 10
250.9927615603886
 20
178.3311025258657
 30
0.0
 11
250.9927615603886
 21
176.4504732699008
 31
0.0
  0
LINE
  5
47A
330
1F
100
AcDbEntity
  8
1-B
  6
Continuous
 62
     4
370
     9
100
AcDbLine
 10
240.9926790804477
 20
173.3309870539485
 30
0.0
 11
250.156909839527
 21
173.3309870539485
 31
0.0
  0
LINE
  5
47B
330
1F
100
AcDbEntity
  8
1-B
  6
Continuous
 62
     4
370
     9
100
AcDbLine
 10
250.2926058382602
 20
178.3311025258657
 30
0.0
 11
250.2926058382602
 21
173.8374716269004
 31
0.0
  0
LINE
  5
47C
330
1F
100
AcDbEntity
  8
1-B
  6
Continuous
 62
     4
370
     9
100
AcDbLine
 10
245.9926460884714
 20
169.031064420133
 30
0.0
 11
249.0046815614444
 21
169.031064420133
 31
0.0
  0
LINE
  5
47D
330
1F
100
AcDbEntity
  8
1-B
  6
Continuous
 62
     4
370
     9
100
AcDbLine
 10
245.9926460884714
 20
168.3310942778716
 30
0.0
 11
248.8171716638514
 21
168.3310942778716
 31
0.0
  0
LINE
  5
47E
330
1F
100
AcDbEntity
  8
1-B
  6
Continuous
 62
     4
370
     9
100
AcDbLine
 10
240.9926790804477
 20
164.0310974121094
 30
0.0
 11
247.6649433857686
 21
164.0310974121094
 31
0.0
  0
LINE
  5
47F
330
1F
100
AcDbEntity
  8
1-B
  6
Continuous
 62
     4
370
     9
100
AcDbLine
 10
240.9926790804477
 20
163.3310901538746
 30
0.0
 11
247.4774334881758
 21
163.3310901538746
 31
0.0
  0
LINE
  5
480
330
1F
100
AcDbEntity
  8
1-B
  6
Continuous
 62
     7
370
     9
100
AcDbLine
 10
283.6108728357264
 20
218.4634168470228
 30
0.0
 11
277.7846300279772
 21
192.4690964157517
 31
0.0
  0
LINE
  5
481
330
1F
100
AcDbEntity
  8
1-E
  6
Continuous
 62
     7
370
     9
100
AcDbLine
 10
244.8609058277028
 20
216.297625567462
 30
0.0
 11
240.2951957084038
 21
222.2477614944046
 31
0.0
  0
LINE
  5
482
330
1F
100
AcDbEntity
  8
1-E
  6
Continuous
 62
     7
370
     9
100
AcDbLine
 10
244.8609058277028
 20
216.297625567462
 30
0.0
 11
241.9908018369933
 21
223.2267324086783
 31
0.0
  0
LINE
  5
483
330
1F
100
AcDbEntity
  8
1-E
  6
Continuous
 62
     7
370
     9
100
AcDbLine
 10
244.8609058277028
 20
216.297625567462
 30
0.0
 11
218.8801698426944
 21
261.297625567462
 31
0.0
  0
LINE
  5
484
330
1F
100
AcDbEntity
  8
0-B
  6
Continuous
 62
     4
370
     9
100
AcDbLine
 10
-327.0197110562711
 20
322.0782982078758
 30
0.0
 11
-327.0197110562711
 21
328.8499590899494
 31
0.0
  0
LINE
  5
485
330
1F
100
AcDbEntity
  8
0-B
  6
Continuous
 62
     4
370
     9
100
AcDbLine
 10
-325.9697001689189
 20
322.0782982078758
 30
0.0
 11
-325.9697001689189
 21
328.8499590899494
 31
0.0
  0
LINE
  5
486
330
1F
100
AcDbEntity
  8
0-B
  6
Continuous
 62
     4
370
     9
100
AcDbLine
 10
-325.9697001689189
 20
328.5282378325592
 30
0.0
 11
-312.0195873363598
 21
328.5282378325592
 31
0.0
  0
LINE
  5
487
330
1F
100
AcDbEntity
  8
0-B
  6
Continuous
 62
     4
370
     9
100
AcDbLine
 10
-180.3891609810494
 20
-72.44508732976136
 30
0.0
 11
-210.5568756928315
 21
-72.44508732976136
 31
0.0
  0
LINE
  5
488
330
1F
100
AcDbEntity
  8
0-B
  6
Continuous
 62
     4
370
     9
100
AcDbLine
 10
-216.6243352116765
 20
-72.44508732976136
 30
0.0
 11
-355.8891461346601
 21
-72.44508732976136
 31
0.0
  0
LINE
  5
489
330
1F
100
AcDbEntity
  8
0-B
  6
Continuous
 62
     4
370
     9
100
AcDbLine
 10
-180.3891609810494
 20
-76.94510217615074
 30
0.0
 11
-211.2335370038006
 21
-76.94510217615074
 31
0.0
  0
LINE
  5
48A
330
1F
100
AcDbEntity
  8
0-B
  6
Continuous
 62
     4
370
     9
100
AcDbLine
 10
-217.3009965226457
 20
-76.94510217615074
 30
0.0
 11
-256.419488030511
 21
-76.94510217615074
 31
0.0
  0
LINE
  5
48B
330
1F
100
AcDbEntity
  8
0-6
  6
Continuous
 62
     6
370
     5
100
AcDbLine
 10
-208.1257423194679
 20
-66.36623320708402
 30
0.0
 11
-209.6091193121833
 21
-66.14316620697844
 31
0.0
  0
LINE
  5
48C
330
1F
100
AcDbEntity
  8
0-6
  6
Continuous
 62
     6
370
     5
100
AcDbLine
 10
-215.5424045872044
 20
-65.25097243850293
 30
0.0
 11
-217.0257815799198
 21
-65.02790543839734
 31
0.0
  0
LINE
  5
48D
330
1F
100
AcDbEntity
  8
0-6
  6
Continuous
 62
     6
370
     5
100
AcDbLine
 10
-218.6300824139569
 20
-70.85418536211992
 30
0.0
 11
-216.4347468195734
 21
-71.18429482949746
 31
0.0
  0
LINE
  5
48E
330
1F
100
AcDbEntity
  8
0-6
  6
Continuous
 62
     6
370
     5
100
AcDbLine
 10
-210.5013501966322
 20
-72.07645148199957
 30
0.0
 11
-208.3059032543285
 21
-72.40656094937711
 31
0.0
  0
LINE
  5
48F
330
1F
100
AcDbEntity
  8
1-6
  6
Continuous
 62
     6
370
     5
100
AcDbLine
 10
343.3698169605153
 20
220.350170238598
 30
0.0
 11
342.3808989653717
 21
220.4988568280195
 31
0.0
  0
LINE
  5
490
330
1F
100
AcDbEntity
  8
1-6
  6
Continuous
 62
     6
370
     5
100
AcDbLine
 10
338.4253012167441
 20
221.093677417652
 30
0.0
 11
337.4364574535473
 21
221.2423640070735
 31
0.0
  0
LINE
  5
491
330
1F
100
AcDbEntity
  8
1-6
  6
Continuous
 62
     6
370
     5
100
AcDbLine
 10
336.3669235641892
 20
217.3581773912585
 30
0.0
 11
337.8304806271116
 21
217.1381539009713
 31
0.0
  0
LINE
  5
492
330
1F
100
AcDbEntity
  8
1-6
  6
Continuous
 62
     6
370
     5
100
AcDbLine
 10
341.7860041437924
 20
216.5434075432855
 30
0.0
 11
343.2497096706081
 21
216.3233098210516
 31
0.0
  0
LINE
  5
493
330
1F
100
AcDbEntity
  8
1-B
  6
Continuous
 62
     4
370
     9
100
AcDbLine
 10
361.8609949060389
 20
216.297625567462
 30
0.0
 11
341.7490366342906
 21
216.297625567462
 31
0.0
  0
LINE
  5
494
330
1F
100
AcDbEntity
  8
1-B
  6
Continuous
 62
     4
370
     9
100
AcDbLine
 10
337.7040636217272
 20
216.297625567462
 30
0.0
 11
244.8609058277028
 21
216.297625567462
 31
0.0
  0
LINE
  5
495
330
1F
100
AcDbEntity
  8
1-B
  6
Continuous
 62
     4
370
     9
100
AcDbLine
 10
361.8609949060389
 20
213.2976156698691
 30
0.0
 11
341.2979290936445
 21
213.2976156698691
 31
0.0
  0
LINE
  5
496
330
1F
100
AcDbEntity
  8
1-B
  6
Continuous
 62
     4
370
     9
100
AcDbLine
 10
337.2529560810811
 20
213.2976156698691
 30
0.0
 11
311.1740854624156
 21
213.2976156698691
 31
0.0
  0
LINE
  5
497
330
1F
100
AcDbEntity
  8
1-B
  6
Continuous
 62
     4
370
     9
100
AcDbLine
 10
231.3609355204814
 20
160.2976387642526
 30
0.0
 11
246.6645936708194
 21
160.2976387642526
 31
0.0
  0
LINE
  5
498
330
1F
100
AcDbEntity
  8
1-B
  6
Continuous
 62
     4
370
     9
100
AcDbLine
 10
235.2928532780828
 20
163.3310901538746
 30
0.0
 11
235.2928532780828
 21
160.2976387642526
 31
0.0
  0
LINE
  5
499
330
1F
100
AcDbEntity
  8
1-B
  6
Continuous
 62
     4
370
     9
100
AcDbLine
 10
235.9927120724241
 20
163.3310901538746
 30
0.0
 11
235.9927120724241
 21
160.2976387642526
 31
0.0
  0
LINE
  5
49A
330
1F
100
AcDbEntity
  8
1-B
  6
Continuous
 62
     4
370
     9
100
AcDbLine
 10
240.2926718222128
 20
168.3310942778716
 30
0.0
 11
240.2926718222128
 21
160.2976387642526
 31
0.0
  0
LINE
  5
49B
330
1F
100
AcDbEntity
  8
1-B
  6
Continuous
 62
     4
370
     9
100
AcDbLine
 10
240.9926790804477
 20
168.3310942778716
 30
0.0
 11
240.9926790804477
 21
160.2976387642526
 31
0.0
  0
LINE
  5
49C
330
1F
100
AcDbEntity
  8
1-B
  6
Continuous
 62
     4
370
     9
100
AcDbLine
 10
245.2927872941302
 20
163.3310901538746
 30
0.0
 11
245.2927872941302
 21
160.2976387642526
 31
0.0
  0
LINE
  5
49D
330
1F
100
AcDbEntity
  8
1-B
  6
Continuous
 62
     4
370
     9
100
AcDbLine
 10
245.9926460884714
 20
163.3310901538746
 30
0.0
 11
245.9926460884714
 21
160.2976387642526
 31
0.0
  0
LINE
  5
49E
330
1F
100
AcDbEntity
  8
1-B
  6
Continuous
 62
     4
370
     9
100
AcDbLine
 10
246.0423814928209
 20
213.2976156698691
 30
0.0
 11
233.2655045792864
 21
160.2976387642526
 31
0.0
  0
LINE
  5
49F
330
1F
100
AcDbEntity
  8
1-B
  6
Continuous
 62
     4
370
     9
100
AcDbLine
 10
231.3609355204814
 20
157.2976288666597
 30
0.0
 11
244.8267591321791
 21
157.2976288666597
 31
0.0
  0
LINE
  5
4A0
330
1F
100
AcDbEntity
  8
0-E
  6
Continuous
 62
     7
370
     9
100
AcDbLine
 10
-176.6397795806059
 20
-90.63150601773648
 30
0.0
 11
-149.9356903900971
 21
-44.37873056772594
 31
0.0
  0
ARC
  5
4A1
330
1F
100
AcDbEntity
  8
1-0
  6
Continuous
 62
     3
370
     9
100
AcDbCircle
 10
212.1557204787795
 20
126.0914463352513
 30
0.0
 40
10.99999956182532
100
AcDbArc
 50
74.99996948242188
 51
121.7902069091797
  0
ARC
  5
4A2
330
1F
100
AcDbEntity
  8
1-0
  6
Continuous
 62
     3
370
     9
100
AcDbCircle
 10
235.734384897593
 20
133.7497707057644
 30
0.0
 40
1.500000019331236
100
AcDbArc
 50
254.9999084472656
 51
318.4355773925781
  0
ARC
  5
4A3
330
1F
100
AcDbEntity
  8
1-0
  6
Continuous
 62
     3
370
     9
100
AcDbCircle
 10
230.7637395085516
 20
135.0816402950802
 30
0.0
 40
1.500000019331236
100
AcDbArc
 50
191.5648956298828
 51
254.9999084472656
  0
ARC
  5
4A4
330
1F
100
AcDbEntity
  8
1-0
  6
Continuous
 62
     3
370
     9
100
AcDbCircle
 10
224.6227532464105
 20
138.9270778346706
 30
0.0
 40
1.625007487632133
100
AcDbArc
 50
187.620590209961
 51
322.37890625
  0
ARC
  5
4A5
330
1F
100
AcDbEntity
  8
1-0
  6
Continuous
 62
     3
370
     9
100
AcDbCircle
 10
227.9519075960727
 20
136.3527139199747
 30
0.0
 40
1.000000012887491
100
AcDbArc
 50
11.56642150878907
 51
75.00077819824219
  0
ARC
  5
4A6
330
1F
100
AcDbEntity
  8
1-0
  6
Continuous
 62
     3
370
     9
100
AcDbCircle
 10
238.8051378404772
 20
133.4446774044552
 30
0.0
 40
1.000000012887491
100
AcDbArc
 50
75.00022888183594
 51
138.4349822998047
  0
ARC
  5
4A7
330
1F
100
AcDbEntity
  8
1-0
  6
Continuous
 62
     3
370
     9
100
AcDbCircle
 10
242.9753401472763
 20
134.0094340556377
 30
0.0
 40
1.625007487632133
100
AcDbArc
 50
187.620590209961
 51
322.37890625
  0
ARC
  5
4A8
330
1F
100
AcDbEntity
  8
1-0
  6
Continuous
 62
     3
370
     9
100
AcDbCircle
 10
218.8270940007391
 20
140.4800101615288
 30
0.0
 40
1.625007487632133
100
AcDbArc
 50
187.6179962158203
 51
322.3796997070312
  0
ARC
  5
4A9
330
1F
100
AcDbEntity
  8
1-0
  6
Continuous
 62
     3
370
     9
100
AcDbCircle
 10
223.6728812552788
 20
132.3228842245566
 30
0.0
 40
2.000000025774982
100
AcDbArc
 50
11.56620788574219
 51
75.00050354003906
  0
ARC
  5
4AA
330
1F
100
AcDbEntity
  8
1-0
  6
JWW_DASHED1
 62
     3
370
     9
100
AcDbCircle
 10
240.4959188925253
 20
127.815149255701
 30
0.0
 40
2.000000025774982
100
AcDbArc
 50
74.99948120117186
 51
138.4350738525391
  0
ARC
  5
4AB
330
1F
100
AcDbEntity
  8
1-0
  6
JWW_DASHED1
 62
     3
370
     9
100
AcDbCircle
 10
237.0869652000634
 20
129.2462669578759
 30
0.0
 40
1.500000019331236
100
AcDbArc
 50
255.0012817382812
 51
318.4365081787109
  0
ARC
  5
4AC
330
1F
100
AcDbEntity
  8
1-0
  6
Continuous
 62
     3
370
     9
100
AcDbCircle
 10
227.3406075142525
 20
131.8577468459671
 30
0.0
 40
1.500000019331236
100
AcDbArc
 50
191.5646057128906
 51
254.9999084472656
  0
ARC
  5
4AD
330
1F
100
AcDbEntity
  8
1-0
  6
Continuous
 62
     3
370
     9
100
AcDbCircle
 10
265.0067880991344
 20
128.4412957268792
 30
0.0
 40
1.500000019331236
100
AcDbArc
 50
5.856887817382806
 51
89.99999999999999
  0
ARC
  5
4AE
330
1F
100
AcDbEntity
  8
1-0
  6
Continuous
 62
     3
370
     9
100
AcDbCircle
 10
250.0780012800888
 20
101.9412701580976
 30
0.0
 40
1.500000019331236
100
AcDbArc
 50
7.000335693359379
 51
90.00000000000001
  0
ARC
  5
4AF
330
1F
100
AcDbEntity
  8
1-0
  6
Continuous
 62
     3
370
     9
100
AcDbCircle
 10
243.5691214896538
 20
111.9412412901183
 30
0.0
 40
1.500000019331236
100
AcDbArc
 50
8.530700683593754
 51
90.0
  0
ARC
  5
4B0
330
1F
100
AcDbEntity
  8
1-0
  6
JWW_DASHED1
 62
     3
370
     9
100
AcDbCircle
 10
246.3313664616766
 20
111.9412412901183
 30
0.0
 40
1.500000019331236
100
AcDbArc
 50
7.000518798828123
 51
89.99999999999999
  0
ARC
  5
4B1
330
1F
100
AcDbEntity
  8
1-0
  6
JWW_DASHED1
 62
     3
370
     9
100
AcDbCircle
 10
243.0833476298564
 20
126.0866583746833
 30
0.0
 40
3.000000038662472
100
AcDbArc
 50
7.000076293945317
 51
74.99972534179688
  0
ARC
  5
4B2
330
1F
100
AcDbEntity
  8
1-0
  6
Continuous
 62
     3
370
     9
100
AcDbCircle
 10
226.9930535393792
 20
128.8451175174198
 30
0.0
 40
1.500000019331236
100
AcDbArc
 50
6.874084472656261
 51
74.99990844726564
  0
ARC
  5
4B3
330
1F
100
AcDbEntity
  8
1-0
  6
Continuous
 62
     3
370
     9
100
AcDbCircle
 10
249.3291494008658
 20
128.5542025179477
 30
0.0
 40
3.000000038662472
100
AcDbArc
 50
27.53991699218751
 51
74.99990844726564
  0
ARC
  5
4B4
330
1F
100
AcDbEntity
  8
1-0
  6
JWW_DASHED1
 62
     3
370
     9
100
AcDbCircle
 10
249.3291494008658
 20
128.5542025179477
 30
0.0
 40
3.000000038662472
100
AcDbArc
 50
6.999725341796887
 51
27.53991699218751
  0
ARC
  5
4B5
330
1F
100
AcDbEntity
  8
1-0
  6
JWW_DASHED1
 62
     3
370
     9
100
AcDbCircle
 10
256.4043447133658
 20
120.1652130951753
 30
0.0
 40
3.000000038662472
100
AcDbArc
 50
187.0004272460937
 51
263.7596130371094
  0
ARC
  5
4B6
330
1F
100
AcDbEntity
  8
1-0
  6
JWW_DASHED1
 62
     3
370
     9
100
AcDbCircle
 10
261.9989096151816
 20
115.5295764819996
 30
0.0
 40
1.000000012887491
100
AcDbArc
 50
9.462677001953137
 51
83.75891113281251
  0
ARC
  5
4B7
330
1F
100
AcDbEntity
  8
1-0
  6
Continuous
 62
     3
370
     9
100
AcDbCircle
 10
394.5659575591217
 20
126.0914463352513
 30
0.0
 40
10.99999956182532
100
AcDbArc
 50
58.20979309082032
 51
105.0000305175781
  0
ARC
  5
4B8
330
1F
100
AcDbEntity
  8
1-0
  6
Continuous
 62
     3
370
     9
100
AcDbCircle
 10
370.9873673722552
 20
133.7497707057644
 30
0.0
 40
1.500000019331236
100
AcDbArc
 50
221.5644226074219
 51
285.0000915527344
  0
ARC
  5
4B9
330
1F
100
AcDbEntity
  8
1-0
  6
Continuous
 62
     3
370
     9
100
AcDbCircle
 10
375.9579385293497
 20
135.0816402950802
 30
0.0
 40
1.500000019331236
100
AcDbArc
 50
285.0000915527344
 51
348.4351043701172
  0
ARC
  5
4BA
330
1F
100
AcDbEntity
  8
1-0
  6
Continuous
 62
     3
370
     9
100
AcDbCircle
 10
382.0989990234375
 20
138.9270778346706
 30
0.0
 40
1.625007487632133
100
AcDbArc
 50
217.62109375
 51
352.3794097900391
  0
ARC
  5
4BB
330
1F
100
AcDbEntity
  8
1-0
  6
Continuous
 62
     3
370
     9
100
AcDbCircle
 10
378.7698446737753
 20
136.3527139199747
 30
0.0
 40
1.000000012887491
100
AcDbArc
 50
104.9992218017578
 51
168.433578491211
  0
ARC
  5
4BC
330
1F
100
AcDbEntity
  8
1-0
  6
Continuous
 62
     3
370
     9
100
AcDbCircle
 10
367.9165401974241
 20
133.4446774044552
 30
0.0
 40
1.000000012887491
100
AcDbArc
 50
41.56501770019532
 51
104.9997711181641
  0
ARC
  5
4BD
330
1F
100
AcDbEntity
  8
1-0
  6
Continuous
 62
     3
370
     9
100
AcDbCircle
 10
363.746337890625
 20
134.0094340556377
 30
0.0
 40
1.625007487632133
100
AcDbArc
 50
217.62109375
 51
352.3794097900391
  0
ARC
  5
4BE
330
1F
100
AcDbEntity
  8
1-0
  6
Continuous
 62
     3
370
     9
100
AcDbCircle
 10
387.8945840371622
 20
140.4800101615288
 30
0.0
 40
1.625007487632133
100
AcDbArc
 50
217.6203002929688
 51
352.3820037841797
  0
ARC
  5
4BF
330
1F
100
AcDbEntity
  8
1-0
  6
Continuous
 62
     3
370
     9
100
AcDbCircle
 10
383.0487967826225
 20
132.3228842245566
 30
0.0
 40
2.000000025774982
100
AcDbArc
 50
104.999496459961
 51
168.4337921142578
  0
ARC
  5
4C0
330
1F
100
AcDbEntity
  8
1-0
  6
Continuous
 62
     3
370
     9
100
AcDbCircle
 10
366.2258333773227
 20
127.815149255701
 30
0.0
 40
2.000000025774982
100
AcDbArc
 50
41.56492614746094
 51
105.0005187988281
  0
ARC
  5
4C1
330
1F
100
AcDbEntity
  8
1-0
  6
Continuous
 62
     3
370
     9
100
AcDbCircle
 10
369.6347128378378
 20
129.2462669578759
 30
0.0
 40
1.500000019331236
100
AcDbArc
 50
221.5634918212891
 51
284.9987182617188
  0
ARC
  5
4C2
330
1F
100
AcDbEntity
  8
1-0
  6
Continuous
 62
     3
370
     9
100
AcDbCircle
 10
379.3810705236488
 20
131.8577468459671
 30
0.0
 40
1.500000019331236
100
AcDbArc
 50
285.0000915527344
 51
348.4353942871094
  0
ARC
  5
4C3
330
1F
100
AcDbEntity
  8
1-0
  6
Continuous
 62
     3
370
     9
100
AcDbCircle
 10
356.6436025258658
 20
101.9412701580976
 30
0.0
 40
1.500000019331236
100
AcDbArc
 50
90.0
 51
172.9996643066406
  0
ARC
  5
4C4
330
1F
100
AcDbEntity
  8
1-0
  6
JWW_PHANTOM1
 62
     3
370
     9
100
AcDbCircle
 10
363.1526307801944
 20
111.9412412901183
 30
0.0
 40
1.500000019331236
100
AcDbArc
 50
90.0
 51
171.4692993164062
  0
ARC
  5
4C5
330
1F
100
AcDbEntity
  8
1-0
  6
Continuous
 62
     3
370
     9
100
AcDbCircle
 10
363.6384046399916
 20
126.0866583746833
 30
0.0
 40
3.000000038662472
100
AcDbArc
 50
105.0002746582031
 51
172.9999237060547
  0
ARC
  5
4C6
330
1F
100
AcDbEntity
  8
1-0
  6
JWW_PHANTOM1
 62
     3
370
     9
100
AcDbCircle
 10
375.0308557458827
 20
114.9412511877112
 30
0.0
 40
1.500000019331236
100
AcDbArc
 50
270.0
 51
353.1259155273438
  0
ARC
  5
4C7
330
1F
100
AcDbEntity
  8
1-0
  6
JWW_PHANTOM1
 62
     3
370
     9
100
AcDbCircle
 10
379.7287729624156
 20
128.8451175174198
 30
0.0
 40
1.500000019331236
100
AcDbArc
 50
105.0000915527344
 51
173.1259155273437
  0
ARC
  5
4C8
330
1F
100
AcDbEntity
  8
1-0
  6
Continuous
 62
     3
370
     9
100
AcDbCircle
 10
357.3924544050888
 20
128.5542025179477
 30
0.0
 40
3.000000038662472
100
AcDbArc
 50
105.0000915527344
 51
173.0002746582031
  0
ARC
  5
4C9
330
1F
100
AcDbEntity
  8
1-0
  6
Continuous
 62
     3
370
     9
100
AcDbCircle
 10
350.3174817884291
 20
120.1652130951753
 30
0.0
 40
3.000000038662472
100
AcDbArc
 50
276.2403869628906
 51
352.9995727539063
  0
ARC
  5
4CA
330
1F
100
AcDbEntity
  8
1-0
  6
Continuous
 62
     3
370
     9
100
AcDbCircle
 10
344.7227684227197
 20
115.5295764819996
 30
0.0
 40
1.000000012887491
100
AcDbArc
 50
96.2410888671875
 51
170.5373229980469
  0
ARC
  5
4CB
330
1F
100
AcDbEntity
  8
1-0
  6
Continuous
 62
     3
370
     9
100
AcDbCircle
 10
231.6908222920186
 20
114.9412511877112
 30
0.0
 40
1.500000019331236
100
AcDbArc
 50
186.8746185302734
 51
270.0
  0
ARC
  5
4CC
330
1F
100
AcDbEntity
  8
1-0
  6
Continuous
 62
     3
370
     9
100
AcDbCircle
 10
230.3609569652661
 20
98.44127098289695
 30
0.0
 40
2.000000025774982
100
AcDbArc
 50
270.0
 51
0.0
  0
ARC
  5
4CD
330
1F
100
AcDbEntity
  8
1-0
  6
Continuous
 62
     3
370
     9
100
AcDbCircle
 10
230.3609569652661
 20
98.44127098289695
 30
0.0
 40
8.000000103099927
100
AcDbArc
 50
270.0
 51
0.0
  0
ARC
  5
4CE
330
1F
100
AcDbEntity
  8
1-0
  6
JWW_CENTER1
 62
     3
370
     9
100
AcDbCircle
 10
230.3608085013725
 20
98.44127098289695
 30
0.0
 40
5.000000644374539
100
AcDbArc
 50
270.0
 51
0.0
  0
ARC
  5
4CF
330
1F
100
AcDbEntity
  8
1-1
  6
Continuous
 62
     2
370
     9
100
AcDbCircle
 10
236.0946325353675
 20
150.9001712283573
 30
0.0
 40
2.000000025774982
100
AcDbArc
 50
190.6148834228516
 51
255.0005035400391
  0
ARC
  5
4D0
330
1F
100
AcDbEntity
  8
1-1
  6
JWW_DASHED1
 62
     2
370
     9
100
AcDbCircle
 10
370.6270455025339
 20
150.9001712283573
 30
0.0
 40
2.000000025774982
100
AcDbArc
 50
284.9994964599609
 51
349.3851165771484
  0
ARC
  5
4D1
330
1F
100
AcDbEntity
  8
1-1
  6
Continuous
 62
     2
370
     9
100
AcDbCircle
 10
271.1311464051944
 20
144.2976849530195
 30
0.0
 40
1.500000019331236
100
AcDbArc
 50
11.31021118164063
 51
90.00000000000001
  0
ARC
  5
4D2
330
1F
100
AcDbEntity
  8
1-1
  6
Continuous
 62
     2
370
     9
100
AcDbCircle
 10
361.1174877269848
 20
149.7976783546242
 30
0.0
 40
1.500000019331236
100
AcDbArc
 50
90.0
 51
169.91162109375
  0
ARC
  5
4D3
330
1F
100
AcDbEntity
  8
1-1
  6
Continuous
 62
     2
370
     9
100
AcDbCircle
 10
357.114529996305
 20
147.2795822555955
 30
0.0
 40
2.000000025774982
100
AcDbArc
 50
284.9994964599609
 51
349.9115142822266
  0
ARC
  5
4D4
330
1F
100
AcDbEntity
  8
1-1
  6
Continuous
 62
     2
370
     9
100
AcDbCircle
 10
371.4914022909628
 20
152.7977624841639
 30
0.0
 40
1.500000019331236
100
AcDbArc
 50
270.0
 51
349.3838348388672
  0
ARC
  5
4D5
330
1F
100
AcDbEntity
  8
1-1
  6
Continuous
 62
     2
370
     9
100
AcDbCircle
 10
380.3193623310811
 20
154.5325630806588
 30
0.0
 40
3.000000038662472
100
AcDbArc
 50
188.7071380615235
 51
285.0002746582032
  0
ARC
  5
4D6
330
1F
100
AcDbEntity
  8
1-1
  6
Continuous
 62
     2
370
     9
100
AcDbCircle
 10
226.4023157068202
 20
154.5325630806588
 30
0.0
 40
3.000000038662472
100
AcDbArc
 50
254.9997253417969
 51
351.2928619384766
  0
ARC
  5
4D7
330
1F
100
AcDbEntity
  8
1-1
  6
Continuous
 62
     4
370
     9
100
AcDbCircle
 10
254.7373921162373
 20
149.4974843618032
 30
0.0
 40
2.800173727241722
100
AcDbArc
 50
47.92556762695312
 51
132.0746307373047
  0
ARC
  5
4D8
330
1F
100
AcDbEntity
  8
1-1
  6
Continuous
 62
     4
370
     9
100
AcDbCircle
 10
260.360759013408
 20
142.2082783467061
 30
0.0
 40
10.08941018903578
100
AcDbArc
 50
68.19786071777345
 51
111.8021392822266
  0
ARC
  5
4D9
330
1F
100
AcDbEntity
  8
1-1
  6
Continuous
 62
     4
370
     9
100
AcDbCircle
 10
265.9844228383658
 20
149.4974843618032
 30
0.0
 40
2.800189675511541
100
AcDbArc
 50
47.92572021484376
 51
132.0742797851562
  0
ARC
  5
4DA
330
1F
100
AcDbEntity
  8
1-1
  6
Continuous
 62
     2
370
     9
100
AcDbCircle
 10
348.1151683910473
 20
143.2976321658573
 30
0.0
 40
1.000000012887491
100
AcDbArc
 50
90.0
 51
164.0540161132812
  0
ARC
  5
4DB
330
1F
100
AcDbEntity
  8
1-E
  6
Continuous
 62
     2
370
     9
100
AcDbCircle
 10
281.0858731656461
 20
38.34561074746625
 30
0.0
 40
33.41250213416847
100
AcDbArc
 50
228.1900024414062
 51
311.8099975585938
  0
ARC
  5
4DC
330
1F
100
AcDbEntity
  8
1-E
  6
Continuous
 62
     2
370
     9
100
AcDbCircle
 10
325.6358791042019
 20
38.34561074746625
 30
0.0
 40
33.41250213416847
100
AcDbArc
 50
228.1900024414062
 51
311.8099975585938
  0
ARC
  5
4DD
330
1F
100
AcDbEntity
  8
1-E
  6
Continuous
 62
     2
370
     9
100
AcDbCircle
 10
325.6358791042019
 20
-11.46127896695523
 30
0.0
 40
33.41250213416847
100
AcDbArc
 50
48.19000244140624
 51
131.8099975585938
  0
ARC
  5
4DE
330
1F
100
AcDbEntity
  8
1-6
  6
Continuous
 62
     6
370
     5
100
AcDbCircle
 10
345.0861338022594
 20
118.5872274862754
 30
0.0
 40
2.000000025774982
100
AcDbArc
 50
173.000015258789
 51
276.2410888671875
  0
ARC
  5
4DF
330
1F
100
AcDbEntity
  8
1-6
  6
Continuous
 62
     6
370
     5
100
AcDbCircle
 10
350.0650931693413
 20
134.5204096613704
 30
0.0
 40
5.000000064437454
100
AcDbArc
 50
105.0000762939453
 51
172.9996948242188
  0
ARC
  5
4E0
330
1F
100
AcDbEntity
  8
1-6
  6
Continuous
 62
     6
370
     5
100
AcDbCircle
 10
350.9862373970652
 20
133.8167279217695
 30
0.0
 40
4.000000051549963
100
AcDbArc
 50
105.0005187988281
 51
173.0000152587891
  0
ARC
  5
4E1
330
1F
100
AcDbEntity
  8
1-6
  6
Continuous
 62
     6
370
     5
100
AcDbCircle
 10
351.8965437605575
 20
133.0253411370355
 30
0.0
 40
3.000000038662472
100
AcDbArc
 50
105.0002746582031
 51
172.9994812011718
  0
ARC
  5
4E2
330
1F
100
AcDbEntity
  8
1-6
  6
Continuous
 62
     6
370
     5
100
AcDbCircle
 10
352.8069243559967
 20
132.2339914682749
 30
0.0
 40
2.000000025774982
100
AcDbArc
 50
104.9994964599609
 51
173.0000152587891
  0
ARC
  5
4E3
330
1F
100
AcDbEntity
  8
1-6
  6
Continuous
 62
     6
370
     5
100
AcDbCircle
 10
353.7172307194891
 20
131.442604683541
 30
0.0
 40
1.000000012887491
100
AcDbArc
 50
104.9977264404297
 51
172.9984436035157
  0
CIRCLE
  5
4E4
330
1F
100
AcDbEntity
  8
1-E
  6
Continuous
 62
     7
370
     9
100
AcDbCircle
 10
122.3823506123311
 20
178.4413369668497
 30
0.0
 40
1.000000012887491
  0
CIRCLE
  5
4E5
330
1F
100
AcDbEntity
  8
1-E
  6
Continuous
 62
     7
370
     9
100
AcDbCircle
 10
487.6324050490922
 20
163.4412874788852
 30
0.0
 40
1.000000012887491
  0
CIRCLE
  5
4E6
330
1F
100
AcDbEntity
  8
1-E
  6
Continuous
 62
     7
370
     9
100
AcDbCircle
 10
122.3823506123311
 20
78.44129160288219
 30
0.0
 40
1.000000012887491
  0
CIRCLE
  5
4E7
330
1F
100
AcDbEntity
  8
1-B
  6
Continuous
 62
     4
370
     9
100
AcDbCircle
 10
231.3609355204814
 20
158.7976338154561
 30
0.0
 40
1.500004948796453
  0
CIRCLE
  5
4E8
330
1F
100
AcDbEntity
  8
1-B
  6
Continuous
 62
     4
370
     9
100
AcDbCircle
 10
303.3608761349241
 20
214.7975463867188
 30
0.0
 40
1.500004948796453
  0
ARC
  5
4E9
330
1F
100
AcDbEntity
  8
1-B
  6
Continuous
 62
     4
370
     9
100
AcDbCircle
 10
295.8609256228886
 20
214.7975463867188
 30
0.0
 40
1.500000019331236
100
AcDbArc
 50
66.42127990722656
 51
90.0
  0
ARC
  5
4EA
330
1F
100
AcDbEntity
  8
1-B
  6
Continuous
 62
     4
370
     9
100
AcDbCircle
 10
303.3608761349241
 20
214.7975463867188
 30
0.0
 40
4.500004697490383
100
AcDbArc
 50
246.4217071533203
 51
293.5782928466797
  0
CIRCLE
  5
4EB
330
1F
100
AcDbEntity
  8
1-B
  6
Continuous
 62
     4
370
     9
100
AcDbCircle
 10
229.4022513724663
 20
158.6811638909417
 30
0.0
 40
0.3500000045106218
  0
ARC
  5
4EC
330
1F
100
AcDbEntity
  8
1-6
  6
Continuous
 62
     6
370
     5
100
AcDbCircle
 10
332.019603832348
 20
222.5625791807433
 30
0.0
 40
4.000000051549963
100
AcDbArc
 50
23.66485595703126
 51
81.44836425781251
  0
ARC
  5
4ED
330
1F
100
AcDbEntity
  8
1-6
  6
Continuous
 62
     6
370
     5
100
AcDbCircle
 10
336.8224107896959
 20
218.5032051705026
 30
0.0
 40
1.200000087957124
100
AcDbArc
 50
261.4483642578125
 51
351.4483642578125
  0
ARC
  5
4EE
330
1F
100
AcDbEntity
  8
1-6
  6
Continuous
 62
     6
370
     5
100
AcDbCircle
 10
336.8224107896959
 20
218.5032051705026
 30
0.0
 40
0.2000000025774982
100
AcDbArc
 50
261.4483642578125
 51
351.4483642578125
  0
ARC
  5
4EF
330
1F
100
AcDbEntity
  8
1-6
  6
Continuous
 62
     6
370
     5
100
AcDbCircle
 10
339.8399394267314
 20
224.9414903795398
 30
0.0
 40
7.340787939123206
100
AcDbArc
 50
168.1181640625
 51
244.3268585205079
  0
ARC
  5
4F0
330
1F
100
AcDbEntity
  8
1-6
  6
Continuous
 62
     6
370
     5
100
AcDbCircle
 10
339.8399394267314
 20
224.9414903795398
 30
0.0
 40
8.340789111884865
100
AcDbArc
 50
168.1181640625
 51
245.3932800292969
  0
ARC
  5
4F1
330
1F
100
AcDbEntity
  8
1-6
  6
Continuous
 62
     6
370
     5
100
AcDbCircle
 10
348.9352829391892
 20
220.0188730600718
 30
0.0
 40
4.000000051549963
100
AcDbArc
 50
81.4483642578125
 51
139.2318725585938
  0
ARC
  5
4F2
330
1F
100
AcDbEntity
  8
1-6
  6
Continuous
 62
     6
370
     5
100
AcDbCircle
 10
343.1511296452703
 20
217.551477380701
 30
0.0
 40
1.200000087957124
100
AcDbArc
 50
171.4483642578125
 51
261.4483642578125
  0
ARC
  5
4F3
330
1F
100
AcDbEntity
  8
1-6
  6
Continuous
 62
     6
370
     5
100
AcDbCircle
 10
343.1511296452703
 20
217.551477380701
 30
0.0
 40
0.2000000025774982
100
AcDbArc
 50
171.4483642578125
 51
261.4483642578125
  0
ARC
  5
4F4
330
1F
100
AcDbEntity
  8
1-6
  6
Continuous
 62
     6
370
     5
100
AcDbCircle
 10
342.1602816195102
 20
224.5926002296242
 30
0.0
 40
7.340787939123206
100
AcDbArc
 50
278.5698699951172
 51
354.778564453125
  0
ARC
  5
4F5
330
1F
100
AcDbEntity
  8
1-6
  6
Continuous
 62
     6
370
     5
100
AcDbCircle
 10
342.1602816195102
 20
224.5926002296242
 30
0.0
 40
8.340789111884865
100
AcDbArc
 50
277.5034484863281
 51
354.778564453125
  0
CIRCLE
  5
4F6
330
1F
100
AcDbEntity
  8
1-B
  6
Continuous
 62
     4
370
     9
100
AcDbCircle
 10
244.8609058277028
 20
214.7976206186655
 30
0.0
 40
1.500000019331236
  0
CIRCLE
  5
4F7
330
1F
100
AcDbEntity
  8
1-B
  6
Continuous
 62
     4
370
     9
100
AcDbCircle
 10
250.6426836993244
 20
216.6477034285263
 30
0.0
 40
0.3500000045106218
  0
CIRCLE
  5
4F8
330
1F
100
AcDbEntity
  8
1-B
  6
Continuous
 62
     4
370
     9
100
AcDbCircle
 10
241.4835007126267
 20
208.681279362859
 30
0.0
 40
0.3500000045106218
  0
CIRCLE
  5
4F9
330
1F
100
AcDbEntity
  8
1-B
  6
Continuous
 62
     4
370
     9
100
AcDbCircle
 10
240.2781223606419
 20
203.6811638909417
 30
0.0
 40
0.3500000045106218
  0
CIRCLE
  5
4FA
330
1F
100
AcDbEntity
  8
1-B
  6
Continuous
 62
     4
370
     9
100
AcDbCircle
 10
239.0727440086572
 20
198.6811968829181
 30
0.0
 40
0.3500000045106218
  0
CIRCLE
  5
4FB
330
1F
100
AcDbEntity
  8
1-B
  6
Continuous
 62
     4
370
     9
100
AcDbCircle
 10
237.8673656566723
 20
193.6811556429477
 30
0.0
 40
0.3500000045106218
  0
CIRCLE
  5
4FC
330
1F
100
AcDbEntity
  8
1-B
  6
Continuous
 62
     4
370
     9
100
AcDbCircle
 10
236.6621357685811
 20
188.6811144029773
 30
0.0
 40
0.3500000045106218
  0
CIRCLE
  5
4FD
330
1F
100
AcDbEntity
  8
1-B
  6
Continuous
 62
     4
370
     9
100
AcDbCircle
 10
235.4567574165962
 20
183.6811473949536
 30
0.0
 40
0.3500000045106218
  0
CIRCLE
  5
4FE
330
1F
100
AcDbEntity
  8
1-B
  6
Continuous
 62
     4
370
     9
100
AcDbCircle
 10
234.2513790646116
 20
178.6811061549831
 30
0.0
 40
0.3500000045106218
  0
CIRCLE
  5
4FF
330
1F
100
AcDbEntity
  8
1-B
  6
Continuous
 62
     4
370
     9
100
AcDbCircle
 10
233.0460007126267
 20
173.6810649150127
 30
0.0
 40
0.3500000045106218
  0
CIRCLE
  5
500
330
1F
100
AcDbEntity
  8
1-B
  6
Continuous
 62
     4
370
     9
100
AcDbCircle
 10
231.8406223606419
 20
168.6810607910156
 30
0.0
 40
0.3500000045106218
  0
CIRCLE
  5
501
330
1F
100
AcDbEntity
  8
1-B
  6
Continuous
 62
     4
370
     9
100
AcDbCircle
 10
230.6353924725508
 20
163.6810195510452
 30
0.0
 40
0.3500000045106218
  0
CIRCLE
  5
502
330
1F
100
AcDbEntity
  8
1-B
  6
Continuous
 62
     4
370
     9
100
AcDbCircle
 10
245.6427166913008
 20
216.6477034285263
 30
0.0
 40
0.3500000045106218
  0
CIRCLE
  5
503
330
1F
100
AcDbEntity
  8
1-B
  6
Continuous
 62
     4
370
     9
100
AcDbCircle
 10
255.6427991712416
 20
216.6477034285263
 30
0.0
 40
0.3500000045106218
  0
CIRCLE
  5
504
330
1F
100
AcDbEntity
  8
1-B
  6
Continuous
 62
     4
370
     9
100
AcDbCircle
 10
260.6427661792653
 20
216.6477034285263
 30
0.0
 40
0.3500000045106218
  0
CIRCLE
  5
505
330
1F
100
AcDbEntity
  8
1-B
  6
Continuous
 62
     4
370
     9
100
AcDbCircle
 10
265.6427331872889
 20
216.6477034285263
 30
0.0
 40
0.3500000045106218
  0
CIRCLE
  5
506
330
1F
100
AcDbEntity
  8
1-B
  6
Continuous
 62
     4
370
     9
100
AcDbCircle
 10
270.6427001953125
 20
216.6477034285263
 30
0.0
 40
0.3500000045106218
  0
CIRCLE
  5
507
330
1F
100
AcDbEntity
  8
1-B
  6
Continuous
 62
     4
370
     9
100
AcDbCircle
 10
275.6426672033363
 20
216.6477034285263
 30
0.0
 40
0.3500000045106218
  0
CIRCLE
  5
508
330
1F
100
AcDbEntity
  8
1-B
  6
Continuous
 62
     4
370
     9
100
AcDbCircle
 10
280.6427826752534
 20
216.6477034285263
 30
0.0
 40
0.3500000045106218
  0
CIRCLE
  5
509
330
1F
100
AcDbEntity
  8
1-B
  6
Continuous
 62
     4
370
     9
100
AcDbCircle
 10
285.642749683277
 20
216.6477034285263
 30
0.0
 40
0.3500000045106218
  0
CIRCLE
  5
50A
330
1F
100
AcDbEntity
  8
1-B
  6
Continuous
 62
     4
370
     9
100
AcDbCircle
 10
290.6428651551944
 20
216.6477034285263
 30
0.0
 40
0.3500000045106218
  0
CIRCLE
  5
50B
330
1F
100
AcDbEntity
  8
1-B
  6
Continuous
 62
     4
370
     9
100
AcDbCircle
 10
295.642832163218
 20
216.6477034285263
 30
0.0
 40
0.3500000045106218
  0
CIRCLE
  5
50C
330
1F
100
AcDbEntity
  8
1-B
  6
Continuous
 62
     4
370
     9
100
AcDbCircle
 10
300.6427991712416
 20
216.6477034285263
 30
0.0
 40
0.3500000045106218
  0
CIRCLE
  5
50D
330
1F
100
AcDbEntity
  8
1-B
  6
Continuous
 62
     4
370
     9
100
AcDbCircle
 10
375.3609652132602
 20
158.7976338154561
 30
0.0
 40
1.500004948796453
  0
ARC
  5
50E
330
1F
100
AcDbEntity
  8
1-B
  6
Continuous
 62
     4
370
     9
100
AcDbCircle
 10
310.8609751108531
 20
214.7975463867188
 30
0.0
 40
1.500000019331236
100
AcDbArc
 50
90.0
 51
113.5787200927734
  0
CIRCLE
  5
50F
330
1F
100
AcDbEntity
  8
1-B
  6
Continuous
 62
     4
370
     9
100
AcDbCircle
 10
377.3196493612753
 20
158.6811638909417
 30
0.0
 40
0.3500000045106218
  0
CIRCLE
  5
510
330
1F
100
AcDbEntity
  8
1-B
  6
Continuous
 62
     4
370
     9
100
AcDbCircle
 10
361.8609949060389
 20
214.7976206186655
 30
0.0
 40
1.500000019331236
  0
CIRCLE
  5
511
330
1F
100
AcDbEntity
  8
1-B
  6
Continuous
 62
     4
370
     9
100
AcDbCircle
 10
356.0790685705238
 20
216.6477034285263
 30
0.0
 40
0.3500000045106218
  0
CIRCLE
  5
512
330
1F
100
AcDbEntity
  8
1-B
  6
Continuous
 62
     4
370
     9
100
AcDbCircle
 10
365.2384000211148
 20
208.681279362859
 30
0.0
 40
0.3500000045106218
  0
CIRCLE
  5
513
330
1F
100
AcDbEntity
  8
1-B
  6
Continuous
 62
     4
370
     9
100
AcDbCircle
 10
366.4437783730997
 20
203.6811638909417
 30
0.0
 40
0.3500000045106218
  0
CIRCLE
  5
514
330
1F
100
AcDbEntity
  8
1-B
  6
Continuous
 62
     4
370
     9
100
AcDbCircle
 10
367.6491567250845
 20
198.6811968829181
 30
0.0
 40
0.3500000045106218
  0
CIRCLE
  5
515
330
1F
100
AcDbEntity
  8
1-B
  6
Continuous
 62
     4
370
     9
100
AcDbCircle
 10
368.8545350770694
 20
193.6811556429477
 30
0.0
 40
0.3500000045106218
  0
CIRCLE
  5
516
330
1F
100
AcDbEntity
  8
1-B
  6
Continuous
 62
     4
370
     9
100
AcDbCircle
 10
370.0597649651605
 20
188.6811144029773
 30
0.0
 40
0.3500000045106218
  0
CIRCLE
  5
517
330
1F
100
AcDbEntity
  8
1-B
  6
Continuous
 62
     4
370
     9
100
AcDbCircle
 10
371.2651433171453
 20
183.6811473949536
 30
0.0
 40
0.3500000045106218
  0
CIRCLE
  5
518
330
1F
100
AcDbEntity
  8
1-B
  6
Continuous
 62
     4
370
     9
100
AcDbCircle
 10
372.4705216691302
 20
178.6811061549831
 30
0.0
 40
0.3500000045106218
  0
CIRCLE
  5
519
330
1F
100
AcDbEntity
  8
1-B
  6
Continuous
 62
     4
370
     9
100
AcDbCircle
 10
373.6759000211148
 20
173.6810649150127
 30
0.0
 40
0.3500000045106218
  0
CIRCLE
  5
51A
330
1F
100
AcDbEntity
  8
1-B
  6
Continuous
 62
     4
370
     9
100
AcDbCircle
 10
374.8812783730997
 20
168.6810607910156
 30
0.0
 40
0.3500000045106218
  0
CIRCLE
  5
51B
330
1F
100
AcDbEntity
  8
1-B
  6
Continuous
 62
     4
370
     9
100
AcDbCircle
 10
376.0865082611909
 20
163.6810195510452
 30
0.0
 40
0.3500000045106218
  0
CIRCLE
  5
51C
330
1F
100
AcDbEntity
  8
1-B
  6
Continuous
 62
     4
370
     9
100
AcDbCircle
 10
361.0791840424409
 20
216.6477034285263
 30
0.0
 40
0.3500000045106218
  0
CIRCLE
  5
51D
330
1F
100
AcDbEntity
  8
1-B
  6
Continuous
 62
     4
370
     9
100
AcDbCircle
 10
351.0791015625
 20
216.6477034285263
 30
0.0
 40
0.3500000045106218
  0
CIRCLE
  5
51E
330
1F
100
AcDbEntity
  8
1-B
  6
Continuous
 62
     4
370
     9
100
AcDbCircle
 10
346.0791345544764
 20
216.6477034285263
 30
0.0
 40
0.3500000045106218
  0
CIRCLE
  5
51F
330
1F
100
AcDbEntity
  8
1-B
  6
Continuous
 62
     4
370
     9
100
AcDbCircle
 10
336.0790520745355
 20
216.6477034285263
 30
0.0
 40
0.3500000045106218
  0
CIRCLE
  5
520
330
1F
100
AcDbEntity
  8
1-B
  6
Continuous
 62
     4
370
     9
100
AcDbCircle
 10
331.0790850665119
 20
216.6477034285263
 30
0.0
 40
0.3500000045106218
  0
CIRCLE
  5
521
330
1F
100
AcDbEntity
  8
1-B
  6
Continuous
 62
     4
370
     9
100
AcDbCircle
 10
326.0791180584883
 20
216.6477034285263
 30
0.0
 40
0.3500000045106218
  0
CIRCLE
  5
522
330
1F
100
AcDbEntity
  8
1-B
  6
Continuous
 62
     4
370
     9
100
AcDbCircle
 10
321.0791510504645
 20
216.6477034285263
 30
0.0
 40
0.3500000045106218
  0
CIRCLE
  5
523
330
1F
100
AcDbEntity
  8
1-B
  6
Continuous
 62
     4
370
     9
100
AcDbCircle
 10
316.0790355785473
 20
216.6477034285263
 30
0.0
 40
0.3500000045106218
  0
CIRCLE
  5
524
330
1F
100
AcDbEntity
  8
1-B
  6
Continuous
 62
     4
370
     9
100
AcDbCircle
 10
311.0790685705238
 20
216.6477034285263
 30
0.0
 40
0.3500000045106218
  0
CIRCLE
  5
525
330
1F
100
AcDbEntity
  8
1-B
  6
Continuous
 62
     4
370
     9
100
AcDbCircle
 10
306.0789530986064
 20
216.6477034285263
 30
0.0
 40
0.3500000045106218
  0
ARC
  5
526
330
1F
100
AcDbEntity
  8
0-6
  6
Continuous
 62
     6
370
     5
100
AcDbCircle
 10
-221.7077389278927
 20
211.1479327227619
 30
0.0
 40
3.749999613375277
100
AcDbArc
 50
168.7998504638672
 51
348.7998504638672
  0
CIRCLE
  5
527
330
1F
100
AcDbEntity
  8
0-6
  6
Continuous
 62
     6
370
     5
100
AcDbCircle
 10
-219.6682904217694
 20
221.4480607316301
 30
0.0
 40
4.500000057993709
  0
CIRCLE
  5
528
330
1F
100
AcDbEntity
  8
0-9
  6
Continuous
 62
     2
370
     9
100
AcDbCircle
 10
-219.6682904217694
 20
221.4480607316301
 30
0.0
 40
3.000000038662472
  0
ARC
  5
529
330
1F
100
AcDbEntity
  8
0-6
  6
Continuous
 62
     6
370
     5
100
AcDbCircle
 10
-216.0252091691301
 20
211.2737558725718
 30
0.0
 40
1.800000023197484
100
AcDbArc
 50
113.2313079833985
 51
168.8006591796875
  0
ARC
  5
52A
330
1F
100
AcDbEntity
  8
0-6
  6
Continuous
 62
     6
370
     5
100
AcDbCircle
 10
-226.9136995882601
 20
213.4296743032095
 30
0.0
 40
1.800000023197484
100
AcDbArc
 50
348.8006591796875
 51
44.37001037597656
  0
ARC
  5
52B
330
1F
100
AcDbEntity
  8
0-6
  6
Continuous
 62
     6
370
     5
100
AcDbCircle
 10
-217.6290646114865
 20
231.747966044658
 30
0.0
 40
3.749999613375277
100
AcDbArc
 50
348.7998504638672
 51
168.7998504638672
  0
ARC
  5
52C
330
1F
100
AcDbEntity
  8
0-6
  6
Continuous
 62
     6
370
     5
100
AcDbCircle
 10
-212.4228812552787
 20
229.4663729281039
 30
0.0
 40
1.800000023197484
100
AcDbArc
 50
168.8006591796875
 51
224.3700103759766
  0
ARC
  5
52D
330
1F
100
AcDbEntity
  8
0-6
  6
Continuous
 62
     6
370
     5
100
AcDbCircle
 10
-223.3115943702491
 20
231.622142894848
 30
0.0
 40
1.800000023197484
100
AcDbArc
 50
293.2313079833984
 51
348.8006591796875
  0
ARC
  5
52E
330
1F
100
AcDbEntity
  8
0-6
  6
Continuous
 62
     6
370
     5
100
AcDbCircle
 10
-219.6682904217694
 20
221.4480607316301
 30
0.0
 40
9.000000115987417
100
AcDbArc
 50
289.65283203125
 51
47.94709777832032
  0
ARC
  5
52F
330
1F
100
AcDbEntity
  8
0-6
  6
Continuous
 62
     6
370
     5
100
AcDbCircle
 10
-219.6682904217694
 20
221.4480607316301
 30
0.0
 40
9.000000115987417
100
AcDbArc
 50
109.652847290039
 51
227.9471130371094
  0
ARC
  5
530
330
1F
100
AcDbEntity
  8
0-6
  6
Continuous
 62
     6
370
     5
100
AcDbCircle
 10
-216.0252091691301
 20
211.2737558725718
 30
0.0
 40
3.300000042528719
100
AcDbArc
 50
113.2303771972656
 51
168.7997283935547
  0
ARC
  5
531
330
1F
100
AcDbEntity
  8
0-6
  6
Continuous
 62
     6
370
     5
100
AcDbCircle
 10
-219.6682904217694
 20
221.4480607316301
 30
0.0
 40
7.499999226750554
100
AcDbArc
 50
289.6527099609375
 51
47.94697570800783
  0
ARC
  5
532
330
1F
100
AcDbEntity
  8
0-6
  6
Continuous
 62
     6
370
     5
100
AcDbCircle
 10
-212.4228812552787
 20
229.4663729281039
 30
0.0
 40
3.300000042528719
100
AcDbArc
 50
168.7997283935547
 51
224.3690795898438
  0
ARC
  5
533
330
1F
100
AcDbEntity
  8
0-6
  6
Continuous
 62
     6
370
     5
100
AcDbCircle
 10
-217.6290646114865
 20
231.747966044658
 30
0.0
 40
2.249999884012583
100
AcDbArc
 50
348.7993774414062
 51
168.7993774414063
  0
ARC
  5
534
330
1F
100
AcDbEntity
  8
0-6
  6
Continuous
 62
     6
370
     5
100
AcDbCircle
 10
-223.3115943702491
 20
231.622142894848
 30
0.0
 40
3.300000042528719
100
AcDbArc
 50
293.2303771972657
 51
348.7997283935547
  0
ARC
  5
535
330
1F
100
AcDbEntity
  8
0-6
  6
Continuous
 62
     6
370
     5
100
AcDbCircle
 10
-219.6682904217694
 20
221.4480607316301
 30
0.0
 40
7.499999226750554
100
AcDbArc
 50
109.6527252197266
 51
227.9469909667969
  0
ARC
  5
536
330
1F
100
AcDbEntity
  8
0-6
  6
Continuous
 62
     6
370
     5
100
AcDbCircle
 10
-226.9136995882601
 20
213.4296743032095
 30
0.0
 40
3.300000042528719
100
AcDbArc
 50
348.7997283935547
 51
44.36907958984375
  0
ARC
  5
537
330
1F
100
AcDbEntity
  8
0-6
  6
Continuous
 62
     6
370
     5
100
AcDbCircle
 10
-221.7077389278927
 20
211.1479327227619
 30
0.0
 40
2.249999884012583
100
AcDbArc
 50
168.7993774414063
 51
348.7993774414062
  0
ELLIPSE
  5
538
330
1F
100
AcDbEntity
  8
0-B
  6
Continuous
 62
     4
370
     9
100
AcDbEllipse
 10
-160.6409763645481
 20
234.6920050543708
 30
0.0
 11
1.377686693295859E-16
 21
-2.250007423194679
 31
0.0
210
0.0
220
0.0
230
1.0
 40
0.9609
 41
0.0
 42
3.141592653589793
  0
CIRCLE
  5
539
330
1F
100
AcDbEntity
  8
0-B
  6
Continuous
 62
     4
370
     9
100
AcDbCircle
 10
-268.1391535578547
 20
234.6920050543708
 30
0.0
 40
110.2499925768053
  0
ELLIPSE
  5
53A
330
1F
100
AcDbEntity
  8
0-B
  6
Continuous
 62
     4
370
     9
100
AcDbEllipse
 10
-268.1391535578547
 20
342.1901822476773
 30
0.0
 11
2.250007423194679
 21
0.0
 31
0.0
210
0.0
220
0.0
230
1.0
 40
0.9609
 41
0.0
 42
3.141592653589793
  0
ARC
  5
53B
330
1F
100
AcDbEntity
  8
0-B
  6
Continuous
 62
     4
370
     9
100
AcDbCircle
 10
-268.1391535578547
 20
234.6920050543708
 30
0.0
 40
105.7499870094093
100
AcDbArc
 50
1.21917724609375
 51
88.78082275390626
  0
ELLIPSE
  5
53C
330
1F
100
AcDbEntity
  8
0-B
  6
Continuous
 62
     4
370
     9
100
AcDbEllipse
 10
-375.6371080553209
 20
234.6920050543708
 30
0.0
 11
1.377686693295859E-16
 21
2.250007423194679
 31
0.0
210
0.0
220
0.0
230
1.0
 40
0.9609
 41
0.0
 42
3.141592653589793
  0
CIRCLE
  5
53D
330
1F
100
AcDbEntity
  8
0-B
  6
Continuous
 62
     4
370
     9
100
AcDbCircle
 10
-288.9941736169764
 20
343.4844162399705
 30
0.0
 40
0.5250000067659327
  0
CIRCLE
  5
53E
330
1F
100
AcDbEntity
  8
0-B
  6
Continuous
 62
     4
370
     9
100
AcDbCircle
 10
-296.4941241290118
 20
341.7757452887458
 30
0.0
 40
0.5250000067659327
  0
CIRCLE
  5
53F
330
1F
100
AcDbEntity
  8
0-B
  6
Continuous
 62
     4
370
     9
100
AcDbCircle
 10
-303.9942973368877
 20
339.5031342377534
 30
0.0
 40
0.5250000067659327
  0
CIRCLE
  5
540
330
1F
100
AcDbEntity
  8
0-B
  6
Continuous
 62
     4
370
     9
100
AcDbCircle
 10
-311.4944705447635
 20
336.6272401551942
 30
0.0
 40
0.5250000067659327
  0
CIRCLE
  5
541
330
1F
100
AcDbEntity
  8
0-B
  6
Continuous
 62
     4
370
     9
100
AcDbCircle
 10
-318.9946437526393
 20
333.1030784813134
 30
0.0
 40
0.5250000067659327
  0
CIRCLE
  5
542
330
1F
100
AcDbEntity
  8
0-B
  6
Continuous
 62
     4
370
     9
100
AcDbCircle
 10
-336.8864729597761
 20
321.5531814162796
 30
0.0
 40
0.5250000067659327
  0
CIRCLE
  5
543
330
1F
100
AcDbEntity
  8
0-B
  6
Continuous
 62
     4
370
     9
100
AcDbCircle
 10
-341.4949406804265
 20
317.690076673353
 30
0.0
 40
0.5250000067659327
  0
CIRCLE
  5
544
330
1F
100
AcDbEntity
  8
0-B
  6
Continuous
 62
     4
370
     9
100
AcDbCircle
 10
-345.4232953045819
 20
314.0532309042442
 30
0.0
 40
0.5250000067659327
  0
CIRCLE
  5
545
330
1F
100
AcDbEntity
  8
0-B
  6
Continuous
 62
     4
370
     9
100
AcDbCircle
 10
-348.994891192462
 20
310.3998314110008
 30
0.0
 40
0.5250000067659327
  0
CIRCLE
  5
546
330
1F
100
AcDbEntity
  8
0-B
  6
Continuous
 62
     4
370
     9
100
AcDbCircle
 10
-352.4422228014147
 20
306.5532803922086
 30
0.0
 40
0.5250000067659327
  0
CIRCLE
  5
547
330
1F
100
AcDbEntity
  8
0-B
  6
Continuous
 62
     4
370
     9
100
AcDbCircle
 10
-358.2982326198268
 20
299.0533298801732
 30
0.0
 40
0.5250000067659327
  0
CIRCLE
  5
548
330
1F
100
AcDbEntity
  8
0-B
  6
Continuous
 62
     4
370
     9
100
AcDbCircle
 10
-363.2024404164907
 20
291.5531566722973
 30
0.0
 40
0.5250000067659327
  0
CIRCLE
  5
549
330
1F
100
AcDbEntity
  8
0-B
  6
Continuous
 62
     4
370
     9
100
AcDbCircle
 10
-363.9950149123733
 20
290.2143092799831
 30
0.0
 40
0.5250000067659327
  0
CIRCLE
  5
54A
330
1F
100
AcDbEntity
  8
0-B
  6
Continuous
 62
     4
370
     9
100
AcDbCircle
 10
-367.3080609295819
 20
284.0531319283151
 30
0.0
 40
0.5250000067659327
  0
CIRCLE
  5
54B
330
1F
100
AcDbEntity
  8
0-B
  6
Continuous
 62
     4
370
     9
100
AcDbCircle
 10
-370.6970462283573
 20
276.5532556482264
 30
0.0
 40
0.5250000067659327
  0
CIRCLE
  5
54C
330
1F
100
AcDbEntity
  8
0-B
  6
Continuous
 62
     4
370
     9
100
AcDbCircle
 10
-371.4954108160895
 20
274.5488446209882
 30
0.0
 40
0.5250000067659327
  0
CIRCLE
  5
54D
330
1F
100
AcDbEntity
  8
0-B
  6
Continuous
 62
     4
370
     9
100
AcDbCircle
 10
-373.4475625527871
 20
269.0533051361909
 30
0.0
 40
0.5250000067659327
  0
CIRCLE
  5
54E
330
1F
100
AcDbEntity
  8
0-B
  6
Continuous
 62
     4
370
     9
100
AcDbCircle
 10
-375.6059306376689
 20
261.5531319283151
 30
0.0
 40
0.5250000067659327
  0
CIRCLE
  5
54F
330
1F
100
AcDbEntity
  8
0-B
  6
Continuous
 62
     4
370
     9
100
AcDbCircle
 10
-377.2071137299408
 20
254.0531814162796
 30
0.0
 40
0.5250000067659327
  0
CIRCLE
  5
550
330
1F
100
AcDbEntity
  8
0-B
  6
Continuous
 62
     4
370
     9
100
AcDbCircle
 10
-378.2756083720439
 20
246.5532309042441
 30
0.0
 40
0.5250000067659327
  0
CIRCLE
  5
551
330
1F
100
AcDbEntity
  8
0-B
  6
Continuous
 62
     4
370
     9
100
AcDbCircle
 10
-333.9945447767103
 20
323.759874498522
 30
0.0
 40
0.5250000067659327
  0
CIRCLE
  5
552
330
1F
100
AcDbEntity
  8
0-B
  6
Continuous
 62
     4
370
     9
100
AcDbCircle
 10
-356.4950644003378
 20
301.5074380410684
 30
0.0
 40
0.5250000067659327
  0
ARC
  5
553
330
1F
100
AcDbEntity
  8
0-B
  6
Continuous
 62
     4
370
     9
100
AcDbCircle
 10
-268.1391535578547
 20
234.6920050543708
 30
0.0
 40
105.7499870094093
100
AcDbArc
 50
91.21917724609375
 51
101.0839538574219
  0
ARC
  5
554
330
1F
100
AcDbEntity
  8
0-B
  6
Continuous
 62
     4
370
     9
100
AcDbCircle
 10
-268.1391535578547
 20
234.6920050543708
 30
0.0
 40
105.7499870094093
100
AcDbArc
 50
101.6641693115234
 51
104.4900665283203
  0
ARC
  5
555
330
1F
100
AcDbEntity
  8
0-B
  6
Continuous
 62
     4
370
     9
100
AcDbCircle
 10
-268.1391535578547
 20
234.6920050543708
 30
0.0
 40
105.7499870094093
100
AcDbArc
 50
106.6122436523438
 51
109.5173645019531
  0
ARC
  5
556
330
1F
100
AcDbEntity
  8
0-B
  6
Continuous
 62
     4
370
     9
100
AcDbCircle
 10
-268.1391535578547
 20
234.6920050543708
 30
0.0
 40
105.7499870094093
100
AcDbArc
 50
110.1219940185547
 51
113.8921051025391
  0
ARC
  5
557
330
1F
100
AcDbEntity
  8
0-B
  6
Continuous
 62
     4
370
     9
100
AcDbCircle
 10
-268.1391535578547
 20
234.6920050543708
 30
0.0
 40
105.7499870094093
100
AcDbArc
 50
114.515869140625
 51
116.1986389160156
  0
ARC
  5
558
330
1F
100
AcDbEntity
  8
0-B
  6
Continuous
 62
     4
370
     9
100
AcDbCircle
 10
-268.1391535578547
 20
234.6920050543708
 30
0.0
 40
105.7499870094093
100
AcDbArc
 50
117.4592742919922
 51
118.420425415039
  0
ARC
  5
559
330
1F
100
AcDbEntity
  8
0-B
  6
Continuous
 62
     4
370
     9
100
AcDbCircle
 10
-268.1391535578547
 20
234.6920050543708
 30
0.0
 40
105.7499870094093
100
AcDbArc
 50
119.0692901611328
 51
123.1520233154297
  0
ARC
  5
55A
330
1F
100
AcDbEntity
  8
0-B
  6
Continuous
 62
     4
370
     9
100
AcDbCircle
 10
-268.1391535578547
 20
234.6920050543708
 30
0.0
 40
105.7499870094093
100
AcDbArc
 50
125.2722930908203
 51
128.1543884277344
  0
ARC
  5
55B
330
1F
100
AcDbEntity
  8
0-B
  6
Continuous
 62
     4
370
     9
100
AcDbCircle
 10
-268.1391535578547
 20
234.6920050543708
 30
0.0
 40
105.7499870094093
100
AcDbArc
 50
128.8815155029297
 51
130.9375762939453
  0
ARC
  5
55C
330
1F
100
AcDbEntity
  8
0-B
  6
Continuous
 62
     4
370
     9
100
AcDbCircle
 10
-268.1391535578547
 20
234.6920050543708
 30
0.0
 40
105.7499870094093
100
AcDbArc
 50
131.7984008789063
 51
133.5278930664063
  0
ARC
  5
55D
330
1F
100
AcDbEntity
  8
0-B
  6
Continuous
 62
     4
370
     9
100
AcDbCircle
 10
-268.1391535578547
 20
234.6920050543708
 30
0.0
 40
105.7499870094093
100
AcDbArc
 50
134.3177795410157
 51
136.8034820556641
  0
ARC
  5
55E
330
1F
100
AcDbEntity
  8
0-B
  6
Continuous
 62
     4
370
     9
100
AcDbCircle
 10
-268.1391535578547
 20
234.6920050543708
 30
0.0
 40
105.7499870094093
100
AcDbArc
 50
137.5789337158203
 51
139.4315643310547
  0
ARC
  5
55F
330
1F
100
AcDbEntity
  8
0-B
  6
Continuous
 62
     4
370
     9
100
AcDbCircle
 10
-268.1391535578547
 20
234.6920050543708
 30
0.0
 40
105.7499870094093
100
AcDbArc
 50
140.3143768310547
 51
142.1511535644531
  0
ARC
  5
560
330
1F
100
AcDbEntity
  8
0-B
  6
Continuous
 62
     4
370
     9
100
AcDbCircle
 10
-268.1391535578547
 20
234.6920050543708
 30
0.0
 40
105.7499870094093
100
AcDbArc
 50
142.8681030273438
 51
146.155517578125
  0
ARC
  5
561
330
1F
100
AcDbEntity
  8
0-B
  6
Continuous
 62
     4
370
     9
100
AcDbCircle
 10
-268.1391535578547
 20
234.6920050543708
 30
0.0
 40
105.7499870094093
100
AcDbArc
 50
147.8099975585938
 51
151.8529815673828
  0
ARC
  5
562
330
1F
100
AcDbEntity
  8
0-B
  6
Continuous
 62
     4
370
     9
100
AcDbCircle
 10
-268.1391535578547
 20
234.6920050543708
 30
0.0
 40
105.7499870094093
100
AcDbArc
 50
152.4962921142578
 51
154.3525695800781
  0
ARC
  5
563
330
1F
100
AcDbEntity
  8
0-B
  6
Continuous
 62
     4
370
     9
100
AcDbCircle
 10
-268.1391535578547
 20
234.6920050543708
 30
0.0
 40
105.7499870094093
100
AcDbArc
 50
155.7001495361328
 51
156.370849609375
  0
ARC
  5
564
330
1F
100
AcDbEntity
  8
0-B
  6
Continuous
 62
     4
370
     9
100
AcDbCircle
 10
-268.1391535578547
 20
234.6920050543708
 30
0.0
 40
105.7499870094093
100
AcDbArc
 50
156.9903717041016
 51
160.7377014160156
  0
ARC
  5
565
330
1F
100
AcDbEntity
  8
0-B
  6
Continuous
 62
     4
370
     9
100
AcDbCircle
 10
-268.1391535578547
 20
234.6920050543708
 30
0.0
 40
105.7499870094093
100
AcDbArc
 50
161.3392944335938
 51
164.9910125732422
  0
ARC
  5
566
330
1F
100
AcDbEntity
  8
0-B
  6
Continuous
 62
     4
370
     9
100
AcDbCircle
 10
-268.1391535578547
 20
234.6920050543708
 30
0.0
 40
105.7499870094093
100
AcDbArc
 50
169.7397003173828
 51
173.2736968994141
  0
ARC
  5
567
330
1F
100
AcDbEntity
  8
0-B
  6
Continuous
 62
     4
370
     9
100
AcDbCircle
 10
-268.1391535578547
 20
234.6920050543708
 30
0.0
 40
105.7499870094093
100
AcDbArc
 50
173.8462066650391
 51
178.7808227539062
  0
ARC
  5
568
330
1F
100
AcDbEntity
  8
0-B
  6
Continuous
 62
     4
370
     9
100
AcDbCircle
 10
-268.1391535578547
 20
234.6920050543708
 30
0.0
 40
90.00000927899335
100
AcDbArc
 50
106.4049377441406
 51
108.0125274658203
  0
ARC
  5
569
330
1F
100
AcDbEntity
  8
0-B
  6
Continuous
 62
     4
370
     9
100
AcDbCircle
 10
-268.1391535578547
 20
234.6920050543708
 30
0.0
 40
90.00000927899335
100
AcDbArc
 50
108.7167510986328
 51
113.1136474609375
  0
ARC
  5
56A
330
1F
100
AcDbEntity
  8
0-B
  6
Continuous
 62
     4
370
     9
100
AcDbCircle
 10
-268.1391535578547
 20
234.6920050543708
 30
0.0
 40
90.00000927899335
100
AcDbArc
 50
113.8424835205078
 51
117.4239501953125
  0
ARC
  5
56B
330
1F
100
AcDbEntity
  8
0-B
  6
Continuous
 62
     4
370
     9
100
AcDbCircle
 10
-268.1391535578547
 20
234.6920050543708
 30
0.0
 40
90.00000927899335
100
AcDbArc
 50
119.1803741455078
 51
124.0023498535156
  0
ARC
  5
56C
330
1F
100
AcDbEntity
  8
0-B
  6
Continuous
 62
     4
370
     9
100
AcDbCircle
 10
-268.1391535578547
 20
234.6920050543708
 30
0.0
 40
90.00000927899335
100
AcDbArc
 50
124.8126220703125
 51
126.4581909179688
  0
ARC
  5
56D
330
1F
100
AcDbEntity
  8
0-B
  6
Continuous
 62
     4
370
     9
100
AcDbCircle
 10
-268.1391535578547
 20
234.6920050543708
 30
0.0
 40
90.00000927899335
100
AcDbArc
 50
127.5685729980469
 51
129.9830169677734
  0
ARC
  5
56E
330
1F
100
AcDbEntity
  8
0-B
  6
Continuous
 62
     4
370
     9
100
AcDbCircle
 10
-268.1391535578547
 20
234.6920050543708
 30
0.0
 40
90.00000927899335
100
AcDbArc
 50
130.8611450195312
 51
133.8664703369141
  0
ARC
  5
56F
330
1F
100
AcDbEntity
  8
0-B
  6
Continuous
 62
     4
370
     9
100
AcDbCircle
 10
-268.1391535578547
 20
234.6920050543708
 30
0.0
 40
90.00000927899335
100
AcDbArc
 50
134.8227691650391
 51
136.5433044433594
  0
ARC
  5
570
330
1F
100
AcDbEntity
  8
0-B
  6
Continuous
 62
     4
370
     9
100
AcDbCircle
 10
-268.1391535578547
 20
234.6920050543708
 30
0.0
 40
90.00000927899335
100
AcDbArc
 50
137.5240936279297
 51
140.3851928710938
  0
ARC
  5
571
330
1F
100
AcDbEntity
  8
0-B
  6
Continuous
 62
     4
370
     9
100
AcDbCircle
 10
-268.1391535578547
 20
234.6920050543708
 30
0.0
 40
90.00000927899335
100
AcDbArc
 50
141.2476043701172
 51
144.0209045410156
  0
ARC
  5
572
330
1F
100
AcDbEntity
  8
0-B
  6
Continuous
 62
     4
370
     9
100
AcDbCircle
 10
-268.1391535578547
 20
234.6920050543708
 30
0.0
 40
90.00000927899335
100
AcDbArc
 50
145.1748657226562
 51
146.3382110595703
  0
ARC
  5
573
330
1F
100
AcDbEntity
  8
0-B
  6
Continuous
 62
     4
370
     9
100
AcDbCircle
 10
-268.1391535578547
 20
234.6920050543708
 30
0.0
 40
90.00000927899335
100
AcDbArc
 50
147.1375274658203
 51
151.9035034179688
  0
ARC
  5
574
330
1F
100
AcDbEntity
  8
0-B
  6
Continuous
 62
     4
370
     9
100
AcDbCircle
 10
-268.1391535578547
 20
234.6920050543708
 30
0.0
 40
90.00000927899335
100
AcDbArc
 50
154.7200012207031
 51
157.1932373046875
  0
ARC
  5
575
330
1F
100
AcDbEntity
  8
0-B
  6
Continuous
 62
     4
370
     9
100
AcDbCircle
 10
-268.1391535578547
 20
234.6920050543708
 30
0.0
 40
90.00000927899335
100
AcDbArc
 50
157.9165496826172
 51
162.2845306396485
  0
ARC
  5
576
330
1F
100
AcDbEntity
  8
0-B
  6
Continuous
 62
     4
370
     9
100
AcDbCircle
 10
-268.1391535578547
 20
234.6920050543708
 30
0.0
 40
90.00000927899335
100
AcDbArc
 50
162.9849853515625
 51
167.2347717285156
  0
ARC
  5
577
330
1F
100
AcDbEntity
  8
0-B
  6
Continuous
 62
     4
370
     9
100
AcDbCircle
 10
-268.1391535578547
 20
234.6920050543708
 30
0.0
 40
85.50000371159734
100
AcDbArc
 50
162.0676727294922
 51
166.5506286621094
  0
ARC
  5
578
330
1F
100
AcDbEntity
  8
0-B
  6
Continuous
 62
     4
370
     9
100
AcDbCircle
 10
-268.1391535578547
 20
234.6920050543708
 30
0.0
 40
85.50000371159734
100
AcDbArc
 50
149.7805480957031
 51
150.2810974121093
  0
ARC
  5
579
330
1F
100
AcDbEntity
  8
0-B
  6
Continuous
 62
     4
370
     9
100
AcDbCircle
 10
-268.1391535578547
 20
234.6920050543708
 30
0.0
 40
85.50000371159734
100
AcDbArc
 50
151.0881195068359
 51
155.9191284179687
  0
ARC
  5
57A
330
1F
100
AcDbEntity
  8
0-B
  6
Continuous
 62
     4
370
     9
100
AcDbCircle
 10
-268.1391535578547
 20
234.6920050543708
 30
0.0
 40
85.50000371159734
100
AcDbArc
 50
156.6876220703125
 51
159.9747467041016
  0
ARC
  5
57B
330
1F
100
AcDbEntity
  8
0-B
  6
Continuous
 62
     4
370
     9
100
AcDbCircle
 10
-268.1391535578547
 20
234.6920050543708
 30
0.0
 40
85.50000371159734
100
AcDbArc
 50
138.7838897705078
 51
139.8269348144531
  0
ARC
  5
57C
330
1F
100
AcDbEntity
  8
0-B
  6
Continuous
 62
     4
370
     9
100
AcDbCircle
 10
-268.1391535578547
 20
234.6920050543708
 30
0.0
 40
85.50000371159734
100
AcDbArc
 50
140.9303588867188
 51
144.3055572509766
  0
ARC
  5
57D
330
1F
100
AcDbEntity
  8
0-B
  6
Continuous
 62
     4
370
     9
100
AcDbCircle
 10
-268.1391535578547
 20
234.6920050543708
 30
0.0
 40
85.50000371159734
100
AcDbArc
 50
145.1673736572266
 51
148.4104461669922
  0
ARC
  5
57E
330
1F
100
AcDbEntity
  8
0-B
  6
Continuous
 62
     4
370
     9
100
AcDbCircle
 10
-268.1391535578547
 20
234.6920050543708
 30
0.0
 40
85.50000371159734
100
AcDbArc
 50
131.701400756836
 51
132.5613708496094
  0
ARC
  5
57F
330
1F
100
AcDbEntity
  8
0-B
  6
Continuous
 62
     4
370
     9
100
AcDbCircle
 10
-268.1391535578547
 20
234.6920050543708
 30
0.0
 40
85.50000371159734
100
AcDbArc
 50
133.5242156982422
 51
137.8416290283203
  0
ARC
  5
580
330
1F
100
AcDbEntity
  8
0-B
  6
Continuous
 62
     4
370
     9
100
AcDbCircle
 10
-268.1391535578547
 20
234.6920050543708
 30
0.0
 40
85.50000371159734
100
AcDbArc
 50
120.8786773681641
 51
122.1538848876953
  0
ARC
  5
581
330
1F
100
AcDbEntity
  8
0-B
  6
Continuous
 62
     4
370
     9
100
AcDbCircle
 10
-268.1391535578547
 20
234.6920050543708
 30
0.0
 40
85.50000371159734
100
AcDbArc
 50
123.4526824951172
 51
126.0619659423828
  0
ARC
  5
582
330
1F
100
AcDbEntity
  8
0-B
  6
Continuous
 62
     4
370
     9
100
AcDbCircle
 10
-268.1391535578547
 20
234.6920050543708
 30
0.0
 40
85.50000371159734
100
AcDbArc
 50
126.9373474121094
 51
130.6325225830078
  0
ARC
  5
583
330
1F
100
AcDbEntity
  8
0-B
  6
Continuous
 62
     4
370
     9
100
AcDbCircle
 10
-268.1391535578547
 20
234.6920050543708
 30
0.0
 40
85.50000371159734
100
AcDbArc
 50
112.7710571289062
 51
114.4070892333984
  0
ARC
  5
584
330
1F
100
AcDbEntity
  8
0-B
  6
Continuous
 62
     4
370
     9
100
AcDbCircle
 10
-268.1391535578547
 20
234.6920050543708
 30
0.0
 40
85.50000371159734
100
AcDbArc
 50
115.1822204589844
 51
120.0622253417969
  0
ARC
  5
585
330
1F
100
AcDbEntity
  8
0-B
  6
Continuous
 62
     4
370
     9
100
AcDbCircle
 10
-268.1391535578547
 20
234.6920050543708
 30
0.0
 40
85.50000371159734
100
AcDbArc
 50
109.7416076660156
 51
110.8782196044922
  0
ELLIPSE
  5
586
330
1F
100
AcDbEntity
  8
0-B
  6
Continuous
 62
     4
370
     9
100
AcDbEllipse
 10
-268.1391535578547
 20
127.1938278610642
 30
0.0
 11
-2.250007423194679
 21
2.755373386591718E-16
 31
0.0
210
0.0
220
0.0
230
1.0
 40
0.9609
 41
0.0
 42
3.141592653589793
  0
ARC
  5
587
330
1F
100
AcDbEntity
  8
0-B
  6
Continuous
 62
     4
370
     9
100
AcDbCircle
 10
-268.1391535578547
 20
234.6920050543708
 30
0.0
 40
105.7499870094093
100
AcDbArc
 50
181.2191772460938
 51
268.7808227539062
  0
ARC
  5
588
330
1F
100
AcDbEntity
  8
0-B
  6
Continuous
 62
     4
370
     9
100
AcDbCircle
 10
-268.1391535578547
 20
234.6920050543708
 30
0.0
 40
105.7499870094093
100
AcDbArc
 50
271.2191772460938
 51
358.7807769775391
  0
ARC
  5
589
330
1F
100
AcDbEntity
  8
0-B
  6
Continuous
 62
     4
370
     9
100
AcDbCircle
 10
-268.1391535578547
 20
234.6920050543708
 30
0.0
 40
90.00000927899335
100
AcDbArc
 50
170.9553680419922
 51
106.0262756347656
  0
ARC
  5
58A
330
1F
100
AcDbEntity
  8
0-B
  6
Continuous
 62
     4
370
     9
100
AcDbCircle
 10
-268.1391535578547
 20
234.6920050543708
 30
0.0
 40
85.50000371159734
100
AcDbArc
 50
167.2729339599609
 51
108.9958648681641
  0
CIRCLE
  5
58B
330
1F
100
AcDbEntity
  8
0-9
  6
Continuous
 62
     2
370
     9
100
AcDbCircle
 10
-219.6682904217694
 20
221.4480607316301
 30
0.0
 40
2.399990027015274
  0
ARC
  5
58C
330
1F
100
AcDbEntity
  8
0-6
  6
Continuous
 62
     6
370
     5
100
AcDbCircle
 10
-225.1510620117188
 20
-63.04761979386609
 30
0.0
 40
6.000000077324945
100
AcDbArc
 50
23.66485595703126
 51
81.44836425781251
  0
ARC
  5
58D
330
1F
100
AcDbEntity
  8
0-6
  6
Continuous
 62
     6
370
     5
100
AcDbCircle
 10
-217.9468515756968
 20
-69.13671792520059
 30
0.0
 40
1.800000023197484
100
AcDbArc
 50
261.4483642578125
 51
351.4483642578125
  0
ARC
  5
58E
330
1F
100
AcDbEntity
  8
0-6
  6
Continuous
 62
     6
370
     5
100
AcDbCircle
 10
-217.9468515756968
 20
-69.13671792520059
 30
0.0
 40
0.3000000038662473
100
AcDbArc
 50
261.4483642578125
 51
351.4483642578125
  0
ARC
  5
58F
330
1F
100
AcDbEntity
  8
0-6
  6
Continuous
 62
     6
370
     5
100
AcDbCircle
 10
-213.4205586201436
 20
-59.47921587969805
 30
0.0
 40
11.01118190868481
100
AcDbArc
 50
168.1181640625
 51
244.3268585205079
  0
ARC
  5
590
330
1F
100
AcDbEntity
  8
0-6
  6
Continuous
 62
     6
370
     5
100
AcDbCircle
 10
-213.4205586201436
 20
-59.47921587969805
 30
0.0
 40
12.51118337785875
100
AcDbArc
 50
168.1181640625
 51
245.3932800292969
  0
ARC
  5
591
330
1F
100
AcDbEntity
  8
0-6
  6
Continuous
 62
     6
370
     5
100
AcDbCircle
 10
-199.7775433514569
 20
-66.86314185889988
 30
0.0
 40
6.000000077324945
100
AcDbArc
 50
81.4483642578125
 51
139.2318725585938
  0
ARC
  5
592
330
1F
100
AcDbEntity
  8
0-6
  6
Continuous
 62
     6
370
     5
100
AcDbCircle
 10
-208.4537732923353
 20
-70.56423537795605
 30
0.0
 40
1.800000023197484
100
AcDbArc
 50
171.4483642578125
 51
261.4483642578125
  0
ARC
  5
593
330
1F
100
AcDbEntity
  8
0-6
  6
Continuous
 62
     6
370
     5
100
AcDbCircle
 10
-208.4537732923353
 20
-70.56423537795605
 30
0.0
 40
0.3000000038662473
100
AcDbArc
 50
171.4483642578125
 51
261.4483642578125
  0
ARC
  5
594
330
1F
100
AcDbEntity
  8
0-6
  6
Continuous
 62
     6
370
     5
100
AcDbCircle
 10
-209.9400453309755
 20
-60.00251398859797
 30
0.0
 40
11.01118190868481
100
AcDbArc
 50
278.5698699951172
 51
354.778564453125
  0
ARC
  5
595
330
1F
100
AcDbEntity
  8
0-6
  6
Continuous
 62
     6
370
     5
100
AcDbCircle
 10
-209.9400453309755
 20
-60.00251398859797
 30
0.0
 40
12.51118337785875
100
AcDbArc
 50
277.5034484863281
 51
354.778564453125
  0
CIRCLE
  5
596
330
1F
100
AcDbEntity
  8
0-B
  6
Continuous
 62
     4
370
     9
100
AcDbCircle
 10
-376.1391758274387
 20
-158.6950378417969
 30
0.0
 40
2.250007423194679
  0
CIRCLE
  5
597
330
1F
100
AcDbEntity
  8
0-B
  6
Continuous
 62
     4
370
     9
100
AcDbCircle
 10
-268.1391535578547
 20
-74.69513186892945
 30
0.0
 40
2.250007423194679
  0
ARC
  5
598
330
1F
100
AcDbEntity
  8
0-B
  6
Continuous
 62
     4
370
     9
100
AcDbCircle
 10
-279.3891535578547
 20
-74.69513186892945
 30
0.0
 40
2.250000028996854
100
AcDbArc
 50
66.42127990722656
 51
90.0
  0
ARC
  5
599
330
1F
100
AcDbEntity
  8
0-B
  6
Continuous
 62
     4
370
     9
100
AcDbCircle
 10
-268.1391535578547
 20
-74.69513186892945
 30
0.0
 40
6.750007191219846
100
AcDbArc
 50
246.4217071533203
 51
293.5782928466797
  0
CIRCLE
  5
59A
330
1F
100
AcDbEntity
  8
0-B
  6
Continuous
 62
     4
370
     9
100
AcDbCircle
 10
-355.8891461346601
 20
-74.69513186892945
 30
0.0
 40
2.250000028996854
  0
CIRCLE
  5
59B
330
1F
100
AcDbEntity
  8
0-B
  6
Continuous
 62
     4
370
     9
100
AcDbCircle
 10
-347.2164050952808
 20
-71.91989630621832
 30
0.0
 40
0.5250000067659327
  0
CIRCLE
  5
59C
330
1F
100
AcDbEntity
  8
0-B
  6
Continuous
 62
     4
370
     9
100
AcDbCircle
 10
-354.7164669552365
 20
-71.91989630621832
 30
0.0
 40
0.5250000067659327
  0
CIRCLE
  5
59D
330
1F
100
AcDbEntity
  8
0-B
  6
Continuous
 62
     4
370
     9
100
AcDbCircle
 10
-339.716417467272
 20
-71.91989630621832
 30
0.0
 40
0.5250000067659327
  0
CIRCLE
  5
59E
330
1F
100
AcDbEntity
  8
0-B
  6
Continuous
 62
     4
370
     9
100
AcDbCircle
 10
-332.2164298392631
 20
-71.91989630621832
 30
0.0
 40
0.5250000067659327
  0
CIRCLE
  5
59F
330
1F
100
AcDbEntity
  8
0-B
  6
Continuous
 62
     4
370
     9
100
AcDbCircle
 10
-324.7164422112542
 20
-71.91989630621832
 30
0.0
 40
0.5250000067659327
  0
CIRCLE
  5
5A0
330
1F
100
AcDbEntity
  8
0-B
  6
Continuous
 62
     4
370
     9
100
AcDbCircle
 10
-317.216417467272
 20
-71.91989630621832
 30
0.0
 40
0.5250000067659327
  0
CIRCLE
  5
5A1
330
1F
100
AcDbEntity
  8
0-B
  6
Continuous
 62
     4
370
     9
100
AcDbCircle
 10
-309.7164298392631
 20
-71.91989630621832
 30
0.0
 40
0.5250000067659327
  0
CIRCLE
  5
5A2
330
1F
100
AcDbEntity
  8
0-B
  6
Continuous
 62
     4
370
     9
100
AcDbCircle
 10
-302.2164422112542
 20
-71.91989630621832
 30
0.0
 40
0.5250000067659327
  0
CIRCLE
  5
5A3
330
1F
100
AcDbEntity
  8
0-B
  6
Continuous
 62
     4
370
     9
100
AcDbCircle
 10
-294.7163803512985
 20
-71.91989630621832
 30
0.0
 40
0.5250000067659327
  0
CIRCLE
  5
5A4
330
1F
100
AcDbEntity
  8
0-B
  6
Continuous
 62
     4
370
     9
100
AcDbCircle
 10
-287.2163556073163
 20
-71.91989630621832
 30
0.0
 40
0.5250000067659327
  0
CIRCLE
  5
5A5
330
1F
100
AcDbEntity
  8
0-B
  6
Continuous
 62
     4
370
     9
100
AcDbCircle
 10
-279.716330863334
 20
-71.91989630621832
 30
0.0
 40
0.5250000067659327
  0
CIRCLE
  5
5A6
330
1F
100
AcDbEntity
  8
0-B
  6
Continuous
 62
     4
370
     9
100
AcDbCircle
 10
-272.2163061193518
 20
-71.91989630621832
 30
0.0
 40
0.5250000067659327
  0
CIRCLE
  5
5A7
330
1F
100
AcDbEntity
  8
0-B
  6
Continuous
 62
     4
370
     9
100
AcDbCircle
 10
-160.1391684042441
 20
-158.6950378417969
 30
0.0
 40
2.250007423194679
  0
ARC
  5
5A8
330
1F
100
AcDbEntity
  8
0-B
  6
Continuous
 62
     4
370
     9
100
AcDbCircle
 10
-256.8891535578547
 20
-74.69513186892945
 30
0.0
 40
2.250000028996854
100
AcDbArc
 50
90.0
 51
113.5787200927734
  0
CIRCLE
  5
5A9
330
1F
100
AcDbEntity
  8
0-B
  6
Continuous
 62
     4
370
     9
100
AcDbCircle
 10
-157.2010679502744
 20
-158.8697798445418
 30
0.0
 40
0.5250000067659327
  0
CIRCLE
  5
5AA
330
1F
100
AcDbEntity
  8
0-B
  6
Continuous
 62
     4
370
     9
100
AcDbCircle
 10
-180.3891609810494
 20
-74.69513186892945
 30
0.0
 40
2.250000028996854
  0
CIRCLE
  5
5AB
330
1F
100
AcDbEntity
  8
0-B
  6
Continuous
 62
     4
370
     9
100
AcDbCircle
 10
-189.0619020204286
 20
-71.91989630621832
 30
0.0
 40
0.5250000067659327
  0
CIRCLE
  5
5AC
330
1F
100
AcDbEntity
  8
0-B
  6
Continuous
 62
     4
370
     9
100
AcDbCircle
 10
-175.3229419605152
 20
-83.86960663666594
 30
0.0
 40
0.5250000067659327
  0
CIRCLE
  5
5AD
330
1F
100
AcDbEntity
  8
0-B
  6
Continuous
 62
     4
370
     9
100
AcDbCircle
 10
-173.5149486644848
 20
-91.369705612595
 30
0.0
 40
0.5250000067659327
  0
CIRCLE
  5
5AE
330
1F
100
AcDbEntity
  8
0-B
  6
Continuous
 62
     4
370
     9
100
AcDbCircle
 10
-171.7068811365076
 20
-98.86973035657726
 30
0.0
 40
0.5250000067659327
  0
CIRCLE
  5
5AF
330
1F
100
AcDbEntity
  8
0-B
  6
Continuous
 62
     4
370
     9
100
AcDbCircle
 10
-169.8988878404772
 20
-106.3697551005595
 30
0.0
 40
0.5250000067659327
  0
CIRCLE
  5
5B0
330
1F
100
AcDbEntity
  8
0-B
  6
Continuous
 62
     4
370
     9
100
AcDbCircle
 10
-168.0908203125
 20
-113.8697798445418
 30
0.0
 40
0.5250000067659327
  0
CIRCLE
  5
5B1
330
1F
100
AcDbEntity
  8
0-B
  6
Continuous
 62
     4
370
     9
100
AcDbCircle
 10
-166.2828270164696
 20
-121.3698045885241
 30
0.0
 40
0.5250000067659327
  0
CIRCLE
  5
5B2
330
1F
100
AcDbEntity
  8
0-B
  6
Continuous
 62
     4
370
     9
100
AcDbCircle
 10
-164.4748337204391
 20
-128.8698293325063
 30
0.0
 40
0.5250000067659327
  0
CIRCLE
  5
5B3
330
1F
100
AcDbEntity
  8
0-B
  6
Continuous
 62
     4
370
     9
100
AcDbCircle
 10
-162.6667661924619
 20
-136.3699283084354
 30
0.0
 40
0.5250000067659327
  0
CIRCLE
  5
5B4
330
1F
100
AcDbEntity
  8
0-B
  6
Continuous
 62
     4
370
     9
100
AcDbCircle
 10
-160.8587728964316
 20
-143.8699530524176
 30
0.0
 40
0.5250000067659327
  0
CIRCLE
  5
5B5
330
1F
100
AcDbEntity
  8
0-B
  6
Continuous
 62
     4
370
     9
100
AcDbCircle
 10
-159.0507053684544
 20
-151.3699777963999
 30
0.0
 40
0.5250000067659327
  0
CIRCLE
  5
5B6
330
1F
100
AcDbEntity
  8
0-B
  6
Continuous
 62
     4
370
     9
100
AcDbCircle
 10
-181.561840160473
 20
-71.91989630621832
 30
0.0
 40
0.5250000067659327
  0
CIRCLE
  5
5B7
330
1F
100
AcDbEntity
  8
0-B
  6
Continuous
 62
     4
370
     9
100
AcDbCircle
 10
-196.5618896484375
 20
-71.91989630621832
 30
0.0
 40
0.5250000067659327
  0
CIRCLE
  5
5B8
330
1F
100
AcDbEntity
  8
0-B
  6
Continuous
 62
     4
370
     9
100
AcDbCircle
 10
-204.0618772764463
 20
-71.91989630621832
 30
0.0
 40
0.5250000067659327
  0
CIRCLE
  5
5B9
330
1F
100
AcDbEntity
  8
0-B
  6
Continuous
 62
     4
370
     9
100
AcDbCircle
 10
-219.0618896484375
 20
-71.91989630621832
 30
0.0
 40
0.5250000067659327
  0
CIRCLE
  5
5BA
330
1F
100
AcDbEntity
  8
0-B
  6
Continuous
 62
     4
370
     9
100
AcDbCircle
 10
-226.5618772764463
 20
-71.91989630621832
 30
0.0
 40
0.5250000067659327
  0
CIRCLE
  5
5BB
330
1F
100
AcDbEntity
  8
0-B
  6
Continuous
 62
     4
370
     9
100
AcDbCircle
 10
-234.0618649044552
 20
-71.91989630621832
 30
0.0
 40
0.5250000067659327
  0
CIRCLE
  5
5BC
330
1F
100
AcDbEntity
  8
0-B
  6
Continuous
 62
     4
370
     9
100
AcDbCircle
 10
-241.5619267644109
 20
-71.91989630621832
 30
0.0
 40
0.5250000067659327
  0
CIRCLE
  5
5BD
330
1F
100
AcDbEntity
  8
0-B
  6
Continuous
 62
     4
370
     9
100
AcDbCircle
 10
-249.0619515083931
 20
-71.91989630621832
 30
0.0
 40
0.5250000067659327
  0
CIRCLE
  5
5BE
330
1F
100
AcDbEntity
  8
0-B
  6
Continuous
 62
     4
370
     9
100
AcDbCircle
 10
-256.5619762523754
 20
-71.91989630621832
 30
0.0
 40
0.5250000067659327
  0
CIRCLE
  5
5BF
330
1F
100
AcDbEntity
  8
0-B
  6
Continuous
 62
     4
370
     9
100
AcDbCircle
 10
-264.0620009963577
 20
-71.91989630621832
 30
0.0
 40
0.5250000067659327
  0
CIRCLE
  5
5C0
330
1F
100
AcDbEntity
  8
0-B
  6
Continuous
 62
     4
370
     9
100
AcDbCircle
 10
-360.9553651551943
 20
-83.86968086861273
 30
0.0
 40
0.5250000067659327
  0
CIRCLE
  5
5C1
330
1F
100
AcDbEntity
  8
0-B
  6
Continuous
 62
     4
370
     9
100
AcDbCircle
 10
-362.7634326831715
 20
-91.3697798445418
 30
0.0
 40
0.5250000067659327
  0
CIRCLE
  5
5C2
330
1F
100
AcDbEntity
  8
0-B
  6
Continuous
 62
     4
370
     9
100
AcDbCircle
 10
-364.5715002111486
 20
-98.86987882047086
 30
0.0
 40
0.5250000067659327
  0
CIRCLE
  5
5C3
330
1F
100
AcDbEntity
  8
0-B
  6
Continuous
 62
     4
370
     9
100
AcDbCircle
 10
-366.3795677391258
 20
-106.3699777963999
 30
0.0
 40
0.5250000067659327
  0
CIRCLE
  5
5C4
330
1F
100
AcDbEntity
  8
0-B
  6
Continuous
 62
     4
370
     9
100
AcDbCircle
 10
-368.187635267103
 20
-113.8700767723289
 30
0.0
 40
0.5250000067659327
  0
CIRCLE
  5
5C5
330
1F
100
AcDbEntity
  8
0-B
  6
Continuous
 62
     4
370
     9
100
AcDbCircle
 10
-369.9957027950802
 20
-121.370175748258
 30
0.0
 40
0.5250000067659327
  0
CIRCLE
  5
5C6
330
1F
100
AcDbEntity
  8
0-B
  6
Continuous
 62
     4
370
     9
100
AcDbCircle
 10
-371.8037703230574
 20
-128.8702747241871
 30
0.0
 40
0.5250000067659327
  0
CIRCLE
  5
5C7
330
1F
100
AcDbEntity
  8
0-B
  6
Continuous
 62
     4
370
     9
100
AcDbCircle
 10
-373.6118378510346
 20
-136.3703737001161
 30
0.0
 40
0.5250000067659327
  0
CIRCLE
  5
5C8
330
1F
100
AcDbEntity
  8
0-B
  6
Continuous
 62
     4
370
     9
100
AcDbCircle
 10
-375.4199053790118
 20
-143.8704726760452
 30
0.0
 40
0.5250000067659327
  0
CIRCLE
  5
5C9
330
1F
100
AcDbEntity
  8
0-B
  6
Continuous
 62
     4
370
     9
100
AcDbCircle
 10
-377.227972906989
 20
-151.3705716519742
 30
0.0
 40
0.5250000067659327
  0
CIRCLE
  5
5CA
330
1F
100
AcDbEntity
  8
0-B
  6
Continuous
 62
     4
370
     9
100
AcDbCircle
 10
-379.0360404349662
 20
-158.8706706279033
 30
0.0
 40
0.5250000067659327
  0
ELLIPSE
  5
5CB
330
1F
100
AcDbEntity
  8
1-2
  6
Continuous
 62
     6
370
     5
100
AcDbEllipse
 10
366.8606649862753
 20
158.3673854518581
 30
0.0
 11
5.249980204814189
 21
0.0
 31
0.0
210
0.0
220
0.0
230
1.0
 40
0.7428
 41
0.0
 42
1.475408288134874
  0
ELLIPSE
  5
5CC
330
1F
100
AcDbEntity
  8
1-2
  6
Continuous
 62
     6
370
     5
100
AcDbEllipse
 10
366.8606649862753
 20
158.3673854518581
 30
0.0
 11
5.249980204814189
 21
0.0
 31
0.0
210
0.0
220
0.0
230
1.0
 40
0.7428
 41
1.666184365454919
 42
3.141592653589793
  0
ARC
  5
5CD
330
1F
100
AcDbEntity
  8
1-2
  6
Continuous
 62
     6
370
     5
100
AcDbCircle
 10
236.6953916807433
 20
152.2976989746094
 30
0.0
 40
1.000000012887491
100
AcDbArc
 50
190.3056030273438
 51
270.0
  0
ARC
  5
5CE
330
1F
100
AcDbEntity
  8
1-2
  6
Continuous
 62
     6
370
     5
100
AcDbCircle
 10
303.3608761349241
 20
-53.70237443253797
 30
0.0
 40
245.5000057735959
100
AcDbArc
 50
90.0
 51
99.12161254882812
  0
ARC
  5
5CF
330
1F
100
AcDbEntity
  8
1-2
  6
Continuous
 62
     6
370
     5
100
AcDbCircle
 10
303.3608761349241
 20
-53.70237443253797
 30
0.0
 40
250.0000020619985
100
AcDbArc
 50
90.0
 51
99.12159729003906
  0
ARC
  5
5D0
330
1F
100
AcDbEntity
  8
1-2
  6
Continuous
 62
     6
370
     5
100
AcDbCircle
 10
265.8683983055322
 20
179.8069078600085
 30
0.0
 40
13.50000046394967
100
AcDbArc
 50
99.12167358398439
 51
165.0000152587891
  0
ARC
  5
5D1
330
1F
100
AcDbEntity
  8
1-2
  6
Continuous
 62
     6
370
     5
100
AcDbCircle
 10
265.8682498416386
 20
179.8069078600085
 30
0.0
 40
9.000000115987417
100
AcDbArc
 50
99.12141418457033
 51
165.0000152587891
  0
ARC
  5
5D2
330
1F
100
AcDbEntity
  8
1-2
  6
Continuous
 62
     6
370
     5
100
AcDbCircle
 10
246.6098104940878
 20
154.2976932010135
 30
0.0
 40
3.000000038662472
100
AcDbArc
 50
270.0
 51
345.0002746582031
  0
ARC
  5
5D3
330
1F
100
AcDbEntity
  8
1-2
  6
Continuous
 62
     6
370
     5
100
AcDbCircle
 10
303.3608761349241
 20
-53.70237443253797
 30
0.0
 40
249.0000049487965
100
AcDbArc
 50
94.60704040527344
 51
99.24420166015624
  0
ARC
  5
5D4
330
1F
100
AcDbEntity
  8
1-2
  6
Continuous
 62
     6
370
     5
100
AcDbCircle
 10
370.0260636613177
 20
152.2976989746094
 30
0.0
 40
1.000000012887491
100
AcDbArc
 50
270.0
 51
349.6943969726562
  0
ARC
  5
5D5
330
1F
100
AcDbEntity
  8
1-2
  6
Continuous
 62
     6
370
     5
100
AcDbCircle
 10
340.8532055004223
 20
179.8069078600085
 30
0.0
 40
13.50000046394967
100
AcDbArc
 50
14.99998474121094
 51
80.87832641601562
  0
ARC
  5
5D6
330
1F
100
AcDbEntity
  8
1-2
  6
Continuous
 62
     6
370
     5
100
AcDbCircle
 10
340.8533539643159
 20
179.8069078600085
 30
0.0
 40
9.000000115987417
100
AcDbArc
 50
14.99998474121094
 51
80.87858581542969
  0
ARC
  5
5D7
330
1F
100
AcDbEntity
  8
1-2
  6
Continuous
 62
     6
370
     5
100
AcDbCircle
 10
360.1117933118666
 20
154.2976932010135
 30
0.0
 40
3.000000038662472
100
AcDbArc
 50
194.9997253417969
 51
270.0
  0
ARC
  5
5D8
330
1F
100
AcDbEntity
  8
1-2
  6
Continuous
 62
     6
370
     5
100
AcDbCircle
 10
244.3078778241133
 20
159.2291441221495
 30
0.0
 40
2.000000025774982
100
AcDbArc
 50
272.6016998291016
 51
345.0002288818359
  0
ARC
  5
5D9
330
1F
100
AcDbEntity
  8
1-2
  6
Continuous
 62
     6
370
     5
100
AcDbCircle
 10
242.7184233794342
 20
153.2976404138514
 30
0.0
 40
2.000000025774982
100
AcDbArc
 50
270.0
 51
345.0007781982422
  0
ARC
  5
5DA
330
1F
100
AcDbEntity
  8
1-2
  6
Continuous
 62
     6
370
     5
100
AcDbCircle
 10
362.4138744457348
 20
159.2291441221495
 30
0.0
 40
2.000000025774982
100
AcDbArc
 50
195.0008087158203
 51
267.3983001708984
  0
ARC
  5
5DB
330
1F
100
AcDbEntity
  8
1-2
  6
Continuous
 62
     6
370
     5
100
AcDbCircle
 10
362.1421855204814
 20
160.2425215437606
 30
0.0
 40
2.000000025774982
100
AcDbArc
 50
194.9997711181641
 51
267.3983001708984
  0
ARC
  5
5DC
330
1F
100
AcDbEntity
  8
1-2
  6
Continuous
 62
     6
370
     5
100
AcDbCircle
 10
360.4443524334883
 20
152.7976882522171
 30
0.0
 40
1.500000019331236
100
AcDbArc
 50
270.0
 51
345.7299499511719
  0
ARC
  5
5DD
330
1F
100
AcDbEntity
  8
1-2
  6
Continuous
 62
     6
370
     5
100
AcDbCircle
 10
303.3608761349241
 20
-53.70237443253797
 30
0.0
 40
250.0000020619985
100
AcDbArc
 50
80.87840270996092
 51
81.26220703124999
  0
ARC
  5
5DE
330
1F
100
AcDbEntity
  8
1-2
  6
Continuous
 62
     6
370
     5
100
AcDbCircle
 10
303.3608761349241
 20
-53.70237443253797
 30
0.0
 40
250.0000020619985
100
AcDbArc
 50
83.55450439453126
 51
90.00000000000001
  0
ARC
  5
5DF
330
1F
100
AcDbEntity
  8
1-2
  6
Continuous
 62
     6
370
     5
100
AcDbCircle
 10
303.3608761349241
 20
-53.70237443253797
 30
0.0
 40
245.5000057735959
100
AcDbArc
 50
80.87838745117188
 51
81.2587890625
  0
ARC
  5
5E0
330
1F
100
AcDbEntity
  8
1-2
  6
Continuous
 62
     6
370
     5
100
AcDbCircle
 10
303.3608761349241
 20
-53.70237443253797
 30
0.0
 40
245.5000057735959
100
AcDbArc
 50
83.59312438964847
 51
90.00000000000003
  0
CIRCLE
  5
5E1
330
1F
100
AcDbEntity
  8
0-B
  6
Continuous
 62
     4
370
     9
100
AcDbCircle
 10
-326.494705612595
 20
328.8499590899494
 30
0.0
 40
0.525005443676098
  0
ARC
  5
5E2
330
1F
100
AcDbEntity
  8
0-B
  6
Continuous
 62
     4
370
     9
100
AcDbCircle
 10
-326.1654498126055
 20
329.053131928315
 30
0.0
 40
0.5250000067659327
100
AcDbArc
 50
291.8931884765625
 51
143.2965850830078
  0
TEXT
  5
5E3
330
1F
100
AcDbEntity
  8
1-E
  6
Continuous
 62
     2
370
     0
100
AcDbText
 10
69.13235061233114
 20
230.403137101457
 30
0.0
 40
9.144
  1
押えコンクリート
 41
1.109375
  7
ＭＳ ゴシック
100
AcDbText
  0
TEXT
  5
5E4
330
1F
100
AcDbEntity
  8
1-E
  6
Continuous
 62
     2
370
     0
100
AcDbText
 10
427.6324421650655
 20
230.403137101457
 30
0.0
 40
9.144
  1
アスファルト防水層
 41
1.111111111111111
  7
ＭＳ ゴシック
100
AcDbText
  0
TEXT
  5
5E5
330
1F
100
AcDbEntity
  8
1-E
  6
Continuous
 62
     2
370
     0
100
AcDbText
 10
69.13237288191512
 20
17.86348899387672
 30
0.0
 40
9.144
  1
スラブコンクリート
 41
1.111111111111111
  7
ＭＳ ゴシック
100
AcDbText
  0
TEXT
  5
5E6
330
1F
100
AcDbEntity
  8
1-4
  6
Continuous
 62
     2
370
     0
100
AcDbText
 10
236.611061714791
 20
-30.61490868480781
 30
0.0
 40
9.144
  1
使用例　Ｓ＝１：３・
 41
1.1125
  7
ＭＳ ゴシック
100
AcDbText
  0
TEXT
  5
5E7
330
1F
100
AcDbEntity
  8
0-4
  6
Continuous
 62
     2
370
     0
100
AcDbText
 10
-132.5811832506334
 20
-123.0700477393898
 30
0.0
 40
9.144
  1
59
 50
90.0
 41
1.0625
  7
ＭＳ ゴシック
100
AcDbText
  0
TEXT
  5
5E8
330
1F
100
AcDbEntity
  8
0-4
  6
Continuous
 62
     2
370
     0
100
AcDbText
 10
-284.639134999868
 20
-37.75308980415961
 30
0.0
 40
9.144
  1
φ120
 41
1.1
  7
ＭＳ ゴシック
100
AcDbText
  0
TEXT
  5
5E9
330
1F
100
AcDbEntity
  8
0-4
  6
Continuous
 62
     2
370
     0
100
AcDbText
 10
-284.6392092318148
 20
-186.2530229954075
 30
0.0
 40
9.144
  1
φ147
 41
1.1
  7
ＭＳ ゴシック
100
AcDbText
  0
LWPOLYLINE
  5
5EA
330
1F
100
AcDbEntity
  8
1-E
  6
Continuous
 62
     7
370
     9
100
AcDbPolyline
 90
        4
 70
     1
 43
0.3
 10
122.5323506123311
 20
178.4413369668497
 42
0.4142135623731
 10
122.3823506123311
 20
178.5913369668497
 42
0.4142135623731
 10
122.2323506123311
 20
178.4413369668497
 42
0.4142135623731
 10
122.3823506123311
 20
178.2913369668497
 42
0.4142135623731
  0
LWPOLYLINE
  5
5EB
330
1F
100
AcDbEntity
  8
1-E
  6
Continuous
 62
     7
370
     9
100
AcDbPolyline
 90
        4
 70
     1
 43
0.3
 10
487.7824050490922
 20
163.4412874788852
 42
0.4142135623731
 10
487.6324050490922
 20
163.5912874788851
 42
0.4142135623731
 10
487.4824050490922
 20
163.4412874788852
 42
0.4142135623731
 10
487.6324050490922
 20
163.2912874788852
 42
0.4142135623731
  0
LWPOLYLINE
  5
5EC
330
1F
100
AcDbEntity
  8
1-E
  6
Continuous
 62
     7
370
     9
100
AcDbPolyline
 90
        4
 70
     1
 43
0.3
 10
122.5323506123311
 20
78.44129160288219
 42
0.4142135623731
 10
122.3823506123311
 20
78.5912916028822
 42
0.4142135623731
 10
122.2323506123311
 20
78.44129160288219
 42
0.4142135623731
 10
122.3823506123311
 20
78.29129160288218
 42
0.4142135623731
  0
LINE
  5
5ED
330
1F
100
AcDbEntity
  8
0-9
  6
Continuous
 62
     2
370
     9
100
AcDbLine
 10
-214.2782208421821
 20
-56.84319783560811
 30
0.0
 11
-213.5956580914431
 21
-56.33912580092694
 31
0.0
  0
LINE
  5
5EE
330
1F
100
AcDbEntity
  8
0-9
  6
Continuous
 62
     2
370
     9
100
AcDbLine
 10
-213.5956580914431
 20
-56.33912580092694
 30
0.0
 11
-208.8491189497624
 21
-57.05308866515838
 31
0.0
  0
LINE
  5
5EF
330
1F
100
AcDbEntity
  8
0-9
  6
Continuous
 62
     2
370
     9
100
AcDbLine
 10
-208.8491189497624
 20
-57.05308866515838
 30
0.0
 11
-208.344935567161
 21
-57.73531737213682
 31
0.0
  0
LINE
  5
5F0
330
1F
100
AcDbEntity
  8
0-9
  6
JWW_CENTER1
 62
     2
370
     9
100
AcDbLine
 10
-224.0057744206609
 20
-141.7100075386666
 30
0.0
 11
-210.9629478665698
 21
-54.97054851392315
 31
0.0
  0
LINE
  5
5F1
330
1F
100
AcDbEntity
  8
0-9
  6
Continuous
 62
     2
370
     9
100
AcDbLine
 10
-214.2782208421821
 20
-56.84319783560811
 30
0.0
 11
-208.344935567161
 21
-57.73542872005702
 31
0.0
  0
LINE
  5
5F2
330
1F
100
AcDbEntity
  8
0-9
  6
Continuous
 62
     2
370
     9
100
AcDbLine
 10
-215.5406230204814
 20
-101.552621377481
 30
0.0
 11
-208.8491189497624
 21
-57.05290308529139
 31
0.0
  0
LINE
  5
5F3
330
1F
100
AcDbEntity
  8
0-9
  6
Continuous
 62
     2
370
     9
100
AcDbLine
 10
-220.2871992781355
 20
-100.8391039049303
 30
0.0
 11
-213.5956580914431
 21
-56.33912580092694
 31
0.0
  0
LINE
  5
5F4
330
1F
100
AcDbEntity
  8
0-9
  6
Continuous
 62
     2
370
     9
100
AcDbLine
 10
-214.373423313941
 20
-57.47561690629014
 30
0.0
 11
-214.2782208421821
 21
-56.84319783560811
 31
0.0
  0
LINE
  5
5F5
330
1F
100
AcDbEntity
  8
0-9
  6
Continuous
 62
     2
370
     9
100
AcDbLine
 10
-220.8805352288323
 20
-100.7498028729413
 30
0.0
 11
-214.373423313941
 21
-57.47561690629014
 31
0.0
  0
LINE
  5
5F6
330
1F
100
AcDbEntity
  8
0-9
  6
Continuous
 62
     2
370
     9
100
AcDbLine
 10
-214.947138605891
 20
-101.6419595254434
 30
0.0
 11
-208.344935567161
 21
-57.73542872005702
 31
0.0
  0
LINE
  5
5F7
330
1F
100
AcDbEntity
  8
1-9
  6
Continuous
 62
     2
370
     9
100
AcDbLine
 10
340.3006211736158
 20
233.5634984185909
 30
0.0
 11
340.7556630074419
 21
233.8994722097648
 31
0.0
  0
LINE
  5
5F8
330
1F
100
AcDbEntity
  8
1-9
  6
Continuous
 62
     2
370
     9
100
AcDbLine
 10
340.7556630074419
 20
233.8994722097648
 30
0.0
 11
343.920022435229
 21
233.4234969669439
 31
0.0
  0
LINE
  5
5F9
330
1F
100
AcDbEntity
  8
1-9
  6
Continuous
 62
     2
370
     9
100
AcDbLine
 10
343.920022435229
 20
233.4234969669439
 30
0.0
 11
344.2561446902965
 21
232.968752060905
 31
0.0
  0
LINE
  5
5FA
330
1F
100
AcDbEntity
  8
1-9
  6
Continuous
 62
     2
370
     9
100
AcDbLine
 10
340.3006211736158
 20
233.5634984185909
 30
0.0
 11
344.2561446902965
 21
232.9686035970114
 31
0.0
  0
LINE
  5
5FB
330
1F
100
AcDbEntity
  8
1-9
  6
JWW_CENTER1
 62
     2
370
     9
100
AcDbLine
 10
333.8152746252113
 20
176.985537142367
 30
0.0
 11
342.5108031573573
 21
234.8119312997142
 31
0.0
  0
LINE
  5
5FC
330
1F
100
AcDbEntity
  8
1-9
  6
Continuous
 62
     2
370
     9
100
AcDbLine
 10
335.8988169077281
 20
204.2923897408151
 30
0.0
 11
340.3006211736158
 21
233.5634984185909
 31
0.0
  0
LINE
  5
5FD
330
1F
100
AcDbEntity
  8
1-9
  6
Continuous
 62
     2
370
     9
100
AcDbLine
 10
336.2943247202281
 20
204.2328557194891
 30
0.0
 11
340.7556630074419
 21
233.8994722097648
 31
0.0
  0
LINE
  5
5FE
330
1F
100
AcDbEntity
  8
1-9
  6
Continuous
 62
     2
370
     9
100
AcDbLine
 10
339.4586841480153
 20
203.7571774044552
 30
0.0
 11
343.920022435229
 21
233.4236454308374
 31
0.0
  0
LINE
  5
5FF
330
1F
100
AcDbEntity
  8
1-9
  6
Continuous
 62
     2
370
     9
100
AcDbLine
 10
339.8543404244089
 20
203.6976433831292
 30
0.0
 11
344.2561446902965
 21
232.9686035970114
 31
0.0
  0
LINE
  5
600
330
1F
100
AcDbEntity
  8
0-5
  6
Continuous
 62
     7
370
     9
100
AcDbLine
 10
-331.7364203027605
 20
-236.7824280201841
 30
0.0
 11
-201.0863757791629
 21
-236.7824280201841
 31
0.0
  0
LINE
  5
601
330
1F
100
AcDbEntity
  8
0-5
  6
Continuous
 62
     7
370
     9
100
AcDbLine
 10
-201.0863757791629
 20
-236.7824280201841
 30
0.0
 11
-201.0863757791629
 21
-253.7370139507272
 31
0.0
  0
LINE
  5
602
330
1F
100
AcDbEntity
  8
0-5
  6
Continuous
 62
     7
370
     9
100
AcDbLine
 10
-201.0863757791629
 20
-253.7370139507272
 30
0.0
 11
-331.7364203027605
 21
-253.7370139507272
 31
0.0
  0
LINE
  5
603
330
1F
100
AcDbEntity
  8
0-5
  6
Continuous
 62
     7
370
     9
100
AcDbLine
 10
-331.7364203027605
 20
-253.7370139507272
 30
0.0
 11
-331.7364203027605
 21
-236.7824280201841
 31
0.0
  0
TEXT
  5
604
330
1F
100
AcDbEntity
  8
0-5
  6
Continuous
 62
     2
370
     9
100
AcDbText
 10
-325.2537845057881
 20
-249.3854710596616
 30
0.0
 40
9.144
  1
詳細図　Ｓ＝１：２
 41
1.111111111111111
  7
ＭＳ ゴシック
100
AcDbText
  0
TEXT
  5
605
330
1F
100
AcDbEntity
  8
1-E
  6
Continuous
 62
     2
370
     0
100
AcDbText
 10
56.05738248993094
 20
266.2387210376645
 30
0.0
 40
9.144
  1
防塵網：ＣＲ－６５／７５
 41
1.114583333333333
  7
ＭＳ ゴシック
100
AcDbText
  0
LINE
  5
606
330
1F
100
AcDbEntity
  8
1-E
  6
Continuous
 62
     7
370
     9
100
AcDbLine
 10
53.47767321668725
 20
261.297625567462
 30
0.0
 11
218.8801698426944
 21
261.297625567462
 31
0.0
  0
TEXT
  5
607
330
1F
100
AcDbEntity
  8
F-4
  6
Continuous
 62
     2
370
     0
100
AcDbText
 10
218.3580250427486
 20
-215.9417311014266
 30
0.0
 40
9.144
  1
ＥＳＲＷ、ＥＤＳＲＷ、ＷＤＭＲ、
 41
1.1171875
  7
ＭＳ ゴシック
100
AcDbText
  0
TEXT
  5
608
330
1F
100
AcDbEntity
  8
F-4
  6
Continuous
 62
     2
370
     0
100
AcDbText
 10
218.1459811349143
 20
-230.9417805893912
 30
0.0
 40
9.144
  1
ＥＤＳＲ、ＥＤＭＲ、ＥＡＳＲ、
 41
1.116666666666667
  7
ＭＳ ゴシック
100
AcDbText
  0
TEXT
  5
609
330
1F
100
AcDbEntity
  8
F-4
  6
Continuous
 62
     2
370
     0
100
AcDbText
 10
218.1459811349143
 20
-245.9417558454089
 30
0.0
 40
9.144
  1
ＥＷＳＲ、ＥＳＳＲ、ＥＳＭＲ、
 41
1.116666666666667
  7
ＭＳ ゴシック
100
AcDbText
  0
TEXT
  5
60A
330
1F
100
AcDbEntity
  8
0-E
  6
Continuous
 62
     7
370
     9
100
AcDbText
 10
-166.5468289227447
 20
-232.3040623671067
 30
0.0
 40
6.858000000000001
  1
(SUS304CSP)
 41
1.151515151515151
  7
ＭＳ ゴシック
100
AcDbText
  0
TEXT
  5
60B
330
1F
100
AcDbEntity
  8
0-E
  6
Continuous
 62
     7
370
     9
100
AcDbText
 10
-167.0510200294288
 20
-215.3018288244299
 30
0.0
 40
6.858000000000001
  1
取付クリップ
 41
1.138888888888889
  7
ＭＳ ゴシック
100
AcDbText
  0
LINE
  5
60C
330
1F
100
AcDbEntity
  8
0-E
  6
Continuous
 62
     7
370
     9
100
AcDbLine
 10
-168.9901403478673
 20
-220.9450205210093
 30
0.0
 11
-104.58144091569
 21
-220.9450205210093
 31
0.0
  0
TEXT
  5
60D
330
1F
100
AcDbEntity
  8
0-E
  6
Continuous
 62
     7
370
     9
100
AcDbText
 10
-494.4230777481001
 20
-54.12868363334031
 30
0.0
 40
6.858000000000001
  1
(SUS304/電解研磨)
 41
1.156862745098039
  7
ＭＳ ゴシック
100
AcDbText
  0
TEXT
  5
60E
330
1F
100
AcDbEntity
  8
0-E
  6
Continuous
 62
     7
370
     9
100
AcDbText
 10
-492.731499264855
 20
-36.71071405854094
 30
0.0
 40
6.858000000000001
  1
金網:Φ0.7×5メッシュ
 41
1.15079365079365
  7
ＭＳ ゴシック
100
AcDbText
  0
LINE
  5
60F
330
1F
100
AcDbEntity
  8
0-E
  6
Continuous
 62
     7
370
     9
100
AcDbLine
 10
-382.4834833918391
 20
-42.4450997017525
 30
0.0
 11
-494.4997223855249
 21
-42.4450997017525
 31
0.0
  0
TEXT
  5
610
330
1F
100
AcDbEntity
  8
0-E
  6
Continuous
 62
     7
370
     9
100
AcDbText
 10
-168.4129473711993
 20
-23.00442175284532
 30
0.0
 40
6.858000000000001
  1
(SUS304)
 41
1.145833333333333
  7
ＭＳ ゴシック
100
AcDbText
  0
TEXT
  5
611
330
1F
100
AcDbEntity
  8
0-E
  6
Continuous
 62
     7
370
     9
100
AcDbText
 10
-168.4129473711993
 20
-8.33636894927148
 30
0.0
 40
6.858000000000001
  1
蝶ナット
 41
1.125
  7
ＭＳ ゴシック
100
AcDbText
  0
LINE
  5
612
330
1F
100
AcDbEntity
  8
0-E
  6
Continuous
 62
     7
370
     9
100
AcDbLine
 10
-169.3661622743348
 20
-12.44511207374367
 30
0.0
 11
-124.5953536891325
 21
-12.44511207374367
 31
0.0
  0
TEXT
  5
613
330
1F
100
AcDbEntity
  8
0-E
  6
Continuous
 62
     7
370
     9
100
AcDbText
 10
-148.6830448874516
 20
-56.11130758419547
 30
0.0
 40
6.858000000000001
  1
(SUS304/電解研磨)
 41
1.156862745098038
  7
ＭＳ ゴシック
100
AcDbText
  0
TEXT
  5
614
330
1F
100
AcDbEntity
  8
0-E
  6
Continuous
 62
     7
370
     9
100
AcDbText
 10
-147.7478597022664
 20
-39.16838535288219
 30
0.0
 40
6.858000000000001
  1
補強棒：Φ3
 41
1.151515151515151
  7
ＭＳ ゴシック
100
AcDbText
  0
LINE
  5
615
330
1F
100
AcDbEntity
  8
0-E
  6
Continuous
 62
     7
370
     9
100
AcDbLine
 10
-60.38134889007654
 20
-44.37873056772594
 30
0.0
 11
-149.9356903900971
 21
-44.37873056772594
 31
0.0
  0
TEXT
  5
616
330
1F
100
AcDbEntity
  8
0-4
  6
Continuous
 62
     2
370
     0
100
AcDbText
 10
148.860690555057
 20
-53.86275843274914
 30
0.0
 40
9.144
  1
※上図のルーフドレンは、ＥＳＲ－２－７５です。
 41
1.119565217391304
  7
ＭＳ ゴシック
100
AcDbText
  0
TEXT
  5
617
330
1F
100
AcDbEntity
  8
F-4
  6
Continuous
 62
     2
370
     0
100
AcDbText
 10
218.3580250427486
 20
-200.9417558454089
 30
0.0
 40
9.144
  1
ＷＨＲ、ＷＭＲ、ＥＳＲ、ＥＭＲ、ＥＰＭＲ、
 41
1.119047619047619
  7
ＭＳ ゴシック
100
AcDbText
  0
LINE
  5
618
330
1F
100
AcDbEntity
  8
F-4
  6
Continuous
 62
     7
370
     9
100
AcDbLine
 10
211.5068119058707
 20
-160.6780822152357
 30
0.0
 11
496.999128078167
 21
-160.6780822152357
 31
0.0
  0
LINE
  5
619
330
1F
100
AcDbEntity
  8
F-4
  6
Continuous
 62
     7
370
     9
100
AcDbLine
 10
211.5068119058707
 20
-181.6780772664393
 30
0.0
 11
496.999128078167
 21
-181.6780772664393
 31
0.0
  0
LINE
  5
61A
330
1F
100
AcDbEntity
  8
F-4
  6
Continuous
 62
     7
370
     9
100
AcDbLine
 10
211.5068119058707
 20
-184.6780871640322
 30
0.0
 11
496.999128078167
 21
-184.6780871640322
 31
0.0
  0
TEXT
  5
61B
330
1F
100
AcDbEntity
  8
F-4
  6
Continuous
 62
     2
370
     0
100
AcDbText
 10
270.6279699920188
 20
-175.4860797408375
 30
0.0
 40
9.144
  1
ＣＲ－６５／７５ 適用機種
 41
1.115
  7
ＭＳ ゴシック
100
AcDbText
  0
TEXT
  5
61C
330
1F
100
AcDbEntity
  8
F-5
  6
Continuous
 62
     6
370
     0
100
AcDbText
 10
-278.8369521196685
 20
-393.7171273350999
 30
0.0
 40
9.144
  1
ステンレス製　防塵網　たて引きルーフドレン用　バルコニー・庇・屋上用　ＣＲ－６５／７５
 41
0.7988372093023257
  7
ＭＳ ゴシック
100
AcDbText
  0
LINE
  5
61D
330
1F
100
AcDbEntity
  8
F-4
  6
Continuous
 62
     7
370
     9
100
AcDbLine
 10
211.5068119058707
 20
-160.6780822152357
 30
0.0
 11
211.5068119058707
 21
-285.7909115987026
 31
0.0
  0
LINE
  5
61E
330
1F
100
AcDbEntity
  8
F-4
  6
Continuous
 62
     7
370
     9
100
AcDbLine
 10
496.999128078167
 20
-285.7909115987026
 30
0.0
 11
496.999128078167
 21
-160.6780822152357
 31
0.0
  0
LINE
  5
61F
330
1F
100
AcDbEntity
  8
F-4
  6
Continuous
 62
     7
370
     9
100
AcDbLine
 10
211.5068119058707
 20
-285.7909115987026
 30
0.0
 11
496.999128078167
 21
-285.7909115987026
 31
0.0
  0
TEXT
  5
620
330
1F
100
AcDbEntity
  8
1-E
  6
Continuous
 62
     2
370
     0
100
AcDbText
 10
346.9381553454699
 20
268.1386503246411
 30
0.0
 40
9.144
  1
ルーフドレン
 41
1.104166666666667
  7
ＭＳ ゴシック
100
AcDbText
  0
LINE
  5
621
330
1F
100
AcDbEntity
  8
1-E
  6
Continuous
 62
     7
370
     9
100
AcDbLine
 10
342.4798539043803
 20
261.297625567462
 30
0.0
 11
428.4305295061886
 21
261.297625567462
 31
0.0
  0
LINE
  5
622
330
1F
100
AcDbEntity
  8
1-E
  6
Continuous
 62
     7
370
     9
100
AcDbLine
 10
342.4798539043803
 20
261.297625567462
 30
0.0
 11
304.8885943539696
 21
196.1876541056419
 31
0.0
  0
LINE
  5
623
330
1F
100
AcDbEntity
  8
1-E
  6
Continuous
 62
     7
370
     9
100
AcDbLine
 10
304.8885943539696
 20
196.1876541056419
 30
0.0
 11
309.454305071535
 21
202.1378041578261
 31
0.0
  0
LINE
  5
624
330
1F
100
AcDbEntity
  8
1-E
  6
Continuous
 62
     7
370
     9
100
AcDbLine
 10
304.8885943539696
 20
196.1876541056419
 30
0.0
 11
307.7587200967077
 21
203.1167505994765
 31
0.0
  0
TEXT
  5
625
330
1F
100
AcDbEntity
  8
F-4
  6
Continuous
 62
     2
370
     0
100
AcDbText
 10
218.1459885581089
 20
-262.027373499799
 30
0.0
 40
9.144
  1
ＥＤＳＳＲ、ＥＤＳＭＲ、
 41
1.114583333333333
  7
ＭＳ ゴシック
100
AcDbText
  0
TEXT
  5
626
330
1F
100
AcDbEntity
  8
F-4
  6
Continuous
 62
     2
370
     0
100
AcDbText
 10
218.1459885581089
 20
-277.0274229877635
 30
0.0
 40
9.144
  1
ＥＨＳＲ、ＥＨＭＲ、ＥＷＨＳＲ
 41
1.116666666666667
  7
ＭＳ ゴシック
100
AcDbText
  0
ENDSEC
  0
SECTION
  2
OBJECTS
  0
DICTIONARY
  5
C
330
0
100
AcDbDictionary
281
     1
  3
ACAD_GROUP
350
D
  3
ACAD_LAYOUT
350
1A
  3
ACAD_MLEADERSTYLE
350
628
  3
ACAD_MLINESTYLE
350
17
  3
ACAD_PLOTSETTINGS
350
19
  3
ACAD_PLOTSTYLENAME
350
E
  3
ACAD_TABLESTYLE
350
627
  3
ACAD_VISUALSTYLE
350
2A
  0
DICTIONARY
  5
D
102
{ACAD_REACTORS
330
C
102
}
330
C
100
AcDbDictionary
281
     1
  0
DICTIONARY
  5
1A
102
{ACAD_REACTORS
330
C
102
}
330
C
100
AcDbDictionary
281
     1
  3
Layout1
350
1E
  3
Layout2
350
26
  3
Model
350
22
  0
DICTIONARY
  5
628
102
{ACAD_REACTORS
330
C
102
}
330
C
100
AcDbDictionary
281
     1
  0
DICTIONARY
  5
17
102
{ACAD_REACTORS
330
C
102
}
330
C
100
AcDbDictionary
281
     1
  3
Standard
350
18
  0
DICTIONARY
  5
19
102
{ACAD_REACTORS
330
C
102
}
330
C
100
AcDbDictionary
281
     1
  0
ACDBDICTIONARYWDFLT
  5
E
102
{ACAD_REACTORS
330
C
102
}
330
C
100
AcDbDictionary
281
     1
  3
Normal
350
F
100
AcDbDictionaryWithDefault
340
F
  0
DICTIONARY
  5
627
102
{ACAD_REACTORS
330
C
102
}
330
C
100
AcDbDictionary
281
     1
  0
DICTIONARY
  5
2A
102
{ACAD_REACTORS
330
C
102
}
330
C
100
AcDbDictionary
281
     1
  3
2dWireframe
350
2F
  3
3D Hidden
350
31
  3
3dWireframe
350
30
  3
Basic
350
32
  3
Brighten
350
36
  3
ColorChange
350
3A
  3
Conceptual
350
34
  3
Dim
350
35
  3
Facepattern
350
39
  3
Flat
350
2B
  3
FlatWithEdges
350
2C
  3
Gouraud
350
2D
  3
GouraudWithEdges
350
2E
  3
Linepattern
350
38
  3
Realistic
350
33
  3
Thicken
350
37
  0
LAYOUT
  5
1E
102
{ACAD_REACTORS
330
1A
102
}
330
1A
100
AcDbPlotSettings
  1

  2
none_device
  4

  6

 40
0.0
 41
0.0
 42
0.0
 43
0.0
 44
0.0
 45
0.0
 46
0.0
 47
0.0
 48
0.0
 49
0.0
140
0.0
141
0.0
142
1.0
143
1.0
 70
   688
 72
     0
 73
     0
 74
     5
  7

 75
    16
 76
     0
 77
     5
 78
   300
147
1.0
148
0.0
149
0.0
100
AcDbLayout
  1
Layout1
 70
     1
 71
     1
 10
0.0
 20
0.0
 11
420.0
 21
297.0
 12
0.0
 22
0.0
 32
0.0
 14
1.000000000000000E+20
 24
1.000000000000000E+20
 34
1.000000000000000E+20
 15
-1.000000000000000E+20
 25
-1.000000000000000E+20
 35
-1.000000000000000E+20
146
0.0
 13
0.0
 23
0.0
 33
0.0
 16
1.0
 26
0.0
 36
0.0
 17
0.0
 27
1.0
 37
0.0
 76
     0
330
1B
  0
LAYOUT
  5
26
102
{ACAD_REACTORS
330
1A
102
}
330
1A
100
AcDbPlotSettings
  1

  2
none_device
  4

  6

 40
0.0
 41
0.0
 42
0.0
 43
0.0
 44
0.0
 45
0.0
 46
0.0
 47
0.0
 48
0.0
 49
0.0
140
0.0
141
0.0
142
1.0
143
1.0
 70
   688
 72
     0
 73
     0
 74
     5
  7

 75
    16
 76
     0
 77
     5
 78
   300
147
1.0
148
0.0
149
0.0
100
AcDbLayout
  1
Layout2
 70
     1
 71
     2
 10
0.0
 20
0.0
 11
0.0
 21
0.0
 12
0.0
 22
0.0
 32
0.0
 14
0.0
 24
0.0
 34
0.0
 15
0.0
 25
0.0
 35
0.0
146
0.0
 13
0.0
 23
0.0
 33
0.0
 16
1.0
 26
0.0
 36
0.0
 17
0.0
 27
1.0
 37
0.0
 76
     0
330
23
  0
LAYOUT
  5
22
102
{ACAD_REACTORS
330
1A
102
}
330
1A
100
AcDbPlotSettings
  1

  2
none_device
  4

  6

 40
0.0
 41
0.0
 42
0.0
 43
0.0
 44
0.0
 45
0.0
 46
0.0
 47
0.0
 48
0.0
 49
0.0
140
0.0
141
0.0
142
1.0
143
1.0
 70
  1712
 72
     0
 73
     0
 74
     0
  7

 75
     0
 76
     0
 77
     5
 78
   300
147
1.0
148
0.0
149
0.0
100
AcDbLayout
  1
Model
 70
     1
 71
     0
 10
-630.0
 20
-445.5
 11
630.0
 21
445.5
 12
0.0
 22
0.0
 32
0.0
 14
-630.0
 24
-445.5
 34
0.0
 15
630.0
 25
445.5
 35
0.0
146
0.0
 13
0.0
 23
0.0
 33
0.0
 16
1.0
 26
0.0
 36
0.0
 17
0.0
 27
1.0
 37
0.0
 76
     0
330
1F
331
29
  0
MLINESTYLE
  5
18
102
{ACAD_REACTORS
330
17
102
}
330
17
100
AcDbMlineStyle
  2
Standard
 70
     0
  3

 62
   256
 51
90.0
 52
90.0
 71
     2
 49
0.5
 62
   256
  6
BYLAYER
 49
-0.5
 62
   256
  6
BYLAYER
  0
ACDBPLACEHOLDER
  5
F
102
{ACAD_REACTORS
330
E
102
}
330
E
  0
VISUALSTYLE
  5
2F
102
{ACAD_REACTORS
330
2A
102
}
330
2A
100
AcDbVisualStyle
  2
2dWireframe
 70
     4
 71
     0
 72
     2
 73
     0
 90
        0
 40
-0.6
 41
-30.0
 62
     5
 63
     7
421
 16777215
 74
     1
 91
        4
 64
     7
 65
   257
 75
     1
175
     1
 42
1.0
 92
        0
 66
   257
 43
1.0
 76
     1
 77
     6
 78
     2
 67
     7
 79
     5
170
     0
171
     0
290
     0
174
     0
 93
        1
 44
0.0
173
     0
291
     0
 45
0.0
1001
ACAD
1000
AcDbSavedByObjectVersion
1070
     0
  0
VISUALSTYLE
  5
31
102
{ACAD_REACTORS
330
2A
102
}
330
2A
100
AcDbVisualStyle
  2
3D Hidden
 70
     6
 71
     1
 72
     2
 73
     2
 90
        0
 40
-0.6
 41
-30.0
 62
     5
 63
     7
421
 16777215
 74
     2
 91
        2
 64
     7
 65
   257
 75
     2
175
     1
 42
40.0
 92
        0
 66
   257
 43
1.0
 76
     1
 77
     6
 78
     2
 67
     7
 79
     3
170
     0
171
     0
290
     0
174
     0
 93
        1
 44
0.0
173
     0
291
     0
 45
0.0
1001
ACAD
1000
AcDbSavedByObjectVersion
1070
     0
  0
VISUALSTYLE
  5
30
102
{ACAD_REACTORS
330
2A
102
}
330
2A
100
AcDbVisualStyle
  2
3dWireframe
 70
     5
 71
     0
 72
     2
 73
     0
 90
        0
 40
-0.6
 41
-30.0
 62
     5
 63
     7
421
 16777215
 74
     1
 91
        4
 64
     7
 65
   257
 75
     1
175
     1
 42
1.0
 92
        0
 66
   257
 43
1.0
 76
     1
 77
     6
 78
     2
 67
     7
 79
     5
170
     0
171
     0
290
     0
174
     0
 93
        1
 44
0.0
173
     0
291
     0
 45
0.0
1001
ACAD
1000
AcDbSavedByObjectVersion
1070
     0
  0
VISUALSTYLE
  5
32
102
{ACAD_REACTORS
330
2A
102
}
330
2A
100
AcDbVisualStyle
  2
Basic
 70
     7
 71
     1
 72
     0
 73
     1
 90
        0
 40
-0.6
 41
-30.0
 62
     5
 63
     7
421
 16777215
 74
     0
 91
        4
 64
     7
 65
   257
 75
     1
175
     1
 42
1.0
 92
        8
 66
     7
 43
1.0
 76
     1
 77
     6
 78
     2
 67
     7
 79
     5
170
     0
171
     0
290
     0
174
     0
 93
        1
 44
0.0
173
     0
291
     1
 45
0.0
1001
ACAD
1000
AcDbSavedByObjectVersion
1070
     0
  0
VISUALSTYLE
  5
36
102
{ACAD_REACTORS
330
2A
102
}
330
2A
100
AcDbVisualStyle
  2
Brighten
 70
    12
 71
     2
 72
     2
 73
     0
 90
        0
 40
-0.6
 41
-30.0
 62
     5
 63
     7
421
 16777215
 74
     1
 91
        4
 64
     7
 65
   257
 75
     1
175
     1
 42
1.0
 92
        8
 66
     7
 43
1.0
 76
     1
 77
     6
 78
     2
 67
     7
 79
     5
170
     0
171
     0
290
     0
174
     0
 93
        1
 44
50.0
173
     0
291
     1
 45
0.0
1001
ACAD
1000
AcDbSavedByObjectVersion
1070
     0
  0
VISUALSTYLE
  5
3A
102
{ACAD_REACTORS
330
2A
102
}
330
2A
100
AcDbVisualStyle
  2
ColorChange
 70
    16
 71
     2
 72
     2
 73
     3
 90
        0
 40
-0.6
 41
-30.0
 62
     5
 63
     8
421
  8421504
 74
     1
 91
        4
 64
     7
 65
   257
 75
     1
175
     1
 42
1.0
 92
        8
 66
     8
424
  8421504
 43
1.0
 76
     1
 77
     6
 78
     2
 67
     7
 79
     5
170
     0
171
     0
290
     0
174
     0
 93
        1
 44
0.0
173
     0
291
     1
 45
0.0
1001
ACAD
1000
AcDbSavedByObjectVersion
1070
     0
  0
VISUALSTYLE
  5
34
102
{ACAD_REACTORS
330
2A
102
}
330
2A
100
AcDbVisualStyle
  2
Conceptual
 70
     9
 71
     3
 72
     2
 73
     0
 90
        0
 40
-0.6
 41
-30.0
 62
     5
 63
     7
421
 16777215
 74
     2
 91
        2
 64
     7
 65
   257
 75
     1
175
     1
 42
40.0
 92
        8
 66
     7
 43
1.0
 76
     1
 77
     6
 78
     2
 67
     7
 79
     3
170
     0
171
     0
290
     0
174
     0
 93
        1
 44
0.0
173
     0
291
     0
 45
0.0
1001
ACAD
1000
AcDbSavedByObjectVersion
1070
     0
  0
VISUALSTYLE
  5
35
102
{ACAD_REACTORS
330
2A
102
}
330
2A
100
AcDbVisualStyle
  2
Dim
 70
    11
 71
     2
 72
     2
 73
     0
 90
        0
 40
-0.6
 41
-30.0
 62
     5
 63
     7
421
 16777215
 74
     1
 91
        4
 64
     7
 65
   257
 75
     1
175
     1
 42
1.0
 92
        8
 66
     7
 43
1.0
 76
     1
 77
     6
 78
     2
 67
     7
 79
     5
170
     0
171
     0
290
     0
174
     0
 93
        1
 44
-50.0
173
     0
291
     1
 45
0.0
1001
ACAD
1000
AcDbSavedByObjectVersion
1070
     0
  0
VISUALSTYLE
  5
39
102
{ACAD_REACTORS
330
2A
102
}
330
2A
100
AcDbVisualStyle
  2
Facepattern
 70
    15
 71
     2
 72
     2
 73
     0
 90
        0
 40
-0.6
 41
-30.0
 62
     5
 63
     7
421
 16777215
 74
     1
 91
        4
 64
     7
 65
   257
 75
     1
175
     1
 42
1.0
 92
        8
 66
     7
 43
1.0
 76
     1
 77
     6
 78
     2
 67
     7
 79
     5
170
     0
171
     0
290
     0
174
     0
 93
        1
 44
0.0
173
     0
291
     1
 45
0.0
1001
ACAD
1000
AcDbSavedByObjectVersion
1070
     0
  0
VISUALSTYLE
  5
2B
102
{ACAD_REACTORS
330
2A
102
}
330
2A
100
AcDbVisualStyle
  2
Flat
 70
     0
 71
     2
 72
     1
 73
     1
 90
        2
 40
-0.6
 41
30.0
 62
     5
 63
     7
421
 16777215
 74
     0
 91
        4
 64
     7
 65
   257
 75
     1
175
     1
 42
1.0
 92
        8
 66
     7
 43
1.0
 76
     1
 77
     6
 78
     2
 67
     7
 79
     5
170
     0
171
     0
290
     0
174
     0
 93
       13
 44
0.0
173
     0
291
     1
 45
0.0
1001
ACAD
1000
AcDbSavedByObjectVersion
1070
     0
  0
VISUALSTYLE
  5
2C
102
{ACAD_REACTORS
330
2A
102
}
330
2A
100
AcDbVisualStyle
  2
FlatWithEdges
 70
     1
 71
     2
 72
     1
 73
     1
 90
        2
 40
-0.6
 41
30.0
 62
     5
 63
     7
421
 16777215
 74
     1
 91
        4
 64
     7
 65
   257
 75
     1
175
     1
 42
1.0
 92
        0
 66
   257
 43
1.0
 76
     1
 77
     6
 78
     2
 67
     7
 79
     5
170
     0
171
     0
290
     0
174
     0
 93
       13
 44
0.0
173
     0
291
     1
 45
0.0
1001
ACAD
1000
AcDbSavedByObjectVersion
1070
     0
  0
VISUALSTYLE
  5
2D
102
{ACAD_REACTORS
330
2A
102
}
330
2A
100
AcDbVisualStyle
  2
Gouraud
 70
     2
 71
     2
 72
     2
 73
     1
 90
        2
 40
-0.6
 41
30.0
 62
     5
 63
     7
421
 16777215
 74
     0
 91
        4
 64
     7
 65
   257
 75
     1
175
     1
 42
1.0
 92
        0
 66
     7
 43
1.0
 76
     1
 77
     6
 78
     2
 67
     7
 79
     5
170
     0
171
     0
290
     0
174
     0
 93
       13
 44
0.0
173
     0
291
     1
 45
0.0
1001
ACAD
1000
AcDbSavedByObjectVersion
1070
     0
  0
VISUALSTYLE
  5
2E
102
{ACAD_REACTORS
330
2A
102
}
330
2A
100
AcDbVisualStyle
  2
GouraudWithEdges
 70
     3
 71
     2
 72
     2
 73
     1
 90
        2
 40
-0.6
 41
30.0
 62
     5
 63
     7
421
 16777215
 74
     1
 91
        4
 64
     7
 65
   257
 75
     1
175
     1
 42
1.0
 92
        0
 66
   257
 43
1.0
 76
     1
 77
     6
 78
     2
 67
     7
 79
     5
170
     0
171
     0
290
     0
174
     0
 93
       13
 44
0.0
173
     0
291
     1
 45
0.0
1001
ACAD
1000
AcDbSavedByObjectVersion
1070
     0
  0
VISUALSTYLE
  5
38
102
{ACAD_REACTORS
330
2A
102
}
330
2A
100
AcDbVisualStyle
  2
Linepattern
 70
    14
 71
     2
 72
     2
 73
     0
 90
        0
 40
-0.6
 41
-30.0
 62
     5
 63
     7
421
 16777215
 74
     1
 91
        4
 64
     7
 65
   257
 75
     7
175
     7
 42
1.0
 92
        8
 66
     7
 43
1.0
 76
     1
 77
     6
 78
     2
 67
     7
 79
     5
170
     0
171
     0
290
     0
174
     0
 93
        1
 44
0.0
173
     0
291
     1
 45
0.0
1001
ACAD
1000
AcDbSavedByObjectVersion
1070
     0
  0
VISUALSTYLE
  5
33
102
{ACAD_REACTORS
330
2A
102
}
330
2A
100
AcDbVisualStyle
  2
Realistic
 70
     8
 71
     2
 72
     2
 73
     0
 90
        0
 40
-0.6
 41
-30.0
 62
     5
 63
     7
421
 16777215
 74
     1
 91
        0
 64
     7
 65
   257
 75
     1
175
     1
 42
1.0
 92
        8
 66
     8
424
  7895160
 43
1.0
 76
     1
 77
     6
 78
     2
 67
     7
 79
     5
170
     0
171
     0
290
     0
174
     0
 93
       13
 44
0.0
173
     0
291
     0
 45
0.0
1001
ACAD
1000
AcDbSavedByObjectVersion
1070
     0
  0
VISUALSTYLE
  5
37
102
{ACAD_REACTORS
330
2A
102
}
330
2A
100
AcDbVisualStyle
  2
Thicken
 70
    13
 71
     2
 72
     2
 73
     0
 90
        0
 40
-0.6
 41
-30.0
 62
     5
 63
     7
421
 16777215
 74
     1
 91
        4
 64
     7
 65
   257
 75
     1
175
     1
 42
1.0
 92
       12
 66
     7
 43
1.0
 76
     1
 77
     6
 78
     2
 67
     7
 79
     5
170
     0
171
     0
290
     0
174
     0
 93
        1
 44
0.0
173
     0
291
     1
 45
0.0
1001
ACAD
1000
AcDbSavedByObjectVersion
1070
     0
  0
ENDSEC
  0
EOF
