  0
SECTION
  2
HEADER
  9
$ACADVER
  1
AC1018
  9
$ACADMAINTVER
 70
     0
  9
$DWGCODEPAGE
  3
ANSI_932
  9
$INSBASE
 10
0.0
 20
0.0
 30
0.0
  9
$EXTMIN
 10
-630.0
 20
-445.5
 30
0.0
  9
$EXTMAX
 10
630.0
 20
445.5
 30
0.0
  9
$LIMMIN
 10
-630.0
 20
-445.5
  9
$LIMMAX
 10
630.0
 20
445.5
  9
$ORTHOMODE
 70
     0
  9
$REGENMODE
 70
     1
  9
$FILLMODE
 70
     1
  9
$QTEXTMODE
 70
     0
  9
$MIRRTEXT
 70
     1
  9
$LTSCALE
 40
3.0
  9
$ATTMODE
 70
     1
  9
$TEXTSIZE
 40
2.5
  9
$TRACEWID
 40
1.0
  9
$TEXTSTYLE
  7
Standard
  9
$CLAYER
  8
0
  9
$CELTYPE
  6
ByLayer
  9
$CECOLOR
 62
   256
  9
$CELTSCALE
 40
1.0
  9
$DISPSILH
 70
     0
  9
$DIMSCALE
 40
1.0
  9
$DIMASZ
 40
2.5
  9
$DIMEXO
 40
0.625
  9
$DIMDLI
 40
3.75
  9
$DIMRND
 40
0.0
  9
$DIMDLE
 40
0.0
  9
$DIMEXE
 40
1.25
  9
$DIMTP
 40
0.0
  9
$DIMTM
 40
0.0
  9
$DIMTXT
 40
2.5
  9
$DIMCEN
 40
2.5
  9
$DIMTSZ
 40
0.0
  9
$DIMTOL
 70
     0
  9
$DIMLIM
 70
     0
  9
$DIMTIH
 70
     0
  9
$DIMTOH
 70
     0
  9
$DIMSE1
 70
     0
  9
$DIMSE2
 70
     0
  9
$DIMTAD
 70
     1
  9
$DIMZIN
 70
     8
  9
$DIMBLK
  1

  9
$DIMASO
 70
     1
  9
$DIMSHO
 70
     1
  9
$DIMPOST
  1

  9
$DIMAPOST
  1

  9
$DIMALT
 70
     0
  9
$DIMALTD
 70
     3
  9
$DIMALTF
 40
0.03937007874016
  9
$DIMLFAC
 40
1.0
  9
$DIMTOFL
 70
     1
  9
$DIMTVP
 40
0.0
  9
$DIMTIX
 70
     0
  9
$DIMSOXD
 70
     0
  9
$DIMSAH
 70
     0
  9
$DIMBLK1
  1

  9
$DIMBLK2
  1

  9
$DIMSTYLE
  2
ISO-25
  9
$DIMCLRD
 70
     0
  9
$DIMCLRE
 70
     0
  9
$DIMCLRT
 70
     0
  9
$DIMTFAC
 40
1.0
  9
$DIMGAP
 40
0.625
  9
$DIMJUST
 70
     0
  9
$DIMSD1
 70
     0
  9
$DIMSD2
 70
     0
  9
$DIMTOLJ
 70
     0
  9
$DIMTZIN
 70
     8
  9
$DIMALTZ
 70
     0
  9
$DIMALTTZ
 70
     0
  9
$DIMUPT
 70
     0
  9
$DIMDEC
 70
     2
  9
$DIMTDEC
 70
     2
  9
$DIMALTU
 70
     2
  9
$DIMALTTD
 70
     3
  9
$DIMTXSTY
  7
Standard
  9
$DIMAUNIT
 70
     0
  9
$DIMADEC
 70
     0
  9
$DIMALTRND
 40
0.0
  9
$DIMAZIN
 70
     0
  9
$DIMDSEP
 70
    44
  9
$DIMATFIT
 70
     3
  9
$DIMFRAC
 70
     0
  9
$DIMLDRBLK
  1

  9
$DIMLUNIT
 70
     2
  9
$DIMLWD
 70
    -2
  9
$DIMLWE
 70
    -2
  9
$DIMTMOVE
 70
     0
  9
$LUNITS
 70
     2
  9
$LUPREC
 70
     4
  9
$SKETCHINC
 40
1.0
  9
$FILLETRAD
 40
10.0
  9
$AUNITS
 70
     0
  9
$AUPREC
 70
     0
  9
$MENU
  1
.
  9
$ELEVATION
 40
0.0
  9
$PELEVATION
 40
0.0
  9
$THICKNESS
 40
0.0
  9
$LIMCHECK
 70
     0
  9
$CHAMFERA
 40
0.0
  9
$CHAMFERB
 40
0.0
  9
$CHAMFERC
 40
0.0
  9
$CHAMFERD
 40
0.0
  9
$SKPOLY
 70
     0
  9
$TDCREATE
 40
2460109.389560266
  9
$TDUCREATE
 40
2460109.014560266
  9
$TDUPDATE
 40
2460109.389560405
  9
$TDUUPDATE
 40
2460109.014560405
  9
$TDINDWG
 40
0.0000000116
  9
$TDUSRTIMER
 40
0.0000000116
  9
$USRTIMER
 70
     1
  9
$ANGBASE
 50
0.0
  9
$ANGDIR
 70
     0
  9
$PDMODE
 70
     0
  9
$PDSIZE
 40
0.0
  9
$PLINEWID
 40
0.0
  9
$SPLFRAME
 70
     0
  9
$SPLINETYPE
 70
     6
  9
$SPLINESEGS
 70
     8
  9
$HANDSEED
  5
3C5
  9
$SURFTAB1
 70
     6
  9
$SURFTAB2
 70
     6
  9
$SURFTYPE
 70
     6
  9
$SURFU
 70
     6
  9
$SURFV
 70
     6
  9
$UCSBASE
  2

  9
$UCSNAME
  2

  9
$UCSORG
 10
0.0
 20
0.0
 30
0.0
  9
$UCSXDIR
 10
1.0
 20
0.0
 30
0.0
  9
$UCSYDIR
 10
0.0
 20
1.0
 30
0.0
  9
$UCSORTHOREF
  2

  9
$UCSORTHOVIEW
 70
     0
  9
$UCSORGTOP
 10
0.0
 20
0.0
 30
0.0
  9
$UCSORGBOTTOM
 10
0.0
 20
0.0
 30
0.0
  9
$UCSORGLEFT
 10
0.0
 20
0.0
 30
0.0
  9
$UCSORGRIGHT
 10
0.0
 20
0.0
 30
0.0
  9
$UCSORGFRONT
 10
0.0
 20
0.0
 30
0.0
  9
$UCSORGBACK
 10
0.0
 20
0.0
 30
0.0
  9
$PUCSBASE
  2

  9
$PUCSNAME
  2

  9
$PUCSORG
 10
0.0
 20
0.0
 30
0.0
  9
$PUCSXDIR
 10
1.0
 20
0.0
 30
0.0
  9
$PUCSYDIR
 10
0.0
 20
1.0
 30
0.0
  9
$PUCSORTHOREF
  2

  9
$PUCSORTHOVIEW
 70
     0
  9
$PUCSORGTOP
 10
0.0
 20
0.0
 30
0.0
  9
$PUCSORGBOTTOM
 10
0.0
 20
0.0
 30
0.0
  9
$PUCSORGLEFT
 10
0.0
 20
0.0
 30
0.0
  9
$PUCSORGRIGHT
 10
0.0
 20
0.0
 30
0.0
  9
$PUCSORGFRONT
 10
0.0
 20
0.0
 30
0.0
  9
$PUCSORGBACK
 10
0.0
 20
0.0
 30
0.0
  9
$USERI1
 70
     0
  9
$USERI2
 70
     0
  9
$USERI3
 70
     0
  9
$USERI4
 70
     0
  9
$USERI5
 70
     0
  9
$USERR1
 40
0.0
  9
$USERR2
 40
0.0
  9
$USERR3
 40
0.0
  9
$USERR4
 40
0.0
  9
$USERR5
 40
0.0
  9
$WORLDVIEW
 70
     1
  9
$SHADEDGE
 70
     3
  9
$SHADEDIF
 70
    70
  9
$TILEMODE
 70
     1
  9
$MAXACTVP
 70
    64
  9
$PINSBASE
 10
0.0
 20
0.0
 30
0.0
  9
$PLIMCHECK
 70
     0
  9
$PEXTMIN
 10
1.000000000000000E+20
 20
1.000000000000000E+20
 30
1.000000000000000E+20
  9
$PEXTMAX
 10
-1.000000000000000E+20
 20
-1.000000000000000E+20
 30
-1.000000000000000E+20
  9
$PLIMMIN
 10
0.0
 20
0.0
  9
$PLIMMAX
 10
420.0
 20
297.0
  9
$UNITMODE
 70
     0
  9
$VISRETAIN
 70
     1
  9
$PLINEGEN
 70
     0
  9
$PSLTSCALE
 70
     1
  9
$TREEDEPTH
 70
  3020
  9
$CMLSTYLE
  2
Standard
  9
$CMLJUST
 70
     0
  9
$CMLSCALE
 40
20.0
  9
$PROXYGRAPHICS
 70
     1
  9
$MEASUREMENT
 70
     1
  9
$CELWEIGHT
370
    -1
  9
$ENDCAPS
280
     0
  9
$JOINSTYLE
280
     0
  9
$LWDISPLAY
290
     0
  9
$INSUNITS
 70
     4
  9
$HYPERLINKBASE
  1

  9
$STYLESHEET
  1

  9
$XEDIT
290
     1
  9
$CEPSNTYPE
380
     0
  9
$PSTYLEMODE
290
     1
  9
$FINGERPRINTGUID
  2
{D8BD2808-5ED5-4164-BEC4-443513FC6FDF}
  9
$VERSIONGUID
  2
{FAEB1C32-E019-11D5-929B-00C0DF256EC4}
  9
$EXTNAMES
290
     1
  9
$PSVPSCALE
 40
0.0
  9
$OLESTARTUP
290
     0
  9
$SORTENTS
280
   127
  9
$INDEXCTL
280
     0
  9
$HIDETEXT
280
     1
  9
$XCLIPFRAME
290
     0
  9
$HALOGAP
280
     0
  9
$OBSCOLOR
 70
   257
  9
$OBSLTYPE
280
     0
  9
$INTERSECTIONDISPLAY
280
     0
  9
$INTERSECTIONCOLOR
 70
   257
  9
$DIMASSOC
280
     2
  9
$PROJECTNAME
  1

  0
ENDSEC
  0
SECTION
  2
CLASSES
  0
CLASS
  1
ACDBDICTIONARYWDFLT
  2
AcDbDictionaryWithDefault
  3
ObjectDBX Classes
 90
        0
 91
        4
280
     0
281
     0
  0
CLASS
  1
VISUALSTYLE
  2
AcDbVisualStyle
  3
ObjectDBX Classes
 90
     4095
 91
        4
280
     0
281
     0
  0
CLASS
  1
MATERIAL
  2
AcDbMaterial
  3
ObjectDBX Classes
 90
     1153
 91
        4
280
     0
281
     0
  0
CLASS
  1
SCALE
  2
AcDbScale
  3
ObjectDBX Classes
 90
     1153
 91
        4
280
     0
281
     0
  0
CLASS
  1
TABLESTYLE
  2
AcDbTableStyle
  3
ObjectDBX Classes
 90
     4095
 91
        4
280
     0
281
     0
  0
CLASS
  1
MLEADERSTYLE
  2
AcDbMLeaderStyle
  3
ACDB_MLEADERSTYLE_CLASS
 90
     4095
 91
        4
280
     0
281
     0
  0
CLASS
  1
SUN
  2
AcDbSun
  3
SCENEOE
 90
     1153
 91
        4
280
     0
281
     0
  0
CLASS
  1
DICTIONARYVAR
  2
AcDbDictionaryVar
  3
ObjectDBX Classes
 90
        0
 91
        4
280
     0
281
     0
  0
CLASS
  1
CELLSTYLEMAP
  2
AcDbCellStyleMap
  3
ObjectDBX Classes
 90
     1152
 91
        4
280
     0
281
     0
  0
ENDSEC
  0
SECTION
  2
TABLES
  0
TABLE
  2
VPORT
  5
8
102
{ACAD_XDICTIONARY
360
37C
102
}
330
0
100
AcDbSymbolTable
 70
     1
  0
VPORT
  5
29
330
8
100
AcDbSymbolTableRecord
100
AcDbViewportTableRecord
  2
*Active
 70
     0
 10
0.0
 20
0.0
 11
1.0
 21
1.0
 12
0.0
 22
0.0
 13
0.0
 23
0.0
 14
10.0
 24
10.0
 15
10.0
 25
10.0
 16
0.0
 26
0.0
 36
1.0
 17
0.0
 27
0.0
 37
0.0
 40
980.1
 41
1.414141414141414
 42
50.0
 43
0.0
 44
0.0
 50
0.0
 51
0.0
 71
     0
 72
 10000
 73
     1
 74
     3
 75
     0
 76
     0
 77
     0
 78
     0
281
     0
 65
     1
110
0.0
120
0.0
130
0.0
111
1.0
121
0.0
131
0.0
112
0.0
122
1.0
132
0.0
 79
     0
146
0.0
  0
ENDTAB
  0
TABLE
  2
LTYPE
  5
5
330
0
100
AcDbSymbolTable
 70
     3
  0
LTYPE
  5
14
330
5
100
AcDbSymbolTableRecord
100
AcDbLinetypeTableRecord
  2
ByBlock
 70
     0
  3

 72
    65
 73
     0
 40
0.0
  0
LTYPE
  5
15
330
5
100
AcDbSymbolTableRecord
100
AcDbLinetypeTableRecord
  2
ByLayer
 70
     0
  3

 72
    65
 73
     0
 40
0.0
  0
LTYPE
  5
16
330
5
100
AcDbSymbolTableRecord
100
AcDbLinetypeTableRecord
  2
Continuous
 70
     0
  3
Solid line
 72
    65
 73
     0
 40
0.0
  0
LTYPE
  5
6F
330
5
100
AcDbSymbolTableRecord
100
AcDbLinetypeTableRecord
  2
JWW_DASHED1
 70
     0
  3
-  --  --  --  --  --  --  --  -
 72
    65
 73
     2
 40
1.693333333333333
 49
0.8466666666666667
 74
     0
 49
-0.8466666666666667
 74
     0
  0
LTYPE
  5
70
330
5
100
AcDbSymbolTableRecord
100
AcDbLinetypeTableRecord
  2
JWW_CENTER1
 70
     0
  3
-----  --  ----------  --  -----
 72
    65
 73
     4
 40
6.773333333333333
 49
4.233333333333333
 74
     0
 49
-0.8466666666666667
 74
     0
 49
0.8466666666666667
 74
     0
 49
-0.8466666666666667
 74
     0
  0
ENDTAB
  0
TABLE
  2
LAYER
  5
2
330
0
100
AcDbSymbolTable
 70
    10
  0
LAYER
  5
10
330
2
100
AcDbSymbolTableRecord
100
AcDbLayerTableRecord
  2
0
 70
     0
 62
     7
  6
Continuous
370
    -3
390
F
  0
LAYER
  5
71
330
2
100
AcDbSymbolTableRecord
100
AcDbLayerTableRecord
  2
その他
 70
     0
 62
     7
  6
Continuous
370
    -3
390
F
  0
LAYER
  5
72
330
2
100
AcDbSymbolTableRecord
100
AcDbLayerTableRecord
  2
通り芯
 70
     0
 62
     7
  6
Continuous
370
    -3
390
F
  0
LAYER
  5
73
330
2
100
AcDbSymbolTableRecord
100
AcDbLayerTableRecord
  2
躯体
 70
     0
 62
     7
  6
Continuous
370
    -3
390
F
  0
LAYER
  5
74
330
2
100
AcDbSymbolTableRecord
100
AcDbLayerTableRecord
  2
仕上
 70
     0
 62
     7
  6
Continuous
370
    -3
390
F
  0
LAYER
  5
75
330
2
100
AcDbSymbolTableRecord
100
AcDbLayerTableRecord
  2
建具
 70
     0
 62
     7
  6
Continuous
370
    -3
390
F
  0
LAYER
  5
76
330
2
100
AcDbSymbolTableRecord
100
AcDbLayerTableRecord
  2
寸法
 70
     0
 62
     7
  6
Continuous
370
    -3
390
F
  0
LAYER
  5
77
330
2
100
AcDbSymbolTableRecord
100
AcDbLayerTableRecord
  2
0-A
 70
     0
 62
     7
  6
Continuous
370
    -3
390
F
  0
LAYER
  5
78
330
2
100
AcDbSymbolTableRecord
100
AcDbLayerTableRecord
  2
F-4ﾚｲﾔ
 70
     0
 62
     7
  6
Continuous
370
    -3
390
F
  0
LAYER
  5
79
330
2
100
AcDbSymbolTableRecord
100
AcDbLayerTableRecord
  2
F-5ﾚｲﾔ
 70
     0
 62
     7
  6
Continuous
370
    -3
390
F
  0
ENDTAB
  0
TABLE
  2
STYLE
  5
3
330
0
100
AcDbSymbolTable
 70
     2
  0
STYLE
  5
11
330
3
100
AcDbSymbolTableRecord
100
AcDbTextStyleTableRecord
  2
Standard
 70
     0
 40
0.0
 41
1.0
 50
0.0
 71
     0
 42
2.5
  3
txt
  4

  0
STYLE
  5
6E
330
3
100
AcDbSymbolTableRecord
100
AcDbTextStyleTableRecord
  2
ＭＳ ゴシック
 70
     0
 40
1.0
 41
1.0
 50
0.0
 71
     0
 42
2.5
  3

  4

1001
ACAD
1000
MS Gothic
1071
    32817
  0
ENDTAB
  0
TABLE
  2
VIEW
  5
6
330
0
100
AcDbSymbolTable
 70
     0
  0
ENDTAB
  0
TABLE
  2
UCS
  5
7
330
0
100
AcDbSymbolTable
 70
     0
  0
ENDTAB
  0
TABLE
  2
APPID
  5
9
330
0
100
AcDbSymbolTable
 70
     2
  0
APPID
  5
12
330
9
100
AcDbSymbolTableRecord
100
AcDbRegAppTableRecord
  2
ACAD
 70
     0
  0
APPID
  5
3BB
330
9
100
AcDbSymbolTableRecord
100
AcDbRegAppTableRecord
  2
ACAD_MLEADERVER
 70
     0
  0
ENDTAB
  0
TABLE
  2
DIMSTYLE
  5
A
330
0
100
AcDbSymbolTable
 70
     1
100
AcDbDimStyleTable
  0
DIMSTYLE
105
27
330
A
100
AcDbSymbolTableRecord
100
AcDbDimStyleTableRecord
  2
ISO-25
 70
     0
 41
2.5
 42
0.625
 43
3.75
 44
1.25
 73
     0
 74
     0
 77
     1
 78
     8
140
2.5
141
2.5
143
0.03937007874016
147
0.625
171
     3
172
     1
178
     0
271
     2
272
     2
274
     3
278
    44
283
     0
284
     8
340
11
  0
ENDTAB
  0
TABLE
  2
BLOCK_RECORD
  5
1
330
0
100
AcDbSymbolTable
 70
     1
  0
BLOCK_RECORD
  5
1F
330
1
100
AcDbSymbolTableRecord
100
AcDbBlockTableRecord
  2
*Model_Space
340
22
  0
BLOCK_RECORD
  5
1B
330
1
100
AcDbSymbolTableRecord
100
AcDbBlockTableRecord
  2
*Paper_Space
340
1E
  0
BLOCK_RECORD
  5
23
330
1
100
AcDbSymbolTableRecord
100
AcDbBlockTableRecord
  2
*Paper_Space0
340
26
  0
ENDTAB
  0
ENDSEC
  0
SECTION
  2
BLOCKS
  0
BLOCK
  5
20
330
1F
100
AcDbEntity
  8
0
100
AcDbBlockBegin
  2
*Model_Space
 70
     0
 10
0.0
 20
0.0
 30
0.0
  3
*Model_Space
  1

  0
ENDBLK
  5
21
330
1F
100
AcDbEntity
  8
0
100
AcDbBlockEnd
  0
BLOCK
  5
1C
330
1B
100
AcDbEntity
 67
     1
  8
0
100
AcDbBlockBegin
  2
*Paper_Space
 70
     0
 10
0.0
 20
0.0
 30
0.0
  3
*Paper_Space
  1

  0
ENDBLK
  5
1D
330
1B
100
AcDbEntity
 67
     1
  8
0
100
AcDbBlockEnd
  0
BLOCK
  5
24
330
23
100
AcDbEntity
  8
0
100
AcDbBlockBegin
  2
*Paper_Space0
 70
     0
 10
0.0
 20
0.0
 30
0.0
  3
*Paper_Space0
  1

  0
ENDBLK
  5
25
330
23
100
AcDbEntity
  8
0
100
AcDbBlockEnd
  0
ENDSEC
  0
SECTION
  2
ENTITIES
  0
LINE
  5
7A
330
1F
100
AcDbEntity
  8
その他
  6
Continuous
 62
     7
370
     9
100
AcDbLine
 10
210.3497587283203
 20
218.2698968835778
 30
0.0
 11
210.3497587283203
 21
308.2697979076488
 31
0.0
  0
LINE
  5
7B
330
1F
100
AcDbEntity
  8
通り芯
  6
Continuous
 62
     3
370
     9
100
AcDbLine
 10
-145.4601404138513
 20
-49.43013759303744
 30
0.0
 11
-142.4601305162585
 21
-49.43013759303744
 31
0.0
  0
LINE
  5
7C
330
1F
100
AcDbEntity
  8
通り芯
  6
Continuous
 62
     3
370
     9
100
AcDbLine
 10
-118.4453534100507
 20
-51.23865051269537
 30
0.0
 11
-113.4748564849029
 21
-52.57052010201127
 31
0.0
  0
LINE
  5
7D
330
1F
100
AcDbEntity
  8
通り芯
  6
Continuous
 62
     3
370
     9
100
AcDbLine
 10
-128.7066581107475
 20
-45.38330878180432
 30
0.0
 11
-125.8088656038852
 21
-46.15984917718018
 31
0.0
  0
LINE
  5
7E
330
1F
100
AcDbEntity
  8
通り芯
  6
Continuous
 62
     3
370
     9
100
AcDbLine
 10
-120.61025390625
 20
-47.55273742675787
 30
0.0
 11
-122.9111473289696
 21
-46.93631534060924
 31
0.0
  0
LINE
  5
7F
330
1F
100
AcDbEntity
  8
通り芯
  6
Continuous
 62
     3
370
     9
100
AcDbLine
 10
-119.8894617029138
 20
-48.31821726206194
 30
0.0
 11
-119.5267644108952
 21
-50.09050499168607
 31
0.0
  0
LINE
  5
80
330
1F
100
AcDbEntity
  8
通り芯
  6
Continuous
 62
     3
370
     9
100
AcDbLine
 10
-110.7641284839527
 20
-50.76326912544877
 30
0.0
 11
-111.9643105996622
 21
-52.11681444322748
 31
0.0
  0
LINE
  5
81
330
1F
100
AcDbEntity
  8
通り芯
  6
Continuous
 62
     3
370
     9
100
AcDbLine
 10
-107.4562044710727
 20
-51.07741872426631
 30
0.0
 11
-109.7570978937922
 21
-50.46084817422408
 31
0.0
  0
LINE
  5
82
330
1F
100
AcDbEntity
  8
通り芯
  6
Continuous
 62
     3
370
     9
100
AcDbLine
 10
-124.6304334485853
 20
-50.61666103053744
 30
0.0
 11
-133.8181957347973
 21
-48.15483274717596
 31
0.0
  0
LINE
  5
83
330
1F
100
AcDbEntity
  8
通り芯
  6
JWW_DASHED1
 62
     3
370
     9
100
AcDbLine
 10
-110.6116560652449
 20
-56.620318191116
 30
0.0
 11
-109.8215312236064
 21
-55.72931213378912
 31
0.0
  0
LINE
  5
84
330
1F
100
AcDbEntity
  8
通り芯
  6
JWW_DASHED1
 62
     3
370
     9
100
AcDbLine
 10
-107.0560942778717
 20
-55.32563880714217
 30
0.0
 11
-107.8074700432855
 21
-55.12432176744623
 31
0.0
  0
LINE
  5
85
330
1F
100
AcDbEntity
  8
通り芯
  6
Continuous
 62
     3
370
     9
100
AcDbLine
 10
79.53993381809546
 20
-49.43013759303744
 30
0.0
 11
76.53977545660898
 21
-49.43013759303744
 31
0.0
  0
LINE
  5
86
330
1F
100
AcDbEntity
  8
通り芯
  6
Continuous
 62
     3
370
     9
100
AcDbLine
 10
52.52514681429476
 20
-51.23865051269537
 30
0.0
 11
47.55457565720015
 21
-52.57052010201127
 31
0.0
  0
LINE
  5
87
330
1F
100
AcDbEntity
  8
通り芯
  6
Continuous
 62
     3
370
     9
100
AcDbLine
 10
62.78637728304476
 20
-45.38330878180432
 30
0.0
 11
59.88865900812921
 21
-46.15984917718018
 31
0.0
  0
LINE
  5
88
330
1F
100
AcDbEntity
  8
通り芯
  6
Continuous
 62
     3
370
     9
100
AcDbLine
 10
54.68989884660054
 20
-47.55273742675787
 30
0.0
 11
56.99094073321366
 21
-46.93631534060924
 31
0.0
  0
LINE
  5
89
330
1F
100
AcDbEntity
  8
通り芯
  6
Continuous
 62
     3
370
     9
100
AcDbLine
 10
53.96925510715796
 20
-48.31821726206194
 30
0.0
 11
53.60655781513937
 21
-50.09050499168607
 31
0.0
  0
LINE
  5
8A
330
1F
100
AcDbEntity
  8
通り芯
  6
Continuous
 62
     3
370
     9
100
AcDbLine
 10
44.84377342430319
 20
-50.76326912544877
 30
0.0
 11
46.04395554001265
 21
-52.11681444322748
 31
0.0
  0
LINE
  5
8B
330
1F
100
AcDbEntity
  8
通り芯
  6
Continuous
 62
     3
370
     9
100
AcDbLine
 10
41.53599787531671
 20
-51.07741872426631
 30
0.0
 11
43.83674283414273
 21
-50.46084817422408
 31
0.0
  0
LINE
  5
8C
330
1F
100
AcDbEntity
  8
通り芯
  6
Continuous
 62
     3
370
     9
100
AcDbLine
 10
77.53982824377108
 20
-41.43016068742088
 30
0.0
 11
65.6840955579603
 21
-44.60684261837525
 31
0.0
  0
LINE
  5
8D
330
1F
100
AcDbEntity
  8
通り芯
  6
Continuous
 62
     3
370
     9
100
AcDbLine
 10
58.71015262088257
 20
-50.61666103053744
 30
0.0
 11
67.8979891390414
 21
-48.15483274717596
 31
0.0
  0
LINE
  5
8E
330
1F
100
AcDbEntity
  8
通り芯
  6
Continuous
 62
     3
370
     9
100
AcDbLine
 10
57.02954134554476
 20
-53.31439844079928
 30
0.0
 11
57.26827128642311
 21
-52.14754646919877
 31
0.0
  0
LINE
  5
8F
330
1F
100
AcDbEntity
  8
通り芯
  6
Continuous
 62
     3
370
     9
100
AcDbLine
 10
44.69130100559546
 20
-56.620318191116
 30
0.0
 11
43.90132462785054
 21
-55.72931213378912
 31
0.0
  0
LINE
  5
90
330
1F
100
AcDbEntity
  8
通り芯
  6
Continuous
 62
     3
370
     9
100
AcDbLine
 10
37.49451376425257
 20
-52.16031436404674
 30
0.0
 11
38.63827960040116
 21
-51.85381065574857
 31
0.0
  0
LINE
  5
91
330
1F
100
AcDbEntity
  8
通り芯
  6
Continuous
 62
     3
370
     9
100
AcDbLine
 10
41.1357392182221
 20
-55.32563880714217
 30
0.0
 11
41.88711498363601
 21
-55.12432176744623
 31
0.0
  0
LINE
  5
92
330
1F
100
AcDbEntity
  8
通り芯
  6
Continuous
 62
     3
370
     9
100
AcDbLine
 10
38.20550735061234
 20
-63.79580086373002
 30
0.0
 11
38.93461353198906
 21
-57.85783897606107
 31
0.0
  0
LINE
  5
93
330
1F
100
AcDbEntity
  8
通り芯
  6
Continuous
 62
     3
370
     9
100
AcDbLine
 10
35.09043793549405
 20
-56.34380418932123
 30
0.0
 11
35.29323961412585
 21
-54.69244030101885
 31
0.0
  0
LINE
  5
94
330
1F
100
AcDbEntity
  8
通り芯
  6
Continuous
 62
     3
370
     9
100
AcDbLine
 10
-96.4601148450697
 20
-56.43021017538541
 30
0.0
 11
-98.80807132205446
 21
-56.43021017538541
 31
0.0
  0
LINE
  5
95
330
1F
100
AcDbEntity
  8
通り芯
  6
Continuous
 62
     3
370
     9
100
AcDbLine
 10
-143.4601090714738
 20
-41.43016068742088
 30
0.0
 11
-131.6044877335832
 21
-44.60684261837525
 31
0.0
  0
LINE
  5
96
330
1F
100
AcDbEntity
  8
通り芯
  6
Continuous
 62
     3
370
     9
100
AcDbLine
 10
-104.5584490801837
 20
-51.85381065574857
 30
0.0
 11
-103.4147203600084
 21
-52.16031436404674
 31
0.0
  0
LINE
  5
97
330
1F
100
AcDbEntity
  8
通り芯
  6
Continuous
 62
     3
370
     9
100
AcDbLine
 10
-144.5696168641786
 20
-42.30617189149604
 30
0.0
 11
-145.4601404138513
 21
-49.43013759303744
 31
0.0
  0
LINE
  5
98
330
1F
100
AcDbEntity
  8
通り芯
  6
Continuous
 62
     3
370
     9
100
AcDbLine
 10
78.64944738439608
 20
-42.30617189149604
 30
0.0
 11
79.53993381809546
 21
-49.43013759303744
 31
0.0
  0
LINE
  5
99
330
1F
100
AcDbEntity
  8
通り芯
  6
JWW_DASHED1
 62
     3
370
     9
100
AcDbLine
 10
-101.0107929951436
 20
-56.34380418932123
 30
0.0
 11
-101.2135204418285
 21
-54.69244030101885
 31
0.0
  0
LINE
  5
9A
330
1F
100
AcDbEntity
  8
通り芯
  6
Continuous
 62
     3
370
     9
100
AcDbLine
 10
-122.9499335211677
 20
-53.31424997690569
 30
0.0
 11
-123.1885892300992
 21
-52.14754646919877
 31
0.0
  0
LINE
  5
9B
330
1F
100
AcDbEntity
  8
通り芯
  6
JWW_DASHED1
 62
     3
370
     9
100
AcDbLine
 10
-121.8685967522699
 20
-54.46254396180854
 30
0.0
 11
-112.1221277185388
 21
-57.07402384989975
 31
0.0
  0
LINE
  5
9C
330
1F
100
AcDbEntity
  8
通り芯
  6
Continuous
 62
     3
370
     9
100
AcDbLine
 10
-121.3100384686445
 20
-55.46222558923678
 30
0.0
 11
-119.6711084314295
 21
-62.17962291820635
 31
0.0
  0
LINE
  5
9D
330
1F
100
AcDbEntity
  8
通り芯
  6
JWW_DASHED1
 62
     3
370
     9
100
AcDbLine
 10
-98.24242388751055
 20
-58.97087278623846
 30
0.0
 11
-80.91104587864235
 21
-60.1827835495408
 31
0.0
  0
LINE
  5
9E
330
1F
100
AcDbEntity
  8
通り芯
  6
Continuous
 62
     3
370
     9
100
AcDbLine
 10
15.78241164748734
 20
-60.12748074918186
 30
0.0
 11
32.32218017578124
 21
-58.97087278623846
 31
0.0
  0
LINE
  5
9F
330
1F
100
AcDbEntity
  8
通り芯
  6
Continuous
 62
     3
370
     9
100
AcDbLine
 10
-77.06423504803634
 20
-64.75896037333725
 30
0.0
 11
-73.94482306403087
 21
-108.4302827577334
 31
0.0
  0
LINE
  5
A0
330
1F
100
AcDbEntity
  8
通り芯
  6
Continuous
 62
     3
370
     9
100
AcDbLine
 10
-81.80153231234165
 20
-55.73732918404252
 30
0.0
 11
-80.91549979544978
 21
-60.24602916820635
 31
0.0
  0
LINE
  5
A1
330
1F
100
AcDbEntity
  8
通り芯
  6
Continuous
 62
     3
370
     9
100
AcDbLine
 10
42.03988433013093
 20
-71.43018543140315
 30
0.0
 11
39.03987443253804
 21
-71.43018543140315
 31
0.0
  0
LINE
  5
A2
330
1F
100
AcDbEntity
  8
通り芯
  6
Continuous
 62
     3
370
     9
100
AcDbLine
 10
43.89790995829811
 20
-58.63103893383135
 30
0.0
 11
42.03988433013093
 21
-71.43018543140315
 31
0.0
  0
LINE
  5
A3
330
1F
100
AcDbEntity
  8
通り芯
  6
Continuous
 62
     3
370
     9
100
AcDbLine
 10
44.99416734850085
 20
-57.3976751379065
 30
0.0
 11
55.94827880859374
 21
-54.46254396180854
 31
0.0
  0
LINE
  5
A4
330
1F
100
AcDbEntity
  8
通り芯
  6
Continuous
 62
     3
370
     9
100
AcDbLine
 10
37.22000402502108
 20
-66.43021842337951
 30
0.0
 11
21.6954316010346
 21
-66.43021842337951
 31
0.0
  0
LINE
  5
A5
330
1F
100
AcDbEntity
  8
通り芯
  6
Continuous
 62
     3
370
     9
100
AcDbLine
 10
38.20060804212413
 20
-67.23407617517428
 30
0.0
 11
39.03987443253804
 21
-71.43018543140315
 31
0.0
  0
LINE
  5
A6
330
1F
100
AcDbEntity
  8
通り芯
  6
Continuous
 62
     3
370
     9
100
AcDbLine
 10
-101.1481963286529
 20
-66.43021842337951
 30
0.0
 11
-87.61571242873735
 21
-66.43021842337951
 31
0.0
  0
LINE
  5
A7
330
1F
100
AcDbEntity
  8
通り芯
  6
Continuous
 62
     3
370
     9
100
AcDbLine
 10
-116.5101265572213
 20
-56.43021017538541
 30
0.0
 11
-111.4101320008973
 21
-56.43021017538541
 31
0.0
  0
LINE
  5
A8
330
1F
100
AcDbEntity
  8
通り芯
  6
JWW_DASHED1
 62
     3
370
     9
100
AcDbLine
 10
-104.0745681350295
 20
-64.21342979637357
 30
0.0
 11
-104.8548943596917
 21
-57.85783897606107
 31
0.0
  0
LINE
  5
A9
330
1F
100
AcDbEntity
  8
通り芯
  6
Continuous
 62
     3
370
     9
100
AcDbLine
 10
-80.02646088471282
 20
-107.5014926394901
 30
0.0
 11
-82.62843908361485
 21
-71.07402055070213
 31
0.0
  0
LINE
  5
AA
330
1F
100
AcDbEntity
  8
通り芯
  6
Continuous
 62
     3
370
     9
100
AcDbLine
 10
14.10625428895695
 20
-107.5014926394901
 30
0.0
 11
16.70808402396538
 21
-71.07402055070213
 31
0.0
  0
LINE
  5
AB
330
1F
100
AcDbEntity
  8
通り芯
  6
Continuous
 62
     3
370
     9
100
AcDbLine
 10
13.10872538798561
 20
-108.4302827577334
 30
0.0
 11
-79.02900621568837
 21
-108.4302827577334
 31
0.0
  0
LINE
  5
AC
330
1F
100
AcDbEntity
  8
通り芯
  6
Continuous
 62
     3
370
     9
100
AcDbLine
 10
11.14395422033358
 20
-64.75903460528404
 30
0.0
 11
8.024579352301558
 21
-108.4302827577334
 31
0.0
  0
LINE
  5
AD
330
1F
100
AcDbEntity
  8
躯体
  6
Continuous
 62
     2
370
     9
100
AcDbLine
 10
45.61192560969171
 20
245.0171519511454
 30
0.0
 11
48.51587936813765
 21
245.7952512174039
 31
0.0
  0
LINE
  5
AE
330
1F
100
AcDbEntity
  8
躯体
  6
Continuous
 62
     2
370
     9
100
AcDbLine
 10
44.63265776763093
 20
243.2020323882231
 30
0.0
 11
49.95122829127961
 21
244.6269888388143
 31
0.0
  0
LINE
  5
AF
330
1F
100
AcDbEntity
  8
躯体
  6
Continuous
 62
     2
370
     9
100
AcDbLine
 10
29.4897860140414
 20
272.9417256948109
 30
0.0
 11
31.6156405062289
 21
275.0674317231048
 31
0.0
  0
LINE
  5
B0
330
1F
100
AcDbEntity
  8
躯体
  6
Continuous
 62
     2
370
     9
100
AcDbLine
 10
27.42806792388093
 20
273.0011112522434
 30
0.0
 11
31.32153353304476
 21
276.8945768614073
 31
0.0
  0
LINE
  5
B1
330
1F
100
AcDbEntity
  8
躯体
  6
Continuous
 62
     2
370
     9
100
AcDbLine
 10
44.63265776763093
 20
243.2020323882231
 30
0.0
 11
45.61192560969171
 21
245.0171519511454
 31
0.0
  0
LINE
  5
B2
330
1F
100
AcDbEntity
  8
躯体
  6
Continuous
 62
     2
370
     9
100
AcDbLine
 10
49.95122829127961
 20
244.6269888388143
 30
0.0
 11
48.51587936813765
 21
245.7952512174039
 31
0.0
  0
LINE
  5
B3
330
1F
100
AcDbEntity
  8
躯体
  6
Continuous
 62
     2
370
     9
100
AcDbLine
 10
31.6156405062289
 20
275.0674317231048
 30
0.0
 11
31.32153353304476
 21
276.8945768614073
 31
0.0
  0
LINE
  5
B4
330
1F
100
AcDbEntity
  8
躯体
  6
Continuous
 62
     2
370
     9
100
AcDbLine
 10
29.4897860140414
 20
272.9417256948109
 30
0.0
 11
27.42806792388093
 21
273.0011112522434
 31
0.0
  0
LINE
  5
B5
330
1F
100
AcDbEntity
  8
躯体
  6
Continuous
 62
     2
370
     9
100
AcDbLine
 10
21.71161416543499
 20
280.7197490795239
 30
0.0
 11
23.83746865762249
 21
282.8457520356048
 31
0.0
  0
LINE
  5
B6
330
1F
100
AcDbEntity
  8
躯体
  6
Continuous
 62
     2
370
     9
100
AcDbLine
 10
21.77114818676101
 20
278.6581794532569
 30
0.0
 11
25.66461379592484
 21
282.5516450624208
 31
0.0
  0
LINE
  5
B7
330
1F
100
AcDbEntity
  8
躯体
  6
Continuous
 62
     2
370
     9
100
AcDbLine
 10
-6.212773998363602
 20
296.8420371390678
 30
0.0
 11
-5.434674732105165
 21
299.7459908975137
 31
0.0
  0
LINE
  5
B8
330
1F
100
AcDbEntity
  8
躯体
  6
Continuous
 62
     2
370
     9
100
AcDbLine
 10
-8.02804202517946
 20
295.8626208331134
 30
0.0
 11
-6.602937110694697
 21
301.1813398206556
 31
0.0
  0
LINE
  5
B9
330
1F
100
AcDbEntity
  8
躯体
  6
Continuous
 62
     2
370
     9
100
AcDbLine
 10
21.77114818676101
 20
278.6581794532569
 30
0.0
 11
21.71161416543499
 21
280.7197490795239
 31
0.0
  0
LINE
  5
BA
330
1F
100
AcDbEntity
  8
躯体
  6
Continuous
 62
     2
370
     9
100
AcDbLine
 10
25.66461379592484
 20
282.5516450624208
 30
0.0
 11
23.83746865762249
 21
282.8457520356048
 31
0.0
  0
LINE
  5
BB
330
1F
100
AcDbEntity
  8
躯体
  6
Continuous
 62
     2
370
     9
100
AcDbLine
 10
-5.434674732105165
 20
299.7459908975137
 30
0.0
 11
-6.602937110694697
 21
301.1813398206556
 31
0.0
  0
LINE
  5
BC
330
1F
100
AcDbEntity
  8
躯体
  6
Continuous
 62
     2
370
     9
100
AcDbLine
 10
-6.212773998363602
 20
296.8420371390678
 30
0.0
 11
-8.02804202517946
 21
295.8626208331134
 31
0.0
  0
LINE
  5
BD
330
1F
100
AcDbEntity
  8
躯体
  6
Continuous
 62
     2
370
     9
100
AcDbLine
 10
-16.83792658625423
 20
299.6889807623785
 30
0.0
 11
-16.05979020402235
 21
302.5929345208245
 31
0.0
  0
LINE
  5
BE
330
1F
100
AcDbEntity
  8
躯体
  6
Continuous
 62
     2
370
     9
100
AcDbLine
 10
-15.75551345412798
 20
297.9332467568887
 30
0.0
 11
-14.33040853964313
 21
303.2518172805374
 31
0.0
  0
LINE
  5
BF
330
1F
100
AcDbEntity
  8
躯体
  6
Continuous
 62
     2
370
     9
100
AcDbLine
 10
-49.08228000950173
 20
299.6889807623785
 30
0.0
 11
-49.86041639173352
 21
302.5929345208245
 31
0.0
  0
LINE
  5
C0
330
1F
100
AcDbEntity
  8
躯体
  6
Continuous
 62
     2
370
     9
100
AcDbLine
 10
-50.16473025760133
 20
297.9332467568887
 30
0.0
 11
-51.58983517208618
 21
303.2518172805374
 31
0.0
  0
LINE
  5
C1
330
1F
100
AcDbEntity
  8
躯体
  6
Continuous
 62
     2
370
     9
100
AcDbLine
 10
-15.75551345412798
 20
297.9332467568887
 30
0.0
 11
-16.83792658625423
 21
299.6889807623785
 31
0.0
  0
LINE
  5
C2
330
1F
100
AcDbEntity
  8
躯体
  6
Continuous
 62
     2
370
     9
100
AcDbLine
 10
-14.33040853964313
 20
303.2518172805374
 30
0.0
 11
-16.05979020402235
 21
302.5929345208245
 31
0.0
  0
LINE
  5
C3
330
1F
100
AcDbEntity
  8
躯体
  6
Continuous
 62
     2
370
     9
100
AcDbLine
 10
-49.86041639173352
 20
302.5929345208245
 30
0.0
 11
-51.58983517208618
 21
303.2518172805374
 31
0.0
  0
LINE
  5
C4
330
1F
100
AcDbEntity
  8
躯体
  6
Continuous
 62
     2
370
     9
100
AcDbLine
 10
-49.08228000950173
 20
299.6889807623785
 30
0.0
 11
-50.16473025760133
 21
297.9332467568887
 31
0.0
  0
LINE
  5
C5
330
1F
100
AcDbEntity
  8
躯体
  6
Continuous
 62
     2
370
     9
100
AcDbLine
 10
-59.70743259739235
 20
296.8420371390678
 30
0.0
 11
-60.48556897962415
 21
299.7459908975137
 31
0.0
  0
LINE
  5
C6
330
1F
100
AcDbEntity
  8
躯体
  6
Continuous
 62
     2
370
     9
100
AcDbLine
 10
-57.89220168654985
 20
295.8626208331134
 30
0.0
 11
-59.31730660103462
 21
301.1813398206556
 31
0.0
  0
LINE
  5
C7
330
1F
100
AcDbEntity
  8
躯体
  6
Continuous
 62
     2
370
     9
100
AcDbLine
 10
-87.63189499313766
 20
280.7198975434173
 30
0.0
 11
-89.75774948532516
 21
282.8457520356048
 31
0.0
  0
LINE
  5
C8
330
1F
100
AcDbEntity
  8
躯体
  6
Continuous
 62
     2
370
     9
100
AcDbLine
 10
-87.69142901446368
 20
278.6581794532569
 30
0.0
 11
-91.58485750765415
 21
282.5516450624208
 31
0.0
  0
LINE
  5
C9
330
1F
100
AcDbEntity
  8
躯体
  6
Continuous
 62
     2
370
     9
100
AcDbLine
 10
-57.89220168654985
 20
295.8626208331134
 30
0.0
 11
-59.70743259739235
 21
296.8420371390678
 31
0.0
  0
LINE
  5
CA
330
1F
100
AcDbEntity
  8
躯体
  6
Continuous
 62
     2
370
     9
100
AcDbLine
 10
-59.31730660103462
 20
301.1813398206556
 30
0.0
 11
-60.48556897962415
 21
299.7459908975137
 31
0.0
  0
LINE
  5
CB
330
1F
100
AcDbEntity
  8
躯体
  6
Continuous
 62
     2
370
     9
100
AcDbLine
 10
-89.75774948532516
 20
282.8457520356048
 30
0.0
 11
-91.58485750765415
 21
282.5516450624208
 31
0.0
  0
LINE
  5
CC
330
1F
100
AcDbEntity
  8
躯体
  6
Continuous
 62
     2
370
     9
100
AcDbLine
 10
-87.63189499313766
 20
280.7198975434173
 30
0.0
 11
-87.69142901446368
 21
278.6581794532569
 31
0.0
  0
LINE
  5
CD
330
1F
100
AcDbEntity
  8
躯体
  6
Continuous
 62
     2
370
     9
100
AcDbLine
 10
-95.41006684174407
 20
272.9417256948109
 30
0.0
 11
-97.53588421795821
 21
275.0674317231048
 31
0.0
  0
LINE
  5
CE
330
1F
100
AcDbEntity
  8
躯体
  6
Continuous
 62
     2
370
     9
100
AcDbLine
 10
-93.3483487515836
 20
273.0011112522434
 30
0.0
 11
-97.24181436074743
 21
276.8947253253009
 31
0.0
  0
LINE
  5
CF
330
1F
100
AcDbEntity
  8
躯体
  6
Continuous
 62
     2
370
     9
100
AcDbLine
 10
-111.5322435533678
 20
245.017300415039
 30
0.0
 11
-114.4361973118138
 21
245.7952512174039
 31
0.0
  0
LINE
  5
D0
330
1F
100
AcDbEntity
  8
躯体
  6
Continuous
 62
     2
370
     9
100
AcDbLine
 10
-110.5529385953336
 20
243.2020323882231
 30
0.0
 11
-115.8715091189823
 21
244.6269888388143
 31
0.0
  0
LINE
  5
D1
330
1F
100
AcDbEntity
  8
躯体
  6
Continuous
 62
     2
370
     9
100
AcDbLine
 10
-93.3483487515836
 20
273.0011112522434
 30
0.0
 11
-95.41006684174407
 21
272.9417256948109
 31
0.0
  0
LINE
  5
D2
330
1F
100
AcDbEntity
  8
躯体
  6
Continuous
 62
     2
370
     9
100
AcDbLine
 10
-97.24181436074743
 20
276.8947253253009
 30
0.0
 11
-97.53588421795821
 21
275.0674317231048
 31
0.0
  0
LINE
  5
D3
330
1F
100
AcDbEntity
  8
躯体
  6
Continuous
 62
     2
370
     9
100
AcDbLine
 10
-114.4361973118138
 20
245.7952512174039
 30
0.0
 11
-115.8715091189823
 21
244.6269888388143
 31
0.0
  0
LINE
  5
D4
330
1F
100
AcDbEntity
  8
躯体
  6
Continuous
 62
     2
370
     9
100
AcDbLine
 10
-111.5322435533678
 20
245.017300415039
 30
0.0
 11
-110.5529385953336
 21
243.2020323882231
 31
0.0
  0
LINE
  5
D5
330
1F
100
AcDbEntity
  8
躯体
  6
Continuous
 62
     2
370
     9
100
AcDbLine
 10
48.45901769689608
 20
234.3920364792282
 30
0.0
 11
51.36297145534211
 21
235.1701357454867
 31
0.0
  0
LINE
  5
D6
330
1F
100
AcDbEntity
  8
躯体
  6
Continuous
 62
     2
370
     9
100
AcDbLine
 10
46.70313522751265
 20
235.4744867273278
 30
0.0
 11
52.02170575116132
 21
236.8995916418127
 31
0.0
  0
LINE
  5
D7
330
1F
100
AcDbEntity
  8
躯体
  6
Continuous
 62
     2
370
     9
100
AcDbLine
 10
51.36297145534211
 20
235.1701357454867
 30
0.0
 11
52.02170575116132
 21
236.8995916418127
 31
0.0
  0
LINE
  5
D8
330
1F
100
AcDbEntity
  8
躯体
  6
Continuous
 62
     2
370
     9
100
AcDbLine
 10
48.45901769689608
 20
234.3920364792282
 30
0.0
 11
46.70313522751265
 21
235.4744867273278
 31
0.0
  0
LINE
  5
D9
330
1F
100
AcDbEntity
  8
躯体
  6
Continuous
 62
     2
370
     9
100
AcDbLine
 10
-114.3792614086254
 20
234.3920364792282
 30
0.0
 11
-117.2832151670713
 21
235.1701357454867
 31
0.0
  0
LINE
  5
DA
330
1F
100
AcDbEntity
  8
躯体
  6
Continuous
 62
     2
370
     9
100
AcDbLine
 10
-112.6234902871622
 20
235.4744867273278
 30
0.0
 11
-117.9420608108108
 21
236.8995916418127
 31
0.0
  0
LINE
  5
DB
330
1F
100
AcDbEntity
  8
躯体
  6
Continuous
 62
     2
370
     9
100
AcDbLine
 10
-117.2832151670713
 20
235.1701357454867
 30
0.0
 11
-117.9420608108108
 21
236.8995916418127
 31
0.0
  0
LINE
  5
DC
330
1F
100
AcDbEntity
  8
躯体
  6
Continuous
 62
     2
370
     9
100
AcDbLine
 10
-114.3792614086254
 20
234.3920364792282
 30
0.0
 11
-112.6234902871622
 21
235.4744867273278
 31
0.0
  0
LINE
  5
DD
330
1F
100
AcDbEntity
  8
仕上
  6
JWW_CENTER1
 62
     4
370
     9
100
AcDbLine
 10
43.08121007970858
 20
225.672343733504
 30
0.0
 11
43.08121007970858
 21
218.2698968835778
 31
0.0
  0
LINE
  5
DE
330
1F
100
AcDbEntity
  8
仕上
  6
Continuous
 62
     4
370
     9
100
AcDbLine
 10
42.58118368612757
 20
222.1857063087256
 30
0.0
 11
43.58123647328968
 21
222.1857063087256
 31
0.0
  0
LINE
  5
DF
330
1F
100
AcDbEntity
  8
仕上
  6
Continuous
 62
     4
370
     9
100
AcDbLine
 10
42.58118368612757
 20
222.1857063087256
 30
0.0
 11
42.58118368612757
 21
218.2698968835778
 31
0.0
  0
LINE
  5
E0
330
1F
100
AcDbEntity
  8
仕上
  6
Continuous
 62
     4
370
     9
100
AcDbLine
 10
43.58123647328968
 20
222.1857063087256
 30
0.0
 11
43.58123647328968
 21
218.2698968835778
 31
0.0
  0
LINE
  5
E1
330
1F
100
AcDbEntity
  8
躯体
  6
Continuous
 62
     2
370
     9
100
AcDbLine
 10
-135.4600950498838
 20
-43.57375661489131
 30
0.0
 11
-134.9601428882496
 21
-41.57372527251377
 31
0.0
  0
LINE
  5
E2
330
1F
100
AcDbEntity
  8
躯体
  6
Continuous
 62
     2
370
     9
100
AcDbLine
 10
-129.4011350889463
 20
-41.57372527251377
 30
0.0
 11
-134.9601428882496
 21
-41.57372527251377
 31
0.0
  0
LINE
  5
E3
330
1F
100
AcDbEntity
  8
躯体
  6
Continuous
 62
     2
370
     9
100
AcDbLine
 10
-115.9601049474768
 20
-37.57373681970549
 30
0.0
 11
-118.9600777290963
 21
-37.57373681970549
 31
0.0
  0
LINE
  5
E4
330
1F
100
AcDbEntity
  8
躯体
  6
Continuous
 62
     2
370
     9
100
AcDbLine
 10
-119.4531634356524
 20
-40.79310212006448
 30
0.0
 11
-118.9600777290963
 21
-37.57373681970549
 31
0.0
  0
LINE
  5
E5
330
1F
100
AcDbEntity
  8
躯体
  6
Continuous
 62
     2
370
     9
100
AcDbLine
 10
69.5398513381546
 20
-43.57375661489131
 30
0.0
 11
69.03982494457351
 21
-41.57372527251377
 31
0.0
  0
LINE
  5
E6
330
1F
100
AcDbEntity
  8
躯体
  6
Continuous
 62
     2
370
     9
100
AcDbLine
 10
63.48089137721711
 20
-41.57372527251377
 30
0.0
 11
69.03982494457351
 21
-41.57372527251377
 31
0.0
  0
LINE
  5
E7
330
1F
100
AcDbEntity
  8
躯体
  6
Continuous
 62
     2
370
     9
100
AcDbLine
 10
-93.96013134105782
 20
-49.07382424844283
 30
0.0
 11
-92.96015278584251
 21
-54.07379125646651
 31
0.0
  0
LINE
  5
E8
330
1F
100
AcDbEntity
  8
躯体
  6
Continuous
 62
     2
370
     9
100
AcDbLine
 10
-81.96009175068626
 20
-49.07382424844283
 30
0.0
 11
-82.96014453784836
 21
-54.07379125646651
 31
0.0
  0
LINE
  5
E9
330
1F
100
AcDbEntity
  8
躯体
  6
Continuous
 62
     2
370
     9
100
AcDbLine
 10
-123.19504740947
 20
-43.23674357646225
 30
0.0
 11
-129.4011350889463
 21
-41.57372527251377
 31
0.0
  0
LINE
  5
EA
330
1F
100
AcDbEntity
  8
躯体
  6
JWW_DASHED1
 62
     2
370
     9
100
AcDbLine
 10
-113.2438466664907
 20
-45.9030808732317
 30
0.0
 11
-123.19504740947
 21
-43.23674357646225
 31
0.0
  0
LINE
  5
EB
330
1F
100
AcDbEntity
  8
躯体
  6
Continuous
 62
     2
370
     9
100
AcDbLine
 10
57.27480369774069
 20
-43.23666934451549
 30
0.0
 11
63.48089137721711
 21
-41.57372527251377
 31
0.0
  0
LINE
  5
EC
330
1F
100
AcDbEntity
  8
躯体
  6
Continuous
 62
     2
370
     9
100
AcDbLine
 10
50.03986123574749
 20
-37.57373681970549
 30
0.0
 11
53.03987113334038
 21
-37.57373681970549
 31
0.0
  0
LINE
  5
ED
330
1F
100
AcDbEntity
  8
躯体
  6
Continuous
 62
     2
370
     9
100
AcDbLine
 10
49.0398084485853
 20
-49.58431734652139
 30
0.0
 11
51.0399140229096
 21
-49.04843692264049
 31
0.0
  0
LINE
  5
EE
330
1F
100
AcDbEntity
  8
躯体
  6
Continuous
 62
     2
370
     9
100
AcDbLine
 10
49.0398084485853
 20
-49.58431734652139
 30
0.0
 11
48.03975566142311
 21
-49.33467530946479
 31
0.0
  0
LINE
  5
EF
330
1F
100
AcDbEntity
  8
躯体
  6
Continuous
 62
     2
370
     9
100
AcDbLine
 10
51.0399140229096
 20
-49.04843692264049
 30
0.0
 11
52.03996681007179
 21
-48.2627659978094
 31
0.0
  0
LINE
  5
F0
330
1F
100
AcDbEntity
  8
躯体
  6
Continuous
 62
     2
370
     9
100
AcDbLine
 10
52.03996681007179
 20
-48.2627659978094
 30
0.0
 11
69.5398513381546
 21
-43.57375661489131
 31
0.0
  0
LINE
  5
F1
330
1F
100
AcDbEntity
  8
躯体
  6
Continuous
 62
     2
370
     9
100
AcDbLine
 10
-114.9600521603146
 20
-49.58431734652139
 30
0.0
 11
-116.9600835026921
 21
-49.04843692264049
 31
0.0
  0
LINE
  5
F2
330
1F
100
AcDbEntity
  8
躯体
  6
Continuous
 62
     2
370
     9
100
AcDbLine
 10
-116.9600835026921
 20
-49.04843692264049
 30
0.0
 11
-117.9601362898543
 21
-48.26284022975619
 31
0.0
  0
LINE
  5
F3
330
1F
100
AcDbEntity
  8
躯体
  6
Continuous
 62
     2
370
     9
100
AcDbLine
 10
-117.9601362898543
 20
-48.26284022975619
 30
0.0
 11
-135.4600950498838
 21
-43.57375661489131
 31
0.0
  0
LINE
  5
F4
330
1F
100
AcDbEntity
  8
躯体
  6
Continuous
 62
     2
370
     9
100
AcDbLine
 10
-114.9600521603146
 20
-49.58431734652139
 30
0.0
 11
-113.9601107210727
 21
-49.33467530946479
 31
0.0
  0
LINE
  5
F5
330
1F
100
AcDbEntity
  8
躯体
  6
Continuous
 62
     2
370
     9
100
AcDbLine
 10
-96.27323591902446
 20
-54.07379125646651
 30
0.0
 11
-113.9601107210727
 21
-49.33467530946479
 31
0.0
  0
LINE
  5
F6
330
1F
100
AcDbEntity
  8
躯体
  6
Continuous
 62
     2
370
     9
100
AcDbLine
 10
53.53291972392311
 20
-40.79310212006448
 30
0.0
 11
53.03987113334038
 21
-37.57373681970549
 31
0.0
  0
LINE
  5
F7
330
1F
100
AcDbEntity
  8
躯体
  6
Continuous
 62
     2
370
     9
100
AcDbLine
 10
49.1447724213471
 20
-42.35004297204924
 30
0.0
 11
50.03986123574749
 21
-37.57373681970549
 31
0.0
  0
LINE
  5
F8
330
1F
100
AcDbEntity
  8
躯体
  6
JWW_DASHED1
 62
     2
370
     9
100
AcDbLine
 10
49.1447724213471
 20
-42.35011720399604
 30
0.0
 11
48.77183112067148
 21
-44.33960760992932
 31
0.0
  0
LINE
  5
F9
330
1F
100
AcDbEntity
  8
躯体
  6
Continuous
 62
     2
370
     9
100
AcDbLine
 10
35.26265605204811
 20
-47.94215821962104
 30
0.0
 11
35.81969258076437
 21
-44.81098047204924
 31
0.0
  0
LINE
  5
FA
330
1F
100
AcDbEntity
  8
躯体
  6
Continuous
 62
     2
370
     9
100
AcDbLine
 10
33.81127302839953
 20
-49.52374407794029
 30
0.0
 11
29.89227162953968
 21
-50.57375496529252
 31
0.0
  0
LINE
  5
FB
330
1F
100
AcDbEntity
  8
躯体
  6
Continuous
 62
     2
370
     9
100
AcDbLine
 10
-75.71896659232478
 20
-50.27964799210838
 30
0.0
 11
-74.96013051625845
 21
-54.07379125646651
 31
0.0
  0
LINE
  5
FC
330
1F
100
AcDbEntity
  8
躯体
  6
Continuous
 62
     2
370
     9
100
AcDbLine
 10
-77.1897983860325
 20
-49.07382424844283
 30
0.0
 11
-101.4105691445841
 21
-49.07382424844283
 31
0.0
  0
LINE
  5
FD
330
1F
100
AcDbEntity
  8
躯体
  6
Continuous
 62
     2
370
     9
100
AcDbLine
 10
21.83261223870359
 20
-51.29907531738287
 30
0.0
 11
21.03981504698054
 21
-54.07379125646651
 31
0.0
  0
LINE
  5
FE
330
1F
100
AcDbEntity
  8
躯体
  6
Continuous
 62
     2
370
     9
100
AcDbLine
 10
-75.66013777449321
 20
-50.57375496529252
 30
0.0
 11
29.89227162953968
 21
-50.57375496529252
 31
0.0
  0
LINE
  5
FF
330
1F
100
AcDbEntity
  8
躯体
  6
Continuous
 62
     2
370
     9
100
AcDbLine
 10
-92.03663313582133
 20
-54.07379125646651
 30
0.0
 11
-96.27323591902446
 21
-54.07379125646651
 31
0.0
  0
LINE
  5
100
330
1F
100
AcDbEntity
  8
通り芯
  6
Continuous
 62
     3
370
     9
100
AcDbLine
 10
-92.03659601984798
 20
-54.93020522658897
 30
0.0
 11
-94.16883445945946
 21
-54.93020522658897
 31
0.0
  0
LINE
  5
101
330
1F
100
AcDbEntity
  8
躯体
  6
Continuous
 62
     2
370
     9
100
AcDbLine
 10
-107.2616054225613
 20
-46.98189375593861
 30
0.0
 11
-108.5460036819045
 21
-44.40470902726463
 31
0.0
  0
LINE
  5
102
330
1F
100
AcDbEntity
  8
躯体
  6
Continuous
 62
     2
370
     9
100
AcDbLine
 10
-113.2438837824641
 20
-45.9030808732317
 30
0.0
 11
-101.4105691445841
 21
-49.07382424844283
 31
0.0
  0
LINE
  5
103
330
1F
100
AcDbEntity
  8
躯体
  6
Continuous
 62
     2
370
     9
100
AcDbLine
 10
-113.5905840899493
 20
-43.57375661489131
 30
0.0
 11
-109.8885255555848
 21
-43.57375661489131
 31
0.0
  0
LINE
  5
104
330
1F
100
AcDbEntity
  8
躯体
  6
Continuous
 62
     2
370
     9
100
AcDbLine
 10
-114.692000600454
 20
-44.33968184187611
 30
0.0
 11
-115.9601049474768
 21
-37.57373681970549
 31
0.0
  0
LINE
  5
105
330
1F
100
AcDbEntity
  8
建具
  6
Continuous
 62
     4
370
     9
100
AcDbLine
 10
-98.46018330342064
 20
-66.43021842337951
 30
0.0
 11
-102.9601239178632
 21
-66.43021842337951
 31
0.0
  0
LINE
  5
106
330
1F
100
AcDbEntity
  8
建具
  6
Continuous
 62
     4
370
     9
100
AcDbLine
 10
32.53982824377108
 20
-66.43021842337951
 30
0.0
 11
37.03991732210726
 21
-66.43021842337951
 31
0.0
  0
LINE
  5
107
330
1F
100
AcDbEntity
  8
仕上
  6
Continuous
 62
     4
370
     9
100
AcDbLine
 10
43.56030306429476
 20
-35.31085015374268
 30
0.0
 11
42.60226555901609
 21
-35.31085015374268
 31
0.0
  0
LINE
  5
108
330
1F
100
AcDbEntity
  8
仕上
  6
Continuous
 62
     4
370
     9
100
AcDbLine
 10
40.08120018211569
 20
-38.57371537492088
 30
0.0
 11
46.08121997730156
 21
-38.57371537492088
 31
0.0
  0
LINE
  5
109
330
1F
100
AcDbEntity
  8
仕上
  6
Continuous
 62
     4
370
     9
100
AcDbLine
 10
45.2112215609164
 20
-38.57371537492088
 30
0.0
 11
46.26323671083195
 21
-36.70128874907627
 31
0.0
  0
LINE
  5
10A
330
1F
100
AcDbEntity
  8
仕上
  6
Continuous
 62
     4
370
     9
100
AcDbLine
 10
46.08121997730156
 20
-38.57371537492088
 30
0.0
 11
45.64028221336569
 21
-37.81009133828658
 31
0.0
  0
LINE
  5
10B
330
1F
100
AcDbEntity
  8
仕上
  6
Continuous
 62
     4
370
     9
100
AcDbLine
 10
40.95119859850085
 20
-38.57371537492088
 30
0.0
 11
39.8991834485853
 21
-36.70128874907627
 31
0.0
  0
LINE
  5
10C
330
1F
100
AcDbEntity
  8
仕上
  6
Continuous
 62
     4
370
     9
100
AcDbLine
 10
40.08120018211569
 20
-38.57371537492088
 30
0.0
 11
40.52213794605156
 21
-37.81009133828658
 31
0.0
  0
LINE
  5
10D
330
1F
100
AcDbEntity
  8
仕上
  6
Continuous
 62
     4
370
     9
100
AcDbLine
 10
45.2112215609164
 20
-48.57372362291498
 30
0.0
 11
46.08121997730156
 21
-47.70379943847662
 31
0.0
  0
LINE
  5
10E
330
1F
100
AcDbEntity
  8
仕上
  6
Continuous
 62
     4
370
     9
100
AcDbLine
 10
40.95119859850085
 20
-48.57372362291498
 30
0.0
 11
40.08120018211569
 21
-47.70379943847662
 31
0.0
  0
LINE
  5
10F
330
1F
100
AcDbEntity
  8
仕上
  6
Continuous
 62
     4
370
     9
100
AcDbLine
 10
40.95119859850085
 20
-38.57371537492088
 30
0.0
 11
40.95119859850085
 21
-48.57372362291498
 31
0.0
  0
LINE
  5
110
330
1F
100
AcDbEntity
  8
仕上
  6
Continuous
 62
     4
370
     9
100
AcDbLine
 10
45.2112215609164
 20
-38.57371537492088
 30
0.0
 11
45.2112215609164
 21
-48.57372362291498
 31
0.0
  0
LINE
  5
111
330
1F
100
AcDbEntity
  8
仕上
  6
Continuous
 62
     4
370
     9
100
AcDbLine
 10
40.95119859850085
 20
-48.57372362291498
 30
0.0
 11
45.2112215609164
 21
-48.57372362291498
 31
0.0
  0
LINE
  5
112
330
1F
100
AcDbEntity
  8
仕上
  6
Continuous
 62
     4
370
     9
100
AcDbLine
 10
40.08120018211569
 20
-47.70379943847662
 30
0.0
 11
46.08121997730156
 21
-47.70379943847662
 31
0.0
  0
LINE
  5
113
330
1F
100
AcDbEntity
  8
仕上
  6
Continuous
 62
     4
370
     9
100
AcDbLine
 10
40.08120018211569
 20
-38.57371537492088
 30
0.0
 11
40.08120018211569
 21
-47.70379943847662
 31
0.0
  0
LINE
  5
114
330
1F
100
AcDbEntity
  8
仕上
  6
Continuous
 62
     4
370
     9
100
AcDbLine
 10
46.08121997730156
 20
-38.57371537492088
 30
0.0
 11
46.08121997730156
 21
-47.70379943847662
 31
0.0
  0
LINE
  5
115
330
1F
100
AcDbEntity
  8
仕上
  6
JWW_CENTER1
 62
     4
370
     9
100
AcDbLine
 10
43.08121007970858
 20
-30.52882814149604
 30
0.0
 11
43.08121007970858
 21
-50.25552260940147
 31
0.0
  0
LINE
  5
116
330
1F
100
AcDbEntity
  8
躯体
  6
Continuous
 62
     2
370
     9
100
AcDbLine
 10
30.35295509132179
 20
-54.07379125646651
 30
0.0
 11
48.03975566142311
 21
-49.33467530946479
 31
0.0
  0
LINE
  5
117
330
1F
100
AcDbEntity
  8
躯体
  6
Continuous
 62
     2
370
     9
100
AcDbLine
 10
46.08121997730156
 20
-47.70379943847662
 30
0.0
 11
46.08121997730156
 21
-49.85942094132713
 31
0.0
  0
LINE
  5
118
330
1F
100
AcDbEntity
  8
躯体
  6
Continuous
 62
     2
370
     9
100
AcDbLine
 10
45.2112215609164
 20
-48.57372362291498
 30
0.0
 11
45.2112215609164
 21
-50.09250925424944
 31
0.0
  0
LINE
  5
119
330
1F
100
AcDbEntity
  8
躯体
  6
Continuous
 62
     2
370
     9
100
AcDbLine
 10
40.95119859850085
 20
-48.57372362291498
 30
0.0
 11
40.95119859850085
 21
-51.23397390004756
 31
0.0
  0
LINE
  5
11A
330
1F
100
AcDbEntity
  8
躯体
  6
Continuous
 62
     2
370
     9
100
AcDbLine
 10
40.08120018211569
 20
-47.70379943847662
 30
0.0
 11
40.08120018211569
 21
-51.46706221296986
 31
0.0
  0
LINE
  5
11B
330
1F
100
AcDbEntity
  8
躯体
  6
Continuous
 62
     2
370
     9
100
AcDbLine
 10
47.67037749419343
 20
-43.57375661489131
 30
0.0
 11
46.08121997730156
 21
-43.57375661489131
 31
0.0
  0
LINE
  5
11C
330
1F
100
AcDbEntity
  8
躯体
  6
Continuous
 62
     2
370
     9
100
AcDbLine
 10
40.08120018211569
 20
-43.57375661489131
 30
0.0
 11
37.29646293021538
 21
-43.57375661489131
 31
0.0
  0
LINE
  5
11D
330
1F
100
AcDbEntity
  8
躯体
  6
JWW_DASHED1
 62
     2
370
     9
100
AcDbLine
 10
33.81127302839953
 20
-49.52374407794029
 30
0.0
 11
40.08120018211569
 21
-47.84365242623002
 31
0.0
  0
LINE
  5
11E
330
1F
100
AcDbEntity
  8
躯体
  6
JWW_DASHED1
 62
     2
370
     9
100
AcDbLine
 10
46.08121997730156
 20
-46.23593692264049
 30
0.0
 11
57.27480369774069
 21
-43.23666934451549
 31
0.0
  0
LINE
  5
11F
330
1F
100
AcDbEntity
  8
通り芯
  6
Continuous
 62
     3
370
     9
100
AcDbLine
 10
-105.3922223065351
 20
-63.43020852578658
 30
0.0
 11
-110.5101438780088
 21
-63.43020852578658
 31
0.0
  0
LINE
  5
120
330
1F
100
AcDbEntity
  8
通り芯
  6
Continuous
 62
     3
370
     9
100
AcDbLine
 10
-117.4101146801098
 20
-63.43020852578658
 30
0.0
 11
-118.1919626596812
 21
-63.43020852578658
 31
0.0
  0
LINE
  5
121
330
1F
100
AcDbEntity
  8
通り芯
  6
Continuous
 62
     3
370
     9
100
AcDbLine
 10
-111.4101320008973
 20
-58.43016728581615
 30
0.0
 11
-111.4101320008973
 21
-56.43021017538541
 31
0.0
  0
LINE
  5
122
330
1F
100
AcDbEntity
  8
通り芯
  6
Continuous
 62
     3
370
     9
100
AcDbLine
 10
-116.5101265572213
 20
-58.43016728581615
 30
0.0
 11
-116.5101265572213
 21
-56.43021017538541
 31
0.0
  0
LINE
  5
123
330
1F
100
AcDbEntity
  8
躯体
  6
Continuous
 62
     2
370
     9
100
AcDbLine
 10
30.35295509132179
 20
-54.07379125646651
 30
0.0
 11
-83.88366418786954
 21
-54.07379125646651
 31
0.0
  0
LINE
  5
124
330
1F
100
AcDbEntity
  8
通り芯
  6
Continuous
 62
     3
370
     9
100
AcDbLine
 10
-82.78276730099243
 20
-54.93020522658897
 30
0.0
 11
-83.88366418786954
 21
-54.93020522658897
 31
0.0
  0
LINE
  5
125
330
1F
100
AcDbEntity
  8
仕上
  6
JWW_CENTER1
 62
     4
370
     9
100
AcDbLine
 10
-109.0014537914379
 20
225.672343733504
 30
0.0
 11
-109.0014537914379
 21
218.2698968835778
 31
0.0
  0
LINE
  5
126
330
1F
100
AcDbEntity
  8
仕上
  6
Continuous
 62
     4
370
     9
100
AcDbLine
 10
-108.5014273978569
 20
222.1857063087256
 30
0.0
 11
-109.501480185019
 21
222.1857063087256
 31
0.0
  0
LINE
  5
127
330
1F
100
AcDbEntity
  8
仕上
  6
Continuous
 62
     4
370
     9
100
AcDbLine
 10
-108.5014273978569
 20
222.1857063087256
 30
0.0
 11
-108.5014273978569
 21
218.2698968835778
 31
0.0
  0
LINE
  5
128
330
1F
100
AcDbEntity
  8
仕上
  6
Continuous
 62
     4
370
     9
100
AcDbLine
 10
-109.501480185019
 20
222.1857063087256
 30
0.0
 11
-109.501480185019
 21
218.2698968835778
 31
0.0
  0
LINE
  5
129
330
1F
100
AcDbEntity
  8
仕上
  6
Continuous
 62
     6
370
     9
100
AcDbLine
 10
-113.1094126108531
 20
-42.75267705144115
 30
0.0
 11
-113.9601107210727
 21
-37.57381105165229
 31
0.0
  0
LINE
  5
12A
330
1F
100
AcDbEntity
  8
仕上
  6
Continuous
 62
     6
370
     9
100
AcDbLine
 10
-113.9601107210727
 20
-37.57381105165229
 30
0.0
 11
-102.8786543562606
 21
-37.57381105165229
 31
0.0
  0
LINE
  5
12B
330
1F
100
AcDbEntity
  8
仕上
  6
Continuous
 62
     6
370
     9
100
AcDbLine
 10
48.03975566142311
 20
-37.57381105165229
 30
0.0
 11
47.2160779798353
 21
-42.58929253655518
 31
0.0
  0
LINE
  5
12C
330
1F
100
AcDbEntity
  8
仕上
  6
Continuous
 62
     6
370
     9
100
AcDbLine
 10
48.03975566142311
 20
-37.57381105165229
 30
0.0
 11
47.03985133815461
 21
-36.57375826449014
 31
0.0
  0
LINE
  5
12D
330
1F
100
AcDbEntity
  8
仕上
  6
Continuous
 62
     6
370
     9
100
AcDbLine
 10
47.03985133815461
 20
-36.57375826449014
 30
0.0
 11
36.86725381387249
 21
-36.57375826449014
 31
0.0
  0
LINE
  5
12E
330
1F
100
AcDbEntity
  8
仕上
  6
Continuous
 62
     6
370
     9
100
AcDbLine
 10
37.53994371568835
 20
-43.57383084683811
 30
0.0
 11
39.06288633604312
 21
-37.57381105165229
 31
0.0
  0
LINE
  5
12F
330
1F
100
AcDbEntity
  8
仕上
  6
Continuous
 62
     6
370
     9
100
AcDbLine
 10
-96.14919433593751
 20
26.42622688912049
 30
0.0
 11
-32.96014041385133
 21
26.42622688912049
 31
0.0
  0
LINE
  5
130
330
1F
100
AcDbEntity
  8
仕上
  6
Continuous
 62
     6
370
     9
100
AcDbLine
 10
30.22898774018155
 20
26.42622688912049
 30
0.0
 11
-32.96014041385133
 21
26.42622688912049
 31
0.0
  0
LINE
  5
131
330
1F
100
AcDbEntity
  8
仕上
  6
Continuous
 62
     6
370
     9
100
AcDbLine
 10
31.22488353832351
 20
25.51673707704283
 30
0.0
 11
36.86725381387249
 21
-36.57375826449014
 31
0.0
  0
LINE
  5
132
330
1F
100
AcDbEntity
  8
仕上
  6
JWW_DASHED1
 62
     6
370
     9
100
AcDbLine
 10
28.54421947582351
 20
11.21216669855885
 30
0.0
 11
32.59624452333195
 21
10.42612461399385
 31
0.0
  0
LINE
  5
133
330
1F
100
AcDbEntity
  8
仕上
  6
Continuous
 62
     6
370
     9
100
AcDbLine
 10
32.3242586702914
 20
-40.85278460528404
 30
0.0
 11
26.03978205500421
 21
26.42622688912049
 31
0.0
  0
LINE
  5
134
330
1F
100
AcDbEntity
  8
仕上
  6
Continuous
 62
     6
370
     9
100
AcDbLine
 10
-94.46464876741977
 20
11.21216669855885
 30
0.0
 11
-98.51645111908782
 21
10.42612461399385
 31
0.0
  0
LINE
  5
135
330
1F
100
AcDbEntity
  8
通り芯
  6
JWW_CENTER1
 62
     3
370
     9
100
AcDbLine
 10
-32.96014041385133
 20
34.90952800029025
 30
0.0
 11
-32.96014041385133
 21
-124.9330095445788
 31
0.0
  0
LINE
  5
136
330
1F
100
AcDbEntity
  8
仕上
  6
Continuous
 62
     6
370
     9
100
AcDbLine
 10
48.03975566142311
 20
-37.57381105165229
 30
0.0
 11
45.77300893422718
 21
-37.57381105165229
 31
0.0
  0
LINE
  5
137
330
1F
100
AcDbEntity
  8
仕上
  6
Continuous
 62
     6
370
     9
100
AcDbLine
 10
40.38941122519007
 20
-37.57381105165229
 30
0.0
 11
39.06288633604312
 21
-37.57381105165229
 31
0.0
  0
LINE
  5
138
330
1F
100
AcDbEntity
  8
仕上
  6
Continuous
 62
     6
370
     9
100
AcDbLine
 10
36.32179746885562
 20
228.2699793635188
 30
0.0
 11
46.41229445998734
 21
228.2699793635188
 31
0.0
  0
LINE
  5
139
330
1F
100
AcDbEntity
  8
仕上
  6
Continuous
 62
     6
370
     9
100
AcDbLine
 10
36.17006736961569
 20
229.2698836867874
 30
0.0
 11
47.28941914326437
 21
229.2698836867874
 31
0.0
  0
LINE
  5
13A
330
1F
100
AcDbEntity
  8
仕上
  6
Continuous
 62
     6
370
     9
100
AcDbLine
 10
46.41229445998734
 20
228.2699793635188
 30
0.0
 11
47.28941914326437
 21
229.2698836867874
 31
0.0
  0
LINE
  5
13B
330
1F
100
AcDbEntity
  8
仕上
  6
Continuous
 62
     6
370
     9
100
AcDbLine
 10
-102.2421525285051
 20
228.2699793635188
 30
0.0
 11
-112.3326495196368
 21
228.2699793635188
 31
0.0
  0
LINE
  5
13C
330
1F
100
AcDbEntity
  8
仕上
  6
Continuous
 62
     6
370
     9
100
AcDbLine
 10
-102.0903853132918
 20
229.2698836867874
 30
0.0
 11
-113.2097370869405
 21
229.2698836867874
 31
0.0
  0
LINE
  5
13D
330
1F
100
AcDbEntity
  8
仕上
  6
Continuous
 62
     6
370
     9
100
AcDbLine
 10
-100.5486620103991
 20
236.4850804509343
 30
0.0
 11
-97.69017531936235
 21
235.714701307142
 31
0.0
  0
LINE
  5
13E
330
1F
100
AcDbEntity
  8
仕上
  6
Continuous
 62
     6
370
     9
100
AcDbLine
 10
-102.7025019465266
 20
224.2698795627903
 30
0.0
 11
-99.75296977275126
 21
224.0161176526868
 31
0.0
  0
LINE
  5
13F
330
1F
100
AcDbEntity
  8
仕上
  6
Continuous
 62
     6
370
     9
100
AcDbLine
 10
-90.24263256176094
 20
258.5031666523701
 30
0.0
 11
-87.81999874630493
 21
256.8016219680374
 31
0.0
  0
LINE
  5
140
330
1F
100
AcDbEntity
  8
仕上
  6
Continuous
 62
     6
370
     9
100
AcDbLine
 10
-96.44445190429688
 20
247.7613585600981
 30
0.0
 11
-93.75955662082985
 21
246.5141133901234
 31
0.0
  0
LINE
  5
141
330
1F
100
AcDbEntity
  8
仕上
  6
Continuous
 62
     6
370
     9
100
AcDbLine
 10
-73.02746466559337
 20
275.6685620282147
 30
0.0
 11
-71.33289778425883
 21
273.2410289042704
 31
0.0
  0
LINE
  5
142
330
1F
100
AcDbEntity
  8
仕上
  6
Continuous
 62
     6
370
     9
100
AcDbLine
 10
-82.52919097075595
 20
267.6957540151234
 30
0.0
 11
-80.43276944547087
 21
265.6053823935019
 31
0.0
  0
LINE
  5
143
330
1F
100
AcDbEntity
  8
仕上
  6
Continuous
 62
     6
370
     9
100
AcDbLine
 10
-50.97961145349454
 20
285.9109375824798
 30
0.0
 11
-50.21747205579602
 21
283.050186817066
 31
0.0
  0
LINE
  5
144
330
1F
100
AcDbEntity
  8
仕上
  6
Continuous
 62
     6
370
     9
100
AcDbLine
 10
-62.63517769478462
 20
281.6685818234005
 30
0.0
 11
-61.38017528637032
 21
278.9873239053262
 31
0.0
  0
LINE
  5
145
330
1F
100
AcDbEntity
  8
仕上
  6
Continuous
 62
     6
370
     9
100
AcDbLine
 10
-3.285066016944697
 20
281.6685818234005
 30
0.0
 11
-4.540105541332352
 21
278.9873239053262
 31
0.0
  0
LINE
  5
146
330
1F
100
AcDbEntity
  8
仕上
  6
Continuous
 62
     6
370
     9
100
AcDbLine
 10
-14.94066937420821
 20
285.9109375824798
 30
0.0
 11
-15.70273453995985
 21
283.050186817066
 31
0.0
  0
LINE
  5
147
330
1F
100
AcDbEntity
  8
仕上
  6
Continuous
 62
     6
370
     9
100
AcDbLine
 10
16.60891014305319
 20
267.6957540151234
 30
0.0
 11
14.51245150179476
 21
265.6053823935019
 31
0.0
  0
LINE
  5
148
330
1F
100
AcDbEntity
  8
仕上
  6
Continuous
 62
     6
370
     9
100
AcDbLine
 10
7.107220953864058
 20
275.6685620282147
 30
0.0
 11
5.412654072529605
 21
273.2410289042704
 31
0.0
  0
LINE
  5
149
330
1F
100
AcDbEntity
  8
仕上
  6
Continuous
 62
     6
370
     9
100
AcDbLine
 10
30.52413396062077
 20
247.7613585600981
 30
0.0
 11
27.83916444520695
 21
246.5141133901234
 31
0.0
  0
LINE
  5
14A
330
1F
100
AcDbEntity
  8
仕上
  6
Continuous
 62
     6
370
     9
100
AcDbLine
 10
24.32235173405827
 20
258.5031666523701
 30
0.0
 11
21.89971791860218
 21
256.8016219680374
 31
0.0
  0
LINE
  5
14B
330
1F
100
AcDbEntity
  8
仕上
  6
Continuous
 62
     6
370
     9
100
AcDbLine
 10
36.78218400285054
 20
224.2698795627903
 30
0.0
 11
33.83265182907515
 21
224.0161176526868
 31
0.0
  0
LINE
  5
14C
330
1F
100
AcDbEntity
  8
仕上
  6
Continuous
 62
     6
370
     9
100
AcDbLine
 10
34.62841829866976
 20
236.4850804509343
 30
0.0
 11
31.7698944916596
 21
235.714701307142
 31
0.0
  0
LINE
  5
14D
330
1F
100
AcDbEntity
  8
仕上
  6
Continuous
 62
     6
370
     9
100
AcDbLine
 10
43.03978865339953
 20
223.269901007575
 30
0.0
 11
45.81383650496203
 21
223.269901007575
 31
0.0
  0
LINE
  5
14E
330
1F
100
AcDbEntity
  8
仕上
  6
Continuous
 62
     6
370
     9
100
AcDbLine
 10
-108.9601065970756
 20
223.269901007575
 30
0.0
 11
-111.7340802166913
 21
223.269901007575
 31
0.0
  0
LINE
  5
14F
330
1F
100
AcDbEntity
  8
仕上
  6
Continuous
 62
     6
370
     9
100
AcDbLine
 10
-113.2097370869405
 20
229.2698836867874
 30
0.0
 11
-112.3326495196368
 21
228.2699793635188
 31
0.0
  0
LINE
  5
150
330
1F
100
AcDbEntity
  8
躯体
  6
Continuous
 62
     2
370
     9
100
AcDbLine
 10
-87.96007442989868
 20
231.2699892611117
 30
0.0
 11
-90.51009026604727
 21
231.2699892611117
 31
0.0
  0
LINE
  5
151
330
1F
100
AcDbEntity
  8
躯体
  6
Continuous
 62
     2
370
     9
100
AcDbLine
 10
-87.96011154587204
 20
230.2699364739495
 30
0.0
 11
-90.72688466664907
 21
230.2699364739495
 31
0.0
  0
LINE
  5
152
330
1F
100
AcDbEntity
  8
躯体
  6
Continuous
 62
     2
370
     9
100
AcDbLine
 10
-97.31066449139571
 20
230.785403112463
 30
0.0
 11
-100.3505740603885
 21
230.2699364739495
 31
0.0
  0
LINE
  5
153
330
1F
100
AcDbEntity
  8
躯体
  6
Continuous
 62
     2
370
     9
100
AcDbLine
 10
-97.40879912505282
 20
230.2699364739495
 30
0.0
 11
-100.3505740603885
 21
230.2699364739495
 31
0.0
  0
LINE
  5
154
330
1F
100
AcDbEntity
  8
躯体
  6
Continuous
 62
     2
370
     9
100
AcDbLine
 10
4.932224912901162
 20
259.9012511382231
 30
0.0
 11
6.315611473289678
 21
262.2973099167282
 31
0.0
  0
LINE
  5
155
330
1F
100
AcDbEntity
  8
躯体
  6
Continuous
 62
     2
370
     9
100
AcDbLine
 10
9.656494470544757
 20
268.0841355607316
 30
0.0
 11
11.12732626425257
 21
270.6317759745829
 31
0.0
  0
LINE
  5
156
330
1F
100
AcDbEntity
  8
躯体
  6
Continuous
 62
     2
370
     9
100
AcDbLine
 10
10.05393231366132
 20
267.7413324304528
 30
0.0
 11
11.12732626425257
 21
270.6317759745829
 31
0.0
  0
LINE
  5
157
330
1F
100
AcDbEntity
  8
躯体
  6
Continuous
 62
     2
370
     9
100
AcDbLine
 10
5.798214804159599
 20
259.401224744642
 30
0.0
 11
7.073222722233979
 21
261.6096251616606
 31
0.0
  0
LINE
  5
158
330
1F
100
AcDbEntity
  8
躯体
  6
Continuous
 62
     2
370
     9
100
AcDbLine
 10
-15.85246037663642
 20
271.9012907285948
 30
0.0
 11
-14.4690738162479
 21
274.2973495070999
 31
0.0
  0
LINE
  5
159
330
1F
100
AcDbEntity
  8
躯体
  6
Continuous
 62
     2
370
     9
100
AcDbLine
 10
-11.12811658704602
 20
280.0840266872096
 30
0.0
 11
-9.657284793338292
 21
282.6316671010609
 31
0.0
  0
LINE
  5
15A
330
1F
100
AcDbEntity
  8
躯体
  6
Continuous
 62
     2
370
     9
100
AcDbLine
 10
-11.6236148318729
 20
280.256838659338
 30
0.0
 11
-9.657284793338292
 21
282.6316671010609
 31
0.0
  0
LINE
  5
15B
330
1F
100
AcDbEntity
  8
躯体
  6
Continuous
 62
     2
370
     9
100
AcDbLine
 10
-16.71845026789485
 20
272.4013171221759
 30
0.0
 11
-15.44351658176735
 21
274.6097175391944
 31
0.0
  0
LINE
  5
15C
330
1F
100
AcDbEntity
  8
仕上
  6
Continuous
 62
     6
370
     9
100
AcDbLine
 10
46.08121997730156
 20
222.2698482204128
 30
0.0
 11
46.88337039432007
 21
222.2698482204128
 31
0.0
  0
LINE
  5
15D
330
1F
100
AcDbEntity
  8
仕上
  6
Continuous
 62
     6
370
     9
100
AcDbLine
 10
-112.0015008050042
 20
222.2698482204128
 30
0.0
 11
-112.8036883379962
 21
222.2698482204128
 31
0.0
  0
LINE
  5
15E
330
1F
100
AcDbEntity
  8
仕上
  6
Continuous
 62
     4
370
     9
100
AcDbLine
 10
43.56030306429476
 20
-32.59537130819791
 30
0.0
 11
43.56030306429476
 21
-35.31085015374268
 31
0.0
  0
LINE
  5
15F
330
1F
100
AcDbEntity
  8
仕上
  6
Continuous
 62
     4
370
     9
100
AcDbLine
 10
42.60226555901609
 20
-32.59537130819791
 30
0.0
 11
42.60226555901609
 21
-35.31085015374268
 31
0.0
  0
LINE
  5
160
330
1F
100
AcDbEntity
  8
仕上
  6
Continuous
 62
     4
370
     9
100
AcDbLine
 10
38.08124307168499
 20
-36.07373187090904
 30
0.0
 11
38.08124307168499
 21
-36.57375826449014
 31
0.0
  0
LINE
  5
161
330
1F
100
AcDbEntity
  8
仕上
  6
Continuous
 62
     4
370
     9
100
AcDbLine
 10
48.08117708773226
 20
-36.07373187090904
 30
0.0
 11
48.08117708773226
 21
-36.57375826449014
 31
0.0
  0
LINE
  5
162
330
1F
100
AcDbEntity
  8
仕上
  6
Continuous
 62
     4
370
     9
100
AcDbLine
 10
38.08124307168499
 20
-36.57375826449014
 30
0.0
 11
48.08117708773226
 21
-36.57375826449014
 31
0.0
  0
LINE
  5
163
330
1F
100
AcDbEntity
  8
仕上
  6
Continuous
 62
     6
370
     9
100
AcDbLine
 10
38.05570728198906
 20
-36.57375826449014
 30
0.0
 11
39.06288633604312
 21
-37.57381105165229
 31
0.0
  0
LINE
  5
164
330
1F
100
AcDbEntity
  8
仕上
  6
Continuous
 62
     6
370
     9
100
AcDbLine
 10
-112.1255423880913
 20
-43.57383084683811
 30
0.0
 11
-95.4601362898543
 21
-43.57383084683811
 31
0.0
  0
LINE
  5
165
330
1F
100
AcDbEntity
  8
仕上
  6
Continuous
 62
     6
370
     9
100
AcDbLine
 10
-80.46008680188977
 20
-43.57383084683811
 30
0.0
 11
-32.96014041385133
 21
-43.57383084683811
 31
0.0
  0
LINE
  5
166
330
1F
100
AcDbEntity
  8
仕上
  6
Continuous
 62
     6
370
     9
100
AcDbLine
 10
46.2053357923353
 20
-43.57383084683811
 30
0.0
 11
46.08121997730156
 21
-43.57383084683811
 31
0.0
  0
LINE
  5
167
330
1F
100
AcDbEntity
  8
仕上
  6
Continuous
 62
     6
370
     9
100
AcDbLine
 10
40.08120018211569
 20
-43.57383084683811
 30
0.0
 11
-32.96014041385133
 21
-43.57383084683811
 31
0.0
  0
LINE
  5
168
330
1F
100
AcDbEntity
  8
仕上
  6
Continuous
 62
     6
370
     9
100
AcDbLine
 10
-102.5999505120355
 20
14.73692222801408
 30
0.0
 11
-101.649633129223
 21
25.19375387655712
 31
0.0
  0
LINE
  5
169
330
1F
100
AcDbEntity
  8
仕上
  6
Continuous
 62
     6
370
     9
100
AcDbLine
 10
-103.1659691063134
 20
19.55784178037892
 30
0.0
 11
-103.0754432472023
 21
20.55381181046768
 31
0.0
  0
LINE
  5
16A
330
1F
100
AcDbEntity
  8
仕上
  6
Continuous
 62
     6
370
     9
100
AcDbLine
 10
-105.9455472379117
 20
20.81466287148963
 30
0.0
 11
-103.0754432472023
 21
20.55381181046768
 31
0.0
  0
LINE
  5
16B
330
1F
100
AcDbEntity
  8
仕上
  6
Continuous
 62
     6
370
     9
100
AcDbLine
 10
-106.0360730970228
 20
19.81869284140087
 30
0.0
 11
-103.1659691063134
 21
19.55784178037892
 31
0.0
  0
LINE
  5
16C
330
1F
100
AcDbEntity
  8
仕上
  6
Continuous
 62
     6
370
     9
100
AcDbLine
 10
-90.40030121674407
 20
16.38954805941189
 30
0.0
 11
-89.947783269109
 21
21.36902705012135
 31
0.0
  0
LINE
  5
16D
330
1F
100
AcDbEntity
  8
仕上
  6
Continuous
 62
     6
370
     9
100
AcDbLine
 10
-90.94353060335727
 20
15.93680741593643
 30
0.0
 11
-90.4004867966111
 21
21.91225643673455
 31
0.0
  0
LINE
  5
16E
330
1F
100
AcDbEntity
  8
仕上
  6
Continuous
 62
     6
370
     9
100
AcDbLine
 10
-90.94353060335727
 20
15.93680741593643
 30
0.0
 11
-90.40030121674407
 21
16.38954805941189
 31
0.0
  0
LINE
  5
16F
330
1F
100
AcDbEntity
  8
仕上
  6
Continuous
 62
     6
370
     9
100
AcDbLine
 10
-90.4004867966111
 20
21.91225643673455
 30
0.0
 11
-89.947783269109
 21
21.36902705012135
 31
0.0
  0
LINE
  5
170
330
1F
100
AcDbEntity
  8
仕上
  6
Continuous
 62
     6
370
     9
100
AcDbLine
 10
-101.8532884752428
 20
22.95298833073791
 30
0.0
 11
-90.4004867966111
 21
21.91225643673455
 31
0.0
  0
LINE
  5
171
330
1F
100
AcDbEntity
  8
仕上
  6
Continuous
 62
     6
370
     9
100
AcDbLine
 10
-101.8985328468116
 20
22.45504043166697
 30
0.0
 11
-89.947783269109
 21
21.36902705012135
 31
0.0
  0
LINE
  5
172
330
1F
100
AcDbEntity
  8
仕上
  6
Continuous
 62
     6
370
     9
100
AcDbLine
 10
-102.3510507944468
 20
17.47563567290432
 30
0.0
 11
-90.40030121674407
 21
16.38954805941189
 31
0.0
  0
LINE
  5
173
330
1F
100
AcDbEntity
  8
仕上
  6
Continuous
 62
     6
370
     9
100
AcDbLine
 10
-102.3963693979624
 20
16.97761354188658
 30
0.0
 11
-90.94353060335727
 21
15.93680741593643
 31
0.0
  0
LINE
  5
174
330
1F
100
AcDbEntity
  8
仕上
  6
JWW_CENTER1
 62
     6
370
     9
100
AcDbLine
 10
-108.9950327280406
 20
20.58966584076744
 30
0.0
 11
-86.53341064453126
 21
18.54836153597439
 31
0.0
  0
LINE
  5
175
330
1F
100
AcDbEntity
  8
仕上
  6
Continuous
 62
     6
370
     9
100
AcDbLine
 10
-97.14512725005282
 20
25.51673707704283
 30
0.0
 11
-97.41473768079602
 21
22.54968616382486
 31
0.0
  0
LINE
  5
176
330
1F
100
AcDbEntity
  8
仕上
  6
Continuous
 62
     6
370
     9
100
AcDbLine
 10
-97.95778148754219
 20
16.57423714302674
 30
0.0
 11
-103.258610575908
 21
-41.75477699073592
 31
0.0
  0
LINE
  5
177
330
1F
100
AcDbEntity
  8
仕上
  6
Continuous
 62
     6
370
     9
100
AcDbLine
 10
-98.24483642578126
 20
-40.85278460528404
 30
0.0
 11
-92.92318527634079
 21
16.11667142300986
 31
0.0
  0
LINE
  5
178
330
1F
100
AcDbEntity
  8
仕上
  6
Continuous
 62
     6
370
     9
100
AcDbLine
 10
-92.36510950036954
 20
22.0907842687658
 30
0.0
 11
-91.96013711465368
 21
26.42622688912049
 31
0.0
  0
LINE
  5
179
330
1F
100
AcDbEntity
  8
仕上
  6
Continuous
 62
     6
370
     9
100
AcDbLine
 10
-26.75832107131548
 20
287.9946283288903
 30
0.0
 11
-27.02061965529985
 21
285.0456900106894
 31
0.0
  0
LINE
  5
17A
330
1F
100
AcDbEntity
  8
仕上
  6
Continuous
 62
     6
370
     9
100
AcDbLine
 10
-39.16195975638728
 20
287.9946283288903
 30
0.0
 11
-38.8996611724029
 21
285.0458384745829
 31
0.0
  0
LINE
  5
17B
330
1F
100
AcDbEntity
  8
仕上
  6
Continuous
 62
     6
370
     9
100
AcDbLine
 10
-35.96015031144422
 20
275.7721898259343
 30
0.0
 11
-35.46016103383657
 21
275.2721634323532
 31
0.0
  0
LINE
  5
17C
330
1F
100
AcDbEntity
  8
仕上
  6
Continuous
 62
     6
370
     9
100
AcDbLine
 10
-29.96013051625845
 20
275.7721898259343
 30
0.0
 11
-30.4601197938661
 21
275.2721634323532
 31
0.0
  0
LINE
  5
17D
330
1F
100
AcDbEntity
  8
仕上
  6
Continuous
 62
     6
370
     9
100
AcDbLine
 10
-33.46012969145907
 20
287.7438728126319
 30
0.0
 11
-32.46015113624368
 21
287.7438728126319
 31
0.0
  0
LINE
  5
17E
330
1F
100
AcDbEntity
  8
仕上
  6
Continuous
 62
     6
370
     9
100
AcDbLine
 10
-35.46016103383657
 20
275.2721634323532
 30
0.0
 11
-35.46016103383657
 21
277.2191189327755
 31
0.0
  0
LINE
  5
17F
330
1F
100
AcDbEntity
  8
仕上
  6
Continuous
 62
     6
370
     9
100
AcDbLine
 10
-35.96015031144422
 20
275.7721898259343
 30
0.0
 11
-35.96015031144422
 21
277.1958101014833
 31
0.0
  0
LINE
  5
180
330
1F
100
AcDbEntity
  8
仕上
  6
Continuous
 62
     6
370
     9
100
AcDbLine
 10
-30.4601197938661
 20
275.2721634323532
 30
0.0
 11
-30.4601197938661
 21
277.2191189327755
 31
0.0
  0
LINE
  5
181
330
1F
100
AcDbEntity
  8
仕上
  6
Continuous
 62
     6
370
     9
100
AcDbLine
 10
-29.96013051625845
 20
275.7721898259343
 30
0.0
 11
-29.96013051625845
 21
277.1958101014833
 31
0.0
  0
LINE
  5
182
330
1F
100
AcDbEntity
  8
仕上
  6
Continuous
 62
     6
370
     9
100
AcDbLine
 10
-34.46003401472758
 20
282.3546334756387
 30
0.0
 11
-34.46003401472758
 21
282.8696547224714
 31
0.0
  0
LINE
  5
183
330
1F
100
AcDbEntity
  8
仕上
  6
Continuous
 62
     6
370
     9
100
AcDbLine
 10
-31.46020969700173
 20
282.3546334756387
 30
0.0
 11
-31.46020969700173
 21
282.8696547224714
 31
0.0
  0
LINE
  5
184
330
1F
100
AcDbEntity
  8
仕上
  6
Continuous
 62
     6
370
     9
100
AcDbLine
 10
-32.46015113624368
 20
287.7438728126319
 30
0.0
 11
-32.46015113624368
 21
290.3608458647856
 31
0.0
  0
LINE
  5
185
330
1F
100
AcDbEntity
  8
仕上
  6
Continuous
 62
     6
370
     9
100
AcDbLine
 10
-33.46012969145907
 20
287.7438728126319
 30
0.0
 11
-33.46012969145907
 21
290.3608458647856
 31
0.0
  0
LINE
  5
186
330
1F
100
AcDbEntity
  8
仕上
  6
Continuous
 62
     6
370
     9
100
AcDbLine
 10
-30.4601197938661
 20
283.0089138546505
 30
0.0
 11
-30.4601197938661
 21
286.183071899414
 31
0.0
  0
LINE
  5
187
330
1F
100
AcDbEntity
  8
仕上
  6
Continuous
 62
     6
370
     9
100
AcDbLine
 10
-29.96013051625845
 20
283.1054153854782
 30
0.0
 11
-29.96013051625845
 21
286.2244933257231
 31
0.0
  0
LINE
  5
188
330
1F
100
AcDbEntity
  8
仕上
  6
Continuous
 62
     6
370
     9
100
AcDbLine
 10
-35.96015031144422
 20
283.1054153854782
 30
0.0
 11
-35.96015031144422
 21
286.2244933257231
 31
0.0
  0
LINE
  5
189
330
1F
100
AcDbEntity
  8
仕上
  6
Continuous
 62
     6
370
     9
100
AcDbLine
 10
-35.46016103383657
 20
283.0089138546505
 30
0.0
 11
-35.46016103383657
 21
286.183071899414
 31
0.0
  0
LINE
  5
18A
330
1F
100
AcDbEntity
  8
通り芯
  6
JWW_CENTER1
 62
     3
370
     9
100
AcDbLine
 10
-32.96014041385133
 20
339.8003616745407
 30
0.0
 11
-32.96014041385133
 21
210.3075555749841
 31
0.0
  0
LINE
  5
18B
330
1F
100
AcDbEntity
  8
通り芯
  6
Continuous
 62
     3
370
     9
100
AcDbLine
 10
-119.6240824931377
 20
-41.43016068742088
 30
0.0
 11
-143.5773584314294
 21
-41.43016068742088
 31
0.0
  0
LINE
  5
18C
330
1F
100
AcDbEntity
  8
通り芯
  6
Continuous
 62
     3
370
     9
100
AcDbLine
 10
77.65711471970015
 20
-41.43016068742088
 30
0.0
 11
53.70380166543499
 21
-41.43016068742088
 31
0.0
  0
LINE
  5
18D
330
1F
100
AcDbEntity
  8
その他
  6
Continuous
 62
     7
370
     9
100
AcDbLine
 10
-91.96013711465368
 20
56.4262145171294
 30
0.0
 11
26.03978205500421
 21
56.4262145171294
 31
0.0
  0
LINE
  5
18E
330
1F
100
AcDbEntity
  8
その他
  6
Continuous
 62
     7
370
     9
100
AcDbLine
 10
-91.96013711465368
 20
33.9262145171294
 30
0.0
 11
-91.96013711465368
 21
57.32620264001791
 31
0.0
  0
LINE
  5
18F
330
1F
100
AcDbEntity
  8
その他
  6
Continuous
 62
     7
370
     9
100
AcDbLine
 10
26.03978205500421
 20
33.9262145171294
 30
0.0
 11
26.03978205500421
 21
57.32620264001791
 31
0.0
  0
LINE
  5
190
330
1F
100
AcDbEntity
  8
その他
  6
Continuous
 62
     7
370
     9
100
AcDbLine
 10
-91.96013711465368
 20
56.4262145171294
 30
0.0
 11
-84.52428588867188
 21
57.40514831542963
 31
0.0
  0
LINE
  5
191
330
1F
100
AcDbEntity
  8
その他
  6
Continuous
 62
     7
370
     9
100
AcDbLine
 10
-91.96013711465368
 20
56.4262145171294
 30
0.0
 11
-84.52428588867188
 21
55.44728071882916
 31
0.0
  0
LINE
  5
192
330
1F
100
AcDbEntity
  8
その他
  6
Continuous
 62
     7
370
     9
100
AcDbLine
 10
26.03978205500421
 20
56.4262145171294
 30
0.0
 11
18.60396794499577
 21
57.40514831542963
 31
0.0
  0
LINE
  5
193
330
1F
100
AcDbEntity
  8
その他
  6
Continuous
 62
     7
370
     9
100
AcDbLine
 10
26.03978205500421
 20
56.4262145171294
 30
0.0
 11
18.60396794499577
 21
55.44728071882916
 31
0.0
  0
LINE
  5
194
330
1F
100
AcDbEntity
  8
その他
  6
Continuous
 62
     7
370
     9
100
AcDbLine
 10
-135.4600950498838
 20
80.4262194659258
 30
0.0
 11
69.5398513381546
 21
80.4262194659258
 31
0.0
  0
LINE
  5
195
330
1F
100
AcDbEntity
  8
その他
  6
Continuous
 62
     7
370
     9
100
AcDbLine
 10
-135.4600950498838
 20
-36.07376898688244
 30
0.0
 11
-135.4600950498838
 21
81.32620758881431
 31
0.0
  0
LINE
  5
196
330
1F
100
AcDbEntity
  8
その他
  6
Continuous
 62
     7
370
     9
100
AcDbLine
 10
69.5398513381546
 20
-36.07373187090904
 30
0.0
 11
69.5398513381546
 21
81.32620758881431
 31
0.0
  0
LINE
  5
197
330
1F
100
AcDbEntity
  8
その他
  6
Continuous
 62
     7
370
     9
100
AcDbLine
 10
-135.4600950498838
 20
80.4262194659258
 30
0.0
 11
-128.0242438239021
 21
81.40515326422612
 31
0.0
  0
LINE
  5
198
330
1F
100
AcDbEntity
  8
その他
  6
Continuous
 62
     7
370
     9
100
AcDbLine
 10
-135.4600950498838
 20
80.4262194659258
 30
0.0
 11
-128.0242438239021
 21
79.44728566762556
 31
0.0
  0
LINE
  5
199
330
1F
100
AcDbEntity
  8
その他
  6
Continuous
 62
     7
370
     9
100
AcDbLine
 10
69.5398513381546
 20
80.4262194659258
 30
0.0
 11
62.10403722814608
 21
81.40515326422612
 31
0.0
  0
LINE
  5
19A
330
1F
100
AcDbEntity
  8
その他
  6
Continuous
 62
     7
370
     9
100
AcDbLine
 10
69.5398513381546
 20
80.4262194659258
 30
0.0
 11
62.10403722814608
 21
79.44728566762556
 31
0.0
  0
LINE
  5
19B
330
1F
100
AcDbEntity
  8
その他
  6
Continuous
 62
     7
370
     9
100
AcDbLine
 10
-145.4601404138513
 20
104.4262244147223
 30
0.0
 11
79.53993381809546
 21
104.4262244147223
 31
0.0
  0
LINE
  5
19C
330
1F
100
AcDbEntity
  8
その他
  6
Continuous
 62
     7
370
     9
100
AcDbLine
 10
-145.4601404138513
 20
-41.93014996502858
 30
0.0
 11
-145.4601404138513
 21
105.3262125376108
 31
0.0
  0
LINE
  5
19D
330
1F
100
AcDbEntity
  8
その他
  6
Continuous
 62
     7
370
     9
100
AcDbLine
 10
79.53993381809546
 20
-41.93014996502858
 30
0.0
 11
79.53993381809546
 21
105.3262125376108
 31
0.0
  0
LINE
  5
19E
330
1F
100
AcDbEntity
  8
その他
  6
Continuous
 62
     7
370
     9
100
AcDbLine
 10
-145.4601404138513
 20
104.4262244147223
 30
0.0
 11
-138.0242891878696
 21
105.4051582130225
 31
0.0
  0
LINE
  5
19F
330
1F
100
AcDbEntity
  8
その他
  6
Continuous
 62
     7
370
     9
100
AcDbLine
 10
-145.4601404138513
 20
104.4262244147223
 30
0.0
 11
-138.0242891878696
 21
103.4472906164221
 31
0.0
  0
LINE
  5
1A0
330
1F
100
AcDbEntity
  8
その他
  6
Continuous
 62
     7
370
     9
100
AcDbLine
 10
79.53993381809546
 20
104.4262244147223
 30
0.0
 11
72.10411970808703
 21
105.4051582130225
 31
0.0
  0
LINE
  5
1A1
330
1F
100
AcDbEntity
  8
その他
  6
Continuous
 62
     7
370
     9
100
AcDbLine
 10
79.53993381809546
 20
104.4262244147223
 30
0.0
 11
72.10411970808703
 21
103.4472906164221
 31
0.0
  0
LINE
  5
1A2
330
1F
100
AcDbEntity
  8
その他
  6
Continuous
 62
     7
370
     9
100
AcDbLine
 10
109.5399585620777
 20
-66.43021842337951
 30
0.0
 11
109.5399585620777
 21
-41.43016068742088
 31
0.0
  0
LINE
  5
1A3
330
1F
100
AcDbEntity
  8
その他
  6
Continuous
 62
     7
370
     9
100
AcDbLine
 10
44.53994206608952
 20
-66.43021842337951
 30
0.0
 11
110.4399466849662
 21
-66.43021842337951
 31
0.0
  0
LINE
  5
1A4
330
1F
100
AcDbEntity
  8
その他
  6
Continuous
 62
     7
370
     9
100
AcDbLine
 10
85.03985298775335
 20
-41.43016068742088
 30
0.0
 11
110.4399466849662
 21
-41.43016068742088
 31
0.0
  0
LINE
  5
1A5
330
1F
100
AcDbEntity
  8
その他
  6
Continuous
 62
     7
370
     9
100
AcDbLine
 10
109.5399585620777
 20
-66.43021842337951
 30
0.0
 11
108.5609876478041
 21
-58.99436719739764
 31
0.0
  0
LINE
  5
1A6
330
1F
100
AcDbEntity
  8
その他
  6
Continuous
 62
     7
370
     9
100
AcDbLine
 10
109.5399585620777
 20
-66.43021842337951
 30
0.0
 11
110.5189294763514
 21
-58.99436719739764
 31
0.0
  0
LINE
  5
1A7
330
1F
100
AcDbEntity
  8
その他
  6
Continuous
 62
     7
370
     9
100
AcDbLine
 10
109.5399585620777
 20
-41.43016068742088
 30
0.0
 11
108.5609876478041
 21
-48.86601191340272
 31
0.0
  0
LINE
  5
1A8
330
1F
100
AcDbEntity
  8
その他
  6
Continuous
 62
     7
370
     9
100
AcDbLine
 10
109.5399585620777
 20
-41.43016068742088
 30
0.0
 11
110.5189294763514
 21
-48.86601191340272
 31
0.0
  0
LINE
  5
1A9
330
1F
100
AcDbEntity
  8
その他
  6
Continuous
 62
     7
370
     9
100
AcDbLine
 10
133.5399635108741
 20
-121.5301428717537
 30
0.0
 11
133.5399635108741
 21
-41.43019780339428
 31
0.0
  0
LINE
  5
1AA
330
1F
100
AcDbEntity
  8
その他
  6
Continuous
 62
     7
370
     9
100
AcDbLine
 10
44.53994206608952
 20
-121.5301428717537
 30
0.0
 11
134.4399635466369
 21
-121.5301428717537
 31
0.0
  0
LINE
  5
1AB
330
1F
100
AcDbEntity
  8
その他
  6
Continuous
 62
     7
370
     9
100
AcDbLine
 10
85.15713946368241
 20
-41.43019780339428
 30
0.0
 11
134.4399516337626
 21
-41.43019780339428
 31
0.0
  0
LINE
  5
1AC
330
1F
100
AcDbEntity
  8
その他
  6
Continuous
 62
     7
370
     9
100
AcDbLine
 10
133.5399635108741
 20
-121.5301428717537
 30
0.0
 11
132.5609925966006
 21
-114.0942916457718
 31
0.0
  0
LINE
  5
1AD
330
1F
100
AcDbEntity
  8
その他
  6
Continuous
 62
     7
370
     9
100
AcDbLine
 10
133.5399635108741
 20
-121.5301428717537
 30
0.0
 11
134.5189344251478
 21
-114.0942916457718
 31
0.0
  0
LINE
  5
1AE
330
1F
100
AcDbEntity
  8
その他
  6
Continuous
 62
     7
370
     9
100
AcDbLine
 10
133.5399635108741
 20
-41.43019780339428
 30
0.0
 11
132.5609925966006
 21
-48.86604902937611
 31
0.0
  0
LINE
  5
1AF
330
1F
100
AcDbEntity
  8
その他
  6
Continuous
 62
     7
370
     9
100
AcDbLine
 10
133.5399635108741
 20
-41.43019780339428
 30
0.0
 11
134.5189344251478
 21
-48.86604902937611
 31
0.0
  0
LINE
  5
1B0
330
1F
100
AcDbEntity
  8
その他
  6
Continuous
 62
     7
370
     9
100
AcDbLine
 10
133.5399635108741
 20
-41.43019780339428
 30
0.0
 11
133.5399635108741
 21
26.42626400509393
 31
0.0
  0
LINE
  5
1B1
330
1F
100
AcDbEntity
  8
その他
  6
Continuous
 62
     7
370
     9
100
AcDbLine
 10
37.72901248416382
 20
26.42626400509393
 30
0.0
 11
134.4399516337626
 21
26.42626400509393
 31
0.0
  0
LINE
  5
1B2
330
1F
100
AcDbEntity
  8
その他
  6
Continuous
 62
     7
370
     9
100
AcDbLine
 10
133.5399635108741
 20
-41.43019780339428
 30
0.0
 11
132.5609925966006
 21
-33.99434657741244
 31
0.0
  0
LINE
  5
1B3
330
1F
100
AcDbEntity
  8
その他
  6
Continuous
 62
     7
370
     9
100
AcDbLine
 10
133.5399635108741
 20
-41.43019780339428
 30
0.0
 11
134.5189344251478
 21
-33.99434657741244
 31
0.0
  0
LINE
  5
1B4
330
1F
100
AcDbEntity
  8
その他
  6
Continuous
 62
     7
370
     9
100
AcDbLine
 10
133.5399635108741
 20
26.42626400509393
 30
0.0
 11
132.5609925966006
 21
18.99041277911205
 31
0.0
  0
LINE
  5
1B5
330
1F
100
AcDbEntity
  8
その他
  6
Continuous
 62
     7
370
     9
100
AcDbLine
 10
133.5399635108741
 20
26.42626400509393
 30
0.0
 11
134.5189344251478
 21
18.99041277911205
 31
0.0
  0
LINE
  5
1B6
330
1F
100
AcDbEntity
  8
その他
  6
Continuous
 62
     7
370
     9
100
AcDbLine
 10
-175.4601280418602
 20
-43.57375661489131
 30
0.0
 11
-175.4601280418602
 21
26.42626400509393
 31
0.0
  0
LINE
  5
1B7
330
1F
100
AcDbEntity
  8
その他
  6
Continuous
 62
     7
370
     9
100
AcDbLine
 10
-119.6255300161001
 20
-43.57375661489131
 30
0.0
 11
-176.3601161647488
 21
-43.57375661489131
 31
0.0
  0
LINE
  5
1B8
330
1F
100
AcDbEntity
  8
その他
  6
Continuous
 62
     7
370
     9
100
AcDbLine
 10
-103.6491819639463
 20
26.42626400509393
 30
0.0
 11
-176.3601161647488
 21
26.42626400509393
 31
0.0
  0
LINE
  5
1B9
330
1F
100
AcDbEntity
  8
その他
  6
Continuous
 62
     7
370
     9
100
AcDbLine
 10
-175.4601280418602
 20
-43.57375661489131
 30
0.0
 11
-176.4390618401605
 21
-36.13790538890947
 31
0.0
  0
LINE
  5
1BA
330
1F
100
AcDbEntity
  8
その他
  6
Continuous
 62
     7
370
     9
100
AcDbLine
 10
-175.4601280418602
 20
-43.57375661489131
 30
0.0
 11
-174.48119424356
 21
-36.13790538890947
 31
0.0
  0
LINE
  5
1BB
330
1F
100
AcDbEntity
  8
その他
  6
Continuous
 62
     7
370
     9
100
AcDbLine
 10
-175.4601280418602
 20
26.42626400509393
 30
0.0
 11
-176.4390618401605
 21
18.99041277911205
 31
0.0
  0
LINE
  5
1BC
330
1F
100
AcDbEntity
  8
その他
  6
Continuous
 62
     7
370
     9
100
AcDbLine
 10
-175.4601280418602
 20
26.42626400509393
 30
0.0
 11
-174.48119424356
 21
18.99041277911205
 31
0.0
  0
LINE
  5
1BD
330
1F
100
AcDbEntity
  8
建具
  6
Continuous
 62
     7
370
     9
100
AcDbLine
 10
-108.0734431086359
 20
-103.8601558376004
 30
0.0
 11
-94.28641786317571
 21
-101.4292451600771
 31
0.0
  0
LINE
  5
1BE
330
1F
100
AcDbEntity
  8
建具
  6
Continuous
 62
     7
370
     9
100
AcDbLine
 10
-107.3788547825169
 20
-107.799422557934
 30
0.0
 11
-93.59182953705657
 21
-105.3683634165172
 31
0.0
  0
LINE
  5
1BF
330
1F
100
AcDbEntity
  8
建具
  6
Continuous
 62
     7
370
     9
100
AcDbLine
 10
27.42658328494507
 20
-103.8601558376004
 30
0.0
 11
41.21368276235218
 21
-101.4292451600771
 31
0.0
  0
LINE
  5
1C0
330
1F
100
AcDbEntity
  8
建具
  6
Continuous
 62
     7
370
     9
100
AcDbLine
 10
28.12124584301101
 20
-107.799422557934
 30
0.0
 11
41.90819685652453
 21
-105.3683634165172
 31
0.0
  0
LINE
  5
1C1
330
1F
100
AcDbEntity
  8
建具
  6
Continuous
 62
     4
370
     9
100
AcDbLine
 10
-102.9601239178632
 20
-66.43021842337951
 30
0.0
 11
-102.9601239178632
 21
-102.9585717278558
 31
0.0
  0
LINE
  5
1C2
330
1F
100
AcDbEntity
  8
建具
  6
Continuous
 62
     4
370
     9
100
AcDbLine
 10
-102.9601239178632
 20
-107.0202654864338
 30
0.0
 11
-102.9601239178632
 21
-121.5301428717537
 31
0.0
  0
LINE
  5
1C3
330
1F
100
AcDbEntity
  8
建具
  6
Continuous
 62
     4
370
     9
100
AcDbLine
 10
-98.46018330342064
 20
-66.43021842337951
 30
0.0
 11
-98.46018330342064
 21
-102.1651621225719
 31
0.0
  0
LINE
  5
1C4
330
1F
100
AcDbEntity
  8
建具
  6
Continuous
 62
     4
370
     9
100
AcDbLine
 10
-98.46018330342064
 20
-106.2268002071897
 30
0.0
 11
-98.46018330342064
 21
-121.5301428717537
 31
0.0
  0
LINE
  5
1C5
330
1F
100
AcDbEntity
  8
建具
  6
Continuous
 62
     4
370
     9
100
AcDbLine
 10
32.53982824377108
 20
-66.43021842337951
 30
0.0
 11
32.53982824377108
 21
-102.9586088438292
 31
0.0
  0
LINE
  5
1C6
330
1F
100
AcDbEntity
  8
建具
  6
Continuous
 62
     4
370
     9
100
AcDbLine
 10
32.53982824377108
 20
-107.0202840444204
 30
0.0
 11
32.53982824377108
 21
-121.5301428717537
 31
0.0
  0
LINE
  5
1C7
330
1F
100
AcDbEntity
  8
建具
  6
Continuous
 62
     4
370
     9
100
AcDbLine
 10
37.03991732210726
 20
-66.43021842337951
 30
0.0
 11
37.03991732210726
 21
-102.1651621225719
 31
0.0
  0
LINE
  5
1C8
330
1F
100
AcDbEntity
  8
建具
  6
Continuous
 62
     4
370
     9
100
AcDbLine
 10
37.03991732210726
 20
-106.226781649203
 30
0.0
 11
37.03991732210726
 21
-121.5301428717537
 31
0.0
  0
ARC
  5
1C9
330
1F
100
AcDbEntity
  8
通り芯
  6
Continuous
 62
     3
370
     9
100
AcDbCircle
 10
-136.6652135900549
 20
-58.78002245103998
 30
0.0
 40
10.99999840195115
100
AcDbArc
 50
74.99996948242188
 51
121.7902069091797
  0
ARC
  5
1CA
330
1F
100
AcDbEntity
  8
通り芯
  6
Continuous
 62
     3
370
     9
100
AcDbCircle
 10
-113.0866976351352
 20
-51.1216609645535
 30
0.0
 40
1.500000019331236
100
AcDbArc
 50
254.9999084472656
 51
318.4355773925781
  0
ARC
  5
1CB
330
1F
100
AcDbEntity
  8
通り芯
  6
Continuous
 62
     3
370
     9
100
AcDbCircle
 10
-118.0571203283362
 20
-49.7897913752376
 30
0.0
 40
1.500000019331236
100
AcDbArc
 50
191.5648956298828
 51
254.9999084472656
  0
ARC
  5
1CC
330
1F
100
AcDbEntity
  8
通り芯
  6
Continuous
 62
     3
370
     9
100
AcDbCircle
 10
-124.1982550543708
 20
-45.94435383564725
 30
0.0
 40
1.625007632616404
100
AcDbArc
 50
187.620590209961
 51
322.37890625
  0
ARC
  5
1CD
330
1F
100
AcDbEntity
  8
通り芯
  6
Continuous
 62
     3
370
     9
100
AcDbCircle
 10
-120.8690264727618
 20
-48.51871775034319
 30
0.0
 40
1.000000012887491
100
AcDbArc
 50
11.56642150878907
 51
75.00077819824219
  0
ARC
  5
1CE
330
1F
100
AcDbEntity
  8
通り芯
  6
Continuous
 62
     3
370
     9
100
AcDbCircle
 10
-110.0158704603041
 20
-51.4268284978094
 30
0.0
 40
1.000000012887491
100
AcDbArc
 50
75.00021362304686
 51
138.4349670410157
  0
ARC
  5
1CF
330
1F
100
AcDbEntity
  8
通り芯
  6
Continuous
 62
     3
370
     9
100
AcDbCircle
 10
-129.9938029521221
 20
-44.39142150878912
 30
0.0
 40
1.625007632616404
100
AcDbArc
 50
187.6192932128907
 51
322.3796997070313
  0
ARC
  5
1D0
330
1F
100
AcDbEntity
  8
通り芯
  6
Continuous
 62
     3
370
     9
100
AcDbCircle
 10
-105.8455939215583
 20
-50.86192338273338
 30
0.0
 40
1.625007632616404
100
AcDbArc
 50
187.620590209961
 51
322.3807373046876
  0
ARC
  5
1D1
330
1F
100
AcDbEntity
  8
通り芯
  6
Continuous
 62
     3
370
     9
100
AcDbCircle
 10
-125.1480528135557
 20
-52.54854744576127
 30
0.0
 40
2.000000025774982
100
AcDbArc
 50
11.56620788574219
 51
75.00050354003906
  0
ARC
  5
1D2
330
1F
100
AcDbEntity
  8
通り芯
  6
JWW_DASHED1
 62
     3
370
     9
100
AcDbCircle
 10
-108.3251636402027
 20
-57.05620818267002
 30
0.0
 40
2.000000025774982
100
AcDbArc
 50
74.999755859375
 51
138.435073852539
  0
ARC
  5
1D3
330
1F
100
AcDbEntity
  8
通り芯
  6
JWW_DASHED1
 62
     3
370
     9
100
AcDbCircle
 10
-111.7339688687711
 20
-55.62516471244201
 30
0.0
 40
1.500000019331236
100
AcDbArc
 50
255.0012817382812
 51
318.4365081787109
  0
ARC
  5
1D4
330
1F
100
AcDbEntity
  8
通り芯
  6
JWW_DASHED1
 62
     3
370
     9
100
AcDbCircle
 10
-107.8325604413007
 20
-58.22343131400451
 30
0.0
 40
3.000000038662472
100
AcDbArc
 50
7.000076293945316
 51
74.99990844726564
  0
ARC
  5
1D5
330
1F
100
AcDbEntity
  8
通り芯
  6
Continuous
 62
     3
370
     9
100
AcDbCircle
 10
70.74493276235218
 20
-58.78002245103998
 30
0.0
 40
10.99999840195115
100
AcDbArc
 50
58.20979309082032
 51
105.0000305175781
  0
ARC
  5
1D6
330
1F
100
AcDbEntity
  8
通り芯
  6
Continuous
 62
     3
370
     9
100
AcDbCircle
 10
47.16649103937921
 20
-51.1216609645535
 30
0.0
 40
1.500000019331236
100
AcDbArc
 50
221.5644226074219
 51
285.0000915527344
  0
ARC
  5
1D7
330
1F
100
AcDbEntity
  8
通り芯
  6
Continuous
 62
     3
370
     9
100
AcDbCircle
 10
52.13691373258023
 20
-49.7897913752376
 30
0.0
 40
1.500000019331236
100
AcDbArc
 50
285.0000915527344
 51
348.4351043701172
  0
ARC
  5
1D8
330
1F
100
AcDbEntity
  8
通り芯
  6
Continuous
 62
     3
370
     9
100
AcDbCircle
 10
58.27797422666812
 20
-45.94435383564725
 30
0.0
 40
1.625007632616404
100
AcDbArc
 50
217.62109375
 51
352.3794097900391
  0
ARC
  5
1D9
330
1F
100
AcDbEntity
  8
通り芯
  6
Continuous
 62
     3
370
     9
100
AcDbCircle
 10
54.94867141311234
 20
-48.51871775034319
 30
0.0
 40
1.000000012887491
100
AcDbArc
 50
104.9992218017578
 51
168.4335784912109
  0
ARC
  5
1DA
330
1F
100
AcDbEntity
  8
通り芯
  6
Continuous
 62
     3
370
     9
100
AcDbCircle
 10
44.09551540065461
 20
-51.4268284978094
 30
0.0
 40
1.000000012887491
100
AcDbArc
 50
41.56501770019532
 51
104.9997711181641
  0
ARC
  5
1DB
330
1F
100
AcDbEntity
  8
通り芯
  6
Continuous
 62
     3
370
     9
100
AcDbCircle
 10
64.07355924039273
 20
-44.39142150878912
 30
0.0
 40
1.625007632616404
100
AcDbArc
 50
217.6203002929688
 51
352.3807067871094
  0
ARC
  5
1DC
330
1F
100
AcDbEntity
  8
通り芯
  6
Continuous
 62
     3
370
     9
100
AcDbCircle
 10
39.92531309385562
 20
-50.86192338273338
 30
0.0
 40
1.625007632616404
100
AcDbArc
 50
217.6192626953125
 51
352.3794097900391
  0
ARC
  5
1DD
330
1F
100
AcDbEntity
  8
通り芯
  6
Continuous
 62
     3
370
     9
100
AcDbCircle
 10
59.22784621779984
 20
-52.54854744576127
 30
0.0
 40
2.000000025774982
100
AcDbArc
 50
104.9994812011719
 51
168.4337921142578
  0
ARC
  5
1DE
330
1F
100
AcDbEntity
  8
通り芯
  6
Continuous
 62
     3
370
     9
100
AcDbCircle
 10
42.40480858055319
 20
-57.05620818267002
 30
0.0
 40
2.000000025774982
100
AcDbArc
 50
41.56492614746094
 51
105.000244140625
  0
ARC
  5
1DF
330
1F
100
AcDbEntity
  8
通り芯
  6
Continuous
 62
     3
370
     9
100
AcDbCircle
 10
45.81368804106843
 20
-55.62516471244201
 30
0.0
 40
1.500000019331236
100
AcDbArc
 50
221.5634918212891
 51
284.9987182617188
  0
ARC
  5
1E0
330
1F
100
AcDbEntity
  8
通り芯
  6
Continuous
 62
     3
370
     9
100
AcDbCircle
 10
41.91220538165116
 20
-58.22343131400451
 30
0.0
 40
3.000000038662472
100
AcDbArc
 50
105.0000915527343
 51
172.9999237060547
  0
ARC
  5
1E1
330
1F
100
AcDbEntity
  8
通り芯
  6
Continuous
 62
     3
370
     9
100
AcDbCircle
 10
35.22791550095015
 20
-63.43020852578658
 30
0.0
 40
3.000000038662472
100
AcDbArc
 50
270.0
 51
352.9999237060547
  0
ARC
  5
1E2
330
1F
100
AcDbEntity
  8
通り芯
  6
Continuous
 62
     3
370
     9
100
AcDbCircle
 10
55.56004572687921
 20
-53.01368482435076
 30
0.0
 40
1.500000019331236
100
AcDbArc
 50
285.0000915527344
 51
348.4337158203125
  0
ARC
  5
1E3
330
1F
100
AcDbEntity
  8
通り芯
  6
Continuous
 62
     3
370
     9
100
AcDbCircle
 10
38.27083146378804
 20
-55.05803263896225
 30
0.0
 40
3.000000038662472
100
AcDbArc
 50
104.9995880126953
 51
173.0002746582032
  0
ARC
  5
1E4
330
1F
100
AcDbEntity
  8
通り芯
  6
Continuous
 62
     3
370
     9
100
AcDbCircle
 10
21.6954316010346
 20
-71.43018543140315
 30
0.0
 40
5.000000064437454
100
AcDbArc
 50
90.0
 51
175.9144134521484
  0
ARC
  5
1E5
330
1F
100
AcDbEntity
  8
通り芯
  6
Continuous
 62
     3
370
     9
100
AcDbCircle
 10
32.11284608583195
 20
-55.97821185137779
 30
0.0
 40
3.000000038662472
100
AcDbArc
 50
274.0000152587891
 51
352.9999084472656
  0
ARC
  5
1E6
330
1F
100
AcDbEntity
  8
通り芯
  6
Continuous
 62
     3
370
     9
100
AcDbCircle
 10
-87.61571242873735
 20
-71.43018543140315
 30
0.0
 40
5.000000064437454
100
AcDbArc
 50
4.085586547851563
 51
90.00000000000001
  0
ARC
  5
1E7
330
1F
100
AcDbEntity
  8
通り芯
  6
Continuous
 62
     3
370
     9
100
AcDbCircle
 10
-96.4601148450697
 20
-53.93022667137357
 30
0.0
 40
2.500000032218727
100
AcDbArc
 50
270.0
 51
336.4222106933594
  0
ARC
  5
1E8
330
1F
100
AcDbEntity
  8
通り芯
  6
JWW_DASHED1
 62
     3
370
     9
100
AcDbCircle
 10
-104.1911865234375
 20
-55.05803263896225
 30
0.0
 40
3.000000038662472
100
AcDbArc
 50
6.999725341796887
 51
11.83265686035158
  0
ARC
  5
1E9
330
1F
100
AcDbEntity
  8
通り芯
  6
Continuous
 62
     3
370
     9
100
AcDbCircle
 10
-82.78276730099243
 20
-55.93025801375111
 30
0.0
 40
1.000000012887491
100
AcDbArc
 50
11.11933898925782
 51
90.00000000000001
  0
ARC
  5
1EA
330
1F
100
AcDbEntity
  8
通り芯
  6
JWW_DASHED1
 62
     3
370
     9
100
AcDbCircle
 10
-98.03316402950806
 20
-55.97821185137779
 30
0.0
 40
3.000000038662472
100
AcDbArc
 50
187.0000915527344
 51
265.9999847412109
  0
ARC
  5
1EB
330
1F
100
AcDbEntity
  8
通り芯
  6
Continuous
 62
     3
370
     9
100
AcDbCircle
 10
-104.1911865234375
 20
-55.05803263896225
 30
0.0
 40
3.000000038662472
100
AcDbArc
 50
11.83267211914062
 51
74.99952697753905
  0
ARC
  5
1EC
330
1F
100
AcDbEntity
  8
通り芯
  6
Continuous
 62
     3
370
     9
100
AcDbCircle
 10
-98.80807132205446
 20
-53.93022667137357
 30
0.0
 40
2.500000032218727
100
AcDbArc
 50
191.8328552246094
 51
270.0
  0
ARC
  5
1ED
330
1F
100
AcDbEntity
  8
通り芯
  6
Continuous
 62
     3
370
     9
100
AcDbCircle
 10
-143.5773584314294
 20
-42.43021347458303
 30
0.0
 40
1.000000012887491
100
AcDbArc
 50
90.0
 51
172.8746795654297
  0
ARC
  5
1EE
330
1F
100
AcDbEntity
  8
通り芯
  6
Continuous
 62
     3
370
     9
100
AcDbCircle
 10
77.65711471970015
 20
-42.43021347458303
 30
0.0
 40
1.000000012887491
100
AcDbArc
 50
7.125259399414078
 51
90.00000000000001
  0
ARC
  5
1EF
330
1F
100
AcDbEntity
  8
通り芯
  6
Continuous
 62
     3
370
     9
100
AcDbCircle
 10
-32.96014041385133
 20
218.2698968835778
 30
0.0
 40
111.5000028867979
100
AcDbArc
 50
0.0
 51
180.0
  0
ARC
  5
1F0
330
1F
100
AcDbEntity
  8
通り芯
  6
Continuous
 62
     3
370
     9
100
AcDbCircle
 10
-32.96014041385133
 20
218.2698968835778
 30
0.0
 40
112.4999907210067
100
AcDbArc
 50
0.0
 51
180.0
  0
ARC
  5
1F1
330
1F
100
AcDbEntity
  8
通り芯
  6
Continuous
 62
     3
370
     9
100
AcDbCircle
 10
-121.4803636705553
 20
-53.01361059240401
 30
0.0
 40
1.500000019331236
100
AcDbArc
 50
191.561996459961
 51
255.0001983642579
  0
ARC
  5
1F2
330
1F
100
AcDbEntity
  8
通り芯
  6
Continuous
 62
     3
370
     9
100
AcDbCircle
 10
-122.7891471244194
 20
-55.71171916239975
 30
0.0
 40
1.500000019331236
100
AcDbArc
 50
9.57385253906251
 51
65.77804565429689
  0
ARC
  5
1F3
330
1F
100
AcDbEntity
  8
通り芯
  6
Continuous
 62
     3
370
     9
100
AcDbCircle
 10
16.13115333350929
 20
-65.11527371793186
 30
0.0
 40
5.000000064437454
100
AcDbArc
 50
93.99993896484382
 51
175.9146270751953
  0
ARC
  5
1F4
330
1F
100
AcDbEntity
  8
通り芯
  6
Continuous
 62
     3
370
     9
100
AcDbCircle
 10
-82.05150839315876
 20
-65.11527371793186
 30
0.0
 40
5.000000064437454
100
AcDbArc
 50
4.085784912109379
 51
76.867431640625
  0
ARC
  5
1F5
330
1F
100
AcDbEntity
  8
通り芯
  6
Continuous
 62
     3
370
     9
100
AcDbCircle
 10
45.38240043021538
 20
-58.84653427536428
 30
0.0
 40
1.500000019331236
100
AcDbArc
 50
105.000473022461
 51
171.7400360107422
  0
ARC
  5
1F6
330
1F
100
AcDbEntity
  8
通り芯
  6
Continuous
 62
     3
370
     9
100
AcDbCircle
 10
37.22000402502108
 20
-67.43019697859486
 30
0.0
 40
1.000000012887491
100
AcDbArc
 50
11.30953979492188
 51
90.0
  0
ARC
  5
1F7
330
1F
100
AcDbEntity
  8
通り芯
  6
Continuous
 62
     3
370
     9
100
AcDbCircle
 10
-118.1919626596812
 20
-61.93020357699014
 30
0.0
 40
1.500000019331236
100
AcDbArc
 50
189.5725860595703
 51
270.0
  0
ARC
  5
1F8
330
1F
100
AcDbEntity
  8
通り芯
  6
Continuous
 62
     3
370
     9
100
AcDbCircle
 10
-105.3922223065351
 20
-64.93021347458303
 30
0.0
 40
1.500000019331236
100
AcDbArc
 50
17.72677612304687
 51
90.0
  0
ARC
  5
1F9
330
1F
100
AcDbEntity
  8
通り芯
  6
Continuous
 62
     3
370
     9
100
AcDbCircle
 10
-101.1481963286529
 20
-63.43020852578658
 30
0.0
 40
3.000000038662472
100
AcDbArc
 50
200.3329315185547
 51
270.0
  0
ARC
  5
1FA
330
1F
100
AcDbEntity
  8
通り芯
  6
Continuous
 62
     3
370
     9
100
AcDbCircle
 10
-79.02900621568837
 20
-107.4302299705712
 30
0.0
 40
1.000000012887491
100
AcDbArc
 50
184.0838317871093
 51
270.0
  0
ARC
  5
1FB
330
1F
100
AcDbEntity
  8
通り芯
  6
Continuous
 62
     3
370
     9
100
AcDbCircle
 10
13.10872538798561
 20
-107.4302299705712
 30
0.0
 40
1.000000012887491
100
AcDbArc
 50
270.0
 51
355.9161682128906
  0
ARC
  5
1FC
330
1F
100
AcDbEntity
  8
躯体
  6
Continuous
 62
     2
370
     9
100
AcDbCircle
 10
-32.96014041385133
 20
218.2698968835778
 30
0.0
 40
83.00000164959881
100
AcDbArc
 50
18.79946899414062
 51
41.20048522949219
  0
ARC
  5
1FD
330
1F
100
AcDbEntity
  8
躯体
  6
Continuous
 62
     2
370
     9
100
AcDbCircle
 10
-32.96014041385133
 20
218.2698968835778
 30
0.0
 40
86.00000226819839
100
AcDbArc
 50
18.666748046875
 51
41.33323669433593
  0
ARC
  5
1FE
330
1F
100
AcDbEntity
  8
躯体
  6
Continuous
 62
     2
370
     9
100
AcDbCircle
 10
-32.96014041385133
 20
218.2698968835778
 30
0.0
 40
86.9999901024071
100
AcDbArc
 50
17.63522338867188
 51
42.36474609375
  0
ARC
  5
1FF
330
1F
100
AcDbEntity
  8
躯体
  6
Continuous
 62
     2
370
     9
100
AcDbCircle
 10
-32.96014041385133
 20
218.2698968835778
 30
0.0
 40
81.49998742180902
100
AcDbArc
 50
17.81321716308594
 51
42.186767578125
  0
ARC
  5
200
330
1F
100
AcDbEntity
  8
躯体
  6
Continuous
 62
     2
370
     9
100
AcDbCircle
 10
-32.96014041385133
 20
218.2698968835778
 30
0.0
 40
83.00000164959881
100
AcDbArc
 50
48.79945373535156
 51
71.20046997070312
  0
ARC
  5
201
330
1F
100
AcDbEntity
  8
躯体
  6
Continuous
 62
     2
370
     9
100
AcDbCircle
 10
-32.96014041385133
 20
218.2698968835778
 30
0.0
 40
86.00000226819839
100
AcDbArc
 50
48.66673278808594
 51
71.33322143554688
  0
ARC
  5
202
330
1F
100
AcDbEntity
  8
躯体
  6
Continuous
 62
     2
370
     9
100
AcDbCircle
 10
-32.96014041385133
 20
218.2698968835778
 30
0.0
 40
86.9999901024071
100
AcDbArc
 50
47.63520812988281
 51
72.36473083496094
  0
ARC
  5
203
330
1F
100
AcDbEntity
  8
躯体
  6
Continuous
 62
     2
370
     9
100
AcDbCircle
 10
-32.96014041385133
 20
218.2698968835778
 30
0.0
 40
81.49998742180902
100
AcDbArc
 50
47.81320190429688
 51
72.18675231933594
  0
ARC
  5
204
330
1F
100
AcDbEntity
  8
躯体
  6
Continuous
 62
     2
370
     9
100
AcDbCircle
 10
-32.96014041385133
 20
218.2698968835778
 30
0.0
 40
83.00000164959881
100
AcDbArc
 50
78.79945373535155
 51
101.2004699707031
  0
ARC
  5
205
330
1F
100
AcDbEntity
  8
躯体
  6
Continuous
 62
     2
370
     9
100
AcDbCircle
 10
-32.96014041385133
 20
218.2698968835778
 30
0.0
 40
86.00000226819839
100
AcDbArc
 50
78.66673278808594
 51
101.3332214355469
  0
ARC
  5
206
330
1F
100
AcDbEntity
  8
躯体
  6
Continuous
 62
     2
370
     9
100
AcDbCircle
 10
-32.96014041385133
 20
218.2698968835778
 30
0.0
 40
86.9999901024071
100
AcDbArc
 50
77.63520812988281
 51
102.3647308349609
  0
ARC
  5
207
330
1F
100
AcDbEntity
  8
躯体
  6
Continuous
 62
     2
370
     9
100
AcDbCircle
 10
-32.96014041385133
 20
218.2698968835778
 30
0.0
 40
83.00000164959881
100
AcDbArc
 50
108.7994689941406
 51
131.2004852294922
  0
ARC
  5
208
330
1F
100
AcDbEntity
  8
躯体
  6
Continuous
 62
     2
370
     9
100
AcDbCircle
 10
-32.96014041385133
 20
218.2698968835778
 30
0.0
 40
86.00000226819839
100
AcDbArc
 50
108.666748046875
 51
131.3332366943359
  0
ARC
  5
209
330
1F
100
AcDbEntity
  8
躯体
  6
Continuous
 62
     2
370
     9
100
AcDbCircle
 10
-32.96014041385133
 20
218.2698968835778
 30
0.0
 40
86.9999901024071
100
AcDbArc
 50
107.6352233886719
 51
132.36474609375
  0
ARC
  5
20A
330
1F
100
AcDbEntity
  8
躯体
  6
Continuous
 62
     2
370
     9
100
AcDbCircle
 10
-32.96014041385133
 20
218.2698968835778
 30
0.0
 40
81.49998742180902
100
AcDbArc
 50
107.8132171630859
 51
132.186767578125
  0
ARC
  5
20B
330
1F
100
AcDbEntity
  8
躯体
  6
Continuous
 62
     2
370
     9
100
AcDbCircle
 10
-32.96014041385133
 20
218.2698968835778
 30
0.0
 40
83.00000164959881
100
AcDbArc
 50
138.7994537353516
 51
161.2004699707031
  0
ARC
  5
20C
330
1F
100
AcDbEntity
  8
躯体
  6
Continuous
 62
     2
370
     9
100
AcDbCircle
 10
-32.96014041385133
 20
218.2698968835778
 30
0.0
 40
86.00000226819839
100
AcDbArc
 50
138.6667327880859
 51
161.3332214355469
  0
ARC
  5
20D
330
1F
100
AcDbEntity
  8
躯体
  6
Continuous
 62
     2
370
     9
100
AcDbCircle
 10
-32.96014041385133
 20
218.2698968835778
 30
0.0
 40
86.9999901024071
100
AcDbArc
 50
137.6352081298828
 51
162.3647308349609
  0
ARC
  5
20E
330
1F
100
AcDbEntity
  8
躯体
  6
Continuous
 62
     2
370
     9
100
AcDbCircle
 10
-32.96014041385133
 20
218.2698968835778
 30
0.0
 40
81.49998742180902
100
AcDbArc
 50
137.8132019042969
 51
162.1867523193359
  0
ARC
  5
20F
330
1F
100
AcDbEntity
  8
躯体
  6
Continuous
 62
     2
370
     9
100
AcDbCircle
 10
-32.96014041385133
 20
218.2698968835778
 30
0.0
 40
96.44103179106841
100
AcDbArc
 50
0.0
 51
180.0
  0
ARC
  5
210
330
1F
100
AcDbEntity
  8
躯体
  6
Continuous
 62
     2
370
     9
100
AcDbCircle
 10
-32.96014041385133
 20
218.2698968835778
 30
0.0
 40
102.0000024743982
100
AcDbArc
 50
0.0
 51
180.0
  0
ARC
  5
211
330
1F
100
AcDbEntity
  8
躯体
  6
Continuous
 62
     2
370
     9
100
AcDbCircle
 10
-32.96014041385133
 20
218.2698968835778
 30
0.0
 40
81.49998742180902
100
AcDbArc
 50
7.22616577148436
 51
12.18676757812498
  0
ARC
  5
212
330
1F
100
AcDbEntity
  8
躯体
  6
Continuous
 62
     2
370
     9
100
AcDbCircle
 10
-32.96014041385133
 20
218.2698968835778
 30
0.0
 40
83.00000164959881
100
AcDbArc
 50
359.999984741211
 51
11.20048522949217
  0
ARC
  5
213
330
1F
100
AcDbEntity
  8
躯体
  6
Continuous
 62
     2
370
     9
100
AcDbCircle
 10
-32.96014041385133
 20
218.2698968835778
 30
0.0
 40
86.00000226819839
100
AcDbArc
 50
359.999984741211
 51
11.33323669433592
  0
ARC
  5
214
330
1F
100
AcDbEntity
  8
躯体
  6
Continuous
 62
     2
370
     9
100
AcDbCircle
 10
-32.96014041385133
 20
218.2698968835778
 30
0.0
 40
86.9999901024071
100
AcDbArc
 50
359.999984741211
 51
12.36474609374998
  0
ARC
  5
215
330
1F
100
AcDbEntity
  8
躯体
  6
Continuous
 62
     2
370
     9
100
AcDbCircle
 10
-32.96014041385133
 20
218.2698968835778
 30
0.0
 40
81.49998742180902
100
AcDbArc
 50
167.8132324218751
 51
172.7738342285157
  0
ARC
  5
216
330
1F
100
AcDbEntity
  8
躯体
  6
Continuous
 62
     2
370
     9
100
AcDbCircle
 10
-32.96014041385133
 20
218.2698968835778
 30
0.0
 40
83.00000164959881
100
AcDbArc
 50
168.7995147705079
 51
180.0
  0
ARC
  5
217
330
1F
100
AcDbEntity
  8
躯体
  6
Continuous
 62
     2
370
     9
100
AcDbCircle
 10
-32.96014041385133
 20
218.2698968835778
 30
0.0
 40
86.00000226819839
100
AcDbArc
 50
168.6667633056641
 51
180.0
  0
ARC
  5
218
330
1F
100
AcDbEntity
  8
躯体
  6
Continuous
 62
     2
370
     9
100
AcDbCircle
 10
-32.96014041385133
 20
218.2698968835778
 30
0.0
 40
86.9999901024071
100
AcDbArc
 50
167.63525390625
 51
180.0
  0
ARC
  5
219
330
1F
100
AcDbEntity
  8
躯体
  6
Continuous
 62
     2
370
     9
100
AcDbCircle
 10
-32.96014041385133
 20
218.2698968835778
 30
0.0
 40
81.49998742180902
100
AcDbArc
 50
94.32830810546875
 51
102.186752319336
  0
ARC
  5
21A
330
1F
100
AcDbEntity
  8
躯体
  6
Continuous
 62
     2
370
     9
100
AcDbCircle
 10
-32.96014041385133
 20
218.2698968835778
 30
0.0
 40
81.49998742180902
100
AcDbArc
 50
77.81320190429688
 51
85.67166137695312
  0
ARC
  5
21B
330
1F
100
AcDbEntity
  8
躯体
  6
Continuous
 62
     2
370
     9
100
AcDbCircle
 10
-32.96014041385133
 20
218.2698968835778
 30
0.0
 40
81.87546188766893
100
AcDbArc
 50
87.12954711914062
 51
92.87045288085938
  0
ARC
  5
21C
330
1F
100
AcDbEntity
  8
躯体
  6
Continuous
 62
     2
370
     9
100
AcDbCircle
 10
-32.96014041385133
 20
218.2698968835778
 30
0.0
 40
102.5000010309993
100
AcDbArc
 50
0.0
 51
180.0
  0
ARC
  5
21D
330
1F
100
AcDbEntity
  8
躯体
  6
Continuous
 62
     2
370
     9
100
AcDbCircle
 10
-111.8286517169024
 20
228.2699793635188
 30
0.0
 40
2.000000025774982
100
AcDbArc
 50
172.7738342285156
 51
214.6581573486328
  0
ARC
  5
21E
330
1F
100
AcDbEntity
  8
躯体
  6
Continuous
 62
     2
370
     9
100
AcDbCircle
 10
-112.326933659734
 20
227.2698894603832
 30
0.0
 40
2.000000025774982
100
AcDbArc
 50
173.5299377441407
 51
229.9106903076172
  0
ARC
  5
21F
330
1F
100
AcDbEntity
  8
躯体
  6
Continuous
 62
     2
370
     9
100
AcDbCircle
 10
-36.96012886665962
 20
298.0450400687553
 30
0.0
 40
2.000000025774982
100
AcDbArc
 50
36.49244689941406
 51
92.8704833984375
  0
ARC
  5
220
330
1F
100
AcDbEntity
  8
躯体
  6
Continuous
 62
     2
370
     9
100
AcDbCircle
 10
-38.96012309306376
 20
297.5430836445576
 30
0.0
 40
2.000000025774982
100
AcDbArc
 50
52.44360351562501
 51
94.3284912109375
  0
ARC
  5
221
330
1F
100
AcDbEntity
  8
躯体
  6
Continuous
 62
     2
370
     9
100
AcDbCircle
 10
-28.96015196104305
 20
298.0450400687553
 30
0.0
 40
2.000000025774982
100
AcDbArc
 50
87.1295166015625
 51
143.5081634521484
  0
ARC
  5
222
330
1F
100
AcDbEntity
  8
躯体
  6
Continuous
 62
     2
370
     9
100
AcDbCircle
 10
-26.96015773463891
 20
297.5430836445576
 30
0.0
 40
2.000000025774982
100
AcDbArc
 50
85.67150878906251
 51
127.5565490722656
  0
ARC
  5
223
330
1F
100
AcDbEntity
  8
躯体
  6
Continuous
 62
     2
370
     9
100
AcDbCircle
 10
45.90840800517311
 20
228.2699793635188
 30
0.0
 40
2.000000025774982
100
AcDbArc
 50
325.3418426513672
 51
7.22616577148438
  0
ARC
  5
224
330
1F
100
AcDbEntity
  8
躯体
  6
Continuous
 62
     2
370
     9
100
AcDbCircle
 10
46.40665283203124
 20
227.2698894603832
 30
0.0
 40
2.000000025774982
100
AcDbArc
 50
310.0889282226562
 51
6.470062255859399
  0
ARC
  5
225
330
1F
100
AcDbEntity
  8
躯体
  6
Continuous
 62
     2
370
     9
100
AcDbCircle
 10
-112.7262644174937
 20
-43.97126868995467
 30
0.0
 40
2.000000025774982
100
AcDbArc
 50
190.6148834228515
 51
255.0005035400391
  0
ARC
  5
226
330
1F
100
AcDbEntity
  8
躯体
  6
JWW_DASHED1
 62
     2
370
     9
100
AcDbCircle
 10
46.80602070576437
 20
-43.97126868995467
 30
0.0
 40
2.000000025774982
100
AcDbArc
 50
284.9994964599609
 51
349.3851165771484
  0
ARC
  5
227
330
1F
100
AcDbEntity
  8
躯体
  6
Continuous
 62
     2
370
     9
100
AcDbCircle
 10
-77.1897983860325
 20
-50.57375496529252
 30
0.0
 40
1.500000019331236
100
AcDbArc
 50
11.31021118164062
 51
90.00000000000001
  0
ARC
  5
228
330
1F
100
AcDbEntity
  8
躯体
  6
Continuous
 62
     2
370
     9
100
AcDbCircle
 10
56.49833753431163
 20
-40.33895106959994
 30
0.0
 40
3.000000038662472
100
AcDbArc
 50
188.7071380615234
 51
285.0002746582031
  0
ARC
  5
229
330
1F
100
AcDbEntity
  8
躯体
  6
Continuous
 62
     2
370
     9
100
AcDbCircle
 10
-122.4185812460409
 20
-40.33895106959994
 30
0.0
 40
3.000000038662472
100
AcDbArc
 50
254.9997253417969
 51
351.2928619384766
  0
ARC
  5
22A
330
1F
100
AcDbEntity
  8
躯体
  6
Continuous
 62
     2
370
     9
100
AcDbCircle
 10
37.29646293021538
 20
-45.07376156368775
 30
0.0
 40
1.500000019331236
100
AcDbArc
 50
90.0
 51
169.911865234375
  0
ARC
  5
22B
330
1F
100
AcDbEntity
  8
躯体
  6
Continuous
 62
     2
370
     9
100
AcDbCircle
 10
47.67037749419343
 20
-42.07375166609486
 30
0.0
 40
1.500000019331236
100
AcDbArc
 50
270.0
 51
349.3843536376953
  0
ARC
  5
22C
330
1F
100
AcDbEntity
  8
躯体
  6
Continuous
 62
     2
370
     9
100
AcDbCircle
 10
33.29357943148226
 20
-47.59185766271651
 30
0.0
 40
2.000000025774982
100
AcDbArc
 50
284.9994964599609
 51
349.9125671386718
  0
ARC
  5
22D
330
1F
100
AcDbEntity
  8
躯体
  6
Continuous
 62
     2
370
     9
100
AcDbCircle
 10
22.79421287742819
 20
-51.57380775245467
 30
0.0
 40
1.000000012887491
100
AcDbArc
 50
90.0
 51
164.0540161132812
  0
ARC
  5
22E
330
1F
100
AcDbEntity
  8
躯体
  6
Continuous
 62
     2
370
     9
100
AcDbCircle
 10
-109.8885255555848
 20
-45.07376156368775
 30
0.0
 40
1.500000019331236
100
AcDbArc
 50
26.49032592773439
 51
90.00000000000001
  0
ARC
  5
22F
330
1F
100
AcDbEntity
  8
躯体
  6
Continuous
 62
     2
370
     9
100
AcDbCircle
 10
-105.9190835488809
 20
-46.31284121951549
 30
0.0
 40
1.500000019331236
100
AcDbArc
 50
206.4903259277344
 51
254.9998779296875
  0
ARC
  5
230
330
1F
100
AcDbEntity
  8
躯体
  6
Continuous
 62
     2
370
     9
100
AcDbCircle
 10
-113.5905840899493
 20
-42.07375166609486
 30
0.0
 40
1.500000019331236
100
AcDbArc
 50
190.6153411865235
 51
270.0000000000001
  0
ARC
  5
231
330
1F
100
AcDbEntity
  8
仕上
  6
Continuous
 62
     4
370
     9
100
AcDbCircle
 10
46.48118170660898
 20
-36.82377146128069
 30
0.0
 40
0.2500000032218727
100
AcDbArc
 50
90.0
 51
150.6708221435547
  0
ARC
  5
232
330
1F
100
AcDbEntity
  8
仕上
  6
Continuous
 62
     4
370
     9
100
AcDbCircle
 10
39.68123845280827
 20
-36.82377146128069
 30
0.0
 40
0.2500000032218727
100
AcDbArc
 50
29.32917785644531
 51
90.0
  0
ARC
  5
233
330
1F
100
AcDbEntity
  8
仕上
  6
Continuous
 62
     4
370
     9
100
AcDbCircle
 10
43.08121007970858
 20
218.2698968835778
 30
0.0
 40
5.000000064437454
100
AcDbArc
 50
0.0
 51
180.0
  0
ARC
  5
234
330
1F
100
AcDbEntity
  8
仕上
  6
Continuous
 62
     4
370
     9
100
AcDbCircle
 10
-109.0014537914379
 20
218.2698968835778
 30
0.0
 40
5.000000064437454
100
AcDbArc
 50
0.0
 51
180.0
  0
ARC
  5
235
330
1F
100
AcDbEntity
  8
躯体
  6
Continuous
 62
     2
370
     9
100
AcDbCircle
 10
-32.96014041385133
 20
218.2698968835778
 30
0.0
 40
81.87546188766893
100
AcDbArc
 50
0.0
 51
6.469604492187501
  0
ARC
  5
236
330
1F
100
AcDbEntity
  8
躯体
  6
Continuous
 62
     2
370
     9
100
AcDbCircle
 10
-32.96014041385133
 20
218.2698968835778
 30
0.0
 40
81.87546188766893
100
AcDbArc
 50
173.5303955078126
 51
180.0
  0
ARC
  5
237
330
1F
100
AcDbEntity
  8
躯体
  6
Continuous
 62
     2
370
     9
100
AcDbCircle
 10
-5.460136289854304
 20
265.9012709334089
 30
0.0
 40
12.00000015464989
100
AcDbArc
 50
149.9999694824219
 51
329.9999237060547
  0
ARC
  5
238
330
1F
100
AcDbEntity
  8
躯体
  6
Continuous
 62
     2
370
     9
100
AcDbCircle
 10
5.053074522276162
 20
255.2020719785948
 30
0.0
 40
2.000000025774982
100
AcDbArc
 50
44.17442321777344
 51
134.4988708496094
  0
ARC
  5
239
330
1F
100
AcDbEntity
  8
躯体
  6
Continuous
 62
     2
370
     9
100
AcDbCircle
 10
5.674692844700147
 20
257.4150747763144
 30
0.0
 40
1.000000012887491
100
AcDbArc
 50
45.37591552734374
 51
142.6873474121094
  0
ARC
  5
23A
330
1F
100
AcDbEntity
  8
躯体
  6
Continuous
 62
     2
370
     9
100
AcDbCircle
 10
-32.96014041385133
 20
218.2698968835778
 30
0.0
 40
55.99999608220281
100
AcDbArc
 50
0.0
 51
45.37590026855468
  0
ARC
  5
23B
330
1F
100
AcDbEntity
  8
躯体
  6
Continuous
 62
     2
370
     9
100
AcDbCircle
 10
-5.460136289854304
 20
265.9012709334089
 30
0.0
 40
12.9999995876003
100
AcDbArc
 50
322.6880035400392
 51
329.9999084472657
  0
ARC
  5
23C
330
1F
100
AcDbEntity
  8
躯体
  6
Continuous
 62
     2
370
     9
100
AcDbCircle
 10
-18.37679195919556
 20
271.3013481346336
 30
0.0
 40
1.000000012887491
100
AcDbArc
 50
337.3119964599611
 51
74.62364196777347
  0
ARC
  5
23D
330
1F
100
AcDbEntity
  8
躯体
  6
Continuous
 62
     2
370
     9
100
AcDbCircle
 10
-5.460136289854304
 20
265.9012709334089
 30
0.0
 40
12.9999995876003
100
AcDbArc
 50
149.9999084472656
 51
157.3118591308594
  0
ARC
  5
23E
330
1F
100
AcDbEntity
  8
躯体
  6
Continuous
 62
     2
370
     9
100
AcDbCircle
 10
-19.98246608424829
 20
269.6565166576489
 30
0.0
 40
2.000000025774982
100
AcDbArc
 50
345.5018768310547
 51
75.82656860351564
  0
ARC
  5
23F
330
1F
100
AcDbEntity
  8
躯体
  6
Continuous
 62
     2
370
     9
100
AcDbCircle
 10
-5.460136289854304
 20
265.9012709334089
 30
0.0
 40
12.9999995876003
100
AcDbArc
 50
165.5021209716797
 51
314.4978637695312
  0
ARC
  5
240
330
1F
100
AcDbEntity
  8
躯体
  6
Continuous
 62
     2
370
     9
100
AcDbCircle
 10
-83.95102967958196
 20
232.7241930987384
 30
0.0
 40
2.000000025774982
100
AcDbArc
 50
164.1744079589844
 51
254.4988555908203
  0
ARC
  5
241
330
1F
100
AcDbEntity
  8
躯体
  6
Continuous
 62
     2
370
     9
100
AcDbCircle
 10
-86.17828501108532
 20
232.1561702418971
 30
0.0
 40
1.000000012887491
100
AcDbArc
 50
165.3759002685547
 51
262.6873321533203
  0
ARC
  5
242
330
1F
100
AcDbEntity
  8
躯体
  6
Continuous
 62
     2
370
     9
100
AcDbCircle
 10
-87.96011154587204
 20
218.2698968835778
 30
0.0
 40
12.9999995876003
100
AcDbArc
 50
82.68798828125004
 51
89.9998931884766
  0
ARC
  5
243
330
1F
100
AcDbEntity
  8
躯体
  6
Continuous
 62
     2
370
     9
100
AcDbCircle
 10
-32.96014041385133
 20
218.2698968835778
 30
0.0
 40
55.99999608220281
100
AcDbArc
 50
74.6240234375
 51
165.3759155273438
  0
ARC
  5
244
330
1F
100
AcDbEntity
  8
躯体
  6
Continuous
 62
     2
370
     9
100
AcDbCircle
 10
-32.96014041385133
 20
218.2698968835778
 30
0.0
 40
54.99999896900074
100
AcDbArc
 50
75.82635498046875
 51
164.1736450195312
  0
ARC
  5
245
330
1F
100
AcDbEntity
  8
躯体
  6
Continuous
 62
     2
370
     9
100
AcDbCircle
 10
-87.96011154587204
 20
218.2698968835778
 30
0.0
 40
12.00000015464989
100
AcDbArc
 50
359.999984741211
 51
89.99990844726562
  0
ARC
  5
246
330
1F
100
AcDbEntity
  8
仕上
  6
Continuous
 62
     6
370
     9
100
AcDbCircle
 10
35.31135220914273
 20
-40.57374671729842
 30
0.0
 40
3.000000038662472
100
AcDbArc
 50
185.3368835449219
 51
270.0
  0
ARC
  5
247
330
1F
100
AcDbEntity
  8
仕上
  6
Continuous
 62
     6
370
     9
100
AcDbCircle
 10
-101.2316330368455
 20
-40.57374671729842
 30
0.0
 40
3.000000038662472
100
AcDbArc
 50
270.0
 51
354.6630249023438
  0
ARC
  5
248
330
1F
100
AcDbEntity
  8
仕上
  6
Continuous
 62
     6
370
     9
100
AcDbCircle
 10
-105.2501052444045
 20
-41.57379950446057
 30
0.0
 40
2.000000025774982
100
AcDbArc
 50
270.0
 51
354.8082733154297
  0
ARC
  5
249
330
1F
100
AcDbEntity
  8
仕上
  6
Continuous
 62
     6
370
     9
100
AcDbCircle
 10
-112.1255423880913
 20
-42.57377805967596
 30
0.0
 40
1.000000012887491
100
AcDbArc
 50
190.3048858642579
 51
270.0
  0
ARC
  5
24A
330
1F
100
AcDbEntity
  8
仕上
  6
Continuous
 62
     6
370
     9
100
AcDbCircle
 10
46.2053357923353
 20
-42.57377805967596
 30
0.0
 40
1.000000012887491
100
AcDbArc
 50
270.0
 51
349.6962738037109
  0
ARC
  5
24B
330
1F
100
AcDbEntity
  8
仕上
  6
Continuous
 62
     6
370
     9
100
AcDbCircle
 10
-106.5460465714738
 20
-33.73267896497576
 30
0.0
 40
4.000000051549963
100
AcDbArc
 50
286.2024993896484
 51
354.8074035644531
  0
ARC
  5
24C
330
1F
100
AcDbEntity
  8
仕上
  6
Continuous
 62
     6
370
     9
100
AcDbCircle
 10
-96.14919433593751
 20
25.42624833390518
 30
0.0
 40
1.000000012887491
100
AcDbArc
 50
90.0
 51
174.8078460693359
  0
ARC
  5
24D
330
1F
100
AcDbEntity
  8
仕上
  6
Continuous
 62
     6
370
     9
100
AcDbCircle
 10
30.22898774018155
 20
25.42624833390518
 30
0.0
 40
1.000000012887491
100
AcDbArc
 50
5.19224548339844
 51
90.0
  0
ARC
  5
24E
330
1F
100
AcDbEntity
  8
仕上
  6
Continuous
 62
     6
370
     9
100
AcDbCircle
 10
28.82986400707351
 20
12.68470582704283
 30
0.0
 40
1.500000019331236
100
AcDbArc
 50
185.3371124267579
 51
259.0214233398438
  0
ARC
  5
24F
330
1F
100
AcDbEntity
  8
仕上
  6
Continuous
 62
     6
370
     9
100
AcDbCircle
 10
-94.75029329866977
 20
12.68470582704283
 30
0.0
 40
1.500000019331236
100
AcDbArc
 50
280.9779205322266
 51
354.6628265380859
  0
ARC
  5
250
330
1F
100
AcDbEntity
  8
仕上
  6
Continuous
 62
     6
370
     9
100
AcDbCircle
 10
-32.96014041385133
 20
218.2698968835778
 30
0.0
 40
59.00000134029904
100
AcDbArc
 50
0.0
 51
180.0
  0
ARC
  5
251
330
1F
100
AcDbEntity
  8
仕上
  6
Continuous
 62
     6
370
     9
100
AcDbCircle
 10
-32.96014041385133
 20
218.2698968835778
 30
0.0
 40
64.10232492395349
100
AcDbArc
 50
0.0
 51
180.0
  0
ARC
  5
252
330
1F
100
AcDbEntity
  8
仕上
  6
Continuous
 62
     6
370
     9
100
AcDbCircle
 10
-99.62440004091009
 20
225.5106294374208
 30
0.0
 40
1.500000019331236
100
AcDbArc
 50
265.0829467773438
 51
353.8010253906251
  0
ARC
  5
253
330
1F
100
AcDbEntity
  8
仕上
  6
Continuous
 62
     6
370
     9
100
AcDbCircle
 10
-98.08048689558696
 20
234.2664360252586
 30
0.0
 40
1.500000019331236
100
AcDbArc
 50
346.1986083984375
 51
74.91734313964844
  0
ARC
  5
254
330
1F
100
AcDbEntity
  8
仕上
  6
Continuous
 62
     6
370
     9
100
AcDbCircle
 10
-32.96014041385133
 20
218.2698968835778
 30
0.0
 40
65.55631534473316
100
AcDbArc
 50
166.1988372802735
 51
173.8011627197266
  0
ARC
  5
255
330
1F
100
AcDbEntity
  8
仕上
  6
Continuous
 62
     6
370
     9
100
AcDbCircle
 10
-93.12758294182852
 20
247.8744880470069
 30
0.0
 40
1.500000019331236
100
AcDbArc
 50
245.0829467773438
 51
333.8010253906251
  0
ARC
  5
256
330
1F
100
AcDbEntity
  8
仕上
  6
Continuous
 62
     6
370
     9
100
AcDbCircle
 10
-88.68212857633024
 20
255.5741224959089
 30
0.0
 40
1.500000019331236
100
AcDbArc
 50
326.1986083984374
 51
54.91734313964846
  0
ARC
  5
257
330
1F
100
AcDbEntity
  8
仕上
  6
Continuous
 62
     6
370
     9
100
AcDbCircle
 10
-32.96014041385133
 20
218.2698968835778
 30
0.0
 40
65.55631534473316
100
AcDbArc
 50
146.1988372802735
 51
153.8011627197266
  0
ARC
  5
258
330
1F
100
AcDbEntity
  8
仕上
  6
Continuous
 62
     6
370
     9
100
AcDbCircle
 10
-79.37370226061024
 20
266.6676415520745
 30
0.0
 40
1.500000019331236
100
AcDbArc
 50
225.0829467773438
 51
313.8010253906251
  0
ARC
  5
259
330
1F
100
AcDbEntity
  8
仕上
  6
Continuous
 62
     6
370
     9
100
AcDbCircle
 10
-72.56288402660469
 20
272.382462207691
 30
0.0
 40
1.500000019331236
100
AcDbArc
 50
306.1986083984375
 51
34.91734313964843
  0
ARC
  5
25A
330
1F
100
AcDbEntity
  8
仕上
  6
Continuous
 62
     6
370
     9
100
AcDbCircle
 10
-32.96014041385133
 20
218.2698968835778
 30
0.0
 40
65.55631534473316
100
AcDbArc
 50
126.1988372802734
 51
133.8011627197266
  0
ARC
  5
25B
330
1F
100
AcDbEntity
  8
仕上
  6
Continuous
 62
     6
370
     9
100
AcDbCircle
 10
-60.02158219620985
 20
279.6231947615339
 30
0.0
 40
1.500000019331236
100
AcDbArc
 50
205.0829467773438
 51
293.8010253906251
  0
ARC
  5
25C
330
1F
100
AcDbEntity
  8
仕上
  6
Continuous
 62
     6
370
     9
100
AcDbCircle
 10
-51.66692504882813
 20
282.6640322298617
 30
0.0
 40
1.500000019331236
100
AcDbArc
 50
286.1986083984375
 51
14.91734313964845
  0
ARC
  5
25D
330
1F
100
AcDbEntity
  8
仕上
  6
Continuous
 62
     6
370
     9
100
AcDbCircle
 10
-32.96014041385133
 20
218.2698968835778
 30
0.0
 40
65.55631534473316
100
AcDbArc
 50
106.1988372802735
 51
113.8011627197266
  0
ARC
  5
25E
330
1F
100
AcDbEntity
  8
仕上
  6
Continuous
 62
     6
370
     9
100
AcDbCircle
 10
-14.25328154692782
 20
282.6640322298617
 30
0.0
 40
1.500000019331236
100
AcDbArc
 50
165.0829467773438
 51
253.8010253906251
  0
ARC
  5
25F
330
1F
100
AcDbEntity
  8
仕上
  6
Continuous
 62
     6
370
     9
100
AcDbCircle
 10
-5.898624399546023
 20
279.6231947615339
 30
0.0
 40
1.500000019331236
100
AcDbArc
 50
246.1986083984375
 51
334.9173431396484
  0
ARC
  5
260
330
1F
100
AcDbEntity
  8
仕上
  6
Continuous
 62
     6
370
     9
100
AcDbCircle
 10
-32.96014041385133
 20
218.2698968835778
 30
0.0
 40
65.55631534473316
100
AcDbArc
 50
66.19883728027347
 51
73.80116271972659
  0
ARC
  5
261
330
1F
100
AcDbEntity
  8
仕上
  6
Continuous
 62
     6
370
     9
100
AcDbCircle
 10
6.642528966955226
 20
272.382462207691
 30
0.0
 40
1.500000019331236
100
AcDbArc
 50
145.0829467773438
 51
233.8010253906251
  0
ARC
  5
262
330
1F
100
AcDbEntity
  8
仕上
  6
Continuous
 62
     6
370
     9
100
AcDbCircle
 10
13.45331008498734
 20
266.6674930881809
 30
0.0
 40
1.500000019331236
100
AcDbArc
 50
226.1986083984375
 51
314.9173431396484
  0
ARC
  5
263
330
1F
100
AcDbEntity
  8
仕上
  6
Continuous
 62
     6
370
     9
100
AcDbCircle
 10
-32.96014041385133
 20
218.2698968835778
 30
0.0
 40
65.55631534473316
100
AcDbArc
 50
46.19883728027344
 51
53.80116271972657
  0
ARC
  5
264
330
1F
100
AcDbEntity
  8
仕上
  6
Continuous
 62
     6
370
     9
100
AcDbCircle
 10
22.76184774862757
 20
255.5741224959089
 30
0.0
 40
1.500000019331236
100
AcDbArc
 50
125.0829467773438
 51
213.8010253906251
  0
ARC
  5
265
330
1F
100
AcDbEntity
  8
仕上
  6
Continuous
 62
     6
370
     9
100
AcDbCircle
 10
27.20730211412585
 20
247.8744880470069
 30
0.0
 40
1.500000019331236
100
AcDbArc
 50
206.1986083984375
 51
294.9173431396484
  0
ARC
  5
266
330
1F
100
AcDbEntity
  8
仕上
  6
Continuous
 62
     6
370
     9
100
AcDbCircle
 10
-32.96014041385133
 20
218.2698968835778
 30
0.0
 40
65.55631534473316
100
AcDbArc
 50
26.19883728027349
 51
33.80116271972661
  0
ARC
  5
267
330
1F
100
AcDbEntity
  8
仕上
  6
Continuous
 62
     6
370
     9
100
AcDbCircle
 10
32.16020606788429
 20
234.2664360252586
 30
0.0
 40
1.500000019331236
100
AcDbArc
 50
105.0829467773438
 51
193.8010253906251
  0
ARC
  5
268
330
1F
100
AcDbEntity
  8
仕上
  6
Continuous
 62
     6
370
     9
100
AcDbCircle
 10
33.70408209723398
 20
225.5106294374208
 30
0.0
 40
1.500000019331236
100
AcDbArc
 50
186.1986083984375
 51
274.9173431396484
  0
ARC
  5
269
330
1F
100
AcDbEntity
  8
仕上
  6
Continuous
 62
     6
370
     9
100
AcDbCircle
 10
-32.96014041385133
 20
218.2698968835778
 30
0.0
 40
65.55631534473316
100
AcDbArc
 50
6.198837280273484
 51
13.80116271972661
  0
ARC
  5
26A
330
1F
100
AcDbEntity
  8
仕上
  6
Continuous
 62
     6
370
     9
100
AcDbCircle
 10
46.88337039432007
 20
223.269901007575
 30
0.0
 40
1.000000012887491
100
AcDbArc
 50
270.0
 51
3.583343505859379
  0
ARC
  5
26B
330
1F
100
AcDbEntity
  8
仕上
  6
Continuous
 62
     6
370
     9
100
AcDbCircle
 10
45.81383650496203
 20
224.2698424468169
 30
0.0
 40
1.000000012887491
100
AcDbArc
 50
270.0
 51
0.5353240966796906
  0
ARC
  5
26C
330
1F
100
AcDbEntity
  8
仕上
  6
Continuous
 62
     6
370
     9
100
AcDbCircle
 10
-32.96014041385133
 20
218.2698968835778
 30
0.0
 40
79.99999175200591
100
AcDbArc
 50
4.307907104492188
 51
7.180770874023438
  0
ARC
  5
26D
330
1F
100
AcDbEntity
  8
仕上
  6
Continuous
 62
     6
370
     9
100
AcDbCircle
 10
-112.8036883379962
 20
223.269901007575
 30
0.0
 40
1.000000012887491
100
AcDbArc
 50
176.4166564941406
 51
270.0
  0
ARC
  5
26E
330
1F
100
AcDbEntity
  8
仕上
  6
Continuous
 62
     6
370
     9
100
AcDbCircle
 10
-111.7340802166913
 20
224.2698424468169
 30
0.0
 40
1.000000012887491
100
AcDbArc
 50
179.4646759033203
 51
270.0
  0
ARC
  5
26F
330
1F
100
AcDbEntity
  8
仕上
  6
Continuous
 62
     6
370
     9
100
AcDbCircle
 10
-32.96014041385133
 20
218.2698968835778
 30
0.0
 40
79.99999175200591
100
AcDbArc
 50
172.8192291259766
 51
175.6920928955079
  0
ARC
  5
270
330
1F
100
AcDbEntity
  8
仕上
  6
Continuous
 62
     6
370
     9
100
AcDbCircle
 10
-32.96014041385133
 20
218.2698968835778
 30
0.0
 40
81.00000742319469
100
AcDbArc
 50
3.583328247070313
 51
176.4166717529297
  0
ARC
  5
271
330
1F
100
AcDbEntity
  8
通り芯
  6
Continuous
 62
     3
370
     9
100
AcDbCircle
 10
-32.96014041385133
 20
218.2698968835778
 30
0.0
 40
44.41326605307089
100
AcDbArc
 50
0.0
 51
51.24525451660157
  0
ARC
  5
272
330
1F
100
AcDbEntity
  8
通り芯
  6
Continuous
 62
     3
370
     9
100
AcDbCircle
 10
-32.96014041385133
 20
218.2698968835778
 30
0.0
 40
44.41326605307089
100
AcDbArc
 50
68.75476074218749
 51
171.2451934814453
  0
ARC
  5
273
330
1F
100
AcDbEntity
  8
躯体
  6
Continuous
 62
     2
370
     9
100
AcDbCircle
 10
-32.96014041385133
 20
218.2698968835778
 30
0.0
 40
54.99999896900074
100
AcDbArc
 50
0.0
 51
44.17364501953125
  0
ARC
  5
274
330
1F
100
AcDbEntity
  8
躯体
  6
Continuous
 62
     2
370
     9
100
AcDbCircle
 10
-87.96011154587204
 20
218.2698968835778
 30
0.0
 40
12.9999995876003
100
AcDbArc
 50
359.999984741211
 51
74.49784851074219
  0
ARC
  5
275
330
1F
100
AcDbEntity
  8
躯体
  6
Continuous
 62
     2
370
     9
100
AcDbCircle
 10
-32.96014041385133
 20
218.2698968835778
 30
0.0
 40
68.45046120720941
100
AcDbArc
 50
169.9033050537109
 51
175.0829010009766
  0
ARC
  5
276
330
1F
100
AcDbEntity
  8
躯体
  6
Continuous
 62
     2
370
     9
100
AcDbCircle
 10
-32.96014041385133
 20
218.2698968835778
 30
0.0
 40
68.45046120720941
100
AcDbArc
 50
49.9033203125
 51
55.08290100097656
  0
ARC
  5
277
330
1F
100
AcDbEntity
  8
躯体
  6
Continuous
 62
     2
370
     9
100
AcDbCircle
 10
-32.96014041385133
 20
218.2698968835778
 30
0.0
 40
68.45046120720941
100
AcDbArc
 50
64.91708374023438
 51
70.09663391113283
  0
ARC
  5
278
330
1F
100
AcDbEntity
  8
仕上
  6
Continuous
 62
     4
370
     9
100
AcDbCircle
 10
43.08121007970858
 20
-37.89516114930854
 30
0.0
 40
5.321415115047146
100
AcDbArc
 50
20.01594543457032
 51
84.83395385742188
  0
ARC
  5
279
330
1F
100
AcDbEntity
  8
仕上
  6
Continuous
 62
     4
370
     9
100
AcDbCircle
 10
43.08121007970858
 20
-37.89516114930854
 30
0.0
 40
5.321415115047146
100
AcDbArc
 50
95.16375732421875
 51
159.9840545654297
  0
ELLIPSE
  5
27A
330
1F
100
AcDbEntity
  8
仕上
  6
Continuous
 62
     6
370
     9
100
AcDbEllipse
 10
-102.1247918206292
 20
19.9653009363122
 30
0.0
 11
0.4751631492990797
 21
5.228433047528583
 31
0.0
210
0.0
220
0.0
230
1.0
 40
0.7428
 41
0.0
 42
1.475408288134874
  0
ELLIPSE
  5
27B
330
1F
100
AcDbEntity
  8
仕上
  6
Continuous
 62
     6
370
     9
100
AcDbEllipse
 10
-102.1247918206292
 20
19.9653009363122
 30
0.0
 11
0.4751631492990797
 21
5.228433047528583
 31
0.0
210
0.0
220
0.0
230
1.0
 40
0.7428
 41
1.666184365454919
 42
3.141592653589793
  0
ARC
  5
27C
330
1F
100
AcDbEntity
  8
仕上
  6
Continuous
 62
     6
370
     9
100
AcDbCircle
 10
-37.40555766337626
 20
285.178713659338
 30
0.0
 40
1.500000019331236
100
AcDbArc
 50
185.0829467773438
 51
273.8010253906251
  0
ARC
  5
27D
330
1F
100
AcDbEntity
  8
仕上
  6
Continuous
 62
     6
370
     9
100
AcDbCircle
 10
-28.51468604835306
 20
285.178713659338
 30
0.0
 40
1.500000019331236
100
AcDbArc
 50
266.1986083984374
 51
354.9173431396484
  0
ARC
  5
27E
330
1F
100
AcDbEntity
  8
仕上
  6
Continuous
 62
     6
370
     9
100
AcDbCircle
 10
-32.96014041385133
 20
282.3721522150813
 30
0.0
 40
1.500000019331236
100
AcDbArc
 50
180.6703643798829
 51
359.3296356201172
  0
ARC
  5
27F
330
1F
100
AcDbEntity
  8
仕上
  6
Continuous
 62
     6
370
     9
100
AcDbCircle
 10
-32.96014041385133
 20
218.2698968835778
 30
0.0
 40
65.55631534473316
100
AcDbArc
 50
86.19883728027345
 51
87.37710571289064
  0
ARC
  5
280
330
1F
100
AcDbEntity
  8
仕上
  6
Continuous
 62
     6
370
     9
100
AcDbCircle
 10
-32.96014041385133
 20
218.2698968835778
 30
0.0
 40
65.55631534473316
100
AcDbArc
 50
92.6228942871094
 51
93.80114746093753
  0
ARC
  5
281
330
1F
100
AcDbEntity
  8
仕上
  6
Continuous
 62
     6
370
     9
100
AcDbCircle
 10
-32.96014041385133
 20
289.9654865161792
 30
0.0
 40
14.90458372476939
100
AcDbArc
 50
260.3438720703125
 51
279.6561279296875
  0
ARC
  5
282
330
1F
100
AcDbEntity
  8
仕上
  6
Continuous
 62
     6
370
     9
100
AcDbCircle
 10
-32.96014041385133
 20
289.9654865161792
 30
0.0
 40
14.50697769989839
100
AcDbArc
 50
258.0652618408203
 51
281.9347381591797
  0
ARC
  5
283
330
1F
100
AcDbEntity
  8
仕上
  6
Continuous
 62
     6
370
     9
100
AcDbCircle
 10
-32.96014041385133
 20
297.2988605396167
 30
0.0
 40
14.50697769989839
100
AcDbArc
 50
258.0652618408203
 51
281.9347381591797
  0
ARC
  5
284
330
1F
100
AcDbEntity
  8
仕上
  6
Continuous
 62
     6
370
     9
100
AcDbCircle
 10
-32.96014041385133
 20
285.035891393713
 30
0.0
 40
5.348519634556126
100
AcDbArc
 50
15.77162170410156
 51
84.63603210449219
  0
ARC
  5
285
330
1F
100
AcDbEntity
  8
仕上
  6
Continuous
 62
     6
370
     9
100
AcDbCircle
 10
-32.96014041385133
 20
285.035891393713
 30
0.0
 40
5.348519634556126
100
AcDbArc
 50
95.36396789550783
 51
164.2283782958985
  0
ARC
  5
286
330
1F
100
AcDbEntity
  8
仕上
  6
Continuous
 62
     6
370
     9
100
AcDbCircle
 10
-32.96014041385133
 20
319.3564381367451
 30
0.0
 40
33.26750626435151
100
AcDbArc
 50
261.0994262695313
 51
278.9005737304688
  0
ARC
  5
287
330
1F
100
AcDbEntity
  8
仕上
  6
Continuous
 62
     6
370
     9
100
AcDbCircle
 10
-32.96014041385133
 20
218.2698968835778
 30
0.0
 40
70.00000206199853
100
AcDbArc
 50
0.0
 51
86.42913818359376
  0
ARC
  5
288
330
1F
100
AcDbEntity
  8
仕上
  6
Continuous
 62
     6
370
     9
100
AcDbCircle
 10
-32.96014041385133
 20
218.2698968835778
 30
0.0
 40
70.00000206199853
100
AcDbArc
 50
93.57086181640625
 51
180.0
  0
ARC
  5
289
330
1F
100
AcDbEntity
  8
通り芯
  6
Continuous
 62
     3
370
     9
100
AcDbCircle
 10
-32.96014041385133
 20
218.2698968835778
 30
0.0
 40
40.98471048715952
100
AcDbArc
 50
0.0
 51
180.0
  0
TEXT
  5
28A
330
1F
100
AcDbEntity
  8
その他
  6
Continuous
 62
     2
370
     9
100
AcDbText
 10
104.8479486644848
 20
-60.3051895554002
 30
0.0
 40
9.144
  1
25
 50
90.0
 41
1.0625
  7
ＭＳ ゴシック
100
AcDbText
  0
TEXT
  5
28B
330
1F
100
AcDbEntity
  8
その他
  6
Continuous
 62
     2
370
     9
100
AcDbText
 10
-180.1521379394532
 20
-14.94872774691203
 30
0.0
 40
9.144
  1
70
 50
90.0
 41
1.0625
  7
ＭＳ ゴシック
100
AcDbText
  0
TEXT
  5
28C
330
1F
100
AcDbEntity
  8
その他
  6
Continuous
 62
     2
370
     9
100
AcDbText
 10
-49.46012185586466
 20
109.1182343123152
 30
0.0
 40
9.144
  1
φ225
 41
1.1
  7
ＭＳ ゴシック
100
AcDbText
  0
TEXT
  5
28D
330
1F
100
AcDbEntity
  8
その他
  6
Continuous
 62
     2
370
     9
100
AcDbText
 10
-49.46015897183806
 20
85.11822936351876
 30
0.0
 40
9.144
  1
φ205
 41
1.1
  7
ＭＳ ゴシック
100
AcDbText
  0
TEXT
  5
28E
330
1F
100
AcDbEntity
  8
その他
  6
Continuous
 62
     2
370
     9
100
AcDbText
 10
-49.46019608781145
 20
61.11822441472228
 30
0.0
 40
9.144
  1
φ118
 41
1.1
  7
ＭＳ ゴシック
100
AcDbText
  0
TEXT
  5
28F
330
1F
100
AcDbEntity
  8
その他
  6
Continuous
 62
     2
370
     9
100
AcDbText
 10
128.8479536132812
 20
-13.8769297831768
 30
0.0
 40
9.144
  1
68
 50
90.0
 41
1.0625
  7
ＭＳ ゴシック
100
AcDbText
  0
LINE
  5
290
330
1F
100
AcDbEntity
  8
建具
  6
Continuous
 62
     4
370
     9
100
AcDbLine
 10
-103.9601272170608
 20
-121.5301428717537
 30
0.0
 11
38.0399453652872
 21
-121.5301428717537
 31
0.0
  0
LINE
  5
291
330
1F
100
AcDbEntity
  8
通り芯
  6
JWW_CENTER1
 62
     3
370
     9
100
AcDbLine
 10
-243.8708199949769
 20
218.2698968835778
 30
0.0
 11
175.6868981899192
 21
218.2698968835778
 31
0.0
  0
LINE
  5
292
330
1F
100
AcDbEntity
  8
その他
  6
Continuous
 62
     7
370
     9
100
AcDbLine
 10
-109.9600480363176
 20
-224.311728782354
 30
0.0
 11
44.03986618454398
 21
-224.311728782354
 31
0.0
  0
LINE
  5
293
330
1F
100
AcDbEntity
  8
その他
  6
Continuous
 62
     7
370
     9
100
AcDbLine
 10
-109.9600480363176
 20
-224.311728782354
 30
0.0
 11
-102.524211576014
 21
-223.3327823407036
 31
0.0
  0
LINE
  5
294
330
1F
100
AcDbEntity
  8
その他
  6
Continuous
 62
     7
370
     9
100
AcDbLine
 10
-109.9600480363176
 20
-224.311728782354
 30
0.0
 11
-102.524211576014
 21
-225.2906752240044
 31
0.0
  0
LINE
  5
295
330
1F
100
AcDbEntity
  8
その他
  6
Continuous
 62
     7
370
     9
100
AcDbLine
 10
44.03986618454398
 20
-224.311728782354
 30
0.0
 11
36.60402972424041
 21
-223.3327823407036
 31
0.0
  0
LINE
  5
296
330
1F
100
AcDbEntity
  8
その他
  6
Continuous
 62
     7
370
     9
100
AcDbLine
 10
44.03986618454398
 20
-224.311728782354
 30
0.0
 11
36.60402972424041
 21
-225.2906752240044
 31
0.0
  0
LINE
  5
297
330
1F
100
AcDbEntity
  8
その他
  6
Continuous
 62
     7
370
     9
100
AcDbLine
 10
-109.9600480363176
 20
-225.2117288181168
 30
0.0
 11
-109.9600480363176
 21
-203.4646117251401
 31
0.0
  0
LINE
  5
298
330
1F
100
AcDbEntity
  8
その他
  6
Continuous
 62
     7
370
     9
100
AcDbLine
 10
44.03986618454398
 20
-225.2117288181168
 30
0.0
 11
44.03986618454398
 21
-203.4646117251401
 31
0.0
  0
LINE
  5
299
330
1F
100
AcDbEntity
  8
その他
  6
Continuous
 62
     7
370
     9
100
AcDbLine
 10
-232.9601569098396
 20
-253.7115092476558
 30
0.0
 11
167.0398265941723
 21
-253.7115092476558
 31
0.0
  0
LINE
  5
29A
330
1F
100
AcDbEntity
  8
その他
  6
Continuous
 62
     7
370
     9
100
AcDbLine
 10
-232.9601569098396
 20
-253.7115092476558
 30
0.0
 11
-225.524320449536
 21
-252.7325628060054
 31
0.0
  0
LINE
  5
29B
330
1F
100
AcDbEntity
  8
その他
  6
Continuous
 62
     7
370
     9
100
AcDbLine
 10
-232.9601569098396
 20
-253.7115092476558
 30
0.0
 11
-225.524320449536
 21
-254.6904556893062
 31
0.0
  0
LINE
  5
29C
330
1F
100
AcDbEntity
  8
その他
  6
Continuous
 62
     7
370
     9
100
AcDbLine
 10
167.0398265941723
 20
-253.7115092476558
 30
0.0
 11
159.6039901338687
 21
-252.7325628060054
 31
0.0
  0
LINE
  5
29D
330
1F
100
AcDbEntity
  8
その他
  6
Continuous
 62
     7
370
     9
100
AcDbLine
 10
167.0398265941723
 20
-253.7115092476558
 30
0.0
 11
159.6039901338687
 21
-254.6904556893062
 31
0.0
  0
LINE
  5
29E
330
1F
100
AcDbEntity
  8
その他
  6
Continuous
 62
     7
370
     9
100
AcDbLine
 10
-232.9601569098396
 20
-254.6115092834186
 30
0.0
 11
-232.9601569098396
 21
-123.8179337373227
 31
0.0
  0
LINE
  5
29F
330
1F
100
AcDbEntity
  8
その他
  6
Continuous
 62
     7
370
     9
100
AcDbLine
 10
167.0398265941723
 20
-254.6115092834186
 30
0.0
 11
167.0398265941723
 21
-123.8179337373227
 31
0.0
  0
TEXT
  5
2A0
330
1F
100
AcDbEntity
  8
その他
  6
Continuous
 62
     2
370
   211
100
AcDbText
 10
-49.4600909258868
 20
-219.619728782354
 30
0.0
 40
9.144
  1
φ154
 41
1.1
  7
ＭＳ ゴシック
100
AcDbText
  0
TEXT
  5
2A1
330
1F
100
AcDbEntity
  8
その他
  6
Continuous
 62
     2
370
   211
100
AcDbText
 10
-59.58516515783364
 20
-249.0195092476558
 30
0.0
 40
9.144
  1
400×210
 41
1.109375
  7
ＭＳ ゴシック
100
AcDbText
  0
LINE
  5
2A2
330
1F
100
AcDbEntity
  8
その他
  6
Continuous
 62
     7
370
     9
100
AcDbLine
 10
-79.96009752428212
 20
-145.7539424216002
 30
0.0
 11
14.03989092852616
 21
-145.7539424216002
 31
0.0
  0
LINE
  5
2A3
330
1F
100
AcDbEntity
  8
その他
  6
Continuous
 62
     7
370
     9
100
AcDbLine
 10
-79.96009752428212
 20
-145.7539424216002
 30
0.0
 11
-72.52424629830024
 21
-144.7750086233
 31
0.0
  0
LINE
  5
2A4
330
1F
100
AcDbEntity
  8
その他
  6
Continuous
 62
     7
370
     9
100
AcDbLine
 10
-79.96009752428212
 20
-145.7539424216002
 30
0.0
 11
-72.52424629830024
 21
-146.7329133358738
 31
0.0
  0
LINE
  5
2A5
330
1F
100
AcDbEntity
  8
その他
  6
Continuous
 62
     7
370
     9
100
AcDbLine
 10
14.03989092852616
 20
-145.7539424216002
 30
0.0
 11
6.604076818517726
 21
-144.7750086233
 31
0.0
  0
LINE
  5
2A6
330
1F
100
AcDbEntity
  8
その他
  6
Continuous
 62
     7
370
     9
100
AcDbLine
 10
-82.96014453784836
 20
-169.7539473703966
 30
0.0
 11
17.03975236222554
 21
-169.7539473703966
 31
0.0
  0
LINE
  5
2A7
330
1F
100
AcDbEntity
  8
その他
  6
Continuous
 62
     7
370
     9
100
AcDbLine
 10
-82.96014453784836
 20
-169.7539473703966
 30
0.0
 11
-75.52429331186657
 21
-168.7750135720964
 31
0.0
  0
LINE
  5
2A8
330
1F
100
AcDbEntity
  8
その他
  6
Continuous
 62
     7
370
     9
100
AcDbLine
 10
-82.96014453784836
 20
-169.7539473703966
 30
0.0
 11
-75.52429331186657
 21
-170.7329182846703
 31
0.0
  0
LINE
  5
2A9
330
1F
100
AcDbEntity
  8
その他
  6
Continuous
 62
     7
370
     9
100
AcDbLine
 10
17.03975236222554
 20
-169.7539473703966
 30
0.0
 11
9.603938252217105
 21
-168.7750135720964
 31
0.0
  0
LINE
  5
2AA
330
1F
100
AcDbEntity
  8
その他
  6
Continuous
 62
     7
370
     9
100
AcDbLine
 10
17.03975236222554
 20
-169.7539473703966
 30
0.0
 11
9.603938252217105
 21
-170.7329182846703
 31
0.0
  0
LINE
  5
2AB
330
1F
100
AcDbEntity
  8
その他
  6
Continuous
 62
     7
370
     9
100
AcDbLine
 10
-102.9601239178632
 20
-193.7539523191931
 30
0.0
 11
37.03991732210726
 21
-193.7539523191931
 31
0.0
  0
LINE
  5
2AC
330
1F
100
AcDbEntity
  8
その他
  6
Continuous
 62
     7
370
     9
100
AcDbLine
 10
-102.9601239178632
 20
-193.7539523191931
 30
0.0
 11
-95.52427269188134
 21
-192.7750185208929
 31
0.0
  0
LINE
  5
2AD
330
1F
100
AcDbEntity
  8
その他
  6
Continuous
 62
     7
370
     9
100
AcDbLine
 10
-102.9601239178632
 20
-193.7539523191931
 30
0.0
 11
-95.52427269188134
 21
-194.7329232334668
 31
0.0
  0
LINE
  5
2AE
330
1F
100
AcDbEntity
  8
その他
  6
Continuous
 62
     7
370
     9
100
AcDbLine
 10
37.03991732210726
 20
-193.7539523191931
 30
0.0
 11
29.60410321209882
 21
-192.7750185208929
 31
0.0
  0
LINE
  5
2AF
330
1F
100
AcDbEntity
  8
その他
  6
Continuous
 62
     7
370
     9
100
AcDbLine
 10
37.03991732210726
 20
-193.7539523191931
 30
0.0
 11
29.60410321209882
 21
-194.7329232334668
 31
0.0
  0
TEXT
  5
2B0
330
1F
100
AcDbEntity
  8
その他
  6
Continuous
 62
     2
370
     9
100
AcDbText
 10
-46.08508473989126
 20
-141.0619696399807
 30
0.0
 40
9.144
  1
φ94
 41
1.09375
  7
ＭＳ ゴシック
100
AcDbText
  0
TEXT
  5
2B1
330
1F
100
AcDbEntity
  8
その他
  6
Continuous
 62
     2
370
     9
100
AcDbText
 10
-49.46023320378481
 20
-165.0619745887771
 30
0.0
 40
9.144
  1
φ100
 41
1.1
  7
ＭＳ ゴシック
100
AcDbText
  0
TEXT
  5
2B2
330
1F
100
AcDbEntity
  8
その他
  6
Continuous
 62
     2
370
     9
100
AcDbText
 10
-49.46012185586466
 20
-189.0619795375736
 30
0.0
 40
9.144
  1
φ140
 41
1.1
  7
ＭＳ ゴシック
100
AcDbText
  0
LINE
  5
2B3
330
1F
100
AcDbEntity
  8
その他
  6
Continuous
 62
     7
370
     9
100
AcDbLine
 10
-79.96009752428212
 20
-110.1540823075799
 30
0.0
 11
-79.96009752428212
 21
-146.6539676604621
 31
0.0
  0
LINE
  5
2B4
330
1F
100
AcDbEntity
  8
その他
  6
Continuous
 62
     7
370
     9
100
AcDbLine
 10
-102.9601239178632
 20
-123.2539424216002
 30
0.0
 11
-102.9601239178632
 21
-194.653977558055
 31
0.0
  0
LINE
  5
2B5
330
1F
100
AcDbEntity
  8
その他
  6
Continuous
 62
     7
370
     9
100
AcDbLine
 10
14.03989092852616
 20
-110.1540823075799
 30
0.0
 11
14.03989092852616
 21
-146.6539676604621
 31
0.0
  0
LINE
  5
2B6
330
1F
100
AcDbEntity
  8
その他
  6
Continuous
 62
     7
370
     9
100
AcDbLine
 10
14.03989092852616
 20
-145.7539424216002
 30
0.0
 11
6.604076818517726
 21
-146.7329133358738
 31
0.0
  0
LINE
  5
2B7
330
1F
100
AcDbEntity
  8
その他
  6
Continuous
 62
     7
370
     9
100
AcDbLine
 10
37.03991732210726
 20
-123.2539424216002
 30
0.0
 11
37.03991732210726
 21
-194.653977558055
 31
0.0
  0
LINE
  5
2B8
330
1F
100
AcDbEntity
  8
その他
  6
Continuous
 62
     7
370
     9
100
AcDbLine
 10
-82.96014453784836
 20
-83.21803647629184
 30
0.0
 11
-82.96014453784836
 21
-170.6539726092585
 31
0.0
  0
LINE
  5
2B9
330
1F
100
AcDbEntity
  8
その他
  6
Continuous
 62
     7
370
     9
100
AcDbLine
 10
17.03975236222554
 20
-83.21803647629184
 30
0.0
 11
17.03975236222554
 21
-170.6539726092585
 31
0.0
  0
LINE
  5
2BA
330
1F
100
AcDbEntity
  8
その他
  6
Continuous
 62
     7
370
     9
100
AcDbLine
 10
133.5399635108741
 20
-201.5300109038483
 30
0.0
 11
133.5399635108741
 21
-121.5301428717537
 31
0.0
  0
LINE
  5
2BB
330
1F
100
AcDbEntity
  8
その他
  6
Continuous
 62
     7
370
     9
100
AcDbLine
 10
133.5399635108741
 20
-201.5300109038483
 30
0.0
 11
132.5610170692237
 21
-194.0941744435447
 31
0.0
  0
LINE
  5
2BC
330
1F
100
AcDbEntity
  8
その他
  6
Continuous
 62
     7
370
     9
100
AcDbLine
 10
133.5399635108741
 20
-201.5300109038483
 30
0.0
 11
134.5189099525245
 21
-194.0941744435447
 31
0.0
  0
LINE
  5
2BD
330
1F
100
AcDbEntity
  8
その他
  6
Continuous
 62
     7
370
     9
100
AcDbLine
 10
133.5399635108741
 20
-121.5301428717537
 30
0.0
 11
132.5610170692237
 21
-128.9659793320572
 31
0.0
  0
LINE
  5
2BE
330
1F
100
AcDbEntity
  8
その他
  6
Continuous
 62
     7
370
     9
100
AcDbLine
 10
133.5399635108741
 20
-121.5301428717537
 30
0.0
 11
134.5189099525245
 21
-128.9659793320572
 31
0.0
  0
LINE
  5
2BF
330
1F
100
AcDbEntity
  8
その他
  6
Continuous
 62
     7
370
     9
100
AcDbLine
 10
134.4399635466369
 20
-201.5300109038483
 30
0.0
 11
46.98579528175397
 21
-201.5300109038483
 31
0.0
  0
TEXT
  5
2C0
330
1F
100
AcDbEntity
  8
その他
  6
Continuous
 62
     2
370
   211
100
AcDbText
 10
128.8479635108741
 20
-167.905076887801
 30
0.0
 40
9.144
  1
80
 50
90.0
 41
1.0625
  7
ＭＳ ゴシック
100
AcDbText
  0
LINE
  5
2C1
330
1F
100
AcDbEntity
  8
その他
  6
Continuous
 62
     7
370
     9
100
AcDbLine
 10
210.3497587283203
 20
308.2697979076488
 30
0.0
 11
209.3708122866699
 21
300.8339614473452
 31
0.0
  0
LINE
  5
2C2
330
1F
100
AcDbEntity
  8
その他
  6
Continuous
 62
     7
370
     9
100
AcDbLine
 10
210.3497587283203
 20
308.2697979076488
 30
0.0
 11
211.3287051699707
 21
300.8339614473452
 31
0.0
  0
LINE
  5
2C3
330
1F
100
AcDbEntity
  8
その他
  6
Continuous
 62
     7
370
     9
100
AcDbLine
 10
211.2497587640831
 20
308.2697979076488
 30
0.0
 11
157.8384739574012
 21
308.2697979076488
 31
0.0
  0
LINE
  5
2C4
330
1F
100
AcDbEntity
  8
その他
  6
Continuous
 62
     7
370
     9
100
AcDbLine
 10
-217.9600084459459
 20
350.5255833641385
 30
0.0
 11
152.0398265941723
 21
350.5255833641385
 31
0.0
  0
LINE
  5
2C5
330
1F
100
AcDbEntity
  8
その他
  6
Continuous
 62
     7
370
     9
100
AcDbLine
 10
-217.9600084459459
 20
350.5255833641385
 30
0.0
 11
-210.5241719856423
 21
351.5045298057889
 31
0.0
  0
LINE
  5
2C6
330
1F
100
AcDbEntity
  8
その他
  6
Continuous
 62
     7
370
     9
100
AcDbLine
 10
-217.9600084459459
 20
350.5255833641385
 30
0.0
 11
-210.5241719856423
 21
349.5466369224881
 31
0.0
  0
LINE
  5
2C7
330
1F
100
AcDbEntity
  8
その他
  6
Continuous
 62
     7
370
     9
100
AcDbLine
 10
152.0398265941723
 20
350.5255833641385
 30
0.0
 11
144.6039901338687
 21
351.5045298057889
 31
0.0
  0
LINE
  5
2C8
330
1F
100
AcDbEntity
  8
その他
  6
Continuous
 62
     7
370
     9
100
AcDbLine
 10
152.0398265941723
 20
350.5255833641385
 30
0.0
 11
144.6039901338687
 21
349.5466369224881
 31
0.0
  0
LINE
  5
2C9
330
1F
100
AcDbEntity
  8
その他
  6
Continuous
 62
     7
370
     9
100
AcDbLine
 10
-217.9600084459459
 20
351.4255833999013
 30
0.0
 11
-217.9600084459459
 21
312.9712036166619
 31
0.0
  0
LINE
  5
2CA
330
1F
100
AcDbEntity
  8
その他
  6
Continuous
 62
     7
370
     9
100
AcDbLine
 10
152.0398265941723
 20
351.4255833999013
 30
0.0
 11
152.0398265941723
 21
312.9712036166619
 31
0.0
  0
TEXT
  5
2CB
330
1F
100
AcDbEntity
  8
その他
  6
Continuous
 62
     2
370
   211
100
AcDbText
 10
-42.7100909258868
 20
355.2175833641385
 30
0.0
 40
9.144
  1
370
 41
1.083333333333333
  7
ＭＳ ゴシック
100
AcDbText
  0
TEXT
  5
2CC
330
1F
100
AcDbEntity
  8
その他
  6
Continuous
 62
     2
370
   211
100
AcDbText
 10
205.6577587283203
 20
220.9647770542786
 30
0.0
 40
9.144
  1
180
 50
90.0
 41
1.083333333333333
  7
ＭＳ ゴシック
100
AcDbText
  0
LINE
  5
2CD
330
1F
100
AcDbEntity
  8
寸法
  6
Continuous
 62
     7
370
     9
100
AcDbLine
 10
-109.9600480363176
 20
-201.5300109038483
 30
0.0
 11
-127.447983854454
 21
-231.8200042603641
 31
0.0
  0
LINE
  5
2CE
330
1F
100
AcDbEntity
  8
寸法
  6
Continuous
 62
     7
370
     9
100
AcDbLine
 10
-109.9600480363176
 20
-201.5300109038483
 30
0.0
 11
-112.8301737790558
 21
-208.4591073976829
 31
0.0
  0
LINE
  5
2CF
330
1F
100
AcDbEntity
  8
寸法
  6
Continuous
 62
     7
370
     9
100
AcDbLine
 10
-109.9600480363176
 20
-201.5300109038483
 30
0.0
 11
-114.525758753883
 21
-207.4801609560326
 31
0.0
  0
LINE
  5
2D0
330
1F
100
AcDbEntity
  8
寸法
  6
Continuous
 62
     7
370
     9
100
AcDbLine
 10
-127.447983854454
 20
-231.8200042603641
 30
0.0
 11
-222.6160883891676
 21
-231.8200042603641
 31
0.0
  0
TEXT
  5
2D1
330
1F
100
AcDbEntity
  8
寸法
  6
Continuous
 62
     7
370
     9
100
AcDbText
 10
166.2936107301188
 20
357.5786850103542
 30
0.0
 40
6.858000000000001
  1
4-φ4.2
 41
1.142857142857148
  7
ＭＳ ゴシック
100
AcDbText
  0
LINE
  5
2D2
330
1F
100
AcDbEntity
  8
寸法
  6
Continuous
 62
     7
370
     9
100
AcDbLine
 10
164.5676385582596
 20
355.0242286652917
 30
0.0
 11
203.3482588850425
 21
355.0242286652917
 31
0.0
  0
LINE
  5
2D3
330
1F
100
AcDbEntity
  8
寸法
  6
Continuous
 62
     7
370
     9
100
AcDbLine
 10
152.0398265941723
 20
308.2697979076488
 30
0.0
 11
164.5676385582596
 21
355.0242286652917
 31
0.0
  0
LINE
  5
2D4
330
1F
100
AcDbEntity
  8
寸法
  6
Continuous
 62
     7
370
     9
100
AcDbLine
 10
152.0398265941723
 20
308.2697979076488
 30
0.0
 11
154.9099523369105
 21
315.1988944014834
 31
0.0
  0
LINE
  5
2D5
330
1F
100
AcDbEntity
  8
寸法
  6
Continuous
 62
     7
370
     9
100
AcDbLine
 10
152.0398265941723
 20
308.2697979076488
 30
0.0
 11
153.0187730358226
 21
315.7056343679524
 31
0.0
  0
LINE
  5
2D6
330
1F
100
AcDbEntity
  8
0-A
  6
Continuous
 62
     2
370
     9
100
AcDbLine
 10
-232.9601569098396
 20
-119.9300980026658
 30
0.0
 11
-232.9601569098396
 21
-121.5301428717537
 31
0.0
  0
LINE
  5
2D7
330
1F
100
AcDbEntity
  8
0-A
  6
Continuous
 62
     2
370
     9
100
AcDbLine
 10
167.0398265941723
 20
-119.9300980026658
 30
0.0
 11
167.0398265941723
 21
-121.5301428717537
 31
0.0
  0
LINE
  5
2D8
330
1F
100
AcDbEntity
  8
0-A
  6
Continuous
 62
     2
370
     9
100
AcDbLine
 10
-232.9601569098396
 20
-121.5301428717537
 30
0.0
 11
-105.5600731102195
 21
-121.5301428717537
 31
0.0
  0
LINE
  5
2D9
330
1F
100
AcDbEntity
  8
0-A
  6
Continuous
 62
     2
370
     9
100
AcDbLine
 10
-105.5600731102195
 20
-121.5301428717537
 30
0.0
 11
-105.5600731102195
 21
-123.1300887649125
 31
0.0
  0
LINE
  5
2DA
330
1F
100
AcDbEntity
  8
0-A
  6
Continuous
 62
     2
370
     9
100
AcDbLine
 10
-98.46003483952705
 20
-121.5301428717537
 30
0.0
 11
-98.46003483952705
 21
-123.1300887649125
 31
0.0
  0
LINE
  5
2DB
330
1F
100
AcDbEntity
  8
0-A
  6
Continuous
 62
     2
370
     9
100
AcDbLine
 10
32.53985298775335
 20
-121.5301428717537
 30
0.0
 11
32.53985298775335
 21
-123.1300887649125
 31
0.0
  0
LINE
  5
2DC
330
1F
100
AcDbEntity
  8
0-A
  6
Continuous
 62
     2
370
     9
100
AcDbLine
 10
39.63999023437501
 20
-121.5301428717537
 30
0.0
 11
39.63999023437501
 21
-123.1300887649125
 31
0.0
  0
LINE
  5
2DD
330
1F
100
AcDbEntity
  8
0-A
  6
Continuous
 62
     2
370
     9
100
AcDbLine
 10
39.63999023437501
 20
-121.5301428717537
 30
0.0
 11
167.0398265941723
 21
-121.5301428717537
 31
0.0
  0
LINE
  5
2DE
330
1F
100
AcDbEntity
  8
0-A
  6
Continuous
 62
     2
370
     9
100
AcDbLine
 10
-105.5600731102195
 20
-123.1300887649125
 30
0.0
 11
39.63999023437501
 21
-123.1300887649125
 31
0.0
  0
LINE
  5
2DF
330
1F
100
AcDbEntity
  8
0-A
  6
Continuous
 62
     2
370
     9
100
AcDbLine
 10
-109.9600480363176
 20
-201.5300109038483
 30
0.0
 11
44.03986618454398
 21
-201.5300109038483
 31
0.0
  0
LINE
  5
2E0
330
1F
100
AcDbEntity
  8
0-A
  6
Continuous
 62
     2
370
     9
100
AcDbLine
 10
-109.9600480363176
 20
-121.5301428717537
 30
0.0
 11
-109.9600480363176
 21
-201.5300109038483
 31
0.0
  0
LINE
  5
2E1
330
1F
100
AcDbEntity
  8
0-A
  6
Continuous
 62
     2
370
     9
100
AcDbLine
 10
-108.3600526551942
 20
-121.5301428717537
 30
0.0
 11
-108.3600526551942
 21
-201.5300109038483
 31
0.0
  0
LINE
  5
2E2
330
1F
100
AcDbEntity
  8
0-A
  6
Continuous
 62
     2
370
     9
100
AcDbLine
 10
42.43982131545606
 20
-121.5301428717537
 30
0.0
 11
42.43982131545606
 21
-201.5300109038483
 31
0.0
  0
LINE
  5
2E3
330
1F
100
AcDbEntity
  8
0-A
  6
Continuous
 62
     2
370
     9
100
AcDbLine
 10
44.03986618454398
 20
-121.5301428717537
 30
0.0
 11
44.03986618454398
 21
-201.5300109038483
 31
0.0
  0
LINE
  5
2E4
330
1F
100
AcDbEntity
  8
0-A
  6
Continuous
 62
     2
370
     9
100
AcDbLine
 10
-232.9601569098396
 20
-119.9300980026658
 30
0.0
 11
-103.9601272170608
 21
-119.9300980026658
 31
0.0
  0
LINE
  5
2E5
330
1F
100
AcDbEntity
  8
0-A
  6
Continuous
 62
     2
370
     9
100
AcDbLine
 10
38.0399453652872
 20
-119.9300980026658
 30
0.0
 11
38.0399453652872
 21
-121.5301428717537
 31
0.0
  0
LINE
  5
2E6
330
1F
100
AcDbEntity
  8
0-A
  6
Continuous
 62
     2
370
     9
100
AcDbLine
 10
-103.9601272170608
 20
-119.9300980026658
 30
0.0
 11
-103.9601272170608
 21
-121.5301428717537
 31
0.0
  0
LINE
  5
2E7
330
1F
100
AcDbEntity
  8
0-A
  6
Continuous
 62
     2
370
     9
100
AcDbLine
 10
38.0399453652872
 20
-119.9300980026658
 30
0.0
 11
167.0398265941723
 21
-119.9300980026658
 31
0.0
  0
LINE
  5
2E8
330
1F
100
AcDbEntity
  8
0-A
  6
Continuous
 62
     2
370
     9
100
AcDbLine
 10
-187.9600084459459
 20
303.2699298755542
 30
0.0
 11
-147.9600249419341
 21
303.2699298755542
 31
0.0
  0
LINE
  5
2E9
330
1F
100
AcDbEntity
  8
0-A
  6
Continuous
 62
     2
370
     9
100
AcDbLine
 10
-187.9600084459459
 20
273.2699298755542
 30
0.0
 11
-147.9600249419341
 21
273.2699298755542
 31
0.0
  0
LINE
  5
2EA
330
1F
100
AcDbEntity
  8
0-A
  6
Continuous
 62
     2
370
     9
100
AcDbLine
 10
122.0398265941723
 20
303.2699298755542
 30
0.0
 11
82.039892578125
 21
303.2699298755542
 31
0.0
  0
LINE
  5
2EB
330
1F
100
AcDbEntity
  8
0-A
  6
Continuous
 62
     2
370
     9
100
AcDbLine
 10
122.0398265941723
 20
273.2699298755542
 30
0.0
 11
82.039892578125
 21
273.2699298755542
 31
0.0
  0
LINE
  5
2EC
330
1F
100
AcDbEntity
  8
0-A
  6
JWW_CENTER1
 62
     2
370
     9
100
AcDbLine
 10
152.0398265941723
 20
304.7624868856893
 30
0.0
 11
152.0398265941723
 21
311.7324707856048
 31
0.0
  0
LINE
  5
2ED
330
1F
100
AcDbEntity
  8
0-A
  6
JWW_CENTER1
 62
     2
370
     9
100
AcDbLine
 10
148.2811167124156
 20
308.2697979076488
 30
0.0
 11
155.3840252850507
 21
308.2697979076488
 31
0.0
  0
LINE
  5
2EE
330
1F
100
AcDbEntity
  8
0-A
  6
JWW_CENTER1
 62
     2
370
     9
100
AcDbLine
 10
-214.2013975401182
 20
308.2697979076488
 30
0.0
 11
-221.3042071368243
 21
308.2697979076488
 31
0.0
  0
LINE
  5
2EF
330
1F
100
AcDbEntity
  8
0-A
  6
Continuous
 62
     2
370
     9
100
AcDbLine
 10
122.0398265941723
 20
233.2699958595069
 30
0.0
 11
82.039892578125
 21
233.2699958595069
 31
0.0
  0
LINE
  5
2F0
330
1F
100
AcDbEntity
  8
0-A
  6
Continuous
 62
     2
370
     9
100
AcDbLine
 10
-187.9601569098396
 20
233.2699958595069
 30
0.0
 11
-147.9600249419341
 21
233.2699958595069
 31
0.0
  0
LINE
  5
2F1
330
1F
100
AcDbEntity
  8
0-A
  6
Continuous
 62
     2
370
     9
100
AcDbLine
 10
-232.9601569098396
 20
218.2698968835778
 30
0.0
 11
-232.9601569098396
 21
323.2698968835778
 31
0.0
  0
LINE
  5
2F2
330
1F
100
AcDbEntity
  8
0-A
  6
Continuous
 62
     2
370
     9
100
AcDbLine
 10
167.0398265941723
 20
323.2698968835778
 30
0.0
 11
167.0398265941723
 21
218.2698968835778
 31
0.0
  0
LINE
  5
2F3
330
1F
100
AcDbEntity
  8
0-A
  6
JWW_CENTER1
 62
     2
370
     9
100
AcDbLine
 10
-217.9600084459459
 20
304.7624868856893
 30
0.0
 11
-217.9600084459459
 21
311.7324707856048
 31
0.0
  0
LINE
  5
2F4
330
1F
100
AcDbEntity
  8
0-A
  6
Continuous
 62
     2
370
     9
100
AcDbLine
 10
-232.9601569098396
 20
323.2698968835778
 30
0.0
 11
-73.34880239125842
 21
323.2698968835778
 31
0.0
  0
LINE
  5
2F5
330
1F
100
AcDbEntity
  8
0-A
  6
Continuous
 62
     2
370
     9
100
AcDbLine
 10
7.428620539484807
 20
323.2698968835778
 30
0.0
 11
167.0398265941723
 21
323.2698968835778
 31
0.0
  0
ARC
  5
2F6
330
1F
100
AcDbEntity
  8
0-A
  6
Continuous
 62
     2
370
     9
100
AcDbCircle
 10
-187.9600084459459
 20
288.2699298755542
 30
0.0
 40
15.00000154649889
100
AcDbArc
 50
90.0
 51
270.0
  0
ARC
  5
2F7
330
1F
100
AcDbEntity
  8
0-A
  6
Continuous
 62
     2
370
     9
100
AcDbCircle
 10
122.0398265941723
 20
288.2699298755542
 30
0.0
 40
15.00000154649889
100
AcDbArc
 50
270.0
 51
90.0
  0
CIRCLE
  5
2F8
330
1F
100
AcDbEntity
  8
0-A
  6
Continuous
 62
     2
370
     9
100
AcDbCircle
 10
152.0398265941723
 20
308.2697979076488
 30
0.0
 40
2.09999993040755
  0
CIRCLE
  5
2F9
330
1F
100
AcDbEntity
  8
0-A
  6
Continuous
 62
     2
370
     9
100
AcDbCircle
 10
-217.9600084459459
 20
308.2697979076488
 30
0.0
 40
2.09999993040755
  0
ARC
  5
2FA
330
1F
100
AcDbEntity
  8
0-A
  6
Continuous
 62
     2
370
     9
100
AcDbCircle
 10
122.0398265941723
 20
218.2698968835778
 30
0.0
 40
15.00000154649889
100
AcDbArc
 50
0.0
 51
90.0
  0
ARC
  5
2FB
330
1F
100
AcDbEntity
  8
0-A
  6
Continuous
 62
     2
370
     9
100
AcDbCircle
 10
-147.9600249419341
 20
288.2699298755542
 30
0.0
 40
15.00000154649889
100
AcDbArc
 50
270.0
 51
90.0
  0
ARC
  5
2FC
330
1F
100
AcDbEntity
  8
0-A
  6
Continuous
 62
     2
370
     9
100
AcDbCircle
 10
82.039892578125
 20
288.2699298755542
 30
0.0
 40
15.00000154649889
100
AcDbArc
 50
90.0
 51
270.0
  0
ARC
  5
2FD
330
1F
100
AcDbEntity
  8
0-A
  6
Continuous
 62
     2
370
     9
100
AcDbCircle
 10
-187.9601569098396
 20
218.2698968835778
 30
0.0
 40
15.00000154649889
100
AcDbArc
 50
90.0
 51
180.0
  0
ARC
  5
2FE
330
1F
100
AcDbEntity
  8
0-A
  6
Continuous
 62
     2
370
     9
100
AcDbCircle
 10
-147.9600249419341
 20
218.2698968835778
 30
0.0
 40
15.00000154649889
100
AcDbArc
 50
76.69865417480469
 51
90.0
  0
ARC
  5
2FF
330
1F
100
AcDbEntity
  8
0-A
  6
Continuous
 62
     2
370
     9
100
AcDbCircle
 10
82.039892578125
 20
218.2698968835778
 30
0.0
 40
15.00000154649889
100
AcDbArc
 50
90.0
 51
103.3013458251953
  0
LINE
  5
300
330
1F
100
AcDbEntity
  8
寸法
  6
Continuous
 62
     7
370
     9
100
AcDbLine
 10
30.22898774018155
 20
26.42626400509393
 30
0.0
 11
33.09909173089109
 21
33.35537084631009
 31
0.0
  0
LINE
  5
301
330
1F
100
AcDbEntity
  8
寸法
  6
Continuous
 62
     7
370
     9
100
AcDbLine
 10
30.22898774018155
 20
26.42626400509393
 30
0.0
 11
34.79469785948062
 21
32.37639993203651
 31
0.0
  0
LINE
  5
302
330
1F
100
AcDbEntity
  8
寸法
  6
Continuous
 62
     7
370
     9
100
AcDbLine
 10
45.74190574852194
 20
-33.28669342865823
 30
0.0
 11
48.6120097392314
 21
-26.35758658744201
 31
0.0
  0
LINE
  5
303
330
1F
100
AcDbEntity
  8
寸法
  6
Continuous
 62
     7
370
     9
100
AcDbLine
 10
45.74190574852194
 20
-33.28669342865823
 30
0.0
 11
50.30761586782093
 21
-27.33655750171565
 31
0.0
  0
LINE
  5
304
330
1F
100
AcDbEntity
  8
寸法
  6
Continuous
 62
     7
370
     9
100
AcDbLine
 10
53.03987113334038
 20
-37.57373681970549
 30
0.0
 11
55.90997512404984
 21
-30.64462997848928
 31
0.0
  0
LINE
  5
305
330
1F
100
AcDbEntity
  8
寸法
  6
Continuous
 62
     7
370
     9
100
AcDbLine
 10
53.03987113334038
 20
-37.57373681970549
 30
0.0
 11
57.60558125263937
 21
-31.62360089276295
 31
0.0
  0
LINE
  5
306
330
1F
100
AcDbEntity
  8
寸法
  6
Continuous
 62
     7
370
     9
100
AcDbLine
 10
-104.4542274268898
 20
24.00002994021845
 30
0.0
 11
-109.0199375461888
 21
29.95016586716103
 31
0.0
  0
LINE
  5
307
330
1F
100
AcDbEntity
  8
寸法
  6
Continuous
 62
     7
370
     9
100
AcDbLine
 10
-104.4542274268898
 20
24.00002994021845
 30
0.0
 11
-107.3243685335727
 21
30.92913678143471
 31
0.0
  0
LINE
  5
308
330
1F
100
AcDbEntity
  8
寸法
  6
Continuous
 62
     7
370
     9
100
AcDbLine
 10
-91.28362426757813
 20
-20.93019202979842
 30
0.0
 11
-95.84933438687712
 21
-14.98005610285584
 31
0.0
  0
LINE
  5
309
330
1F
100
AcDbEntity
  8
寸法
  6
Continuous
 62
     7
370
     9
100
AcDbLine
 10
-91.28362426757813
 20
-20.93019202979842
 30
0.0
 11
-94.15376537426094
 21
-14.00108518858221
 31
0.0
  0
LINE
  5
30A
330
1F
100
AcDbEntity
  8
寸法
  6
Continuous
 62
     7
370
     9
100
AcDbLine
 10
-126.9601288666596
 20
-89.43017058501377
 30
0.0
 11
-129.8302699733425
 21
-96.35924031025662
 31
0.0
  0
LINE
  5
30B
330
1F
100
AcDbEntity
  8
寸法
  6
Continuous
 62
     7
370
     9
100
AcDbLine
 10
-126.9601288666596
 20
-89.43017058501377
 30
0.0
 11
-131.5258389859586
 21
-95.38034362792975
 31
0.0
  0
LINE
  5
30C
330
1F
100
AcDbEntity
  8
寸法
  6
Continuous
 62
     7
370
     9
100
AcDbLine
 10
-145.4601404138513
 20
-49.43013759303744
 30
0.0
 11
-148.3302815205342
 21
-56.35924443425365
 31
0.0
  0
LINE
  5
30D
330
1F
100
AcDbEntity
  8
寸法
  6
Continuous
 62
     7
370
     9
100
AcDbLine
 10
-145.4601404138513
 20
-49.43013759303744
 30
0.0
 11
-150.0258505331503
 21
-55.38027351998002
 31
0.0
  0
LINE
  5
30E
330
1F
100
AcDbEntity
  8
寸法
  6
Continuous
 62
     7
370
     9
100
AcDbLine
 10
53.03987113334038
 20
-37.57373681970549
 30
0.0
 11
107.3107731999578
 21
56.4262145171294
 31
0.0
  0
LINE
  5
30F
330
1F
100
AcDbEntity
  8
寸法
  6
Continuous
 62
     7
370
     9
100
AcDbLine
 10
-104.4542274268898
 20
24.00002994021845
 30
0.0
 11
-164.7447465226457
 21
128.4262293635188
 31
0.0
  0
LINE
  5
310
330
1F
100
AcDbEntity
  8
寸法
  6
Continuous
 62
     7
370
     9
100
AcDbLine
 10
-91.28362426757813
 20
-20.93019202979842
 30
0.0
 11
-156.7299603436444
 21
92.42622194032408
 31
0.0
  0
LINE
  5
311
330
1F
100
AcDbEntity
  8
寸法
  6
Continuous
 62
     7
370
     9
100
AcDbLine
 10
45.74190574852194
 20
-33.28669342865823
 30
0.0
 11
118.3222659549198
 21
92.42622194032408
 31
0.0
  0
LINE
  5
312
330
1F
100
AcDbEntity
  8
寸法
  6
Continuous
 62
     7
370
     9
100
AcDbLine
 10
-164.7447465226457
 20
128.4262293635188
 30
0.0
 11
-284.0224573083826
 21
128.4262293635188
 31
0.0
  0
LINE
  5
313
330
1F
100
AcDbEntity
  8
寸法
  6
Continuous
 62
     7
370
     9
100
AcDbLine
 10
-156.7299603436444
 20
92.42622194032408
 30
0.0
 11
-264.245693392367
 21
92.42622194032408
 31
0.0
  0
LINE
  5
314
330
1F
100
AcDbEntity
  8
寸法
  6
Continuous
 62
     7
370
     9
100
AcDbLine
 10
89.1186757680532
 20
128.4262293635188
 30
0.0
 11
216.873489297403
 21
128.4262293635188
 31
0.0
  0
TEXT
  5
315
330
1F
100
AcDbEntity
  8
寸法
  6
Continuous
 62
     7
370
     9
100
AcDbText
 10
-246.3965562150285
 20
117.4348954517261
 30
0.0
 40
6.858000000000001
  1
Ｍ６×１２
 41
1.133333333333333
  7
ＭＳ ゴシック
100
AcDbText
  0
TEXT
  5
316
330
1F
100
AcDbEntity
  8
寸法
  6
Continuous
 62
     7
370
     9
100
AcDbText
 10
-237.1452142663904
 20
82.61016532609268
 30
0.0
 40
6.858000000000001
  1
Ｍ８×４０
 41
1.133333333333333
  7
ＭＳ ゴシック
100
AcDbText
  0
TEXT
  5
317
330
1F
100
AcDbEntity
  8
寸法
  6
Continuous
 62
     7
370
     9
100
AcDbText
 10
-262.4478290454762
 20
96.92171350757495
 30
0.0
 40
6.858000000000001
  1
ボルト：ＳＵＳ３０４
 41
1.15
  7
ＭＳ ゴシック
100
AcDbText
  0
TEXT
  5
318
330
1F
100
AcDbEntity
  8
寸法
  6
Continuous
 62
     7
370
     9
100
AcDbText
 10
92.47661479228253
 20
132.7123868408203
 30
0.0
 40
6.858000000000001
  1
ストレーナー：ＳＣＳ１３
 41
1.152777777777777
  7
ＭＳ ゴシック
100
AcDbText
  0
LINE
  5
319
330
1F
100
AcDbEntity
  8
寸法
  6
Continuous
 62
     7
370
     9
100
AcDbLine
 10
-145.4601404138513
 20
-49.43013759303744
 30
0.0
 11
-155.6798663258006
 21
-67.13121342110806
 31
0.0
  0
LINE
  5
31A
330
1F
100
AcDbEntity
  8
寸法
  6
Continuous
 62
     7
370
     9
100
AcDbLine
 10
-126.9601288666596
 20
-89.43017058501377
 30
0.0
 11
-136.2676971158568
 21
-105.5513539516189
 31
0.0
  0
LINE
  5
31B
330
1F
100
AcDbEntity
  8
寸法
  6
Continuous
 62
     7
370
     9
100
AcDbLine
 10
-155.6798663258006
 20
-67.13121342110806
 30
0.0
 11
-242.768155328915
 21
-67.13121342110806
 31
0.0
  0
TEXT
  5
31C
330
1F
100
AcDbEntity
  8
寸法
  6
Continuous
 62
     7
370
     9
100
AcDbText
 10
-241.998215390808
 20
-63.26027233817943
 30
0.0
 40
6.858000000000001
  1
本体：ＳＣＳ１３
 41
1.145833333333333
  7
ＭＳ ゴシック
100
AcDbText
  0
LINE
  5
31D
330
1F
100
AcDbEntity
  8
寸法
  6
Continuous
 62
     7
370
     9
100
AcDbLine
 10
-102.9601239178632
 20
-112.5445921781907
 30
0.0
 11
-125.9964126174514
 21
-152.4446347378402
 31
0.0
  0
LINE
  5
31E
330
1F
100
AcDbEntity
  8
寸法
  6
Continuous
 62
     7
370
     9
100
AcDbLine
 10
-102.9601239178632
 20
-112.5445921781907
 30
0.0
 11
-105.830265024546
 21
-119.4736619034336
 31
0.0
  0
LINE
  5
31F
330
1F
100
AcDbEntity
  8
寸法
  6
Continuous
 62
     7
370
     9
100
AcDbLine
 10
-102.9601239178632
 20
-112.5445921781907
 30
0.0
 11
-107.5258340371622
 21
-118.4947652211067
 31
0.0
  0
TEXT
  5
320
330
1F
100
AcDbEntity
  8
寸法
  6
Continuous
 62
     7
370
     9
100
AcDbText
 10
-222.1560847910353
 20
-228.0098289672445
 30
0.0
 40
6.858000000000001
  1
固定金具：ＳＧＨＣ
 41
1.148148148148148
  7
ＭＳ ゴシック
100
AcDbText
  0
TEXT
  5
321
330
1F
100
AcDbEntity
  8
寸法
  6
Continuous
 62
     7
370
     9
100
AcDbText
 10
110.0589165764886
 20
60.38523180492502
 30
0.0
 40
6.858000000000001
  1
防水層押え：ＳＣＳ１３
 41
1.151515151515151
  7
ＭＳ ゴシック
100
AcDbText
  0
LINE
  5
322
330
1F
100
AcDbEntity
  8
寸法
  6
Continuous
 62
     7
370
     9
100
AcDbLine
 10
107.3107731999578
 20
56.4262145171294
 30
0.0
 11
223.544640123522
 21
56.4262145171294
 31
0.0
  0
LINE
  5
323
330
1F
100
AcDbEntity
  8
寸法
  6
Continuous
 62
     7
370
     9
100
AcDbLine
 10
30.22898774018155
 20
26.42626400509393
 30
0.0
 11
89.11866829119944
 21
128.4262293635188
 31
0.0
  0
TEXT
  5
324
330
1F
100
AcDbEntity
  8
寸法
  6
Continuous
 62
     7
370
     9
100
AcDbText
 10
-201.9736539273649
 20
-148.2995921913875
 30
0.0
 40
6.858000000000001
  1
スペーサー
 41
1.133333333333333
  7
ＭＳ ゴシック
100
AcDbText
  0
LINE
  5
325
330
1F
100
AcDbEntity
  8
寸法
  6
Continuous
 62
     7
370
     9
100
AcDbLine
 10
-125.9964126174514
 20
-152.4446347378402
 30
0.0
 11
-227.8818578728721
 21
-152.4446347378402
 31
0.0
  0
LINE
  5
326
330
1F
100
AcDbEntity
  8
通り芯
  6
Continuous
 62
     3
370
     9
100
AcDbLine
 10
11.14395422033358
 20
-60.12748074918186
 30
0.0
 11
-77.06421587511072
 21
-60.12748074918186
 31
0.0
  0
LINE
  5
327
330
1F
100
AcDbEntity
  8
通り芯
  6
Continuous
 62
     4
370
     9
100
AcDbLine
 10
-116.5101265572213
 20
-58.43016728581615
 30
0.0
 11
-117.4101146801098
 21
-59.33022964065147
 31
0.0
  0
LINE
  5
328
330
1F
100
AcDbEntity
  8
通り芯
  6
Continuous
 62
     4
370
     9
100
AcDbLine
 10
-111.4101320008973
 20
-58.43016728581615
 30
0.0
 11
-116.5101265572213
 21
-58.43016728581615
 31
0.0
  0
LINE
  5
329
330
1F
100
AcDbEntity
  8
通り芯
  6
Continuous
 62
     4
370
     9
100
AcDbLine
 10
-111.4101320008973
 20
-58.43016728581615
 30
0.0
 11
-110.5101438780088
 21
-59.33022964065147
 31
0.0
  0
LINE
  5
32A
330
1F
100
AcDbEntity
  8
通り芯
  6
JWW_CENTER1
 62
     4
370
     9
100
AcDbLine
 10
-113.9601107210727
 20
-81.43019367939725
 30
0.0
 11
-113.9601107210727
 21
-55.39756956358221
 31
0.0
  0
LINE
  5
32B
330
1F
100
AcDbEntity
  8
通り芯
  6
Continuous
 62
     4
370
     9
100
AcDbLine
 10
-117.4101146801098
 20
-59.33022964065147
 30
0.0
 11
-110.5101438780088
 21
-59.33022964065147
 31
0.0
  0
LINE
  5
32C
330
1F
100
AcDbEntity
  8
通り芯
  6
Continuous
 62
     4
370
     9
100
AcDbLine
 10
-111.4101320008973
 20
-58.43016728581615
 30
0.0
 11
-111.4101320008973
 21
-68.43017553381026
 31
0.0
  0
LINE
  5
32D
330
1F
100
AcDbEntity
  8
通り芯
  6
Continuous
 62
     4
370
     9
100
AcDbLine
 10
-116.5101265572213
 20
-68.43017553381026
 30
0.0
 11
-116.5101265572213
 21
-58.43016728581615
 31
0.0
  0
LINE
  5
32E
330
1F
100
AcDbEntity
  8
通り芯
  6
Continuous
 62
     4
370
     9
100
AcDbLine
 10
-117.4101146801098
 20
-68.43017553381026
 30
0.0
 11
-117.4101146801098
 21
-59.33022964065147
 31
0.0
  0
LINE
  5
32F
330
1F
100
AcDbEntity
  8
通り芯
  6
Continuous
 62
     4
370
     9
100
AcDbLine
 10
-110.9601379394531
 20
-81.43019367939725
 30
0.0
 11
-110.9601379394531
 21
-68.43017553381026
 31
0.0
  0
LINE
  5
330
330
1F
100
AcDbEntity
  8
通り芯
  6
Continuous
 62
     4
370
     9
100
AcDbLine
 10
-110.5101438780088
 20
-59.33022964065147
 30
0.0
 11
-110.5101438780088
 21
-68.43017553381026
 31
0.0
  0
LINE
  5
331
330
1F
100
AcDbEntity
  8
通り芯
  6
Continuous
 62
     4
370
     9
100
AcDbLine
 10
-117.4101146801098
 20
-68.43017553381026
 30
0.0
 11
-110.5101438780088
 21
-68.43017553381026
 31
0.0
  0
LINE
  5
332
330
1F
100
AcDbEntity
  8
通り芯
  6
Continuous
 62
     4
370
     9
100
AcDbLine
 10
-116.9601206186656
 20
-81.43019367939725
 30
0.0
 11
-116.9601206186656
 21
-68.43017553381026
 31
0.0
  0
LINE
  5
333
330
1F
100
AcDbEntity
  8
通り芯
  6
Continuous
 62
     4
370
     9
100
AcDbLine
 10
-118.9601148450697
 20
-83.43015078982799
 30
0.0
 11
-126.9601288666596
 21
-83.43015078982799
 31
0.0
  0
LINE
  5
334
330
1F
100
AcDbEntity
  8
通り芯
  6
Continuous
 62
     4
370
     9
100
AcDbLine
 10
-126.9601288666596
 20
-89.43017058501377
 30
0.0
 11
-126.9601288666596
 21
-83.43015078982799
 31
0.0
  0
LINE
  5
335
330
1F
100
AcDbEntity
  8
通り芯
  6
Continuous
 62
     4
370
     9
100
AcDbLine
 10
-118.9601148450697
 20
-89.43017058501377
 30
0.0
 11
-126.9601288666596
 21
-89.43017058501377
 31
0.0
  0
LINE
  5
336
330
1F
100
AcDbEntity
  8
通り芯
  6
JWW_CENTER1
 62
     4
370
     9
100
AcDbLine
 10
-128.7243624300571
 20
-86.43023491936768
 30
0.0
 11
-118.9601148450697
 21
-86.43023491936768
 31
0.0
  0
ARC
  5
337
330
1F
100
AcDbEntity
  8
通り芯
  6
Continuous
 62
     4
370
     9
100
AcDbCircle
 10
-118.9601148450697
 20
-81.43019367939725
 30
0.0
 40
2.000000025774982
100
AcDbArc
 50
270.0
 51
0.0
  0
ARC
  5
338
330
1F
100
AcDbEntity
  8
通り芯
  6
JWW_CENTER1
 62
     4
370
     9
100
AcDbCircle
 10
-118.9601148450697
 20
-81.43019367939725
 30
0.0
 40
2.000000025774982
100
AcDbArc
 50
270.0
 51
0.0
  0
ARC
  5
339
330
1F
100
AcDbEntity
  8
通り芯
  6
JWW_CENTER1
 62
     4
370
     9
100
AcDbCircle
 10
-118.9601148450697
 20
-81.43019367939725
 30
0.0
 40
5.000000064437454
100
AcDbArc
 50
270.0
 51
0.0
  0
ARC
  5
33A
330
1F
100
AcDbEntity
  8
通り芯
  6
Continuous
 62
     4
370
     9
100
AcDbCircle
 10
-118.9601148450697
 20
-81.43019367939725
 30
0.0
 40
8.000000103099927
100
AcDbArc
 50
270.0
 51
0.0
  0
LINE
  5
33B
330
1F
100
AcDbEntity
  8
躯体
  6
Continuous
 62
     3
370
     9
100
AcDbLine
 10
-84.56013991897173
 20
-61.93020357699014
 30
0.0
 11
-91.36012028874579
 21
-61.93020357699014
 31
0.0
  0
LINE
  5
33C
330
1F
100
AcDbEntity
  8
躯体
  6
Continuous
 62
     4
370
     9
100
AcDbLine
 10
-83.88366418786954
 20
-60.25374929067256
 30
0.0
 11
-92.03659601984798
 21
-60.25374929067256
 31
0.0
  0
LINE
  5
33D
330
1F
100
AcDbEntity
  8
躯体
  6
Continuous
 62
     4
370
     9
100
AcDbLine
 10
-92.03659601984798
 20
-60.25374929067256
 30
0.0
 11
-91.36012028874579
 21
-60.93015078982799
 31
0.0
  0
LINE
  5
33E
330
1F
100
AcDbEntity
  8
躯体
  6
Continuous
 62
     4
370
     9
100
AcDbLine
 10
-91.36012028874579
 20
-60.93015078982799
 30
0.0
 11
-84.56013991897173
 21
-60.93015078982799
 31
0.0
  0
LINE
  5
33F
330
1F
100
AcDbEntity
  8
躯体
  6
Continuous
 62
     4
370
     9
100
AcDbLine
 10
-84.56013991897173
 20
-60.93015078982799
 30
0.0
 11
-83.88366418786954
 21
-60.25374929067256
 31
0.0
  0
LINE
  5
340
330
1F
100
AcDbEntity
  8
躯体
  6
Continuous
 62
     4
370
     9
100
AcDbLine
 10
-95.4601362898543
 20
-43.29553527832037
 30
0.0
 11
-95.4601362898543
 21
-49.07382424844283
 31
0.0
  0
LINE
  5
341
330
1F
100
AcDbEntity
  8
躯体
  6
Continuous
 62
     4
370
     9
100
AcDbLine
 10
-80.46008680188977
 20
-43.29553527832037
 30
0.0
 11
-80.46008680188977
 21
-49.07382424844283
 31
0.0
  0
LINE
  5
342
330
1F
100
AcDbEntity
  8
躯体
  6
Continuous
 62
     4
370
     9
100
AcDbLine
 10
-95.4601362898543
 20
-49.07382424844283
 30
0.0
 11
-80.46008680188977
 21
-49.07382424844283
 31
0.0
  0
LINE
  5
343
330
1F
100
AcDbEntity
  8
躯体
  6
Continuous
 62
     4
370
     9
100
AcDbLine
 10
-93.58370113888306
 20
-42.57377805967596
 30
0.0
 11
-82.3365219528611
 21
-42.57377805967596
 31
0.0
  0
LINE
  5
344
330
1F
100
AcDbEntity
  8
躯体
  6
Continuous
 62
     4
370
     9
100
AcDbLine
 10
-91.36012028874579
 20
-49.07382424844283
 30
0.0
 11
-91.36012028874579
 21
-60.93015078982799
 31
0.0
  0
LINE
  5
345
330
1F
100
AcDbEntity
  8
躯体
  6
Continuous
 62
     4
370
     9
100
AcDbLine
 10
-92.03659601984798
 20
-49.07382424844283
 30
0.0
 11
-92.03659601984798
 21
-60.25374929067256
 31
0.0
  0
LINE
  5
346
330
1F
100
AcDbEntity
  8
躯体
  6
Continuous
 62
     4
370
     9
100
AcDbLine
 10
-84.56013991897173
 20
-49.07382424844283
 30
0.0
 11
-84.56013991897173
 21
-60.93015078982799
 31
0.0
  0
LINE
  5
347
330
1F
100
AcDbEntity
  8
躯体
  6
Continuous
 62
     4
370
     9
100
AcDbLine
 10
-83.88366418786954
 20
-49.07382424844283
 30
0.0
 11
-83.88366418786954
 21
-60.25374929067256
 31
0.0
  0
LINE
  5
348
330
1F
100
AcDbEntity
  8
躯体
  6
Continuous
 62
     4
370
     9
100
AcDbLine
 10
-83.96012309306376
 20
-21.60666776090061
 30
0.0
 11
-91.96009999868032
 21
-21.60666776090061
 31
0.0
  0
LINE
  5
349
330
1F
100
AcDbEntity
  8
躯体
  6
Continuous
 62
     4
370
     9
100
AcDbLine
 10
-91.96009999868032
 20
-21.60666776090061
 30
0.0
 11
-91.28362426757813
 21
-20.93019202979842
 31
0.0
  0
LINE
  5
34A
330
1F
100
AcDbEntity
  8
躯体
  6
Continuous
 62
     4
370
     9
100
AcDbLine
 10
-91.28362426757813
 20
-20.93019202979842
 30
0.0
 11
-84.63659882416594
 21
-20.93019202979842
 31
0.0
  0
LINE
  5
34B
330
1F
100
AcDbEntity
  8
躯体
  6
Continuous
 62
     4
370
     9
100
AcDbLine
 10
-84.63659882416594
 20
-20.93019202979842
 30
0.0
 11
-83.96012309306376
 21
-21.60666776090061
 31
0.0
  0
LINE
  5
34C
330
1F
100
AcDbEntity
  8
躯体
  6
Continuous
 62
     4
370
     9
100
AcDbLine
 10
-91.28362426757813
 20
-42.57377805967596
 30
0.0
 11
-91.28362426757813
 21
-20.93019202979842
 31
0.0
  0
LINE
  5
34D
330
1F
100
AcDbEntity
  8
躯体
  6
Continuous
 62
     4
370
     9
100
AcDbLine
 10
-91.96009999868032
 20
-42.57377805967596
 30
0.0
 11
-91.96009999868032
 21
-21.60666776090061
 31
0.0
  0
LINE
  5
34E
330
1F
100
AcDbEntity
  8
躯体
  6
Continuous
 62
     4
370
     9
100
AcDbLine
 10
-84.63659882416594
 20
-42.57377805967596
 30
0.0
 11
-84.63659882416594
 21
-20.93019202979842
 31
0.0
  0
LINE
  5
34F
330
1F
100
AcDbEntity
  8
躯体
  6
Continuous
 62
     4
370
     9
100
AcDbLine
 10
-83.96012309306376
 20
-42.57377805967596
 30
0.0
 11
-83.96012309306376
 21
-21.60666776090061
 31
0.0
  0
LINE
  5
350
330
1F
100
AcDbEntity
  8
躯体
  6
Continuous
 62
     3
370
     9
100
AcDbLine
 10
-84.56013991897173
 20
-60.93015078982799
 30
0.0
 11
-84.56013991897173
 21
-61.93020357699014
 31
0.0
  0
LINE
  5
351
330
1F
100
AcDbEntity
  8
躯体
  6
Continuous
 62
     3
370
     9
100
AcDbLine
 10
-91.36012028874579
 20
-60.93015078982799
 30
0.0
 11
-91.36012028874579
 21
-61.93020357699014
 31
0.0
  0
LINE
  5
352
330
1F
100
AcDbEntity
  8
躯体
  6
Continuous
 62
     4
370
     9
100
AcDbLine
 10
-84.212919987859
 20
-43.29546104637357
 30
0.0
 11
-84.212919987859
 21
-49.07382424844283
 31
0.0
  0
LINE
  5
353
330
1F
100
AcDbEntity
  8
躯体
  6
Continuous
 62
     4
370
     9
100
AcDbLine
 10
-91.70730310388517
 20
-43.29553527832037
 30
0.0
 11
-91.70730310388517
 21
-49.07382424844283
 31
0.0
  0
LINE
  5
354
330
1F
100
AcDbEntity
  8
躯体
  6
JWW_CENTER1
 62
     4
370
     9
100
AcDbLine
 10
-87.96011154587204
 20
-19.32919451739342
 30
0.0
 11
-87.96011154587204
 21
-63.93016068742088
 31
0.0
  0
ARC
  5
355
330
1F
100
AcDbEntity
  8
躯体
  6
Continuous
 62
     4
370
     9
100
AcDbCircle
 10
-93.58370113888306
 20
-45.37402978845549
 30
0.0
 40
2.80017343727318
100
AcDbArc
 50
47.92556762695312
 51
132.0746307373047
  0
ARC
  5
356
330
1F
100
AcDbEntity
  8
躯体
  6
Continuous
 62
     4
370
     9
100
AcDbCircle
 10
-87.96011154587204
 20
-52.66323580355264
 30
0.0
 40
10.08941018903578
100
AcDbArc
 50
68.19786071777344
 51
111.8021392822266
  0
ARC
  5
357
330
1F
100
AcDbEntity
  8
躯体
  6
Continuous
 62
     4
370
     9
100
AcDbCircle
 10
-82.3365219528611
 20
-45.37402978845549
 30
0.0
 40
2.800189675511541
100
AcDbArc
 50
47.92572021484374
 51
132.0742797851562
  0
LINE
  5
358
330
1F
100
AcDbEntity
  8
躯体
  6
Continuous
 62
     4
370
     9
100
AcDbLine
 10
-5.460062057907507
 20
258.4013204213734
 30
0.0
 11
-11.96010824667438
 21
262.1540422594225
 31
0.0
  0
LINE
  5
359
330
1F
100
AcDbEntity
  8
躯体
  6
Continuous
 62
     4
370
     9
100
AcDbLine
 10
-6.669968558646573
 20
268.9967431145745
 30
0.0
 11
-3.384239897856801
 21
263.3058251458245
 31
0.0
  0
LINE
  5
35A
330
1F
100
AcDbEntity
  8
躯体
  6
Continuous
 62
     4
370
     9
100
AcDbLine
 10
-7.53595844990501
 20
268.4967167209934
 30
0.0
 11
-4.250229789115323
 21
262.8057987522434
 31
0.0
  0
LINE
  5
35B
330
1F
100
AcDbEntity
  8
躯体
  6
Continuous
 62
     4
370
     9
100
AcDbLine
 10
-87.3828468116554
 20
218.2698968835778
 30
0.0
 11
-85.88432650179477
 21
220.8653797871357
 31
0.0
  0
LINE
  5
35C
330
1F
100
AcDbEntity
  8
躯体
  6
Continuous
 62
     4
370
     9
100
AcDbLine
 10
-88.53748762800883
 20
218.2698968835778
 30
0.0
 11
-86.75031639305321
 21
221.3654061807168
 31
0.0
  0
LINE
  5
35D
330
1F
100
AcDbEntity
  8
躯体
  6
Continuous
 62
     4
370
     9
100
AcDbLine
 10
-81.46496466559337
 20
222.019909255569
 30
0.0
 11
-81.46496466559337
 21
218.2698968835778
 31
0.0
  0
LINE
  5
35E
330
1F
100
AcDbEntity
  8
躯体
  6
Continuous
 62
     4
370
     9
100
AcDbLine
 10
-5.460062057907507
 20
258.4013204213734
 30
0.0
 11
1.039835666965772
 21
262.154190723316
 31
0.0
  0
LINE
  5
35F
330
1F
100
AcDbEntity
  8
躯体
  6
Continuous
 62
     4
370
     9
100
AcDbLine
 10
-11.96010824667438
 20
269.6484996073954
 30
0.0
 11
-11.96010824667438
 21
262.1540422594225
 31
0.0
  0
LINE
  5
360
330
1F
100
AcDbEntity
  8
躯体
  6
Continuous
 62
     4
370
     9
100
AcDbLine
 10
-8.571048715952273
 20
271.6051052609005
 30
0.0
 11
-11.96010824667438
 21
269.6484996073954
 31
0.0
  0
LINE
  5
361
330
1F
100
AcDbEntity
  8
躯体
  6
Continuous
 62
     4
370
     9
100
AcDbLine
 10
1.039835666965772
 20
266.488148704735
 30
0.0
 11
1.039835666965772
 21
262.154190723316
 31
0.0
  0
LINE
  5
362
330
1F
100
AcDbEntity
  8
躯体
  6
JWW_CENTER1
 62
     4
370
     9
100
AcDbLine
 10
-3.460104947476808
 20
269.3653789623364
 30
0.0
 11
-10.20764044684329
 21
257.6783012596336
 31
0.0
  0
LINE
  5
363
330
1F
100
AcDbEntity
  8
躯体
  6
Continuous
 62
     4
370
     9
100
AcDbLine
 10
-81.46496466559337
 20
222.019909255569
 30
0.0
 11
-87.9649737383868
 21
225.7726682095914
 31
0.0
  0
LINE
  5
364
330
1F
100
AcDbEntity
  8
躯体
  6
Continuous
 62
     4
370
     9
100
AcDbLine
 10
-91.71836366395696
 20
223.6056521029086
 30
0.0
 11
-87.9649737383868
 21
225.7726682095914
 31
0.0
  0
LINE
  5
365
330
1F
100
AcDbEntity
  8
躯体
  6
JWW_CENTER1
 62
     4
370
     9
100
AcDbLine
 10
-87.96014866184548
 20
228.6843420905035
 30
0.0
 11
-87.96018577781884
 21
218.2698968835778
 31
0.0
  0
LINE
  5
366
330
1F
100
AcDbEntity
  8
躯体
  6
JWW_CENTER1
 62
     4
370
     9
100
AcDbLine
 10
2.30534189585093
 20
261.4178098111539
 30
0.0
 11
-13.49225562843118
 21
270.5386891133076
 31
0.0
  0
CIRCLE
  5
367
330
1F
100
AcDbEntity
  8
躯体
  6
Continuous
 62
     4
370
     9
100
AcDbCircle
 10
-5.460062057907507
 20
265.9012709334089
 30
0.0
 40
4.000000051549963
  0
CIRCLE
  5
368
330
1F
100
AcDbEntity
  8
躯体
  6
Continuous
 62
     4
370
     9
100
AcDbCircle
 10
-5.460062057907507
 20
265.9012709334089
 30
0.0
 40
3.323499673121685
  0
ARC
  5
369
330
1F
100
AcDbEntity
  8
躯体
  6
Continuous
 62
     4
370
     9
100
AcDbCircle
 10
-87.96014866184548
 20
218.2698968835778
 30
0.0
 40
3.323499673121685
100
AcDbArc
 50
359.9996948242187
 51
180.0003051757813
  0
ARC
  5
36A
330
1F
100
AcDbEntity
  8
躯体
  6
Continuous
 62
     4
370
     9
100
AcDbCircle
 10
-87.96014866184548
 20
218.2698968835778
 30
0.0
 40
4.000000051549963
100
AcDbArc
 50
359.999755859375
 51
180.000244140625
  0
ARC
  5
36B
330
1F
100
AcDbEntity
  8
躯体
  6
Continuous
 62
     4
370
     9
100
AcDbCircle
 10
-5.462882871885554
 20
265.8965200888144
 30
0.0
 40
6.500000373737233
100
AcDbArc
 50
114.5792083740234
 51
5.198776245117184
  0
ARC
  5
36C
330
1F
100
AcDbEntity
  8
躯体
  6
Continuous
 62
     4
370
     9
100
AcDbCircle
 10
-87.95461838180954
 20
218.2699339995513
 30
0.0
 40
6.500000373737233
100
AcDbArc
 50
359.9995422363282
 51
125.4207611083985
  0
TEXT
  5
36D
330
1F
100
AcDbEntity
  8
F-4ﾚｲﾔ
  6
Continuous
 62
     3
370
     9
100
AcDbText
 10
-35.25091149235743
 20
-332.3724681414435
 30
0.0
 40
9.144
  1
ステンレス鋳鋼製ルーフドレン　たて引き用　デッキプレート打込型
 41
0.675
  7
ＭＳ ゴシック
100
AcDbText
  0
TEXT
  5
36E
330
1F
100
AcDbEntity
  8
F-5ﾚｲﾔ
  6
Continuous
 62
     2
370
     9
100
AcDbText
 10
-30.85441335531763
 20
-279.6229777452408
 30
0.0
 40
9.144
  1
※ご注文の際はＣ寸法をご指示ください。
 41
1.118421052631579
  7
ＭＳ ゴシック
100
AcDbText
  0
TEXT
  5
36F
330
1F
100
AcDbEntity
  8
F-4ﾚｲﾔ
  6
Continuous
 62
     3
370
     9
100
AcDbText
 10
-49.80470528658952
 20
-346.5167882087698
 30
0.0
 40
9.144
  1
差し込み式　アスファルト・シート防水用　　ＥＤＳＳＢ－１－１００　Ｃ＝指示
 41
0.625
  7
ＭＳ ゴシック
100
AcDbText
  0
TEXT
  5
370
330
1F
100
AcDbEntity
  8
寸法
  6
Continuous
 62
     7
370
     9
100
AcDbText
 10
-279.9771848936339
 20
133.6546500574059
 30
0.0
 40
6.858000000000001
  1
丸小ねじ：ＳＵＳ３０４
 41
1.151515151515151
  7
ＭＳ ゴシック
100
AcDbText
  0
TEXT
  5
371
330
1F
100
AcDbEntity
  8
寸法
  6
Continuous
 62
     7
370
     9
100
AcDbText
 10
117.5139392746554
 20
96.34901403808588
 30
0.0
 40
6.858000000000001
  1
丸小ねじ：ＳＵＳ３０４
 41
1.06060606060606
  7
ＭＳ ゴシック
100
AcDbText
  0
LINE
  5
372
330
1F
100
AcDbEntity
  8
寸法
  6
Continuous
 62
     7
370
     9
100
AcDbLine
 10
118.3222659549198
 20
92.42622194032408
 30
0.0
 11
221.674973959148
 21
92.42622194032408
 31
0.0
  0
TEXT
  5
373
330
1F
100
AcDbEntity
  8
寸法
  6
Continuous
 62
     7
370
     9
100
AcDbText
 10
144.4986199570339
 20
82.47213102103565
 30
0.0
 40
6.858000000000001
  1
Ｍ６×１２
 41
1.133333333333333
  7
ＭＳ ゴシック
100
AcDbText
  0
TEXT
  5
374
330
1F
100
AcDbEntity
  8
寸法
  6
Continuous
 62
     7
370
     9
100
AcDbText
 10
138.5100931130455
 20
117.1346272269584
 30
0.0
 40
6.858000000000001
  1
酸　洗
 41
1.111111111111111
  7
ＭＳ ゴシック
100
AcDbText
  0
TEXT
  5
375
330
1F
100
AcDbEntity
  8
寸法
  6
Continuous
 62
     7
370
     9
100
AcDbText
 10
150.4277066617399
 20
45.24210023952165
 30
0.0
 40
6.858000000000001
  1
酸　洗
 41
1.111111111111111
  7
ＭＳ ゴシック
100
AcDbText
  0
TEXT
  5
376
330
1F
100
AcDbEntity
  8
寸法
  6
Continuous
 62
     7
370
     9
100
AcDbText
 10
-214.2240108273578
 20
-76.73389030429009
 30
0.0
 40
6.858000000000001
  1
酸　洗
 41
1.111111111111111
  7
ＭＳ ゴシック
100
AcDbText
  0
TEXT
  5
377
330
1F
100
AcDbEntity
  8
寸法
  6
Continuous
 62
     7
370
     9
100
AcDbText
 10
-242.560875243799
 20
-101.6357623526958
 30
0.0
 40
6.858000000000001
  1
アンカー：ＳＷＲＭ８
 41
1.15
  7
ＭＳ ゴシック
100
AcDbText
  0
LINE
  5
378
330
1F
100
AcDbEntity
  8
寸法
  6
Continuous
 62
     7
370
     9
100
AcDbLine
 10
-136.2676971158568
 20
-105.5513539516189
 30
0.0
 11
-241.8882395845004
 21
-105.5513539516189
 31
0.0
  0
TEXT
  5
379
330
1F
100
AcDbEntity
  8
寸法
  6
Continuous
 62
     7
370
     9
100
AcDbText
 10
-219.8279683501786
 20
-115.448137807985
 30
0.0
 40
6.858000000000001
  1
りん酸塩被膜
 41
1.138888888888889
  7
ＭＳ ゴシック
100
AcDbText
  0
TEXT
  5
37A
330
1F
100
AcDbEntity
  8
寸法
  6
Continuous
 62
     7
370
     9
100
AcDbText
 10
-223.1991298807393
 20
-163.3747786602485
 30
0.0
 40
6.858000000000001
  1
硬質ポリ塩化ビニル
 41
1.148148148148148
  7
ＭＳ ゴシック
100
AcDbText
  0
TEXT
  5
37B
330
1F
100
AcDbEntity
  8
その他
  6
Continuous
 62
     2
370
     9
100
AcDbText
 10
128.8479536132812
 20
-89.37711206384614
 30
0.0
 40
9.144
  1
Ｃ
 50
90.0
  7
ＭＳ ゴシック
100
AcDbText
  0
ENDSEC
  0
SECTION
  2
OBJECTS
  0
DICTIONARY
  5
C
330
0
100
AcDbDictionary
281
     1
  3
ACAD_DETAILVIEWSTYLE
350
3C1
  3
ACAD_GROUP
350
D
  3
ACAD_LAYOUT
350
1A
  3
ACAD_MATERIAL
350
43
  3
ACAD_MLEADERSTYLE
350
6B
  3
ACAD_MLINESTYLE
350
17
  3
ACAD_PLOTSETTINGS
350
19
  3
ACAD_PLOTSTYLENAME
350
E
  3
ACAD_SCALELIST
350
47
  3
ACAD_SECTIONVIEWSTYLE
350
3C2
  3
ACAD_TABLESTYLE
350
69
  3
ACAD_VISUALSTYLE
350
2A
  3
ACDB_RECOMPOSE_DATA
350
3BE
  3
AcDbVariableDictionary
350
37E
  0
DICTIONARY
  5
37C
330
8
100
AcDbDictionary
280
     1
281
     1
  3
ACAD_XREC_ROUNDTRIP
360
37D
  0
DICTIONARY
  5
3C1
102
{ACAD_REACTORS
330
C
102
}
330
C
100
AcDbDictionary
281
     1
  0
DICTIONARY
  5
D
102
{ACAD_REACTORS
330
C
102
}
330
C
100
AcDbDictionary
281
     1
  0
DICTIONARY
  5
1A
102
{ACAD_REACTORS
330
C
102
}
330
C
100
AcDbDictionary
281
     1
  3
Layout1
350
1E
  3
Layout2
350
26
  3
Model
350
22
  0
DICTIONARY
  5
43
102
{ACAD_REACTORS
330
C
102
}
330
C
100
AcDbDictionary
281
     1
  3
ByBlock
350
45
  3
ByLayer
350
44
  3
Global
350
46
  0
DICTIONARY
  5
6B
102
{ACAD_REACTORS
330
C
102
}
330
C
100
AcDbDictionary
281
     1
  3
Standard
350
6C
  0
DICTIONARY
  5
17
102
{ACAD_REACTORS
330
C
102
}
330
C
100
AcDbDictionary
281
     1
  3
Standard
350
18
  0
DICTIONARY
  5
19
102
{ACAD_REACTORS
330
C
102
}
330
C
100
AcDbDictionary
281
     1
  0
ACDBDICTIONARYWDFLT
  5
E
102
{ACAD_REACTORS
330
C
102
}
330
C
100
AcDbDictionary
281
     1
  3
Normal
350
F
100
AcDbDictionaryWithDefault
340
F
  0
DICTIONARY
  5
47
102
{ACAD_REACTORS
330
C
102
}
330
C
100
AcDbDictionary
281
     1
  3
A0
350
48
  3
A1
350
49
  3
A2
350
4A
  3
A3
350
4B
  3
A4
350
4C
  3
A5
350
4D
  3
A6
350
4E
  3
A7
350
4F
  3
A8
350
50
  3
A9
350
51
  3
B0
350
52
  3
B1
350
53
  3
B2
350
54
  3
B3
350
55
  3
B4
350
56
  3
B5
350
57
  3
B6
350
58
  3
B7
350
59
  3
B8
350
5A
  3
B9
350
5B
  3
C0
350
5C
  3
C1
350
5D
  3
C2
350
5E
  3
C3
350
5F
  3
C4
350
60
  3
C5
350
61
  3
C6
350
62
  3
C7
350
63
  3
C8
350
64
  3
C9
350
65
  3
D0
350
66
  3
D1
350
67
  3
D2
350
68
  0
DICTIONARY
  5
3C2
102
{ACAD_REACTORS
330
C
102
}
330
C
100
AcDbDictionary
281
     1
  0
DICTIONARY
  5
69
102
{ACAD_REACTORS
330
C
102
}
330
C
100
AcDbDictionary
281
     1
  3
Standard
350
6A
  0
DICTIONARY
  5
2A
102
{ACAD_REACTORS
330
C
102
}
330
C
100
AcDbDictionary
281
     1
  3
2dWireframe
350
2F
  3
Basic
350
32
  3
Brighten
350
36
  3
ColorChange
350
3A
  3
Conceptual
350
34
  3
Dim
350
35
  3
EdgeColorOff
350
3D
  3
Facepattern
350
39
  3
Flat
350
2B
  3
FlatWithEdges
350
2C
  3
Gouraud
350
2D
  3
GouraudWithEdges
350
2E
  3
Hidden
350
31
  3
JitterOff
350
3B
  3
Linepattern
350
38
  3
OverhangOff
350
3C
  3
Realistic
350
33
  3
Shaded
350
42
  3
Shaded with edges
350
41
  3
Shades of Gray
350
3E
  3
Sketchy
350
3F
  3
Thicken
350
37
  3
Wireframe
350
30
  3
X-Ray
350
40
  0
XRECORD
  5
3BE
102
{ACAD_REACTORS
330
C
102
}
330
C
100
AcDbXrecord
280
     1
 90
        1
330
6A
  0
DICTIONARY
  5
37E
102
{ACAD_REACTORS
330
C
102
}
330
C
100
AcDbDictionary
281
     1
  3
CANNOSCALE
350
37F
  3
CENTEREXE
350
3C3
  3
CENTERLTYPEFILE
350
3C4
  3
CMLEADERSTYLE
350
3C0
  3
CTABLESTYLE
350
3BF
  3
MSLTSCALE
350
380
  3
XCLIPFRAME
350
381
  0
XRECORD
  5
37D
102
{ACAD_REACTORS
330
37C
102
}
330
37C
100
AcDbXrecord
280
     1
102
VTR_0.000_0.000_1.000_1.000_VISUALSTYLE
340
2F
102
VTR_0.000_0.000_1.000_1.000_GRIDDISPLAY
 70
     3
102
VTR_0.000_0.000_1.000_1.000_GRIDMAJOR
 70
     5
102
VTR_0.000_0.000_1.000_1.000_DEFAULTLIGHTING
280
     1
102
VTR_0.000_0.000_1.000_1.000_DEFAULTLIGHTINGTYPE
 70
     1
102
VTR_0.000_0.000_1.000_1.000_BRIGHTNESS
141
0.0
102
VTR_0.000_0.000_1.000_1.000_CONTRAST
142
0.0
  0
LAYOUT
  5
1E
102
{ACAD_REACTORS
330
1A
102
}
330
1A
100
AcDbPlotSettings
  1

  2
none_device
  4

  6

 40
0.0
 41
0.0
 42
0.0
 43
0.0
 44
0.0
 45
0.0
 46
0.0
 47
0.0
 48
0.0
 49
0.0
140
0.0
141
0.0
142
1.0
143
1.0
 70
   688
 72
     1
 73
     0
 74
     5
  7

 75
    16
 76
     0
 77
     5
 78
   300
147
1.0
148
0.0
149
0.0
100
AcDbLayout
  1
Layout1
 70
     1
 71
     1
 10
0.0
 20
0.0
 11
420.0
 21
297.0
 12
0.0
 22
0.0
 32
0.0
 14
1.000000000000000E+20
 24
1.000000000000000E+20
 34
1.000000000000000E+20
 15
-1.000000000000000E+20
 25
-1.000000000000000E+20
 35
-1.000000000000000E+20
146
0.0
 13
0.0
 23
0.0
 33
0.0
 16
1.0
 26
0.0
 36
0.0
 17
0.0
 27
1.0
 37
0.0
 76
     0
330
1B
  0
LAYOUT
  5
26
102
{ACAD_REACTORS
330
1A
102
}
330
1A
100
AcDbPlotSettings
  1

  2
none_device
  4

  6

 40
0.0
 41
0.0
 42
0.0
 43
0.0
 44
0.0
 45
0.0
 46
0.0
 47
0.0
 48
0.0
 49
0.0
140
0.0
141
0.0
142
1.0
143
1.0
 70
   688
 72
     1
 73
     0
 74
     5
  7

 75
    16
 76
     0
 77
     5
 78
   300
147
1.0
148
0.0
149
0.0
100
AcDbLayout
  1
Layout2
 70
     1
 71
     2
 10
0.0
 20
0.0
 11
0.0
 21
0.0
 12
0.0
 22
0.0
 32
0.0
 14
0.0
 24
0.0
 34
0.0
 15
0.0
 25
0.0
 35
0.0
146
0.0
 13
0.0
 23
0.0
 33
0.0
 16
1.0
 26
0.0
 36
0.0
 17
0.0
 27
1.0
 37
0.0
 76
     0
330
23
  0
LAYOUT
  5
22
102
{ACAD_REACTORS
330
1A
102
}
330
1A
100
AcDbPlotSettings
  1

  2
none_device
  4
Letter_(8.50_x_11.00_Inches)
  6

 40
6.35
 41
6.35
 42
6.35000508
 43
6.35000508
 44
215.9
 45
279.4
 46
0.0
 47
0.0
 48
0.0
 49
0.0
140
0.0
141
0.0
142
1.0
143
1.0
 70
  1712
 72
     1
 73
     0
 74
     0
  7

 75
     0
 76
     0
 77
     5
 78
   300
147
1.0
148
0.0
149
0.0
100
AcDbLayout
  1
Model
 70
     1
 71
     0
 10
-630.0
 20
-445.5
 11
630.0
 21
445.5
 12
0.0
 22
0.0
 32
0.0
 14
-630.0
 24
-445.5
 34
0.0
 15
630.0
 25
445.5
 35
0.0
146
0.0
 13
0.0
 23
0.0
 33
0.0
 16
1.0
 26
0.0
 36
0.0
 17
0.0
 27
1.0
 37
0.0
 76
     0
330
1F
331
29
  0
MATERIAL
  5
45
102
{ACAD_REACTORS
330
43
102
}
102
{ACAD_XDICTIONARY
360
3B4
102
}
330
43
100
AcDbMaterial
  1
ByBlock
  0
MATERIAL
  5
44
102
{ACAD_REACTORS
330
43
102
}
102
{ACAD_XDICTIONARY
360
3B2
102
}
330
43
100
AcDbMaterial
  1
ByLayer
  0
MATERIAL
  5
46
102
{ACAD_REACTORS
330
43
102
}
102
{ACAD_XDICTIONARY
360
3B6
102
}
330
43
100
AcDbMaterial
  1
Global
  0
MLEADERSTYLE
  5
6C
102
{ACAD_REACTORS
330
6B
102
}
102
{ACAD_XDICTIONARY
360
3BC
102
}
330
6B
100
AcDbMLeaderStyle
170
     2
171
     1
172
     0
 90
        2
 40
0.0
 41
0.0
173
     1
 91
-1056964608
340
14
 92
       -2
290
     1
 42
2.0
291
     1
 43
8.0
  3
Standard
341
0
 44
4.0
300

342
11
174
     1
178
     6
175
     1
176
     0
 93
-1056964608
 45
4.0
292
     0
297
     0
 46
4.0
343
0
 94
-1056964608
 47
1.0
 49
1.0
140
1.0
293
     1
141
0.0
294
     1
177
     0
142
1.0
295
     0
296
     0
143
3.75
1001
ACAD_MLEADERVER
1070
     2
  0
MLINESTYLE
  5
18
102
{ACAD_REACTORS
330
17
102
}
330
17
100
AcDbMlineStyle
  2
Standard
 70
     0
  3

 62
   256
 51
90.0
 52
90.0
 71
     2
 49
0.5
 62
   256
  6
BYLAYER
 49
-0.5
 62
   256
  6
BYLAYER
  0
ACDBPLACEHOLDER
  5
F
102
{ACAD_REACTORS
330
E
102
}
330
E
  0
SCALE
  5
48
102
{ACAD_REACTORS
330
47
102
}
330
47
100
AcDbScale
 70
     0
300
1:1
140
1.0
141
1.0
290
     1
  0
SCALE
  5
49
102
{ACAD_REACTORS
330
47
102
}
330
47
100
AcDbScale
 70
     0
300
1:2
140
1.0
141
2.0
290
     0
  0
SCALE
  5
4A
102
{ACAD_REACTORS
330
47
102
}
330
47
100
AcDbScale
 70
     0
300
1:4
140
1.0
141
4.0
290
     0
  0
SCALE
  5
4B
102
{ACAD_REACTORS
330
47
102
}
330
47
100
AcDbScale
 70
     0
300
1:5
140
1.0
141
5.0
290
     0
  0
SCALE
  5
4C
102
{ACAD_REACTORS
330
47
102
}
330
47
100
AcDbScale
 70
     0
300
1:8
140
1.0
141
8.0
290
     0
  0
SCALE
  5
4D
102
{ACAD_REACTORS
330
47
102
}
330
47
100
AcDbScale
 70
     0
300
1:10
140
1.0
141
10.0
290
     0
  0
SCALE
  5
4E
102
{ACAD_REACTORS
330
47
102
}
330
47
100
AcDbScale
 70
     0
300
1:16
140
1.0
141
16.0
290
     0
  0
SCALE
  5
4F
102
{ACAD_REACTORS
330
47
102
}
330
47
100
AcDbScale
 70
     0
300
1:20
140
1.0
141
20.0
290
     0
  0
SCALE
  5
50
102
{ACAD_REACTORS
330
47
102
}
330
47
100
AcDbScale
 70
     0
300
1:30
140
1.0
141
30.0
290
     0
  0
SCALE
  5
51
102
{ACAD_REACTORS
330
47
102
}
330
47
100
AcDbScale
 70
     0
300
1:40
140
1.0
141
40.0
290
     0
  0
SCALE
  5
52
102
{ACAD_REACTORS
330
47
102
}
330
47
100
AcDbScale
 70
     0
300
1:50
140
1.0
141
50.0
290
     0
  0
SCALE
  5
53
102
{ACAD_REACTORS
330
47
102
}
330
47
100
AcDbScale
 70
     0
300
1:100
140
1.0
141
100.0
290
     0
  0
SCALE
  5
54
102
{ACAD_REACTORS
330
47
102
}
330
47
100
AcDbScale
 70
     0
300
2:1
140
2.0
141
1.0
290
     0
  0
SCALE
  5
55
102
{ACAD_REACTORS
330
47
102
}
330
47
100
AcDbScale
 70
     0
300
4:1
140
4.0
141
1.0
290
     0
  0
SCALE
  5
56
102
{ACAD_REACTORS
330
47
102
}
330
47
100
AcDbScale
 70
     0
300
8:1
140
8.0
141
1.0
290
     0
  0
SCALE
  5
57
102
{ACAD_REACTORS
330
47
102
}
330
47
100
AcDbScale
 70
     0
300
10:1
140
10.0
141
1.0
290
     0
  0
SCALE
  5
58
102
{ACAD_REACTORS
330
47
102
}
330
47
100
AcDbScale
 70
     0
300
100:1
140
100.0
141
1.0
290
     0
  0
SCALE
  5
59
102
{ACAD_REACTORS
330
47
102
}
330
47
100
AcDbScale
 70
     0
300
1/128" = 1'-0"
140
0.0078125
141
12.0
290
     0
  0
SCALE
  5
5A
102
{ACAD_REACTORS
330
47
102
}
330
47
100
AcDbScale
 70
     0
300
1/64" = 1'-0"
140
0.015625
141
12.0
290
     0
  0
SCALE
  5
5B
102
{ACAD_REACTORS
330
47
102
}
330
47
100
AcDbScale
 70
     0
300
1/32" = 1'-0"
140
0.03125
141
12.0
290
     0
  0
SCALE
  5
5C
102
{ACAD_REACTORS
330
47
102
}
330
47
100
AcDbScale
 70
     0
300
1/16" = 1'-0"
140
0.0625
141
12.0
290
     0
  0
SCALE
  5
5D
102
{ACAD_REACTORS
330
47
102
}
330
47
100
AcDbScale
 70
     0
300
3/32" = 1'-0"
140
0.09375
141
12.0
290
     0
  0
SCALE
  5
5E
102
{ACAD_REACTORS
330
47
102
}
330
47
100
AcDbScale
 70
     0
300
1/8" = 1'-0"
140
0.125
141
12.0
290
     0
  0
SCALE
  5
5F
102
{ACAD_REACTORS
330
47
102
}
330
47
100
AcDbScale
 70
     0
300
3/16" = 1'-0"
140
0.1875
141
12.0
290
     0
  0
SCALE
  5
60
102
{ACAD_REACTORS
330
47
102
}
330
47
100
AcDbScale
 70
     0
300
1/4" = 1'-0"
140
0.25
141
12.0
290
     0
  0
SCALE
  5
61
102
{ACAD_REACTORS
330
47
102
}
330
47
100
AcDbScale
 70
     0
300
3/8" = 1'-0"
140
0.375
141
12.0
290
     0
  0
SCALE
  5
62
102
{ACAD_REACTORS
330
47
102
}
330
47
100
AcDbScale
 70
     0
300
1/2" = 1'-0"
140
0.5
141
12.0
290
     0
  0
SCALE
  5
63
102
{ACAD_REACTORS
330
47
102
}
330
47
100
AcDbScale
 70
     0
300
3/4" = 1'-0"
140
0.75
141
12.0
290
     0
  0
SCALE
  5
64
102
{ACAD_REACTORS
330
47
102
}
330
47
100
AcDbScale
 70
     0
300
1" = 1'-0"
140
1.0
141
12.0
290
     0
  0
SCALE
  5
65
102
{ACAD_REACTORS
330
47
102
}
330
47
100
AcDbScale
 70
     0
300
1-1/2" = 1'-0"
140
1.5
141
12.0
290
     0
  0
SCALE
  5
66
102
{ACAD_REACTORS
330
47
102
}
330
47
100
AcDbScale
 70
     0
300
3" = 1'-0"
140
3.0
141
12.0
290
     0
  0
SCALE
  5
67
102
{ACAD_REACTORS
330
47
102
}
330
47
100
AcDbScale
 70
     0
300
6" = 1'-0"
140
6.0
141
12.0
290
     0
  0
SCALE
  5
68
102
{ACAD_REACTORS
330
47
102
}
330
47
100
AcDbScale
 70
     0
300
1'-0" = 1'-0"
140
12.0
141
12.0
290
     0
  0
TABLESTYLE
  5
6A
102
{ACAD_REACTORS
330
69
102
}
102
{ACAD_XDICTIONARY
360
3B8
102
}
330
69
100
AcDbTableStyle
  3
Standard
 70
     0
 71
     0
 40
0.06
 41
0.06
280
     0
281
     0
  7
Standard
140
4.5
170
     2
 62
     0
 63
   257
283
     0
274
    -2
284
     1
 64
     0
275
    -2
285
     1
 65
     0
276
    -2
286
     1
 66
     0
277
    -2
287
     1
 67
     0
278
    -2
288
     1
 68
     0
279
    -2
289
     1
 69
     0
  7
Standard
140
6.0
170
     5
 62
     0
 63
   257
283
     0
274
    -2
284
     1
 64
     0
275
    -2
285
     1
 65
     0
276
    -2
286
     1
 66
     0
277
    -2
287
     1
 67
     0
278
    -2
288
     1
 68
     0
279
    -2
289
     1
 69
     0
  7
Standard
140
4.5
170
     5
 62
     0
 63
   257
283
     0
274
    -2
284
     1
 64
     0
275
    -2
285
     1
 65
     0
276
    -2
286
     1
 66
     0
277
    -2
287
     1
 67
     0
278
    -2
288
     1
 68
     0
279
    -2
289
     1
 69
     0
  0
VISUALSTYLE
  5
2F
102
{ACAD_REACTORS
330
2A
102
}
102
{ACAD_XDICTIONARY
360
38A
102
}
330
2A
100
AcDbVisualStyle
  2
2dWireframe
 70
     4
 71
     0
 72
     2
 73
     0
 90
        0
 40
0.6
 41
30.0
 62
     5
 63
     7
421
 16777215
 74
     1
 91
        4
 64
     7
 65
   257
 75
     1
175
     1
 42
1.0
 92
        0
 66
   257
 43
1.0
 76
     1
 77
     6
 78
     2
 67
     7
 79
     5
170
     0
171
     0
290
     0
174
     0
 93
        1
 44
0.0
173
     0
291
     0
 45
0.0
1001
ACAD
1000
AcDbSavedByObjectVersion
1070
     0
  0
VISUALSTYLE
  5
32
102
{ACAD_REACTORS
330
2A
102
}
102
{ACAD_XDICTIONARY
360
390
102
}
330
2A
100
AcDbVisualStyle
  2
Basic
 70
     7
 71
     1
 72
     0
 73
     1
 90
        0
 40
0.6
 41
30.0
 62
     5
 63
     7
421
 16777215
 74
     0
 91
        4
 64
     7
 65
   257
 75
     1
175
     1
 42
1.0
 92
        8
 66
     7
 43
1.0
 76
     1
 77
     6
 78
     2
 67
     7
 79
     5
170
     0
171
     0
290
     0
174
     0
 93
        1
 44
0.0
173
     0
291
     1
 45
0.0
1001
ACAD
1000
AcDbSavedByObjectVersion
1070
     0
  0
VISUALSTYLE
  5
36
102
{ACAD_REACTORS
330
2A
102
}
102
{ACAD_XDICTIONARY
360
398
102
}
330
2A
100
AcDbVisualStyle
  2
Brighten
 70
    12
 71
     2
 72
     2
 73
     0
 90
        0
 40
0.6
 41
30.0
 62
     5
 63
     7
421
 16777215
 74
     1
 91
        4
 64
     7
 65
   257
 75
     1
175
     1
 42
1.0
 92
        8
 66
     7
 43
1.0
 76
     1
 77
     6
 78
     2
 67
     7
 79
     5
170
     0
171
     0
290
     0
174
     0
 93
        1
 44
50.0
173
     0
291
     1
 45
0.0
1001
ACAD
1000
AcDbSavedByObjectVersion
1070
     0
  0
VISUALSTYLE
  5
3A
102
{ACAD_REACTORS
330
2A
102
}
102
{ACAD_XDICTIONARY
360
3A0
102
}
330
2A
100
AcDbVisualStyle
  2
ColorChange
 70
    16
 71
     2
 72
     2
 73
     3
 90
        0
 40
0.6
 41
30.0
 62
     5
 63
     8
421
  8421504
 74
     1
 91
        4
 64
     7
 65
   257
 75
     1
175
     1
 42
1.0
 92
        8
 66
     8
424
  8421504
 43
1.0
 76
     1
 77
     6
 78
     2
 67
     7
 79
     5
170
     0
171
     0
290
     0
174
     0
 93
        1
 44
0.0
173
     0
291
     1
 45
0.0
1001
ACAD
1000
AcDbSavedByObjectVersion
1070
     0
  0
VISUALSTYLE
  5
34
102
{ACAD_REACTORS
330
2A
102
}
102
{ACAD_XDICTIONARY
360
394
102
}
330
2A
100
AcDbVisualStyle
  2
Conceptual
 70
     9
 71
     3
 72
     2
 73
     0
 90
        0
 40
0.6
 41
30.0
 62
     5
 63
     7
421
 16777215
 74
     2
 91
        2
 64
     7
 65
   257
 75
     1
175
     1
 42
179.0
 92
        8
 66
     7
 43
1.0
 76
     1
 77
     6
 78
     2
 67
     7
 79
     3
170
     0
171
     0
290
     0
174
     0
 93
        1
 44
0.0
173
     0
291
     0
 45
0.0
1001
ACAD
1000
AcDbSavedByObjectVersion
1070
     0
  0
VISUALSTYLE
  5
35
102
{ACAD_REACTORS
330
2A
102
}
102
{ACAD_XDICTIONARY
360
396
102
}
330
2A
100
AcDbVisualStyle
  2
Dim
 70
    11
 71
     2
 72
     2
 73
     0
 90
        0
 40
0.6
 41
30.0
 62
     5
 63
     7
421
 16777215
 74
     1
 91
        4
 64
     7
 65
   257
 75
     1
175
     1
 42
1.0
 92
        8
 66
     7
 43
1.0
 76
     1
 77
     6
 78
     2
 67
     7
 79
     5
170
     0
171
     0
290
     0
174
     0
 93
        1
 44
-50.0
173
     0
291
     1
 45
0.0
1001
ACAD
1000
AcDbSavedByObjectVersion
1070
     0
  0
VISUALSTYLE
  5
3D
102
{ACAD_REACTORS
330
2A
102
}
102
{ACAD_XDICTIONARY
360
3A6
102
}
330
2A
100
AcDbVisualStyle
  2
EdgeColorOff
 70
    22
 71
     2
 72
     2
 73
     0
 90
        0
 40
0.6
 41
30.0
 62
     5
 63
     7
421
 16777215
 74
     1
 91
        4
 64
     7
 65
   257
 75
     1
175
     1
 42
1.0
 92
        8
 66
     7
 43
1.0
 76
     1
 77
     6
 78
     2
 67
     7
 79
     5
170
     0
171
     0
290
     0
174
     0
 93
        1
 44
0.0
173
     0
291
     1
 45
0.0
1001
ACAD
1000
AcDbSavedByObjectVersion
1070
     0
  0
VISUALSTYLE
  5
39
102
{ACAD_REACTORS
330
2A
102
}
102
{ACAD_XDICTIONARY
360
39E
102
}
330
2A
100
AcDbVisualStyle
  2
Facepattern
 70
    15
 71
     2
 72
     2
 73
     0
 90
        0
 40
0.6
 41
30.0
 62
     5
 63
     7
421
 16777215
 74
     1
 91
        4
 64
     7
 65
   257
 75
     1
175
     1
 42
1.0
 92
        8
 66
     7
 43
1.0
 76
     1
 77
     6
 78
     2
 67
     7
 79
     5
170
     0
171
     0
290
     0
174
     0
 93
        1
 44
0.0
173
     0
291
     1
 45
0.0
1001
ACAD
1000
AcDbSavedByObjectVersion
1070
     0
  0
VISUALSTYLE
  5
2B
102
{ACAD_REACTORS
330
2A
102
}
102
{ACAD_XDICTIONARY
360
382
102
}
330
2A
100
AcDbVisualStyle
  2
Flat
 70
     0
 71
     2
 72
     1
 73
     1
 90
        2
 40
0.6
 41
30.0
 62
     5
 63
     7
421
 16777215
 74
     0
 91
        0
 64
     7
 65
   257
 75
     1
175
     1
 42
1.0
 92
        8
 66
     7
 43
1.0
 76
     1
 77
     6
 78
     2
 67
     7
 79
     5
170
     0
171
     0
290
     0
174
     0
 93
       13
 44
0.0
173
     0
291
     1
 45
0.0
1001
ACAD
1000
AcDbSavedByObjectVersion
1070
     0
  0
VISUALSTYLE
  5
2C
102
{ACAD_REACTORS
330
2A
102
}
102
{ACAD_XDICTIONARY
360
384
102
}
330
2A
100
AcDbVisualStyle
  2
FlatWithEdges
 70
     1
 71
     2
 72
     1
 73
     1
 90
        2
 40
0.6
 41
30.0
 62
     5
 63
     7
421
 16777215
 74
     1
 91
        0
 64
     7
 65
   257
 75
     1
175
     1
 42
1.0
 92
        0
 66
   257
 43
1.0
 76
     1
 77
     6
 78
     2
 67
     7
 79
     5
170
     0
171
     0
290
     0
174
     0
 93
       13
 44
0.0
173
     0
291
     1
 45
0.0
1001
ACAD
1000
AcDbSavedByObjectVersion
1070
     0
  0
VISUALSTYLE
  5
2D
102
{ACAD_REACTORS
330
2A
102
}
102
{ACAD_XDICTIONARY
360
386
102
}
330
2A
100
AcDbVisualStyle
  2
Gouraud
 70
     2
 71
     2
 72
     2
 73
     1
 90
        2
 40
0.6
 41
30.0
 62
     5
 63
     7
421
 16777215
 74
     0
 91
        0
 64
     7
 65
   257
 75
     1
175
     1
 42
1.0
 92
        0
 66
     7
 43
1.0
 76
     1
 77
     6
 78
     2
 67
     7
 79
     5
170
     0
171
     0
290
     0
174
     0
 93
       13
 44
0.0
173
     0
291
     1
 45
0.0
1001
ACAD
1000
AcDbSavedByObjectVersion
1070
     0
  0
VISUALSTYLE
  5
2E
102
{ACAD_REACTORS
330
2A
102
}
102
{ACAD_XDICTIONARY
360
388
102
}
330
2A
100
AcDbVisualStyle
  2
GouraudWithEdges
 70
     3
 71
     2
 72
     2
 73
     1
 90
        2
 40
0.6
 41
30.0
 62
     5
 63
     7
421
 16777215
 74
     1
 91
        0
 64
     7
 65
   257
 75
     1
175
     1
 42
1.0
 92
        0
 66
   257
 43
1.0
 76
     1
 77
     6
 78
     2
 67
     7
 79
     5
170
     0
171
     0
290
     0
174
     0
 93
       13
 44
0.0
173
     0
291
     1
 45
0.0
1001
ACAD
1000
AcDbSavedByObjectVersion
1070
     0
  0
VISUALSTYLE
  5
31
102
{ACAD_REACTORS
330
2A
102
}
102
{ACAD_XDICTIONARY
360
38E
102
}
330
2A
100
AcDbVisualStyle
  2
Hidden
 70
     6
 71
     1
 72
     2
 73
     2
 90
        0
 40
0.6
 41
30.0
 62
     5
 63
     7
421
 16777215
 74
     2
 91
        2
 64
     7
 65
   257
 75
     2
175
     1
 42
40.0
 92
        0
 66
   257
 43
1.0
 76
     1
 77
     6
 78
     2
 67
     7
 79
     3
170
     0
171
     0
290
     0
174
     0
 93
        1
 44
0.0
173
     0
291
     0
 45
0.0
1001
ACAD
1000
AcDbSavedByObjectVersion
1070
     0
  0
VISUALSTYLE
  5
3B
102
{ACAD_REACTORS
330
2A
102
}
102
{ACAD_XDICTIONARY
360
3A2
102
}
330
2A
100
AcDbVisualStyle
  2
JitterOff
 70
    20
 71
     2
 72
     2
 73
     0
 90
        0
 40
0.6
 41
30.0
 62
     5
 63
     7
421
 16777215
 74
     1
 91
        4
 64
     7
 65
   257
 75
     1
175
     1
 42
1.0
 92
       10
 66
     7
 43
1.0
 76
     1
 77
     6
 78
     2
 67
     7
 79
     5
170
     0
171
     0
290
     0
174
     0
 93
        1
 44
0.0
173
     0
291
     1
 45
0.0
1001
ACAD
1000
AcDbSavedByObjectVersion
1070
     0
  0
VISUALSTYLE
  5
38
102
{ACAD_REACTORS
330
2A
102
}
102
{ACAD_XDICTIONARY
360
39C
102
}
330
2A
100
AcDbVisualStyle
  2
Linepattern
 70
    14
 71
     2
 72
     2
 73
     0
 90
        0
 40
0.6
 41
30.0
 62
     5
 63
     7
421
 16777215
 74
     1
 91
        4
 64
     7
 65
   257
 75
     7
175
     7
 42
1.0
 92
        8
 66
     7
 43
1.0
 76
     1
 77
     6
 78
     2
 67
     7
 79
     5
170
     0
171
     0
290
     0
174
     0
 93
        1
 44
0.0
173
     0
291
     1
 45
0.0
1001
ACAD
1000
AcDbSavedByObjectVersion
1070
     0
  0
VISUALSTYLE
  5
3C
102
{ACAD_REACTORS
330
2A
102
}
102
{ACAD_XDICTIONARY
360
3A4
102
}
330
2A
100
AcDbVisualStyle
  2
OverhangOff
 70
    21
 71
     2
 72
     2
 73
     0
 90
        0
 40
0.6
 41
30.0
 62
     5
 63
     7
421
 16777215
 74
     1
 91
        4
 64
     7
 65
   257
 75
     1
175
     1
 42
1.0
 92
        9
 66
     7
 43
1.0
 76
     1
 77
     6
 78
     2
 67
     7
 79
     5
170
     0
171
     0
290
     0
174
     0
 93
        1
 44
0.0
173
     0
291
     1
 45
0.0
1001
ACAD
1000
AcDbSavedByObjectVersion
1070
     0
  0
VISUALSTYLE
  5
33
102
{ACAD_REACTORS
330
2A
102
}
102
{ACAD_XDICTIONARY
360
392
102
}
330
2A
100
AcDbVisualStyle
  2
Realistic
 70
     8
 71
     2
 72
     3
 73
     0
 90
        2
 40
0.6
 41
30.0
 62
     5
 63
     7
421
 16777215
 74
     0
 91
        0
 64
     7
 65
   257
 75
     1
175
     1
 42
1.0
 92
        8
 66
   257
 43
1.0
 76
     1
 77
     6
 78
     2
 67
     7
 79
     3
170
     0
171
     0
290
     0
174
     0
 93
       13
 44
0.0
173
     0
291
     0
 45
0.0
1001
ACAD
1000
AcDbSavedByObjectVersion
1070
     0
  0
VISUALSTYLE
  5
42
102
{ACAD_REACTORS
330
2A
102
}
102
{ACAD_XDICTIONARY
360
3B0
102
}
330
2A
100
AcDbVisualStyle
  2
Shaded
 70
    27
 71
     2
 72
     2
 73
     1
 90
        2
 40
0.6
 41
30.0
 62
     5
 63
     7
421
 16777215
 74
     0
 91
        4
 64
     7
 65
   257
 75
     1
175
     1
 42
1.0
 92
        8
 66
   257
 43
1.0
 76
     1
 77
     6
 78
     2
 67
     8
425
  7895160
 79
     3
170
     0
171
     0
290
     0
174
     0
 93
        5
 44
0.0
173
     0
291
     0
 45
0.0
1001
ACAD
1000
AcDbSavedByObjectVersion
1070
     0
  0
VISUALSTYLE
  5
41
102
{ACAD_REACTORS
330
2A
102
}
102
{ACAD_XDICTIONARY
360
3AE
102
}
330
2A
100
AcDbVisualStyle
  2
Shaded with edges
 70
    26
 71
     2
 72
     2
 73
     1
 90
        2
 40
0.6
 41
30.0
 62
     5
 63
     7
421
 16777215
 74
     1
 91
       10
 64
     7
 65
   257
 75
     2
175
     1
 42
1.0
 92
        8
 66
   257
 43
1.0
 76
     1
 77
     6
 78
     2
 67
     7
 79
     3
170
     0
171
     0
290
     0
174
     0
 93
        5
 44
0.0
173
     0
291
     0
 45
0.0
1001
ACAD
1000
AcDbSavedByObjectVersion
1070
     0
  0
VISUALSTYLE
  5
3E
102
{ACAD_REACTORS
330
2A
102
}
102
{ACAD_XDICTIONARY
360
3A8
102
}
330
2A
100
AcDbVisualStyle
  2
Shades of Gray
 70
    23
 71
     2
 72
     2
 73
     3
 90
        0
 40
0.6
 41
30.0
 62
     5
 63
     7
421
 16777215
 74
     2
 91
        2
 64
     7
 65
     7
 75
     1
175
     1
 42
40.0
 92
        8
 66
     7
 43
1.0
 76
     1
 77
     6
 78
     2
 67
     7
 79
     3
170
     0
171
     0
290
     0
174
     0
 93
        1
 44
0.0
173
     0
291
     0
 45
0.0
1001
ACAD
1000
AcDbSavedByObjectVersion
1070
     0
  0
VISUALSTYLE
  5
3F
102
{ACAD_REACTORS
330
2A
102
}
102
{ACAD_XDICTIONARY
360
3AA
102
}
330
2A
100
AcDbVisualStyle
  2
Sketchy
 70
    24
 71
     1
 72
     2
 73
     2
 90
        0
 40
0.6
 41
30.0
 62
     5
 63
     7
421
 16777215
 74
     2
 91
        2
 64
     7
 65
     7
 75
     1
175
     1
 42
40.0
 92
       11
 66
     7
 43
1.0
 76
     1
 77
     6
 78
     2
 67
     7
 79
     6
170
     0
171
     0
290
     0
174
     0
 93
        1
 44
0.0
173
     0
291
     0
 45
0.0
1001
ACAD
1000
AcDbSavedByObjectVersion
1070
     0
  0
VISUALSTYLE
  5
37
102
{ACAD_REACTORS
330
2A
102
}
102
{ACAD_XDICTIONARY
360
39A
102
}
330
2A
100
AcDbVisualStyle
  2
Thicken
 70
    13
 71
     2
 72
     2
 73
     0
 90
        0
 40
0.6
 41
30.0
 62
     5
 63
     7
421
 16777215
 74
     1
 91
        4
 64
     7
 65
   257
 75
     1
175
     1
 42
1.0
 92
       12
 66
     7
 43
1.0
 76
     1
 77
     6
 78
     2
 67
     7
 79
     5
170
     0
171
     0
290
     0
174
     0
 93
        1
 44
0.0
173
     0
291
     1
 45
0.0
1001
ACAD
1000
AcDbSavedByObjectVersion
1070
     0
  0
VISUALSTYLE
  5
30
102
{ACAD_REACTORS
330
2A
102
}
102
{ACAD_XDICTIONARY
360
38C
102
}
330
2A
100
AcDbVisualStyle
  2
Wireframe
 70
     5
 71
     0
 72
     2
 73
     0
 90
        0
 40
0.6
 41
30.0
 62
     5
 63
     7
421
 16777215
 74
     1
 91
        4
 64
     7
 65
   257
 75
     1
175
     1
 42
1.0
 92
        0
 66
   257
 43
1.0
 76
     1
 77
     6
 78
     2
 67
     7
 79
     3
170
     0
171
     0
290
     0
174
     0
 93
        1
 44
0.0
173
     0
291
     0
 45
0.0
1001
ACAD
1000
AcDbSavedByObjectVersion
1070
     0
  0
VISUALSTYLE
  5
40
102
{ACAD_REACTORS
330
2A
102
}
102
{ACAD_XDICTIONARY
360
3AC
102
}
330
2A
100
AcDbVisualStyle
  2
X-Ray
 70
    25
 71
     2
 72
     2
 73
     1
 90
        1
 40
0.5
 41
30.0
 62
     5
 63
     7
421
 16777215
 74
     1
 91
        0
 64
     7
 65
   257
 75
     1
175
     1
 42
1.0
 92
        8
 66
     7
 43
1.0
 76
     1
 77
     6
 78
     2
 67
     7
 79
     3
170
     0
171
     0
290
     0
174
     0
 93
       13
 44
0.0
173
     0
291
     0
 45
0.0
1001
ACAD
1000
AcDbSavedByObjectVersion
1070
     0
  0
DICTIONARYVAR
  5
37F
102
{ACAD_REACTORS
330
37E
102
}
330
37E
100
DictionaryVariables
280
     0
  1
1:1
  0
DICTIONARYVAR
  5
3C3
102
{ACAD_REACTORS
330
37E
102
}
330
37E
100
DictionaryVariables
280
     0
  1
3.500000
  0
DICTIONARYVAR
  5
3C4
102
{ACAD_REACTORS
330
37E
102
}
330
37E
100
DictionaryVariables
280
     0
  1
acadiso.lin
  0
DICTIONARYVAR
  5
3C0
102
{ACAD_REACTORS
330
37E
102
}
330
37E
100
DictionaryVariables
280
     0
  1
Standard
  0
DICTIONARYVAR
  5
3BF
102
{ACAD_REACTORS
330
37E
102
}
330
37E
100
DictionaryVariables
280
     0
  1
Standard
  0
DICTIONARYVAR
  5
380
102
{ACAD_REACTORS
330
37E
102
}
330
37E
100
DictionaryVariables
280
     0
  1
1
  0
DICTIONARYVAR
  5
381
102
{ACAD_REACTORS
330
37E
102
}
330
37E
100
DictionaryVariables
280
     0
  1
2
  0
DICTIONARY
  5
3B4
330
45
100
AcDbDictionary
280
     1
281
     1
  3
ACAD_XREC_ROUNDTRIP
360
3B5
  0
DICTIONARY
  5
3B2
330
44
100
AcDbDictionary
280
     1
281
     1
  3
ACAD_XREC_ROUNDTRIP
360
3B3
  0
DICTIONARY
  5
3B6
330
46
100
AcDbDictionary
280
     1
281
     1
  3
ACAD_XREC_ROUNDTRIP
360
3B7
  0
DICTIONARY
  5
3BC
330
6C
100
AcDbDictionary
280
     1
281
     1
  3
ACAD_XREC_ROUNDTRIP
360
3BD
  0
DICTIONARY
  5
3B8
330
6A
100
AcDbDictionary
280
     1
281
     1
  3
ACAD_ROUNDTRIP_2008_TABLESTYLE_CELLSTYLEMAP
360
3BA
  3
ACAD_XREC_ROUNDTRIP
360
3B9
  0
DICTIONARY
  5
38A
330
2F
100
AcDbDictionary
280
     1
281
     1
  3
ACAD_XREC_ROUNDTRIP
360
38B
  0
DICTIONARY
  5
390
330
32
100
AcDbDictionary
280
     1
281
     1
  3
ACAD_XREC_ROUNDTRIP
360
391
  0
DICTIONARY
  5
398
330
36
100
AcDbDictionary
280
     1
281
     1
  3
ACAD_XREC_ROUNDTRIP
360
399
  0
DICTIONARY
  5
3A0
330
3A
100
AcDbDictionary
280
     1
281
     1
  3
ACAD_XREC_ROUNDTRIP
360
3A1
  0
DICTIONARY
  5
394
330
34
100
AcDbDictionary
280
     1
281
     1
  3
ACAD_XREC_ROUNDTRIP
360
395
  0
DICTIONARY
  5
396
330
35
100
AcDbDictionary
280
     1
281
     1
  3
ACAD_XREC_ROUNDTRIP
360
397
  0
DICTIONARY
  5
3A6
330
3D
100
AcDbDictionary
280
     1
281
     1
  3
ACAD_XREC_ROUNDTRIP
360
3A7
  0
DICTIONARY
  5
39E
330
39
100
AcDbDictionary
280
     1
281
     1
  3
ACAD_XREC_ROUNDTRIP
360
39F
  0
DICTIONARY
  5
382
330
2B
100
AcDbDictionary
280
     1
281
     1
  3
ACAD_XREC_ROUNDTRIP
360
383
  0
DICTIONARY
  5
384
330
2C
100
AcDbDictionary
280
     1
281
     1
  3
ACAD_XREC_ROUNDTRIP
360
385
  0
DICTIONARY
  5
386
330
2D
100
AcDbDictionary
280
     1
281
     1
  3
ACAD_XREC_ROUNDTRIP
360
387
  0
DICTIONARY
  5
388
330
2E
100
AcDbDictionary
280
     1
281
     1
  3
ACAD_XREC_ROUNDTRIP
360
389
  0
DICTIONARY
  5
38E
330
31
100
AcDbDictionary
280
     1
281
     1
  3
ACAD_XREC_ROUNDTRIP
360
38F
  0
DICTIONARY
  5
3A2
330
3B
100
AcDbDictionary
280
     1
281
     1
  3
ACAD_XREC_ROUNDTRIP
360
3A3
  0
DICTIONARY
  5
39C
330
38
100
AcDbDictionary
280
     1
281
     1
  3
ACAD_XREC_ROUNDTRIP
360
39D
  0
DICTIONARY
  5
3A4
330
3C
100
AcDbDictionary
280
     1
281
     1
  3
ACAD_XREC_ROUNDTRIP
360
3A5
  0
DICTIONARY
  5
392
330
33
100
AcDbDictionary
280
     1
281
     1
  3
ACAD_XREC_ROUNDTRIP
360
393
  0
DICTIONARY
  5
3B0
330
42
100
AcDbDictionary
280
     1
281
     1
  3
ACAD_XREC_ROUNDTRIP
360
3B1
  0
DICTIONARY
  5
3AE
330
41
100
AcDbDictionary
280
     1
281
     1
  3
ACAD_XREC_ROUNDTRIP
360
3AF
  0
DICTIONARY
  5
3A8
330
3E
100
AcDbDictionary
280
     1
281
     1
  3
ACAD_XREC_ROUNDTRIP
360
3A9
  0
DICTIONARY
  5
3AA
330
3F
100
AcDbDictionary
280
     1
281
     1
  3
ACAD_XREC_ROUNDTRIP
360
3AB
  0
DICTIONARY
  5
39A
330
37
100
AcDbDictionary
280
     1
281
     1
  3
ACAD_XREC_ROUNDTRIP
360
39B
  0
DICTIONARY
  5
38C
330
30
100
AcDbDictionary
280
     1
281
     1
  3
ACAD_XREC_ROUNDTRIP
360
38D
  0
DICTIONARY
  5
3AC
330
40
100
AcDbDictionary
280
     1
281
     1
  3
ACAD_XREC_ROUNDTRIP
360
3AD
  0
XRECORD
  5
3B5
102
{ACAD_REACTORS
330
3B4
102
}
330
3B4
100
AcDbXrecord
280
     1
102
MATERIAL
148
0.0
149
0.0
149
0.0
 93
        0
 94
      127
282
     0
 72
     1
 77
     1
171
     1
175
     1
179
     1
273
     0
  0
XRECORD
  5
3B3
102
{ACAD_REACTORS
330
3B2
102
}
330
3B2
100
AcDbXrecord
280
     1
102
MATERIAL
148
0.0
149
0.0
149
0.0
 93
        0
 94
      127
282
     0
 72
     1
 77
     1
171
     1
175
     1
179
     1
273
     0
  0
XRECORD
  5
3B7
102
{ACAD_REACTORS
330
3B6
102
}
330
3B6
100
AcDbXrecord
280
     1
102
MATERIAL
148
0.0
149
0.0
149
0.0
 93
        0
 94
      127
282
     0
 72
     1
 77
     1
171
     1
175
     1
179
     1
273
     0
  0
XRECORD
  5
3BD
102
{ACAD_REACTORS
330
3BC
102
}
330
3BC
100
AcDbXrecord
280
     1
102
ACAD_ROUNDTRIP_2010_MLEADER_STYLE
  0
CELLSTYLEMAP
  5
3BA
102
{ACAD_REACTORS
330
3B8
102
}
330
3B8
100
AcDbCellStyleMap
 90
        3
300
CELLSTYLE
  1
TABLEFORMAT_BEGIN
 90
        5
170
     1
 91
        0
 92
    32768
 62
   257
 93
        1
300
CONTENTFORMAT
  1
CONTENTFORMAT_BEGIN
 90
        0
 91
        0
 92
        4
 93
        0
300

 40
0.0
140
1.0
 94
        5
 62
     0
340
11
144
6.0
309
CONTENTFORMAT_END
171
     1
301
MARGIN
  1
CELLMARGIN_BEGIN
 40
1.5
 40
1.5
 40
1.5
 40
1.5
 40
1.5
 40
1.5
309
CELLMARGIN_END
 94
        6
 95
        1
302
GRIDFORMAT
  1
GRIDFORMAT_BEGIN
 90
        0
 91
        1
 62
     0
 92
       -2
340
14
 93
        0
 40
0.045
309
GRIDFORMAT_END
 95
        2
302
GRIDFORMAT
  1
GRIDFORMAT_BEGIN
 90
        0
 91
        1
 62
     0
 92
       -2
340
14
 93
        0
 40
0.045
309
GRIDFORMAT_END
 95
        4
302
GRIDFORMAT
  1
GRIDFORMAT_BEGIN
 90
        0
 91
        1
 62
     0
 92
       -2
340
14
 93
        0
 40
0.045
309
GRIDFORMAT_END
 95
        8
302
GRIDFORMAT
  1
GRIDFORMAT_BEGIN
 90
        0
 91
        1
 62
     0
 92
       -2
340
14
 93
        0
 40
0.045
309
GRIDFORMAT_END
 95
       16
302
GRIDFORMAT
  1
GRIDFORMAT_BEGIN
 90
        0
 91
        1
 62
     0
 92
       -2
340
14
 93
        0
 40
0.045
309
GRIDFORMAT_END
 95
       32
302
GRIDFORMAT
  1
GRIDFORMAT_BEGIN
 90
        0
 91
        1
 62
     0
 92
       -2
340
14
 93
        0
 40
0.045
309
GRIDFORMAT_END
309
TABLEFORMAT_END
  1
CELLSTYLE_BEGIN
 90
        1
 91
        1
300
_TITLE
309
CELLSTYLE_END
300
CELLSTYLE
  1
TABLEFORMAT_BEGIN
 90
        5
170
     1
 91
        0
 92
        0
 62
   257
 93
        1
300
CONTENTFORMAT
  1
CONTENTFORMAT_BEGIN
 90
        0
 91
        0
 92
        4
 93
        0
300

 40
0.0
140
1.0
 94
        5
 62
     0
340
11
144
4.5
309
CONTENTFORMAT_END
171
     1
301
MARGIN
  1
CELLMARGIN_BEGIN
 40
1.5
 40
1.5
 40
1.5
 40
1.5
 40
1.5
 40
1.5
309
CELLMARGIN_END
 94
        6
 95
        1
302
GRIDFORMAT
  1
GRIDFORMAT_BEGIN
 90
        0
 91
        1
 62
     0
 92
       -2
340
14
 93
        0
 40
0.045
309
GRIDFORMAT_END
 95
        2
302
GRIDFORMAT
  1
GRIDFORMAT_BEGIN
 90
        0
 91
        1
 62
     0
 92
       -2
340
14
 93
        0
 40
0.045
309
GRIDFORMAT_END
 95
        4
302
GRIDFORMAT
  1
GRIDFORMAT_BEGIN
 90
        0
 91
        1
 62
     0
 92
       -2
340
14
 93
        0
 40
0.045
309
GRIDFORMAT_END
 95
        8
302
GRIDFORMAT
  1
GRIDFORMAT_BEGIN
 90
        0
 91
        1
 62
     0
 92
       -2
340
14
 93
        0
 40
0.045
309
GRIDFORMAT_END
 95
       16
302
GRIDFORMAT
  1
GRIDFORMAT_BEGIN
 90
        0
 91
        1
 62
     0
 92
       -2
340
14
 93
        0
 40
0.045
309
GRIDFORMAT_END
 95
       32
302
GRIDFORMAT
  1
GRIDFORMAT_BEGIN
 90
        0
 91
        1
 62
     0
 92
       -2
340
14
 93
        0
 40
0.045
309
GRIDFORMAT_END
309
TABLEFORMAT_END
  1
CELLSTYLE_BEGIN
 90
        2
 91
        1
300
_HEADER
309
CELLSTYLE_END
300
CELLSTYLE
  1
TABLEFORMAT_BEGIN
 90
        5
170
     1
 91
        0
 92
        0
 62
   257
 93
        1
300
CONTENTFORMAT
  1
CONTENTFORMAT_BEGIN
 90
        0
 91
        0
 92
        4
 93
        0
300

 40
0.0
140
1.0
 94
        2
 62
     0
340
11
144
4.5
309
CONTENTFORMAT_END
171
     1
301
MARGIN
  1
CELLMARGIN_BEGIN
 40
1.5
 40
1.5
 40
1.5
 40
1.5
 40
1.5
 40
1.5
309
CELLMARGIN_END
 94
        6
 95
        1
302
GRIDFORMAT
  1
GRIDFORMAT_BEGIN
 90
        0
 91
        1
 62
     0
 92
       -2
340
14
 93
        0
 40
0.045
309
GRIDFORMAT_END
 95
        2
302
GRIDFORMAT
  1
GRIDFORMAT_BEGIN
 90
        0
 91
        1
 62
     0
 92
       -2
340
14
 93
        0
 40
0.045
309
GRIDFORMAT_END
 95
        4
302
GRIDFORMAT
  1
GRIDFORMAT_BEGIN
 90
        0
 91
        1
 62
     0
 92
       -2
340
14
 93
        0
 40
0.045
309
GRIDFORMAT_END
 95
        8
302
GRIDFORMAT
  1
GRIDFORMAT_BEGIN
 90
        0
 91
        1
 62
     0
 92
       -2
340
14
 93
        0
 40
0.045
309
GRIDFORMAT_END
 95
       16
302
GRIDFORMAT
  1
GRIDFORMAT_BEGIN
 90
        0
 91
        1
 62
     0
 92
       -2
340
14
 93
        0
 40
0.045
309
GRIDFORMAT_END
 95
       32
302
GRIDFORMAT
  1
GRIDFORMAT_BEGIN
 90
        0
 91
        1
 62
     0
 92
       -2
340
14
 93
        0
 40
0.045
309
GRIDFORMAT_END
309
TABLEFORMAT_END
  1
CELLSTYLE_BEGIN
 90
        3
 91
        2
300
_DATA
309
CELLSTYLE_END
  0
XRECORD
  5
3B9
102
{ACAD_REACTORS
330
3B8
102
}
330
3B8
100
AcDbXrecord
280
     1
102
ACAD_ROUNDTRIP_PRE2007_TABLESTYLE
 90
        4
 91
        0
  1

 92
        4
 93
        0
  2

 94
        4
 95
        0
  3

  0
XRECORD
  5
38B
102
{ACAD_REACTORS
330
38A
102
}
330
38A
100
AcDbXrecord
280
     1
102
RTVSPropertyOp0
 70
     1
102
RTVSPropertyOp1
 70
     1
102
RTVSPropertyOp2
 70
     1
102
RTVSPropertyOp3
 70
     1
102
RTVSPropertyOp4
 70
     1
102
RTVSPropertyOp5
 70
     1
102
RTVSPropertyOp6
 70
     1
102
RTVSPropertyOp7
 70
     1
102
RTVSPropertyOp8
 70
     1
102
RTVSPropertyOp9
 70
     1
102
RTVSPropertyOp10
 70
     1
102
RTVSPropertyOp11
 70
     1
102
RTVSPropertyOp12
 70
     1
102
RTVSPropertyOp13
 70
     1
102
RTVSPropertyOp14
 70
     1
102
RTVSPropertyOp15
 70
     1
102
RTVSPropertyOp16
 70
     1
102
RTVSPropertyOp17
 70
     1
102
RTVSPropertyOp18
 70
     1
102
RTVSPropertyOp19
 70
     1
102
RTVSPropertyOp20
 70
     1
102
RTVSPropertyOp21
 70
     1
102
RTVSPropertyOp22
 70
     1
102
RTVSPropertyOp23
 70
     1
102
RTVSPropertyOp24
 70
     1
102
RTVSPropertyOp25
 70
     1
102
RTVSPropertyOp26
 70
     1
102
RTVSPropertyOp27
 70
     1
102
RTVSPropertyOp28
 70
     1
102
RTVSPropertyOp29
 70
     1
102
RTVSPropertyOp30
 70
     1
102
RTVSPropertyOp31
 70
     1
102
RTVSPropertyOp32
 70
     1
102
RTVSPropertyOp33
 70
     1
102
RTVSPropertyOp34
 70
     1
102
RTVSPropertyOp35
 70
     1
102
RTVSPropertyOp36
 70
     1
102
RTVSPropertyOp37
 70
     1
102
RTVSPropertyOp38
 70
     1
102
RTVSPropertyOp39
 70
     1
102
RTVSPropertyOp40
 70
     1
102
RTVSPropertyOp41
 70
     1
102
RTVSPropertyOp42
 70
     1
102
RTVSPropertyOp43
 70
     1
102
RTVSPropertyOp44
 70
     1
102
RTVSPropertyOp45
 70
     1
102
RTVSPropertyOp46
 70
     1
102
RTVSPropertyOp47
 70
     1
102
RTVSPropertyOp48
 70
     1
102
RTVSPropertyOp49
 70
     1
102
RTVSPropertyOp50
 70
     1
102
RTVSPropertyOp51
 70
     0
102
RTVSPropertyOp52
 70
     0
102
RTVSPropertyOp53
 70
     1
102
RTVSPropertyOp54
 70
     1
102
RTVSPropertyOp55
 70
     1
102
RTVSPropertyOp56
 70
     1
102
RTVSPropertyOp57
 70
     1
102
RTVSPost2010Prop28
280
     1
102
RTVSPost2010PropOp28
 70
     1
102
RTVSPost2010Prop29
280
     1
102
RTVSPost2010PropOp29
 70
     1
102
RTVSPost2010Prop30
280
     0
102
RTVSPost2010PropOp30
 70
     1
102
RTVSPost2010Prop31
280
     0
102
RTVSPost2010PropOp31
 70
     1
102
RTVSPost2010Prop32
280
     0
102
RTVSPost2010PropOp32
 70
     1
102
RTVSPost2010Prop33
280
     0
102
RTVSPost2010PropOp33
 70
     1
102
RTVSPost2010Prop34
280
     0
102
RTVSPost2010PropOp34
 70
     1
102
RTVSPost2010Prop35
280
     0
102
RTVSPost2010PropOp35
 70
     1
102
RTVSPost2010Prop36
280
     0
102
RTVSPost2010PropOp36
 70
     1
102
RTVSPost2010Prop37
 90
       50
102
RTVSPost2010PropOp37
 70
     1
102
RTVSPost2010Prop38
140
0.0
102
RTVSPost2010PropOp38
 70
     1
102
RTVSPost2010Prop39
140
1.0
102
RTVSPost2010PropOp39
 70
     1
102
RTVSPost2010Prop40
 90
        0
102
RTVSPost2010PropOp40
 70
     1
102
RTVSPost2010Prop41ColorIndex
 90
       18
102
RTVSPost2010Prop41ColorRGB
 90
        0
102
RTVSPost2010PropOp41
 70
     1
102
RTVSPost2010Prop42
 90
       50
102
RTVSPost2010PropOp42
 70
     1
102
RTVSPost2010Prop43
 90
        3
102
RTVSPost2010PropOp43
 70
     1
102
RTVSPost2010Prop44ColorIndex
 90
        5
102
RTVSPost2010Prop44ColorRGB
 90
      255
102
RTVSPost2010PropOp44
 70
     1
102
RTVSPost2010Prop45
280
     0
102
RTVSPost2010PropOp45
 70
     1
102
RTVSPost2010Prop46
 90
       50
102
RTVSPost2010PropOp46
 70
     1
102
RTVSPost2010Prop47
 90
       50
102
RTVSPost2010PropOp47
 70
     1
102
RTVSPost2010Prop48
 90
       50
102
RTVSPost2010PropOp48
 70
     1
102
RTVSPost2010Prop49
280
     0
102
RTVSPost2010PropOp49
 70
     1
102
RTVSPost2010Prop50
 90
       50
102
RTVSPost2010PropOp50
 70
     1
102
RTVSPost2010Prop51ColorIndex
 90
      256
102
RTVSPost2010Prop51ColorRGB
 90
-16777216
102
RTVSPost2010PropOp51
 70
     0
102
RTVSPost2010Prop52
140
1.0
102
RTVSPost2010PropOp52
 70
     0
102
RTVSPost2010Prop53
 90
        2
102
RTVSPost2010PropOp53
 70
     1
102
RTVSPost2010Prop54
  1
strokes_ogs.tif
102
RTVSPost2010PropOp54
 70
     1
102
RTVSPost2010Prop55
280
     0
102
RTVSPost2010PropOp55
 70
     1
102
RTVSPost2010Prop56
140
1.0
102
RTVSPost2010PropOp56
 70
     1
102
RTVSPost2010Prop57
140
1.0
102
RTVSPost2010PropOp57
 70
     1
  0
XRECORD
  5
391
102
{ACAD_REACTORS
330
390
102
}
330
390
100
AcDbXrecord
280
     1
102
RTVSPropertyOp0
 70
     1
102
RTVSPropertyOp1
 70
     1
102
RTVSPropertyOp2
 70
     1
102
RTVSPropertyOp3
 70
     1
102
RTVSPropertyOp4
 70
     1
102
RTVSPropertyOp5
 70
     1
102
RTVSPropertyOp6
 70
     1
102
RTVSPropertyOp7
 70
     1
102
RTVSPropertyOp8
 70
     1
102
RTVSPropertyOp9
 70
     1
102
RTVSPropertyOp10
 70
     1
102
RTVSPropertyOp11
 70
     1
102
RTVSPropertyOp12
 70
     1
102
RTVSPropertyOp13
 70
     1
102
RTVSPropertyOp14
 70
     1
102
RTVSPropertyOp15
 70
     1
102
RTVSPropertyOp16
 70
     1
102
RTVSPropertyOp17
 70
     1
102
RTVSPropertyOp18
 70
     1
102
RTVSPropertyOp19
 70
     1
102
RTVSPropertyOp20
 70
     1
102
RTVSPropertyOp21
 70
     1
102
RTVSPropertyOp22
 70
     1
102
RTVSPropertyOp23
 70
     1
102
RTVSPropertyOp24
 70
     1
102
RTVSPropertyOp25
 70
     1
102
RTVSPropertyOp26
 70
     1
102
RTVSPropertyOp27
 70
     1
102
RTVSPropertyOp28
 70
     1
102
RTVSPropertyOp29
 70
     1
102
RTVSPropertyOp30
 70
     1
102
RTVSPropertyOp31
 70
     1
102
RTVSPropertyOp32
 70
     1
102
RTVSPropertyOp33
 70
     1
102
RTVSPropertyOp34
 70
     1
102
RTVSPropertyOp35
 70
     1
102
RTVSPropertyOp36
 70
     1
102
RTVSPropertyOp37
 70
     1
102
RTVSPropertyOp38
 70
     1
102
RTVSPropertyOp39
 70
     1
102
RTVSPropertyOp40
 70
     1
102
RTVSPropertyOp41
 70
     1
102
RTVSPropertyOp42
 70
     1
102
RTVSPropertyOp43
 70
     1
102
RTVSPropertyOp44
 70
     1
102
RTVSPropertyOp45
 70
     1
102
RTVSPropertyOp46
 70
     1
102
RTVSPropertyOp47
 70
     1
102
RTVSPropertyOp48
 70
     1
102
RTVSPropertyOp49
 70
     1
102
RTVSPropertyOp50
 70
     1
102
RTVSPropertyOp51
 70
     0
102
RTVSPropertyOp52
 70
     0
102
RTVSPropertyOp53
 70
     1
102
RTVSPropertyOp54
 70
     1
102
RTVSPropertyOp55
 70
     1
102
RTVSPropertyOp56
 70
     1
102
RTVSPropertyOp57
 70
     1
102
RTVSPost2010Prop28
280
     0
102
RTVSPost2010PropOp28
 70
     1
102
RTVSPost2010Prop29
280
     1
102
RTVSPost2010PropOp29
 70
     1
102
RTVSPost2010Prop30
280
     1
102
RTVSPost2010PropOp30
 70
     1
102
RTVSPost2010Prop31
280
     0
102
RTVSPost2010PropOp31
 70
     1
102
RTVSPost2010Prop32
280
     0
102
RTVSPost2010PropOp32
 70
     1
102
RTVSPost2010Prop33
280
     0
102
RTVSPost2010PropOp33
 70
     1
102
RTVSPost2010Prop34
280
     0
102
RTVSPost2010PropOp34
 70
     1
102
RTVSPost2010Prop35
280
     0
102
RTVSPost2010PropOp35
 70
     1
102
RTVSPost2010Prop36
280
     0
102
RTVSPost2010PropOp36
 70
     1
102
RTVSPost2010Prop37
 90
       50
102
RTVSPost2010PropOp37
 70
     1
102
RTVSPost2010Prop38
140
0.0
102
RTVSPost2010PropOp38
 70
     1
102
RTVSPost2010Prop39
140
1.0
102
RTVSPost2010PropOp39
 70
     1
102
RTVSPost2010Prop40
 90
        0
102
RTVSPost2010PropOp40
 70
     1
102
RTVSPost2010Prop41ColorIndex
 90
       18
102
RTVSPost2010Prop41ColorRGB
 90
        0
102
RTVSPost2010PropOp41
 70
     1
102
RTVSPost2010Prop42
 90
       50
102
RTVSPost2010PropOp42
 70
     1
102
RTVSPost2010Prop43
 90
        3
102
RTVSPost2010PropOp43
 70
     1
102
RTVSPost2010Prop44ColorIndex
 90
        5
102
RTVSPost2010Prop44ColorRGB
 90
      255
102
RTVSPost2010PropOp44
 70
     1
102
RTVSPost2010Prop45
280
     0
102
RTVSPost2010PropOp45
 70
     1
102
RTVSPost2010Prop46
 90
       50
102
RTVSPost2010PropOp46
 70
     1
102
RTVSPost2010Prop47
 90
       50
102
RTVSPost2010PropOp47
 70
     1
102
RTVSPost2010Prop48
 90
       50
102
RTVSPost2010PropOp48
 70
     1
102
RTVSPost2010Prop49
280
     0
102
RTVSPost2010PropOp49
 70
     1
102
RTVSPost2010Prop50
 90
       50
102
RTVSPost2010PropOp50
 70
     1
102
RTVSPost2010Prop51ColorIndex
 90
      256
102
RTVSPost2010Prop51ColorRGB
 90
-16777216
102
RTVSPost2010PropOp51
 70
     0
102
RTVSPost2010Prop52
140
1.0
102
RTVSPost2010PropOp52
 70
     0
102
RTVSPost2010Prop53
 90
        2
102
RTVSPost2010PropOp53
 70
     1
102
RTVSPost2010Prop54
  1
strokes_ogs.tif
102
RTVSPost2010PropOp54
 70
     1
102
RTVSPost2010Prop55
280
     0
102
RTVSPost2010PropOp55
 70
     1
102
RTVSPost2010Prop56
140
1.0
102
RTVSPost2010PropOp56
 70
     1
102
RTVSPost2010Prop57
140
1.0
102
RTVSPost2010PropOp57
 70
     1
  0
XRECORD
  5
399
102
{ACAD_REACTORS
330
398
102
}
330
398
100
AcDbXrecord
280
     1
102
RTVSPropertyOp0
 70
     1
102
RTVSPropertyOp1
 70
     1
102
RTVSPropertyOp2
 70
     1
102
RTVSPropertyOp3
 70
     1
102
RTVSPropertyOp4
 70
     1
102
RTVSPropertyOp5
 70
     1
102
RTVSPropertyOp6
 70
     1
102
RTVSPropertyOp7
 70
     1
102
RTVSPropertyOp8
 70
     1
102
RTVSPropertyOp9
 70
     1
102
RTVSPropertyOp10
 70
     1
102
RTVSPropertyOp11
 70
     1
102
RTVSPropertyOp12
 70
     1
102
RTVSPropertyOp13
 70
     1
102
RTVSPropertyOp14
 70
     1
102
RTVSPropertyOp15
 70
     1
102
RTVSPropertyOp16
 70
     1
102
RTVSPropertyOp17
 70
     1
102
RTVSPropertyOp18
 70
     1
102
RTVSPropertyOp19
 70
     1
102
RTVSPropertyOp20
 70
     1
102
RTVSPropertyOp21
 70
     1
102
RTVSPropertyOp22
 70
     1
102
RTVSPropertyOp23
 70
     1
102
RTVSPropertyOp24
 70
     1
102
RTVSPropertyOp25
 70
     1
102
RTVSPropertyOp26
 70
     1
102
RTVSPropertyOp27
 70
     1
102
RTVSPropertyOp28
 70
     1
102
RTVSPropertyOp29
 70
     1
102
RTVSPropertyOp30
 70
     1
102
RTVSPropertyOp31
 70
     1
102
RTVSPropertyOp32
 70
     1
102
RTVSPropertyOp33
 70
     1
102
RTVSPropertyOp34
 70
     1
102
RTVSPropertyOp35
 70
     1
102
RTVSPropertyOp36
 70
     1
102
RTVSPropertyOp37
 70
     1
102
RTVSPropertyOp38
 70
     1
102
RTVSPropertyOp39
 70
     1
102
RTVSPropertyOp40
 70
     1
102
RTVSPropertyOp41
 70
     1
102
RTVSPropertyOp42
 70
     1
102
RTVSPropertyOp43
 70
     1
102
RTVSPropertyOp44
 70
     1
102
RTVSPropertyOp45
 70
     1
102
RTVSPropertyOp46
 70
     1
102
RTVSPropertyOp47
 70
     1
102
RTVSPropertyOp48
 70
     1
102
RTVSPropertyOp49
 70
     1
102
RTVSPropertyOp50
 70
     1
102
RTVSPropertyOp51
 70
     0
102
RTVSPropertyOp52
 70
     0
102
RTVSPropertyOp53
 70
     1
102
RTVSPropertyOp54
 70
     1
102
RTVSPropertyOp55
 70
     1
102
RTVSPropertyOp56
 70
     1
102
RTVSPropertyOp57
 70
     1
102
RTVSPost2010Prop28
280
     0
102
RTVSPost2010PropOp28
 70
     1
102
RTVSPost2010Prop29
280
     1
102
RTVSPost2010PropOp29
 70
     1
102
RTVSPost2010Prop30
280
     1
102
RTVSPost2010PropOp30
 70
     1
102
RTVSPost2010Prop31
280
     0
102
RTVSPost2010PropOp31
 70
     1
102
RTVSPost2010Prop32
280
     0
102
RTVSPost2010PropOp32
 70
     1
102
RTVSPost2010Prop33
280
     0
102
RTVSPost2010PropOp33
 70
     1
102
RTVSPost2010Prop34
280
     0
102
RTVSPost2010PropOp34
 70
     1
102
RTVSPost2010Prop35
280
     0
102
RTVSPost2010PropOp35
 70
     1
102
RTVSPost2010Prop36
280
     0
102
RTVSPost2010PropOp36
 70
     1
102
RTVSPost2010Prop37
 90
       50
102
RTVSPost2010PropOp37
 70
     1
102
RTVSPost2010Prop38
140
0.0
102
RTVSPost2010PropOp38
 70
     1
102
RTVSPost2010Prop39
140
1.0
102
RTVSPost2010PropOp39
 70
     1
102
RTVSPost2010Prop40
 90
        0
102
RTVSPost2010PropOp40
 70
     1
102
RTVSPost2010Prop41ColorIndex
 90
       18
102
RTVSPost2010Prop41ColorRGB
 90
        0
102
RTVSPost2010PropOp41
 70
     1
102
RTVSPost2010Prop42
 90
       50
102
RTVSPost2010PropOp42
 70
     1
102
RTVSPost2010Prop43
 90
        3
102
RTVSPost2010PropOp43
 70
     1
102
RTVSPost2010Prop44ColorIndex
 90
        5
102
RTVSPost2010Prop44ColorRGB
 90
      255
102
RTVSPost2010PropOp44
 70
     1
102
RTVSPost2010Prop45
280
     0
102
RTVSPost2010PropOp45
 70
     1
102
RTVSPost2010Prop46
 90
       50
102
RTVSPost2010PropOp46
 70
     1
102
RTVSPost2010Prop47
 90
       50
102
RTVSPost2010PropOp47
 70
     1
102
RTVSPost2010Prop48
 90
       50
102
RTVSPost2010PropOp48
 70
     1
102
RTVSPost2010Prop49
280
     0
102
RTVSPost2010PropOp49
 70
     1
102
RTVSPost2010Prop50
 90
       50
102
RTVSPost2010PropOp50
 70
     1
102
RTVSPost2010Prop51ColorIndex
 90
      256
102
RTVSPost2010Prop51ColorRGB
 90
-16777216
102
RTVSPost2010PropOp51
 70
     0
102
RTVSPost2010Prop52
140
1.0
102
RTVSPost2010PropOp52
 70
     0
102
RTVSPost2010Prop53
 90
        2
102
RTVSPost2010PropOp53
 70
     1
102
RTVSPost2010Prop54
  1
strokes_ogs.tif
102
RTVSPost2010PropOp54
 70
     1
102
RTVSPost2010Prop55
280
     0
102
RTVSPost2010PropOp55
 70
     1
102
RTVSPost2010Prop56
140
1.0
102
RTVSPost2010PropOp56
 70
     1
102
RTVSPost2010Prop57
140
1.0
102
RTVSPost2010PropOp57
 70
     1
  0
XRECORD
  5
3A1
102
{ACAD_REACTORS
330
3A0
102
}
330
3A0
100
AcDbXrecord
280
     1
102
RTVSPropertyOp0
 70
     1
102
RTVSPropertyOp1
 70
     1
102
RTVSPropertyOp2
 70
     1
102
RTVSPropertyOp3
 70
     1
102
RTVSPropertyOp4
 70
     1
102
RTVSPropertyOp5
 70
     1
102
RTVSPropertyOp6
 70
     1
102
RTVSPropertyOp7
 70
     1
102
RTVSPropertyOp8
 70
     1
102
RTVSPropertyOp9
 70
     1
102
RTVSPropertyOp10
 70
     1
102
RTVSPropertyOp11
 70
     1
102
RTVSPropertyOp12
 70
     1
102
RTVSPropertyOp13
 70
     1
102
RTVSPropertyOp14
 70
     1
102
RTVSPropertyOp15
 70
     1
102
RTVSPropertyOp16
 70
     1
102
RTVSPropertyOp17
 70
     1
102
RTVSPropertyOp18
 70
     1
102
RTVSPropertyOp19
 70
     1
102
RTVSPropertyOp20
 70
     1
102
RTVSPropertyOp21
 70
     1
102
RTVSPropertyOp22
 70
     1
102
RTVSPropertyOp23
 70
     1
102
RTVSPropertyOp24
 70
     1
102
RTVSPropertyOp25
 70
     1
102
RTVSPropertyOp26
 70
     1
102
RTVSPropertyOp27
 70
     1
102
RTVSPropertyOp28
 70
     1
102
RTVSPropertyOp29
 70
     1
102
RTVSPropertyOp30
 70
     1
102
RTVSPropertyOp31
 70
     1
102
RTVSPropertyOp32
 70
     1
102
RTVSPropertyOp33
 70
     1
102
RTVSPropertyOp34
 70
     1
102
RTVSPropertyOp35
 70
     1
102
RTVSPropertyOp36
 70
     1
102
RTVSPropertyOp37
 70
     1
102
RTVSPropertyOp38
 70
     1
102
RTVSPropertyOp39
 70
     1
102
RTVSPropertyOp40
 70
     1
102
RTVSPropertyOp41
 70
     1
102
RTVSPropertyOp42
 70
     1
102
RTVSPropertyOp43
 70
     1
102
RTVSPropertyOp44
 70
     1
102
RTVSPropertyOp45
 70
     1
102
RTVSPropertyOp46
 70
     1
102
RTVSPropertyOp47
 70
     1
102
RTVSPropertyOp48
 70
     1
102
RTVSPropertyOp49
 70
     1
102
RTVSPropertyOp50
 70
     1
102
RTVSPropertyOp51
 70
     0
102
RTVSPropertyOp52
 70
     0
102
RTVSPropertyOp53
 70
     1
102
RTVSPropertyOp54
 70
     1
102
RTVSPropertyOp55
 70
     1
102
RTVSPropertyOp56
 70
     1
102
RTVSPropertyOp57
 70
     1
102
RTVSPost2010Prop28
280
     0
102
RTVSPost2010PropOp28
 70
     1
102
RTVSPost2010Prop29
280
     1
102
RTVSPost2010PropOp29
 70
     1
102
RTVSPost2010Prop30
280
     1
102
RTVSPost2010PropOp30
 70
     1
102
RTVSPost2010Prop31
280
     0
102
RTVSPost2010PropOp31
 70
     1
102
RTVSPost2010Prop32
280
     0
102
RTVSPost2010PropOp32
 70
     1
102
RTVSPost2010Prop33
280
     0
102
RTVSPost2010PropOp33
 70
     1
102
RTVSPost2010Prop34
280
     0
102
RTVSPost2010PropOp34
 70
     1
102
RTVSPost2010Prop35
280
     0
102
RTVSPost2010PropOp35
 70
     1
102
RTVSPost2010Prop36
280
     0
102
RTVSPost2010PropOp36
 70
     1
102
RTVSPost2010Prop37
 90
       50
102
RTVSPost2010PropOp37
 70
     1
102
RTVSPost2010Prop38
140
0.0
102
RTVSPost2010PropOp38
 70
     1
102
RTVSPost2010Prop39
140
1.0
102
RTVSPost2010PropOp39
 70
     1
102
RTVSPost2010Prop40
 90
        0
102
RTVSPost2010PropOp40
 70
     1
102
RTVSPost2010Prop41ColorIndex
 90
       18
102
RTVSPost2010Prop41ColorRGB
 90
        0
102
RTVSPost2010PropOp41
 70
     1
102
RTVSPost2010Prop42
 90
       50
102
RTVSPost2010PropOp42
 70
     1
102
RTVSPost2010Prop43
 90
        3
102
RTVSPost2010PropOp43
 70
     1
102
RTVSPost2010Prop44ColorIndex
 90
        5
102
RTVSPost2010Prop44ColorRGB
 90
      255
102
RTVSPost2010PropOp44
 70
     1
102
RTVSPost2010Prop45
280
     0
102
RTVSPost2010PropOp45
 70
     1
102
RTVSPost2010Prop46
 90
       50
102
RTVSPost2010PropOp46
 70
     1
102
RTVSPost2010Prop47
 90
       50
102
RTVSPost2010PropOp47
 70
     1
102
RTVSPost2010Prop48
 90
       50
102
RTVSPost2010PropOp48
 70
     1
102
RTVSPost2010Prop49
280
     0
102
RTVSPost2010PropOp49
 70
     1
102
RTVSPost2010Prop50
 90
       50
102
RTVSPost2010PropOp50
 70
     1
102
RTVSPost2010Prop51ColorIndex
 90
      256
102
RTVSPost2010Prop51ColorRGB
 90
-16777216
102
RTVSPost2010PropOp51
 70
     0
102
RTVSPost2010Prop52
140
1.0
102
RTVSPost2010PropOp52
 70
     0
102
RTVSPost2010Prop53
 90
        2
102
RTVSPost2010PropOp53
 70
     1
102
RTVSPost2010Prop54
  1
strokes_ogs.tif
102
RTVSPost2010PropOp54
 70
     1
102
RTVSPost2010Prop55
280
     0
102
RTVSPost2010PropOp55
 70
     1
102
RTVSPost2010Prop56
140
1.0
102
RTVSPost2010PropOp56
 70
     1
102
RTVSPost2010Prop57
140
1.0
102
RTVSPost2010PropOp57
 70
     1
  0
XRECORD
  5
395
102
{ACAD_REACTORS
330
394
102
}
330
394
100
AcDbXrecord
280
     1
102
RTVSPropertyOp0
 70
     1
102
RTVSPropertyOp1
 70
     1
102
RTVSPropertyOp2
 70
     1
102
RTVSPropertyOp3
 70
     1
102
RTVSPropertyOp4
 70
     1
102
RTVSPropertyOp5
 70
     1
102
RTVSPropertyOp6
 70
     1
102
RTVSPropertyOp7
 70
     1
102
RTVSPropertyOp8
 70
     1
102
RTVSPropertyOp9
 70
     1
102
RTVSPropertyOp10
 70
     1
102
RTVSPropertyOp11
 70
     1
102
RTVSPropertyOp12
 70
     1
102
RTVSPropertyOp13
 70
     1
102
RTVSPropertyOp14
 70
     1
102
RTVSPropertyOp15
 70
     1
102
RTVSPropertyOp16
 70
     1
102
RTVSPropertyOp17
 70
     1
102
RTVSPropertyOp18
 70
     1
102
RTVSPropertyOp19
 70
     1
102
RTVSPropertyOp20
 70
     1
102
RTVSPropertyOp21
 70
     1
102
RTVSPropertyOp22
 70
     1
102
RTVSPropertyOp23
 70
     1
102
RTVSPropertyOp24
 70
     1
102
RTVSPropertyOp25
 70
     1
102
RTVSPropertyOp26
 70
     1
102
RTVSPropertyOp27
 70
     1
102
RTVSPropertyOp28
 70
     1
102
RTVSPropertyOp29
 70
     1
102
RTVSPropertyOp30
 70
     1
102
RTVSPropertyOp31
 70
     1
102
RTVSPropertyOp32
 70
     1
102
RTVSPropertyOp33
 70
     1
102
RTVSPropertyOp34
 70
     1
102
RTVSPropertyOp35
 70
     1
102
RTVSPropertyOp36
 70
     1
102
RTVSPropertyOp37
 70
     1
102
RTVSPropertyOp38
 70
     1
102
RTVSPropertyOp39
 70
     1
102
RTVSPropertyOp40
 70
     1
102
RTVSPropertyOp41
 70
     1
102
RTVSPropertyOp42
 70
     1
102
RTVSPropertyOp43
 70
     1
102
RTVSPropertyOp44
 70
     1
102
RTVSPropertyOp45
 70
     1
102
RTVSPropertyOp46
 70
     1
102
RTVSPropertyOp47
 70
     1
102
RTVSPropertyOp48
 70
     1
102
RTVSPropertyOp49
 70
     1
102
RTVSPropertyOp50
 70
     1
102
RTVSPropertyOp51
 70
     0
102
RTVSPropertyOp52
 70
     0
102
RTVSPropertyOp53
 70
     1
102
RTVSPropertyOp54
 70
     1
102
RTVSPropertyOp55
 70
     1
102
RTVSPropertyOp56
 70
     1
102
RTVSPropertyOp57
 70
     1
102
RTVSPost2010Prop28
280
     0
102
RTVSPost2010PropOp28
 70
     1
102
RTVSPost2010Prop29
280
     1
102
RTVSPost2010PropOp29
 70
     1
102
RTVSPost2010Prop30
280
     1
102
RTVSPost2010PropOp30
 70
     1
102
RTVSPost2010Prop31
280
     0
102
RTVSPost2010PropOp31
 70
     1
102
RTVSPost2010Prop32
280
     0
102
RTVSPost2010PropOp32
 70
     1
102
RTVSPost2010Prop33
280
     0
102
RTVSPost2010PropOp33
 70
     1
102
RTVSPost2010Prop34
280
     0
102
RTVSPost2010PropOp34
 70
     1
102
RTVSPost2010Prop35
280
     0
102
RTVSPost2010PropOp35
 70
     1
102
RTVSPost2010Prop36
280
     0
102
RTVSPost2010PropOp36
 70
     1
102
RTVSPost2010Prop37
 90
       50
102
RTVSPost2010PropOp37
 70
     1
102
RTVSPost2010Prop38
140
0.0
102
RTVSPost2010PropOp38
 70
     1
102
RTVSPost2010Prop39
140
1.0
102
RTVSPost2010PropOp39
 70
     1
102
RTVSPost2010Prop40
 90
        0
102
RTVSPost2010PropOp40
 70
     1
102
RTVSPost2010Prop41ColorIndex
 90
       18
102
RTVSPost2010Prop41ColorRGB
 90
        0
102
RTVSPost2010PropOp41
 70
     1
102
RTVSPost2010Prop42
 90
       50
102
RTVSPost2010PropOp42
 70
     1
102
RTVSPost2010Prop43
 90
        3
102
RTVSPost2010PropOp43
 70
     1
102
RTVSPost2010Prop44ColorIndex
 90
        5
102
RTVSPost2010Prop44ColorRGB
 90
      255
102
RTVSPost2010PropOp44
 70
     1
102
RTVSPost2010Prop45
280
     0
102
RTVSPost2010PropOp45
 70
     1
102
RTVSPost2010Prop46
 90
       50
102
RTVSPost2010PropOp46
 70
     1
102
RTVSPost2010Prop47
 90
       50
102
RTVSPost2010PropOp47
 70
     1
102
RTVSPost2010Prop48
 90
       50
102
RTVSPost2010PropOp48
 70
     1
102
RTVSPost2010Prop49
280
     0
102
RTVSPost2010PropOp49
 70
     1
102
RTVSPost2010Prop50
 90
       50
102
RTVSPost2010PropOp50
 70
     1
102
RTVSPost2010Prop51ColorIndex
 90
      256
102
RTVSPost2010Prop51ColorRGB
 90
-16777216
102
RTVSPost2010PropOp51
 70
     0
102
RTVSPost2010Prop52
140
1.0
102
RTVSPost2010PropOp52
 70
     0
102
RTVSPost2010Prop53
 90
        2
102
RTVSPost2010PropOp53
 70
     1
102
RTVSPost2010Prop54
  1
strokes_ogs.tif
102
RTVSPost2010PropOp54
 70
     1
102
RTVSPost2010Prop55
280
     0
102
RTVSPost2010PropOp55
 70
     1
102
RTVSPost2010Prop56
140
1.0
102
RTVSPost2010PropOp56
 70
     1
102
RTVSPost2010Prop57
140
1.0
102
RTVSPost2010PropOp57
 70
     1
  0
XRECORD
  5
397
102
{ACAD_REACTORS
330
396
102
}
330
396
100
AcDbXrecord
280
     1
102
RTVSPropertyOp0
 70
     1
102
RTVSPropertyOp1
 70
     1
102
RTVSPropertyOp2
 70
     1
102
RTVSPropertyOp3
 70
     1
102
RTVSPropertyOp4
 70
     1
102
RTVSPropertyOp5
 70
     1
102
RTVSPropertyOp6
 70
     1
102
RTVSPropertyOp7
 70
     1
102
RTVSPropertyOp8
 70
     1
102
RTVSPropertyOp9
 70
     1
102
RTVSPropertyOp10
 70
     1
102
RTVSPropertyOp11
 70
     1
102
RTVSPropertyOp12
 70
     1
102
RTVSPropertyOp13
 70
     1
102
RTVSPropertyOp14
 70
     1
102
RTVSPropertyOp15
 70
     1
102
RTVSPropertyOp16
 70
     1
102
RTVSPropertyOp17
 70
     1
102
RTVSPropertyOp18
 70
     1
102
RTVSPropertyOp19
 70
     1
102
RTVSPropertyOp20
 70
     1
102
RTVSPropertyOp21
 70
     1
102
RTVSPropertyOp22
 70
     1
102
RTVSPropertyOp23
 70
     1
102
RTVSPropertyOp24
 70
     1
102
RTVSPropertyOp25
 70
     1
102
RTVSPropertyOp26
 70
     1
102
RTVSPropertyOp27
 70
     1
102
RTVSPropertyOp28
 70
     1
102
RTVSPropertyOp29
 70
     1
102
RTVSPropertyOp30
 70
     1
102
RTVSPropertyOp31
 70
     1
102
RTVSPropertyOp32
 70
     1
102
RTVSPropertyOp33
 70
     1
102
RTVSPropertyOp34
 70
     1
102
RTVSPropertyOp35
 70
     1
102
RTVSPropertyOp36
 70
     1
102
RTVSPropertyOp37
 70
     1
102
RTVSPropertyOp38
 70
     1
102
RTVSPropertyOp39
 70
     1
102
RTVSPropertyOp40
 70
     1
102
RTVSPropertyOp41
 70
     1
102
RTVSPropertyOp42
 70
     1
102
RTVSPropertyOp43
 70
     1
102
RTVSPropertyOp44
 70
     1
102
RTVSPropertyOp45
 70
     1
102
RTVSPropertyOp46
 70
     1
102
RTVSPropertyOp47
 70
     1
102
RTVSPropertyOp48
 70
     1
102
RTVSPropertyOp49
 70
     1
102
RTVSPropertyOp50
 70
     1
102
RTVSPropertyOp51
 70
     0
102
RTVSPropertyOp52
 70
     0
102
RTVSPropertyOp53
 70
     1
102
RTVSPropertyOp54
 70
     1
102
RTVSPropertyOp55
 70
     1
102
RTVSPropertyOp56
 70
     1
102
RTVSPropertyOp57
 70
     1
102
RTVSPost2010Prop28
280
     0
102
RTVSPost2010PropOp28
 70
     1
102
RTVSPost2010Prop29
280
     1
102
RTVSPost2010PropOp29
 70
     1
102
RTVSPost2010Prop30
280
     1
102
RTVSPost2010PropOp30
 70
     1
102
RTVSPost2010Prop31
280
     0
102
RTVSPost2010PropOp31
 70
     1
102
RTVSPost2010Prop32
280
     0
102
RTVSPost2010PropOp32
 70
     1
102
RTVSPost2010Prop33
280
     0
102
RTVSPost2010PropOp33
 70
     1
102
RTVSPost2010Prop34
280
     0
102
RTVSPost2010PropOp34
 70
     1
102
RTVSPost2010Prop35
280
     0
102
RTVSPost2010PropOp35
 70
     1
102
RTVSPost2010Prop36
280
     0
102
RTVSPost2010PropOp36
 70
     1
102
RTVSPost2010Prop37
 90
       50
102
RTVSPost2010PropOp37
 70
     1
102
RTVSPost2010Prop38
140
0.0
102
RTVSPost2010PropOp38
 70
     1
102
RTVSPost2010Prop39
140
1.0
102
RTVSPost2010PropOp39
 70
     1
102
RTVSPost2010Prop40
 90
        0
102
RTVSPost2010PropOp40
 70
     1
102
RTVSPost2010Prop41ColorIndex
 90
       18
102
RTVSPost2010Prop41ColorRGB
 90
        0
102
RTVSPost2010PropOp41
 70
     1
102
RTVSPost2010Prop42
 90
       50
102
RTVSPost2010PropOp42
 70
     1
102
RTVSPost2010Prop43
 90
        3
102
RTVSPost2010PropOp43
 70
     1
102
RTVSPost2010Prop44ColorIndex
 90
        5
102
RTVSPost2010Prop44ColorRGB
 90
      255
102
RTVSPost2010PropOp44
 70
     1
102
RTVSPost2010Prop45
280
     0
102
RTVSPost2010PropOp45
 70
     1
102
RTVSPost2010Prop46
 90
       50
102
RTVSPost2010PropOp46
 70
     1
102
RTVSPost2010Prop47
 90
       50
102
RTVSPost2010PropOp47
 70
     1
102
RTVSPost2010Prop48
 90
       50
102
RTVSPost2010PropOp48
 70
     1
102
RTVSPost2010Prop49
280
     0
102
RTVSPost2010PropOp49
 70
     1
102
RTVSPost2010Prop50
 90
       50
102
RTVSPost2010PropOp50
 70
     1
102
RTVSPost2010Prop51ColorIndex
 90
      256
102
RTVSPost2010Prop51ColorRGB
 90
-16777216
102
RTVSPost2010PropOp51
 70
     0
102
RTVSPost2010Prop52
140
1.0
102
RTVSPost2010PropOp52
 70
     0
102
RTVSPost2010Prop53
 90
        2
102
RTVSPost2010PropOp53
 70
     1
102
RTVSPost2010Prop54
  1
strokes_ogs.tif
102
RTVSPost2010PropOp54
 70
     1
102
RTVSPost2010Prop55
280
     0
102
RTVSPost2010PropOp55
 70
     1
102
RTVSPost2010Prop56
140
1.0
102
RTVSPost2010PropOp56
 70
     1
102
RTVSPost2010Prop57
140
1.0
102
RTVSPost2010PropOp57
 70
     1
  0
XRECORD
  5
3A7
102
{ACAD_REACTORS
330
3A6
102
}
330
3A6
100
AcDbXrecord
280
     1
102
RTVSPropertyOp0
 70
     0
102
RTVSPropertyOp1
 70
     0
102
RTVSPropertyOp2
 70
     0
102
RTVSPropertyOp3
 70
     0
102
RTVSPropertyOp4
 70
     0
102
RTVSPropertyOp5
 70
     0
102
RTVSPropertyOp6
 70
     0
102
RTVSPropertyOp7
 70
     0
102
RTVSPropertyOp8
 70
     0
102
RTVSPropertyOp9
 70
     0
102
RTVSPropertyOp10
 70
     0
102
RTVSPropertyOp11
 70
     0
102
RTVSPropertyOp12
 70
     0
102
RTVSPropertyOp13
 70
     0
102
RTVSPropertyOp14
 70
     2
102
RTVSPropertyOp15
 70
     0
102
RTVSPropertyOp16
 70
     0
102
RTVSPropertyOp17
 70
     0
102
RTVSPropertyOp18
 70
     0
102
RTVSPropertyOp19
 70
     0
102
RTVSPropertyOp20
 70
     0
102
RTVSPropertyOp21
 70
     0
102
RTVSPropertyOp22
 70
     0
102
RTVSPropertyOp23
 70
     0
102
RTVSPropertyOp24
 70
     0
102
RTVSPropertyOp25
 70
     0
102
RTVSPropertyOp26
 70
     0
102
RTVSPropertyOp27
 70
     0
102
RTVSPropertyOp28
 70
     0
102
RTVSPropertyOp29
 70
     0
102
RTVSPropertyOp30
 70
     0
102
RTVSPropertyOp31
 70
     0
102
RTVSPropertyOp32
 70
     0
102
RTVSPropertyOp33
 70
     0
102
RTVSPropertyOp34
 70
     0
102
RTVSPropertyOp35
 70
     0
102
RTVSPropertyOp36
 70
     0
102
RTVSPropertyOp37
 70
     0
102
RTVSPropertyOp38
 70
     0
102
RTVSPropertyOp39
 70
     0
102
RTVSPropertyOp40
 70
     0
102
RTVSPropertyOp41
 70
     0
102
RTVSPropertyOp42
 70
     0
102
RTVSPropertyOp43
 70
     0
102
RTVSPropertyOp44
 70
     0
102
RTVSPropertyOp45
 70
     0
102
RTVSPropertyOp46
 70
     0
102
RTVSPropertyOp47
 70
     0
102
RTVSPropertyOp48
 70
     0
102
RTVSPropertyOp49
 70
     0
102
RTVSPropertyOp50
 70
     0
102
RTVSPropertyOp51
 70
     0
102
RTVSPropertyOp52
 70
     0
102
RTVSPropertyOp53
 70
     0
102
RTVSPropertyOp54
 70
     0
102
RTVSPropertyOp55
 70
     0
102
RTVSPropertyOp56
 70
     0
102
RTVSPropertyOp57
 70
     0
102
RTVSPost2010Prop28
280
     0
102
RTVSPost2010PropOp28
 70
     0
102
RTVSPost2010Prop29
280
     1
102
RTVSPost2010PropOp29
 70
     0
102
RTVSPost2010Prop30
280
     1
102
RTVSPost2010PropOp30
 70
     0
102
RTVSPost2010Prop31
280
     0
102
RTVSPost2010PropOp31
 70
     0
102
RTVSPost2010Prop32
280
     0
102
RTVSPost2010PropOp32
 70
     0
102
RTVSPost2010Prop33
280
     0
102
RTVSPost2010PropOp33
 70
     0
102
RTVSPost2010Prop34
280
     0
102
RTVSPost2010PropOp34
 70
     0
102
RTVSPost2010Prop35
280
     0
102
RTVSPost2010PropOp35
 70
     0
102
RTVSPost2010Prop36
280
     0
102
RTVSPost2010PropOp36
 70
     0
102
RTVSPost2010Prop37
 90
       50
102
RTVSPost2010PropOp37
 70
     0
102
RTVSPost2010Prop38
140
0.0
102
RTVSPost2010PropOp38
 70
     0
102
RTVSPost2010Prop39
140
1.0
102
RTVSPost2010PropOp39
 70
     0
102
RTVSPost2010Prop40
 90
        0
102
RTVSPost2010PropOp40
 70
     0
102
RTVSPost2010Prop41ColorIndex
 90
       18
102
RTVSPost2010Prop41ColorRGB
 90
        0
102
RTVSPost2010PropOp41
 70
     0
102
RTVSPost2010Prop42
 90
       50
102
RTVSPost2010PropOp42
 70
     0
102
RTVSPost2010Prop43
 90
        3
102
RTVSPost2010PropOp43
 70
     0
102
RTVSPost2010Prop44ColorIndex
 90
        5
102
RTVSPost2010Prop44ColorRGB
 90
      255
102
RTVSPost2010PropOp44
 70
     0
102
RTVSPost2010Prop45
280
     0
102
RTVSPost2010PropOp45
 70
     0
102
RTVSPost2010Prop46
 90
       50
102
RTVSPost2010PropOp46
 70
     0
102
RTVSPost2010Prop47
 90
       50
102
RTVSPost2010PropOp47
 70
     0
102
RTVSPost2010Prop48
 90
       50
102
RTVSPost2010PropOp48
 70
     0
102
RTVSPost2010Prop49
280
     0
102
RTVSPost2010PropOp49
 70
     0
102
RTVSPost2010Prop50
 90
       50
102
RTVSPost2010PropOp50
 70
     0
102
RTVSPost2010Prop51ColorIndex
 90
      256
102
RTVSPost2010Prop51ColorRGB
 90
-16777216
102
RTVSPost2010PropOp51
 70
     0
102
RTVSPost2010Prop52
140
1.0
102
RTVSPost2010PropOp52
 70
     0
102
RTVSPost2010Prop53
 90
        2
102
RTVSPost2010PropOp53
 70
     0
102
RTVSPost2010Prop54
  1
strokes_ogs.tif
102
RTVSPost2010PropOp54
 70
     0
102
RTVSPost2010Prop55
280
     0
102
RTVSPost2010PropOp55
 70
     0
102
RTVSPost2010Prop56
140
1.0
102
RTVSPost2010PropOp56
 70
     0
102
RTVSPost2010Prop57
140
1.0
102
RTVSPost2010PropOp57
 70
     0
  0
XRECORD
  5
39F
102
{ACAD_REACTORS
330
39E
102
}
330
39E
100
AcDbXrecord
280
     1
102
RTVSPropertyOp0
 70
     1
102
RTVSPropertyOp1
 70
     1
102
RTVSPropertyOp2
 70
     1
102
RTVSPropertyOp3
 70
     1
102
RTVSPropertyOp4
 70
     1
102
RTVSPropertyOp5
 70
     1
102
RTVSPropertyOp6
 70
     1
102
RTVSPropertyOp7
 70
     1
102
RTVSPropertyOp8
 70
     1
102
RTVSPropertyOp9
 70
     1
102
RTVSPropertyOp10
 70
     1
102
RTVSPropertyOp11
 70
     1
102
RTVSPropertyOp12
 70
     1
102
RTVSPropertyOp13
 70
     1
102
RTVSPropertyOp14
 70
     1
102
RTVSPropertyOp15
 70
     1
102
RTVSPropertyOp16
 70
     1
102
RTVSPropertyOp17
 70
     1
102
RTVSPropertyOp18
 70
     1
102
RTVSPropertyOp19
 70
     1
102
RTVSPropertyOp20
 70
     1
102
RTVSPropertyOp21
 70
     1
102
RTVSPropertyOp22
 70
     1
102
RTVSPropertyOp23
 70
     1
102
RTVSPropertyOp24
 70
     1
102
RTVSPropertyOp25
 70
     1
102
RTVSPropertyOp26
 70
     1
102
RTVSPropertyOp27
 70
     1
102
RTVSPropertyOp28
 70
     1
102
RTVSPropertyOp29
 70
     1
102
RTVSPropertyOp30
 70
     1
102
RTVSPropertyOp31
 70
     1
102
RTVSPropertyOp32
 70
     1
102
RTVSPropertyOp33
 70
     1
102
RTVSPropertyOp34
 70
     1
102
RTVSPropertyOp35
 70
     1
102
RTVSPropertyOp36
 70
     1
102
RTVSPropertyOp37
 70
     1
102
RTVSPropertyOp38
 70
     1
102
RTVSPropertyOp39
 70
     1
102
RTVSPropertyOp40
 70
     1
102
RTVSPropertyOp41
 70
     1
102
RTVSPropertyOp42
 70
     1
102
RTVSPropertyOp43
 70
     1
102
RTVSPropertyOp44
 70
     1
102
RTVSPropertyOp45
 70
     1
102
RTVSPropertyOp46
 70
     1
102
RTVSPropertyOp47
 70
     1
102
RTVSPropertyOp48
 70
     1
102
RTVSPropertyOp49
 70
     1
102
RTVSPropertyOp50
 70
     1
102
RTVSPropertyOp51
 70
     0
102
RTVSPropertyOp52
 70
     0
102
RTVSPropertyOp53
 70
     1
102
RTVSPropertyOp54
 70
     1
102
RTVSPropertyOp55
 70
     1
102
RTVSPropertyOp56
 70
     1
102
RTVSPropertyOp57
 70
     1
102
RTVSPost2010Prop28
280
     0
102
RTVSPost2010PropOp28
 70
     1
102
RTVSPost2010Prop29
280
     1
102
RTVSPost2010PropOp29
 70
     1
102
RTVSPost2010Prop30
280
     1
102
RTVSPost2010PropOp30
 70
     1
102
RTVSPost2010Prop31
280
     0
102
RTVSPost2010PropOp31
 70
     1
102
RTVSPost2010Prop32
280
     0
102
RTVSPost2010PropOp32
 70
     1
102
RTVSPost2010Prop33
280
     0
102
RTVSPost2010PropOp33
 70
     1
102
RTVSPost2010Prop34
280
     0
102
RTVSPost2010PropOp34
 70
     1
102
RTVSPost2010Prop35
280
     0
102
RTVSPost2010PropOp35
 70
     1
102
RTVSPost2010Prop36
280
     0
102
RTVSPost2010PropOp36
 70
     1
102
RTVSPost2010Prop37
 90
       50
102
RTVSPost2010PropOp37
 70
     1
102
RTVSPost2010Prop38
140
0.0
102
RTVSPost2010PropOp38
 70
     1
102
RTVSPost2010Prop39
140
1.0
102
RTVSPost2010PropOp39
 70
     1
102
RTVSPost2010Prop40
 90
        0
102
RTVSPost2010PropOp40
 70
     1
102
RTVSPost2010Prop41ColorIndex
 90
       18
102
RTVSPost2010Prop41ColorRGB
 90
        0
102
RTVSPost2010PropOp41
 70
     1
102
RTVSPost2010Prop42
 90
       50
102
RTVSPost2010PropOp42
 70
     1
102
RTVSPost2010Prop43
 90
        3
102
RTVSPost2010PropOp43
 70
     1
102
RTVSPost2010Prop44ColorIndex
 90
        5
102
RTVSPost2010Prop44ColorRGB
 90
      255
102
RTVSPost2010PropOp44
 70
     1
102
RTVSPost2010Prop45
280
     0
102
RTVSPost2010PropOp45
 70
     1
102
RTVSPost2010Prop46
 90
       50
102
RTVSPost2010PropOp46
 70
     1
102
RTVSPost2010Prop47
 90
       50
102
RTVSPost2010PropOp47
 70
     1
102
RTVSPost2010Prop48
 90
       50
102
RTVSPost2010PropOp48
 70
     1
102
RTVSPost2010Prop49
280
     0
102
RTVSPost2010PropOp49
 70
     1
102
RTVSPost2010Prop50
 90
       50
102
RTVSPost2010PropOp50
 70
     1
102
RTVSPost2010Prop51ColorIndex
 90
      256
102
RTVSPost2010Prop51ColorRGB
 90
-16777216
102
RTVSPost2010PropOp51
 70
     0
102
RTVSPost2010Prop52
140
1.0
102
RTVSPost2010PropOp52
 70
     0
102
RTVSPost2010Prop53
 90
        2
102
RTVSPost2010PropOp53
 70
     1
102
RTVSPost2010Prop54
  1
strokes_ogs.tif
102
RTVSPost2010PropOp54
 70
     1
102
RTVSPost2010Prop55
280
     0
102
RTVSPost2010PropOp55
 70
     1
102
RTVSPost2010Prop56
140
1.0
102
RTVSPost2010PropOp56
 70
     1
102
RTVSPost2010Prop57
140
1.0
102
RTVSPost2010PropOp57
 70
     1
  0
XRECORD
  5
383
102
{ACAD_REACTORS
330
382
102
}
330
382
100
AcDbXrecord
280
     1
102
RTVSPropertyOp0
 70
     1
102
RTVSPropertyOp1
 70
     1
102
RTVSPropertyOp2
 70
     1
102
RTVSPropertyOp3
 70
     1
102
RTVSPropertyOp4
 70
     1
102
RTVSPropertyOp5
 70
     1
102
RTVSPropertyOp6
 70
     1
102
RTVSPropertyOp7
 70
     1
102
RTVSPropertyOp8
 70
     1
102
RTVSPropertyOp9
 70
     1
102
RTVSPropertyOp10
 70
     1
102
RTVSPropertyOp11
 70
     1
102
RTVSPropertyOp12
 70
     1
102
RTVSPropertyOp13
 70
     1
102
RTVSPropertyOp14
 70
     1
102
RTVSPropertyOp15
 70
     1
102
RTVSPropertyOp16
 70
     1
102
RTVSPropertyOp17
 70
     1
102
RTVSPropertyOp18
 70
     1
102
RTVSPropertyOp19
 70
     1
102
RTVSPropertyOp20
 70
     1
102
RTVSPropertyOp21
 70
     1
102
RTVSPropertyOp22
 70
     1
102
RTVSPropertyOp23
 70
     1
102
RTVSPropertyOp24
 70
     1
102
RTVSPropertyOp25
 70
     1
102
RTVSPropertyOp26
 70
     1
102
RTVSPropertyOp27
 70
     1
102
RTVSPropertyOp28
 70
     1
102
RTVSPropertyOp29
 70
     1
102
RTVSPropertyOp30
 70
     1
102
RTVSPropertyOp31
 70
     1
102
RTVSPropertyOp32
 70
     1
102
RTVSPropertyOp33
 70
     1
102
RTVSPropertyOp34
 70
     1
102
RTVSPropertyOp35
 70
     1
102
RTVSPropertyOp36
 70
     1
102
RTVSPropertyOp37
 70
     1
102
RTVSPropertyOp38
 70
     1
102
RTVSPropertyOp39
 70
     1
102
RTVSPropertyOp40
 70
     1
102
RTVSPropertyOp41
 70
     1
102
RTVSPropertyOp42
 70
     1
102
RTVSPropertyOp43
 70
     1
102
RTVSPropertyOp44
 70
     1
102
RTVSPropertyOp45
 70
     1
102
RTVSPropertyOp46
 70
     1
102
RTVSPropertyOp47
 70
     1
102
RTVSPropertyOp48
 70
     1
102
RTVSPropertyOp49
 70
     1
102
RTVSPropertyOp50
 70
     1
102
RTVSPropertyOp51
 70
     0
102
RTVSPropertyOp52
 70
     0
102
RTVSPropertyOp53
 70
     1
102
RTVSPropertyOp54
 70
     1
102
RTVSPropertyOp55
 70
     1
102
RTVSPropertyOp56
 70
     1
102
RTVSPropertyOp57
 70
     1
102
RTVSPost2010Prop28
280
     0
102
RTVSPost2010PropOp28
 70
     1
102
RTVSPost2010Prop29
280
     1
102
RTVSPost2010PropOp29
 70
     1
102
RTVSPost2010Prop30
280
     1
102
RTVSPost2010PropOp30
 70
     1
102
RTVSPost2010Prop31
280
     0
102
RTVSPost2010PropOp31
 70
     1
102
RTVSPost2010Prop32
280
     0
102
RTVSPost2010PropOp32
 70
     1
102
RTVSPost2010Prop33
280
     0
102
RTVSPost2010PropOp33
 70
     1
102
RTVSPost2010Prop34
280
     0
102
RTVSPost2010PropOp34
 70
     1
102
RTVSPost2010Prop35
280
     0
102
RTVSPost2010PropOp35
 70
     1
102
RTVSPost2010Prop36
280
     0
102
RTVSPost2010PropOp36
 70
     1
102
RTVSPost2010Prop37
 90
       50
102
RTVSPost2010PropOp37
 70
     1
102
RTVSPost2010Prop38
140
0.0
102
RTVSPost2010PropOp38
 70
     1
102
RTVSPost2010Prop39
140
1.0
102
RTVSPost2010PropOp39
 70
     1
102
RTVSPost2010Prop40
 90
        0
102
RTVSPost2010PropOp40
 70
     1
102
RTVSPost2010Prop41ColorIndex
 90
       18
102
RTVSPost2010Prop41ColorRGB
 90
        0
102
RTVSPost2010PropOp41
 70
     1
102
RTVSPost2010Prop42
 90
       50
102
RTVSPost2010PropOp42
 70
     1
102
RTVSPost2010Prop43
 90
        3
102
RTVSPost2010PropOp43
 70
     1
102
RTVSPost2010Prop44ColorIndex
 90
        5
102
RTVSPost2010Prop44ColorRGB
 90
      255
102
RTVSPost2010PropOp44
 70
     1
102
RTVSPost2010Prop45
280
     0
102
RTVSPost2010PropOp45
 70
     1
102
RTVSPost2010Prop46
 90
       50
102
RTVSPost2010PropOp46
 70
     1
102
RTVSPost2010Prop47
 90
       50
102
RTVSPost2010PropOp47
 70
     1
102
RTVSPost2010Prop48
 90
       50
102
RTVSPost2010PropOp48
 70
     1
102
RTVSPost2010Prop49
280
     0
102
RTVSPost2010PropOp49
 70
     1
102
RTVSPost2010Prop50
 90
       50
102
RTVSPost2010PropOp50
 70
     1
102
RTVSPost2010Prop51ColorIndex
 90
      256
102
RTVSPost2010Prop51ColorRGB
 90
-16777216
102
RTVSPost2010PropOp51
 70
     0
102
RTVSPost2010Prop52
140
1.0
102
RTVSPost2010PropOp52
 70
     0
102
RTVSPost2010Prop53
 90
        2
102
RTVSPost2010PropOp53
 70
     1
102
RTVSPost2010Prop54
  1
strokes_ogs.tif
102
RTVSPost2010PropOp54
 70
     1
102
RTVSPost2010Prop55
280
     0
102
RTVSPost2010PropOp55
 70
     1
102
RTVSPost2010Prop56
140
1.0
102
RTVSPost2010PropOp56
 70
     1
102
RTVSPost2010Prop57
140
1.0
102
RTVSPost2010PropOp57
 70
     1
  0
XRECORD
  5
385
102
{ACAD_REACTORS
330
384
102
}
330
384
100
AcDbXrecord
280
     1
102
RTVSPropertyOp0
 70
     1
102
RTVSPropertyOp1
 70
     1
102
RTVSPropertyOp2
 70
     1
102
RTVSPropertyOp3
 70
     1
102
RTVSPropertyOp4
 70
     1
102
RTVSPropertyOp5
 70
     1
102
RTVSPropertyOp6
 70
     1
102
RTVSPropertyOp7
 70
     1
102
RTVSPropertyOp8
 70
     1
102
RTVSPropertyOp9
 70
     1
102
RTVSPropertyOp10
 70
     1
102
RTVSPropertyOp11
 70
     1
102
RTVSPropertyOp12
 70
     1
102
RTVSPropertyOp13
 70
     1
102
RTVSPropertyOp14
 70
     1
102
RTVSPropertyOp15
 70
     1
102
RTVSPropertyOp16
 70
     1
102
RTVSPropertyOp17
 70
     1
102
RTVSPropertyOp18
 70
     1
102
RTVSPropertyOp19
 70
     1
102
RTVSPropertyOp20
 70
     1
102
RTVSPropertyOp21
 70
     1
102
RTVSPropertyOp22
 70
     1
102
RTVSPropertyOp23
 70
     1
102
RTVSPropertyOp24
 70
     1
102
RTVSPropertyOp25
 70
     1
102
RTVSPropertyOp26
 70
     1
102
RTVSPropertyOp27
 70
     1
102
RTVSPropertyOp28
 70
     1
102
RTVSPropertyOp29
 70
     1
102
RTVSPropertyOp30
 70
     1
102
RTVSPropertyOp31
 70
     1
102
RTVSPropertyOp32
 70
     1
102
RTVSPropertyOp33
 70
     1
102
RTVSPropertyOp34
 70
     1
102
RTVSPropertyOp35
 70
     1
102
RTVSPropertyOp36
 70
     1
102
RTVSPropertyOp37
 70
     1
102
RTVSPropertyOp38
 70
     1
102
RTVSPropertyOp39
 70
     1
102
RTVSPropertyOp40
 70
     1
102
RTVSPropertyOp41
 70
     1
102
RTVSPropertyOp42
 70
     1
102
RTVSPropertyOp43
 70
     1
102
RTVSPropertyOp44
 70
     1
102
RTVSPropertyOp45
 70
     1
102
RTVSPropertyOp46
 70
     1
102
RTVSPropertyOp47
 70
     1
102
RTVSPropertyOp48
 70
     1
102
RTVSPropertyOp49
 70
     1
102
RTVSPropertyOp50
 70
     1
102
RTVSPropertyOp51
 70
     0
102
RTVSPropertyOp52
 70
     0
102
RTVSPropertyOp53
 70
     1
102
RTVSPropertyOp54
 70
     1
102
RTVSPropertyOp55
 70
     1
102
RTVSPropertyOp56
 70
     1
102
RTVSPropertyOp57
 70
     1
102
RTVSPost2010Prop28
280
     0
102
RTVSPost2010PropOp28
 70
     1
102
RTVSPost2010Prop29
280
     1
102
RTVSPost2010PropOp29
 70
     1
102
RTVSPost2010Prop30
280
     1
102
RTVSPost2010PropOp30
 70
     1
102
RTVSPost2010Prop31
280
     0
102
RTVSPost2010PropOp31
 70
     1
102
RTVSPost2010Prop32
280
     0
102
RTVSPost2010PropOp32
 70
     1
102
RTVSPost2010Prop33
280
     0
102
RTVSPost2010PropOp33
 70
     1
102
RTVSPost2010Prop34
280
     0
102
RTVSPost2010PropOp34
 70
     1
102
RTVSPost2010Prop35
280
     0
102
RTVSPost2010PropOp35
 70
     1
102
RTVSPost2010Prop36
280
     0
102
RTVSPost2010PropOp36
 70
     1
102
RTVSPost2010Prop37
 90
       50
102
RTVSPost2010PropOp37
 70
     1
102
RTVSPost2010Prop38
140
0.0
102
RTVSPost2010PropOp38
 70
     1
102
RTVSPost2010Prop39
140
1.0
102
RTVSPost2010PropOp39
 70
     1
102
RTVSPost2010Prop40
 90
        0
102
RTVSPost2010PropOp40
 70
     1
102
RTVSPost2010Prop41ColorIndex
 90
       18
102
RTVSPost2010Prop41ColorRGB
 90
        0
102
RTVSPost2010PropOp41
 70
     1
102
RTVSPost2010Prop42
 90
       50
102
RTVSPost2010PropOp42
 70
     1
102
RTVSPost2010Prop43
 90
        3
102
RTVSPost2010PropOp43
 70
     1
102
RTVSPost2010Prop44ColorIndex
 90
        5
102
RTVSPost2010Prop44ColorRGB
 90
      255
102
RTVSPost2010PropOp44
 70
     1
102
RTVSPost2010Prop45
280
     0
102
RTVSPost2010PropOp45
 70
     1
102
RTVSPost2010Prop46
 90
       50
102
RTVSPost2010PropOp46
 70
     1
102
RTVSPost2010Prop47
 90
       50
102
RTVSPost2010PropOp47
 70
     1
102
RTVSPost2010Prop48
 90
       50
102
RTVSPost2010PropOp48
 70
     1
102
RTVSPost2010Prop49
280
     0
102
RTVSPost2010PropOp49
 70
     1
102
RTVSPost2010Prop50
 90
       50
102
RTVSPost2010PropOp50
 70
     1
102
RTVSPost2010Prop51ColorIndex
 90
      256
102
RTVSPost2010Prop51ColorRGB
 90
-16777216
102
RTVSPost2010PropOp51
 70
     0
102
RTVSPost2010Prop52
140
1.0
102
RTVSPost2010PropOp52
 70
     0
102
RTVSPost2010Prop53
 90
        2
102
RTVSPost2010PropOp53
 70
     1
102
RTVSPost2010Prop54
  1
strokes_ogs.tif
102
RTVSPost2010PropOp54
 70
     1
102
RTVSPost2010Prop55
280
     0
102
RTVSPost2010PropOp55
 70
     1
102
RTVSPost2010Prop56
140
1.0
102
RTVSPost2010PropOp56
 70
     1
102
RTVSPost2010Prop57
140
1.0
102
RTVSPost2010PropOp57
 70
     1
  0
XRECORD
  5
387
102
{ACAD_REACTORS
330
386
102
}
330
386
100
AcDbXrecord
280
     1
102
RTVSPropertyOp0
 70
     1
102
RTVSPropertyOp1
 70
     1
102
RTVSPropertyOp2
 70
     1
102
RTVSPropertyOp3
 70
     1
102
RTVSPropertyOp4
 70
     1
102
RTVSPropertyOp5
 70
     1
102
RTVSPropertyOp6
 70
     1
102
RTVSPropertyOp7
 70
     1
102
RTVSPropertyOp8
 70
     1
102
RTVSPropertyOp9
 70
     1
102
RTVSPropertyOp10
 70
     1
102
RTVSPropertyOp11
 70
     1
102
RTVSPropertyOp12
 70
     1
102
RTVSPropertyOp13
 70
     1
102
RTVSPropertyOp14
 70
     1
102
RTVSPropertyOp15
 70
     1
102
RTVSPropertyOp16
 70
     1
102
RTVSPropertyOp17
 70
     1
102
RTVSPropertyOp18
 70
     1
102
RTVSPropertyOp19
 70
     1
102
RTVSPropertyOp20
 70
     1
102
RTVSPropertyOp21
 70
     1
102
RTVSPropertyOp22
 70
     1
102
RTVSPropertyOp23
 70
     1
102
RTVSPropertyOp24
 70
     1
102
RTVSPropertyOp25
 70
     1
102
RTVSPropertyOp26
 70
     1
102
RTVSPropertyOp27
 70
     1
102
RTVSPropertyOp28
 70
     1
102
RTVSPropertyOp29
 70
     1
102
RTVSPropertyOp30
 70
     1
102
RTVSPropertyOp31
 70
     1
102
RTVSPropertyOp32
 70
     1
102
RTVSPropertyOp33
 70
     1
102
RTVSPropertyOp34
 70
     1
102
RTVSPropertyOp35
 70
     1
102
RTVSPropertyOp36
 70
     1
102
RTVSPropertyOp37
 70
     1
102
RTVSPropertyOp38
 70
     1
102
RTVSPropertyOp39
 70
     1
102
RTVSPropertyOp40
 70
     1
102
RTVSPropertyOp41
 70
     1
102
RTVSPropertyOp42
 70
     1
102
RTVSPropertyOp43
 70
     1
102
RTVSPropertyOp44
 70
     1
102
RTVSPropertyOp45
 70
     1
102
RTVSPropertyOp46
 70
     1
102
RTVSPropertyOp47
 70
     1
102
RTVSPropertyOp48
 70
     1
102
RTVSPropertyOp49
 70
     1
102
RTVSPropertyOp50
 70
     1
102
RTVSPropertyOp51
 70
     0
102
RTVSPropertyOp52
 70
     0
102
RTVSPropertyOp53
 70
     1
102
RTVSPropertyOp54
 70
     1
102
RTVSPropertyOp55
 70
     1
102
RTVSPropertyOp56
 70
     1
102
RTVSPropertyOp57
 70
     1
102
RTVSPost2010Prop28
280
     0
102
RTVSPost2010PropOp28
 70
     1
102
RTVSPost2010Prop29
280
     1
102
RTVSPost2010PropOp29
 70
     1
102
RTVSPost2010Prop30
280
     1
102
RTVSPost2010PropOp30
 70
     1
102
RTVSPost2010Prop31
280
     0
102
RTVSPost2010PropOp31
 70
     1
102
RTVSPost2010Prop32
280
     0
102
RTVSPost2010PropOp32
 70
     1
102
RTVSPost2010Prop33
280
     0
102
RTVSPost2010PropOp33
 70
     1
102
RTVSPost2010Prop34
280
     0
102
RTVSPost2010PropOp34
 70
     1
102
RTVSPost2010Prop35
280
     0
102
RTVSPost2010PropOp35
 70
     1
102
RTVSPost2010Prop36
280
     0
102
RTVSPost2010PropOp36
 70
     1
102
RTVSPost2010Prop37
 90
       50
102
RTVSPost2010PropOp37
 70
     1
102
RTVSPost2010Prop38
140
0.0
102
RTVSPost2010PropOp38
 70
     1
102
RTVSPost2010Prop39
140
1.0
102
RTVSPost2010PropOp39
 70
     1
102
RTVSPost2010Prop40
 90
        0
102
RTVSPost2010PropOp40
 70
     1
102
RTVSPost2010Prop41ColorIndex
 90
       18
102
RTVSPost2010Prop41ColorRGB
 90
        0
102
RTVSPost2010PropOp41
 70
     1
102
RTVSPost2010Prop42
 90
       50
102
RTVSPost2010PropOp42
 70
     1
102
RTVSPost2010Prop43
 90
        3
102
RTVSPost2010PropOp43
 70
     1
102
RTVSPost2010Prop44ColorIndex
 90
        5
102
RTVSPost2010Prop44ColorRGB
 90
      255
102
RTVSPost2010PropOp44
 70
     1
102
RTVSPost2010Prop45
280
     0
102
RTVSPost2010PropOp45
 70
     1
102
RTVSPost2010Prop46
 90
       50
102
RTVSPost2010PropOp46
 70
     1
102
RTVSPost2010Prop47
 90
       50
102
RTVSPost2010PropOp47
 70
     1
102
RTVSPost2010Prop48
 90
       50
102
RTVSPost2010PropOp48
 70
     1
102
RTVSPost2010Prop49
280
     0
102
RTVSPost2010PropOp49
 70
     1
102
RTVSPost2010Prop50
 90
       50
102
RTVSPost2010PropOp50
 70
     1
102
RTVSPost2010Prop51ColorIndex
 90
      256
102
RTVSPost2010Prop51ColorRGB
 90
-16777216
102
RTVSPost2010PropOp51
 70
     0
102
RTVSPost2010Prop52
140
1.0
102
RTVSPost2010PropOp52
 70
     0
102
RTVSPost2010Prop53
 90
        2
102
RTVSPost2010PropOp53
 70
     1
102
RTVSPost2010Prop54
  1
strokes_ogs.tif
102
RTVSPost2010PropOp54
 70
     1
102
RTVSPost2010Prop55
280
     0
102
RTVSPost2010PropOp55
 70
     1
102
RTVSPost2010Prop56
140
1.0
102
RTVSPost2010PropOp56
 70
     1
102
RTVSPost2010Prop57
140
1.0
102
RTVSPost2010PropOp57
 70
     1
  0
XRECORD
  5
389
102
{ACAD_REACTORS
330
388
102
}
330
388
100
AcDbXrecord
280
     1
102
RTVSPropertyOp0
 70
     1
102
RTVSPropertyOp1
 70
     1
102
RTVSPropertyOp2
 70
     1
102
RTVSPropertyOp3
 70
     1
102
RTVSPropertyOp4
 70
     1
102
RTVSPropertyOp5
 70
     1
102
RTVSPropertyOp6
 70
     1
102
RTVSPropertyOp7
 70
     1
102
RTVSPropertyOp8
 70
     1
102
RTVSPropertyOp9
 70
     1
102
RTVSPropertyOp10
 70
     1
102
RTVSPropertyOp11
 70
     1
102
RTVSPropertyOp12
 70
     1
102
RTVSPropertyOp13
 70
     1
102
RTVSPropertyOp14
 70
     1
102
RTVSPropertyOp15
 70
     1
102
RTVSPropertyOp16
 70
     1
102
RTVSPropertyOp17
 70
     1
102
RTVSPropertyOp18
 70
     1
102
RTVSPropertyOp19
 70
     1
102
RTVSPropertyOp20
 70
     1
102
RTVSPropertyOp21
 70
     1
102
RTVSPropertyOp22
 70
     1
102
RTVSPropertyOp23
 70
     1
102
RTVSPropertyOp24
 70
     1
102
RTVSPropertyOp25
 70
     1
102
RTVSPropertyOp26
 70
     1
102
RTVSPropertyOp27
 70
     1
102
RTVSPropertyOp28
 70
     1
102
RTVSPropertyOp29
 70
     1
102
RTVSPropertyOp30
 70
     1
102
RTVSPropertyOp31
 70
     1
102
RTVSPropertyOp32
 70
     1
102
RTVSPropertyOp33
 70
     1
102
RTVSPropertyOp34
 70
     1
102
RTVSPropertyOp35
 70
     1
102
RTVSPropertyOp36
 70
     1
102
RTVSPropertyOp37
 70
     1
102
RTVSPropertyOp38
 70
     1
102
RTVSPropertyOp39
 70
     1
102
RTVSPropertyOp40
 70
     1
102
RTVSPropertyOp41
 70
     1
102
RTVSPropertyOp42
 70
     1
102
RTVSPropertyOp43
 70
     1
102
RTVSPropertyOp44
 70
     1
102
RTVSPropertyOp45
 70
     1
102
RTVSPropertyOp46
 70
     1
102
RTVSPropertyOp47
 70
     1
102
RTVSPropertyOp48
 70
     1
102
RTVSPropertyOp49
 70
     1
102
RTVSPropertyOp50
 70
     1
102
RTVSPropertyOp51
 70
     0
102
RTVSPropertyOp52
 70
     0
102
RTVSPropertyOp53
 70
     1
102
RTVSPropertyOp54
 70
     1
102
RTVSPropertyOp55
 70
     1
102
RTVSPropertyOp56
 70
     1
102
RTVSPropertyOp57
 70
     1
102
RTVSPost2010Prop28
280
     0
102
RTVSPost2010PropOp28
 70
     1
102
RTVSPost2010Prop29
280
     1
102
RTVSPost2010PropOp29
 70
     1
102
RTVSPost2010Prop30
280
     1
102
RTVSPost2010PropOp30
 70
     1
102
RTVSPost2010Prop31
280
     0
102
RTVSPost2010PropOp31
 70
     1
102
RTVSPost2010Prop32
280
     0
102
RTVSPost2010PropOp32
 70
     1
102
RTVSPost2010Prop33
280
     0
102
RTVSPost2010PropOp33
 70
     1
102
RTVSPost2010Prop34
280
     0
102
RTVSPost2010PropOp34
 70
     1
102
RTVSPost2010Prop35
280
     0
102
RTVSPost2010PropOp35
 70
     1
102
RTVSPost2010Prop36
280
     0
102
RTVSPost2010PropOp36
 70
     1
102
RTVSPost2010Prop37
 90
       50
102
RTVSPost2010PropOp37
 70
     1
102
RTVSPost2010Prop38
140
0.0
102
RTVSPost2010PropOp38
 70
     1
102
RTVSPost2010Prop39
140
1.0
102
RTVSPost2010PropOp39
 70
     1
102
RTVSPost2010Prop40
 90
        0
102
RTVSPost2010PropOp40
 70
     1
102
RTVSPost2010Prop41ColorIndex
 90
       18
102
RTVSPost2010Prop41ColorRGB
 90
        0
102
RTVSPost2010PropOp41
 70
     1
102
RTVSPost2010Prop42
 90
       50
102
RTVSPost2010PropOp42
 70
     1
102
RTVSPost2010Prop43
 90
        3
102
RTVSPost2010PropOp43
 70
     1
102
RTVSPost2010Prop44ColorIndex
 90
        5
102
RTVSPost2010Prop44ColorRGB
 90
      255
102
RTVSPost2010PropOp44
 70
     1
102
RTVSPost2010Prop45
280
     0
102
RTVSPost2010PropOp45
 70
     1
102
RTVSPost2010Prop46
 90
       50
102
RTVSPost2010PropOp46
 70
     1
102
RTVSPost2010Prop47
 90
       50
102
RTVSPost2010PropOp47
 70
     1
102
RTVSPost2010Prop48
 90
       50
102
RTVSPost2010PropOp48
 70
     1
102
RTVSPost2010Prop49
280
     0
102
RTVSPost2010PropOp49
 70
     1
102
RTVSPost2010Prop50
 90
       50
102
RTVSPost2010PropOp50
 70
     1
102
RTVSPost2010Prop51ColorIndex
 90
      256
102
RTVSPost2010Prop51ColorRGB
 90
-16777216
102
RTVSPost2010PropOp51
 70
     0
102
RTVSPost2010Prop52
140
1.0
102
RTVSPost2010PropOp52
 70
     0
102
RTVSPost2010Prop53
 90
        2
102
RTVSPost2010PropOp53
 70
     1
102
RTVSPost2010Prop54
  1
strokes_ogs.tif
102
RTVSPost2010PropOp54
 70
     1
102
RTVSPost2010Prop55
280
     0
102
RTVSPost2010PropOp55
 70
     1
102
RTVSPost2010Prop56
140
1.0
102
RTVSPost2010PropOp56
 70
     1
102
RTVSPost2010Prop57
140
1.0
102
RTVSPost2010PropOp57
 70
     1
  0
XRECORD
  5
38F
102
{ACAD_REACTORS
330
38E
102
}
330
38E
100
AcDbXrecord
280
     1
102
RTVSPropertyOp0
 70
     1
102
RTVSPropertyOp1
 70
     1
102
RTVSPropertyOp2
 70
     1
102
RTVSPropertyOp3
 70
     1
102
RTVSPropertyOp4
 70
     1
102
RTVSPropertyOp5
 70
     1
102
RTVSPropertyOp6
 70
     1
102
RTVSPropertyOp7
 70
     1
102
RTVSPropertyOp8
 70
     1
102
RTVSPropertyOp9
 70
     1
102
RTVSPropertyOp10
 70
     1
102
RTVSPropertyOp11
 70
     1
102
RTVSPropertyOp12
 70
     1
102
RTVSPropertyOp13
 70
     1
102
RTVSPropertyOp14
 70
     1
102
RTVSPropertyOp15
 70
     1
102
RTVSPropertyOp16
 70
     1
102
RTVSPropertyOp17
 70
     1
102
RTVSPropertyOp18
 70
     1
102
RTVSPropertyOp19
 70
     1
102
RTVSPropertyOp20
 70
     1
102
RTVSPropertyOp21
 70
     1
102
RTVSPropertyOp22
 70
     1
102
RTVSPropertyOp23
 70
     1
102
RTVSPropertyOp24
 70
     1
102
RTVSPropertyOp25
 70
     1
102
RTVSPropertyOp26
 70
     1
102
RTVSPropertyOp27
 70
     1
102
RTVSPropertyOp28
 70
     1
102
RTVSPropertyOp29
 70
     1
102
RTVSPropertyOp30
 70
     1
102
RTVSPropertyOp31
 70
     1
102
RTVSPropertyOp32
 70
     1
102
RTVSPropertyOp33
 70
     1
102
RTVSPropertyOp34
 70
     1
102
RTVSPropertyOp35
 70
     1
102
RTVSPropertyOp36
 70
     1
102
RTVSPropertyOp37
 70
     1
102
RTVSPropertyOp38
 70
     1
102
RTVSPropertyOp39
 70
     1
102
RTVSPropertyOp40
 70
     1
102
RTVSPropertyOp41
 70
     1
102
RTVSPropertyOp42
 70
     1
102
RTVSPropertyOp43
 70
     1
102
RTVSPropertyOp44
 70
     1
102
RTVSPropertyOp45
 70
     1
102
RTVSPropertyOp46
 70
     1
102
RTVSPropertyOp47
 70
     1
102
RTVSPropertyOp48
 70
     1
102
RTVSPropertyOp49
 70
     1
102
RTVSPropertyOp50
 70
     1
102
RTVSPropertyOp51
 70
     0
102
RTVSPropertyOp52
 70
     0
102
RTVSPropertyOp53
 70
     1
102
RTVSPropertyOp54
 70
     1
102
RTVSPropertyOp55
 70
     1
102
RTVSPropertyOp56
 70
     1
102
RTVSPropertyOp57
 70
     1
102
RTVSPost2010Prop28
280
     0
102
RTVSPost2010PropOp28
 70
     1
102
RTVSPost2010Prop29
280
     1
102
RTVSPost2010PropOp29
 70
     1
102
RTVSPost2010Prop30
280
     1
102
RTVSPost2010PropOp30
 70
     1
102
RTVSPost2010Prop31
280
     0
102
RTVSPost2010PropOp31
 70
     1
102
RTVSPost2010Prop32
280
     0
102
RTVSPost2010PropOp32
 70
     1
102
RTVSPost2010Prop33
280
     0
102
RTVSPost2010PropOp33
 70
     1
102
RTVSPost2010Prop34
280
     0
102
RTVSPost2010PropOp34
 70
     1
102
RTVSPost2010Prop35
280
     0
102
RTVSPost2010PropOp35
 70
     1
102
RTVSPost2010Prop36
280
     0
102
RTVSPost2010PropOp36
 70
     1
102
RTVSPost2010Prop37
 90
       50
102
RTVSPost2010PropOp37
 70
     1
102
RTVSPost2010Prop38
140
0.0
102
RTVSPost2010PropOp38
 70
     1
102
RTVSPost2010Prop39
140
1.0
102
RTVSPost2010PropOp39
 70
     1
102
RTVSPost2010Prop40
 90
        0
102
RTVSPost2010PropOp40
 70
     1
102
RTVSPost2010Prop41ColorIndex
 90
       18
102
RTVSPost2010Prop41ColorRGB
 90
        0
102
RTVSPost2010PropOp41
 70
     1
102
RTVSPost2010Prop42
 90
       50
102
RTVSPost2010PropOp42
 70
     1
102
RTVSPost2010Prop43
 90
        3
102
RTVSPost2010PropOp43
 70
     1
102
RTVSPost2010Prop44ColorIndex
 90
        5
102
RTVSPost2010Prop44ColorRGB
 90
      255
102
RTVSPost2010PropOp44
 70
     1
102
RTVSPost2010Prop45
280
     0
102
RTVSPost2010PropOp45
 70
     1
102
RTVSPost2010Prop46
 90
       50
102
RTVSPost2010PropOp46
 70
     1
102
RTVSPost2010Prop47
 90
       50
102
RTVSPost2010PropOp47
 70
     1
102
RTVSPost2010Prop48
 90
       50
102
RTVSPost2010PropOp48
 70
     1
102
RTVSPost2010Prop49
280
     0
102
RTVSPost2010PropOp49
 70
     1
102
RTVSPost2010Prop50
 90
       50
102
RTVSPost2010PropOp50
 70
     1
102
RTVSPost2010Prop51ColorIndex
 90
      256
102
RTVSPost2010Prop51ColorRGB
 90
-16777216
102
RTVSPost2010PropOp51
 70
     0
102
RTVSPost2010Prop52
140
1.0
102
RTVSPost2010PropOp52
 70
     0
102
RTVSPost2010Prop53
 90
        2
102
RTVSPost2010PropOp53
 70
     1
102
RTVSPost2010Prop54
  1
strokes_ogs.tif
102
RTVSPost2010PropOp54
 70
     1
102
RTVSPost2010Prop55
280
     0
102
RTVSPost2010PropOp55
 70
     1
102
RTVSPost2010Prop56
140
1.0
102
RTVSPost2010PropOp56
 70
     1
102
RTVSPost2010Prop57
140
1.0
102
RTVSPost2010PropOp57
 70
     1
  0
XRECORD
  5
3A3
102
{ACAD_REACTORS
330
3A2
102
}
330
3A2
100
AcDbXrecord
280
     1
102
RTVSPropertyOp0
 70
     0
102
RTVSPropertyOp1
 70
     0
102
RTVSPropertyOp2
 70
     0
102
RTVSPropertyOp3
 70
     0
102
RTVSPropertyOp4
 70
     0
102
RTVSPropertyOp5
 70
     0
102
RTVSPropertyOp6
 70
     0
102
RTVSPropertyOp7
 70
     0
102
RTVSPropertyOp8
 70
     0
102
RTVSPropertyOp9
 70
     0
102
RTVSPropertyOp10
 70
     0
102
RTVSPropertyOp11
 70
     0
102
RTVSPropertyOp12
 70
     0
102
RTVSPropertyOp13
 70
     0
102
RTVSPropertyOp14
 70
     2
102
RTVSPropertyOp15
 70
     0
102
RTVSPropertyOp16
 70
     0
102
RTVSPropertyOp17
 70
     0
102
RTVSPropertyOp18
 70
     0
102
RTVSPropertyOp19
 70
     0
102
RTVSPropertyOp20
 70
     0
102
RTVSPropertyOp21
 70
     0
102
RTVSPropertyOp22
 70
     0
102
RTVSPropertyOp23
 70
     0
102
RTVSPropertyOp24
 70
     0
102
RTVSPropertyOp25
 70
     0
102
RTVSPropertyOp26
 70
     0
102
RTVSPropertyOp27
 70
     0
102
RTVSPropertyOp28
 70
     0
102
RTVSPropertyOp29
 70
     0
102
RTVSPropertyOp30
 70
     0
102
RTVSPropertyOp31
 70
     0
102
RTVSPropertyOp32
 70
     0
102
RTVSPropertyOp33
 70
     0
102
RTVSPropertyOp34
 70
     0
102
RTVSPropertyOp35
 70
     0
102
RTVSPropertyOp36
 70
     0
102
RTVSPropertyOp37
 70
     0
102
RTVSPropertyOp38
 70
     0
102
RTVSPropertyOp39
 70
     0
102
RTVSPropertyOp40
 70
     0
102
RTVSPropertyOp41
 70
     0
102
RTVSPropertyOp42
 70
     0
102
RTVSPropertyOp43
 70
     0
102
RTVSPropertyOp44
 70
     0
102
RTVSPropertyOp45
 70
     0
102
RTVSPropertyOp46
 70
     0
102
RTVSPropertyOp47
 70
     0
102
RTVSPropertyOp48
 70
     0
102
RTVSPropertyOp49
 70
     0
102
RTVSPropertyOp50
 70
     0
102
RTVSPropertyOp51
 70
     0
102
RTVSPropertyOp52
 70
     0
102
RTVSPropertyOp53
 70
     0
102
RTVSPropertyOp54
 70
     0
102
RTVSPropertyOp55
 70
     0
102
RTVSPropertyOp56
 70
     0
102
RTVSPropertyOp57
 70
     0
102
RTVSPost2010Prop28
280
     0
102
RTVSPost2010PropOp28
 70
     0
102
RTVSPost2010Prop29
280
     1
102
RTVSPost2010PropOp29
 70
     0
102
RTVSPost2010Prop30
280
     1
102
RTVSPost2010PropOp30
 70
     0
102
RTVSPost2010Prop31
280
     0
102
RTVSPost2010PropOp31
 70
     0
102
RTVSPost2010Prop32
280
     0
102
RTVSPost2010PropOp32
 70
     0
102
RTVSPost2010Prop33
280
     0
102
RTVSPost2010PropOp33
 70
     0
102
RTVSPost2010Prop34
280
     0
102
RTVSPost2010PropOp34
 70
     0
102
RTVSPost2010Prop35
280
     0
102
RTVSPost2010PropOp35
 70
     0
102
RTVSPost2010Prop36
280
     0
102
RTVSPost2010PropOp36
 70
     0
102
RTVSPost2010Prop37
 90
       50
102
RTVSPost2010PropOp37
 70
     0
102
RTVSPost2010Prop38
140
0.0
102
RTVSPost2010PropOp38
 70
     0
102
RTVSPost2010Prop39
140
1.0
102
RTVSPost2010PropOp39
 70
     0
102
RTVSPost2010Prop40
 90
        0
102
RTVSPost2010PropOp40
 70
     0
102
RTVSPost2010Prop41ColorIndex
 90
       18
102
RTVSPost2010Prop41ColorRGB
 90
        0
102
RTVSPost2010PropOp41
 70
     0
102
RTVSPost2010Prop42
 90
       50
102
RTVSPost2010PropOp42
 70
     0
102
RTVSPost2010Prop43
 90
        3
102
RTVSPost2010PropOp43
 70
     0
102
RTVSPost2010Prop44ColorIndex
 90
        5
102
RTVSPost2010Prop44ColorRGB
 90
      255
102
RTVSPost2010PropOp44
 70
     0
102
RTVSPost2010Prop45
280
     0
102
RTVSPost2010PropOp45
 70
     0
102
RTVSPost2010Prop46
 90
       50
102
RTVSPost2010PropOp46
 70
     0
102
RTVSPost2010Prop47
 90
       50
102
RTVSPost2010PropOp47
 70
     0
102
RTVSPost2010Prop48
 90
       50
102
RTVSPost2010PropOp48
 70
     0
102
RTVSPost2010Prop49
280
     0
102
RTVSPost2010PropOp49
 70
     0
102
RTVSPost2010Prop50
 90
       50
102
RTVSPost2010PropOp50
 70
     0
102
RTVSPost2010Prop51ColorIndex
 90
      256
102
RTVSPost2010Prop51ColorRGB
 90
-16777216
102
RTVSPost2010PropOp51
 70
     0
102
RTVSPost2010Prop52
140
1.0
102
RTVSPost2010PropOp52
 70
     0
102
RTVSPost2010Prop53
 90
        2
102
RTVSPost2010PropOp53
 70
     0
102
RTVSPost2010Prop54
  1
strokes_ogs.tif
102
RTVSPost2010PropOp54
 70
     0
102
RTVSPost2010Prop55
280
     0
102
RTVSPost2010PropOp55
 70
     0
102
RTVSPost2010Prop56
140
1.0
102
RTVSPost2010PropOp56
 70
     0
102
RTVSPost2010Prop57
140
1.0
102
RTVSPost2010PropOp57
 70
     0
  0
XRECORD
  5
39D
102
{ACAD_REACTORS
330
39C
102
}
330
39C
100
AcDbXrecord
280
     1
102
RTVSPropertyOp0
 70
     1
102
RTVSPropertyOp1
 70
     1
102
RTVSPropertyOp2
 70
     1
102
RTVSPropertyOp3
 70
     1
102
RTVSPropertyOp4
 70
     1
102
RTVSPropertyOp5
 70
     1
102
RTVSPropertyOp6
 70
     1
102
RTVSPropertyOp7
 70
     1
102
RTVSPropertyOp8
 70
     1
102
RTVSPropertyOp9
 70
     1
102
RTVSPropertyOp10
 70
     1
102
RTVSPropertyOp11
 70
     1
102
RTVSPropertyOp12
 70
     1
102
RTVSPropertyOp13
 70
     1
102
RTVSPropertyOp14
 70
     1
102
RTVSPropertyOp15
 70
     1
102
RTVSPropertyOp16
 70
     1
102
RTVSPropertyOp17
 70
     1
102
RTVSPropertyOp18
 70
     1
102
RTVSPropertyOp19
 70
     1
102
RTVSPropertyOp20
 70
     1
102
RTVSPropertyOp21
 70
     1
102
RTVSPropertyOp22
 70
     1
102
RTVSPropertyOp23
 70
     1
102
RTVSPropertyOp24
 70
     1
102
RTVSPropertyOp25
 70
     1
102
RTVSPropertyOp26
 70
     1
102
RTVSPropertyOp27
 70
     1
102
RTVSPropertyOp28
 70
     1
102
RTVSPropertyOp29
 70
     1
102
RTVSPropertyOp30
 70
     1
102
RTVSPropertyOp31
 70
     1
102
RTVSPropertyOp32
 70
     1
102
RTVSPropertyOp33
 70
     1
102
RTVSPropertyOp34
 70
     1
102
RTVSPropertyOp35
 70
     1
102
RTVSPropertyOp36
 70
     1
102
RTVSPropertyOp37
 70
     1
102
RTVSPropertyOp38
 70
     1
102
RTVSPropertyOp39
 70
     1
102
RTVSPropertyOp40
 70
     1
102
RTVSPropertyOp41
 70
     1
102
RTVSPropertyOp42
 70
     1
102
RTVSPropertyOp43
 70
     1
102
RTVSPropertyOp44
 70
     1
102
RTVSPropertyOp45
 70
     1
102
RTVSPropertyOp46
 70
     1
102
RTVSPropertyOp47
 70
     1
102
RTVSPropertyOp48
 70
     1
102
RTVSPropertyOp49
 70
     1
102
RTVSPropertyOp50
 70
     1
102
RTVSPropertyOp51
 70
     0
102
RTVSPropertyOp52
 70
     0
102
RTVSPropertyOp53
 70
     1
102
RTVSPropertyOp54
 70
     1
102
RTVSPropertyOp55
 70
     1
102
RTVSPropertyOp56
 70
     1
102
RTVSPropertyOp57
 70
     1
102
RTVSPost2010Prop28
280
     0
102
RTVSPost2010PropOp28
 70
     1
102
RTVSPost2010Prop29
280
     1
102
RTVSPost2010PropOp29
 70
     1
102
RTVSPost2010Prop30
280
     1
102
RTVSPost2010PropOp30
 70
     1
102
RTVSPost2010Prop31
280
     0
102
RTVSPost2010PropOp31
 70
     1
102
RTVSPost2010Prop32
280
     0
102
RTVSPost2010PropOp32
 70
     1
102
RTVSPost2010Prop33
280
     0
102
RTVSPost2010PropOp33
 70
     1
102
RTVSPost2010Prop34
280
     0
102
RTVSPost2010PropOp34
 70
     1
102
RTVSPost2010Prop35
280
     0
102
RTVSPost2010PropOp35
 70
     1
102
RTVSPost2010Prop36
280
     0
102
RTVSPost2010PropOp36
 70
     1
102
RTVSPost2010Prop37
 90
       50
102
RTVSPost2010PropOp37
 70
     1
102
RTVSPost2010Prop38
140
0.0
102
RTVSPost2010PropOp38
 70
     1
102
RTVSPost2010Prop39
140
1.0
102
RTVSPost2010PropOp39
 70
     1
102
RTVSPost2010Prop40
 90
        0
102
RTVSPost2010PropOp40
 70
     1
102
RTVSPost2010Prop41ColorIndex
 90
       18
102
RTVSPost2010Prop41ColorRGB
 90
        0
102
RTVSPost2010PropOp41
 70
     1
102
RTVSPost2010Prop42
 90
       50
102
RTVSPost2010PropOp42
 70
     1
102
RTVSPost2010Prop43
 90
        3
102
RTVSPost2010PropOp43
 70
     1
102
RTVSPost2010Prop44ColorIndex
 90
        5
102
RTVSPost2010Prop44ColorRGB
 90
      255
102
RTVSPost2010PropOp44
 70
     1
102
RTVSPost2010Prop45
280
     0
102
RTVSPost2010PropOp45
 70
     1
102
RTVSPost2010Prop46
 90
       50
102
RTVSPost2010PropOp46
 70
     1
102
RTVSPost2010Prop47
 90
       50
102
RTVSPost2010PropOp47
 70
     1
102
RTVSPost2010Prop48
 90
       50
102
RTVSPost2010PropOp48
 70
     1
102
RTVSPost2010Prop49
280
     0
102
RTVSPost2010PropOp49
 70
     1
102
RTVSPost2010Prop50
 90
       50
102
RTVSPost2010PropOp50
 70
     1
102
RTVSPost2010Prop51ColorIndex
 90
      256
102
RTVSPost2010Prop51ColorRGB
 90
-16777216
102
RTVSPost2010PropOp51
 70
     0
102
RTVSPost2010Prop52
140
1.0
102
RTVSPost2010PropOp52
 70
     0
102
RTVSPost2010Prop53
 90
        2
102
RTVSPost2010PropOp53
 70
     1
102
RTVSPost2010Prop54
  1
strokes_ogs.tif
102
RTVSPost2010PropOp54
 70
     1
102
RTVSPost2010Prop55
280
     0
102
RTVSPost2010PropOp55
 70
     1
102
RTVSPost2010Prop56
140
1.0
102
RTVSPost2010PropOp56
 70
     1
102
RTVSPost2010Prop57
140
1.0
102
RTVSPost2010PropOp57
 70
     1
  0
XRECORD
  5
3A5
102
{ACAD_REACTORS
330
3A4
102
}
330
3A4
100
AcDbXrecord
280
     1
102
RTVSPropertyOp0
 70
     0
102
RTVSPropertyOp1
 70
     0
102
RTVSPropertyOp2
 70
     0
102
RTVSPropertyOp3
 70
     0
102
RTVSPropertyOp4
 70
     0
102
RTVSPropertyOp5
 70
     0
102
RTVSPropertyOp6
 70
     0
102
RTVSPropertyOp7
 70
     0
102
RTVSPropertyOp8
 70
     0
102
RTVSPropertyOp9
 70
     0
102
RTVSPropertyOp10
 70
     0
102
RTVSPropertyOp11
 70
     0
102
RTVSPropertyOp12
 70
     0
102
RTVSPropertyOp13
 70
     0
102
RTVSPropertyOp14
 70
     2
102
RTVSPropertyOp15
 70
     0
102
RTVSPropertyOp16
 70
     0
102
RTVSPropertyOp17
 70
     0
102
RTVSPropertyOp18
 70
     0
102
RTVSPropertyOp19
 70
     0
102
RTVSPropertyOp20
 70
     0
102
RTVSPropertyOp21
 70
     0
102
RTVSPropertyOp22
 70
     0
102
RTVSPropertyOp23
 70
     0
102
RTVSPropertyOp24
 70
     0
102
RTVSPropertyOp25
 70
     0
102
RTVSPropertyOp26
 70
     0
102
RTVSPropertyOp27
 70
     0
102
RTVSPropertyOp28
 70
     0
102
RTVSPropertyOp29
 70
     0
102
RTVSPropertyOp30
 70
     0
102
RTVSPropertyOp31
 70
     0
102
RTVSPropertyOp32
 70
     0
102
RTVSPropertyOp33
 70
     0
102
RTVSPropertyOp34
 70
     0
102
RTVSPropertyOp35
 70
     0
102
RTVSPropertyOp36
 70
     0
102
RTVSPropertyOp37
 70
     0
102
RTVSPropertyOp38
 70
     0
102
RTVSPropertyOp39
 70
     0
102
RTVSPropertyOp40
 70
     0
102
RTVSPropertyOp41
 70
     0
102
RTVSPropertyOp42
 70
     0
102
RTVSPropertyOp43
 70
     0
102
RTVSPropertyOp44
 70
     0
102
RTVSPropertyOp45
 70
     0
102
RTVSPropertyOp46
 70
     0
102
RTVSPropertyOp47
 70
     0
102
RTVSPropertyOp48
 70
     0
102
RTVSPropertyOp49
 70
     0
102
RTVSPropertyOp50
 70
     0
102
RTVSPropertyOp51
 70
     0
102
RTVSPropertyOp52
 70
     0
102
RTVSPropertyOp53
 70
     0
102
RTVSPropertyOp54
 70
     0
102
RTVSPropertyOp55
 70
     0
102
RTVSPropertyOp56
 70
     0
102
RTVSPropertyOp57
 70
     0
102
RTVSPost2010Prop28
280
     0
102
RTVSPost2010PropOp28
 70
     0
102
RTVSPost2010Prop29
280
     1
102
RTVSPost2010PropOp29
 70
     0
102
RTVSPost2010Prop30
280
     1
102
RTVSPost2010PropOp30
 70
     0
102
RTVSPost2010Prop31
280
     0
102
RTVSPost2010PropOp31
 70
     0
102
RTVSPost2010Prop32
280
     0
102
RTVSPost2010PropOp32
 70
     0
102
RTVSPost2010Prop33
280
     0
102
RTVSPost2010PropOp33
 70
     0
102
RTVSPost2010Prop34
280
     0
102
RTVSPost2010PropOp34
 70
     0
102
RTVSPost2010Prop35
280
     0
102
RTVSPost2010PropOp35
 70
     0
102
RTVSPost2010Prop36
280
     0
102
RTVSPost2010PropOp36
 70
     0
102
RTVSPost2010Prop37
 90
       50
102
RTVSPost2010PropOp37
 70
     0
102
RTVSPost2010Prop38
140
0.0
102
RTVSPost2010PropOp38
 70
     0
102
RTVSPost2010Prop39
140
1.0
102
RTVSPost2010PropOp39
 70
     0
102
RTVSPost2010Prop40
 90
        0
102
RTVSPost2010PropOp40
 70
     0
102
RTVSPost2010Prop41ColorIndex
 90
       18
102
RTVSPost2010Prop41ColorRGB
 90
        0
102
RTVSPost2010PropOp41
 70
     0
102
RTVSPost2010Prop42
 90
       50
102
RTVSPost2010PropOp42
 70
     0
102
RTVSPost2010Prop43
 90
        3
102
RTVSPost2010PropOp43
 70
     0
102
RTVSPost2010Prop44ColorIndex
 90
        5
102
RTVSPost2010Prop44ColorRGB
 90
      255
102
RTVSPost2010PropOp44
 70
     0
102
RTVSPost2010Prop45
280
     0
102
RTVSPost2010PropOp45
 70
     0
102
RTVSPost2010Prop46
 90
       50
102
RTVSPost2010PropOp46
 70
     0
102
RTVSPost2010Prop47
 90
       50
102
RTVSPost2010PropOp47
 70
     0
102
RTVSPost2010Prop48
 90
       50
102
RTVSPost2010PropOp48
 70
     0
102
RTVSPost2010Prop49
280
     0
102
RTVSPost2010PropOp49
 70
     0
102
RTVSPost2010Prop50
 90
       50
102
RTVSPost2010PropOp50
 70
     0
102
RTVSPost2010Prop51ColorIndex
 90
      256
102
RTVSPost2010Prop51ColorRGB
 90
-16777216
102
RTVSPost2010PropOp51
 70
     0
102
RTVSPost2010Prop52
140
1.0
102
RTVSPost2010PropOp52
 70
     0
102
RTVSPost2010Prop53
 90
        2
102
RTVSPost2010PropOp53
 70
     0
102
RTVSPost2010Prop54
  1
strokes_ogs.tif
102
RTVSPost2010PropOp54
 70
     0
102
RTVSPost2010Prop55
280
     0
102
RTVSPost2010PropOp55
 70
     0
102
RTVSPost2010Prop56
140
1.0
102
RTVSPost2010PropOp56
 70
     0
102
RTVSPost2010Prop57
140
1.0
102
RTVSPost2010PropOp57
 70
     0
  0
XRECORD
  5
393
102
{ACAD_REACTORS
330
392
102
}
330
392
100
AcDbXrecord
280
     1
102
RTVSPropertyOp0
 70
     1
102
RTVSPropertyOp1
 70
     1
102
RTVSPropertyOp2
 70
     1
102
RTVSPropertyOp3
 70
     1
102
RTVSPropertyOp4
 70
     1
102
RTVSPropertyOp5
 70
     1
102
RTVSPropertyOp6
 70
     1
102
RTVSPropertyOp7
 70
     1
102
RTVSPropertyOp8
 70
     1
102
RTVSPropertyOp9
 70
     1
102
RTVSPropertyOp10
 70
     1
102
RTVSPropertyOp11
 70
     1
102
RTVSPropertyOp12
 70
     1
102
RTVSPropertyOp13
 70
     1
102
RTVSPropertyOp14
 70
     1
102
RTVSPropertyOp15
 70
     1
102
RTVSPropertyOp16
 70
     1
102
RTVSPropertyOp17
 70
     1
102
RTVSPropertyOp18
 70
     1
102
RTVSPropertyOp19
 70
     1
102
RTVSPropertyOp20
 70
     1
102
RTVSPropertyOp21
 70
     1
102
RTVSPropertyOp22
 70
     1
102
RTVSPropertyOp23
 70
     1
102
RTVSPropertyOp24
 70
     1
102
RTVSPropertyOp25
 70
     1
102
RTVSPropertyOp26
 70
     1
102
RTVSPropertyOp27
 70
     1
102
RTVSPropertyOp28
 70
     1
102
RTVSPropertyOp29
 70
     1
102
RTVSPropertyOp30
 70
     1
102
RTVSPropertyOp31
 70
     1
102
RTVSPropertyOp32
 70
     1
102
RTVSPropertyOp33
 70
     1
102
RTVSPropertyOp34
 70
     1
102
RTVSPropertyOp35
 70
     1
102
RTVSPropertyOp36
 70
     1
102
RTVSPropertyOp37
 70
     1
102
RTVSPropertyOp38
 70
     1
102
RTVSPropertyOp39
 70
     1
102
RTVSPropertyOp40
 70
     1
102
RTVSPropertyOp41
 70
     1
102
RTVSPropertyOp42
 70
     1
102
RTVSPropertyOp43
 70
     1
102
RTVSPropertyOp44
 70
     1
102
RTVSPropertyOp45
 70
     1
102
RTVSPropertyOp46
 70
     1
102
RTVSPropertyOp47
 70
     1
102
RTVSPropertyOp48
 70
     1
102
RTVSPropertyOp49
 70
     1
102
RTVSPropertyOp50
 70
     1
102
RTVSPropertyOp51
 70
     0
102
RTVSPropertyOp52
 70
     0
102
RTVSPropertyOp53
 70
     1
102
RTVSPropertyOp54
 70
     1
102
RTVSPropertyOp55
 70
     1
102
RTVSPropertyOp56
 70
     1
102
RTVSPropertyOp57
 70
     1
102
RTVSPost2010Prop28
280
     0
102
RTVSPost2010PropOp28
 70
     1
102
RTVSPost2010Prop29
280
     1
102
RTVSPost2010PropOp29
 70
     1
102
RTVSPost2010Prop30
280
     1
102
RTVSPost2010PropOp30
 70
     1
102
RTVSPost2010Prop31
280
     0
102
RTVSPost2010PropOp31
 70
     1
102
RTVSPost2010Prop32
280
     0
102
RTVSPost2010PropOp32
 70
     1
102
RTVSPost2010Prop33
280
     0
102
RTVSPost2010PropOp33
 70
     1
102
RTVSPost2010Prop34
280
     0
102
RTVSPost2010PropOp34
 70
     1
102
RTVSPost2010Prop35
280
     0
102
RTVSPost2010PropOp35
 70
     1
102
RTVSPost2010Prop36
280
     0
102
RTVSPost2010PropOp36
 70
     1
102
RTVSPost2010Prop37
 90
       50
102
RTVSPost2010PropOp37
 70
     1
102
RTVSPost2010Prop38
140
0.0
102
RTVSPost2010PropOp38
 70
     1
102
RTVSPost2010Prop39
140
1.0
102
RTVSPost2010PropOp39
 70
     1
102
RTVSPost2010Prop40
 90
        0
102
RTVSPost2010PropOp40
 70
     1
102
RTVSPost2010Prop41ColorIndex
 90
       18
102
RTVSPost2010Prop41ColorRGB
 90
        0
102
RTVSPost2010PropOp41
 70
     1
102
RTVSPost2010Prop42
 90
       50
102
RTVSPost2010PropOp42
 70
     1
102
RTVSPost2010Prop43
 90
        3
102
RTVSPost2010PropOp43
 70
     1
102
RTVSPost2010Prop44ColorIndex
 90
        5
102
RTVSPost2010Prop44ColorRGB
 90
      255
102
RTVSPost2010PropOp44
 70
     1
102
RTVSPost2010Prop45
280
     0
102
RTVSPost2010PropOp45
 70
     1
102
RTVSPost2010Prop46
 90
       50
102
RTVSPost2010PropOp46
 70
     1
102
RTVSPost2010Prop47
 90
       50
102
RTVSPost2010PropOp47
 70
     1
102
RTVSPost2010Prop48
 90
       50
102
RTVSPost2010PropOp48
 70
     1
102
RTVSPost2010Prop49
280
     0
102
RTVSPost2010PropOp49
 70
     1
102
RTVSPost2010Prop50
 90
       50
102
RTVSPost2010PropOp50
 70
     1
102
RTVSPost2010Prop51ColorIndex
 90
      256
102
RTVSPost2010Prop51ColorRGB
 90
-16777216
102
RTVSPost2010PropOp51
 70
     0
102
RTVSPost2010Prop52
140
1.0
102
RTVSPost2010PropOp52
 70
     0
102
RTVSPost2010Prop53
 90
        2
102
RTVSPost2010PropOp53
 70
     1
102
RTVSPost2010Prop54
  1
strokes_ogs.tif
102
RTVSPost2010PropOp54
 70
     1
102
RTVSPost2010Prop55
280
     0
102
RTVSPost2010PropOp55
 70
     1
102
RTVSPost2010Prop56
140
1.0
102
RTVSPost2010PropOp56
 70
     1
102
RTVSPost2010Prop57
140
1.0
102
RTVSPost2010PropOp57
 70
     1
  0
XRECORD
  5
3B1
102
{ACAD_REACTORS
330
3B0
102
}
330
3B0
100
AcDbXrecord
280
     1
102
RTVSPropertyOp0
 70
     1
102
RTVSPropertyOp1
 70
     1
102
RTVSPropertyOp2
 70
     1
102
RTVSPropertyOp3
 70
     1
102
RTVSPropertyOp4
 70
     1
102
RTVSPropertyOp5
 70
     1
102
RTVSPropertyOp6
 70
     1
102
RTVSPropertyOp7
 70
     1
102
RTVSPropertyOp8
 70
     1
102
RTVSPropertyOp9
 70
     1
102
RTVSPropertyOp10
 70
     1
102
RTVSPropertyOp11
 70
     1
102
RTVSPropertyOp12
 70
     1
102
RTVSPropertyOp13
 70
     1
102
RTVSPropertyOp14
 70
     1
102
RTVSPropertyOp15
 70
     1
102
RTVSPropertyOp16
 70
     1
102
RTVSPropertyOp17
 70
     1
102
RTVSPropertyOp18
 70
     1
102
RTVSPropertyOp19
 70
     1
102
RTVSPropertyOp20
 70
     1
102
RTVSPropertyOp21
 70
     1
102
RTVSPropertyOp22
 70
     1
102
RTVSPropertyOp23
 70
     1
102
RTVSPropertyOp24
 70
     1
102
RTVSPropertyOp25
 70
     1
102
RTVSPropertyOp26
 70
     1
102
RTVSPropertyOp27
 70
     1
102
RTVSPropertyOp28
 70
     1
102
RTVSPropertyOp29
 70
     1
102
RTVSPropertyOp30
 70
     1
102
RTVSPropertyOp31
 70
     1
102
RTVSPropertyOp32
 70
     1
102
RTVSPropertyOp33
 70
     1
102
RTVSPropertyOp34
 70
     1
102
RTVSPropertyOp35
 70
     1
102
RTVSPropertyOp36
 70
     1
102
RTVSPropertyOp37
 70
     1
102
RTVSPropertyOp38
 70
     1
102
RTVSPropertyOp39
 70
     1
102
RTVSPropertyOp40
 70
     1
102
RTVSPropertyOp41
 70
     1
102
RTVSPropertyOp42
 70
     1
102
RTVSPropertyOp43
 70
     1
102
RTVSPropertyOp44
 70
     1
102
RTVSPropertyOp45
 70
     1
102
RTVSPropertyOp46
 70
     1
102
RTVSPropertyOp47
 70
     1
102
RTVSPropertyOp48
 70
     1
102
RTVSPropertyOp49
 70
     1
102
RTVSPropertyOp50
 70
     1
102
RTVSPropertyOp51
 70
     0
102
RTVSPropertyOp52
 70
     0
102
RTVSPropertyOp53
 70
     1
102
RTVSPropertyOp54
 70
     1
102
RTVSPropertyOp55
 70
     1
102
RTVSPropertyOp56
 70
     1
102
RTVSPropertyOp57
 70
     1
102
RTVSPost2010Prop28
280
     0
102
RTVSPost2010PropOp28
 70
     1
102
RTVSPost2010Prop29
280
     1
102
RTVSPost2010PropOp29
 70
     1
102
RTVSPost2010Prop30
280
     1
102
RTVSPost2010PropOp30
 70
     1
102
RTVSPost2010Prop31
280
     0
102
RTVSPost2010PropOp31
 70
     1
102
RTVSPost2010Prop32
280
     0
102
RTVSPost2010PropOp32
 70
     1
102
RTVSPost2010Prop33
280
     0
102
RTVSPost2010PropOp33
 70
     1
102
RTVSPost2010Prop34
280
     0
102
RTVSPost2010PropOp34
 70
     1
102
RTVSPost2010Prop35
280
     0
102
RTVSPost2010PropOp35
 70
     1
102
RTVSPost2010Prop36
280
     0
102
RTVSPost2010PropOp36
 70
     1
102
RTVSPost2010Prop37
 90
       50
102
RTVSPost2010PropOp37
 70
     1
102
RTVSPost2010Prop38
140
0.0
102
RTVSPost2010PropOp38
 70
     1
102
RTVSPost2010Prop39
140
1.0
102
RTVSPost2010PropOp39
 70
     1
102
RTVSPost2010Prop40
 90
        0
102
RTVSPost2010PropOp40
 70
     1
102
RTVSPost2010Prop41ColorIndex
 90
       18
102
RTVSPost2010Prop41ColorRGB
 90
        0
102
RTVSPost2010PropOp41
 70
     1
102
RTVSPost2010Prop42
 90
       50
102
RTVSPost2010PropOp42
 70
     1
102
RTVSPost2010Prop43
 90
        3
102
RTVSPost2010PropOp43
 70
     1
102
RTVSPost2010Prop44ColorIndex
 90
        5
102
RTVSPost2010Prop44ColorRGB
 90
      255
102
RTVSPost2010PropOp44
 70
     1
102
RTVSPost2010Prop45
280
     0
102
RTVSPost2010PropOp45
 70
     1
102
RTVSPost2010Prop46
 90
       50
102
RTVSPost2010PropOp46
 70
     1
102
RTVSPost2010Prop47
 90
       50
102
RTVSPost2010PropOp47
 70
     1
102
RTVSPost2010Prop48
 90
       50
102
RTVSPost2010PropOp48
 70
     1
102
RTVSPost2010Prop49
280
     0
102
RTVSPost2010PropOp49
 70
     1
102
RTVSPost2010Prop50
 90
       50
102
RTVSPost2010PropOp50
 70
     1
102
RTVSPost2010Prop51ColorIndex
 90
      256
102
RTVSPost2010Prop51ColorRGB
 90
-16777216
102
RTVSPost2010PropOp51
 70
     0
102
RTVSPost2010Prop52
140
1.0
102
RTVSPost2010PropOp52
 70
     0
102
RTVSPost2010Prop53
 90
        2
102
RTVSPost2010PropOp53
 70
     1
102
RTVSPost2010Prop54
  1
strokes_ogs.tif
102
RTVSPost2010PropOp54
 70
     1
102
RTVSPost2010Prop55
280
     0
102
RTVSPost2010PropOp55
 70
     1
102
RTVSPost2010Prop56
140
1.0
102
RTVSPost2010PropOp56
 70
     1
102
RTVSPost2010Prop57
140
1.0
102
RTVSPost2010PropOp57
 70
     1
  0
XRECORD
  5
3AF
102
{ACAD_REACTORS
330
3AE
102
}
330
3AE
100
AcDbXrecord
280
     1
102
RTVSPropertyOp0
 70
     1
102
RTVSPropertyOp1
 70
     1
102
RTVSPropertyOp2
 70
     1
102
RTVSPropertyOp3
 70
     1
102
RTVSPropertyOp4
 70
     1
102
RTVSPropertyOp5
 70
     1
102
RTVSPropertyOp6
 70
     1
102
RTVSPropertyOp7
 70
     1
102
RTVSPropertyOp8
 70
     1
102
RTVSPropertyOp9
 70
     1
102
RTVSPropertyOp10
 70
     1
102
RTVSPropertyOp11
 70
     1
102
RTVSPropertyOp12
 70
     1
102
RTVSPropertyOp13
 70
     1
102
RTVSPropertyOp14
 70
     1
102
RTVSPropertyOp15
 70
     1
102
RTVSPropertyOp16
 70
     1
102
RTVSPropertyOp17
 70
     1
102
RTVSPropertyOp18
 70
     1
102
RTVSPropertyOp19
 70
     1
102
RTVSPropertyOp20
 70
     1
102
RTVSPropertyOp21
 70
     1
102
RTVSPropertyOp22
 70
     1
102
RTVSPropertyOp23
 70
     1
102
RTVSPropertyOp24
 70
     1
102
RTVSPropertyOp25
 70
     1
102
RTVSPropertyOp26
 70
     1
102
RTVSPropertyOp27
 70
     1
102
RTVSPropertyOp28
 70
     1
102
RTVSPropertyOp29
 70
     1
102
RTVSPropertyOp30
 70
     1
102
RTVSPropertyOp31
 70
     1
102
RTVSPropertyOp32
 70
     1
102
RTVSPropertyOp33
 70
     1
102
RTVSPropertyOp34
 70
     1
102
RTVSPropertyOp35
 70
     1
102
RTVSPropertyOp36
 70
     1
102
RTVSPropertyOp37
 70
     1
102
RTVSPropertyOp38
 70
     1
102
RTVSPropertyOp39
 70
     1
102
RTVSPropertyOp40
 70
     1
102
RTVSPropertyOp41
 70
     1
102
RTVSPropertyOp42
 70
     1
102
RTVSPropertyOp43
 70
     1
102
RTVSPropertyOp44
 70
     1
102
RTVSPropertyOp45
 70
     1
102
RTVSPropertyOp46
 70
     1
102
RTVSPropertyOp47
 70
     1
102
RTVSPropertyOp48
 70
     1
102
RTVSPropertyOp49
 70
     1
102
RTVSPropertyOp50
 70
     1
102
RTVSPropertyOp51
 70
     0
102
RTVSPropertyOp52
 70
     0
102
RTVSPropertyOp53
 70
     1
102
RTVSPropertyOp54
 70
     1
102
RTVSPropertyOp55
 70
     1
102
RTVSPropertyOp56
 70
     1
102
RTVSPropertyOp57
 70
     1
102
RTVSPost2010Prop28
280
     0
102
RTVSPost2010PropOp28
 70
     1
102
RTVSPost2010Prop29
280
     1
102
RTVSPost2010PropOp29
 70
     1
102
RTVSPost2010Prop30
280
     1
102
RTVSPost2010PropOp30
 70
     1
102
RTVSPost2010Prop31
280
     0
102
RTVSPost2010PropOp31
 70
     1
102
RTVSPost2010Prop32
280
     0
102
RTVSPost2010PropOp32
 70
     1
102
RTVSPost2010Prop33
280
     0
102
RTVSPost2010PropOp33
 70
     1
102
RTVSPost2010Prop34
280
     0
102
RTVSPost2010PropOp34
 70
     1
102
RTVSPost2010Prop35
280
     0
102
RTVSPost2010PropOp35
 70
     1
102
RTVSPost2010Prop36
280
     0
102
RTVSPost2010PropOp36
 70
     1
102
RTVSPost2010Prop37
 90
       50
102
RTVSPost2010PropOp37
 70
     1
102
RTVSPost2010Prop38
140
0.0
102
RTVSPost2010PropOp38
 70
     1
102
RTVSPost2010Prop39
140
1.0
102
RTVSPost2010PropOp39
 70
     1
102
RTVSPost2010Prop40
 90
        0
102
RTVSPost2010PropOp40
 70
     1
102
RTVSPost2010Prop41ColorIndex
 90
       18
102
RTVSPost2010Prop41ColorRGB
 90
        0
102
RTVSPost2010PropOp41
 70
     1
102
RTVSPost2010Prop42
 90
       50
102
RTVSPost2010PropOp42
 70
     1
102
RTVSPost2010Prop43
 90
        3
102
RTVSPost2010PropOp43
 70
     1
102
RTVSPost2010Prop44ColorIndex
 90
        5
102
RTVSPost2010Prop44ColorRGB
 90
      255
102
RTVSPost2010PropOp44
 70
     1
102
RTVSPost2010Prop45
280
     0
102
RTVSPost2010PropOp45
 70
     1
102
RTVSPost2010Prop46
 90
       50
102
RTVSPost2010PropOp46
 70
     1
102
RTVSPost2010Prop47
 90
       50
102
RTVSPost2010PropOp47
 70
     1
102
RTVSPost2010Prop48
 90
       50
102
RTVSPost2010PropOp48
 70
     1
102
RTVSPost2010Prop49
280
     0
102
RTVSPost2010PropOp49
 70
     1
102
RTVSPost2010Prop50
 90
       50
102
RTVSPost2010PropOp50
 70
     1
102
RTVSPost2010Prop51ColorIndex
 90
      256
102
RTVSPost2010Prop51ColorRGB
 90
-16777216
102
RTVSPost2010PropOp51
 70
     0
102
RTVSPost2010Prop52
140
1.0
102
RTVSPost2010PropOp52
 70
     0
102
RTVSPost2010Prop53
 90
        2
102
RTVSPost2010PropOp53
 70
     1
102
RTVSPost2010Prop54
  1
strokes_ogs.tif
102
RTVSPost2010PropOp54
 70
     1
102
RTVSPost2010Prop55
280
     0
102
RTVSPost2010PropOp55
 70
     1
102
RTVSPost2010Prop56
140
1.0
102
RTVSPost2010PropOp56
 70
     1
102
RTVSPost2010Prop57
140
1.0
102
RTVSPost2010PropOp57
 70
     1
  0
XRECORD
  5
3A9
102
{ACAD_REACTORS
330
3A8
102
}
330
3A8
100
AcDbXrecord
280
     1
102
RTVSPropertyOp0
 70
     1
102
RTVSPropertyOp1
 70
     1
102
RTVSPropertyOp2
 70
     1
102
RTVSPropertyOp3
 70
     1
102
RTVSPropertyOp4
 70
     1
102
RTVSPropertyOp5
 70
     1
102
RTVSPropertyOp6
 70
     1
102
RTVSPropertyOp7
 70
     1
102
RTVSPropertyOp8
 70
     1
102
RTVSPropertyOp9
 70
     1
102
RTVSPropertyOp10
 70
     1
102
RTVSPropertyOp11
 70
     1
102
RTVSPropertyOp12
 70
     1
102
RTVSPropertyOp13
 70
     1
102
RTVSPropertyOp14
 70
     1
102
RTVSPropertyOp15
 70
     1
102
RTVSPropertyOp16
 70
     1
102
RTVSPropertyOp17
 70
     1
102
RTVSPropertyOp18
 70
     1
102
RTVSPropertyOp19
 70
     1
102
RTVSPropertyOp20
 70
     1
102
RTVSPropertyOp21
 70
     1
102
RTVSPropertyOp22
 70
     1
102
RTVSPropertyOp23
 70
     1
102
RTVSPropertyOp24
 70
     1
102
RTVSPropertyOp25
 70
     1
102
RTVSPropertyOp26
 70
     1
102
RTVSPropertyOp27
 70
     1
102
RTVSPropertyOp28
 70
     1
102
RTVSPropertyOp29
 70
     1
102
RTVSPropertyOp30
 70
     1
102
RTVSPropertyOp31
 70
     1
102
RTVSPropertyOp32
 70
     1
102
RTVSPropertyOp33
 70
     1
102
RTVSPropertyOp34
 70
     1
102
RTVSPropertyOp35
 70
     1
102
RTVSPropertyOp36
 70
     1
102
RTVSPropertyOp37
 70
     1
102
RTVSPropertyOp38
 70
     1
102
RTVSPropertyOp39
 70
     1
102
RTVSPropertyOp40
 70
     1
102
RTVSPropertyOp41
 70
     1
102
RTVSPropertyOp42
 70
     1
102
RTVSPropertyOp43
 70
     1
102
RTVSPropertyOp44
 70
     1
102
RTVSPropertyOp45
 70
     1
102
RTVSPropertyOp46
 70
     1
102
RTVSPropertyOp47
 70
     1
102
RTVSPropertyOp48
 70
     1
102
RTVSPropertyOp49
 70
     1
102
RTVSPropertyOp50
 70
     1
102
RTVSPropertyOp51
 70
     0
102
RTVSPropertyOp52
 70
     0
102
RTVSPropertyOp53
 70
     1
102
RTVSPropertyOp54
 70
     1
102
RTVSPropertyOp55
 70
     1
102
RTVSPropertyOp56
 70
     1
102
RTVSPropertyOp57
 70
     1
102
RTVSPost2010Prop28
280
     0
102
RTVSPost2010PropOp28
 70
     1
102
RTVSPost2010Prop29
280
     1
102
RTVSPost2010PropOp29
 70
     1
102
RTVSPost2010Prop30
280
     1
102
RTVSPost2010PropOp30
 70
     1
102
RTVSPost2010Prop31
280
     0
102
RTVSPost2010PropOp31
 70
     1
102
RTVSPost2010Prop32
280
     0
102
RTVSPost2010PropOp32
 70
     1
102
RTVSPost2010Prop33
280
     0
102
RTVSPost2010PropOp33
 70
     1
102
RTVSPost2010Prop34
280
     0
102
RTVSPost2010PropOp34
 70
     1
102
RTVSPost2010Prop35
280
     0
102
RTVSPost2010PropOp35
 70
     1
102
RTVSPost2010Prop36
280
     0
102
RTVSPost2010PropOp36
 70
     1
102
RTVSPost2010Prop37
 90
       50
102
RTVSPost2010PropOp37
 70
     1
102
RTVSPost2010Prop38
140
0.0
102
RTVSPost2010PropOp38
 70
     1
102
RTVSPost2010Prop39
140
1.0
102
RTVSPost2010PropOp39
 70
     1
102
RTVSPost2010Prop40
 90
        0
102
RTVSPost2010PropOp40
 70
     1
102
RTVSPost2010Prop41ColorIndex
 90
       18
102
RTVSPost2010Prop41ColorRGB
 90
        0
102
RTVSPost2010PropOp41
 70
     1
102
RTVSPost2010Prop42
 90
       50
102
RTVSPost2010PropOp42
 70
     1
102
RTVSPost2010Prop43
 90
        3
102
RTVSPost2010PropOp43
 70
     1
102
RTVSPost2010Prop44ColorIndex
 90
        5
102
RTVSPost2010Prop44ColorRGB
 90
      255
102
RTVSPost2010PropOp44
 70
     1
102
RTVSPost2010Prop45
280
     0
102
RTVSPost2010PropOp45
 70
     1
102
RTVSPost2010Prop46
 90
       50
102
RTVSPost2010PropOp46
 70
     1
102
RTVSPost2010Prop47
 90
       50
102
RTVSPost2010PropOp47
 70
     1
102
RTVSPost2010Prop48
 90
       50
102
RTVSPost2010PropOp48
 70
     1
102
RTVSPost2010Prop49
280
     0
102
RTVSPost2010PropOp49
 70
     1
102
RTVSPost2010Prop50
 90
       50
102
RTVSPost2010PropOp50
 70
     1
102
RTVSPost2010Prop51ColorIndex
 90
      256
102
RTVSPost2010Prop51ColorRGB
 90
-16777216
102
RTVSPost2010PropOp51
 70
     0
102
RTVSPost2010Prop52
140
1.0
102
RTVSPost2010PropOp52
 70
     0
102
RTVSPost2010Prop53
 90
        2
102
RTVSPost2010PropOp53
 70
     1
102
RTVSPost2010Prop54
  1
strokes_ogs.tif
102
RTVSPost2010PropOp54
 70
     1
102
RTVSPost2010Prop55
280
     0
102
RTVSPost2010PropOp55
 70
     1
102
RTVSPost2010Prop56
140
1.0
102
RTVSPost2010PropOp56
 70
     1
102
RTVSPost2010Prop57
140
1.0
102
RTVSPost2010PropOp57
 70
     1
  0
XRECORD
  5
3AB
102
{ACAD_REACTORS
330
3AA
102
}
330
3AA
100
AcDbXrecord
280
     1
102
RTVSPropertyOp0
 70
     1
102
RTVSPropertyOp1
 70
     1
102
RTVSPropertyOp2
 70
     1
102
RTVSPropertyOp3
 70
     1
102
RTVSPropertyOp4
 70
     1
102
RTVSPropertyOp5
 70
     1
102
RTVSPropertyOp6
 70
     1
102
RTVSPropertyOp7
 70
     1
102
RTVSPropertyOp8
 70
     1
102
RTVSPropertyOp9
 70
     1
102
RTVSPropertyOp10
 70
     1
102
RTVSPropertyOp11
 70
     1
102
RTVSPropertyOp12
 70
     1
102
RTVSPropertyOp13
 70
     1
102
RTVSPropertyOp14
 70
     1
102
RTVSPropertyOp15
 70
     1
102
RTVSPropertyOp16
 70
     1
102
RTVSPropertyOp17
 70
     1
102
RTVSPropertyOp18
 70
     1
102
RTVSPropertyOp19
 70
     1
102
RTVSPropertyOp20
 70
     1
102
RTVSPropertyOp21
 70
     1
102
RTVSPropertyOp22
 70
     1
102
RTVSPropertyOp23
 70
     1
102
RTVSPropertyOp24
 70
     1
102
RTVSPropertyOp25
 70
     1
102
RTVSPropertyOp26
 70
     1
102
RTVSPropertyOp27
 70
     1
102
RTVSPropertyOp28
 70
     1
102
RTVSPropertyOp29
 70
     1
102
RTVSPropertyOp30
 70
     1
102
RTVSPropertyOp31
 70
     1
102
RTVSPropertyOp32
 70
     1
102
RTVSPropertyOp33
 70
     1
102
RTVSPropertyOp34
 70
     1
102
RTVSPropertyOp35
 70
     1
102
RTVSPropertyOp36
 70
     1
102
RTVSPropertyOp37
 70
     1
102
RTVSPropertyOp38
 70
     1
102
RTVSPropertyOp39
 70
     1
102
RTVSPropertyOp40
 70
     1
102
RTVSPropertyOp41
 70
     1
102
RTVSPropertyOp42
 70
     1
102
RTVSPropertyOp43
 70
     1
102
RTVSPropertyOp44
 70
     1
102
RTVSPropertyOp45
 70
     1
102
RTVSPropertyOp46
 70
     1
102
RTVSPropertyOp47
 70
     1
102
RTVSPropertyOp48
 70
     1
102
RTVSPropertyOp49
 70
     1
102
RTVSPropertyOp50
 70
     1
102
RTVSPropertyOp51
 70
     0
102
RTVSPropertyOp52
 70
     0
102
RTVSPropertyOp53
 70
     1
102
RTVSPropertyOp54
 70
     1
102
RTVSPropertyOp55
 70
     1
102
RTVSPropertyOp56
 70
     1
102
RTVSPropertyOp57
 70
     1
102
RTVSPost2010Prop28
280
     0
102
RTVSPost2010PropOp28
 70
     1
102
RTVSPost2010Prop29
280
     1
102
RTVSPost2010PropOp29
 70
     1
102
RTVSPost2010Prop30
280
     1
102
RTVSPost2010PropOp30
 70
     1
102
RTVSPost2010Prop31
280
     0
102
RTVSPost2010PropOp31
 70
     1
102
RTVSPost2010Prop32
280
     0
102
RTVSPost2010PropOp32
 70
     1
102
RTVSPost2010Prop33
280
     0
102
RTVSPost2010PropOp33
 70
     1
102
RTVSPost2010Prop34
280
     0
102
RTVSPost2010PropOp34
 70
     1
102
RTVSPost2010Prop35
280
     0
102
RTVSPost2010PropOp35
 70
     1
102
RTVSPost2010Prop36
280
     0
102
RTVSPost2010PropOp36
 70
     1
102
RTVSPost2010Prop37
 90
       50
102
RTVSPost2010PropOp37
 70
     1
102
RTVSPost2010Prop38
140
0.0
102
RTVSPost2010PropOp38
 70
     1
102
RTVSPost2010Prop39
140
1.0
102
RTVSPost2010PropOp39
 70
     1
102
RTVSPost2010Prop40
 90
        0
102
RTVSPost2010PropOp40
 70
     1
102
RTVSPost2010Prop41ColorIndex
 90
       18
102
RTVSPost2010Prop41ColorRGB
 90
        0
102
RTVSPost2010PropOp41
 70
     1
102
RTVSPost2010Prop42
 90
       50
102
RTVSPost2010PropOp42
 70
     1
102
RTVSPost2010Prop43
 90
        3
102
RTVSPost2010PropOp43
 70
     1
102
RTVSPost2010Prop44ColorIndex
 90
        5
102
RTVSPost2010Prop44ColorRGB
 90
      255
102
RTVSPost2010PropOp44
 70
     1
102
RTVSPost2010Prop45
280
     0
102
RTVSPost2010PropOp45
 70
     1
102
RTVSPost2010Prop46
 90
       50
102
RTVSPost2010PropOp46
 70
     1
102
RTVSPost2010Prop47
 90
       50
102
RTVSPost2010PropOp47
 70
     1
102
RTVSPost2010Prop48
 90
       50
102
RTVSPost2010PropOp48
 70
     1
102
RTVSPost2010Prop49
280
     0
102
RTVSPost2010PropOp49
 70
     1
102
RTVSPost2010Prop50
 90
       50
102
RTVSPost2010PropOp50
 70
     1
102
RTVSPost2010Prop51ColorIndex
 90
      256
102
RTVSPost2010Prop51ColorRGB
 90
-16777216
102
RTVSPost2010PropOp51
 70
     0
102
RTVSPost2010Prop52
140
1.0
102
RTVSPost2010PropOp52
 70
     0
102
RTVSPost2010Prop53
 90
        2
102
RTVSPost2010PropOp53
 70
     1
102
RTVSPost2010Prop54
  1
strokes_ogs.tif
102
RTVSPost2010PropOp54
 70
     1
102
RTVSPost2010Prop55
280
     0
102
RTVSPost2010PropOp55
 70
     1
102
RTVSPost2010Prop56
140
1.0
102
RTVSPost2010PropOp56
 70
     1
102
RTVSPost2010Prop57
140
1.0
102
RTVSPost2010PropOp57
 70
     1
  0
XRECORD
  5
39B
102
{ACAD_REACTORS
330
39A
102
}
330
39A
100
AcDbXrecord
280
     1
102
RTVSPropertyOp0
 70
     1
102
RTVSPropertyOp1
 70
     1
102
RTVSPropertyOp2
 70
     1
102
RTVSPropertyOp3
 70
     1
102
RTVSPropertyOp4
 70
     1
102
RTVSPropertyOp5
 70
     1
102
RTVSPropertyOp6
 70
     1
102
RTVSPropertyOp7
 70
     1
102
RTVSPropertyOp8
 70
     1
102
RTVSPropertyOp9
 70
     1
102
RTVSPropertyOp10
 70
     1
102
RTVSPropertyOp11
 70
     1
102
RTVSPropertyOp12
 70
     1
102
RTVSPropertyOp13
 70
     1
102
RTVSPropertyOp14
 70
     1
102
RTVSPropertyOp15
 70
     1
102
RTVSPropertyOp16
 70
     1
102
RTVSPropertyOp17
 70
     1
102
RTVSPropertyOp18
 70
     1
102
RTVSPropertyOp19
 70
     1
102
RTVSPropertyOp20
 70
     1
102
RTVSPropertyOp21
 70
     1
102
RTVSPropertyOp22
 70
     1
102
RTVSPropertyOp23
 70
     1
102
RTVSPropertyOp24
 70
     1
102
RTVSPropertyOp25
 70
     1
102
RTVSPropertyOp26
 70
     1
102
RTVSPropertyOp27
 70
     1
102
RTVSPropertyOp28
 70
     1
102
RTVSPropertyOp29
 70
     1
102
RTVSPropertyOp30
 70
     1
102
RTVSPropertyOp31
 70
     1
102
RTVSPropertyOp32
 70
     1
102
RTVSPropertyOp33
 70
     1
102
RTVSPropertyOp34
 70
     1
102
RTVSPropertyOp35
 70
     1
102
RTVSPropertyOp36
 70
     1
102
RTVSPropertyOp37
 70
     1
102
RTVSPropertyOp38
 70
     1
102
RTVSPropertyOp39
 70
     1
102
RTVSPropertyOp40
 70
     1
102
RTVSPropertyOp41
 70
     1
102
RTVSPropertyOp42
 70
     1
102
RTVSPropertyOp43
 70
     1
102
RTVSPropertyOp44
 70
     1
102
RTVSPropertyOp45
 70
     1
102
RTVSPropertyOp46
 70
     1
102
RTVSPropertyOp47
 70
     1
102
RTVSPropertyOp48
 70
     1
102
RTVSPropertyOp49
 70
     1
102
RTVSPropertyOp50
 70
     1
102
RTVSPropertyOp51
 70
     0
102
RTVSPropertyOp52
 70
     0
102
RTVSPropertyOp53
 70
     1
102
RTVSPropertyOp54
 70
     1
102
RTVSPropertyOp55
 70
     1
102
RTVSPropertyOp56
 70
     1
102
RTVSPropertyOp57
 70
     1
102
RTVSPost2010Prop28
280
     0
102
RTVSPost2010PropOp28
 70
     1
102
RTVSPost2010Prop29
280
     1
102
RTVSPost2010PropOp29
 70
     1
102
RTVSPost2010Prop30
280
     1
102
RTVSPost2010PropOp30
 70
     1
102
RTVSPost2010Prop31
280
     0
102
RTVSPost2010PropOp31
 70
     1
102
RTVSPost2010Prop32
280
     0
102
RTVSPost2010PropOp32
 70
     1
102
RTVSPost2010Prop33
280
     0
102
RTVSPost2010PropOp33
 70
     1
102
RTVSPost2010Prop34
280
     0
102
RTVSPost2010PropOp34
 70
     1
102
RTVSPost2010Prop35
280
     0
102
RTVSPost2010PropOp35
 70
     1
102
RTVSPost2010Prop36
280
     0
102
RTVSPost2010PropOp36
 70
     1
102
RTVSPost2010Prop37
 90
       50
102
RTVSPost2010PropOp37
 70
     1
102
RTVSPost2010Prop38
140
0.0
102
RTVSPost2010PropOp38
 70
     1
102
RTVSPost2010Prop39
140
1.0
102
RTVSPost2010PropOp39
 70
     1
102
RTVSPost2010Prop40
 90
        0
102
RTVSPost2010PropOp40
 70
     1
102
RTVSPost2010Prop41ColorIndex
 90
       18
102
RTVSPost2010Prop41ColorRGB
 90
        0
102
RTVSPost2010PropOp41
 70
     1
102
RTVSPost2010Prop42
 90
       50
102
RTVSPost2010PropOp42
 70
     1
102
RTVSPost2010Prop43
 90
        3
102
RTVSPost2010PropOp43
 70
     1
102
RTVSPost2010Prop44ColorIndex
 90
        5
102
RTVSPost2010Prop44ColorRGB
 90
      255
102
RTVSPost2010PropOp44
 70
     1
102
RTVSPost2010Prop45
280
     0
102
RTVSPost2010PropOp45
 70
     1
102
RTVSPost2010Prop46
 90
       50
102
RTVSPost2010PropOp46
 70
     1
102
RTVSPost2010Prop47
 90
       50
102
RTVSPost2010PropOp47
 70
     1
102
RTVSPost2010Prop48
 90
       50
102
RTVSPost2010PropOp48
 70
     1
102
RTVSPost2010Prop49
280
     0
102
RTVSPost2010PropOp49
 70
     1
102
RTVSPost2010Prop50
 90
       50
102
RTVSPost2010PropOp50
 70
     1
102
RTVSPost2010Prop51ColorIndex
 90
      256
102
RTVSPost2010Prop51ColorRGB
 90
-16777216
102
RTVSPost2010PropOp51
 70
     0
102
RTVSPost2010Prop52
140
1.0
102
RTVSPost2010PropOp52
 70
     0
102
RTVSPost2010Prop53
 90
        2
102
RTVSPost2010PropOp53
 70
     1
102
RTVSPost2010Prop54
  1
strokes_ogs.tif
102
RTVSPost2010PropOp54
 70
     1
102
RTVSPost2010Prop55
280
     0
102
RTVSPost2010PropOp55
 70
     1
102
RTVSPost2010Prop56
140
1.0
102
RTVSPost2010PropOp56
 70
     1
102
RTVSPost2010Prop57
140
1.0
102
RTVSPost2010PropOp57
 70
     1
  0
XRECORD
  5
38D
102
{ACAD_REACTORS
330
38C
102
}
330
38C
100
AcDbXrecord
280
     1
102
RTVSPropertyOp0
 70
     1
102
RTVSPropertyOp1
 70
     1
102
RTVSPropertyOp2
 70
     1
102
RTVSPropertyOp3
 70
     1
102
RTVSPropertyOp4
 70
     1
102
RTVSPropertyOp5
 70
     1
102
RTVSPropertyOp6
 70
     1
102
RTVSPropertyOp7
 70
     1
102
RTVSPropertyOp8
 70
     1
102
RTVSPropertyOp9
 70
     1
102
RTVSPropertyOp10
 70
     1
102
RTVSPropertyOp11
 70
     1
102
RTVSPropertyOp12
 70
     1
102
RTVSPropertyOp13
 70
     1
102
RTVSPropertyOp14
 70
     1
102
RTVSPropertyOp15
 70
     1
102
RTVSPropertyOp16
 70
     1
102
RTVSPropertyOp17
 70
     1
102
RTVSPropertyOp18
 70
     1
102
RTVSPropertyOp19
 70
     1
102
RTVSPropertyOp20
 70
     1
102
RTVSPropertyOp21
 70
     1
102
RTVSPropertyOp22
 70
     1
102
RTVSPropertyOp23
 70
     1
102
RTVSPropertyOp24
 70
     1
102
RTVSPropertyOp25
 70
     1
102
RTVSPropertyOp26
 70
     1
102
RTVSPropertyOp27
 70
     1
102
RTVSPropertyOp28
 70
     1
102
RTVSPropertyOp29
 70
     1
102
RTVSPropertyOp30
 70
     1
102
RTVSPropertyOp31
 70
     1
102
RTVSPropertyOp32
 70
     1
102
RTVSPropertyOp33
 70
     1
102
RTVSPropertyOp34
 70
     1
102
RTVSPropertyOp35
 70
     1
102
RTVSPropertyOp36
 70
     1
102
RTVSPropertyOp37
 70
     1
102
RTVSPropertyOp38
 70
     1
102
RTVSPropertyOp39
 70
     1
102
RTVSPropertyOp40
 70
     1
102
RTVSPropertyOp41
 70
     1
102
RTVSPropertyOp42
 70
     1
102
RTVSPropertyOp43
 70
     1
102
RTVSPropertyOp44
 70
     1
102
RTVSPropertyOp45
 70
     1
102
RTVSPropertyOp46
 70
     1
102
RTVSPropertyOp47
 70
     1
102
RTVSPropertyOp48
 70
     1
102
RTVSPropertyOp49
 70
     1
102
RTVSPropertyOp50
 70
     1
102
RTVSPropertyOp51
 70
     0
102
RTVSPropertyOp52
 70
     0
102
RTVSPropertyOp53
 70
     1
102
RTVSPropertyOp54
 70
     1
102
RTVSPropertyOp55
 70
     1
102
RTVSPropertyOp56
 70
     1
102
RTVSPropertyOp57
 70
     1
102
RTVSPost2010Prop28
280
     0
102
RTVSPost2010PropOp28
 70
     1
102
RTVSPost2010Prop29
280
     1
102
RTVSPost2010PropOp29
 70
     1
102
RTVSPost2010Prop30
280
     1
102
RTVSPost2010PropOp30
 70
     1
102
RTVSPost2010Prop31
280
     0
102
RTVSPost2010PropOp31
 70
     1
102
RTVSPost2010Prop32
280
     0
102
RTVSPost2010PropOp32
 70
     1
102
RTVSPost2010Prop33
280
     0
102
RTVSPost2010PropOp33
 70
     1
102
RTVSPost2010Prop34
280
     0
102
RTVSPost2010PropOp34
 70
     1
102
RTVSPost2010Prop35
280
     0
102
RTVSPost2010PropOp35
 70
     1
102
RTVSPost2010Prop36
280
     0
102
RTVSPost2010PropOp36
 70
     1
102
RTVSPost2010Prop37
 90
       50
102
RTVSPost2010PropOp37
 70
     1
102
RTVSPost2010Prop38
140
0.0
102
RTVSPost2010PropOp38
 70
     1
102
RTVSPost2010Prop39
140
1.0
102
RTVSPost2010PropOp39
 70
     1
102
RTVSPost2010Prop40
 90
        0
102
RTVSPost2010PropOp40
 70
     1
102
RTVSPost2010Prop41ColorIndex
 90
       18
102
RTVSPost2010Prop41ColorRGB
 90
        0
102
RTVSPost2010PropOp41
 70
     1
102
RTVSPost2010Prop42
 90
       50
102
RTVSPost2010PropOp42
 70
     1
102
RTVSPost2010Prop43
 90
        3
102
RTVSPost2010PropOp43
 70
     1
102
RTVSPost2010Prop44ColorIndex
 90
        5
102
RTVSPost2010Prop44ColorRGB
 90
      255
102
RTVSPost2010PropOp44
 70
     1
102
RTVSPost2010Prop45
280
     0
102
RTVSPost2010PropOp45
 70
     1
102
RTVSPost2010Prop46
 90
       50
102
RTVSPost2010PropOp46
 70
     1
102
RTVSPost2010Prop47
 90
       50
102
RTVSPost2010PropOp47
 70
     1
102
RTVSPost2010Prop48
 90
       50
102
RTVSPost2010PropOp48
 70
     1
102
RTVSPost2010Prop49
280
     0
102
RTVSPost2010PropOp49
 70
     1
102
RTVSPost2010Prop50
 90
       50
102
RTVSPost2010PropOp50
 70
     1
102
RTVSPost2010Prop51ColorIndex
 90
      256
102
RTVSPost2010Prop51ColorRGB
 90
-16777216
102
RTVSPost2010PropOp51
 70
     0
102
RTVSPost2010Prop52
140
1.0
102
RTVSPost2010PropOp52
 70
     0
102
RTVSPost2010Prop53
 90
        2
102
RTVSPost2010PropOp53
 70
     1
102
RTVSPost2010Prop54
  1
strokes_ogs.tif
102
RTVSPost2010PropOp54
 70
     1
102
RTVSPost2010Prop55
280
     0
102
RTVSPost2010PropOp55
 70
     1
102
RTVSPost2010Prop56
140
1.0
102
RTVSPost2010PropOp56
 70
     1
102
RTVSPost2010Prop57
140
1.0
102
RTVSPost2010PropOp57
 70
     1
  0
XRECORD
  5
3AD
102
{ACAD_REACTORS
330
3AC
102
}
330
3AC
100
AcDbXrecord
280
     1
102
RTVSPropertyOp0
 70
     1
102
RTVSPropertyOp1
 70
     1
102
RTVSPropertyOp2
 70
     1
102
RTVSPropertyOp3
 70
     1
102
RTVSPropertyOp4
 70
     1
102
RTVSPropertyOp5
 70
     1
102
RTVSPropertyOp6
 70
     1
102
RTVSPropertyOp7
 70
     1
102
RTVSPropertyOp8
 70
     1
102
RTVSPropertyOp9
 70
     1
102
RTVSPropertyOp10
 70
     1
102
RTVSPropertyOp11
 70
     1
102
RTVSPropertyOp12
 70
     1
102
RTVSPropertyOp13
 70
     1
102
RTVSPropertyOp14
 70
     1
102
RTVSPropertyOp15
 70
     1
102
RTVSPropertyOp16
 70
     1
102
RTVSPropertyOp17
 70
     1
102
RTVSPropertyOp18
 70
     1
102
RTVSPropertyOp19
 70
     1
102
RTVSPropertyOp20
 70
     1
102
RTVSPropertyOp21
 70
     1
102
RTVSPropertyOp22
 70
     1
102
RTVSPropertyOp23
 70
     1
102
RTVSPropertyOp24
 70
     1
102
RTVSPropertyOp25
 70
     1
102
RTVSPropertyOp26
 70
     1
102
RTVSPropertyOp27
 70
     1
102
RTVSPropertyOp28
 70
     1
102
RTVSPropertyOp29
 70
     1
102
RTVSPropertyOp30
 70
     1
102
RTVSPropertyOp31
 70
     1
102
RTVSPropertyOp32
 70
     1
102
RTVSPropertyOp33
 70
     1
102
RTVSPropertyOp34
 70
     1
102
RTVSPropertyOp35
 70
     1
102
RTVSPropertyOp36
 70
     1
102
RTVSPropertyOp37
 70
     1
102
RTVSPropertyOp38
 70
     1
102
RTVSPropertyOp39
 70
     1
102
RTVSPropertyOp40
 70
     1
102
RTVSPropertyOp41
 70
     1
102
RTVSPropertyOp42
 70
     1
102
RTVSPropertyOp43
 70
     1
102
RTVSPropertyOp44
 70
     1
102
RTVSPropertyOp45
 70
     1
102
RTVSPropertyOp46
 70
     1
102
RTVSPropertyOp47
 70
     1
102
RTVSPropertyOp48
 70
     1
102
RTVSPropertyOp49
 70
     1
102
RTVSPropertyOp50
 70
     1
102
RTVSPropertyOp51
 70
     0
102
RTVSPropertyOp52
 70
     0
102
RTVSPropertyOp53
 70
     1
102
RTVSPropertyOp54
 70
     1
102
RTVSPropertyOp55
 70
     1
102
RTVSPropertyOp56
 70
     1
102
RTVSPropertyOp57
 70
     1
102
RTVSPost2010Prop28
280
     0
102
RTVSPost2010PropOp28
 70
     1
102
RTVSPost2010Prop29
280
     1
102
RTVSPost2010PropOp29
 70
     1
102
RTVSPost2010Prop30
280
     1
102
RTVSPost2010PropOp30
 70
     1
102
RTVSPost2010Prop31
280
     0
102
RTVSPost2010PropOp31
 70
     1
102
RTVSPost2010Prop32
280
     0
102
RTVSPost2010PropOp32
 70
     1
102
RTVSPost2010Prop33
280
     0
102
RTVSPost2010PropOp33
 70
     1
102
RTVSPost2010Prop34
280
     0
102
RTVSPost2010PropOp34
 70
     1
102
RTVSPost2010Prop35
280
     0
102
RTVSPost2010PropOp35
 70
     1
102
RTVSPost2010Prop36
280
     0
102
RTVSPost2010PropOp36
 70
     1
102
RTVSPost2010Prop37
 90
       50
102
RTVSPost2010PropOp37
 70
     1
102
RTVSPost2010Prop38
140
0.0
102
RTVSPost2010PropOp38
 70
     1
102
RTVSPost2010Prop39
140
1.0
102
RTVSPost2010PropOp39
 70
     1
102
RTVSPost2010Prop40
 90
        0
102
RTVSPost2010PropOp40
 70
     1
102
RTVSPost2010Prop41ColorIndex
 90
       18
102
RTVSPost2010Prop41ColorRGB
 90
        0
102
RTVSPost2010PropOp41
 70
     1
102
RTVSPost2010Prop42
 90
       50
102
RTVSPost2010PropOp42
 70
     1
102
RTVSPost2010Prop43
 90
        3
102
RTVSPost2010PropOp43
 70
     1
102
RTVSPost2010Prop44ColorIndex
 90
        5
102
RTVSPost2010Prop44ColorRGB
 90
      255
102
RTVSPost2010PropOp44
 70
     1
102
RTVSPost2010Prop45
280
     0
102
RTVSPost2010PropOp45
 70
     1
102
RTVSPost2010Prop46
 90
       50
102
RTVSPost2010PropOp46
 70
     1
102
RTVSPost2010Prop47
 90
       50
102
RTVSPost2010PropOp47
 70
     1
102
RTVSPost2010Prop48
 90
       50
102
RTVSPost2010PropOp48
 70
     1
102
RTVSPost2010Prop49
280
     0
102
RTVSPost2010PropOp49
 70
     1
102
RTVSPost2010Prop50
 90
       50
102
RTVSPost2010PropOp50
 70
     1
102
RTVSPost2010Prop51ColorIndex
 90
      256
102
RTVSPost2010Prop51ColorRGB
 90
-16777216
102
RTVSPost2010PropOp51
 70
     0
102
RTVSPost2010Prop52
140
1.0
102
RTVSPost2010PropOp52
 70
     0
102
RTVSPost2010Prop53
 90
        2
102
RTVSPost2010PropOp53
 70
     1
102
RTVSPost2010Prop54
  1
strokes_ogs.tif
102
RTVSPost2010PropOp54
 70
     1
102
RTVSPost2010Prop55
280
     0
102
RTVSPost2010PropOp55
 70
     1
102
RTVSPost2010Prop56
140
1.0
102
RTVSPost2010PropOp56
 70
     1
102
RTVSPost2010Prop57
140
1.0
102
RTVSPost2010PropOp57
 70
     1
  0
ENDSEC
  0
EOF
