  0
SECTION
  2
HEADER
  9
$ACADVER
  1
AC1018
  9
$ACADMAINTVER
 70
     0
  9
$DWGCODEPAGE
  3
ANSI_932
  9
$INSBASE
 10
0.0
 20
0.0
 30
0.0
  9
$EXTMIN
 10
-420.0
 20
-297.0
 30
0.0
  9
$EXTMAX
 10
420.0
 20
297.0
 30
0.0
  9
$LIMMIN
 10
-420.0
 20
-297.0
  9
$LIMMAX
 10
420.0
 20
297.0
  9
$ORTHOMODE
 70
     0
  9
$REGENMODE
 70
     1
  9
$FILLMODE
 70
     1
  9
$QTEXTMODE
 70
     0
  9
$MIRRTEXT
 70
     1
  9
$LTSCALE
 40
2.0
  9
$ATTMODE
 70
     1
  9
$TEXTSIZE
 40
2.5
  9
$TRACEWID
 40
1.0
  9
$TEXTSTYLE
  7
Standard
  9
$CLAYER
  8
0
  9
$CELTYPE
  6
ByLayer
  9
$CECOLOR
 62
   256
  9
$CELTSCALE
 40
1.0
  9
$DISPSILH
 70
     0
  9
$DIMSCALE
 40
1.0
  9
$DIMASZ
 40
2.5
  9
$DIMEXO
 40
0.625
  9
$DIMDLI
 40
3.75
  9
$DIMRND
 40
0.0
  9
$DIMDLE
 40
0.0
  9
$DIMEXE
 40
1.25
  9
$DIMTP
 40
0.0
  9
$DIMTM
 40
0.0
  9
$DIMTXT
 40
2.5
  9
$DIMCEN
 40
2.5
  9
$DIMTSZ
 40
0.0
  9
$DIMTOL
 70
     0
  9
$DIMLIM
 70
     0
  9
$DIMTIH
 70
     0
  9
$DIMTOH
 70
     0
  9
$DIMSE1
 70
     0
  9
$DIMSE2
 70
     0
  9
$DIMTAD
 70
     1
  9
$DIMZIN
 70
     8
  9
$DIMBLK
  1

  9
$DIMASO
 70
     1
  9
$DIMSHO
 70
     1
  9
$DIMPOST
  1

  9
$DIMAPOST
  1

  9
$DIMALT
 70
     0
  9
$DIMALTD
 70
     3
  9
$DIMALTF
 40
0.03937007874016
  9
$DIMLFAC
 40
1.0
  9
$DIMTOFL
 70
     1
  9
$DIMTVP
 40
0.0
  9
$DIMTIX
 70
     0
  9
$DIMSOXD
 70
     0
  9
$DIMSAH
 70
     0
  9
$DIMBLK1
  1

  9
$DIMBLK2
  1

  9
$DIMSTYLE
  2
ISO-25
  9
$DIMCLRD
 70
     0
  9
$DIMCLRE
 70
     0
  9
$DIMCLRT
 70
     0
  9
$DIMTFAC
 40
1.0
  9
$DIMGAP
 40
0.625
  9
$DIMJUST
 70
     0
  9
$DIMSD1
 70
     0
  9
$DIMSD2
 70
     0
  9
$DIMTOLJ
 70
     0
  9
$DIMTZIN
 70
     8
  9
$DIMALTZ
 70
     0
  9
$DIMALTTZ
 70
     0
  9
$DIMUPT
 70
     0
  9
$DIMDEC
 70
     2
  9
$DIMTDEC
 70
     2
  9
$DIMALTU
 70
     2
  9
$DIMALTTD
 70
     3
  9
$DIMTXSTY
  7
Standard
  9
$DIMAUNIT
 70
     0
  9
$DIMADEC
 70
     0
  9
$DIMALTRND
 40
0.0
  9
$DIMAZIN
 70
     0
  9
$DIMDSEP
 70
    44
  9
$DIMATFIT
 70
     3
  9
$DIMFRAC
 70
     0
  9
$DIMLDRBLK
  1

  9
$DIMLUNIT
 70
     2
  9
$DIMLWD
 70
    -2
  9
$DIMLWE
 70
    -2
  9
$DIMTMOVE
 70
     0
  9
$LUNITS
 70
     2
  9
$LUPREC
 70
     4
  9
$SKETCHINC
 40
1.0
  9
$FILLETRAD
 40
10.0
  9
$AUNITS
 70
     0
  9
$AUPREC
 70
     0
  9
$MENU
  1
.
  9
$ELEVATION
 40
0.0
  9
$PELEVATION
 40
0.0
  9
$THICKNESS
 40
0.0
  9
$LIMCHECK
 70
     0
  9
$CHAMFERA
 40
0.0
  9
$CHAMFERB
 40
0.0
  9
$CHAMFERC
 40
0.0
  9
$CHAMFERD
 40
0.0
  9
$SKPOLY
 70
     0
  9
$TDCREATE
 40
2460084.724604907
  9
$TDUCREATE
 40
2460084.349604907
  9
$TDUPDATE
 40
2460084.724605058
  9
$TDUUPDATE
 40
2460084.349605058
  9
$TDINDWG
 40
0.0000000116
  9
$TDUSRTIMER
 40
0.0000000116
  9
$USRTIMER
 70
     1
  9
$ANGBASE
 50
0.0
  9
$ANGDIR
 70
     0
  9
$PDMODE
 70
     0
  9
$PDSIZE
 40
0.0
  9
$PLINEWID
 40
0.0
  9
$SPLFRAME
 70
     0
  9
$SPLINETYPE
 70
     6
  9
$SPLINESEGS
 70
     8
  9
$HANDSEED
  5
48E
  9
$SURFTAB1
 70
     6
  9
$SURFTAB2
 70
     6
  9
$SURFTYPE
 70
     6
  9
$SURFU
 70
     6
  9
$SURFV
 70
     6
  9
$UCSBASE
  2

  9
$UCSNAME
  2

  9
$UCSORG
 10
0.0
 20
0.0
 30
0.0
  9
$UCSXDIR
 10
1.0
 20
0.0
 30
0.0
  9
$UCSYDIR
 10
0.0
 20
1.0
 30
0.0
  9
$UCSORTHOREF
  2

  9
$UCSORTHOVIEW
 70
     0
  9
$UCSORGTOP
 10
0.0
 20
0.0
 30
0.0
  9
$UCSORGBOTTOM
 10
0.0
 20
0.0
 30
0.0
  9
$UCSORGLEFT
 10
0.0
 20
0.0
 30
0.0
  9
$UCSORGRIGHT
 10
0.0
 20
0.0
 30
0.0
  9
$UCSORGFRONT
 10
0.0
 20
0.0
 30
0.0
  9
$UCSORGBACK
 10
0.0
 20
0.0
 30
0.0
  9
$PUCSBASE
  2

  9
$PUCSNAME
  2

  9
$PUCSORG
 10
0.0
 20
0.0
 30
0.0
  9
$PUCSXDIR
 10
1.0
 20
0.0
 30
0.0
  9
$PUCSYDIR
 10
0.0
 20
1.0
 30
0.0
  9
$PUCSORTHOREF
  2

  9
$PUCSORTHOVIEW
 70
     0
  9
$PUCSORGTOP
 10
0.0
 20
0.0
 30
0.0
  9
$PUCSORGBOTTOM
 10
0.0
 20
0.0
 30
0.0
  9
$PUCSORGLEFT
 10
0.0
 20
0.0
 30
0.0
  9
$PUCSORGRIGHT
 10
0.0
 20
0.0
 30
0.0
  9
$PUCSORGFRONT
 10
0.0
 20
0.0
 30
0.0
  9
$PUCSORGBACK
 10
0.0
 20
0.0
 30
0.0
  9
$USERI1
 70
     0
  9
$USERI2
 70
     0
  9
$USERI3
 70
     0
  9
$USERI4
 70
     0
  9
$USERI5
 70
     0
  9
$USERR1
 40
0.0
  9
$USERR2
 40
0.0
  9
$USERR3
 40
0.0
  9
$USERR4
 40
0.0
  9
$USERR5
 40
0.0
  9
$WORLDVIEW
 70
     1
  9
$SHADEDGE
 70
     3
  9
$SHADEDIF
 70
    70
  9
$TILEMODE
 70
     1
  9
$MAXACTVP
 70
    64
  9
$PINSBASE
 10
0.0
 20
0.0
 30
0.0
  9
$PLIMCHECK
 70
     0
  9
$PEXTMIN
 10
1.000000000000000E+20
 20
1.000000000000000E+20
 30
1.000000000000000E+20
  9
$PEXTMAX
 10
-1.000000000000000E+20
 20
-1.000000000000000E+20
 30
-1.000000000000000E+20
  9
$PLIMMIN
 10
0.0
 20
0.0
  9
$PLIMMAX
 10
420.0
 20
297.0
  9
$UNITMODE
 70
     0
  9
$VISRETAIN
 70
     1
  9
$PLINEGEN
 70
     0
  9
$PSLTSCALE
 70
     1
  9
$TREEDEPTH
 70
  3020
  9
$CMLSTYLE
  2
Standard
  9
$CMLJUST
 70
     0
  9
$CMLSCALE
 40
20.0
  9
$PROXYGRAPHICS
 70
     1
  9
$MEASUREMENT
 70
     1
  9
$CELWEIGHT
370
    -1
  9
$ENDCAPS
280
     0
  9
$JOINSTYLE
280
     0
  9
$LWDISPLAY
290
     0
  9
$INSUNITS
 70
     4
  9
$HYPERLINKBASE
  1

  9
$STYLESHEET
  1

  9
$XEDIT
290
     1
  9
$CEPSNTYPE
380
     0
  9
$PSTYLEMODE
290
     1
  9
$FINGERPRINTGUID
  2
{4BFA0C56-35B5-4B4B-8A2D-CD9C184C2243}
  9
$VERSIONGUID
  2
{FAEB1C32-E019-11D5-929B-00C0DF256EC4}
  9
$EXTNAMES
290
     1
  9
$PSVPSCALE
 40
0.0
  9
$OLESTARTUP
290
     0
  9
$SORTENTS
280
   127
  9
$INDEXCTL
280
     0
  9
$HIDETEXT
280
     1
  9
$XCLIPFRAME
290
     0
  9
$HALOGAP
280
     0
  9
$OBSCOLOR
 70
   257
  9
$OBSLTYPE
280
     0
  9
$INTERSECTIONDISPLAY
280
     0
  9
$INTERSECTIONCOLOR
 70
   257
  9
$DIMASSOC
280
     2
  9
$PROJECTNAME
  1

  0
ENDSEC
  0
SECTION
  2
CLASSES
  0
CLASS
  1
ACDBDICTIONARYWDFLT
  2
AcDbDictionaryWithDefault
  3
ObjectDBX Classes
 90
        0
 91
        4
280
     0
281
     0
  0
CLASS
  1
VISUALSTYLE
  2
AcDbVisualStyle
  3
ObjectDBX Classes
 90
     4095
 91
        4
280
     0
281
     0
  0
CLASS
  1
MATERIAL
  2
AcDbMaterial
  3
ObjectDBX Classes
 90
     1153
 91
        4
280
     0
281
     0
  0
CLASS
  1
SCALE
  2
AcDbScale
  3
ObjectDBX Classes
 90
     1153
 91
        4
280
     0
281
     0
  0
CLASS
  1
TABLESTYLE
  2
AcDbTableStyle
  3
ObjectDBX Classes
 90
     4095
 91
        4
280
     0
281
     0
  0
CLASS
  1
MLEADERSTYLE
  2
AcDbMLeaderStyle
  3
ACDB_MLEADERSTYLE_CLASS
 90
     4095
 91
        4
280
     0
281
     0
  0
CLASS
  1
SUN
  2
AcDbSun
  3
SCENEOE
 90
     1153
 91
        4
280
     0
281
     0
  0
CLASS
  1
DICTIONARYVAR
  2
AcDbDictionaryVar
  3
ObjectDBX Classes
 90
        0
 91
        4
280
     0
281
     0
  0
CLASS
  1
CELLSTYLEMAP
  2
AcDbCellStyleMap
  3
ObjectDBX Classes
 90
     1152
 91
        4
280
     0
281
     0
  0
ENDSEC
  0
SECTION
  2
TABLES
  0
TABLE
  2
VPORT
  5
8
102
{ACAD_XDICTIONARY
360
445
102
}
330
0
100
AcDbSymbolTable
 70
     1
  0
VPORT
  5
29
330
8
100
AcDbSymbolTableRecord
100
AcDbViewportTableRecord
  2
*Active
 70
     0
 10
0.0
 20
0.0
 11
1.0
 21
1.0
 12
0.0
 22
0.0
 13
0.0
 23
0.0
 14
10.0
 24
10.0
 15
10.0
 25
10.0
 16
0.0
 26
0.0
 36
1.0
 17
0.0
 27
0.0
 37
0.0
 40
653.4000000000001
 41
1.414141414141414
 42
50.0
 43
0.0
 44
0.0
 50
0.0
 51
0.0
 71
     0
 72
 10000
 73
     1
 74
     3
 75
     0
 76
     0
 77
     0
 78
     0
281
     0
 65
     1
110
0.0
120
0.0
130
0.0
111
1.0
121
0.0
131
0.0
112
0.0
122
1.0
132
0.0
 79
     0
146
0.0
  0
ENDTAB
  0
TABLE
  2
LTYPE
  5
5
330
0
100
AcDbSymbolTable
 70
     3
  0
LTYPE
  5
14
330
5
100
AcDbSymbolTableRecord
100
AcDbLinetypeTableRecord
  2
ByBlock
 70
     0
  3

 72
    65
 73
     0
 40
0.0
  0
LTYPE
  5
15
330
5
100
AcDbSymbolTableRecord
100
AcDbLinetypeTableRecord
  2
ByLayer
 70
     0
  3

 72
    65
 73
     0
 40
0.0
  0
LTYPE
  5
16
330
5
100
AcDbSymbolTableRecord
100
AcDbLinetypeTableRecord
  2
Continuous
 70
     0
  3
Solid line
 72
    65
 73
     0
 40
0.0
  0
LTYPE
  5
6F
330
5
100
AcDbSymbolTableRecord
100
AcDbLinetypeTableRecord
  2
JWW_CENTER1
 70
     0
  3
-----  --  ----------  --  -----
 72
    65
 73
     4
 40
6.773333333333333
 49
4.233333333333333
 74
     0
 49
-0.8466666666666667
 74
     0
 49
0.8466666666666667
 74
     0
 49
-0.8466666666666667
 74
     0
  0
LTYPE
  5
70
330
5
100
AcDbSymbolTableRecord
100
AcDbLinetypeTableRecord
  2
JWW_DASHED1
 70
     0
  3
-  --  --  --  --  --  --  --  -
 72
    65
 73
     2
 40
1.693333333333333
 49
0.8466666666666667
 74
     0
 49
-0.8466666666666667
 74
     0
  0
ENDTAB
  0
TABLE
  2
LAYER
  5
2
330
0
100
AcDbSymbolTable
 70
     7
  0
LAYER
  5
10
330
2
100
AcDbSymbolTableRecord
100
AcDbLayerTableRecord
  2
0
 70
     0
 62
     7
  6
Continuous
370
    -3
390
F
  0
LAYER
  5
71
330
2
100
AcDbSymbolTableRecord
100
AcDbLayerTableRecord
  2
通り芯
 70
     0
 62
     7
  6
Continuous
370
    -3
390
F
  0
LAYER
  5
72
330
2
100
AcDbSymbolTableRecord
100
AcDbLayerTableRecord
  2
建具
 70
     0
 62
     7
  6
Continuous
370
    -3
390
F
  0
LAYER
  5
73
330
2
100
AcDbSymbolTableRecord
100
AcDbLayerTableRecord
  2
仕上
 70
     0
 62
     7
  6
Continuous
370
    -3
390
F
  0
LAYER
  5
74
330
2
100
AcDbSymbolTableRecord
100
AcDbLayerTableRecord
  2
寸法
 70
     0
 62
     7
  6
Continuous
370
    -3
390
F
  0
LAYER
  5
75
330
2
100
AcDbSymbolTableRecord
100
AcDbLayerTableRecord
  2
その他
 70
     0
 62
     7
  6
Continuous
370
    -3
390
F
  0
LAYER
  5
76
330
2
100
AcDbSymbolTableRecord
100
AcDbLayerTableRecord
  2
F-5ﾚｲﾔ
 70
     0
 62
     7
  6
Continuous
370
    -3
390
F
  0
ENDTAB
  0
TABLE
  2
STYLE
  5
3
330
0
100
AcDbSymbolTable
 70
     2
  0
STYLE
  5
11
330
3
100
AcDbSymbolTableRecord
100
AcDbTextStyleTableRecord
  2
Standard
 70
     0
 40
0.0
 41
1.0
 50
0.0
 71
     0
 42
2.5
  3
txt
  4

  0
STYLE
  5
6E
330
3
100
AcDbSymbolTableRecord
100
AcDbTextStyleTableRecord
  2
ＭＳ ゴシック
 70
     0
 40
1.0
 41
1.0
 50
0.0
 71
     0
 42
2.5
  3

  4

1001
ACAD
1000
MS Gothic
1071
    32817
  0
ENDTAB
  0
TABLE
  2
VIEW
  5
6
330
0
100
AcDbSymbolTable
 70
     0
  0
ENDTAB
  0
TABLE
  2
UCS
  5
7
330
0
100
AcDbSymbolTable
 70
     0
  0
ENDTAB
  0
TABLE
  2
APPID
  5
9
330
0
100
AcDbSymbolTable
 70
     2
  0
APPID
  5
12
330
9
100
AcDbSymbolTableRecord
100
AcDbRegAppTableRecord
  2
ACAD
 70
     0
  0
APPID
  5
484
330
9
100
AcDbSymbolTableRecord
100
AcDbRegAppTableRecord
  2
ACAD_MLEADERVER
 70
     0
  0
ENDTAB
  0
TABLE
  2
DIMSTYLE
  5
A
330
0
100
AcDbSymbolTable
 70
     1
100
AcDbDimStyleTable
  0
DIMSTYLE
105
27
330
A
100
AcDbSymbolTableRecord
100
AcDbDimStyleTableRecord
  2
ISO-25
 70
     0
 41
2.5
 42
0.625
 43
3.75
 44
1.25
 73
     0
 74
     0
 77
     1
 78
     8
140
2.5
141
2.5
143
0.03937007874016
147
0.625
171
     3
172
     1
178
     0
271
     2
272
     2
274
     3
278
    44
283
     0
284
     8
340
11
  0
ENDTAB
  0
TABLE
  2
BLOCK_RECORD
  5
1
330
0
100
AcDbSymbolTable
 70
     1
  0
BLOCK_RECORD
  5
1F
330
1
100
AcDbSymbolTableRecord
100
AcDbBlockTableRecord
  2
*Model_Space
340
22
  0
BLOCK_RECORD
  5
1B
330
1
100
AcDbSymbolTableRecord
100
AcDbBlockTableRecord
  2
*Paper_Space
340
1E
  0
BLOCK_RECORD
  5
23
330
1
100
AcDbSymbolTableRecord
100
AcDbBlockTableRecord
  2
*Paper_Space0
340
26
  0
ENDTAB
  0
ENDSEC
  0
SECTION
  2
BLOCKS
  0
BLOCK
  5
20
330
1F
100
AcDbEntity
  8
0
100
AcDbBlockBegin
  2
*Model_Space
 70
     0
 10
0.0
 20
0.0
 30
0.0
  3
*Model_Space
  1

  0
ENDBLK
  5
21
330
1F
100
AcDbEntity
  8
0
100
AcDbBlockEnd
  0
BLOCK
  5
1C
330
1B
100
AcDbEntity
 67
     1
  8
0
100
AcDbBlockBegin
  2
*Paper_Space
 70
     0
 10
0.0
 20
0.0
 30
0.0
  3
*Paper_Space
  1

  0
ENDBLK
  5
1D
330
1B
100
AcDbEntity
 67
     1
  8
0
100
AcDbBlockEnd
  0
BLOCK
  5
24
330
23
100
AcDbEntity
  8
0
100
AcDbBlockBegin
  2
*Paper_Space0
 70
     0
 10
0.0
 20
0.0
 30
0.0
  3
*Paper_Space0
  1

  0
ENDBLK
  5
25
330
23
100
AcDbEntity
  8
0
100
AcDbBlockEnd
  0
ENDSEC
  0
SECTION
  2
ENTITIES
  0
LINE
  5
77
330
1F
100
AcDbEntity
  8
通り芯
  6
Continuous
 62
     3
370
     9
100
AcDbLine
 10
-189.6314004727103
 20
-68.25627838834293
 30
0.0
 11
-167.9202138832889
 21
-68.25627838834293
 31
0.0
  0
LINE
  5
78
330
1F
100
AcDbEntity
  8
通り芯
  6
Continuous
 62
     3
370
     9
100
AcDbLine
 10
-136.6313988231115
 20
-68.25627838834293
 30
0.0
 11
-158.3425854125329
 21
-68.25627838834293
 31
0.0
  0
LINE
  5
79
330
1F
100
AcDbEntity
  8
建具
  6
Continuous
 62
     4
370
     9
100
AcDbLine
 10
-203.1313955239139
 20
-75.25630148272643
 30
0.0
 11
-200.4785189534957
 21
-75.25630148272643
 31
0.0
  0
LINE
  5
7A
330
1F
100
AcDbEntity
  8
建具
  6
Continuous
 62
     4
370
     9
100
AcDbLine
 10
-125.7842308543615
 20
-75.25630148272643
 30
0.0
 11
-123.1314285158901
 21
-75.25630148272643
 31
0.0
  0
LINE
  5
7B
330
1F
100
AcDbEntity
  8
通り芯
  6
Continuous
 62
     3
370
     9
100
AcDbLine
 10
-229.4313783680861
 20
-56.60601973124835
 30
0.0
 11
-231.6314153190997
 21
-55.33583688971544
 31
0.0
  0
LINE
  5
7C
330
1F
100
AcDbEntity
  8
通り芯
  6
Continuous
 62
     3
370
     9
100
AcDbLine
 10
-233.8314027821486
 20
-56.60601973124835
 30
0.0
 11
-231.6314153190997
 21
-55.33583688971544
 31
0.0
  0
LINE
  5
7D
330
1F
100
AcDbEntity
  8
通り芯
  6
Continuous
 62
     3
370
     9
100
AcDbLine
 10
-233.8314027821486
 20
-57.25624209716898
 30
0.0
 11
-233.8314027821486
 21
-56.60601973124835
 31
0.0
  0
LINE
  5
7E
330
1F
100
AcDbEntity
  8
通り芯
  6
Continuous
 62
     3
370
     9
100
AcDbLine
 10
-229.4313783680861
 20
-56.60601973124835
 30
0.0
 11
-233.8314027821486
 21
-56.60601973124835
 31
0.0
  0
LINE
  5
7F
330
1F
100
AcDbEntity
  8
通り芯
  6
Continuous
 62
     3
370
     9
100
AcDbLine
 10
-229.4313783680861
 20
-57.25624209716898
 30
0.0
 11
-229.4313783680861
 21
-56.60601973124835
 31
0.0
  0
LINE
  5
80
330
1F
100
AcDbEntity
  8
仕上
  6
Continuous
 62
     6
370
     9
100
AcDbLine
 10
-126.631266855206
 20
-25.25621075479143
 30
0.0
 11
-126.631266855206
 21
-43.25614642043757
 31
0.0
  0
LINE
  5
81
330
1F
100
AcDbEntity
  8
仕上
  6
Continuous
 62
     6
370
     9
100
AcDbLine
 10
-138.6312817015954
 20
-44.25612497565294
 30
0.0
 11
-127.6030620146232
 21
-44.25612497565294
 31
0.0
  0
LINE
  5
82
330
1F
100
AcDbEntity
  8
仕上
  6
Continuous
 62
     6
370
     9
100
AcDbLine
 10
-139.6313097447753
 20
-25.25621075479143
 30
0.0
 11
-139.6313097447753
 21
-43.25614642043757
 31
0.0
  0
LINE
  5
83
330
1F
100
AcDbEntity
  8
仕上
  6
Continuous
 62
     6
370
     9
100
AcDbLine
 10
-97.6313691303327
 20
-44.25612497565294
 30
0.0
 11
-97.1314912006452
 21
-45.25635097069096
 31
0.0
  0
LINE
  5
84
330
1F
100
AcDbEntity
  8
仕上
  6
Continuous
 62
     6
370
     9
100
AcDbLine
 10
-97.94215354756238
 20
-48.49880240650174
 30
0.0
 11
-97.1314912006452
 21
-45.25635097069096
 31
0.0
  0
LINE
  5
85
330
1F
100
AcDbEntity
  8
仕上
  6
Continuous
 62
     6
370
     9
100
AcDbLine
 10
-108.131230564032
 20
-44.25612497565294
 30
0.0
 11
-107.6312536584155
 21
-45.25630148272643
 31
0.0
  0
LINE
  5
86
330
1F
100
AcDbEntity
  8
仕上
  6
Continuous
 62
     6
370
     9
100
AcDbLine
 10
-158.6314714054595
 20
-44.25614971963518
 30
0.0
 11
-147.6313856263209
 21
-44.25614971963518
 31
0.0
  0
LINE
  5
87
330
1F
100
AcDbEntity
  8
仕上
  6
Continuous
 62
     6
370
     9
100
AcDbLine
 10
-107.6312536584155
 20
-45.25630148272643
 30
0.0
 11
-108.6312569576131
 21
-49.25626519155242
 31
0.0
  0
LINE
  5
88
330
1F
100
AcDbEntity
  8
仕上
  6
Continuous
 62
     6
370
     9
100
AcDbLine
 10
-115.4262019269966
 20
-22.73526909780242
 30
0.0
 11
-112.0685425097668
 21
-41.77707488063601
 31
0.0
  0
LINE
  5
89
330
1F
100
AcDbEntity
  8
仕上
  6
Continuous
 62
     6
370
     9
100
AcDbLine
 10
-159.631474704657
 20
-25.25621075479143
 30
0.0
 11
-159.631474704657
 21
-43.25614642043757
 31
0.0
  0
LINE
  5
8A
330
1F
100
AcDbEntity
  8
仕上
  6
Continuous
 62
     6
370
     9
100
AcDbLine
 10
-146.6313575831409
 20
-25.25621075479143
 30
0.0
 11
-146.6313575831409
 21
-43.25614642043757
 31
0.0
  0
LINE
  5
8B
330
1F
100
AcDbEntity
  8
仕上
  6
Continuous
 62
     6
370
     9
100
AcDbLine
 10
-159.631474704657
 20
-25.25621075479143
 30
0.0
 11
-160.6313295399611
 21
-20.25621900278554
 31
0.0
  0
LINE
  5
8C
330
1F
100
AcDbEntity
  8
仕上
  6
Continuous
 62
     6
370
     9
100
AcDbLine
 10
-146.6313575831409
 20
-25.25621075479143
 30
0.0
 11
-145.6312800519966
 21
-20.25621900278554
 31
0.0
  0
LINE
  5
8D
330
1F
100
AcDbEntity
  8
仕上
  6
Continuous
 62
     6
370
     9
100
AcDbLine
 10
-139.6313097447753
 20
-25.25621075479143
 30
0.0
 11
-140.6312635560084
 21
-20.25621900278554
 31
0.0
  0
LINE
  5
8E
330
1F
100
AcDbEntity
  8
仕上
  6
Continuous
 62
     6
370
     9
100
AcDbLine
 10
-126.6313163431705
 20
-25.25621075479143
 30
0.0
 11
-125.631412019902
 21
-20.25621900278554
 31
0.0
  0
LINE
  5
8F
330
1F
100
AcDbEntity
  8
仕上
  6
Continuous
 62
     6
370
     9
100
AcDbLine
 10
-120.9404478623851
 20
-20.25621900278554
 30
0.0
 11
-116.2640331664392
 21
-46.77719035255325
 31
0.0
  0
LINE
  5
90
330
1F
100
AcDbEntity
  8
仕上
  6
Continuous
 62
     6
370
     9
100
AcDbLine
 10
-199.6315076966334
 20
-25.25621075479143
 30
0.0
 11
-199.6315076966334
 21
-43.25614642043757
 31
0.0
  0
LINE
  5
91
330
1F
100
AcDbEntity
  8
仕上
  6
Continuous
 62
     6
370
     9
100
AcDbLine
 10
-187.6315175942264
 20
-44.25612497565294
 30
0.0
 11
-198.6597125372161
 21
-44.25612497565294
 31
0.0
  0
LINE
  5
92
330
1F
100
AcDbEntity
  8
仕上
  6
Continuous
 62
     6
370
     9
100
AcDbLine
 10
-186.6314895510463
 20
-25.25621075479143
 30
0.0
 11
-186.6314895510463
 21
-43.25614642043757
 31
0.0
  0
LINE
  5
93
330
1F
100
AcDbEntity
  8
仕上
  6
Continuous
 62
     6
370
     9
100
AcDbLine
 10
-228.6314549094712
 20
-44.25612497565294
 30
0.0
 11
-229.1313080951765
 21
-45.25635097069096
 31
0.0
  0
LINE
  5
94
330
1F
100
AcDbEntity
  8
仕上
  6
Continuous
 62
     6
370
     9
100
AcDbLine
 10
-228.320621004277
 20
-48.49880240650174
 30
0.0
 11
-229.1313080951765
 21
-45.25635097069096
 31
0.0
  0
LINE
  5
95
330
1F
100
AcDbEntity
  8
仕上
  6
Continuous
 62
     6
370
     9
100
AcDbLine
 10
-218.1315439878074
 20
-44.25612497565294
 30
0.0
 11
-218.631520893424
 21
-45.25630148272643
 31
0.0
  0
LINE
  5
96
330
1F
100
AcDbEntity
  8
仕上
  6
Continuous
 62
     6
370
     9
100
AcDbLine
 10
-167.6313526343445
 20
-44.25614971963518
 30
0.0
 11
-178.6314136695007
 21
-44.25614971963518
 31
0.0
  0
LINE
  5
97
330
1F
100
AcDbEntity
  8
仕上
  6
Continuous
 62
     6
370
     9
100
AcDbLine
 10
-218.631520893424
 20
-45.25630148272643
 30
0.0
 11
-217.6315670821908
 21
-49.25626519155242
 31
0.0
  0
LINE
  5
98
330
1F
100
AcDbEntity
  8
仕上
  6
Continuous
 62
     6
370
     9
100
AcDbLine
 10
-210.8365973688251
 20
-22.73526909780242
 30
0.0
 11
-214.1942320420726
 21
-41.77707488063601
 31
0.0
  0
LINE
  5
99
330
1F
100
AcDbEntity
  8
仕上
  6
Continuous
 62
     6
370
     9
100
AcDbLine
 10
-166.6313245911647
 20
-25.25621075479143
 30
0.0
 11
-166.6313245911647
 21
-43.25614642043757
 31
0.0
  0
LINE
  5
9A
330
1F
100
AcDbEntity
  8
仕上
  6
Continuous
 62
     6
370
     9
100
AcDbLine
 10
-179.6314417126807
 20
-25.25621075479143
 30
0.0
 11
-179.6314417126807
 21
-43.25614642043757
 31
0.0
  0
LINE
  5
9B
330
1F
100
AcDbEntity
  8
仕上
  6
Continuous
 62
     6
370
     9
100
AcDbLine
 10
-166.6313245911647
 20
-25.25621075479143
 30
0.0
 11
-165.6314450118783
 21
-20.25621900278554
 31
0.0
  0
LINE
  5
9C
330
1F
100
AcDbEntity
  8
仕上
  6
Continuous
 62
     6
370
     9
100
AcDbLine
 10
-179.6314417126807
 20
-25.25621075479143
 30
0.0
 11
-180.6315192438251
 21
-20.25621900278554
 31
0.0
  0
LINE
  5
9D
330
1F
100
AcDbEntity
  8
仕上
  6
Continuous
 62
     6
370
     9
100
AcDbLine
 10
-186.6314895510463
 20
-25.25621075479143
 30
0.0
 11
-185.6315357398132
 21
-20.25621900278554
 31
0.0
  0
LINE
  5
9E
330
1F
100
AcDbEntity
  8
仕上
  6
Continuous
 62
     6
370
     9
100
AcDbLine
 10
-199.6314582086688
 20
-25.25621075479143
 30
0.0
 11
-200.631412019902
 21
-20.25621900278554
 31
0.0
  0
LINE
  5
9F
330
1F
100
AcDbEntity
  8
仕上
  6
Continuous
 62
     6
370
     9
100
AcDbLine
 10
-205.3223514334366
 20
-20.25621900278554
 30
0.0
 11
-209.9987413854003
 21
-46.77719035255325
 31
0.0
  0
LINE
  5
A0
330
1F
100
AcDbEntity
  8
仕上
  6
Continuous
 62
     6
370
     9
100
AcDbLine
 10
-120.0588197743361
 20
-25.25621075479143
 30
0.0
 11
-206.2040042654678
 21
-25.25621075479143
 31
0.0
  0
LINE
  5
A1
330
1F
100
AcDbEntity
  8
仕上
  6
Continuous
 62
     6
370
     9
100
AcDbLine
 10
-118.3806334092601
 20
-20.25621900278554
 30
0.0
 11
-207.8821658865616
 21
-20.25621900278554
 31
0.0
  0
LINE
  5
A2
330
1F
100
AcDbEntity
  8
仕上
  6
Continuous
 62
     6
370
     9
100
AcDbLine
 10
-98.91221662822124
 20
-49.25626519155242
 30
0.0
 11
-100.6313295399611
 21
-49.25626519155242
 31
0.0
  0
LINE
  5
A3
330
1F
100
AcDbEntity
  8
仕上
  6
Continuous
 62
     6
370
     9
100
AcDbLine
 10
-97.1314912006452
 20
-45.25630148272643
 30
0.0
 11
-100.9395900709999
 21
-45.25630148272643
 31
0.0
  0
LINE
  5
A4
330
1F
100
AcDbEntity
  8
仕上
  6
Continuous
 62
     6
370
     9
100
AcDbLine
 10
-106.323088804108
 20
-45.25630148272643
 30
0.0
 11
-107.6312536584155
 21
-45.25630148272643
 31
0.0
  0
LINE
  5
A5
330
1F
100
AcDbEntity
  8
仕上
  6
Continuous
 62
     6
370
     9
100
AcDbLine
 10
-100.4493128064307
 20
-44.25612497565294
 30
0.0
 11
-97.6313691303327
 21
-44.25612497565294
 31
0.0
  0
LINE
  5
A6
330
1F
100
AcDbEntity
  8
仕上
  6
Continuous
 62
     6
370
     9
100
AcDbLine
 10
-116.7086330397499
 20
-44.25612497565294
 30
0.0
 11
-97.6313691303327
 21
-44.25617446361747
 31
0.0
  0
LINE
  5
A7
330
1F
100
AcDbEntity
  8
仕上
  6
Continuous
 62
     6
370
     9
100
AcDbLine
 10
-229.1313080951765
 20
-45.25630148272643
 30
0.0
 11
-225.3232092248218
 21
-45.25630148272643
 31
0.0
  0
LINE
  5
A8
330
1F
100
AcDbEntity
  8
仕上
  6
Continuous
 62
     6
370
     9
100
AcDbLine
 10
-219.9397352356959
 20
-45.25630148272643
 30
0.0
 11
-218.631520893424
 21
-45.25630148272643
 31
0.0
  0
LINE
  5
A9
330
1F
100
AcDbEntity
  8
仕上
  6
Continuous
 62
     6
370
     9
100
AcDbLine
 10
-209.5541662560718
 20
-44.25612497565294
 30
0.0
 11
-219.4494579711267
 21
-44.25614971963518
 31
0.0
  0
LINE
  5
AA
330
1F
100
AcDbEntity
  8
仕上
  6
Continuous
 62
     6
370
     9
100
AcDbLine
 10
-226.0314562291503
 20
-44.25617446361747
 30
0.0
 11
-228.6314549094712
 21
-44.25617446361747
 31
0.0
  0
LINE
  5
AB
330
1F
100
AcDbEntity
  8
仕上
  6
Continuous
 62
     6
370
     9
100
AcDbLine
 10
-106.631349335147
 20
-49.25626519155242
 30
0.0
 11
-220.5014731210422
 21
-49.25626519155242
 31
0.0
  0
LINE
  5
AC
330
1F
100
AcDbEntity
  8
仕上
  6
Continuous
 62
     6
370
     9
100
AcDbLine
 10
-224.7614960834577
 20
-49.25626519155242
 30
0.0
 11
-227.3505579236182
 21
-49.25626519155242
 31
0.0
  0
LINE
  5
AD
330
1F
100
AcDbEntity
  8
建具
  6
Continuous
 62
     4
370
     9
100
AcDbLine
 10
-203.1313955239139
 20
-115.2562354987737
 30
0.0
 11
-123.1314285158901
 21
-115.2562354987737
 31
0.0
  0
LINE
  5
AE
330
1F
100
AcDbEntity
  8
通り芯
  6
JWW_CENTER1
 62
     3
370
     9
100
AcDbLine
 10
-222.6313856263209
 20
-38.16235023167064
 30
0.0
 11
-222.6313856263209
 21
-63.57523656771372
 31
0.0
  0
LINE
  5
AF
330
1F
100
AcDbEntity
  8
通り芯
  6
Continuous
 62
     3
370
     9
100
AcDbLine
 10
-224.5452336784747
 20
-62.25630808112169
 30
0.0
 11
-219.3377141472247
 21
-62.25630808112169
 31
0.0
  0
LINE
  5
B0
330
1F
100
AcDbEntity
  8
通り芯
  6
Continuous
 62
     3
370
     9
100
AcDbLine
 10
-197.7472287032846
 20
-50.12408613749835
 30
0.0
 11
-198.3834459752441
 21
-55.03074358840632
 31
0.0
  0
LINE
  5
B1
330
1F
100
AcDbEntity
  8
通り芯
  6
Continuous
 62
     3
370
     9
100
AcDbLine
 10
-194.5070289698597
 20
-49.25628993553471
 30
0.0
 11
-196.7560095177905
 21
-49.25628993553471
 31
0.0
  0
LINE
  5
B2
330
1F
100
AcDbEntity
  8
通り芯
  6
Continuous
 62
     3
370
     9
100
AcDbLine
 10
-230.6280715822963
 20
-47.50003630641726
 30
0.0
 11
-232.1313922247161
 21
-35.25629323473231
 31
0.0
  0
LINE
  5
B3
330
1F
100
AcDbEntity
  8
通り芯
  6
JWW_DASHED1
 62
     3
370
     9
100
AcDbLine
 10
-239.865841456663
 20
-39.25630643152283
 30
0.0
 11
-238.324464569522
 21
-39.25630643152283
 31
0.0
  0
LINE
  5
B4
330
1F
100
AcDbEntity
  8
通り芯
  6
Continuous
 62
     3
370
     9
100
AcDbLine
 10
-241.8503830661435
 20
-37.50438299930158
 30
0.0
 11
-242.1314004727103
 21
-35.25629323473231
 31
0.0
  0
LINE
  5
B5
330
1F
100
AcDbEntity
  8
通り芯
  6
JWW_DASHED1
 62
     3
370
     9
100
AcDbLine
 10
-233.8056690405945
 20
-54.44235643416221
 30
0.0
 11
-235.3468232318952
 21
-41.89067450320783
 31
0.0
  0
LINE
  5
B6
330
1F
100
AcDbEntity
  8
通り芯
  6
JWW_DASHED1
 62
     3
370
     9
100
AcDbLine
 10
-229.9359823983859
 20
-53.13666597808111
 30
0.0
 11
-230.6280715822963
 21
-47.50003630641726
 31
0.0
  0
LINE
  5
B7
330
1F
100
AcDbEntity
  8
通り芯
  6
Continuous
 62
     3
370
     9
100
AcDbLine
 10
-189.3403370093445
 20
-69.71171942508283
 30
0.0
 11
-188.6313971735126
 21
-73.25629488433111
 31
0.0
  0
LINE
  5
B8
330
1F
100
AcDbEntity
  8
通り芯
  6
Continuous
 62
     3
370
     9
100
AcDbLine
 10
-188.6313971735126
 20
-73.25629488433111
 30
0.0
 11
-137.6313773783268
 21
-73.25629488433111
 31
0.0
  0
LINE
  5
B9
330
1F
100
AcDbEntity
  8
通り芯
  6
JWW_DASHED1
 62
     3
370
     9
100
AcDbLine
 10
-214.2821474110549
 20
-55.85360471857945
 30
0.0
 11
-228.0904029932972
 21
-54.88804504269262
 31
0.0
  0
LINE
  5
BA
330
1F
100
AcDbEntity
  8
通り芯
  6
JWW_DASHED1
 62
     3
370
     9
100
AcDbLine
 10
-216.3549755492517
 20
-59.71841679628216
 30
0.0
 11
-229.191732899864
 21
-58.82080409569096
 31
0.0
  0
LINE
  5
BB
330
1F
100
AcDbEntity
  8
通り芯
  6
Continuous
 62
     3
370
     9
100
AcDbLine
 10
-197.3504094597247
 20
-93.50436980251104
 30
0.0
 11
-199.521891855206
 21
-76.13226319883705
 31
0.0
  0
LINE
  5
BC
330
1F
100
AcDbEntity
  8
通り芯
  6
Continuous
 62
     3
370
     9
100
AcDbLine
 10
-130.8969809335422
 20
-95.25629323473231
 30
0.0
 11
-195.3658183622795
 21
-95.25629323473231
 31
0.0
  0
LINE
  5
BD
330
1F
100
AcDbEntity
  8
通り芯
  6
Continuous
 62
     3
370
     9
100
AcDbLine
 10
-201.5025981474357
 20
-56.74720889404398
 30
0.0
 11
-214.2821474110549
 21
-55.85360471857945
 31
0.0
  0
LINE
  5
BE
330
1F
100
AcDbEntity
  8
通り芯
  6
Continuous
 62
     3
370
     9
100
AcDbLine
 10
-198.5205771249484
 20
-64.78432651703804
 30
0.0
 11
-198.7139513463378
 21
-59.62748266146372
 31
0.0
  0
LINE
  5
BF
330
1F
100
AcDbEntity
  8
通り芯
  6
Continuous
 62
     3
370
     9
100
AcDbLine
 10
-195.8117544106326
 20
-67.65796889721122
 30
0.0
 11
-191.1087399337533
 21
-68.11325817085987
 31
0.0
  0
LINE
  5
C0
330
1F
100
AcDbEntity
  8
通り芯
  6
Continuous
 62
     3
370
     9
100
AcDbLine
 10
-203.1494586309661
 20
-74.77503102770106
 30
0.0
 11
-203.5125518267009
 21
-65.09189421657351
 31
0.0
  0
LINE
  5
C1
330
1F
100
AcDbEntity
  8
通り芯
  6
Continuous
 62
     3
370
     9
100
AcDbLine
 10
-202.6498033971191
 20
-75.25630148272643
 30
0.0
 11
-200.5141750319374
 21
-75.25630148272643
 31
0.0
  0
LINE
  5
C2
330
1F
100
AcDbEntity
  8
通り芯
  6
Continuous
 62
     3
370
     9
100
AcDbLine
 10
-225.5414758923682
 20
-63.16965795443247
 30
0.0
 11
-225.5565449775667
 21
-63.34291531824164
 31
0.0
  0
LINE
  5
C3
330
1F
100
AcDbEntity
  8
通り芯
  6
Continuous
 62
     3
370
     9
100
AcDbLine
 10
-237.7095766102736
 20
-63.33603649117237
 30
0.0
 11
-239.5170255386943
 21
-40.74297437387929
 31
0.0
  0
LINE
  5
C4
330
1F
100
AcDbEntity
  8
通り芯
  6
Continuous
 62
     3
370
     9
100
AcDbLine
 10
-217.2431855365827
 20
-59.65633414478299
 30
0.0
 11
-208.1602635032212
 21
-60.29143793754059
 31
0.0
  0
LINE
  5
C5
330
1F
100
AcDbEntity
  8
通り芯
  6
Continuous
 62
     3
370
     9
100
AcDbLine
 10
-218.295745054108
 20
-60.46927293806846
 30
0.0
 11
-218.4782319233015
 21
-61.44089488960987
 31
0.0
  0
LINE
  5
C6
330
1F
100
AcDbEntity
  8
通り芯
  6
Continuous
 62
     3
370
     9
100
AcDbLine
 10
-192.2135834858015
 20
-56.75628993553471
 30
0.0
 11
-201.3728407044459
 21
-56.75628993553471
 31
0.0
  0
LINE
  5
C7
330
1F
100
AcDbEntity
  8
通り芯
  6
Continuous
 62
     3
370
     9
100
AcDbLine
 10
-193.5157850403834
 20
-50.12413562546288
 30
0.0
 11
-192.8378494143276
 21
-55.20862807689872
 31
0.0
  0
LINE
  5
C8
330
1F
100
AcDbEntity
  8
通り芯
  6
Continuous
 62
     3
370
     9
100
AcDbLine
 10
-189.2135983321908
 20
-64.39386647691981
 30
0.0
 11
-189.2135983321908
 21
-59.75629983312757
 31
0.0
  0
LINE
  5
C9
330
1F
100
AcDbEntity
  8
通り芯
  6
Continuous
 62
     3
370
     9
100
AcDbLine
 10
-186.3543322057128
 20
-67.3905606808894
 30
0.0
 11
-167.9202138832889
 21
-68.25627838834293
 31
0.0
  0
LINE
  5
CA
330
1F
100
AcDbEntity
  8
通り芯
  6
Continuous
 62
     3
370
     9
100
AcDbLine
 10
-195.2385600614982
 20
-67.25627508914533
 30
0.0
 11
-188.1552487228158
 21
-67.25627508914533
 31
0.0
  0
LINE
  5
CB
330
1F
100
AcDbEntity
  8
通り芯
  6
Continuous
 62
     3
370
     9
100
AcDbLine
 10
-217.4079804584577
 20
-49.94959157457606
 30
0.0
 11
-216.0462448825498
 21
-54.47190074898487
 31
0.0
  0
LINE
  5
CC
330
1F
100
AcDbEntity
  8
通り芯
  6
Continuous
 62
     3
370
     9
100
AcDbLine
 10
-236.712765284788
 20
-64.25628993553471
 30
0.0
 11
-233.8314027821486
 21
-64.25628993553471
 31
0.0
  0
LINE
  5
CD
330
1F
100
AcDbEntity
  8
通り芯
  6
Continuous
 62
     3
370
     9
100
AcDbLine
 10
-229.4313783680861
 20
-64.25628993553471
 30
0.0
 11
-226.5527871914603
 21
-64.25628993553471
 31
0.0
  0
LINE
  5
CE
330
1F
100
AcDbEntity
  8
通り芯
  6
Continuous
 62
     3
370
     9
100
AcDbLine
 10
-242.1314004727103
 20
-35.25629323473231
 30
0.0
 11
-215.727666110907
 21
-35.25629323473231
 31
0.0
  0
LINE
  5
CF
330
1F
100
AcDbEntity
  8
通り芯
  6
Continuous
 62
     3
370
     9
100
AcDbLine
 10
-96.83139618375333
 20
-56.60601973124835
 30
0.0
 11
-94.6313592327399
 21
-55.33583688971544
 31
0.0
  0
LINE
  5
D0
330
1F
100
AcDbEntity
  8
通り芯
  6
Continuous
 62
     3
370
     9
100
AcDbLine
 10
-92.4314212576553
 20
-56.60601973124835
 30
0.0
 11
-94.6313592327399
 21
-55.33583688971544
 31
0.0
  0
LINE
  5
D1
330
1F
100
AcDbEntity
  8
通り芯
  6
Continuous
 62
     3
370
     9
100
AcDbLine
 10
-92.4314212576553
 20
-57.25624209716898
 30
0.0
 11
-92.4314212576553
 21
-56.60601973124835
 31
0.0
  0
LINE
  5
D2
330
1F
100
AcDbEntity
  8
通り芯
  6
Continuous
 62
     3
370
     9
100
AcDbLine
 10
-96.83139618375333
 20
-56.60601973124835
 30
0.0
 11
-92.4314212576553
 21
-56.60601973124835
 31
0.0
  0
LINE
  5
D3
330
1F
100
AcDbEntity
  8
通り芯
  6
Continuous
 62
     3
370
     9
100
AcDbLine
 10
-96.83139618375333
 20
-57.25624209716898
 30
0.0
 11
-96.83139618375333
 21
-56.60601973124835
 31
0.0
  0
LINE
  5
D4
330
1F
100
AcDbEntity
  8
通り芯
  6
JWW_CENTER1
 62
     3
370
     9
100
AcDbLine
 10
-103.6313889255185
 20
-38.09705086247726
 30
0.0
 11
-103.6313889255185
 21
-63.57523656771372
 31
0.0
  0
LINE
  5
D5
330
1F
100
AcDbEntity
  8
通り芯
  6
Continuous
 62
     3
370
     9
100
AcDbLine
 10
-101.7175408733649
 20
-62.25630808112169
 30
0.0
 11
-106.9251098925793
 21
-62.25630808112169
 31
0.0
  0
LINE
  5
D6
330
1F
100
AcDbEntity
  8
通り芯
  6
Continuous
 62
     3
370
     9
100
AcDbLine
 10
-128.5155211045726
 20
-50.12408613749835
 30
0.0
 11
-127.8793533205776
 21
-55.03074358840632
 31
0.0
  0
LINE
  5
D7
330
1F
100
AcDbEntity
  8
通り芯
  6
Continuous
 62
     3
370
     9
100
AcDbLine
 10
-131.7557455819797
 20
-49.25628993553471
 30
0.0
 11
-129.506765034049
 21
-49.25628993553471
 31
0.0
  0
LINE
  5
D8
330
1F
100
AcDbEntity
  8
通り芯
  6
Continuous
 62
     3
370
     9
100
AcDbLine
 10
-95.63472771352531
 20
-47.50003630641726
 30
0.0
 11
-94.13138232712322
 21
-35.25629323473231
 31
0.0
  0
LINE
  5
D9
330
1F
100
AcDbEntity
  8
通り芯
  6
JWW_DASHED1
 62
     3
370
     9
100
AcDbLine
 10
-86.39695783915874
 20
-39.25630643152283
 30
0.0
 11
-87.93835947028197
 21
-39.25630643152283
 31
0.0
  0
LINE
  5
DA
330
1F
100
AcDbEntity
  8
通り芯
  6
Continuous
 62
     3
370
     9
100
AcDbLine
 10
-84.41239148569593
 20
-37.50438299930158
 30
0.0
 11
-84.13139882311145
 21
-35.25629323473231
 31
0.0
  0
LINE
  5
DB
330
1F
100
AcDbEntity
  8
通り芯
  6
JWW_DASHED1
 62
     3
370
     9
100
AcDbLine
 10
-92.45710551124489
 20
-54.44235643416221
 30
0.0
 11
-90.91595131994427
 21
-41.89067450320783
 31
0.0
  0
LINE
  5
DC
330
1F
100
AcDbEntity
  8
通り芯
  6
JWW_DASHED1
 62
     3
370
     9
100
AcDbLine
 10
-96.32681689743572
 20
-53.13666597808111
 30
0.0
 11
-95.63472771352531
 21
-47.50003630641726
 31
0.0
  0
LINE
  5
DD
330
1F
100
AcDbEntity
  8
通り芯
  6
Continuous
 62
     3
370
     9
100
AcDbLine
 10
-136.9224870304595
 20
-69.71171942508283
 30
0.0
 11
-137.6313773783268
 21
-73.25629488433111
 31
0.0
  0
LINE
  5
DE
330
1F
100
AcDbEntity
  8
通り芯
  6
JWW_DASHED1
 62
     3
370
     9
100
AcDbLine
 10
-111.9806518847668
 20
-55.85360471857945
 30
0.0
 11
-98.17237155854218
 21
-54.88804504269262
 31
0.0
  0
LINE
  5
DF
330
1F
100
AcDbEntity
  8
通り芯
  6
JWW_DASHED1
 62
     3
370
     9
100
AcDbLine
 10
-109.9078484905524
 20
-59.71841679628216
 30
0.0
 11
-97.0710663959577
 21
-58.82080409569096
 31
0.0
  0
LINE
  5
E0
330
1F
100
AcDbEntity
  8
通り芯
  6
Continuous
 62
     3
370
     9
100
AcDbLine
 10
-128.9123650921149
 20
-93.50436980251104
 30
0.0
 11
-126.7408826966334
 21
-76.13226319883705
 31
0.0
  0
LINE
  5
E1
330
1F
100
AcDbEntity
  8
通り芯
  6
Continuous
 62
     3
370
     9
100
AcDbLine
 10
-124.7602258923682
 20
-56.74720889404398
 30
0.0
 11
-111.9806518847668
 21
-55.85360471857945
 31
0.0
  0
LINE
  5
E2
330
1F
100
AcDbEntity
  8
通り芯
  6
Continuous
 62
     3
370
     9
100
AcDbLine
 10
-127.7422221708732
 20
-64.78432651703804
 30
0.0
 11
-127.5488232055017
 21
-59.62748266146372
 31
0.0
  0
LINE
  5
E3
330
1F
100
AcDbEntity
  8
通り芯
  6
Continuous
 62
     3
370
     9
100
AcDbLine
 10
-130.4510448851892
 20
-67.65796889721122
 30
0.0
 11
-135.1540346180861
 21
-68.11325817085987
 31
0.0
  0
LINE
  5
E4
330
1F
100
AcDbEntity
  8
通り芯
  6
Continuous
 62
     3
370
     9
100
AcDbLine
 10
-123.1133654088378
 20
-74.77503102770106
 30
0.0
 11
-122.7502227251384
 21
-65.09189421657351
 31
0.0
  0
LINE
  5
E5
330
1F
100
AcDbEntity
  8
通り芯
  6
Continuous
 62
     3
370
     9
100
AcDbLine
 10
-123.6129958987026
 20
-75.25630148272643
 30
0.0
 11
-125.7486490078666
 21
-75.25630148272643
 31
0.0
  0
LINE
  5
E6
330
1F
100
AcDbEntity
  8
通り芯
  6
Continuous
 62
     3
370
     9
100
AcDbLine
 10
-100.7212986594712
 20
-63.16965795443247
 30
0.0
 11
-100.706254318255
 21
-63.34291531824164
 31
0.0
  0
LINE
  5
E7
330
1F
100
AcDbEntity
  8
通り芯
  6
Continuous
 62
     3
370
     9
100
AcDbLine
 10
-88.55319794156583
 20
-63.33603649117237
 30
0.0
 11
-86.7457490131452
 21
-40.74297437387929
 31
0.0
  0
LINE
  5
E8
330
1F
100
AcDbEntity
  8
通り芯
  6
Continuous
 62
     3
370
     9
100
AcDbLine
 10
-109.0196385032212
 20
-59.65633414478299
 30
0.0
 11
-118.1025605365827
 21
-60.29143793754059
 31
0.0
  0
LINE
  5
E9
330
1F
100
AcDbEntity
  8
通り芯
  6
Continuous
 62
     3
370
     9
100
AcDbLine
 10
-107.9670789856959
 20
-60.46927293806846
 30
0.0
 11
-107.7845178845557
 21
-61.44089488960987
 31
0.0
  0
LINE
  5
EA
330
1F
100
AcDbEntity
  8
通り芯
  6
Continuous
 62
     3
370
     9
100
AcDbLine
 10
-134.0492158100202
 20
-56.75628993553471
 30
0.0
 11
-124.8899338473935
 21
-56.75628993553471
 31
0.0
  0
LINE
  5
EB
330
1F
100
AcDbEntity
  8
通り芯
  6
Continuous
 62
     3
370
     9
100
AcDbLine
 10
-132.7470142554382
 20
-50.12413562546288
 30
0.0
 11
-133.4249498814941
 21
-55.20862807689872
 31
0.0
  0
LINE
  5
EC
330
1F
100
AcDbEntity
  8
通り芯
  6
Continuous
 62
     3
370
     9
100
AcDbLine
 10
-137.0492009636309
 20
-64.39386647691981
 30
0.0
 11
-137.0492009636309
 21
-59.75629983312757
 31
0.0
  0
LINE
  5
ED
330
1F
100
AcDbEntity
  8
通り芯
  6
Continuous
 62
     3
370
     9
100
AcDbLine
 10
-139.9084918340911
 20
-67.3905606808894
 30
0.0
 11
-158.3425854125329
 21
-68.25627838834293
 31
0.0
  0
LINE
  5
EE
330
1F
100
AcDbEntity
  8
通り芯
  6
Continuous
 62
     3
370
     9
100
AcDbLine
 10
-131.0242144903411
 20
-67.25627508914533
 30
0.0
 11
-138.1075505730059
 21
-67.25627508914533
 31
0.0
  0
LINE
  5
EF
330
1F
100
AcDbEntity
  8
通り芯
  6
Continuous
 62
     3
370
     9
100
AcDbLine
 10
-108.8548435813462
 20
-49.94959157457606
 30
0.0
 11
-110.216554413272
 21
-54.47190074898487
 31
0.0
  0
LINE
  5
F0
330
1F
100
AcDbEntity
  8
通り芯
  6
Continuous
 62
     3
370
     9
100
AcDbLine
 10
-89.55003401103374
 20
-64.25628993553471
 30
0.0
 11
-92.4314212576553
 21
-64.25628993553471
 31
0.0
  0
LINE
  5
F1
330
1F
100
AcDbEntity
  8
通り芯
  6
Continuous
 62
     3
370
     9
100
AcDbLine
 10
-96.83139618375333
 20
-64.25628993553471
 30
0.0
 11
-99.70996261639698
 21
-64.25628993553471
 31
0.0
  0
LINE
  5
F2
330
1F
100
AcDbEntity
  8
通り芯
  6
Continuous
 62
     3
370
     9
100
AcDbLine
 10
-84.13139882311145
 20
-35.25629323473231
 30
0.0
 11
-110.5351084409324
 21
-35.25629323473231
 31
0.0
  0
LINE
  5
F3
330
1F
100
AcDbEntity
  8
通り芯
  6
JWW_CENTER1
 62
     3
370
     9
100
AcDbLine
 10
-163.131412019902
 20
-122.4068257252306
 30
0.0
 11
-163.131412019902
 21
-9.269222790264394
 31
0.0
  0
LINE
  5
F4
330
1F
100
AcDbEntity
  8
通り芯
  6
Continuous
 62
     3
370
     9
100
AcDbLine
 10
-218.359782480206
 20
-49.25628993553471
 30
0.0
 11
-220.5014731210422
 21
-49.25628993553471
 31
0.0
  0
LINE
  5
F5
330
1F
100
AcDbEntity
  8
通り芯
  6
Continuous
 62
     3
370
     9
100
AcDbLine
 10
-224.7614960834577
 20
-49.25628993553471
 30
0.0
 11
-228.642985605206
 21
-49.25628993553471
 31
0.0
  0
LINE
  5
F6
330
1F
100
AcDbEntity
  8
通り芯
  6
Continuous
 62
     3
370
     9
100
AcDbLine
 10
-107.9030415595979
 20
-49.25628993553471
 30
0.0
 11
-105.7613509187618
 21
-49.25628993553471
 31
0.0
  0
LINE
  5
F7
330
1F
100
AcDbEntity
  8
通り芯
  6
Continuous
 62
     3
370
     9
100
AcDbLine
 10
-101.5013279563462
 20
-49.25628993553471
 30
0.0
 11
-97.61978894663343
 21
-49.25628993553471
 31
0.0
  0
LINE
  5
F8
330
1F
100
AcDbEntity
  8
通り芯
  6
Continuous
 62
     3
370
     9
100
AcDbLine
 10
-192.9413782361182
 20
-95.25626849075005
 30
0.0
 11
-191.4293477119417
 21
-94.25628993553468
 31
0.0
  0
LINE
  5
F9
330
1F
100
AcDbEntity
  8
通り芯
  6
Continuous
 62
     3
370
     9
100
AcDbLine
 10
-194.1314153190997
 20
-77.84976775172976
 30
0.0
 11
-194.1314153190997
 21
-73.2563196283134
 31
0.0
  0
LINE
  5
FA
330
1F
100
AcDbEntity
  8
通り芯
  6
Continuous
 62
     3
370
     9
100
AcDbLine
 10
-194.1313658311351
 20
-80.25626849075007
 30
0.0
 11
-194.1313658311351
 21
-76.66279892254903
 31
0.0
  0
LINE
  5
FB
330
1F
100
AcDbEntity
  8
通り芯
  6
Continuous
 62
     3
370
     9
100
AcDbLine
 10
-191.4293477119417
 20
-94.25628993553468
 30
0.0
 11
-190.9918741055228
 21
-80.25626849075007
 31
0.0
  0
LINE
  5
FC
330
1F
100
AcDbEntity
  8
通り芯
  6
Continuous
 62
     3
370
     9
100
AcDbLine
 10
-192.9413782361182
 20
-95.25626849075005
 30
0.0
 11
-192.4725787481536
 21
-80.25626849075007
 31
0.0
  0
LINE
  5
FD
330
1F
100
AcDbEntity
  8
通り芯
  6
Continuous
 62
     3
370
     9
100
AcDbLine
 10
-194.1314153190997
 20
-73.2563196283134
 30
0.0
 11
-163.131412019902
 21
-73.2563196283134
 31
0.0
  0
LINE
  5
FE
330
1F
100
AcDbEntity
  8
通り芯
  6
Continuous
 62
     3
370
     9
100
AcDbLine
 10
-194.1313658311351
 20
-80.25626849075007
 30
0.0
 11
-163.131412019902
 21
-80.25626849075007
 31
0.0
  0
LINE
  5
FF
330
1F
100
AcDbEntity
  8
通り芯
  6
Continuous
 62
     3
370
     9
100
AcDbLine
 10
-191.4293477119417
 20
-94.25628993553468
 30
0.0
 11
-163.131412019902
 21
-94.25628993553468
 31
0.0
  0
LINE
  5
100
330
1F
100
AcDbEntity
  8
通り芯
  6
Continuous
 62
     3
370
     9
100
AcDbLine
 10
-133.3214458036857
 20
-95.25626849075005
 30
0.0
 11
-134.8334020959155
 21
-94.25628993553468
 31
0.0
  0
LINE
  5
101
330
1F
100
AcDbEntity
  8
通り芯
  6
Continuous
 62
     3
370
     9
100
AcDbLine
 10
-132.1314087207043
 20
-77.84976775172976
 30
0.0
 11
-132.1314087207043
 21
-73.2563196283134
 31
0.0
  0
LINE
  5
102
330
1F
100
AcDbEntity
  8
通り芯
  6
Continuous
 62
     3
370
     9
100
AcDbLine
 10
-132.1314582086688
 20
-80.25626849075007
 30
0.0
 11
-132.1314582086688
 21
-76.66279892254903
 31
0.0
  0
LINE
  5
103
330
1F
100
AcDbEntity
  8
通り芯
  6
Continuous
 62
     3
370
     9
100
AcDbLine
 10
-134.8334020959155
 20
-94.25628993553468
 30
0.0
 11
-135.270925190299
 21
-80.25626849075007
 31
0.0
  0
LINE
  5
104
330
1F
100
AcDbEntity
  8
通り芯
  6
Continuous
 62
     3
370
     9
100
AcDbLine
 10
-133.3214458036857
 20
-95.25626849075005
 30
0.0
 11
-133.7901710597034
 21
-80.25626849075007
 31
0.0
  0
LINE
  5
105
330
1F
100
AcDbEntity
  8
通り芯
  6
Continuous
 62
     3
370
     9
100
AcDbLine
 10
-132.1314087207043
 20
-73.2563196283134
 30
0.0
 11
-163.131412019902
 21
-73.2563196283134
 31
0.0
  0
LINE
  5
106
330
1F
100
AcDbEntity
  8
通り芯
  6
Continuous
 62
     3
370
     9
100
AcDbLine
 10
-132.1314582086688
 20
-80.25626849075007
 30
0.0
 11
-163.131412019902
 21
-80.25626849075007
 31
0.0
  0
LINE
  5
107
330
1F
100
AcDbEntity
  8
通り芯
  6
Continuous
 62
     3
370
     9
100
AcDbLine
 10
-134.8334020959155
 20
-94.25628993553468
 30
0.0
 11
-163.131412019902
 21
-94.25628993553468
 31
0.0
  0
ARC
  5
108
330
1F
100
AcDbEntity
  8
仕上
  6
Continuous
 62
     6
370
     9
100
AcDbCircle
 10
-127.6312701544036
 20
-43.25614642043757
 30
0.0
 40
1.000000012887491
100
AcDbArc
 50
270.0
 51
0.0
  0
ARC
  5
109
330
1F
100
AcDbEntity
  8
仕上
  6
Continuous
 62
     6
370
     9
100
AcDbCircle
 10
-138.6312817015954
 20
-43.25614642043757
 30
0.0
 40
1.000000012887491
100
AcDbArc
 50
180.0
 51
270.0
  0
ARC
  5
10A
330
1F
100
AcDbEntity
  8
仕上
  6
Continuous
 62
     6
370
     9
100
AcDbCircle
 10
-147.6313856263209
 20
-43.25614642043757
 30
0.0
 40
1.000000012887491
100
AcDbArc
 50
270.0
 51
0.0
  0
ARC
  5
10B
330
1F
100
AcDbEntity
  8
仕上
  6
Continuous
 62
     6
370
     9
100
AcDbCircle
 10
-158.6314714054595
 20
-43.25614642043757
 30
0.0
 40
1.000000012887491
100
AcDbArc
 50
180.0
 51
270.0
  0
ARC
  5
10C
330
1F
100
AcDbEntity
  8
仕上
  6
Continuous
 62
     6
370
     9
100
AcDbCircle
 10
-127.6312701544036
 20
-43.25612167645528
 30
0.0
 40
1.000000012887491
100
AcDbArc
 50
270.0
 51
0.0
  0
ARC
  5
10D
330
1F
100
AcDbEntity
  8
仕上
  6
Continuous
 62
     6
370
     9
100
AcDbCircle
 10
-138.6312817015954
 20
-43.25612167645528
 30
0.0
 40
1.000000012887491
100
AcDbArc
 50
180.0
 51
270.0
  0
ARC
  5
10E
330
1F
100
AcDbEntity
  8
仕上
  6
Continuous
 62
     6
370
     9
100
AcDbCircle
 10
-98.91221662822124
 20
-48.25626189235476
 30
0.0
 40
1.000000012887491
100
AcDbArc
 50
270.0
 51
345.9637603759766
  0
ARC
  5
10F
330
1F
100
AcDbEntity
  8
仕上
  6
Continuous
 62
     6
370
     9
100
AcDbCircle
 10
-113.3096511721401
 20
-46.2562552939595
 30
0.0
 40
3.000000038662472
100
AcDbArc
 50
189.9998474121093
 51
270.0
  0
ARC
  5
110
330
1F
100
AcDbEntity
  8
仕上
  6
Continuous
 62
     6
370
     9
100
AcDbCircle
 10
-109.1141605154678
 20
-41.25611507806002
 30
0.0
 40
3.000000038662472
100
AcDbArc
 50
190.0001831054688
 51
270.0
  0
ARC
  5
111
330
1F
100
AcDbEntity
  8
仕上
  6
Continuous
 62
     6
370
     9
100
AcDbCircle
 10
-118.3806334092601
 20
-23.25622890037846
 30
0.0
 40
3.000000038662472
100
AcDbArc
 50
10.00018310546875
 51
90.0
  0
ARC
  5
112
330
1F
100
AcDbEntity
  8
仕上
  6
Continuous
 62
     6
370
     9
100
AcDbCircle
 10
-120.8978882128918
 20
-26.25621405398908
 30
0.0
 40
1.000000012887491
100
AcDbArc
 50
10.00028991699219
 51
90.0
  0
ARC
  5
113
330
1F
100
AcDbEntity
  8
仕上
  6
Continuous
 62
     6
370
     9
100
AcDbCircle
 10
-198.6315043974357
 20
-43.25614642043757
 30
0.0
 40
1.000000012887491
100
AcDbArc
 50
180.0
 51
270.0
  0
ARC
  5
114
330
1F
100
AcDbEntity
  8
仕上
  6
Continuous
 62
     6
370
     9
100
AcDbCircle
 10
-187.6315175942264
 20
-43.25614642043757
 30
0.0
 40
1.000000012887491
100
AcDbArc
 50
270.0
 51
0.0
  0
ARC
  5
115
330
1F
100
AcDbEntity
  8
仕上
  6
Continuous
 62
     6
370
     9
100
AcDbCircle
 10
-178.6314136695007
 20
-43.25614642043757
 30
0.0
 40
1.000000012887491
100
AcDbArc
 50
180.0
 51
270.0
  0
ARC
  5
116
330
1F
100
AcDbEntity
  8
仕上
  6
Continuous
 62
     6
370
     9
100
AcDbCircle
 10
-167.6313526343445
 20
-43.25614642043757
 30
0.0
 40
1.000000012887491
100
AcDbArc
 50
270.0
 51
0.0
  0
ARC
  5
117
330
1F
100
AcDbEntity
  8
仕上
  6
Continuous
 62
     6
370
     9
100
AcDbCircle
 10
-198.6315043974357
 20
-43.25612167645528
 30
0.0
 40
1.000000012887491
100
AcDbArc
 50
180.0
 51
270.0
  0
ARC
  5
118
330
1F
100
AcDbEntity
  8
仕上
  6
Continuous
 62
     6
370
     9
100
AcDbCircle
 10
-187.6315175942264
 20
-43.25612167645528
 30
0.0
 40
1.000000012887491
100
AcDbArc
 50
270.0
 51
0.0
  0
ARC
  5
119
330
1F
100
AcDbEntity
  8
仕上
  6
Continuous
 62
     6
370
     9
100
AcDbCircle
 10
-227.3505579236182
 20
-48.25626189235476
 30
0.0
 40
1.000000012887491
100
AcDbArc
 50
194.0362396240234
 51
270.0
  0
ARC
  5
11A
330
1F
100
AcDbEntity
  8
仕上
  6
Continuous
 62
     6
370
     9
100
AcDbCircle
 10
-212.9531233796993
 20
-46.2562552939595
 30
0.0
 40
3.000000038662472
100
AcDbArc
 50
270.0
 51
350.0001525878906
  0
ARC
  5
11B
330
1F
100
AcDbEntity
  8
仕上
  6
Continuous
 62
     6
370
     9
100
AcDbCircle
 10
-217.1486635243361
 20
-41.25611507806002
 30
0.0
 40
3.000000038662472
100
AcDbArc
 50
270.0
 51
349.9998168945312
  0
ARC
  5
11C
330
1F
100
AcDbEntity
  8
仕上
  6
Continuous
 62
     6
370
     9
100
AcDbCircle
 10
-207.8821658865616
 20
-23.25622890037846
 30
0.0
 40
3.000000038662472
100
AcDbArc
 50
90.0
 51
169.9998168945312
  0
ARC
  5
11D
330
1F
100
AcDbEntity
  8
仕上
  6
Continuous
 62
     6
370
     9
100
AcDbCircle
 10
-205.3649110829299
 20
-26.25621405398908
 30
0.0
 40
1.000000012887491
100
AcDbArc
 50
90.0
 51
169.9997100830078
  0
ARC
  5
11E
330
1F
100
AcDbEntity
  8
通り芯
  6
Continuous
 62
     3
370
     9
100
AcDbCircle
 10
-196.7560095177905
 20
-50.25629323473231
 30
0.0
 40
1.000000012887491
100
AcDbArc
 50
90.0
 51
172.403564453125
  0
ARC
  5
11F
330
1F
100
AcDbEntity
  8
通り芯
  6
Continuous
 62
     3
370
     9
100
AcDbCircle
 10
-194.5070289698597
 20
-50.25629323473231
 30
0.0
 40
1.000000012887491
100
AcDbArc
 50
7.594314575195312
 51
89.99999999999999
  0
ARC
  5
120
330
1F
100
AcDbEntity
  8
通り芯
  6
JWW_DASHED1
 62
     3
370
     9
100
AcDbCircle
 10
-238.324464569522
 20
-42.25629158513351
 30
0.0
 40
3.000000038662472
100
AcDbArc
 50
7.000061035156251
 51
89.99999999999999
  0
ARC
  5
121
330
1F
100
AcDbEntity
  8
通り芯
  6
JWW_DASHED1
 62
     3
370
     9
100
AcDbCircle
 10
-228.8429664698597
 20
-53.83301112694096
 30
0.0
 40
5.000000257749815
100
AcDbArc
 50
187.0000457763672
 51
266.0000457763672
  0
ARC
  5
122
330
1F
100
AcDbEntity
  8
通り芯
  6
JWW_DASHED1
 62
     3
370
     9
100
AcDbCircle
 10
-227.9508964212955
 20
-52.89293775278554
 30
0.0
 40
2.000000025774982
100
AcDbArc
 50
187.0000457763672
 51
266.0001373291016
  0
ARC
  5
123
330
1F
100
AcDbEntity
  8
通り芯
  6
Continuous
 62
     3
370
     9
100
AcDbCircle
 10
-191.3014708116038
 20
-70.10396103192403
 30
0.0
 40
2.000000025774982
100
AcDbArc
 50
11.30973815917969
 51
84.47045898437501
  0
ARC
  5
124
330
1F
100
AcDbEntity
  8
通り芯
  6
Continuous
 62
     3
370
     9
100
AcDbCircle
 10
-200.5141750319374
 20
-76.25630478192403
 30
0.0
 40
1.000000012887491
100
AcDbArc
 50
7.125259399414062
 51
90.0
  0
ARC
  5
125
330
1F
100
AcDbEntity
  8
通り芯
  6
Continuous
 62
     3
370
     9
100
AcDbCircle
 10
-195.3658183622795
 20
-93.25628663633705
 30
0.0
 40
2.000000025774982
100
AcDbArc
 50
187.125015258789
 51
270.0
  0
ARC
  5
126
330
1F
100
AcDbEntity
  8
通り芯
  6
Continuous
 62
     3
370
     9
100
AcDbCircle
 10
-201.711833261456
 20
-59.7398945728869
 30
0.0
 40
3.000000038662472
100
AcDbArc
 50
2.147598266601562
 51
86.00030517578125
  0
ARC
  5
127
330
1F
100
AcDbEntity
  8
通り芯
  6
Continuous
 62
     3
370
     9
100
AcDbCircle
 10
-195.5226704658479
 20
-64.67191460561492
 30
0.0
 40
3.000000038662472
100
AcDbArc
 50
182.1475982666016
 51
264.470458984375
  0
ARC
  5
128
330
1F
100
AcDbEntity
  8
通り芯
  6
Continuous
 62
     3
370
     9
100
AcDbCircle
 10
-208.5090546772077
 20
-65.27925565027289
 30
0.0
 40
5.000000257749815
100
AcDbArc
 50
2.147537231445312
 51
86.00004577636719
  0
ARC
  5
129
330
1F
100
AcDbEntity
  8
通り芯
  6
Continuous
 62
     3
370
     9
100
AcDbCircle
 10
-200.3659090902145
 20
-54.76635413792064
 30
0.0
 40
2.000000025774982
100
AcDbArc
 50
275.7486572265625
 51
352.4036407470703
  0
ARC
  5
12A
330
1F
100
AcDbEntity
  8
通り芯
  6
Continuous
 62
     3
370
     9
100
AcDbCircle
 10
-202.6498033971191
 20
-74.75629983312757
 30
0.0
 40
0.5000000064437454
100
AcDbArc
 50
182.1458892822266
 51
270.0
  0
ARC
  5
12B
330
1F
100
AcDbEntity
  8
通り芯
  6
Continuous
 62
     3
370
     9
100
AcDbCircle
 10
-226.5527871914603
 20
-63.25628663633705
 30
0.0
 40
1.000000012887491
100
AcDbArc
 50
270.0
 51
355.0302124023438
  0
ARC
  5
12C
330
1F
100
AcDbEntity
  8
通り芯
  6
Continuous
 62
     3
370
     9
100
AcDbCircle
 10
-224.5452336784747
 20
-63.25628663633705
 30
0.0
 40
1.000000012887491
100
AcDbArc
 50
90.0
 51
175.0302124023438
  0
ARC
  5
12D
330
1F
100
AcDbEntity
  8
通り芯
  6
Continuous
 62
     3
370
     9
100
AcDbCircle
 10
-236.712765284788
 20
-63.25628663633705
 30
0.0
 40
1.000000012887491
100
AcDbArc
 50
184.5744018554688
 51
270.0
  0
ARC
  5
12E
330
1F
100
AcDbEntity
  8
通り芯
  6
Continuous
 62
     3
370
     9
100
AcDbCircle
 10
-241.5106481896655
 20
-40.90244933956762
 30
0.0
 40
2.000000025774982
100
AcDbArc
 50
4.573928833007812
 51
65.71943664550781
  0
ARC
  5
12F
330
1F
100
AcDbEntity
  8
通り芯
  6
JWW_DASHED1
 62
     3
370
     9
100
AcDbCircle
 10
-239.865841456663
 20
-37.25629983312757
 30
0.0
 40
2.000000025774982
100
AcDbArc
 50
239.2999725341797
 51
270.0
  0
ARC
  5
130
330
1F
100
AcDbEntity
  8
通り芯
  6
Continuous
 62
     3
370
     9
100
AcDbCircle
 10
-239.865841456663
 20
-37.25629983312757
 30
0.0
 40
2.000000025774982
100
AcDbArc
 50
187.1253204345703
 51
245.7194366455078
  0
ARC
  5
131
330
1F
100
AcDbEntity
  8
通り芯
  6
Continuous
 62
     3
370
     9
100
AcDbCircle
 10
-219.4610381548259
 20
-61.25628003794179
 30
0.0
 40
1.000000012887491
100
AcDbArc
 50
270.0
 51
349.3623046875
  0
ARC
  5
132
330
1F
100
AcDbEntity
  8
通り芯
  6
Continuous
 62
     3
370
     9
100
AcDbCircle
 10
-217.3129388225836
 20
-60.65386304575429
 30
0.0
 40
1.000000012887491
100
AcDbArc
 50
85.99960327148439
 51
169.3621215820313
  0
ARC
  5
133
330
1F
100
AcDbEntity
  8
通り芯
  6
Continuous
 62
     3
370
     9
100
AcDbCircle
 10
-192.2135834858015
 20
-59.75629983312757
 30
0.0
 40
3.000000038662472
100
AcDbArc
 50
0.0
 51
90.0
  0
ARC
  5
134
330
1F
100
AcDbEntity
  8
通り芯
  6
Continuous
 62
     3
370
     9
100
AcDbCircle
 10
-190.8554110433395
 20
-54.94431285835987
 30
0.0
 40
2.000000025774982
100
AcDbArc
 50
187.5948791503907
 51
254.2380981445312
  0
ARC
  5
135
330
1F
100
AcDbEntity
  8
通り芯
  6
Continuous
 62
     3
370
     9
100
AcDbCircle
 10
-186.2135884345979
 20
-64.39386647691981
 30
0.0
 40
3.000000038662472
100
AcDbArc
 50
180.0
 51
267.3112182617188
  0
ARC
  5
136
330
1F
100
AcDbEntity
  8
通り芯
  6
Continuous
 62
     3
370
     9
100
AcDbCircle
 10
-228.642985605206
 20
-47.25628333713939
 30
0.0
 40
2.000000025774982
100
AcDbArc
 50
187.0000457763672
 51
270.0
  0
ARC
  5
137
330
1F
100
AcDbEntity
  8
通り芯
  6
Continuous
 62
     3
370
     9
100
AcDbCircle
 10
-214.1426160950709
 20
-53.85847268469007
 30
0.0
 40
2.000000025774982
100
AcDbArc
 50
197.8612823486328
 51
265.9996337890625
  0
ARC
  5
138
330
1F
100
AcDbEntity
  8
通り芯
  6
Continuous
 62
     3
370
     9
100
AcDbCircle
 10
-218.359782480206
 20
-50.25629323473231
 30
0.0
 40
1.000000012887491
100
AcDbArc
 50
17.86143493652344
 51
90.00000000000001
  0
ARC
  5
139
330
1F
100
AcDbEntity
  8
通り芯
  6
Continuous
 62
     3
370
     9
100
AcDbCircle
 10
-129.506765034049
 20
-50.25629323473231
 30
0.0
 40
1.000000012887491
100
AcDbArc
 50
7.59643554687499
 51
89.99999999999999
  0
ARC
  5
13A
330
1F
100
AcDbEntity
  8
通り芯
  6
Continuous
 62
     3
370
     9
100
AcDbCircle
 10
-131.7557455819797
 20
-50.25629323473231
 30
0.0
 40
1.000000012887491
100
AcDbArc
 50
90.0
 51
172.4056854248047
  0
ARC
  5
13B
330
1F
100
AcDbEntity
  8
通り芯
  6
JWW_DASHED1
 62
     3
370
     9
100
AcDbCircle
 10
-87.93835947028197
 20
-42.25629158513351
 30
0.0
 40
3.000000038662472
100
AcDbArc
 50
90.0
 51
172.9999389648438
  0
ARC
  5
13C
330
1F
100
AcDbEntity
  8
通り芯
  6
JWW_DASHED1
 62
     3
370
     9
100
AcDbCircle
 10
-97.41985756994427
 20
-53.83301112694096
 30
0.0
 40
5.000000257749815
100
AcDbArc
 50
273.9999542236328
 51
352.9999542236329
  0
ARC
  5
13D
330
1F
100
AcDbEntity
  8
通り芯
  6
JWW_DASHED1
 62
     3
370
     9
100
AcDbCircle
 10
-98.31187813054385
 20
-52.89293775278554
 30
0.0
 40
2.000000025774982
100
AcDbArc
 50
273.9998626708984
 51
352.9999542236328
  0
ARC
  5
13E
330
1F
100
AcDbEntity
  8
通り芯
  6
Continuous
 62
     3
370
     9
100
AcDbCircle
 10
-134.9613284842178
 20
-70.10396103192403
 30
0.0
 40
2.000000025774982
100
AcDbArc
 50
95.52954101562503
 51
168.6902618408203
  0
ARC
  5
13F
330
1F
100
AcDbEntity
  8
通り芯
  6
Continuous
 62
     3
370
     9
100
AcDbCircle
 10
-125.7486490078666
 20
-76.25630478192403
 30
0.0
 40
1.000000012887491
100
AcDbArc
 50
90.0
 51
172.8747406005859
  0
ARC
  5
140
330
1F
100
AcDbEntity
  8
通り芯
  6
Continuous
 62
     3
370
     9
100
AcDbCircle
 10
-130.8969809335422
 20
-93.25628663633705
 30
0.0
 40
2.000000025774982
100
AcDbArc
 50
270.0
 51
352.874984741211
  0
ARC
  5
141
330
1F
100
AcDbEntity
  8
通り芯
  6
Continuous
 62
     3
370
     9
100
AcDbCircle
 10
-124.5509412903834
 20
-59.7398945728869
 30
0.0
 40
3.000000038662472
100
AcDbArc
 50
93.99969482421872
 51
177.8524017333984
  0
ARC
  5
142
330
1F
100
AcDbEntity
  8
通り芯
  6
Continuous
 62
     3
370
     9
100
AcDbCircle
 10
-130.7401040859916
 20
-64.67191460561492
 30
0.0
 40
3.000000038662472
100
AcDbArc
 50
275.5295410156251
 51
357.8524017333984
  0
ARC
  5
143
330
1F
100
AcDbEntity
  8
通り芯
  6
Continuous
 62
     3
370
     9
100
AcDbCircle
 10
-117.7537693625962
 20
-65.27925565027289
 30
0.0
 40
5.000000257749815
100
AcDbArc
 50
93.99995422363281
 51
177.8524627685547
  0
ARC
  5
144
330
1F
100
AcDbEntity
  8
通り芯
  6
Continuous
 62
     3
370
     9
100
AcDbCircle
 10
-125.8969149495895
 20
-54.76635413792064
 30
0.0
 40
2.000000025774982
100
AcDbArc
 50
187.5963592529297
 51
264.2513427734375
  0
ARC
  5
145
330
1F
100
AcDbEntity
  8
通り芯
  6
Continuous
 62
     3
370
     9
100
AcDbCircle
 10
-123.6129958987026
 20
-74.75629983312757
 30
0.0
 40
0.5000000064437454
100
AcDbArc
 50
270.0
 51
357.8541107177734
  0
ARC
  5
146
330
1F
100
AcDbEntity
  8
通り芯
  6
Continuous
 62
     3
370
     9
100
AcDbCircle
 10
-99.70996261639698
 20
-63.25628663633705
 30
0.0
 40
1.000000012887491
100
AcDbArc
 50
184.9697875976562
 51
270.0
  0
ARC
  5
147
330
1F
100
AcDbEntity
  8
通り芯
  6
Continuous
 62
     3
370
     9
100
AcDbCircle
 10
-101.7175408733649
 20
-63.25628663633705
 30
0.0
 40
1.000000012887491
100
AcDbArc
 50
4.969787597656243
 51
90.0
  0
ARC
  5
148
330
1F
100
AcDbEntity
  8
通り芯
  6
Continuous
 62
     3
370
     9
100
AcDbCircle
 10
-89.55003401103374
 20
-63.25628663633705
 30
0.0
 40
1.000000012887491
100
AcDbArc
 50
270.0
 51
355.4255981445312
  0
ARC
  5
149
330
1F
100
AcDbEntity
  8
通り芯
  6
Continuous
 62
     3
370
     9
100
AcDbCircle
 10
-84.75212636217395
 20
-40.90244933956762
 30
0.0
 40
2.000000025774982
100
AcDbArc
 50
114.2805633544922
 51
175.4260711669922
  0
ARC
  5
14A
330
1F
100
AcDbEntity
  8
通り芯
  6
JWW_DASHED1
 62
     3
370
     9
100
AcDbCircle
 10
-86.39695783915874
 20
-37.25629983312757
 30
0.0
 40
2.000000025774982
100
AcDbArc
 50
270.0
 51
300.7000274658203
  0
ARC
  5
14B
330
1F
100
AcDbEntity
  8
通り芯
  6
Continuous
 62
     3
370
     9
100
AcDbCircle
 10
-86.39695783915874
 20
-37.25629983312757
 30
0.0
 40
2.000000025774982
100
AcDbArc
 50
294.2805633544922
 51
352.8746795654297
  0
ARC
  5
14C
330
1F
100
AcDbEntity
  8
通り芯
  6
Continuous
 62
     3
370
     9
100
AcDbCircle
 10
-106.8017363970134
 20
-61.25628003794179
 30
0.0
 40
1.000000012887491
100
AcDbArc
 50
190.6376953125
 51
270.0
  0
ARC
  5
14D
330
1F
100
AcDbEntity
  8
通り芯
  6
Continuous
 62
     3
370
     9
100
AcDbCircle
 10
-108.9498604732381
 20
-60.65386304575429
 30
0.0
 40
1.000000012887491
100
AcDbArc
 50
10.63787841796875
 51
94.00039672851562
  0
ARC
  5
14E
330
1F
100
AcDbEntity
  8
通り芯
  6
Continuous
 62
     3
370
     9
100
AcDbCircle
 10
-134.0492158100202
 20
-59.75629983312757
 30
0.0
 40
3.000000038662472
100
AcDbArc
 50
90.0
 51
180.0
  0
ARC
  5
14F
330
1F
100
AcDbEntity
  8
通り芯
  6
Continuous
 62
     3
370
     9
100
AcDbCircle
 10
-135.4074129964645
 20
-54.94431285835987
 30
0.0
 40
2.000000025774982
100
AcDbArc
 50
285.7619018554688
 51
352.4051208496094
  0
ARC
  5
150
330
1F
100
AcDbEntity
  8
通り芯
  6
Continuous
 62
     3
370
     9
100
AcDbCircle
 10
-140.0492108612237
 20
-64.39386647691981
 30
0.0
 40
3.000000038662472
100
AcDbArc
 50
272.6887817382812
 51
0.0
  0
ARC
  5
151
330
1F
100
AcDbEntity
  8
通り芯
  6
Continuous
 62
     3
370
     9
100
AcDbCircle
 10
-97.61978894663343
 20
-47.25628333713939
 30
0.0
 40
2.000000025774982
100
AcDbArc
 50
270.0
 51
352.9999542236328
  0
ARC
  5
152
330
1F
100
AcDbEntity
  8
通り芯
  6
Continuous
 62
     3
370
     9
100
AcDbCircle
 10
-112.1201584567685
 20
-53.85847268469007
 30
0.0
 40
2.000000025774982
100
AcDbArc
 50
274.0003662109375
 51
342.1387176513671
  0
ARC
  5
153
330
1F
100
AcDbEntity
  8
通り芯
  6
Continuous
 62
     3
370
     9
100
AcDbCircle
 10
-107.9030415595979
 20
-50.25629323473231
 30
0.0
 40
1.000000012887491
100
AcDbArc
 50
90.0
 51
162.1385650634766
  0
LINE
  5
154
330
1F
100
AcDbEntity
  8
寸法
  6
Continuous
 62
     7
370
     9
100
AcDbLine
 10
-242.6314021223091
 20
-88.25627014034887
 30
0.0
 11
-244.5448542707466
 21
-92.87564995717742
 31
0.0
  0
LINE
  5
155
330
1F
100
AcDbEntity
  8
寸法
  6
Continuous
 62
     7
370
     9
100
AcDbLine
 10
-242.6314021223091
 20
-88.25627014034887
 30
0.0
 11
-245.6752088685084
 21
-92.22305216895953
 31
0.0
  0
LINE
  5
156
330
1F
100
AcDbEntity
  8
寸法
  6
Continuous
 62
     7
370
     9
100
AcDbLine
 10
-257.301515350772
 20
2.684644529203467
 30
0.0
 11
-315.2768637460422
 21
2.684644529203467
 31
0.0
  0
LINE
  5
157
330
1F
100
AcDbEntity
  8
寸法
  6
Continuous
 62
     7
370
     9
100
AcDbLine
 10
-242.6314021223091
 20
-88.25627014034887
 30
0.0
 11
-254.327511378538
 21
-111.6271593400955
 31
0.0
  0
TEXT
  5
158
330
1F
100
AcDbEntity
  8
寸法
  6
Continuous
 62
     7
370
     9
100
AcDbText
 10
-314.546961633236
 20
5.713806084313315
 30
0.0
 40
4.572
  1
本体：ＳＣＳ１３
 41
1.145833333333333
  7
ＭＳ ゴシック
100
AcDbText
  0
LINE
  5
159
330
1F
100
AcDbEntity
  8
寸法
  6
Continuous
 62
     7
370
     9
100
AcDbLine
 10
-257.301515350772
 20
2.684644529203467
 30
0.0
 11
-238.5182346946275
 21
-53.18033910677622
 31
0.0
  0
LINE
  5
15A
330
1F
100
AcDbEntity
  8
寸法
  6
Continuous
 62
     7
370
     9
100
AcDbLine
 10
-238.5182346946275
 20
-53.18033910677622
 30
0.0
 11
-240.7166880307761
 21
-48.68957850975346
 31
0.0
  0
LINE
  5
15B
330
1F
100
AcDbEntity
  8
寸法
  6
Continuous
 62
     7
370
     9
100
AcDbLine
 10
-238.5182346946275
 20
-53.18033910677622
 30
0.0
 11
-239.4794641736182
 21
-48.27360742392153
 31
0.0
  0
LINE
  5
15C
330
1F
100
AcDbEntity
  8
寸法
  6
Continuous
 62
     7
370
     9
100
AcDbLine
 10
-103.6313889255185
 20
-40.35610530418702
 30
0.0
 11
-80.35889074144325
 21
-0.0469560303140852
 31
0.0
  0
LINE
  5
15D
330
1F
100
AcDbEntity
  8
寸法
  6
Continuous
 62
     7
370
     9
100
AcDbLine
 10
-103.6313889255185
 20
-40.35610530418702
 30
0.0
 11
-101.7179717636931
 21
-35.73670764163059
 31
0.0
  0
LINE
  5
15E
330
1F
100
AcDbEntity
  8
寸法
  6
Continuous
 62
     7
370
     9
100
AcDbLine
 10
-103.6313889255185
 20
-40.35610530418702
 30
0.0
 11
-100.5875817804749
 21
-36.38933860273085
 31
0.0
  0
LINE
  5
15F
330
1F
100
AcDbEntity
  8
寸法
  6
Continuous
 62
     7
370
     9
100
AcDbLine
 10
-116.8806037164813
 20
-20.25621900278554
 30
0.0
 11
-114.9671865546559
 21
-15.63682134022911
 31
0.0
  0
LINE
  5
160
330
1F
100
AcDbEntity
  8
寸法
  6
Continuous
 62
     7
370
     9
100
AcDbLine
 10
-116.8806037164813
 20
-20.25621900278554
 30
0.0
 11
-113.8367965714377
 21
-16.28945230132937
 31
0.0
  0
LINE
  5
161
330
1F
100
AcDbEntity
  8
寸法
  6
Continuous
 62
     7
370
     9
100
AcDbLine
 10
-80.35889074144325
 20
-0.0469560303140852
 30
0.0
 11
-1.686487869821576
 21
-0.0469560303140852
 31
0.0
  0
TEXT
  5
162
330
1F
100
AcDbEntity
  8
寸法
  6
Continuous
 62
     7
370
     9
100
AcDbText
 10
-54.33910215402761
 20
-7.232357793405281
 30
0.0
 40
4.572
  1
Ｍ６×１２
 41
1.133333333333333
  7
ＭＳ ゴシック
100
AcDbText
  0
LINE
  5
163
330
1F
100
AcDbEntity
  8
通り芯
  6
JWW_CENTER1
 62
     4
370
     9
100
AcDbLine
 10
-231.6314153190997
 20
-54.33229520105414
 30
0.0
 11
-231.6314153190997
 21
-80.25626849075007
 31
0.0
  0
LINE
  5
164
330
1F
100
AcDbEntity
  8
通り芯
  6
Continuous
 62
     4
370
     9
100
AcDbLine
 10
-236.6314070711055
 20
-82.25627508914533
 30
0.0
 11
-242.6314021223091
 21
-82.25627508914533
 31
0.0
  0
LINE
  5
165
330
1F
100
AcDbEntity
  8
通り芯
  6
Continuous
 62
     4
370
     9
100
AcDbLine
 10
-242.6314021223091
 20
-82.25627508914533
 30
0.0
 11
-242.6314021223091
 21
-88.25627014034887
 31
0.0
  0
LINE
  5
166
330
1F
100
AcDbEntity
  8
通り芯
  6
Continuous
 62
     4
370
     9
100
AcDbLine
 10
-236.6314070711055
 20
-88.25627014034887
 30
0.0
 11
-242.6314021223091
 21
-88.25627014034887
 31
0.0
  0
LINE
  5
167
330
1F
100
AcDbEntity
  8
通り芯
  6
Continuous
 62
     4
370
     9
100
AcDbLine
 10
-228.6313806775245
 20
-67.25627508914533
 30
0.0
 11
-234.6314004727103
 21
-67.25627508914533
 31
0.0
  0
LINE
  5
168
330
1F
100
AcDbEntity
  8
通り芯
  6
Continuous
 62
     4
370
     9
100
AcDbLine
 10
-229.4313783680861
 20
-57.25624209716898
 30
0.0
 11
-229.4313783680861
 21
-67.25627508914533
 31
0.0
  0
LINE
  5
169
330
1F
100
AcDbEntity
  8
通り芯
  6
Continuous
 62
     4
370
     9
100
AcDbLine
 10
-228.6313806775245
 20
-58.05623978773065
 30
0.0
 11
-234.6314004727103
 21
-58.05623978773065
 31
0.0
  0
LINE
  5
16A
330
1F
100
AcDbEntity
  8
通り芯
  6
Continuous
 62
     4
370
     9
100
AcDbLine
 10
-234.6314004727103
 20
-80.25626849075007
 30
0.0
 11
-234.6314004727103
 21
-58.05626453171288
 31
0.0
  0
LINE
  5
16B
330
1F
100
AcDbEntity
  8
通り芯
  6
Continuous
 62
     4
370
     9
100
AcDbLine
 10
-233.8314027821486
 20
-57.25624209716898
 30
0.0
 11
-234.6314004727103
 21
-58.05626453171288
 31
0.0
  0
LINE
  5
16C
330
1F
100
AcDbEntity
  8
通り芯
  6
Continuous
 62
     4
370
     9
100
AcDbLine
 10
-229.4313783680861
 20
-57.25624209716898
 30
0.0
 11
-233.8314027821486
 21
-57.25624209716898
 31
0.0
  0
LINE
  5
16D
330
1F
100
AcDbEntity
  8
通り芯
  6
Continuous
 62
     4
370
     9
100
AcDbLine
 10
-229.4313783680861
 20
-57.25624209716898
 30
0.0
 11
-228.6313806775245
 21
-58.05626453171288
 31
0.0
  0
LINE
  5
16E
330
1F
100
AcDbEntity
  8
通り芯
  6
Continuous
 62
     4
370
     9
100
AcDbLine
 10
-228.6313806775245
 20
-58.05626453171288
 30
0.0
 11
-228.6313806775245
 21
-80.25626849075007
 31
0.0
  0
LINE
  5
16F
330
1F
100
AcDbEntity
  8
通り芯
  6
Continuous
 62
     4
370
     9
100
AcDbLine
 10
-233.8314027821486
 20
-67.25627508914533
 30
0.0
 11
-233.8314027821486
 21
-57.25624209716898
 31
0.0
  0
LINE
  5
170
330
1F
100
AcDbEntity
  8
通り芯
  6
JWW_CENTER1
 62
     4
370
     9
100
AcDbLine
 10
-236.6314070711055
 20
-85.25626024275596
 30
0.0
 11
-245.0377543974357
 21
-85.25626024275596
 31
0.0
  0
LINE
  5
171
330
1F
100
AcDbEntity
  8
通り芯
  6
JWW_CENTER1
 62
     4
370
     9
100
AcDbLine
 10
-94.63140872070426
 20
-54.33229520105414
 30
0.0
 11
-94.63140872070426
 21
-80.25626849075007
 31
0.0
  0
LINE
  5
172
330
1F
100
AcDbEntity
  8
通り芯
  6
Continuous
 62
     4
370
     9
100
AcDbLine
 10
-89.63139222471614
 20
-82.25627508914533
 30
0.0
 11
-83.63142191749489
 21
-82.25627508914533
 31
0.0
  0
LINE
  5
173
330
1F
100
AcDbEntity
  8
通り芯
  6
Continuous
 62
     4
370
     9
100
AcDbLine
 10
-83.63142191749489
 20
-82.25627508914533
 30
0.0
 11
-83.63142191749489
 21
-88.25627014034887
 31
0.0
  0
LINE
  5
174
330
1F
100
AcDbEntity
  8
通り芯
  6
Continuous
 62
     4
370
     9
100
AcDbLine
 10
-89.63139222471614
 20
-88.25627014034887
 30
0.0
 11
-83.63142191749489
 21
-88.25627014034887
 31
0.0
  0
LINE
  5
175
330
1F
100
AcDbEntity
  8
通り芯
  6
Continuous
 62
     4
370
     9
100
AcDbLine
 10
-97.63141861829718
 20
-67.25627508914533
 30
0.0
 11
-91.63139882311145
 21
-67.25627508914533
 31
0.0
  0
LINE
  5
176
330
1F
100
AcDbEntity
  8
通り芯
  6
Continuous
 62
     4
370
     9
100
AcDbLine
 10
-96.83139618375333
 20
-57.25624209716898
 30
0.0
 11
-96.83139618375333
 21
-67.25627508914533
 31
0.0
  0
LINE
  5
177
330
1F
100
AcDbEntity
  8
通り芯
  6
Continuous
 62
     4
370
     9
100
AcDbLine
 10
-97.63141861829718
 20
-58.05623978773065
 30
0.0
 11
-91.63139882311145
 21
-58.05623978773065
 31
0.0
  0
LINE
  5
178
330
1F
100
AcDbEntity
  8
通り芯
  6
Continuous
 62
     4
370
     9
100
AcDbLine
 10
-91.63139882311145
 20
-80.25626849075007
 30
0.0
 11
-91.63139882311145
 21
-58.05626453171288
 31
0.0
  0
LINE
  5
179
330
1F
100
AcDbEntity
  8
通り芯
  6
Continuous
 62
     4
370
     9
100
AcDbLine
 10
-92.4314212576553
 20
-57.25624209716898
 30
0.0
 11
-91.63139882311145
 21
-58.05626453171288
 31
0.0
  0
LINE
  5
17A
330
1F
100
AcDbEntity
  8
通り芯
  6
Continuous
 62
     4
370
     9
100
AcDbLine
 10
-96.83139618375333
 20
-57.25624209716898
 30
0.0
 11
-92.4314212576553
 21
-57.25624209716898
 31
0.0
  0
LINE
  5
17B
330
1F
100
AcDbEntity
  8
通り芯
  6
Continuous
 62
     4
370
     9
100
AcDbLine
 10
-96.83139618375333
 20
-57.25624209716898
 30
0.0
 11
-97.63141861829718
 21
-58.05626453171288
 31
0.0
  0
LINE
  5
17C
330
1F
100
AcDbEntity
  8
通り芯
  6
Continuous
 62
     4
370
     9
100
AcDbLine
 10
-97.63141861829718
 20
-58.05626453171288
 30
0.0
 11
-97.63141861829718
 21
-80.25626849075007
 31
0.0
  0
LINE
  5
17D
330
1F
100
AcDbEntity
  8
通り芯
  6
Continuous
 62
     4
370
     9
100
AcDbLine
 10
-92.4314212576553
 20
-67.25627508914533
 30
0.0
 11
-92.4314212576553
 21
-57.25624209716898
 31
0.0
  0
LINE
  5
17E
330
1F
100
AcDbEntity
  8
通り芯
  6
JWW_CENTER1
 62
     4
370
     9
100
AcDbLine
 10
-89.63139222471614
 20
-85.25626024275596
 30
0.0
 11
-81.22502015440364
 21
-85.25626024275596
 31
0.0
  0
ARC
  5
17F
330
1F
100
AcDbEntity
  8
通り芯
  6
Continuous
 62
     4
370
     9
100
AcDbCircle
 10
-236.6314070711055
 20
-80.25626849075007
 30
0.0
 40
2.000000025774982
100
AcDbArc
 50
270.0
 51
0.0
  0
ARC
  5
180
330
1F
100
AcDbEntity
  8
通り芯
  6
Continuous
 62
     4
370
     9
100
AcDbCircle
 10
-236.6314070711055
 20
-80.25626849075007
 30
0.0
 40
8.000000103099927
100
AcDbArc
 50
270.0
 51
0.0
  0
ARC
  5
181
330
1F
100
AcDbEntity
  8
通り芯
  6
JWW_CENTER1
 62
     4
370
     9
100
AcDbCircle
 10
-236.6314070711055
 20
-80.25626849075007
 30
0.0
 40
4.999995618253141
100
AcDbArc
 50
270.0
 51
0.0
  0
ARC
  5
182
330
1F
100
AcDbEntity
  8
通り芯
  6
Continuous
 62
     4
370
     9
100
AcDbCircle
 10
-89.63139222471614
 20
-80.25626849075007
 30
0.0
 40
2.000000025774982
100
AcDbArc
 50
180.0
 51
270.0
  0
ARC
  5
183
330
1F
100
AcDbEntity
  8
通り芯
  6
Continuous
 62
     4
370
     9
100
AcDbCircle
 10
-89.63139222471614
 20
-80.25626849075007
 30
0.0
 40
8.000000103099927
100
AcDbArc
 50
180.0
 51
270.0
  0
ARC
  5
184
330
1F
100
AcDbEntity
  8
通り芯
  6
JWW_CENTER1
 62
     4
370
     9
100
AcDbCircle
 10
-89.63139222471614
 20
-80.25626849075007
 30
0.0
 40
4.999995618253141
100
AcDbArc
 50
180.0
 51
270.0
  0
LINE
  5
185
330
1F
100
AcDbEntity
  8
仕上
  6
Continuous
 62
     4
370
     9
100
AcDbLine
 10
-219.6314499606748
 20
-46.25608208608367
 30
0.0
 11
-225.6314944998428
 21
-46.25608208608367
 31
0.0
  0
LINE
  5
186
330
1F
100
AcDbEntity
  8
仕上
  6
Continuous
 62
     4
370
     9
100
AcDbLine
 10
-224.7614960834577
 20
-46.25608208608367
 30
0.0
 11
-225.8135112333732
 21
-44.38363071625679
 31
0.0
  0
LINE
  5
187
330
1F
100
AcDbEntity
  8
仕上
  6
Continuous
 62
     4
370
     9
100
AcDbLine
 10
-225.6314944998428
 20
-46.25608208608367
 30
0.0
 11
-225.190556735907
 21
-45.4924580494494
 31
0.0
  0
LINE
  5
188
330
1F
100
AcDbEntity
  8
仕上
  6
Continuous
 62
     4
370
     9
100
AcDbLine
 10
-220.5014731210422
 20
-46.25608208608367
 30
0.0
 11
-219.4494579711267
 21
-44.38363071625679
 31
0.0
  0
LINE
  5
189
330
1F
100
AcDbEntity
  8
仕上
  6
Continuous
 62
     4
370
     9
100
AcDbLine
 10
-219.6314499606748
 20
-46.25608208608367
 30
0.0
 11
-220.0723629806283
 21
-45.4924580494494
 31
0.0
  0
LINE
  5
18A
330
1F
100
AcDbEntity
  8
仕上
  6
Continuous
 62
     4
370
     9
100
AcDbLine
 10
-224.7614960834577
 20
-56.25609033407778
 30
0.0
 11
-225.6314944998428
 21
-55.38614140565716
 31
0.0
  0
LINE
  5
18B
330
1F
100
AcDbEntity
  8
仕上
  6
Continuous
 62
     4
370
     9
100
AcDbLine
 10
-220.5014731210422
 20
-56.25609033407778
 30
0.0
 11
-219.6314499606748
 21
-55.38614140565716
 31
0.0
  0
LINE
  5
18C
330
1F
100
AcDbEntity
  8
仕上
  6
Continuous
 62
     4
370
     9
100
AcDbLine
 10
-220.5014731210422
 20
-46.25608208608367
 30
0.0
 11
-220.5014731210422
 21
-56.25609033407778
 31
0.0
  0
LINE
  5
18D
330
1F
100
AcDbEntity
  8
仕上
  6
Continuous
 62
     4
370
     9
100
AcDbLine
 10
-224.7614960834577
 20
-46.25608208608367
 30
0.0
 11
-224.7614960834577
 21
-56.25609033407778
 31
0.0
  0
LINE
  5
18E
330
1F
100
AcDbEntity
  8
仕上
  6
Continuous
 62
     4
370
     9
100
AcDbLine
 10
-220.5014731210422
 20
-56.25609033407778
 30
0.0
 11
-224.7614960834577
 21
-56.25609033407778
 31
0.0
  0
LINE
  5
18F
330
1F
100
AcDbEntity
  8
仕上
  6
Continuous
 62
     4
370
     9
100
AcDbLine
 10
-219.6314499606748
 20
-55.38614140565716
 30
0.0
 11
-225.6314944998428
 21
-55.38614140565716
 31
0.0
  0
LINE
  5
190
330
1F
100
AcDbEntity
  8
仕上
  6
Continuous
 62
     4
370
     9
100
AcDbLine
 10
-219.6314499606748
 20
-46.25608208608367
 30
0.0
 11
-219.6314499606748
 21
-55.38614140565716
 31
0.0
  0
LINE
  5
191
330
1F
100
AcDbEntity
  8
仕上
  6
Continuous
 62
     4
370
     9
100
AcDbLine
 10
-225.6314944998428
 20
-46.25608208608367
 30
0.0
 11
-225.6314944998428
 21
-55.38614140565716
 31
0.0
  0
LINE
  5
192
330
1F
100
AcDbEntity
  8
仕上
  6
Continuous
 62
     4
370
     9
100
AcDbLine
 10
-217.3814054215068
 20
-44.25610023167064
 30
0.0
 11
-217.5479076781579
 21
-42.35294157985476
 31
0.0
  0
LINE
  5
193
330
1F
100
AcDbEntity
  8
仕上
  6
Continuous
 62
     4
370
     9
100
AcDbLine
 10
-227.8814153190997
 20
-44.25610023167064
 30
0.0
 11
-227.7149378064307
 21
-42.35294157985476
 31
0.0
  0
LINE
  5
194
330
1F
100
AcDbEntity
  8
仕上
  6
Continuous
 62
     3
370
     9
100
AcDbLine
 10
-220.5014731210422
 20
-56.69722604987169
 30
0.0
 11
-222.6314598582677
 21
-57.92697722438601
 31
0.0
  0
LINE
  5
195
330
1F
100
AcDbEntity
  8
仕上
  6
Continuous
 62
     3
370
     9
100
AcDbLine
 10
-220.5014731210422
 20
-56.25609033407778
 30
0.0
 11
-220.5014731210422
 21
-56.69722604987169
 31
0.0
  0
LINE
  5
196
330
1F
100
AcDbEntity
  8
仕上
  6
Continuous
 62
     3
370
     9
100
AcDbLine
 10
-224.7614960834577
 20
-56.69722604987169
 30
0.0
 11
-222.6314598582677
 21
-57.92697722438601
 31
0.0
  0
LINE
  5
197
330
1F
100
AcDbEntity
  8
仕上
  6
Continuous
 62
     3
370
     9
100
AcDbLine
 10
-224.7614960834577
 20
-56.25609033407778
 30
0.0
 11
-224.7614960834577
 21
-56.69722604987169
 31
0.0
  0
LINE
  5
198
330
1F
100
AcDbEntity
  8
仕上
  6
Continuous
 62
     3
370
     9
100
AcDbLine
 10
-224.7614960834577
 20
-56.69722604987169
 30
0.0
 11
-220.5014731210422
 21
-56.69722604987169
 31
0.0
  0
LINE
  5
199
330
1F
100
AcDbEntity
  8
仕上
  6
Continuous
 62
     4
370
     9
100
AcDbLine
 10
-106.631349335147
 20
-46.25608208608367
 30
0.0
 11
-100.6313295399611
 21
-46.25608208608367
 31
0.0
  0
LINE
  5
19A
330
1F
100
AcDbEntity
  8
仕上
  6
Continuous
 62
     4
370
     9
100
AcDbLine
 10
-101.5013279563462
 20
-46.25608208608367
 30
0.0
 11
-100.4493128064307
 21
-44.38363071625679
 31
0.0
  0
LINE
  5
19B
330
1F
100
AcDbEntity
  8
仕上
  6
Continuous
 62
     4
370
     9
100
AcDbLine
 10
-100.6313295399611
 20
-46.25608208608367
 30
0.0
 11
-101.072267303897
 21
-45.4924580494494
 31
0.0
  0
LINE
  5
19C
330
1F
100
AcDbEntity
  8
仕上
  6
Continuous
 62
     4
370
     9
100
AcDbLine
 10
-105.7613509187618
 20
-46.25608208608367
 30
0.0
 11
-106.8133660686774
 21
-44.38363071625679
 31
0.0
  0
LINE
  5
19D
330
1F
100
AcDbEntity
  8
仕上
  6
Continuous
 62
     4
370
     9
100
AcDbLine
 10
-106.631349335147
 20
-46.25608208608367
 30
0.0
 11
-106.1904115712111
 21
-45.4924580494494
 31
0.0
  0
LINE
  5
19E
330
1F
100
AcDbEntity
  8
仕上
  6
Continuous
 62
     4
370
     9
100
AcDbLine
 10
-101.5013279563462
 20
-56.25609033407778
 30
0.0
 11
-100.6313295399611
 21
-55.38614140565716
 31
0.0
  0
LINE
  5
19F
330
1F
100
AcDbEntity
  8
仕上
  6
Continuous
 62
     4
370
     9
100
AcDbLine
 10
-105.7613509187618
 20
-56.25609033407778
 30
0.0
 11
-106.631349335147
 21
-55.38614140565716
 31
0.0
  0
LINE
  5
1A0
330
1F
100
AcDbEntity
  8
仕上
  6
Continuous
 62
     4
370
     9
100
AcDbLine
 10
-105.7613509187618
 20
-46.25608208608367
 30
0.0
 11
-105.7613509187618
 21
-56.25609033407778
 31
0.0
  0
LINE
  5
1A1
330
1F
100
AcDbEntity
  8
仕上
  6
Continuous
 62
     4
370
     9
100
AcDbLine
 10
-101.5013279563462
 20
-46.25608208608367
 30
0.0
 11
-101.5013279563462
 21
-56.25609033407778
 31
0.0
  0
LINE
  5
1A2
330
1F
100
AcDbEntity
  8
仕上
  6
Continuous
 62
     4
370
     9
100
AcDbLine
 10
-105.7613509187618
 20
-56.25609033407778
 30
0.0
 11
-101.5013279563462
 21
-56.25609033407778
 31
0.0
  0
LINE
  5
1A3
330
1F
100
AcDbEntity
  8
仕上
  6
Continuous
 62
     4
370
     9
100
AcDbLine
 10
-106.631349335147
 20
-55.38614140565716
 30
0.0
 11
-100.6313295399611
 21
-55.38614140565716
 31
0.0
  0
LINE
  5
1A4
330
1F
100
AcDbEntity
  8
仕上
  6
Continuous
 62
     4
370
     9
100
AcDbLine
 10
-106.631349335147
 20
-46.25608208608367
 30
0.0
 11
-106.631349335147
 21
-55.38614140565716
 31
0.0
  0
LINE
  5
1A5
330
1F
100
AcDbEntity
  8
仕上
  6
Continuous
 62
     4
370
     9
100
AcDbLine
 10
-100.6313295399611
 20
-46.25608208608367
 30
0.0
 11
-100.6313295399611
 21
-55.38614140565716
 31
0.0
  0
LINE
  5
1A6
330
1F
100
AcDbEntity
  8
仕上
  6
Continuous
 62
     4
370
     9
100
AcDbLine
 10
-108.8813691303327
 20
-44.25610023167064
 30
0.0
 11
-108.7148916176639
 21
-42.35294157985476
 31
0.0
  0
LINE
  5
1A7
330
1F
100
AcDbEntity
  8
仕上
  6
Continuous
 62
     4
370
     9
100
AcDbLine
 10
-98.3813592327399
 20
-44.25610023167064
 30
0.0
 11
-98.54788623337322
 21
-42.35294157985476
 31
0.0
  0
LINE
  5
1A8
330
1F
100
AcDbEntity
  8
仕上
  6
Continuous
 62
     4
370
     9
100
AcDbLine
 10
-98.3813592327399
 20
-44.25610023167064
 30
0.0
 11
-108.8813691303327
 21
-44.25610023167064
 31
0.0
  0
LINE
  5
1A9
330
1F
100
AcDbEntity
  8
仕上
  6
Continuous
 62
     3
370
     9
100
AcDbLine
 10
-105.7613509187618
 20
-56.69722604987169
 30
0.0
 11
-103.6313394375541
 21
-57.92697722438601
 31
0.0
  0
LINE
  5
1AA
330
1F
100
AcDbEntity
  8
仕上
  6
Continuous
 62
     3
370
     9
100
AcDbLine
 10
-105.7613509187618
 20
-56.25609033407778
 30
0.0
 11
-105.7613509187618
 21
-56.69722604987169
 31
0.0
  0
LINE
  5
1AB
330
1F
100
AcDbEntity
  8
仕上
  6
Continuous
 62
     3
370
     9
100
AcDbLine
 10
-101.5013279563462
 20
-56.69722604987169
 30
0.0
 11
-103.6313394375541
 21
-57.92697722438601
 31
0.0
  0
LINE
  5
1AC
330
1F
100
AcDbEntity
  8
仕上
  6
Continuous
 62
     3
370
     9
100
AcDbLine
 10
-101.5013279563462
 20
-56.25609033407778
 30
0.0
 11
-101.5013279563462
 21
-56.69722604987169
 31
0.0
  0
LINE
  5
1AD
330
1F
100
AcDbEntity
  8
仕上
  6
Continuous
 62
     3
370
     9
100
AcDbLine
 10
-101.5013279563462
 20
-56.69722604987169
 30
0.0
 11
-105.7613509187618
 21
-56.69722604987169
 31
0.0
  0
LINE
  5
1AE
330
1F
100
AcDbEntity
  8
仕上
  6
Continuous
 62
     4
370
     9
100
AcDbLine
 10
-227.8814153190997
 20
-44.25610023167064
 30
0.0
 11
-217.3814054215068
 21
-44.25610023167064
 31
0.0
  0
ARC
  5
1AF
330
1F
100
AcDbEntity
  8
仕上
  6
Continuous
 62
     4
370
     9
100
AcDbCircle
 10
-225.722502866608
 20
-42.52723819091898
 30
0.0
 40
2.000000025774982
100
AcDbArc
 50
96.33816528320312
 51
175.0000152587891
  0
ARC
  5
1B0
330
1F
100
AcDbEntity
  8
仕上
  6
Continuous
 62
     4
370
     9
100
AcDbCircle
 10
-222.6313856263209
 20
-70.35610221118924
 30
0.0
 40
29.99999690700222
100
AcDbArc
 50
83.66180419921876
 51
96.33819580078126
  0
ARC
  5
1B1
330
1F
100
AcDbEntity
  8
仕上
  6
Continuous
 62
     4
370
     9
100
AcDbCircle
 10
-219.5402931300159
 20
-42.52723819091898
 30
0.0
 40
2.000000025774982
100
AcDbArc
 50
4.999984741210936
 51
83.66183471679688
  0
ARC
  5
1B2
330
1F
100
AcDbEntity
  8
仕上
  6
Continuous
 62
     4
370
     9
100
AcDbCircle
 10
-226.0314562291503
 20
-44.50611342846122
 30
0.0
 40
0.2500000032218727
100
AcDbArc
 50
29.32917785644532
 51
90.00000000000001
  0
ARC
  5
1B3
330
1F
100
AcDbEntity
  8
仕上
  6
Continuous
 62
     4
370
     9
100
AcDbCircle
 10
-219.2314139994205
 20
-44.50611342846122
 30
0.0
 40
0.2500000032218727
100
AcDbArc
 50
90.0
 51
150.6708221435547
  0
ARC
  5
1B4
330
1F
100
AcDbEntity
  8
仕上
  6
Continuous
 62
     4
370
     9
100
AcDbCircle
 10
-100.5402716852313
 20
-42.52723819091898
 30
0.0
 40
2.000000025774982
100
AcDbArc
 50
4.999984741210936
 51
83.66183471679688
  0
ARC
  5
1B5
330
1F
100
AcDbEntity
  8
仕上
  6
Continuous
 62
     4
370
     9
100
AcDbCircle
 10
-103.6313889255185
 20
-70.35610221118924
 30
0.0
 40
29.99999690700222
100
AcDbArc
 50
83.66180419921876
 51
96.33819580078126
  0
ARC
  5
1B6
330
1F
100
AcDbEntity
  8
仕上
  6
Continuous
 62
     4
370
     9
100
AcDbCircle
 10
-106.7225061658057
 20
-42.52723819091898
 30
0.0
 40
2.000000025774982
100
AcDbArc
 50
96.33816528320312
 51
175.0000152587891
  0
ARC
  5
1B7
330
1F
100
AcDbEntity
  8
仕上
  6
Continuous
 62
     4
370
     9
100
AcDbCircle
 10
-100.2313678106536
 20
-44.50611342846122
 30
0.0
 40
0.2500000032218727
100
AcDbArc
 50
90.0
 51
150.6708221435547
  0
ARC
  5
1B8
330
1F
100
AcDbEntity
  8
仕上
  6
Continuous
 62
     4
370
     9
100
AcDbCircle
 10
-107.0313605524188
 20
-44.50611342846122
 30
0.0
 40
0.2500000032218727
100
AcDbArc
 50
29.32917785644531
 51
90.0
  0
LINE
  5
1B9
330
1F
100
AcDbEntity
  8
建具
  6
Continuous
 62
     7
370
     9
100
AcDbLine
 10
-204.6281390516879
 20
-99.4992295031769
 30
0.0
 11
-200.0026969592047
 21
-96.50632112849362
 31
0.0
  0
LINE
  5
1BA
330
1F
100
AcDbEntity
  8
建具
  6
Continuous
 62
     7
370
     9
100
AcDbLine
 10
-204.2971635449312
 20
-102.2627611622774
 30
0.0
 11
-199.6061498994497
 21
-99.22741685801219
 31
0.0
  0
LINE
  5
1BB
330
1F
100
AcDbEntity
  8
建具
  6
Continuous
 62
     4
370
     9
100
AcDbLine
 10
-203.1313955239139
 20
-115.2562354987737
 30
0.0
 11
-203.1313955239139
 21
-101.5084450186657
 31
0.0
  0
LINE
  5
1BC
330
1F
100
AcDbEntity
  8
建具
  6
Continuous
 62
     4
370
     9
100
AcDbLine
 10
-203.1313955239139
 20
-98.53075640385788
 30
0.0
 11
-203.1313955239139
 21
-75.25630148272643
 31
0.0
  0
LINE
  5
1BD
330
1F
100
AcDbEntity
  8
建具
  6
Continuous
 62
     4
370
     9
100
AcDbLine
 10
-200.631412019902
 20
-115.2562354987737
 30
0.0
 11
-200.631412019902
 21
-99.89081794205958
 31
0.0
  0
LINE
  5
1BE
330
1F
100
AcDbEntity
  8
建具
  6
Continuous
 62
     4
370
     9
100
AcDbLine
 10
-200.631412019902
 20
-96.91313339266794
 30
0.0
 11
-200.631412019902
 21
-75.25630148272643
 31
0.0
  0
LINE
  5
1BF
330
1F
100
AcDbEntity
  8
建具
  6
Continuous
 62
     7
370
     9
100
AcDbLine
 10
-127.128155547676
 20
-99.4992295031769
 30
0.0
 11
-122.5027134551929
 21
-96.50632112849362
 31
0.0
  0
LINE
  5
1C0
330
1F
100
AcDbEntity
  8
建具
  6
Continuous
 62
     7
370
     9
100
AcDbLine
 10
-126.7971800409193
 20
-102.2627611622774
 30
0.0
 11
-122.1061663954379
 21
-99.22741685801219
 31
0.0
  0
LINE
  5
1C1
330
1F
100
AcDbEntity
  8
建具
  6
Continuous
 62
     4
370
     9
100
AcDbLine
 10
-125.631412019902
 20
-115.2562354987737
 30
0.0
 11
-125.631412019902
 21
-101.5084450186657
 31
0.0
  0
LINE
  5
1C2
330
1F
100
AcDbEntity
  8
建具
  6
Continuous
 62
     4
370
     9
100
AcDbLine
 10
-125.631412019902
 20
-98.53075640385788
 30
0.0
 11
-125.631412019902
 21
-75.25630148272643
 31
0.0
  0
LINE
  5
1C3
330
1F
100
AcDbEntity
  8
建具
  6
Continuous
 62
     4
370
     9
100
AcDbLine
 10
-123.1314285158901
 20
-115.2562354987737
 30
0.0
 11
-123.1314285158901
 21
-99.89081794205958
 31
0.0
  0
LINE
  5
1C4
330
1F
100
AcDbEntity
  8
建具
  6
Continuous
 62
     4
370
     9
100
AcDbLine
 10
-123.1314285158901
 20
-96.91313339266794
 30
0.0
 11
-123.1314285158901
 21
-75.25630148272643
 31
0.0
  0
LINE
  5
1C5
330
1F
100
AcDbEntity
  8
その他
  6
Continuous
 62
     7
370
     9
100
AcDbLine
 10
-41.48344111307069
 20
-115.2562354987737
 30
0.0
 11
-41.48344111307068
 21
-35.25629323473231
 31
0.0
  0
LINE
  5
1C6
330
1F
100
AcDbEntity
  8
その他
  6
Continuous
 62
     7
370
     9
100
AcDbLine
 10
-41.48344111307069
 20
-115.2562354987737
 30
0.0
 11
-42.13607207417095
 21
-110.2990111919047
 31
0.0
  0
LINE
  5
1C7
330
1F
100
AcDbEntity
  8
その他
  6
Continuous
 62
     7
370
     9
100
AcDbLine
 10
-41.48344111307069
 20
-115.2562354987737
 30
0.0
 11
-40.83081015197043
 21
-110.2990111919047
 31
0.0
  0
LINE
  5
1C8
330
1F
100
AcDbEntity
  8
その他
  6
Continuous
 62
     7
370
     9
100
AcDbLine
 10
-41.48344111307068
 20
-35.25629323473231
 30
0.0
 11
-42.13607207417094
 21
-40.21351754160136
 31
0.0
  0
LINE
  5
1C9
330
1F
100
AcDbEntity
  8
その他
  6
Continuous
 62
     7
370
     9
100
AcDbLine
 10
-41.48344111307068
 20
-35.25629323473231
 30
0.0
 11
-40.83081015197043
 21
-40.21351754160136
 31
0.0
  0
LINE
  5
1CA
330
1F
100
AcDbEntity
  8
その他
  6
Continuous
 62
     7
370
     9
100
AcDbLine
 10
-40.88344111307069
 20
-115.2562354987737
 30
0.0
 11
-119.1314285158901
 21
-115.2562354987737
 31
0.0
  0
LINE
  5
1CB
330
1F
100
AcDbEntity
  8
その他
  6
Continuous
 62
     7
370
     9
100
AcDbLine
 10
-40.88344111307068
 20
-35.25629323473231
 30
0.0
 11
-80.13139882311145
 21
-35.25629323473231
 31
0.0
  0
LINE
  5
1CC
330
1F
100
AcDbEntity
  8
その他
  6
Continuous
 62
     7
370
     9
100
AcDbLine
 10
-41.48344111307068
 20
-35.25629323473231
 30
0.0
 11
-41.48344111307068
 21
-20.25622886171599
 31
0.0
  0
LINE
  5
1CD
330
1F
100
AcDbEntity
  8
その他
  6
Continuous
 62
     7
370
     9
100
AcDbLine
 10
-41.48344111307068
 20
-35.25629323473231
 30
0.0
 11
-42.13607207417094
 21
-30.29906892786326
 31
0.0
  0
LINE
  5
1CE
330
1F
100
AcDbEntity
  8
その他
  6
Continuous
 62
     7
370
     9
100
AcDbLine
 10
-41.48344111307068
 20
-35.25629323473231
 30
0.0
 11
-40.83081015197043
 21
-30.29906892786326
 31
0.0
  0
LINE
  5
1CF
330
1F
100
AcDbEntity
  8
その他
  6
Continuous
 62
     7
370
     9
100
AcDbLine
 10
-41.48344111307068
 20
-20.25622886171599
 30
0.0
 11
-42.13607207417094
 21
-25.21345316858504
 31
0.0
  0
LINE
  5
1D0
330
1F
100
AcDbEntity
  8
その他
  6
Continuous
 62
     7
370
     9
100
AcDbLine
 10
-41.48344111307068
 20
-20.25622886171599
 30
0.0
 11
-40.83081015197043
 21
-25.21345316858504
 31
0.0
  0
LINE
  5
1D1
330
1F
100
AcDbEntity
  8
その他
  6
Continuous
 62
     7
370
     9
100
AcDbLine
 10
-40.88344111307068
 20
-20.25622886171599
 30
0.0
 11
-114.3806334092601
 21
-20.25622886171599
 31
0.0
  0
TEXT
  5
1D2
330
1F
100
AcDbEntity
  8
その他
  6
Continuous
 62
     2
370
     5
100
AcDbText
 10
-44.61144111307068
 20
-32.00626104822415
 30
0.0
 40
6.096
  1
15
 50
90.0
 41
1.0625
  7
ＭＳ ゴシック
100
AcDbText
  0
LINE
  5
1D3
330
1F
100
AcDbEntity
  8
その他
  6
Continuous
 62
     7
370
     9
100
AcDbLine
 10
-66.02194787379966
 20
-75.25630148272643
 30
0.0
 11
-66.02194787379966
 21
-35.25629323473231
 31
0.0
  0
LINE
  5
1D4
330
1F
100
AcDbEntity
  8
その他
  6
Continuous
 62
     7
370
     9
100
AcDbLine
 10
-66.02194787379966
 20
-75.25630148272643
 30
0.0
 11
-66.67457883489992
 21
-70.29907717585738
 31
0.0
  0
LINE
  5
1D5
330
1F
100
AcDbEntity
  8
その他
  6
Continuous
 62
     7
370
     9
100
AcDbLine
 10
-66.02194787379966
 20
-75.25630148272643
 30
0.0
 11
-65.3693169126994
 21
-70.29907717585738
 31
0.0
  0
LINE
  5
1D6
330
1F
100
AcDbEntity
  8
その他
  6
Continuous
 62
     7
370
     9
100
AcDbLine
 10
-66.02194787379966
 20
-35.25629323473231
 30
0.0
 11
-66.67457883489992
 21
-40.21351754160136
 31
0.0
  0
LINE
  5
1D7
330
1F
100
AcDbEntity
  8
その他
  6
Continuous
 62
     7
370
     9
100
AcDbLine
 10
-66.02194787379966
 20
-35.25629323473231
 30
0.0
 11
-65.3693169126994
 21
-40.21351754160136
 31
0.0
  0
TEXT
  5
1D8
330
1F
100
AcDbEntity
  8
その他
  6
Continuous
 62
     2
370
     5
100
AcDbText
 10
-69.14994787379966
 20
-59.50629735872937
 30
0.0
 40
6.096
  1
40
 50
90.0
 41
1.0625
  7
ＭＳ ゴシック
100
AcDbText
  0
LINE
  5
1D9
330
1F
100
AcDbEntity
  8
その他
  6
Continuous
 62
     7
370
     9
100
AcDbLine
 10
-278.5404010712652
 20
-49.25626519155242
 30
0.0
 11
-278.5404010712652
 21
-20.25621900278554
 31
0.0
  0
LINE
  5
1DA
330
1F
100
AcDbEntity
  8
その他
  6
Continuous
 62
     7
370
     9
100
AcDbLine
 10
-278.5404010712652
 20
-49.25626519155242
 30
0.0
 11
-279.1930320323655
 21
-44.29904088468336
 31
0.0
  0
LINE
  5
1DB
330
1F
100
AcDbEntity
  8
その他
  6
Continuous
 62
     7
370
     9
100
AcDbLine
 10
-278.5404010712652
 20
-49.25626519155242
 30
0.0
 11
-277.8877701101649
 21
-44.29904088468336
 31
0.0
  0
LINE
  5
1DC
330
1F
100
AcDbEntity
  8
その他
  6
Continuous
 62
     7
370
     9
100
AcDbLine
 10
-278.5404010712652
 20
-20.25621900278554
 30
0.0
 11
-279.1930320323655
 21
-25.21344330965459
 31
0.0
  0
LINE
  5
1DD
330
1F
100
AcDbEntity
  8
その他
  6
Continuous
 62
     7
370
     9
100
AcDbLine
 10
-278.5404010712652
 20
-20.25621900278554
 30
0.0
 11
-277.8877701101649
 21
-25.21344330965459
 31
0.0
  0
LINE
  5
1DE
330
1F
100
AcDbEntity
  8
その他
  6
Continuous
 62
     7
370
     9
100
AcDbLine
 10
-279.1404010712652
 20
-20.25621900278554
 30
0.0
 11
-209.3223514334366
 21
-20.25621900278554
 31
0.0
  0
TEXT
  5
1DF
330
1F
100
AcDbEntity
  8
その他
  6
Continuous
 62
     2
370
     5
100
AcDbText
 10
-281.6684010712652
 20
-39.00624209716898
 30
0.0
 40
6.096
  1
29
 50
90.0
 41
1.0625
  7
ＭＳ ゴシック
100
AcDbText
  0
LINE
  5
1E0
330
1F
100
AcDbEntity
  8
その他
  6
Continuous
 62
     7
370
     9
100
AcDbLine
 10
-192.9413782361182
 20
-140.8852635704487
 30
0.0
 11
-133.3214458036857
 21
-140.8852635704487
 31
0.0
  0
LINE
  5
1E1
330
1F
100
AcDbEntity
  8
その他
  6
Continuous
 62
     7
370
     9
100
AcDbLine
 10
-192.9413782361182
 20
-140.8852635704487
 30
0.0
 11
-187.9841539292492
 21
-140.2326326093484
 31
0.0
  0
LINE
  5
1E2
330
1F
100
AcDbEntity
  8
その他
  6
Continuous
 62
     7
370
     9
100
AcDbLine
 10
-192.9413782361182
 20
-140.8852635704487
 30
0.0
 11
-187.9841539292492
 21
-141.537894531549
 31
0.0
  0
LINE
  5
1E3
330
1F
100
AcDbEntity
  8
その他
  6
Continuous
 62
     7
370
     9
100
AcDbLine
 10
-133.3214458036857
 20
-140.8852635704487
 30
0.0
 11
-138.2786701105548
 21
-140.2326326093484
 31
0.0
  0
LINE
  5
1E4
330
1F
100
AcDbEntity
  8
その他
  6
Continuous
 62
     7
370
     9
100
AcDbLine
 10
-133.3214458036857
 20
-140.8852635704487
 30
0.0
 11
-138.2786701105548
 21
-141.537894531549
 31
0.0
  0
LINE
  5
1E5
330
1F
100
AcDbEntity
  8
その他
  6
Continuous
 62
     7
370
     9
100
AcDbLine
 10
-192.9413782361182
 20
-141.4852635704487
 30
0.0
 11
-192.9413782361182
 21
-99.25626849075005
 31
0.0
  0
LINE
  5
1E6
330
1F
100
AcDbEntity
  8
その他
  6
Continuous
 62
     7
370
     9
100
AcDbLine
 10
-133.3214458036857
 20
-141.4852635704487
 30
0.0
 11
-133.3214458036857
 21
-99.25626849075005
 31
0.0
  0
TEXT
  5
1E7
330
1F
100
AcDbEntity
  8
その他
  6
Continuous
 62
     2
370
     5
100
AcDbText
 10
-169.631412019902
 20
-137.7572635704487
 30
0.0
 40
6.096
  1
Rc2
 41
1.083333333333333
  7
ＭＳ ゴシック
100
AcDbText
  0
LINE
  5
1E8
330
1F
100
AcDbEntity
  8
寸法
  6
Continuous
 62
     7
370
     9
100
AcDbLine
 10
-203.1313955239139
 20
-110.7324123064863
 30
0.0
 11
-216.7792853571063
 21
-134.9343034065708
 31
0.0
  0
TEXT
  5
1E9
330
1F
100
AcDbEntity
  8
寸法
  6
Continuous
 62
     7
370
     9
100
AcDbText
 10
-268.5381130013081
 20
-131.8001987227676
 30
0.0
 40
4.572
  1
スペーサー
 41
1.133333333333333
  7
ＭＳ ゴシック
100
AcDbText
  0
LINE
  5
1EA
330
1F
100
AcDbEntity
  8
寸法
  6
Continuous
 62
     7
370
     9
100
AcDbLine
 10
-216.7792853571063
 20
-134.9343034065708
 30
0.0
 11
-285.8386226962084
 21
-134.9343034065708
 31
0.0
  0
LINE
  5
1EB
330
1F
100
AcDbEntity
  8
寸法
  6
Continuous
 62
     7
370
     9
100
AcDbLine
 10
-203.1313955239139
 20
-110.7324123064863
 30
0.0
 11
-205.0447981843868
 21
-115.3518416112794
 31
0.0
  0
LINE
  5
1EC
330
1F
100
AcDbEntity
  8
寸法
  6
Continuous
 62
     7
370
     9
100
AcDbLine
 10
-203.1313955239139
 20
-110.7324123064863
 30
0.0
 11
-206.1752022701131
 21
-114.6991695911147
 31
0.0
  0
LINE
  5
1ED
330
1F
100
AcDbEntity
  8
仕上
  6
Continuous
 62
     6
370
     9
100
AcDbLine
 10
-227.6314516102736
 20
154.0863755900305
 30
0.0
 11
-225.3357049358649
 21
154.0863755900305
 31
0.0
  0
LINE
  5
1EE
330
1F
100
AcDbEntity
  8
仕上
  6
Continuous
 62
     6
370
     9
100
AcDbLine
 10
-228.1313295399611
 20
153.5863491964494
 30
0.0
 11
-226.0319263648132
 21
153.5863491964494
 31
0.0
  0
LINE
  5
1EF
330
1F
100
AcDbEntity
  8
仕上
  6
Continuous
 62
     6
370
     9
100
AcDbLine
 10
-228.1313295399611
 20
145.5864217787974
 30
0.0
 11
-226.0320005967601
 21
145.5864217787974
 31
0.0
  0
LINE
  5
1F0
330
1F
100
AcDbEntity
  8
仕上
  6
Continuous
 62
     6
370
     9
100
AcDbLine
 10
-227.6314516102736
 20
145.0862964092873
 30
0.0
 11
-225.3357049358649
 21
145.0862964092873
 31
0.0
  0
LINE
  5
1F1
330
1F
100
AcDbEntity
  8
仕上
  6
Continuous
 62
     6
370
     9
100
AcDbLine
 10
-140.6312388120261
 20
172.5862634173109
 30
0.0
 11
-145.6313047959788
 21
172.5862634173109
 31
0.0
  0
LINE
  5
1F2
330
1F
100
AcDbEntity
  8
仕上
  6
Continuous
 62
     6
370
     9
100
AcDbLine
 10
-146.6313575831409
 20
167.5090951846251
 30
0.0
 11
-159.6313509847457
 21
167.5090951846251
 31
0.0
  0
LINE
  5
1F3
330
1F
100
AcDbEntity
  8
仕上
  6
Continuous
 62
     6
370
     9
100
AcDbLine
 10
-126.631266855206
 20
167.5090951846251
 30
0.0
 11
-139.6313097447753
 21
167.5090951846251
 31
0.0
  0
LINE
  5
1F4
330
1F
100
AcDbEntity
  8
仕上
  6
Continuous
 62
     6
370
     9
100
AcDbLine
 10
-159.6313509847457
 20
167.5090951846251
 30
0.0
 11
-160.6314037719079
 21
172.5862634173109
 31
0.0
  0
LINE
  5
1F5
330
1F
100
AcDbEntity
  8
仕上
  6
Continuous
 62
     6
370
     9
100
AcDbLine
 10
-146.6313575831409
 20
167.5090951846251
 30
0.0
 11
-145.6313047959788
 21
172.5862634173109
 31
0.0
  0
LINE
  5
1F6
330
1F
100
AcDbEntity
  8
仕上
  6
Continuous
 62
     6
370
     9
100
AcDbLine
 10
-140.6312388120261
 20
172.5862634173109
 30
0.0
 11
-139.6313097447753
 21
167.5090951846251
 31
0.0
  0
LINE
  5
1F7
330
1F
100
AcDbEntity
  8
仕上
  6
Continuous
 62
     6
370
     9
100
AcDbLine
 10
-126.631266855206
 20
167.5090951846251
 30
0.0
 11
-125.6314615078666
 21
172.5862634173109
 31
0.0
  0
LINE
  5
1F8
330
1F
100
AcDbEntity
  8
仕上
  6
Continuous
 62
     6
370
     9
100
AcDbLine
 10
-114.6314252166925
 20
172.58636239324
 30
0.0
 11
-125.6314615078666
 21
172.58636239324
 31
0.0
  0
LINE
  5
1F9
330
1F
100
AcDbEntity
  8
仕上
  6
Continuous
 62
     6
370
     9
100
AcDbLine
 10
-111.6314153190997
 20
169.586352495647
 30
0.0
 11
-111.6314153190997
 21
164.5861875357653
 31
0.0
  0
LINE
  5
1FA
330
1F
100
AcDbEntity
  8
仕上
  6
Continuous
 62
     6
370
     9
100
AcDbLine
 10
-125.6314615078666
 20
172.5862634173109
 30
0.0
 11
-125.6314615078666
 21
168.3543496187467
 31
0.0
  0
LINE
  5
1FB
330
1F
100
AcDbEntity
  8
仕上
  6
Continuous
 62
     6
370
     9
100
AcDbLine
 10
-139.6313097447753
 20
167.5090951846251
 30
0.0
 11
-139.6313097447753
 21
163.2771813860609
 31
0.0
  0
LINE
  5
1FC
330
1F
100
AcDbEntity
  8
仕上
  6
Continuous
 62
     6
370
     9
100
AcDbLine
 10
-140.6312388120261
 20
172.5862634173109
 30
0.0
 11
-140.6312388120261
 21
168.3543991067113
 31
0.0
  0
LINE
  5
1FD
330
1F
100
AcDbEntity
  8
仕上
  6
Continuous
 62
     6
370
     9
100
AcDbLine
 10
-139.6313097447753
 20
163.2771813860609
 30
0.0
 11
-126.631266855206
 21
163.2771813860609
 31
0.0
  0
LINE
  5
1FE
330
1F
100
AcDbEntity
  8
仕上
  6
Continuous
 62
     6
370
     9
100
AcDbLine
 10
-139.6313097447753
 20
164.1588589620744
 30
0.0
 11
-126.631266855206
 21
164.1588589620744
 31
0.0
  0
LINE
  5
1FF
330
1F
100
AcDbEntity
  8
仕上
  6
Continuous
 62
     6
370
     9
100
AcDbLine
 10
-145.6313047959788
 20
172.5862634173109
 30
0.0
 11
-145.6313047959788
 21
168.3543991067113
 31
0.0
  0
LINE
  5
200
330
1F
100
AcDbEntity
  8
仕上
  6
Continuous
 62
     6
370
     9
100
AcDbLine
 10
-146.6313575831409
 20
167.5090951846251
 30
0.0
 11
-146.6313575831409
 21
163.2771813860609
 31
0.0
  0
LINE
  5
201
330
1F
100
AcDbEntity
  8
仕上
  6
Continuous
 62
     6
370
     9
100
AcDbLine
 10
-159.6313509847457
 20
167.5090951846251
 30
0.0
 11
-159.6313509847457
 21
164.1588589620744
 31
0.0
  0
LINE
  5
202
330
1F
100
AcDbEntity
  8
仕上
  6
Continuous
 62
     6
370
     9
100
AcDbLine
 10
-160.6314037719079
 20
172.5862634173109
 30
0.0
 11
-160.6314037719079
 21
163.2771813860609
 31
0.0
  0
LINE
  5
203
330
1F
100
AcDbEntity
  8
仕上
  6
Continuous
 62
     6
370
     9
100
AcDbLine
 10
-160.6314037719079
 20
163.2771813860609
 30
0.0
 11
-146.6313575831409
 21
163.2771813860609
 31
0.0
  0
LINE
  5
204
330
1F
100
AcDbEntity
  8
仕上
  6
Continuous
 62
     6
370
     9
100
AcDbLine
 10
-146.6313575831409
 20
164.1588589620744
 30
0.0
 11
-159.6313509847457
 21
164.1588589620744
 31
0.0
  0
LINE
  5
205
330
1F
100
AcDbEntity
  8
仕上
  6
Continuous
 62
     6
370
     9
100
AcDbLine
 10
-160.6314037719079
 20
163.2771813860609
 30
0.0
 11
-159.6313509847457
 21
164.1588589620744
 31
0.0
  0
LINE
  5
206
330
1F
100
AcDbEntity
  8
仕上
  6
Continuous
 62
     6
370
     9
100
AcDbLine
 10
-120.0588197743361
 20
163.5862337245322
 30
0.0
 11
-120.0588197743361
 21
153.5862502205204
 31
0.0
  0
LINE
  5
207
330
1F
100
AcDbEntity
  8
仕上
  6
Continuous
 62
     6
370
     9
100
AcDbLine
 10
-160.6314037719079
 20
172.5862634173109
 30
0.0
 11
-165.6313955239139
 21
172.5862634173109
 31
0.0
  0
LINE
  5
208
330
1F
100
AcDbEntity
  8
仕上
  6
Continuous
 62
     6
370
     9
100
AcDbLine
 10
-161.2669777003284
 20
168.3543991067113
 30
0.0
 11
-164.9958215954932
 21
168.3543991067113
 31
0.0
  0
LINE
  5
209
330
1F
100
AcDbEntity
  8
仕上
  6
Continuous
 62
     6
370
     9
100
AcDbLine
 10
-140.6312635560084
 20
168.3543991067113
 30
0.0
 11
-139.6313097447753
 21
163.2771813860609
 31
0.0
  0
LINE
  5
20A
330
1F
100
AcDbEntity
  8
仕上
  6
Continuous
 62
     6
370
     9
100
AcDbLine
 10
-140.6312635560084
 20
168.3543991067113
 30
0.0
 11
-145.6312800519966
 21
168.3543991067113
 31
0.0
  0
LINE
  5
20B
330
1F
100
AcDbEntity
  8
仕上
  6
Continuous
 62
     6
370
     9
100
AcDbLine
 10
-146.6313575831409
 20
163.2771813860609
 30
0.0
 11
-145.6312800519966
 21
168.3543991067113
 31
0.0
  0
LINE
  5
20C
330
1F
100
AcDbEntity
  8
仕上
  6
Continuous
 62
     6
370
     9
100
AcDbLine
 10
-118.8632895272922
 20
168.3543496187467
 30
0.0
 11
-125.6314615078666
 21
168.3543496187467
 31
0.0
  0
LINE
  5
20D
330
1F
100
AcDbEntity
  8
仕上
  6
Continuous
 62
     6
370
     9
100
AcDbLine
 10
-126.631266855206
 20
167.5090951846251
 30
0.0
 11
-126.631266855206
 21
163.2772308740254
 31
0.0
  0
LINE
  5
20E
330
1F
100
AcDbEntity
  8
仕上
  6
Continuous
 62
     6
370
     9
100
AcDbLine
 10
-126.631266855206
 20
163.2772308740254
 30
0.0
 11
-125.6314615078666
 21
168.3543496187467
 31
0.0
  0
LINE
  5
20F
330
1F
100
AcDbEntity
  8
仕上
  6
Continuous
 62
     6
370
     9
100
AcDbLine
 10
-111.6314153190997
 20
152.5862964092873
 30
0.0
 11
-115.8632796296993
 21
152.5862964092873
 31
0.0
  0
LINE
  5
210
330
1F
100
AcDbEntity
  8
仕上
  6
Continuous
 62
     6
370
     9
100
AcDbLine
 10
-120.9403983744205
 20
163.5862337245322
 30
0.0
 11
-116.7085835517854
 21
163.5862337245322
 31
0.0
  0
LINE
  5
211
330
1F
100
AcDbEntity
  8
仕上
  6
Continuous
 62
     6
370
     9
100
AcDbLine
 10
-111.6314153190997
 20
164.5861875357653
 30
0.0
 11
-116.7085835517854
 21
163.5862337245322
 31
0.0
  0
LINE
  5
212
330
1F
100
AcDbEntity
  8
仕上
  6
Continuous
 62
     6
370
     9
100
AcDbLine
 10
-120.9403983744205
 20
153.5862502205204
 30
0.0
 11
-116.7085835517854
 21
153.5862502205204
 31
0.0
  0
LINE
  5
213
330
1F
100
AcDbEntity
  8
仕上
  6
Continuous
 62
     6
370
     9
100
AcDbLine
 10
-111.6314153190997
 20
152.5862964092873
 30
0.0
 11
-116.7085835517854
 21
153.5862502205204
 31
0.0
  0
LINE
  5
214
330
1F
100
AcDbEntity
  8
仕上
  6
Continuous
 62
     6
370
     9
100
AcDbLine
 10
-115.8632796296993
 20
164.5861875357653
 30
0.0
 11
-115.8632796296993
 21
165.3543892091184
 31
0.0
  0
LINE
  5
215
330
1F
100
AcDbEntity
  8
仕上
  6
Continuous
 62
     6
370
     9
100
AcDbLine
 10
-111.6314153190997
 20
164.5861875357653
 30
0.0
 11
-115.8632796296993
 21
164.5861875357653
 31
0.0
  0
LINE
  5
216
330
1F
100
AcDbEntity
  8
仕上
  6
Continuous
 62
     6
370
     9
100
AcDbLine
 10
-116.7085835517854
 20
163.5862337245322
 30
0.0
 11
-116.7085835517854
 21
153.5862502205204
 31
0.0
  0
LINE
  5
217
330
1F
100
AcDbEntity
  8
仕上
  6
Continuous
 62
     6
370
     9
100
AcDbLine
 10
-115.8632796296993
 20
164.5861875357653
 30
0.0
 11
-120.9404478623851
 21
163.5862337245322
 31
0.0
  0
LINE
  5
218
330
1F
100
AcDbEntity
  8
仕上
  6
Continuous
 62
     6
370
     9
100
AcDbLine
 10
-120.9404478623851
 20
163.5862337245322
 30
0.0
 11
-120.9404478623851
 21
153.5862502205204
 31
0.0
  0
LINE
  5
219
330
1F
100
AcDbEntity
  8
仕上
  6
Continuous
 62
     6
370
     9
100
AcDbLine
 10
-115.8632796296993
 20
152.5862964092873
 30
0.0
 11
-120.9404478623851
 21
153.5862502205204
 31
0.0
  0
LINE
  5
21A
330
1F
100
AcDbEntity
  8
仕上
  6
Continuous
 62
     6
370
     9
100
AcDbLine
 10
-185.6315604837955
 20
172.5862634173109
 30
0.0
 11
-180.6314944998428
 21
172.5862634173109
 31
0.0
  0
LINE
  5
21B
330
1F
100
AcDbEntity
  8
仕上
  6
Continuous
 62
     6
370
     9
100
AcDbLine
 10
-179.6314417126807
 20
167.5090951846251
 30
0.0
 11
-166.6314483110759
 21
167.5090951846251
 31
0.0
  0
LINE
  5
21C
330
1F
100
AcDbEntity
  8
仕上
  6
Continuous
 62
     6
370
     9
100
AcDbLine
 10
-199.6315076966334
 20
167.5090951846251
 30
0.0
 11
-186.6314648070642
 21
167.5090951846251
 31
0.0
  0
LINE
  5
21D
330
1F
100
AcDbEntity
  8
仕上
  6
Continuous
 62
     6
370
     9
100
AcDbLine
 10
-166.6314483110759
 20
167.5090951846251
 30
0.0
 11
-165.6313955239139
 21
172.5862634173109
 31
0.0
  0
LINE
  5
21E
330
1F
100
AcDbEntity
  8
仕上
  6
Continuous
 62
     6
370
     9
100
AcDbLine
 10
-179.6314417126807
 20
167.5090951846251
 30
0.0
 11
-180.6314944998428
 21
172.5862634173109
 31
0.0
  0
LINE
  5
21F
330
1F
100
AcDbEntity
  8
仕上
  6
Continuous
 62
     6
370
     9
100
AcDbLine
 10
-185.6315604837955
 20
172.5862634173109
 30
0.0
 11
-186.6314648070642
 21
167.5090951846251
 31
0.0
  0
LINE
  5
220
330
1F
100
AcDbEntity
  8
仕上
  6
Continuous
 62
     6
370
     9
100
AcDbLine
 10
-199.6315076966334
 20
167.5090951846251
 30
0.0
 11
-200.6313625319374
 21
172.5862634173109
 31
0.0
  0
LINE
  5
221
330
1F
100
AcDbEntity
  8
仕上
  6
Continuous
 62
     6
370
     9
100
AcDbLine
 10
-211.6313740791292
 20
172.58636239324
 30
0.0
 11
-200.6313625319374
 21
172.58636239324
 31
0.0
  0
LINE
  5
222
330
1F
100
AcDbEntity
  8
仕上
  6
Continuous
 62
     6
370
     9
100
AcDbLine
 10
-214.6313592327399
 20
169.586352495647
 30
0.0
 11
-214.6313592327399
 21
164.5861875357653
 31
0.0
  0
LINE
  5
223
330
1F
100
AcDbEntity
  8
仕上
  6
Continuous
 62
     6
370
     9
100
AcDbLine
 10
-200.6313625319374
 20
172.5862634173109
 30
0.0
 11
-200.6313625319374
 21
168.3543496187467
 31
0.0
  0
LINE
  5
224
330
1F
100
AcDbEntity
  8
仕上
  6
Continuous
 62
     6
370
     9
100
AcDbLine
 10
-186.6314648070642
 20
167.5090951846251
 30
0.0
 11
-186.6314648070642
 21
163.2771813860609
 31
0.0
  0
LINE
  5
225
330
1F
100
AcDbEntity
  8
仕上
  6
Continuous
 62
     6
370
     9
100
AcDbLine
 10
-185.6315604837955
 20
172.5862634173109
 30
0.0
 11
-185.6315604837955
 21
168.3543991067113
 31
0.0
  0
LINE
  5
226
330
1F
100
AcDbEntity
  8
仕上
  6
Continuous
 62
     6
370
     9
100
AcDbLine
 10
-186.6314648070642
 20
163.2771813860609
 30
0.0
 11
-199.6315076966334
 21
163.2771813860609
 31
0.0
  0
LINE
  5
227
330
1F
100
AcDbEntity
  8
仕上
  6
Continuous
 62
     6
370
     9
100
AcDbLine
 10
-186.6314648070642
 20
164.1588589620744
 30
0.0
 11
-199.6315076966334
 21
164.1588589620744
 31
0.0
  0
LINE
  5
228
330
1F
100
AcDbEntity
  8
仕上
  6
Continuous
 62
     6
370
     9
100
AcDbLine
 10
-180.6314944998428
 20
172.5862634173109
 30
0.0
 11
-180.6314944998428
 21
168.3543991067113
 31
0.0
  0
LINE
  5
229
330
1F
100
AcDbEntity
  8
仕上
  6
Continuous
 62
     6
370
     9
100
AcDbLine
 10
-179.6314417126807
 20
167.5090951846251
 30
0.0
 11
-179.6314417126807
 21
163.2771813860609
 31
0.0
  0
LINE
  5
22A
330
1F
100
AcDbEntity
  8
仕上
  6
Continuous
 62
     6
370
     9
100
AcDbLine
 10
-166.6314483110759
 20
167.5090951846251
 30
0.0
 11
-166.6314483110759
 21
164.1588589620744
 31
0.0
  0
LINE
  5
22B
330
1F
100
AcDbEntity
  8
仕上
  6
Continuous
 62
     6
370
     9
100
AcDbLine
 10
-165.6313955239139
 20
172.5862634173109
 30
0.0
 11
-165.6313955239139
 21
163.2771813860609
 31
0.0
  0
LINE
  5
22C
330
1F
100
AcDbEntity
  8
仕上
  6
Continuous
 62
     6
370
     9
100
AcDbLine
 10
-165.6313955239139
 20
163.2771813860609
 30
0.0
 11
-179.6314417126807
 21
163.2771813860609
 31
0.0
  0
LINE
  5
22D
330
1F
100
AcDbEntity
  8
仕上
  6
Continuous
 62
     6
370
     9
100
AcDbLine
 10
-179.6314417126807
 20
164.1588589620744
 30
0.0
 11
-166.6314483110759
 21
164.1588589620744
 31
0.0
  0
LINE
  5
22E
330
1F
100
AcDbEntity
  8
仕上
  6
Continuous
 62
     6
370
     9
100
AcDbLine
 10
-165.6313955239139
 20
163.2771813860609
 30
0.0
 11
-166.6314483110759
 21
164.1588589620744
 31
0.0
  0
LINE
  5
22F
330
1F
100
AcDbEntity
  8
仕上
  6
Continuous
 62
     6
370
     9
100
AcDbLine
 10
-206.2040042654678
 20
163.5862337245322
 30
0.0
 11
-206.2040042654678
 21
153.5862502205204
 31
0.0
  0
LINE
  5
230
330
1F
100
AcDbEntity
  8
仕上
  6
Continuous
 62
     6
370
     9
100
AcDbLine
 10
-185.6315357398132
 20
168.3543991067113
 30
0.0
 11
-186.6314648070642
 21
163.2771813860609
 31
0.0
  0
LINE
  5
231
330
1F
100
AcDbEntity
  8
仕上
  6
Continuous
 62
     6
370
     9
100
AcDbLine
 10
-185.6315357398132
 20
168.3543991067113
 30
0.0
 11
-180.6314944998428
 21
168.3543991067113
 31
0.0
  0
LINE
  5
232
330
1F
100
AcDbEntity
  8
仕上
  6
Continuous
 62
     6
370
     9
100
AcDbLine
 10
-179.6314417126807
 20
163.2771813860609
 30
0.0
 11
-180.6314944998428
 21
168.3543991067113
 31
0.0
  0
LINE
  5
233
330
1F
100
AcDbEntity
  8
仕上
  6
Continuous
 62
     6
370
     9
100
AcDbLine
 10
-207.3994850245472
 20
168.3543496187467
 30
0.0
 11
-200.6313625319374
 21
168.3543496187467
 31
0.0
  0
LINE
  5
234
330
1F
100
AcDbEntity
  8
仕上
  6
Continuous
 62
     6
370
     9
100
AcDbLine
 10
-199.6315076966334
 20
167.5090951846251
 30
0.0
 11
-199.6315076966334
 21
163.2772308740254
 31
0.0
  0
LINE
  5
235
330
1F
100
AcDbEntity
  8
仕上
  6
Continuous
 62
     6
370
     9
100
AcDbLine
 10
-199.6315076966334
 20
163.2772308740254
 30
0.0
 11
-200.6313625319374
 21
168.3543496187467
 31
0.0
  0
LINE
  5
236
330
1F
100
AcDbEntity
  8
仕上
  6
Continuous
 62
     6
370
     9
100
AcDbLine
 10
-214.6313592327399
 20
152.5862964092873
 30
0.0
 11
-210.3994949221401
 21
152.5862964092873
 31
0.0
  0
LINE
  5
237
330
1F
100
AcDbEntity
  8
仕上
  6
Continuous
 62
     6
370
     9
100
AcDbLine
 10
-205.3223761774188
 20
163.5862337245322
 30
0.0
 11
-209.5542404880185
 21
163.5862337245322
 31
0.0
  0
LINE
  5
238
330
1F
100
AcDbEntity
  8
仕上
  6
Continuous
 62
     6
370
     9
100
AcDbLine
 10
-214.6313592327399
 20
164.5861875357653
 30
0.0
 11
-209.5542404880185
 21
163.5862337245322
 31
0.0
  0
LINE
  5
239
330
1F
100
AcDbEntity
  8
仕上
  6
Continuous
 62
     6
370
     9
100
AcDbLine
 10
-205.3223761774188
 20
153.5862502205204
 30
0.0
 11
-209.5542404880185
 21
153.5862502205204
 31
0.0
  0
LINE
  5
23A
330
1F
100
AcDbEntity
  8
仕上
  6
Continuous
 62
     6
370
     9
100
AcDbLine
 10
-214.6313592327399
 20
152.5862964092873
 30
0.0
 11
-209.5542404880185
 21
153.5862502205204
 31
0.0
  0
LINE
  5
23B
330
1F
100
AcDbEntity
  8
仕上
  6
Continuous
 62
     6
370
     9
100
AcDbLine
 10
-210.3994949221401
 20
164.5861875357653
 30
0.0
 11
-210.3994949221401
 21
165.3543892091184
 31
0.0
  0
LINE
  5
23C
330
1F
100
AcDbEntity
  8
仕上
  6
Continuous
 62
     6
370
     9
100
AcDbLine
 10
-214.6313592327399
 20
164.5861875357653
 30
0.0
 11
-210.3994949221401
 21
164.5861875357653
 31
0.0
  0
LINE
  5
23D
330
1F
100
AcDbEntity
  8
仕上
  6
Continuous
 62
     6
370
     9
100
AcDbLine
 10
-209.5542404880185
 20
163.5862337245322
 30
0.0
 11
-209.5542404880185
 21
153.5862502205204
 31
0.0
  0
LINE
  5
23E
330
1F
100
AcDbEntity
  8
仕上
  6
Continuous
 62
     6
370
     9
100
AcDbLine
 10
-210.3994949221401
 20
164.5861875357653
 30
0.0
 11
-205.3223761774188
 21
163.5862337245322
 31
0.0
  0
LINE
  5
23F
330
1F
100
AcDbEntity
  8
仕上
  6
Continuous
 62
     6
370
     9
100
AcDbLine
 10
-205.3223761774188
 20
163.5862337245322
 30
0.0
 11
-205.3223761774188
 21
153.5862502205204
 31
0.0
  0
LINE
  5
240
330
1F
100
AcDbEntity
  8
仕上
  6
Continuous
 62
     6
370
     9
100
AcDbLine
 10
-210.3994949221401
 20
152.5862964092873
 30
0.0
 11
-205.3223761774188
 21
153.5862502205204
 31
0.0
  0
LINE
  5
241
330
1F
100
AcDbEntity
  8
仕上
  6
Continuous
 62
     6
370
     9
100
AcDbLine
 10
-140.6312388120261
 20
126.5863590940423
 30
0.0
 11
-145.6313047959788
 21
126.5863590940423
 31
0.0
  0
LINE
  5
242
330
1F
100
AcDbEntity
  8
仕上
  6
Continuous
 62
     6
370
     9
100
AcDbLine
 10
-146.6313575831409
 20
131.6634778387636
 30
0.0
 11
-159.6313509847457
 21
131.6634778387636
 31
0.0
  0
LINE
  5
243
330
1F
100
AcDbEntity
  8
仕上
  6
Continuous
 62
     6
370
     9
100
AcDbLine
 10
-126.631266855206
 20
131.6634778387636
 30
0.0
 11
-139.6313097447753
 21
131.6634778387636
 31
0.0
  0
LINE
  5
244
330
1F
100
AcDbEntity
  8
仕上
  6
Continuous
 62
     6
370
     9
100
AcDbLine
 10
-159.6313509847457
 20
131.6634778387636
 30
0.0
 11
-160.6314037719079
 21
126.5863590940423
 31
0.0
  0
LINE
  5
245
330
1F
100
AcDbEntity
  8
仕上
  6
Continuous
 62
     6
370
     9
100
AcDbLine
 10
-146.6313575831409
 20
131.6634778387636
 30
0.0
 11
-145.6313047959788
 21
126.5863590940423
 31
0.0
  0
LINE
  5
246
330
1F
100
AcDbEntity
  8
仕上
  6
Continuous
 62
     6
370
     9
100
AcDbLine
 10
-140.6312388120261
 20
126.5863590940423
 30
0.0
 11
-139.6313097447753
 21
131.6634778387636
 31
0.0
  0
LINE
  5
247
330
1F
100
AcDbEntity
  8
仕上
  6
Continuous
 62
     6
370
     9
100
AcDbLine
 10
-126.631266855206
 20
131.6634778387636
 30
0.0
 11
-125.6314615078666
 21
126.5863590940423
 31
0.0
  0
LINE
  5
248
330
1F
100
AcDbEntity
  8
仕上
  6
Continuous
 62
     6
370
     9
100
AcDbLine
 10
-114.6314252166925
 20
126.5863096060778
 30
0.0
 11
-125.6314615078666
 21
126.5863096060778
 31
0.0
  0
LINE
  5
249
330
1F
100
AcDbEntity
  8
仕上
  6
Continuous
 62
     6
370
     9
100
AcDbLine
 10
-111.6314153190997
 20
129.5863195036707
 30
0.0
 11
-111.6314153190997
 21
134.5863854876234
 31
0.0
  0
LINE
  5
24A
330
1F
100
AcDbEntity
  8
仕上
  6
Continuous
 62
     6
370
     9
100
AcDbLine
 10
-125.6314615078666
 20
126.5863590940423
 30
0.0
 11
-125.6314615078666
 21
130.8182728926065
 31
0.0
  0
LINE
  5
24B
330
1F
100
AcDbEntity
  8
仕上
  6
Continuous
 62
     6
370
     9
100
AcDbLine
 10
-139.6313097447753
 20
131.6634778387636
 30
0.0
 11
-139.6313097447753
 21
135.8954906132568
 31
0.0
  0
LINE
  5
24C
330
1F
100
AcDbEntity
  8
仕上
  6
Continuous
 62
     6
370
     9
100
AcDbLine
 10
-140.6312388120261
 20
126.5863590940423
 30
0.0
 11
-140.6312388120261
 21
130.8182728926065
 31
0.0
  0
LINE
  5
24D
330
1F
100
AcDbEntity
  8
仕上
  6
Continuous
 62
     6
370
     9
100
AcDbLine
 10
-139.6313097447753
 20
135.8954906132568
 30
0.0
 11
-126.631266855206
 21
135.8954906132568
 31
0.0
  0
LINE
  5
24E
330
1F
100
AcDbEntity
  8
仕上
  6
Continuous
 62
     6
370
     9
100
AcDbLine
 10
-139.6313097447753
 20
135.0137635492788
 30
0.0
 11
-126.631266855206
 21
135.0137635492788
 31
0.0
  0
LINE
  5
24F
330
1F
100
AcDbEntity
  8
仕上
  6
Continuous
 62
     6
370
     9
100
AcDbLine
 10
-145.6313047959788
 20
126.5863590940423
 30
0.0
 11
-145.6313047959788
 21
130.8182728926065
 31
0.0
  0
LINE
  5
250
330
1F
100
AcDbEntity
  8
仕上
  6
Continuous
 62
     6
370
     9
100
AcDbLine
 10
-146.6313575831409
 20
131.6634778387636
 30
0.0
 11
-146.6313575831409
 21
135.8954906132568
 31
0.0
  0
LINE
  5
251
330
1F
100
AcDbEntity
  8
仕上
  6
Continuous
 62
     6
370
     9
100
AcDbLine
 10
-159.6313509847457
 20
131.6634778387636
 30
0.0
 11
-159.6313509847457
 21
135.0137635492788
 31
0.0
  0
LINE
  5
252
330
1F
100
AcDbEntity
  8
仕上
  6
Continuous
 62
     6
370
     9
100
AcDbLine
 10
-160.6314037719079
 20
126.5863590940423
 30
0.0
 11
-160.6314037719079
 21
135.8954906132568
 31
0.0
  0
LINE
  5
253
330
1F
100
AcDbEntity
  8
仕上
  6
Continuous
 62
     6
370
     9
100
AcDbLine
 10
-160.6314037719079
 20
135.8954906132568
 30
0.0
 11
-146.6313575831409
 21
135.8954906132568
 31
0.0
  0
LINE
  5
254
330
1F
100
AcDbEntity
  8
仕上
  6
Continuous
 62
     6
370
     9
100
AcDbLine
 10
-146.6313575831409
 20
135.0137635492788
 30
0.0
 11
-159.6313509847457
 21
135.0137635492788
 31
0.0
  0
LINE
  5
255
330
1F
100
AcDbEntity
  8
仕上
  6
Continuous
 62
     6
370
     9
100
AcDbLine
 10
-160.6314037719079
 20
135.8954906132568
 30
0.0
 11
-159.6313509847457
 21
135.0137635492788
 31
0.0
  0
LINE
  5
256
330
1F
100
AcDbEntity
  8
仕上
  6
Continuous
 62
     6
370
     9
100
AcDbLine
 10
-120.0588197743361
 20
135.5864382747856
 30
0.0
 11
-120.0588197743361
 21
145.5864217787974
 31
0.0
  0
LINE
  5
257
330
1F
100
AcDbEntity
  8
仕上
  6
Continuous
 62
     6
370
     9
100
AcDbLine
 10
-160.6314037719079
 20
126.5863590940423
 30
0.0
 11
-165.6313955239139
 21
126.5863590940423
 31
0.0
  0
LINE
  5
258
330
1F
100
AcDbEntity
  8
仕上
  6
Continuous
 62
     6
370
     9
100
AcDbLine
 10
-161.2669777003284
 20
130.8182728926065
 30
0.0
 11
-164.9958215954932
 21
130.8182728926065
 31
0.0
  0
LINE
  5
259
330
1F
100
AcDbEntity
  8
仕上
  6
Continuous
 62
     6
370
     9
100
AcDbLine
 10
-140.6312635560084
 20
130.8182728926065
 30
0.0
 11
-139.6313097447753
 21
135.8954906132568
 31
0.0
  0
LINE
  5
25A
330
1F
100
AcDbEntity
  8
仕上
  6
Continuous
 62
     6
370
     9
100
AcDbLine
 10
-140.6312635560084
 20
130.8182728926065
 30
0.0
 11
-145.6312800519966
 21
130.8182728926065
 31
0.0
  0
LINE
  5
25B
330
1F
100
AcDbEntity
  8
仕上
  6
Continuous
 62
     6
370
     9
100
AcDbLine
 10
-146.6313575831409
 20
135.8954906132568
 30
0.0
 11
-145.6312800519966
 21
130.8182728926065
 31
0.0
  0
LINE
  5
25C
330
1F
100
AcDbEntity
  8
仕上
  6
Continuous
 62
     6
370
     9
100
AcDbLine
 10
-118.8632895272922
 20
130.8182728926065
 30
0.0
 11
-125.6314615078666
 21
130.8182728926065
 31
0.0
  0
LINE
  5
25D
330
1F
100
AcDbEntity
  8
仕上
  6
Continuous
 62
     6
370
     9
100
AcDbLine
 10
-126.631266855206
 20
131.6634778387636
 30
0.0
 11
-126.631266855206
 21
135.8954411252923
 31
0.0
  0
LINE
  5
25E
330
1F
100
AcDbEntity
  8
仕上
  6
Continuous
 62
     6
370
     9
100
AcDbLine
 10
-126.631266855206
 20
135.8954411252923
 30
0.0
 11
-125.6314615078666
 21
130.8182728926065
 31
0.0
  0
LINE
  5
25F
330
1F
100
AcDbEntity
  8
仕上
  6
Continuous
 62
     6
370
     9
100
AcDbLine
 10
-111.6314153190997
 20
146.5863755900305
 30
0.0
 11
-115.8632796296993
 21
146.5863755900305
 31
0.0
  0
LINE
  5
260
330
1F
100
AcDbEntity
  8
仕上
  6
Continuous
 62
     6
370
     9
100
AcDbLine
 10
-120.9403983744205
 20
135.5864382747856
 30
0.0
 11
-116.7085835517854
 21
135.5864382747856
 31
0.0
  0
LINE
  5
261
330
1F
100
AcDbEntity
  8
仕上
  6
Continuous
 62
     6
370
     9
100
AcDbLine
 10
-111.6314153190997
 20
134.5864844635525
 30
0.0
 11
-116.7085835517854
 21
135.5864382747856
 31
0.0
  0
LINE
  5
262
330
1F
100
AcDbEntity
  8
仕上
  6
Continuous
 62
     6
370
     9
100
AcDbLine
 10
-120.9403983744205
 20
145.5864217787974
 30
0.0
 11
-116.7085835517854
 21
145.5864217787974
 31
0.0
  0
LINE
  5
263
330
1F
100
AcDbEntity
  8
仕上
  6
Continuous
 62
     6
370
     9
100
AcDbLine
 10
-111.6314153190997
 20
146.5863755900305
 30
0.0
 11
-116.7085835517854
 21
145.5864217787974
 31
0.0
  0
LINE
  5
264
330
1F
100
AcDbEntity
  8
仕上
  6
Continuous
 62
     6
370
     9
100
AcDbLine
 10
-115.8632796296993
 20
134.5864844635525
 30
0.0
 11
-115.8632796296993
 21
133.8182827901994
 31
0.0
  0
LINE
  5
265
330
1F
100
AcDbEntity
  8
仕上
  6
Continuous
 62
     6
370
     9
100
AcDbLine
 10
-111.6314153190997
 20
134.5864844635525
 30
0.0
 11
-115.8632796296993
 21
134.5864844635525
 31
0.0
  0
LINE
  5
266
330
1F
100
AcDbEntity
  8
仕上
  6
Continuous
 62
     6
370
     9
100
AcDbLine
 10
-116.7085835517854
 20
135.5864382747856
 30
0.0
 11
-116.7085835517854
 21
145.5864217787974
 31
0.0
  0
LINE
  5
267
330
1F
100
AcDbEntity
  8
仕上
  6
Continuous
 62
     6
370
     9
100
AcDbLine
 10
-115.8632796296993
 20
134.5864844635525
 30
0.0
 11
-120.9404478623851
 21
135.5864382747856
 31
0.0
  0
LINE
  5
268
330
1F
100
AcDbEntity
  8
仕上
  6
Continuous
 62
     6
370
     9
100
AcDbLine
 10
-120.9404478623851
 20
135.5864382747856
 30
0.0
 11
-120.9404478623851
 21
145.5864217787974
 31
0.0
  0
LINE
  5
269
330
1F
100
AcDbEntity
  8
仕上
  6
Continuous
 62
     6
370
     9
100
AcDbLine
 10
-115.8632796296993
 20
146.5863755900305
 30
0.0
 11
-120.9404478623851
 21
145.5864217787974
 31
0.0
  0
LINE
  5
26A
330
1F
100
AcDbEntity
  8
仕上
  6
Continuous
 62
     6
370
     9
100
AcDbLine
 10
-185.6315604837955
 20
126.5863590940423
 30
0.0
 11
-180.6314944998428
 21
126.5863590940423
 31
0.0
  0
LINE
  5
26B
330
1F
100
AcDbEntity
  8
仕上
  6
Continuous
 62
     6
370
     9
100
AcDbLine
 10
-179.6314417126807
 20
131.6634778387636
 30
0.0
 11
-166.6314483110759
 21
131.6634778387636
 31
0.0
  0
LINE
  5
26C
330
1F
100
AcDbEntity
  8
仕上
  6
Continuous
 62
     6
370
     9
100
AcDbLine
 10
-199.6315076966334
 20
131.6634778387636
 30
0.0
 11
-186.6314648070642
 21
131.6634778387636
 31
0.0
  0
LINE
  5
26D
330
1F
100
AcDbEntity
  8
仕上
  6
Continuous
 62
     6
370
     9
100
AcDbLine
 10
-166.6314483110759
 20
131.6634778387636
 30
0.0
 11
-165.6313955239139
 21
126.5863590940423
 31
0.0
  0
LINE
  5
26E
330
1F
100
AcDbEntity
  8
仕上
  6
Continuous
 62
     6
370
     9
100
AcDbLine
 10
-179.6314417126807
 20
131.6634778387636
 30
0.0
 11
-180.6314944998428
 21
126.5863590940423
 31
0.0
  0
LINE
  5
26F
330
1F
100
AcDbEntity
  8
仕上
  6
Continuous
 62
     6
370
     9
100
AcDbLine
 10
-185.6315604837955
 20
126.5863590940423
 30
0.0
 11
-186.6314648070642
 21
131.6634778387636
 31
0.0
  0
LINE
  5
270
330
1F
100
AcDbEntity
  8
仕上
  6
Continuous
 62
     6
370
     9
100
AcDbLine
 10
-199.6315076966334
 20
131.6634778387636
 30
0.0
 11
-200.6313625319374
 21
126.5863590940423
 31
0.0
  0
LINE
  5
271
330
1F
100
AcDbEntity
  8
仕上
  6
Continuous
 62
     6
370
     9
100
AcDbLine
 10
-211.6313740791292
 20
126.5863096060778
 30
0.0
 11
-200.6313625319374
 21
126.5863096060778
 31
0.0
  0
LINE
  5
272
330
1F
100
AcDbEntity
  8
仕上
  6
Continuous
 62
     6
370
     9
100
AcDbLine
 10
-214.6313592327399
 20
129.5863195036707
 30
0.0
 11
-214.6313592327399
 21
134.5863854876234
 31
0.0
  0
LINE
  5
273
330
1F
100
AcDbEntity
  8
仕上
  6
Continuous
 62
     6
370
     9
100
AcDbLine
 10
-200.6313625319374
 20
126.5863590940423
 30
0.0
 11
-200.6313625319374
 21
130.8182728926065
 31
0.0
  0
LINE
  5
274
330
1F
100
AcDbEntity
  8
仕上
  6
Continuous
 62
     6
370
     9
100
AcDbLine
 10
-186.6314648070642
 20
131.6634778387636
 30
0.0
 11
-186.6314648070642
 21
135.8954906132568
 31
0.0
  0
LINE
  5
275
330
1F
100
AcDbEntity
  8
仕上
  6
Continuous
 62
     6
370
     9
100
AcDbLine
 10
-186.6314648070642
 20
135.8954906132568
 30
0.0
 11
-199.6315076966334
 21
135.8954906132568
 31
0.0
  0
LINE
  5
276
330
1F
100
AcDbEntity
  8
仕上
  6
Continuous
 62
     6
370
     9
100
AcDbLine
 10
-186.6314648070642
 20
135.0137635492788
 30
0.0
 11
-199.6315076966334
 21
135.0137635492788
 31
0.0
  0
LINE
  5
277
330
1F
100
AcDbEntity
  8
仕上
  6
Continuous
 62
     6
370
     9
100
AcDbLine
 10
-180.6314944998428
 20
126.5863590940423
 30
0.0
 11
-180.6314944998428
 21
130.8182728926065
 31
0.0
  0
LINE
  5
278
330
1F
100
AcDbEntity
  8
仕上
  6
Continuous
 62
     6
370
     9
100
AcDbLine
 10
-179.6314417126807
 20
131.6634778387636
 30
0.0
 11
-179.6314417126807
 21
135.8954906132568
 31
0.0
  0
LINE
  5
279
330
1F
100
AcDbEntity
  8
仕上
  6
Continuous
 62
     6
370
     9
100
AcDbLine
 10
-166.6314483110759
 20
131.6634778387636
 30
0.0
 11
-166.6314483110759
 21
135.0137635492788
 31
0.0
  0
LINE
  5
27A
330
1F
100
AcDbEntity
  8
仕上
  6
Continuous
 62
     6
370
     9
100
AcDbLine
 10
-165.6313955239139
 20
126.5863590940423
 30
0.0
 11
-165.6313955239139
 21
135.8954906132568
 31
0.0
  0
LINE
  5
27B
330
1F
100
AcDbEntity
  8
仕上
  6
Continuous
 62
     6
370
     9
100
AcDbLine
 10
-165.6313955239139
 20
135.8954906132568
 30
0.0
 11
-179.6314417126807
 21
135.8954906132568
 31
0.0
  0
LINE
  5
27C
330
1F
100
AcDbEntity
  8
仕上
  6
Continuous
 62
     6
370
     9
100
AcDbLine
 10
-179.6314417126807
 20
135.0137635492788
 30
0.0
 11
-166.6314483110759
 21
135.0137635492788
 31
0.0
  0
LINE
  5
27D
330
1F
100
AcDbEntity
  8
仕上
  6
Continuous
 62
     6
370
     9
100
AcDbLine
 10
-165.6313955239139
 20
135.8954906132568
 30
0.0
 11
-166.6314483110759
 21
135.0137635492788
 31
0.0
  0
LINE
  5
27E
330
1F
100
AcDbEntity
  8
仕上
  6
Continuous
 62
     6
370
     9
100
AcDbLine
 10
-206.2040042654678
 20
135.5864382747856
 30
0.0
 11
-206.2040042654678
 21
145.5864217787974
 31
0.0
  0
LINE
  5
27F
330
1F
100
AcDbEntity
  8
仕上
  6
Continuous
 62
     6
370
     9
100
AcDbLine
 10
-207.3994850245472
 20
130.8182728926065
 30
0.0
 11
-200.6313625319374
 21
130.8182728926065
 31
0.0
  0
LINE
  5
280
330
1F
100
AcDbEntity
  8
仕上
  6
Continuous
 62
     6
370
     9
100
AcDbLine
 10
-199.6315076966334
 20
131.6634778387636
 30
0.0
 11
-199.6315076966334
 21
135.8954411252923
 31
0.0
  0
LINE
  5
281
330
1F
100
AcDbEntity
  8
仕上
  6
Continuous
 62
     6
370
     9
100
AcDbLine
 10
-199.6315076966334
 20
135.8954411252923
 30
0.0
 11
-200.6313625319374
 21
130.8182728926065
 31
0.0
  0
LINE
  5
282
330
1F
100
AcDbEntity
  8
仕上
  6
Continuous
 62
     6
370
     9
100
AcDbLine
 10
-214.6313592327399
 20
146.5863755900305
 30
0.0
 11
-210.3994949221401
 21
146.5863755900305
 31
0.0
  0
LINE
  5
283
330
1F
100
AcDbEntity
  8
仕上
  6
Continuous
 62
     6
370
     9
100
AcDbLine
 10
-205.3223761774188
 20
135.5864382747856
 30
0.0
 11
-209.5542404880185
 21
135.5864382747856
 31
0.0
  0
LINE
  5
284
330
1F
100
AcDbEntity
  8
仕上
  6
Continuous
 62
     6
370
     9
100
AcDbLine
 10
-214.6313592327399
 20
134.5864844635525
 30
0.0
 11
-209.5542404880185
 21
135.5864382747856
 31
0.0
  0
LINE
  5
285
330
1F
100
AcDbEntity
  8
仕上
  6
Continuous
 62
     6
370
     9
100
AcDbLine
 10
-205.3223761774188
 20
145.5864217787974
 30
0.0
 11
-209.5542404880185
 21
145.5864217787974
 31
0.0
  0
LINE
  5
286
330
1F
100
AcDbEntity
  8
仕上
  6
Continuous
 62
     6
370
     9
100
AcDbLine
 10
-214.6313592327399
 20
146.5863755900305
 30
0.0
 11
-209.5542404880185
 21
145.5864217787974
 31
0.0
  0
LINE
  5
287
330
1F
100
AcDbEntity
  8
仕上
  6
Continuous
 62
     6
370
     9
100
AcDbLine
 10
-210.3994949221401
 20
134.5864844635525
 30
0.0
 11
-210.3994949221401
 21
133.8182827901994
 31
0.0
  0
LINE
  5
288
330
1F
100
AcDbEntity
  8
仕上
  6
Continuous
 62
     6
370
     9
100
AcDbLine
 10
-214.6313592327399
 20
134.5864844635525
 30
0.0
 11
-210.3994949221401
 21
134.5864844635525
 31
0.0
  0
LINE
  5
289
330
1F
100
AcDbEntity
  8
仕上
  6
Continuous
 62
     6
370
     9
100
AcDbLine
 10
-209.5542404880185
 20
135.5864382747856
 30
0.0
 11
-209.5542404880185
 21
145.5864217787974
 31
0.0
  0
LINE
  5
28A
330
1F
100
AcDbEntity
  8
仕上
  6
Continuous
 62
     6
370
     9
100
AcDbLine
 10
-210.3994949221401
 20
134.5864844635525
 30
0.0
 11
-205.3223761774188
 21
135.5864382747856
 31
0.0
  0
LINE
  5
28B
330
1F
100
AcDbEntity
  8
仕上
  6
Continuous
 62
     6
370
     9
100
AcDbLine
 10
-205.3223761774188
 20
135.5864382747856
 30
0.0
 11
-205.3223761774188
 21
145.5864217787974
 31
0.0
  0
LINE
  5
28C
330
1F
100
AcDbEntity
  8
仕上
  6
Continuous
 62
     6
370
     9
100
AcDbLine
 10
-210.3994949221401
 20
146.5863755900305
 30
0.0
 11
-205.3223761774188
 21
145.5864217787974
 31
0.0
  0
LINE
  5
28D
330
1F
100
AcDbEntity
  8
仕上
  6
Continuous
 62
     6
370
     9
100
AcDbLine
 10
-111.6314153190997
 20
152.5862964092873
 30
0.0
 11
-111.6314153190997
 21
146.5863755900305
 31
0.0
  0
LINE
  5
28E
330
1F
100
AcDbEntity
  8
仕上
  6
Continuous
 62
     6
370
     9
100
AcDbLine
 10
-115.8632796296993
 20
146.5863755900305
 30
0.0
 11
-115.8632796296993
 21
152.5862964092873
 31
0.0
  0
LINE
  5
28F
330
1F
100
AcDbEntity
  8
仕上
  6
Continuous
 62
     6
370
     9
100
AcDbLine
 10
-214.6313592327399
 20
152.5862964092873
 30
0.0
 11
-214.6313592327399
 21
146.5863755900305
 31
0.0
  0
LINE
  5
290
330
1F
100
AcDbEntity
  8
仕上
  6
Continuous
 62
     6
370
     9
100
AcDbLine
 10
-210.3994949221401
 20
146.5863755900305
 30
0.0
 11
-210.3994949221401
 21
152.5862964092873
 31
0.0
  0
LINE
  5
291
330
1F
100
AcDbEntity
  8
仕上
  6
Continuous
 62
     6
370
     9
100
AcDbLine
 10
-179.6314417126807
 20
135.8954906132568
 30
0.0
 11
-180.6314944998428
 21
130.8182728926065
 31
0.0
  0
LINE
  5
292
330
1F
100
AcDbEntity
  8
仕上
  6
Continuous
 62
     6
370
     9
100
AcDbLine
 10
-185.6315604837955
 20
126.5863590940423
 30
0.0
 11
-185.6315604837955
 21
130.8183223805711
 31
0.0
  0
LINE
  5
293
330
1F
100
AcDbEntity
  8
仕上
  6
Continuous
 62
     6
370
     9
100
AcDbLine
 10
-186.6314648070642
 20
135.8954906132568
 30
0.0
 11
-185.6315357398132
 21
130.8182728926065
 31
0.0
  0
LINE
  5
294
330
1F
100
AcDbEntity
  8
仕上
  6
Continuous
 62
     6
370
     9
100
AcDbLine
 10
-180.6314944998428
 20
130.8182728926065
 30
0.0
 11
-185.6315604837955
 21
130.8182728926065
 31
0.0
  0
LINE
  5
295
330
1F
100
AcDbEntity
  8
仕上
  6
Continuous
 62
     6
370
     9
100
AcDbLine
 10
-199.6314087207044
 20
144.0862931100896
 30
0.0
 11
-199.6314087207044
 21
155.0863294012636
 31
0.0
  0
LINE
  5
296
330
1F
100
AcDbEntity
  8
仕上
  6
Continuous
 62
     6
370
     9
100
AcDbLine
 10
-200.6313130439729
 20
143.086289810892
 30
0.0
 11
-200.6313130439729
 21
156.0862832124967
 31
0.0
  0
LINE
  5
297
330
1F
100
AcDbEntity
  8
仕上
  6
Continuous
 62
     6
370
     9
100
AcDbLine
 10
-187.131466456663
 20
143.5862667165086
 30
0.0
 11
-199.1314318150878
 21
143.5862667165086
 31
0.0
  0
LINE
  5
298
330
1F
100
AcDbEntity
  8
仕上
  6
Continuous
 62
     6
370
     9
100
AcDbLine
 10
-187.131466456663
 20
155.5863557948447
 30
0.0
 11
-199.1314318150878
 21
155.5863557948447
 31
0.0
  0
LINE
  5
299
330
1F
100
AcDbEntity
  8
仕上
  6
Continuous
 62
     6
370
     9
100
AcDbLine
 10
-186.6314648070642
 20
155.0863294012636
 30
0.0
 11
-186.6314648070642
 21
144.0862931100896
 31
0.0
  0
LINE
  5
29A
330
1F
100
AcDbEntity
  8
仕上
  6
Continuous
 62
     6
370
     9
100
AcDbLine
 10
-186.1315373894122
 20
156.5863096060778
 30
0.0
 11
-200.1313361383563
 21
156.5863096060778
 31
0.0
  0
LINE
  5
29B
330
1F
100
AcDbEntity
  8
仕上
  6
Continuous
 62
     6
370
     9
100
AcDbLine
 10
-185.6315604837955
 20
143.086289810892
 30
0.0
 11
-185.6315604837955
 21
156.0862832124967
 31
0.0
  0
LINE
  5
29C
330
1F
100
AcDbEntity
  8
仕上
  6
Continuous
 62
     6
370
     9
100
AcDbLine
 10
-186.1315373894122
 20
142.5862634173109
 30
0.0
 11
-200.1313361383563
 21
142.5862634173109
 31
0.0
  0
LINE
  5
29D
330
1F
100
AcDbEntity
  8
仕上
  6
Continuous
 62
     6
370
     9
100
AcDbLine
 10
-167.1313262407634
 20
155.5863557948447
 30
0.0
 11
-179.1314153190997
 21
155.5863557948447
 31
0.0
  0
LINE
  5
29E
330
1F
100
AcDbEntity
  8
仕上
  6
Continuous
 62
     6
370
     9
100
AcDbLine
 10
-166.1314219174949
 20
156.5863096060778
 30
0.0
 11
-180.1314928502441
 21
156.5863096060778
 31
0.0
  0
LINE
  5
29F
330
1F
100
AcDbEntity
  8
仕上
  6
Continuous
 62
     6
370
     9
100
AcDbLine
 10
-166.631349335147
 20
144.0862931100896
 30
0.0
 11
-166.631349335147
 21
155.0863294012636
 31
0.0
  0
LINE
  5
2A0
330
1F
100
AcDbEntity
  8
仕上
  6
Continuous
 62
     6
370
     9
100
AcDbLine
 10
-179.1314153190997
 20
143.5862667165086
 30
0.0
 11
-167.1313262407634
 21
143.5862667165086
 31
0.0
  0
LINE
  5
2A1
330
1F
100
AcDbEntity
  8
仕上
  6
Continuous
 62
     6
370
     9
100
AcDbLine
 10
-179.6314417126807
 20
144.0862931100896
 30
0.0
 11
-179.6314417126807
 21
155.0863294012636
 31
0.0
  0
LINE
  5
2A2
330
1F
100
AcDbEntity
  8
仕上
  6
Continuous
 62
     6
370
     9
100
AcDbLine
 10
-180.6314944998428
 20
143.086289810892
 30
0.0
 11
-180.6314944998428
 21
156.0862832124967
 31
0.0
  0
LINE
  5
2A3
330
1F
100
AcDbEntity
  8
仕上
  6
Continuous
 62
     6
370
     9
100
AcDbLine
 10
-166.1314219174949
 20
142.5862634173109
 30
0.0
 11
-180.1314928502441
 21
142.5862634173109
 31
0.0
  0
LINE
  5
2A4
330
1F
100
AcDbEntity
  8
仕上
  6
Continuous
 62
     6
370
     9
100
AcDbLine
 10
-165.6314450118783
 20
143.086289810892
 30
0.0
 11
-165.6314450118783
 21
156.0862832124967
 31
0.0
  0
LINE
  5
2A5
330
1F
100
AcDbEntity
  8
仕上
  6
Continuous
 62
     6
370
     9
100
AcDbLine
 10
-126.6314153190997
 20
144.0862931100896
 30
0.0
 11
-126.6314153190997
 21
155.0863294012636
 31
0.0
  0
LINE
  5
2A6
330
1F
100
AcDbEntity
  8
仕上
  6
Continuous
 62
     6
370
     9
100
AcDbLine
 10
-125.6314615078666
 20
143.086289810892
 30
0.0
 11
-125.6314615078666
 21
156.0862832124967
 31
0.0
  0
LINE
  5
2A7
330
1F
100
AcDbEntity
  8
仕上
  6
Continuous
 62
     6
370
     9
100
AcDbLine
 10
-139.1313328391587
 20
143.5862667165086
 30
0.0
 11
-127.1313922247161
 21
143.5862667165086
 31
0.0
  0
LINE
  5
2A8
330
1F
100
AcDbEntity
  8
仕上
  6
Continuous
 62
     6
370
     9
100
AcDbLine
 10
-139.1313328391587
 20
155.5863557948447
 30
0.0
 11
-127.1313922247161
 21
155.5863557948447
 31
0.0
  0
LINE
  5
2A9
330
1F
100
AcDbEntity
  8
仕上
  6
Continuous
 62
     6
370
     9
100
AcDbLine
 10
-139.6313097447753
 20
155.0863294012636
 30
0.0
 11
-139.6313097447753
 21
144.0862931100896
 31
0.0
  0
LINE
  5
2AA
330
1F
100
AcDbEntity
  8
仕上
  6
Continuous
 62
     6
370
     9
100
AcDbLine
 10
-140.1312371624274
 20
156.5863096060778
 30
0.0
 11
-126.1314879014476
 21
156.5863096060778
 31
0.0
  0
LINE
  5
2AB
330
1F
100
AcDbEntity
  8
仕上
  6
Continuous
 62
     6
370
     9
100
AcDbLine
 10
-140.6312388120261
 20
143.086289810892
 30
0.0
 11
-140.6312388120261
 21
156.0862832124967
 31
0.0
  0
LINE
  5
2AC
330
1F
100
AcDbEntity
  8
仕上
  6
Continuous
 62
     6
370
     9
100
AcDbLine
 10
-140.1312371624274
 20
142.5862634173109
 30
0.0
 11
-126.1314879014476
 21
142.5862634173109
 31
0.0
  0
LINE
  5
2AD
330
1F
100
AcDbEntity
  8
仕上
  6
Continuous
 62
     6
370
     9
100
AcDbLine
 10
-159.1314483110759
 20
155.5863557948447
 30
0.0
 11
-147.1313592327399
 21
155.5863557948447
 31
0.0
  0
LINE
  5
2AE
330
1F
100
AcDbEntity
  8
仕上
  6
Continuous
 62
     6
370
     9
100
AcDbLine
 10
-160.1313526343445
 20
156.5863096060778
 30
0.0
 11
-146.1313064455776
 21
156.5863096060778
 31
0.0
  0
LINE
  5
2AF
330
1F
100
AcDbEntity
  8
仕上
  6
Continuous
 62
     6
370
     9
100
AcDbLine
 10
-159.6314499606748
 20
144.0862931100896
 30
0.0
 11
-159.6314499606748
 21
155.0863294012636
 31
0.0
  0
LINE
  5
2B0
330
1F
100
AcDbEntity
  8
仕上
  6
Continuous
 62
     6
370
     9
100
AcDbLine
 10
-147.1313592327399
 20
143.5862667165086
 30
0.0
 11
-159.1314483110759
 21
143.5862667165086
 31
0.0
  0
LINE
  5
2B1
330
1F
100
AcDbEntity
  8
仕上
  6
Continuous
 62
     6
370
     9
100
AcDbLine
 10
-146.6313575831409
 20
144.0862931100896
 30
0.0
 11
-146.6313575831409
 21
155.0863294012636
 31
0.0
  0
LINE
  5
2B2
330
1F
100
AcDbEntity
  8
仕上
  6
Continuous
 62
     6
370
     9
100
AcDbLine
 10
-145.6313047959788
 20
143.086289810892
 30
0.0
 11
-145.6313047959788
 21
156.0862832124967
 31
0.0
  0
LINE
  5
2B3
330
1F
100
AcDbEntity
  8
仕上
  6
Continuous
 62
     6
370
     9
100
AcDbLine
 10
-160.1313526343445
 20
142.5862634173109
 30
0.0
 11
-146.1313064455776
 21
142.5862634173109
 31
0.0
  0
LINE
  5
2B4
330
1F
100
AcDbEntity
  8
仕上
  6
Continuous
 62
     6
370
     9
100
AcDbLine
 10
-160.6313295399611
 20
143.086289810892
 30
0.0
 11
-160.6313295399611
 21
156.0862832124967
 31
0.0
  0
LINE
  5
2B5
330
1F
100
AcDbEntity
  8
仕上
  6
Continuous
 62
     6
370
     9
100
AcDbLine
 10
-229.1313328391587
 20
173.5863162044731
 30
0.0
 11
-229.1313328391587
 21
154.5863030076825
 31
0.0
  0
LINE
  5
2B6
330
1F
100
AcDbEntity
  8
仕上
  6
Continuous
 62
     6
370
     9
100
AcDbLine
 10
-228.6314549094712
 20
173.0861908349629
 30
0.0
 11
-228.6314549094712
 21
155.0863294012636
 31
0.0
  0
LINE
  5
2B7
330
1F
100
AcDbEntity
  8
仕上
  6
Continuous
 62
     6
370
     9
100
AcDbLine
 10
-229.1313328391587
 20
125.5863557948447
 30
0.0
 11
-229.1313328391587
 21
144.5863689916352
 31
0.0
  0
LINE
  5
2B8
330
1F
100
AcDbEntity
  8
仕上
  6
Continuous
 62
     6
370
     9
100
AcDbLine
 10
-226.1313229415658
 20
122.5863458972518
 30
0.0
 11
-163.131412019902
 21
122.5863458972518
 31
0.0
  0
LINE
  5
2B9
330
1F
100
AcDbEntity
  8
仕上
  6
Continuous
 62
     6
370
     9
100
AcDbLine
 10
-228.6314549094712
 20
126.0862832124967
 30
0.0
 11
-228.6314549094712
 21
144.0862931100896
 31
0.0
  0
LINE
  5
2BA
330
1F
100
AcDbEntity
  8
仕上
  6
Continuous
 62
     6
370
     9
100
AcDbLine
 10
-225.6314450118783
 20
123.0862733149038
 30
0.0
 11
-163.131412019902
 21
123.0862733149038
 31
0.0
  0
LINE
  5
2BB
330
1F
100
AcDbEntity
  8
仕上
  6
Continuous
 62
     6
370
     9
100
AcDbLine
 10
-100.6313295399611
 20
123.0862733149038
 30
0.0
 11
-163.131412019902
 21
123.0862733149038
 31
0.0
  0
LINE
  5
2BC
330
1F
100
AcDbEntity
  8
仕上
  6
Continuous
 62
     6
370
     9
100
AcDbLine
 10
-97.6313691303327
 20
126.0862832124967
 30
0.0
 11
-97.6313691303327
 21
144.0862931100896
 31
0.0
  0
LINE
  5
2BD
330
1F
100
AcDbEntity
  8
仕上
  6
Continuous
 62
     6
370
     9
100
AcDbLine
 10
-97.1314912006452
 20
125.5863557948447
 30
0.0
 11
-97.1314912006452
 21
144.5863689916352
 31
0.0
  0
LINE
  5
2BE
330
1F
100
AcDbEntity
  8
仕上
  6
Continuous
 62
     6
370
     9
100
AcDbLine
 10
-100.1314516102736
 20
122.5863458972518
 30
0.0
 11
-163.131412019902
 21
122.5863458972518
 31
0.0
  0
LINE
  5
2BF
330
1F
100
AcDbEntity
  8
仕上
  6
Continuous
 62
     6
370
     9
100
AcDbLine
 10
-100.6313295399611
 20
176.0862007325559
 30
0.0
 11
-225.6314450118783
 21
176.0862007325559
 31
0.0
  0
LINE
  5
2C0
330
1F
100
AcDbEntity
  8
仕上
  6
Continuous
 62
     6
370
     9
100
AcDbLine
 10
-97.6313691303327
 20
173.0861908349629
 30
0.0
 11
-97.6313691303327
 21
155.0863294012636
 31
0.0
  0
LINE
  5
2C1
330
1F
100
AcDbEntity
  8
仕上
  6
Continuous
 62
     6
370
     9
100
AcDbLine
 10
-97.1314912006452
 20
173.5863162044731
 30
0.0
 11
-97.1314912006452
 21
154.5863030076825
 31
0.0
  0
LINE
  5
2C2
330
1F
100
AcDbEntity
  8
仕上
  6
Continuous
 62
     6
370
     9
100
AcDbLine
 10
-100.1314516102736
 20
176.5862766141014
 30
0.0
 11
-226.1313229415658
 21
176.5862766141014
 31
0.0
  0
LINE
  5
2C3
330
1F
100
AcDbEntity
  8
通り芯
  6
JWW_CENTER1
 62
     3
370
     9
100
AcDbLine
 10
-222.6313856263209
 20
143.5250501043886
 30
0.0
 11
-222.6313856263209
 21
156.293637783865
 31
0.0
  0
LINE
  5
2C4
330
1F
100
AcDbEntity
  8
仕上
  6
Continuous
 62
     6
370
     9
100
AcDbLine
 10
-98.63132294156583
 20
154.0863755900305
 30
0.0
 11
-100.9271191039392
 21
154.0863755900305
 31
0.0
  0
LINE
  5
2C5
330
1F
100
AcDbEntity
  8
仕上
  6
Continuous
 62
     6
370
     9
100
AcDbLine
 10
-98.13144501187833
 20
153.5863491964494
 30
0.0
 11
-100.2308729310084
 21
153.5863491964494
 31
0.0
  0
LINE
  5
2C6
330
1F
100
AcDbEntity
  8
仕上
  6
Continuous
 62
     6
370
     9
100
AcDbLine
 10
-98.13144501187833
 20
145.5864217787974
 30
0.0
 11
-100.2307739550793
 21
145.5864217787974
 31
0.0
  0
LINE
  5
2C7
330
1F
100
AcDbEntity
  8
仕上
  6
Continuous
 62
     6
370
     9
100
AcDbLine
 10
-98.63132294156583
 20
145.0862964092873
 30
0.0
 11
-100.9271191039392
 21
145.0862964092873
 31
0.0
  0
LINE
  5
2C8
330
1F
100
AcDbEntity
  8
通り芯
  6
JWW_CENTER1
 62
     3
370
     9
100
AcDbLine
 10
-103.6313889255185
 20
143.5250501043886
 30
0.0
 11
-103.6313889255185
 21
156.293637783865
 31
0.0
  0
LINE
  5
2C9
330
1F
100
AcDbEntity
  8
通り芯
  6
JWW_CENTER1
 62
     3
370
     9
100
AcDbLine
 10
-252.5754147384408
 20
149.5863359996589
 30
0.0
 11
-77.17403435415031
 21
149.5863359996589
 31
0.0
  0
LINE
  5
2CA
330
1F
100
AcDbEntity
  8
通り芯
  6
Continuous
 62
     3
370
     9
100
AcDbLine
 10
-242.1314004727103
 20
112.58636239324
 30
0.0
 11
-242.1314004727103
 21
186.5863096060778
 31
0.0
  0
LINE
  5
2CB
330
1F
100
AcDbEntity
  8
通り芯
  6
Continuous
 62
     3
370
     9
100
AcDbLine
 10
-232.1313922247161
 20
122.5863458972518
 30
0.0
 11
-232.1313922247161
 21
176.5863755900305
 31
0.0
  0
LINE
  5
2CC
330
1F
100
AcDbEntity
  8
通り芯
  6
Continuous
 62
     3
370
     9
100
AcDbLine
 10
-226.746012948956
 20
121.9719033296842
 30
0.0
 11
-200.631412019902
 21
122.2261724914241
 31
0.0
  0
LINE
  5
2CD
330
1F
100
AcDbEntity
  8
通り芯
  6
Continuous
 62
     3
370
     9
100
AcDbLine
 10
-199.6314087207044
 20
177.8673715518126
 30
0.0
 11
-191.6313823271232
 21
177.8673715518126
 31
0.0
  0
LINE
  5
2CE
330
1F
100
AcDbEntity
  8
通り芯
  6
Continuous
 62
     3
370
     9
100
AcDbLine
 10
-229.7718060760676
 20
139.586352495647
 30
0.0
 11
-229.7718060760676
 21
124.9718637393126
 31
0.0
  0
LINE
  5
2CF
330
1F
100
AcDbEntity
  8
通り芯
  6
Continuous
 62
     3
370
     9
100
AcDbLine
 10
-229.7718060760676
 20
159.5863195036707
 30
0.0
 11
-229.7718060760676
 21
174.2008577479697
 31
0.0
  0
LINE
  5
2D0
330
1F
100
AcDbEntity
  8
通り芯
  6
Continuous
 62
     3
370
     9
100
AcDbLine
 10
-230.4124277768699
 20
157.58636239324
 30
0.0
 11
-230.4124277768699
 21
141.5864085820068
 31
0.0
  0
LINE
  5
2D1
330
1F
100
AcDbEntity
  8
通り芯
  6
Continuous
 62
     3
370
     9
100
AcDbLine
 10
-200.631412019902
 20
176.9464500199291
 30
0.0
 11
-226.746012948956
 21
177.2008181575981
 31
0.0
  0
LINE
  5
2D2
330
1F
100
AcDbEntity
  8
通り芯
  6
Continuous
 62
     3
370
     9
100
AcDbLine
 10
-186.0384505281368
 20
176.9465489958582
 30
0.0
 11
-190.6483533997584
 21
176.9465489958582
 31
0.0
  0
LINE
  5
2D3
330
1F
100
AcDbEntity
  8
通り芯
  6
Continuous
 62
     3
370
     9
100
AcDbLine
 10
-186.0384505281368
 20
176.9465489958582
 30
0.0
 11
-186.0384505281368
 21
176.5862766141014
 31
0.0
  0
LINE
  5
2D4
330
1F
100
AcDbEntity
  8
通り芯
  6
Continuous
 62
     3
370
     9
100
AcDbLine
 10
-186.0384505281368
 20
122.2261724914241
 30
0.0
 11
-186.0384505281368
 21
122.5863458972518
 31
0.0
  0
LINE
  5
2D5
330
1F
100
AcDbEntity
  8
通り芯
  6
Continuous
 62
     3
370
     9
100
AcDbLine
 10
-199.6314087207044
 20
121.3053004475052
 30
0.0
 11
-191.6313823271232
 21
121.3053004475052
 31
0.0
  0
LINE
  5
2D6
330
1F
100
AcDbEntity
  8
通り芯
  6
Continuous
 62
     3
370
     9
100
AcDbLine
 10
-186.0384505281368
 20
122.2261724914241
 30
0.0
 11
-190.6483533997584
 21
122.2261724914241
 31
0.0
  0
LINE
  5
2D7
330
1F
100
AcDbEntity
  8
通り芯
  6
Continuous
 62
     3
370
     9
100
AcDbLine
 10
-84.13139882311145
 20
112.58636239324
 30
0.0
 11
-84.13139882311145
 21
186.5863096060778
 31
0.0
  0
LINE
  5
2D8
330
1F
100
AcDbEntity
  8
通り芯
  6
Continuous
 62
     3
370
     9
100
AcDbLine
 10
-94.13138232712322
 20
122.5863458972518
 30
0.0
 11
-94.13138232712322
 21
176.5863755900305
 31
0.0
  0
LINE
  5
2D9
330
1F
100
AcDbEntity
  8
通り芯
  6
Continuous
 62
     3
370
     9
100
AcDbLine
 10
-99.51676160288343
 20
121.9719033296842
 30
0.0
 11
-125.631412019902
 21
122.2261724914241
 31
0.0
  0
LINE
  5
2DA
330
1F
100
AcDbEntity
  8
通り芯
  6
Continuous
 62
     3
370
     9
100
AcDbLine
 10
-126.6314153190997
 20
177.8673715518126
 30
0.0
 11
-134.6313922247161
 21
177.8673715518126
 31
0.0
  0
LINE
  5
2DB
330
1F
100
AcDbEntity
  8
通り芯
  6
Continuous
 62
     3
370
     9
100
AcDbLine
 10
-96.49101796373645
 20
139.586352495647
 30
0.0
 11
-96.49101796373645
 21
124.9718637393126
 31
0.0
  0
LINE
  5
2DC
330
1F
100
AcDbEntity
  8
通り芯
  6
Continuous
 62
     3
370
     9
100
AcDbLine
 10
-96.49101796373645
 20
159.5863195036707
 30
0.0
 11
-96.49101796373645
 21
174.2008577479697
 31
0.0
  0
LINE
  5
2DD
330
1F
100
AcDbEntity
  8
通り芯
  6
Continuous
 62
     3
370
     9
100
AcDbLine
 10
-95.85039626293405
 20
157.58636239324
 30
0.0
 11
-95.85039626293405
 21
141.5864085820068
 31
0.0
  0
LINE
  5
2DE
330
1F
100
AcDbEntity
  8
通り芯
  6
Continuous
 62
     3
370
     9
100
AcDbLine
 10
-125.631412019902
 20
176.9464500199291
 30
0.0
 11
-99.51676160288343
 21
177.2008181575981
 31
0.0
  0
LINE
  5
2DF
330
1F
100
AcDbEntity
  8
通り芯
  6
Continuous
 62
     3
370
     9
100
AcDbLine
 10
-140.2243240237026
 20
176.9465489958582
 30
0.0
 11
-135.6144458960632
 21
176.9465489958582
 31
0.0
  0
LINE
  5
2E0
330
1F
100
AcDbEntity
  8
通り芯
  6
Continuous
 62
     3
370
     9
100
AcDbLine
 10
-140.2243240237026
 20
176.9465489958582
 30
0.0
 11
-140.2243240237026
 21
176.5862766141014
 31
0.0
  0
LINE
  5
2E1
330
1F
100
AcDbEntity
  8
通り芯
  6
Continuous
 62
     3
370
     9
100
AcDbLine
 10
-140.2243240237026
 20
122.2261724914241
 30
0.0
 11
-140.2243240237026
 21
122.5863458972518
 31
0.0
  0
LINE
  5
2E2
330
1F
100
AcDbEntity
  8
通り芯
  6
Continuous
 62
     3
370
     9
100
AcDbLine
 10
-126.6314153190997
 20
121.3053004475052
 30
0.0
 11
-134.6313922247161
 21
121.3053004475052
 31
0.0
  0
LINE
  5
2E3
330
1F
100
AcDbEntity
  8
通り芯
  6
Continuous
 62
     3
370
     9
100
AcDbLine
 10
-140.2243240237026
 20
122.2261724914241
 30
0.0
 11
-135.6144458960632
 21
122.2261724914241
 31
0.0
  0
LINE
  5
2E4
330
1F
100
AcDbEntity
  8
通り芯
  6
Continuous
 62
     3
370
     9
100
AcDbLine
 10
-87.13140872070426
 20
189.5863195036708
 30
0.0
 11
-239.1314153190997
 21
189.5863195036708
 31
0.0
  0
LINE
  5
2E5
330
1F
100
AcDbEntity
  8
通り芯
  6
Continuous
 62
     3
370
     9
100
AcDbLine
 10
-97.13139222471614
 20
179.5863359996589
 30
0.0
 11
-229.1314070711055
 21
179.5863359996589
 31
0.0
  0
LINE
  5
2E6
330
1F
100
AcDbEntity
  8
通り芯
  6
Continuous
 62
     3
370
     9
100
AcDbLine
 10
-87.13140872070426
 20
109.586352495647
 30
0.0
 11
-239.1314153190997
 21
109.586352495647
 31
0.0
  0
LINE
  5
2E7
330
1F
100
AcDbEntity
  8
通り芯
  6
Continuous
 62
     3
370
     9
100
AcDbLine
 10
-229.1314070711055
 20
119.5863854876234
 30
0.0
 11
-97.13139222471614
 21
119.5863854876234
 31
0.0
  0
ARC
  5
2E8
330
1F
100
AcDbEntity
  8
仕上
  6
Continuous
 62
     6
370
     9
100
AcDbCircle
 10
-227.6314516102736
 20
155.0863294012636
 30
0.0
 40
1.000000012887491
100
AcDbArc
 50
180.0
 51
270.0
  0
ARC
  5
2E9
330
1F
100
AcDbEntity
  8
仕上
  6
Continuous
 62
     6
370
     9
100
AcDbCircle
 10
-228.1313295399611
 20
154.5863030076825
 30
0.0
 40
1.000000012887491
100
AcDbArc
 50
180.0
 51
270.0
  0
ARC
  5
2EA
330
1F
100
AcDbEntity
  8
仕上
  6
Continuous
 62
     6
370
     9
100
AcDbCircle
 10
-228.1313295399611
 20
144.5863689916352
 30
0.0
 40
1.000000012887491
100
AcDbArc
 50
90.0
 51
180.0
  0
ARC
  5
2EB
330
1F
100
AcDbEntity
  8
仕上
  6
Continuous
 62
     6
370
     9
100
AcDbCircle
 10
-227.6314516102736
 20
144.0862931100896
 30
0.0
 40
1.000000012887491
100
AcDbArc
 50
90.0
 51
180.0
  0
ARC
  5
2EC
330
1F
100
AcDbEntity
  8
仕上
  6
Continuous
 62
     6
370
     9
100
AcDbCircle
 10
-114.6314252166925
 20
169.586352495647
 30
0.0
 40
3.000000038662472
100
AcDbArc
 50
0.0
 51
90.0
  0
ARC
  5
2ED
330
1F
100
AcDbEntity
  8
仕上
  6
Continuous
 62
     6
370
     9
100
AcDbCircle
 10
-118.8632895272922
 20
165.3543892091184
 30
0.0
 40
3.000000038662472
100
AcDbArc
 50
0.0
 51
90.0
  0
ARC
  5
2EE
330
1F
100
AcDbEntity
  8
仕上
  6
Continuous
 62
     6
370
     9
100
AcDbCircle
 10
-211.6313740791292
 20
169.586352495647
 30
0.0
 40
3.000000038662472
100
AcDbArc
 50
90.0
 51
180.0
  0
ARC
  5
2EF
330
1F
100
AcDbEntity
  8
仕上
  6
Continuous
 62
     6
370
     9
100
AcDbCircle
 10
-207.3994850245472
 20
165.3543892091184
 30
0.0
 40
3.000000038662472
100
AcDbArc
 50
90.0
 51
180.0
  0
ARC
  5
2F0
330
1F
100
AcDbEntity
  8
仕上
  6
Continuous
 62
     6
370
     9
100
AcDbCircle
 10
-114.6314252166925
 20
129.5863195036707
 30
0.0
 40
3.000000038662472
100
AcDbArc
 50
270.0
 51
0.0
  0
ARC
  5
2F1
330
1F
100
AcDbEntity
  8
仕上
  6
Continuous
 62
     6
370
     9
100
AcDbCircle
 10
-118.8632895272922
 20
133.8182827901994
 30
0.0
 40
3.000000038662472
100
AcDbArc
 50
270.0
 51
0.0
  0
ARC
  5
2F2
330
1F
100
AcDbEntity
  8
仕上
  6
Continuous
 62
     6
370
     9
100
AcDbCircle
 10
-211.6313740791292
 20
129.5863195036707
 30
0.0
 40
3.000000038662472
100
AcDbArc
 50
180.0
 51
270.0
  0
ARC
  5
2F3
330
1F
100
AcDbEntity
  8
仕上
  6
Continuous
 62
     6
370
     9
100
AcDbCircle
 10
-207.3994850245472
 20
133.8182827901994
 30
0.0
 40
3.000000038662472
100
AcDbArc
 50
180.0
 51
270.0
  0
ARC
  5
2F4
330
1F
100
AcDbEntity
  8
仕上
  6
Continuous
 62
     6
370
     9
100
AcDbCircle
 10
-200.1313361383563
 20
156.0862832124967
 30
0.0
 40
0.5000000064437454
100
AcDbArc
 50
90.0
 51
180.0
  0
ARC
  5
2F5
330
1F
100
AcDbEntity
  8
仕上
  6
Continuous
 62
     6
370
     9
100
AcDbCircle
 10
-199.1314318150878
 20
155.0863294012636
 30
0.0
 40
0.5000000064437454
100
AcDbArc
 50
90.0
 51
180.0
  0
ARC
  5
2F6
330
1F
100
AcDbEntity
  8
仕上
  6
Continuous
 62
     6
370
     9
100
AcDbCircle
 10
-199.1314318150878
 20
144.0862931100896
 30
0.0
 40
0.5000000064437454
100
AcDbArc
 50
180.0
 51
270.0
  0
ARC
  5
2F7
330
1F
100
AcDbEntity
  8
仕上
  6
Continuous
 62
     6
370
     9
100
AcDbCircle
 10
-200.1313361383563
 20
143.086289810892
 30
0.0
 40
0.5000000064437454
100
AcDbArc
 50
180.0
 51
270.0
  0
ARC
  5
2F8
330
1F
100
AcDbEntity
  8
仕上
  6
Continuous
 62
     6
370
     9
100
AcDbCircle
 10
-187.131466456663
 20
144.0862931100896
 30
0.0
 40
0.5000000064437454
100
AcDbArc
 50
270.0
 51
0.0
  0
ARC
  5
2F9
330
1F
100
AcDbEntity
  8
仕上
  6
Continuous
 62
     6
370
     9
100
AcDbCircle
 10
-187.131466456663
 20
155.0863294012636
 30
0.0
 40
0.5000000064437454
100
AcDbArc
 50
0.0
 51
90.0
  0
ARC
  5
2FA
330
1F
100
AcDbEntity
  8
仕上
  6
Continuous
 62
     6
370
     9
100
AcDbCircle
 10
-186.1315373894122
 20
156.0862832124967
 30
0.0
 40
0.5000000064437454
100
AcDbArc
 50
0.0
 51
90.0
  0
ARC
  5
2FB
330
1F
100
AcDbEntity
  8
仕上
  6
Continuous
 62
     6
370
     9
100
AcDbCircle
 10
-186.1315373894122
 20
143.086289810892
 30
0.0
 40
0.5000000064437454
100
AcDbArc
 50
270.0
 51
0.0
  0
ARC
  5
2FC
330
1F
100
AcDbEntity
  8
仕上
  6
Continuous
 62
     6
370
     9
100
AcDbCircle
 10
-180.1314928502441
 20
156.0862832124967
 30
0.0
 40
0.5000000064437454
100
AcDbArc
 50
90.0
 51
180.0
  0
ARC
  5
2FD
330
1F
100
AcDbEntity
  8
仕上
  6
Continuous
 62
     6
370
     9
100
AcDbCircle
 10
-179.1314153190997
 20
155.0863294012636
 30
0.0
 40
0.5000000064437454
100
AcDbArc
 50
90.0
 51
180.0
  0
ARC
  5
2FE
330
1F
100
AcDbEntity
  8
仕上
  6
Continuous
 62
     6
370
     9
100
AcDbCircle
 10
-167.1313262407634
 20
155.0863294012636
 30
0.0
 40
0.5000000064437454
100
AcDbArc
 50
0.0
 51
90.0
  0
ARC
  5
2FF
330
1F
100
AcDbEntity
  8
仕上
  6
Continuous
 62
     6
370
     9
100
AcDbCircle
 10
-166.1314219174949
 20
156.0862832124967
 30
0.0
 40
0.5000000064437454
100
AcDbArc
 50
0.0
 51
90.0
  0
ARC
  5
300
330
1F
100
AcDbEntity
  8
仕上
  6
Continuous
 62
     6
370
     9
100
AcDbCircle
 10
-167.1313262407634
 20
144.0862931100896
 30
0.0
 40
0.5000000064437454
100
AcDbArc
 50
270.0
 51
0.0
  0
ARC
  5
301
330
1F
100
AcDbEntity
  8
仕上
  6
Continuous
 62
     6
370
     9
100
AcDbCircle
 10
-179.1314153190997
 20
144.0862931100896
 30
0.0
 40
0.5000000064437454
100
AcDbArc
 50
180.0
 51
270.0
  0
ARC
  5
302
330
1F
100
AcDbEntity
  8
仕上
  6
Continuous
 62
     6
370
     9
100
AcDbCircle
 10
-180.1314928502441
 20
143.086289810892
 30
0.0
 40
0.5000000064437454
100
AcDbArc
 50
180.0
 51
270.0
  0
ARC
  5
303
330
1F
100
AcDbEntity
  8
仕上
  6
Continuous
 62
     6
370
     9
100
AcDbCircle
 10
-166.1314219174949
 20
143.086289810892
 30
0.0
 40
0.5000000064437454
100
AcDbArc
 50
270.0
 51
0.0
  0
ARC
  5
304
330
1F
100
AcDbEntity
  8
仕上
  6
Continuous
 62
     6
370
     9
100
AcDbCircle
 10
-126.1314879014476
 20
156.0862832124967
 30
0.0
 40
0.5000000064437454
100
AcDbArc
 50
0.0
 51
90.0
  0
ARC
  5
305
330
1F
100
AcDbEntity
  8
仕上
  6
Continuous
 62
     6
370
     9
100
AcDbCircle
 10
-127.1313922247161
 20
155.0863294012636
 30
0.0
 40
0.5000000064437454
100
AcDbArc
 50
0.0
 51
90.0
  0
ARC
  5
306
330
1F
100
AcDbEntity
  8
仕上
  6
Continuous
 62
     6
370
     9
100
AcDbCircle
 10
-127.1313922247161
 20
144.0862931100896
 30
0.0
 40
0.5000000064437454
100
AcDbArc
 50
270.0
 51
0.0
  0
ARC
  5
307
330
1F
100
AcDbEntity
  8
仕上
  6
Continuous
 62
     6
370
     9
100
AcDbCircle
 10
-126.1314879014476
 20
143.086289810892
 30
0.0
 40
0.5000000064437454
100
AcDbArc
 50
270.0
 51
0.0
  0
ARC
  5
308
330
1F
100
AcDbEntity
  8
仕上
  6
Continuous
 62
     6
370
     9
100
AcDbCircle
 10
-139.1313328391587
 20
144.0862931100896
 30
0.0
 40
0.5000000064437454
100
AcDbArc
 50
180.0
 51
270.0
  0
ARC
  5
309
330
1F
100
AcDbEntity
  8
仕上
  6
Continuous
 62
     6
370
     9
100
AcDbCircle
 10
-139.1313328391587
 20
155.0863294012636
 30
0.0
 40
0.5000000064437454
100
AcDbArc
 50
90.0
 51
180.0
  0
ARC
  5
30A
330
1F
100
AcDbEntity
  8
仕上
  6
Continuous
 62
     6
370
     9
100
AcDbCircle
 10
-140.1312371624274
 20
156.0862832124967
 30
0.0
 40
0.5000000064437454
100
AcDbArc
 50
90.0
 51
180.0
  0
ARC
  5
30B
330
1F
100
AcDbEntity
  8
仕上
  6
Continuous
 62
     6
370
     9
100
AcDbCircle
 10
-140.1312371624274
 20
143.086289810892
 30
0.0
 40
0.5000000064437454
100
AcDbArc
 50
180.0
 51
270.0
  0
ARC
  5
30C
330
1F
100
AcDbEntity
  8
仕上
  6
Continuous
 62
     6
370
     9
100
AcDbCircle
 10
-146.1313064455776
 20
156.0862832124967
 30
0.0
 40
0.5000000064437454
100
AcDbArc
 50
0.0
 51
90.0
  0
ARC
  5
30D
330
1F
100
AcDbEntity
  8
仕上
  6
Continuous
 62
     6
370
     9
100
AcDbCircle
 10
-147.1313592327399
 20
155.0863294012636
 30
0.0
 40
0.5000000064437454
100
AcDbArc
 50
0.0
 51
90.0
  0
ARC
  5
30E
330
1F
100
AcDbEntity
  8
仕上
  6
Continuous
 62
     6
370
     9
100
AcDbCircle
 10
-159.1314483110759
 20
155.0863294012636
 30
0.0
 40
0.5000000064437454
100
AcDbArc
 50
90.0
 51
180.0
  0
ARC
  5
30F
330
1F
100
AcDbEntity
  8
仕上
  6
Continuous
 62
     6
370
     9
100
AcDbCircle
 10
-160.1313526343445
 20
156.0862832124967
 30
0.0
 40
0.5000000064437454
100
AcDbArc
 50
90.0
 51
180.0
  0
ARC
  5
310
330
1F
100
AcDbEntity
  8
仕上
  6
Continuous
 62
     6
370
     9
100
AcDbCircle
 10
-159.1314483110759
 20
144.0862931100896
 30
0.0
 40
0.5000000064437454
100
AcDbArc
 50
180.0
 51
270.0
  0
ARC
  5
311
330
1F
100
AcDbEntity
  8
仕上
  6
Continuous
 62
     6
370
     9
100
AcDbCircle
 10
-147.1313592327399
 20
144.0862931100896
 30
0.0
 40
0.5000000064437454
100
AcDbArc
 50
270.0
 51
0.0
  0
ARC
  5
312
330
1F
100
AcDbEntity
  8
仕上
  6
Continuous
 62
     6
370
     9
100
AcDbCircle
 10
-146.1313064455776
 20
143.086289810892
 30
0.0
 40
0.5000000064437454
100
AcDbArc
 50
270.0
 51
0.0
  0
ARC
  5
313
330
1F
100
AcDbEntity
  8
仕上
  6
Continuous
 62
     6
370
     9
100
AcDbCircle
 10
-160.1313526343445
 20
143.086289810892
 30
0.0
 40
0.5000000064437454
100
AcDbArc
 50
180.0
 51
270.0
  0
ARC
  5
314
330
1F
100
AcDbEntity
  8
仕上
  6
Continuous
 62
     6
370
     9
100
AcDbCircle
 10
-226.1313229415658
 20
173.5863162044731
 30
0.0
 40
3.000000038662472
100
AcDbArc
 50
90.0
 51
180.0
  0
ARC
  5
315
330
1F
100
AcDbEntity
  8
仕上
  6
Continuous
 62
     6
370
     9
100
AcDbCircle
 10
-225.6314450118783
 20
173.0861908349629
 30
0.0
 40
3.000000038662472
100
AcDbArc
 50
90.0
 51
180.0
  0
ARC
  5
316
330
1F
100
AcDbEntity
  8
仕上
  6
Continuous
 62
     6
370
     9
100
AcDbCircle
 10
-226.1313229415658
 20
125.5863557948447
 30
0.0
 40
3.000000038662472
100
AcDbArc
 50
180.0
 51
270.0
  0
ARC
  5
317
330
1F
100
AcDbEntity
  8
仕上
  6
Continuous
 62
     6
370
     9
100
AcDbCircle
 10
-225.6314450118783
 20
126.0862832124967
 30
0.0
 40
3.000000038662472
100
AcDbArc
 50
180.0
 51
270.0
  0
ARC
  5
318
330
1F
100
AcDbEntity
  8
仕上
  6
Continuous
 62
     6
370
     9
100
AcDbCircle
 10
-100.6313295399611
 20
126.0862832124967
 30
0.0
 40
3.000000038662472
100
AcDbArc
 50
270.0
 51
0.0
  0
ARC
  5
319
330
1F
100
AcDbEntity
  8
仕上
  6
Continuous
 62
     6
370
     9
100
AcDbCircle
 10
-100.1314516102736
 20
125.5863557948447
 30
0.0
 40
3.000000038662472
100
AcDbArc
 50
270.0
 51
0.0
  0
ARC
  5
31A
330
1F
100
AcDbEntity
  8
仕上
  6
Continuous
 62
     6
370
     9
100
AcDbCircle
 10
-100.6313295399611
 20
173.0861908349629
 30
0.0
 40
3.000000038662472
100
AcDbArc
 50
0.0
 51
90.0
  0
ARC
  5
31B
330
1F
100
AcDbEntity
  8
仕上
  6
Continuous
 62
     6
370
     9
100
AcDbCircle
 10
-100.1314516102736
 20
173.5863162044731
 30
0.0
 40
3.000000038662472
100
AcDbArc
 50
0.0
 51
90.0
  0
ARC
  5
31C
330
1F
100
AcDbEntity
  8
仕上
  6
Continuous
 62
     6
370
     9
100
AcDbCircle
 10
-98.63132294156583
 20
155.0863294012636
 30
0.0
 40
1.000000012887491
100
AcDbArc
 50
270.0
 51
0.0
  0
ARC
  5
31D
330
1F
100
AcDbEntity
  8
仕上
  6
Continuous
 62
     6
370
     9
100
AcDbCircle
 10
-98.13144501187833
 20
154.5863030076825
 30
0.0
 40
1.000000012887491
100
AcDbArc
 50
270.0
 51
0.0
  0
ARC
  5
31E
330
1F
100
AcDbEntity
  8
仕上
  6
Continuous
 62
     6
370
     9
100
AcDbCircle
 10
-98.13144501187833
 20
144.5863689916352
 30
0.0
 40
1.000000012887491
100
AcDbArc
 50
0.0
 51
90.0
  0
ARC
  5
31F
330
1F
100
AcDbEntity
  8
仕上
  6
Continuous
 62
     6
370
     9
100
AcDbCircle
 10
-98.63132294156583
 20
144.0862931100896
 30
0.0
 40
1.000000012887491
100
AcDbArc
 50
0.0
 51
90.0
  0
ARC
  5
320
330
1F
100
AcDbEntity
  8
通り芯
  6
Continuous
 62
     3
370
     9
100
AcDbCircle
 10
-239.1314153190997
 20
186.5863096060778
 30
0.0
 40
3.000000038662472
100
AcDbArc
 50
90.0
 51
180.0
  0
ARC
  5
321
330
1F
100
AcDbEntity
  8
通り芯
  6
Continuous
 62
     3
370
     9
100
AcDbCircle
 10
-239.1314153190997
 20
112.58636239324
 30
0.0
 40
3.000000038662472
100
AcDbArc
 50
180.0
 51
270.0
  0
ARC
  5
322
330
1F
100
AcDbEntity
  8
通り芯
  6
Continuous
 62
     3
370
     9
100
AcDbCircle
 10
-229.1314070711055
 20
176.5863755900305
 30
0.0
 40
3.000000038662472
100
AcDbArc
 50
90.0
 51
180.0
  0
ARC
  5
323
330
1F
100
AcDbEntity
  8
通り芯
  6
Continuous
 62
     3
370
     9
100
AcDbCircle
 10
-229.1314070711055
 20
122.5863458972518
 30
0.0
 40
3.000000038662472
100
AcDbArc
 50
180.0
 51
270.0
  0
ARC
  5
324
330
1F
100
AcDbEntity
  8
通り芯
  6
Continuous
 62
     3
370
     9
100
AcDbCircle
 10
-226.7717961784747
 20
174.2008577479697
 30
0.0
 40
3.000000038662472
100
AcDbArc
 50
89.50808715820315
 51
180.0
  0
ARC
  5
325
330
1F
100
AcDbEntity
  8
通り芯
  6
Continuous
 62
     3
370
     9
100
AcDbCircle
 10
-226.7717961784747
 20
124.9718637393126
 30
0.0
 40
3.000000038662472
100
AcDbArc
 50
180.0
 51
270.4919128417969
  0
ARC
  5
326
330
1F
100
AcDbEntity
  8
通り芯
  6
Continuous
 62
     3
370
     9
100
AcDbCircle
 10
-200.631412019902
 20
174.9464929094984
 30
0.0
 40
2.000000025774982
100
AcDbArc
 50
55.07458496093752
 51
90.00000000000001
  0
ARC
  5
327
330
1F
100
AcDbEntity
  8
通り芯
  6
Continuous
 62
     3
370
     9
100
AcDbCircle
 10
-199.6314087207044
 20
175.8673154654528
 30
0.0
 40
2.000000025774982
100
AcDbArc
 50
21.06752014160156
 51
89.99999999999999
  0
ARC
  5
328
330
1F
100
AcDbEntity
  8
通り芯
  6
Continuous
 62
     3
370
     9
100
AcDbCircle
 10
-191.6313823271232
 20
175.8673154654528
 30
0.0
 40
2.000000025774982
100
AcDbArc
 50
90.0
 51
158.9324798583984
  0
ARC
  5
329
330
1F
100
AcDbEntity
  8
通り芯
  6
Continuous
 62
     3
370
     9
100
AcDbCircle
 10
-190.6311563320853
 20
174.9636652331893
 30
0.0
 40
2.000000025774982
100
AcDbArc
 50
90.49226379394531
 51
125.7742614746094
  0
ARC
  5
32A
330
1F
100
AcDbEntity
  8
通り芯
  6
Continuous
 62
     3
370
     9
100
AcDbCircle
 10
-226.7717961784747
 20
159.5863195036707
 30
0.0
 40
3.000000038662472
100
AcDbArc
 50
180.0
 51
218.1389465332031
  0
ARC
  5
32B
330
1F
100
AcDbEntity
  8
通り芯
  6
Continuous
 62
     3
370
     9
100
AcDbCircle
 10
-227.412417879277
 20
157.58636239324
 30
0.0
 40
3.000000038662472
100
AcDbArc
 50
180.0
 51
235.0423583984375
  0
ARC
  5
32C
330
1F
100
AcDbEntity
  8
通り芯
  6
Continuous
 62
     3
370
     9
100
AcDbCircle
 10
-227.412417879277
 20
141.5864085820068
 30
0.0
 40
3.000000038662472
100
AcDbArc
 50
124.9576416015625
 51
180.0
  0
ARC
  5
32D
330
1F
100
AcDbEntity
  8
通り芯
  6
Continuous
 62
     3
370
     9
100
AcDbCircle
 10
-226.7717961784747
 20
139.586352495647
 30
0.0
 40
3.000000038662472
100
AcDbArc
 50
141.8610534667969
 51
180.0
  0
ARC
  5
32E
330
1F
100
AcDbEntity
  8
通り芯
  6
Continuous
 62
     3
370
     9
100
AcDbCircle
 10
-200.631412019902
 20
124.2261790898193
 30
0.0
 40
2.000000025774982
100
AcDbArc
 50
270.0
 51
304.9243011474609
  0
ARC
  5
32F
330
1F
100
AcDbEntity
  8
通り芯
  6
Continuous
 62
     3
370
     9
100
AcDbCircle
 10
-199.6314087207044
 20
123.3053070459004
 30
0.0
 40
2.000000025774982
100
AcDbArc
 50
270.0
 51
338.9318237304688
  0
ARC
  5
330
330
1F
100
AcDbEntity
  8
通り芯
  6
Continuous
 62
     3
370
     9
100
AcDbCircle
 10
-191.6313823271232
 20
123.3053070459004
 30
0.0
 40
2.000000025774982
100
AcDbArc
 50
201.0681762695312
 51
270.0
  0
ARC
  5
331
330
1F
100
AcDbEntity
  8
通り芯
  6
Continuous
 62
     3
370
     9
100
AcDbCircle
 10
-190.6311563320853
 20
124.209056254093
 30
0.0
 40
2.000000025774982
100
AcDbArc
 50
234.2264404296875
 51
269.5077362060547
  0
ARC
  5
332
330
1F
100
AcDbEntity
  8
通り芯
  6
Continuous
 62
     3
370
     9
100
AcDbCircle
 10
-87.13140872070426
 20
186.5863096060778
 30
0.0
 40
3.000000038662472
100
AcDbArc
 50
0.0
 51
90.0
  0
ARC
  5
333
330
1F
100
AcDbEntity
  8
通り芯
  6
Continuous
 62
     3
370
     9
100
AcDbCircle
 10
-87.13140872070426
 20
112.58636239324
 30
0.0
 40
3.000000038662472
100
AcDbArc
 50
270.0
 51
0.0
  0
ARC
  5
334
330
1F
100
AcDbEntity
  8
通り芯
  6
Continuous
 62
     3
370
     9
100
AcDbCircle
 10
-97.13139222471614
 20
176.5863755900305
 30
0.0
 40
3.000000038662472
100
AcDbArc
 50
0.0
 51
90.0
  0
ARC
  5
335
330
1F
100
AcDbEntity
  8
通り芯
  6
Continuous
 62
     3
370
     9
100
AcDbCircle
 10
-97.13139222471614
 20
122.5863458972518
 30
0.0
 40
3.000000038662472
100
AcDbArc
 50
270.0
 51
0.0
  0
ARC
  5
336
330
1F
100
AcDbEntity
  8
通り芯
  6
Continuous
 62
     3
370
     9
100
AcDbCircle
 10
-99.4909783733649
 20
174.2008577479697
 30
0.0
 40
3.000000038662472
100
AcDbArc
 50
0.0
 51
90.49191284179689
  0
ARC
  5
337
330
1F
100
AcDbEntity
  8
通り芯
  6
Continuous
 62
     3
370
     9
100
AcDbCircle
 10
-99.4909783733649
 20
124.9718637393126
 30
0.0
 40
3.000000038662472
100
AcDbArc
 50
269.5080871582031
 51
0.0000000000000382
  0
ARC
  5
338
330
1F
100
AcDbEntity
  8
通り芯
  6
Continuous
 62
     3
370
     9
100
AcDbCircle
 10
-125.631412019902
 20
174.9464929094984
 30
0.0
 40
2.000000025774982
100
AcDbArc
 50
90.0
 51
124.9254150390625
  0
ARC
  5
339
330
1F
100
AcDbEntity
  8
通り芯
  6
Continuous
 62
     3
370
     9
100
AcDbCircle
 10
-126.6314153190997
 20
175.8673154654528
 30
0.0
 40
2.000000025774982
100
AcDbArc
 50
90.0
 51
158.9324798583984
  0
ARC
  5
33A
330
1F
100
AcDbEntity
  8
通り芯
  6
Continuous
 62
     3
370
     9
100
AcDbCircle
 10
-134.6313922247161
 20
175.8673154654528
 30
0.0
 40
2.000000025774982
100
AcDbArc
 50
21.06752014160157
 51
90.0
  0
ARC
  5
33B
330
1F
100
AcDbEntity
  8
通り芯
  6
Continuous
 62
     3
370
     9
100
AcDbCircle
 10
-135.6316429637365
 20
174.9636652331893
 30
0.0
 40
2.000000025774982
100
AcDbArc
 50
54.22573852539062
 51
89.50773620605469
  0
ARC
  5
33C
330
1F
100
AcDbEntity
  8
通り芯
  6
Continuous
 62
     3
370
     9
100
AcDbCircle
 10
-99.4909783733649
 20
159.5863195036707
 30
0.0
 40
3.000000038662472
100
AcDbArc
 50
321.8610534667969
 51
0.0
  0
ARC
  5
33D
330
1F
100
AcDbEntity
  8
通り芯
  6
Continuous
 62
     3
370
     9
100
AcDbCircle
 10
-98.85035667256238
 20
157.58636239324
 30
0.0
 40
3.000000038662472
100
AcDbArc
 50
304.9576416015625
 51
0.0
  0
ARC
  5
33E
330
1F
100
AcDbEntity
  8
通り芯
  6
Continuous
 62
     3
370
     9
100
AcDbCircle
 10
-98.85035667256238
 20
141.5864085820068
 30
0.0
 40
3.000000038662472
100
AcDbArc
 50
0.0
 51
55.04235839843756
  0
ARC
  5
33F
330
1F
100
AcDbEntity
  8
通り芯
  6
Continuous
 62
     3
370
     9
100
AcDbCircle
 10
-99.4909783733649
 20
139.586352495647
 30
0.0
 40
3.000000038662472
100
AcDbArc
 50
0.0
 51
38.13894653320312
  0
ARC
  5
340
330
1F
100
AcDbEntity
  8
通り芯
  6
Continuous
 62
     3
370
     9
100
AcDbCircle
 10
-125.631412019902
 20
124.2261790898193
 30
0.0
 40
2.000000025774982
100
AcDbArc
 50
235.0756988525391
 51
270.0
  0
ARC
  5
341
330
1F
100
AcDbEntity
  8
通り芯
  6
Continuous
 62
     3
370
     9
100
AcDbCircle
 10
-126.6314153190997
 20
123.3053070459004
 30
0.0
 40
2.000000025774982
100
AcDbArc
 50
201.0681762695313
 51
270.0
  0
ARC
  5
342
330
1F
100
AcDbEntity
  8
通り芯
  6
Continuous
 62
     3
370
     9
100
AcDbCircle
 10
-134.6313922247161
 20
123.3053070459004
 30
0.0
 40
2.000000025774982
100
AcDbArc
 50
270.0
 51
338.9318237304688
  0
ARC
  5
343
330
1F
100
AcDbEntity
  8
通り芯
  6
Continuous
 62
     3
370
     9
100
AcDbCircle
 10
-135.6316429637365
 20
124.209056254093
 30
0.0
 40
2.000000025774982
100
AcDbArc
 50
270.4922637939453
 51
305.7735595703125
  0
LINE
  5
344
330
1F
100
AcDbEntity
  8
仕上
  6
Continuous
 62
     4
370
     9
100
AcDbLine
 10
-221.3818145220134
 20
150.104672940115
 30
0.0
 11
-221.8804057646232
 21
150.3371673974629
 31
0.0
  0
LINE
  5
345
330
1F
100
AcDbEntity
  8
仕上
  6
Continuous
 62
     4
370
     9
100
AcDbLine
 10
-222.112875477989
 20
150.8358081280373
 30
0.0
 11
-221.8804057646232
 21
150.3371673974629
 31
0.0
  0
LINE
  5
346
330
1F
100
AcDbEntity
  8
仕上
  6
Continuous
 62
     4
370
     9
100
AcDbLine
 10
-221.3818145220134
 20
149.0679990592028
 30
0.0
 11
-221.8804057646232
 21
148.8355046018548
 31
0.0
  0
LINE
  5
347
330
1F
100
AcDbEntity
  8
仕上
  6
Continuous
 62
     4
370
     9
100
AcDbLine
 10
-222.112875477989
 20
148.3369628472095
 30
0.0
 11
-221.8804057646232
 21
148.8355046018548
 31
0.0
  0
LINE
  5
348
330
1F
100
AcDbEntity
  8
仕上
  6
Continuous
 62
     4
370
     9
100
AcDbLine
 10
-222.1347244143276
 20
152.0863689916352
 30
0.0
 11
-222.112875477989
 21
150.8358081280373
 31
0.0
  0
LINE
  5
349
330
1F
100
AcDbEntity
  8
仕上
  6
Continuous
 62
     4
370
     9
100
AcDbLine
 10
-222.1347244143276
 20
147.086352495647
 30
0.0
 11
-222.112875477989
 21
148.3369628472095
 31
0.0
  0
LINE
  5
34A
330
1F
100
AcDbEntity
  8
仕上
  6
Continuous
 62
     4
370
     9
100
AcDbLine
 10
-217.4004582878497
 20
150.0351423499545
 30
0.0
 11
-221.3818145220134
 21
150.104672940115
 31
0.0
  0
LINE
  5
34B
330
1F
100
AcDbEntity
  8
仕上
  6
Continuous
 62
     4
370
     9
100
AcDbLine
 10
-217.4004582878497
 20
149.1375791373278
 30
0.0
 11
-221.3818145220134
 21
149.0679990592028
 31
0.0
  0
LINE
  5
34C
330
1F
100
AcDbEntity
  8
仕上
  6
Continuous
 62
     4
370
     9
100
AcDbLine
 10
-223.8810062185928
 20
150.104672940115
 30
0.0
 11
-223.3823902320007
 21
150.3371673974629
 31
0.0
  0
LINE
  5
34D
330
1F
100
AcDbEntity
  8
仕上
  6
Continuous
 62
     4
370
     9
100
AcDbLine
 10
-223.1499205186351
 20
150.8358081280373
 30
0.0
 11
-223.3823902320007
 21
150.3371673974629
 31
0.0
  0
LINE
  5
34E
330
1F
100
AcDbEntity
  8
仕上
  6
Continuous
 62
     4
370
     9
100
AcDbLine
 10
-223.8810062185928
 20
149.0679990592028
 30
0.0
 11
-223.3823902320007
 21
148.8355046018548
 31
0.0
  0
LINE
  5
34F
330
1F
100
AcDbEntity
  8
仕上
  6
Continuous
 62
     4
370
     9
100
AcDbLine
 10
-223.1499205186351
 20
148.3369628472095
 30
0.0
 11
-223.3823902320007
 21
148.8355046018548
 31
0.0
  0
LINE
  5
350
330
1F
100
AcDbEntity
  8
仕上
  6
Continuous
 62
     4
370
     9
100
AcDbLine
 10
-223.1280963262786
 20
152.0863689916352
 30
0.0
 11
-223.1499205186351
 21
150.8358081280373
 31
0.0
  0
LINE
  5
351
330
1F
100
AcDbEntity
  8
仕上
  6
Continuous
 62
     4
370
     9
100
AcDbLine
 10
-223.1280963262786
 20
147.086352495647
 30
0.0
 11
-223.1499205186351
 21
148.3369628472095
 31
0.0
  0
LINE
  5
352
330
1F
100
AcDbEntity
  8
仕上
  6
Continuous
 62
     4
370
     9
100
AcDbLine
 10
-227.8623377087745
 20
150.0351423499545
 30
0.0
 11
-223.8810062185928
 21
150.104672940115
 31
0.0
  0
LINE
  5
353
330
1F
100
AcDbEntity
  8
仕上
  6
Continuous
 62
     4
370
     9
100
AcDbLine
 10
-227.8623377087745
 20
149.1375791373278
 30
0.0
 11
-223.8810062185928
 21
149.0679990592028
 31
0.0
  0
LINE
  5
354
330
1F
100
AcDbEntity
  8
仕上
  6
Continuous
 62
     4
370
     9
100
AcDbLine
 10
-222.1347244143276
 20
147.086352495647
 30
0.0
 11
-223.1280963262786
 21
147.086352495647
 31
0.0
  0
LINE
  5
355
330
1F
100
AcDbEntity
  8
仕上
  6
Continuous
 62
     4
370
     9
100
AcDbLine
 10
-222.1347244143276
 20
152.0863689916352
 30
0.0
 11
-223.1280963262786
 21
152.0863689916352
 31
0.0
  0
LINE
  5
356
330
1F
100
AcDbEntity
  8
仕上
  6
Continuous
 62
     4
370
     9
100
AcDbLine
 10
-104.8810095177905
 20
150.104672940115
 30
0.0
 11
-104.3823687872161
 21
150.3371673974629
 31
0.0
  0
LINE
  5
357
330
1F
100
AcDbEntity
  8
仕上
  6
Continuous
 62
     4
370
     9
100
AcDbLine
 10
-104.1499238178327
 20
150.8358081280373
 30
0.0
 11
-104.3823687872161
 21
150.3371673974629
 31
0.0
  0
LINE
  5
358
330
1F
100
AcDbEntity
  8
仕上
  6
Continuous
 62
     4
370
     9
100
AcDbLine
 10
-104.8810095177905
 20
149.0679990592028
 30
0.0
 11
-104.3823687872161
 21
148.8355046018548
 31
0.0
  0
LINE
  5
359
330
1F
100
AcDbEntity
  8
仕上
  6
Continuous
 62
     4
370
     9
100
AcDbLine
 10
-104.1499238178327
 20
148.3369628472095
 30
0.0
 11
-104.3823687872161
 21
148.8355046018548
 31
0.0
  0
LINE
  5
35A
330
1F
100
AcDbEntity
  8
仕上
  6
Continuous
 62
     4
370
     9
100
AcDbLine
 10
-104.1280996254764
 20
152.0863689916352
 30
0.0
 11
-104.1499238178327
 21
150.8358081280373
 31
0.0
  0
LINE
  5
35B
330
1F
100
AcDbEntity
  8
仕上
  6
Continuous
 62
     4
370
     9
100
AcDbLine
 10
-104.1280996254764
 20
147.086352495647
 30
0.0
 11
-104.1499238178327
 21
148.3369628472095
 31
0.0
  0
LINE
  5
35C
330
1F
100
AcDbEntity
  8
仕上
  6
Continuous
 62
     4
370
     9
100
AcDbLine
 10
-108.8623162639899
 20
150.0351423499545
 30
0.0
 11
-104.8810095177905
 21
150.104672940115
 31
0.0
  0
LINE
  5
35D
330
1F
100
AcDbEntity
  8
仕上
  6
Continuous
 62
     4
370
     9
100
AcDbLine
 10
-108.8623162639899
 20
149.1375791373278
 30
0.0
 11
-104.8810095177905
 21
149.0679990592028
 31
0.0
  0
LINE
  5
35E
330
1F
100
AcDbEntity
  8
仕上
  6
Continuous
 62
     4
370
     9
100
AcDbLine
 10
-102.3817683332466
 20
150.104672940115
 30
0.0
 11
-102.8804090638209
 21
150.3371673974629
 31
0.0
  0
LINE
  5
35F
330
1F
100
AcDbEntity
  8
仕上
  6
Continuous
 62
     4
370
     9
100
AcDbLine
 10
-103.1128540332043
 20
150.8358081280373
 30
0.0
 11
-102.8804090638209
 21
150.3371673974629
 31
0.0
  0
LINE
  5
360
330
1F
100
AcDbEntity
  8
仕上
  6
Continuous
 62
     4
370
     9
100
AcDbLine
 10
-102.3817683332466
 20
149.0679990592028
 30
0.0
 11
-102.8804090638209
 21
148.8355046018548
 31
0.0
  0
LINE
  5
361
330
1F
100
AcDbEntity
  8
仕上
  6
Continuous
 62
     4
370
     9
100
AcDbLine
 10
-103.1128540332043
 20
148.3369628472095
 30
0.0
 11
-102.8804090638209
 21
148.8355046018548
 31
0.0
  0
LINE
  5
362
330
1F
100
AcDbEntity
  8
仕上
  6
Continuous
 62
     4
370
     9
100
AcDbLine
 10
-103.1347277135253
 20
152.0863689916352
 30
0.0
 11
-103.1128540332043
 21
150.8358081280373
 31
0.0
  0
LINE
  5
363
330
1F
100
AcDbEntity
  8
仕上
  6
Continuous
 62
     4
370
     9
100
AcDbLine
 10
-103.1347277135253
 20
147.086352495647
 30
0.0
 11
-103.1128540332043
 21
148.3369628472095
 31
0.0
  0
LINE
  5
364
330
1F
100
AcDbEntity
  8
仕上
  6
Continuous
 62
     4
370
     9
100
AcDbLine
 10
-98.40046158704718
 20
150.0351423499545
 30
0.0
 11
-102.3817683332466
 21
150.104672940115
 31
0.0
  0
LINE
  5
365
330
1F
100
AcDbEntity
  8
仕上
  6
Continuous
 62
     4
370
     9
100
AcDbLine
 10
-98.40046158704718
 20
149.1375791373278
 30
0.0
 11
-102.3817683332466
 21
149.0679990592028
 31
0.0
  0
LINE
  5
366
330
1F
100
AcDbEntity
  8
仕上
  6
Continuous
 62
     4
370
     9
100
AcDbLine
 10
-104.1280996254764
 20
147.086352495647
 30
0.0
 11
-103.1347277135253
 21
147.086352495647
 31
0.0
  0
LINE
  5
367
330
1F
100
AcDbEntity
  8
仕上
  6
Continuous
 62
     4
370
     9
100
AcDbLine
 10
-104.1280996254764
 20
152.0863689916352
 30
0.0
 11
-103.1347277135253
 21
152.0863689916352
 31
0.0
  0
CIRCLE
  5
368
330
1F
100
AcDbEntity
  8
仕上
  6
Continuous
 62
     4
370
     9
100
AcDbCircle
 10
-222.6315588341968
 20
149.5863359996589
 30
0.0
 40
5.249999922675055
  0
CIRCLE
  5
369
330
1F
100
AcDbEntity
  8
仕上
  6
Continuous
 62
     4
370
     9
100
AcDbCircle
 10
-103.6312404616249
 20
149.5863359996589
 30
0.0
 40
5.249999922675055
  0
LINE
  5
36A
330
1F
100
AcDbEntity
  8
仕上
  6
Continuous
 62
     6
370
     9
100
AcDbLine
 10
139.0996316185552
 20
123.0862869830082
 30
0.0
 11
140.0995867259015
 21
122.5863589762137
 31
0.0
  0
LINE
  5
36B
330
1F
100
AcDbEntity
  8
仕上
  6
Continuous
 62
     6
370
     9
100
AcDbLine
 10
120.0995927351545
 20
149.5863359996589
 30
0.0
 11
120.0995927351545
 21
135.0137071094335
 31
0.0
  0
LINE
  5
36C
330
1F
100
AcDbEntity
  8
仕上
  6
Continuous
 62
     6
370
     9
100
AcDbLine
 10
115.099619010907
 20
142.5863529669609
 30
0.0
 11
120.0995927351545
 21
143.5863080743074
 31
0.0
  0
LINE
  5
36D
330
1F
100
AcDbEntity
  8
仕上
  6
Continuous
 62
     6
370
     9
100
AcDbLine
 10
139.0996316185552
 20
144.5863622754115
 30
0.0
 11
139.0996316185552
 21
136.5863250416096
 31
0.0
  0
LINE
  5
36E
330
1F
100
AcDbEntity
  8
仕上
  6
Continuous
 62
     6
370
     9
100
AcDbLine
 10
117.5786475433108
 20
130.3810739443906
 30
0.0
 11
136.6206030861514
 21
127.0234801576282
 31
0.0
  0
LINE
  5
36F
330
1F
100
AcDbEntity
  8
仕上
  6
Continuous
 62
     6
370
     9
100
AcDbLine
 10
115.099619010907
 20
133.3354552317187
 30
0.0
 11
115.099619010907
 21
149.5863359996589
 31
0.0
  0
LINE
  5
370
330
1F
100
AcDbEntity
  8
仕上
  6
Continuous
 62
     6
370
     9
100
AcDbLine
 10
138.0995774174511
 20
145.5863173827579
 30
0.0
 11
121.0996469362585
 21
145.5863173827579
 31
0.0
  0
LINE
  5
371
330
1F
100
AcDbEntity
  8
仕上
  6
Continuous
 62
     6
370
     9
100
AcDbLine
 10
138.0995774174511
 20
135.586369934263
 30
0.0
 11
121.0996469362585
 21
135.586369934263
 31
0.0
  0
LINE
  5
372
330
1F
100
AcDbEntity
  8
仕上
  6
Continuous
 62
     6
370
     9
100
AcDbLine
 10
139.0996316185552
 20
131.663446260729
 30
0.0
 11
139.0996316185552
 21
123.0862869830082
 31
0.0
  0
LINE
  5
373
330
1F
100
AcDbEntity
  8
仕上
  6
Continuous
 62
     6
370
     9
100
AcDbLine
 10
141.6205768103988
 20
131.2189116644
 30
0.0
 11
115.099619010907
 21
135.8952451765184
 31
0.0
  0
LINE
  5
374
330
1F
100
AcDbEntity
  8
仕上
  6
Continuous
 62
     6
370
     9
100
AcDbLine
 10
139.0996316185552
 20
176.0862859225518
 30
0.0
 11
140.0995867259015
 21
176.5863130231039
 31
0.0
  0
LINE
  5
375
330
1F
100
AcDbEntity
  8
仕上
  6
Continuous
 62
     6
370
     9
100
AcDbLine
 10
120.0995927351545
 20
149.5863359996589
 30
0.0
 11
120.0995927351545
 21
164.1589648898841
 31
0.0
  0
LINE
  5
376
330
1F
100
AcDbEntity
  8
仕上
  6
Continuous
 62
     6
370
     9
100
AcDbLine
 10
115.099619010907
 20
156.5863190323567
 30
0.0
 11
120.0995927351545
 21
155.5863639250102
 31
0.0
  0
LINE
  5
377
330
1F
100
AcDbEntity
  8
仕上
  6
Continuous
 62
     6
370
     9
100
AcDbLine
 10
139.0996316185552
 20
154.5863097239062
 30
0.0
 11
139.0996316185552
 21
162.5863469577081
 31
0.0
  0
LINE
  5
378
330
1F
100
AcDbEntity
  8
仕上
  6
Continuous
 62
     6
370
     9
100
AcDbLine
 10
117.5786475433108
 20
168.791598054927
 30
0.0
 11
136.6206030861514
 21
172.1491918416894
 31
0.0
  0
LINE
  5
379
330
1F
100
AcDbEntity
  8
仕上
  6
Continuous
 62
     6
370
     9
100
AcDbLine
 10
115.099619010907
 20
165.8371176738413
 30
0.0
 11
115.099619010907
 21
149.5863359996589
 31
0.0
  0
LINE
  5
37A
330
1F
100
AcDbEntity
  8
仕上
  6
Continuous
 62
     6
370
     9
100
AcDbLine
 10
138.0995774174511
 20
153.5863546165598
 30
0.0
 11
121.0996469362585
 21
153.5863546165598
 31
0.0
  0
LINE
  5
37B
330
1F
100
AcDbEntity
  8
仕上
  6
Continuous
 62
     6
370
     9
100
AcDbLine
 10
138.0995774174511
 20
163.5863020650546
 30
0.0
 11
121.0996469362585
 21
163.5863020650546
 31
0.0
  0
LINE
  5
37C
330
1F
100
AcDbEntity
  8
仕上
  6
Continuous
 62
     6
370
     9
100
AcDbLine
 10
139.0996316185552
 20
167.5092257385886
 30
0.0
 11
139.0996316185552
 21
176.0862859225518
 31
0.0
  0
LINE
  5
37D
330
1F
100
AcDbEntity
  8
仕上
  6
Continuous
 62
     6
370
     9
100
AcDbLine
 10
141.6205768103988
 20
167.9536612411601
 30
0.0
 11
115.099619010907
 21
163.2773277290416
 31
0.0
  0
LINE
  5
37E
330
1F
100
AcDbEntity
  8
仕上
  6
Continuous
 62
     6
370
     9
100
AcDbLine
 10
143.3421326601591
 20
123.3969459128993
 30
0.0
 11
140.0995867259015
 21
122.5863589762137
 31
0.0
  0
LINE
  5
37F
330
1F
100
AcDbEntity
  8
仕上
  6
Continuous
 62
     6
370
     9
100
AcDbLine
 10
144.0996053428026
 20
124.3670737992259
 30
0.0
 11
144.0996053428026
 21
149.5863359996589
 31
0.0
  0
LINE
  5
380
330
1F
100
AcDbEntity
  8
仕上
  6
Continuous
 62
     6
370
     9
100
AcDbLine
 10
143.3421326601591
 20
175.7757260864183
 30
0.0
 11
140.0995867259015
 21
176.5863130231039
 31
0.0
  0
LINE
  5
381
330
1F
100
AcDbEntity
  8
仕上
  6
Continuous
 62
     6
370
     9
100
AcDbLine
 10
144.0996053428026
 20
149.5863359996589
 30
0.0
 11
144.0996053428026
 21
174.8054991063342
 31
0.0
  0
LINE
  5
382
330
1F
100
AcDbEntity
  8
通り芯
  6
Continuous
 62
     3
370
     9
100
AcDbLine
 10
163.0996442262031
 20
175.4359335918101
 30
0.0
 11
163.0996442262031
 21
149.5863359996589
 31
0.0
  0
LINE
  5
383
330
1F
100
AcDbEntity
  8
通り芯
  6
Continuous
 62
     3
370
     9
100
AcDbLine
 10
162.0995900250992
 20
175.505893784634
 30
0.0
 11
162.0995900250992
 21
149.5863359996589
 31
0.0
  0
LINE
  5
384
330
1F
100
AcDbEntity
  8
通り芯
  6
JWW_DASHED1
 62
     3
370
     9
100
AcDbLine
 10
134.0996578943078
 20
187.3206443087352
 30
0.0
 11
134.0996578943078
 21
185.8062935059932
 31
0.0
  0
LINE
  5
385
330
1F
100
AcDbEntity
  8
通り芯
  6
JWW_DASHED1
 62
     3
370
     9
100
AcDbLine
 10
132.3476802609824
 20
189.3052940847668
 30
0.0
 11
130.0996392774069
 21
189.5863239811532
 31
0.0
  0
LINE
  5
386
330
1F
100
AcDbEntity
  8
通り芯
  6
Continuous
 62
     3
370
     9
100
AcDbLine
 10
170.9756160755638
 20
185.9767347689638
 30
0.0
 11
188.3477427100805
 21
183.805392353725
 31
0.0
  0
LINE
  5
387
330
1F
100
AcDbEntity
  8
通り芯
  6
JWW_DASHED1
 62
     3
370
     9
100
AcDbLine
 10
151.1875836321968
 20
181.116978711637
 30
0.0
 11
136.7339663447784
 21
182.8285260918855
 31
0.0
  0
LINE
  5
388
330
1F
100
AcDbEntity
  8
通り芯
  6
JWW_DASHED1
 62
     3
370
     9
100
AcDbLine
 10
155.5996340929533
 20
176.1515887087714
 30
0.0
 11
155.5996340929533
 21
149.5863359996589
 31
0.0
  0
LINE
  5
389
330
1F
100
AcDbEntity
  8
通り芯
  6
Continuous
 62
     3
370
     9
100
AcDbLine
 10
144.0996053428026
 20
172.5218834638012
 30
0.0
 11
144.0996053428026
 21
177.0398651513691
 31
0.0
  0
LINE
  5
38A
330
1F
100
AcDbEntity
  8
通り芯
  6
Continuous
 62
     3
370
     9
100
AcDbLine
 10
145.033068538839
 20
171.5241084191207
 30
0.0
 11
151.5996154760524
 21
171.0863121983044
 31
0.0
  0
LINE
  5
38B
330
1F
100
AcDbEntity
  8
通り芯
  6
Continuous
 62
     3
370
     9
100
AcDbLine
 10
151.5996154760524
 20
175.2631140786586
 30
0.0
 11
151.5996154760524
 21
149.5863359996589
 31
0.0
  0
LINE
  5
38C
330
1F
100
AcDbEntity
  8
通り芯
  6
Continuous
 62
     3
370
     9
100
AcDbLine
 10
168.0996179504506
 20
175.0863308152054
 30
0.0
 11
130.0996392774069
 21
179.5863765326584
 31
0.0
  0
LINE
  5
38D
330
1F
100
AcDbEntity
  8
通り芯
  6
Continuous
 62
     3
370
     9
100
AcDbLine
 10
168.0996179504506
 20
118.5862412655553
 30
0.0
 11
168.0996179504506
 21
149.5863359996589
 31
0.0
  0
LINE
  5
38E
330
1F
100
AcDbEntity
  8
通り芯
  6
Continuous
 62
     3
370
     9
100
AcDbLine
 10
163.0996442262031
 20
123.7367384075075
 30
0.0
 11
163.0996442262031
 21
149.5863359996589
 31
0.0
  0
LINE
  5
38F
330
1F
100
AcDbEntity
  8
通り芯
  6
Continuous
 62
     3
370
     9
100
AcDbLine
 10
162.0995900250992
 20
123.6667782146836
 30
0.0
 11
162.0995900250992
 21
149.5863359996589
 31
0.0
  0
LINE
  5
390
330
1F
100
AcDbEntity
  8
通り芯
  6
JWW_DASHED1
 62
     3
370
     9
100
AcDbLine
 10
134.0996578943078
 20
111.8518790499462
 30
0.0
 11
134.0996578943078
 21
113.3663784933244
 31
0.0
  0
LINE
  5
391
330
1F
100
AcDbEntity
  8
通り芯
  6
JWW_DASHED1
 62
     3
370
     9
100
AcDbLine
 10
132.3476802609824
 20
109.8672292739145
 30
0.0
 11
130.0996392774069
 21
109.5862984712857
 31
0.0
  0
LINE
  5
392
330
1F
100
AcDbEntity
  8
通り芯
  6
Continuous
 62
     3
370
     9
100
AcDbLine
 10
170.9756160755638
 20
113.1957390428388
 30
0.0
 11
188.3477427100805
 21
115.3672796455927
 31
0.0
  0
LINE
  5
393
330
1F
100
AcDbEntity
  8
通り芯
  6
JWW_DASHED1
 62
     3
370
     9
100
AcDbLine
 10
151.1875836321968
 20
118.0556932876807
 30
0.0
 11
136.7339663447784
 21
116.3440468136746
 31
0.0
  0
LINE
  5
394
330
1F
100
AcDbEntity
  8
通り芯
  6
JWW_DASHED1
 62
     3
370
     9
100
AcDbLine
 10
155.5996340929533
 20
123.0208851030312
 30
0.0
 11
155.5996340929533
 21
149.5863359996589
 31
0.0
  0
LINE
  5
395
330
1F
100
AcDbEntity
  8
通り芯
  6
Continuous
 62
     3
370
     9
100
AcDbLine
 10
144.0996053428026
 20
126.6507885355164
 30
0.0
 11
144.0996053428026
 21
122.1328068479486
 31
0.0
  0
LINE
  5
396
330
1F
100
AcDbEntity
  8
通り芯
  6
Continuous
 62
     3
370
     9
100
AcDbLine
 10
145.033068538839
 20
127.648563580197
 30
0.0
 11
151.5996154760524
 21
128.0863598010132
 31
0.0
  0
LINE
  5
397
330
1F
100
AcDbEntity
  8
通り芯
  6
Continuous
 62
     3
370
     9
100
AcDbLine
 10
151.5996154760524
 20
123.909557920659
 30
0.0
 11
151.5996154760524
 21
149.5863359996589
 31
0.0
  0
LINE
  5
398
330
1F
100
AcDbEntity
  8
通り芯
  6
Continuous
 62
     3
370
     9
100
AcDbLine
 10
168.0996179504506
 20
124.0863411841122
 30
0.0
 11
130.0996392774069
 21
119.5862954666593
 31
0.0
  0
LINE
  5
399
330
1F
100
AcDbEntity
  8
通り芯
  6
Continuous
 62
     3
370
     9
100
AcDbLine
 10
169.6183288785245
 20
188.1042777433696
 30
0.0
 11
130.0996392774069
 21
189.5863239811532
 31
0.0
  0
LINE
  5
39A
330
1F
100
AcDbEntity
  8
通り芯
  6
Continuous
 62
     3
370
     9
100
AcDbLine
 10
170.0996272589012
 20
187.6046470178478
 30
0.0
 11
170.0996272589012
 21
186.9690596569796
 31
0.0
  0
LINE
  5
39B
330
1F
100
AcDbEntity
  8
通り芯
  6
Continuous
 62
     3
370
     9
100
AcDbLine
 10
169.6183288785245
 20
111.0682951621905
 30
0.0
 11
130.0996392774069
 21
109.5862984712857
 31
0.0
  0
LINE
  5
39C
330
1F
100
AcDbEntity
  8
通り芯
  6
Continuous
 62
     3
370
     9
100
AcDbLine
 10
170.0996272589012
 20
111.5679258877123
 30
0.0
 11
170.0996272589012
 21
112.2035132485805
 31
0.0
  0
LINE
  5
39D
330
1F
100
AcDbEntity
  8
通り芯
  6
Continuous
 62
     3
370
     9
100
AcDbLine
 10
144.0996053428026
 20
149.5863359996589
 30
0.0
 11
144.0996053428026
 21
153.847763948953
 31
0.0
  0
LINE
  5
39E
330
1F
100
AcDbEntity
  8
通り芯
  6
Continuous
 62
     3
370
     9
100
AcDbLine
 10
144.0996053428026
 20
149.5863359996589
 30
0.0
 11
144.0996053428026
 21
145.3249080503647
 31
0.0
  0
LINE
  5
39F
330
1F
100
AcDbEntity
  8
通り芯
  6
Continuous
 62
     3
370
     9
100
AcDbLine
 10
148.2042669676667
 20
155.8490614762515
 30
0.0
 11
144.8055492715249
 21
154.8035232404362
 31
0.0
  0
LINE
  5
3A0
330
1F
100
AcDbEntity
  8
通り芯
  6
Continuous
 62
     3
370
     9
100
AcDbLine
 10
149.6162539188689
 20
157.7606791529754
 30
0.0
 11
149.6162539188689
 21
171.2185032708641
 31
0.0
  0
LINE
  5
3A1
330
1F
100
AcDbEntity
  8
通り芯
  6
Continuous
 62
     3
370
     9
100
AcDbLine
 10
148.2043660614243
 20
143.3235114293086
 30
0.0
 11
144.8055492715249
 21
144.3691487588814
 31
0.0
  0
LINE
  5
3A2
330
1F
100
AcDbEntity
  8
通り芯
  6
Continuous
 62
     3
370
     9
100
AcDbLine
 10
149.6162539188689
 20
141.4119928463423
 30
0.0
 11
149.6162539188689
 21
127.9541687284535
 31
0.0
  0
LINE
  5
3A3
330
1F
100
AcDbEntity
  8
通り芯
  6
Continuous
 62
     3
370
     9
100
AcDbLine
 10
130.0996392774069
 20
189.5863239811532
 30
0.0
 11
130.0996392774069
 21
170.9994069729409
 31
0.0
  0
LINE
  5
3A4
330
1F
100
AcDbEntity
  8
通り芯
  6
Continuous
 62
     3
370
     9
100
AcDbLine
 10
130.0996392774069
 20
163.5863020650546
 30
0.0
 11
130.0996392774069
 21
153.5863546165598
 31
0.0
  0
LINE
  5
3A5
330
1F
100
AcDbEntity
  8
通り芯
  6
Continuous
 62
     3
370
     9
100
AcDbLine
 10
130.0996392774069
 20
145.5863173827579
 30
0.0
 11
130.0996392774069
 21
135.586369934263
 31
0.0
  0
LINE
  5
3A6
330
1F
100
AcDbEntity
  8
通り芯
  6
Continuous
 62
     3
370
     9
100
AcDbLine
 10
130.0996392774069
 20
128.1732650263767
 30
0.0
 11
130.0996392774069
 21
109.5862984712857
 31
0.0
  0
LINE
  5
3A7
330
1F
100
AcDbEntity
  8
通り芯
  6
Continuous
 62
     3
370
     9
100
AcDbLine
 10
175.0996009831486
 20
118.5862412655553
 30
0.0
 11
168.0996179504506
 21
118.5862412655553
 31
0.0
  0
LINE
  5
3A8
330
1F
100
AcDbEntity
  8
通り芯
  6
Continuous
 62
     3
370
     9
100
AcDbLine
 10
175.0996009831486
 20
118.5862412655553
 30
0.0
 11
175.0996009831486
 21
149.5863359996589
 31
0.0
  0
LINE
  5
3A9
330
1F
100
AcDbEntity
  8
通り芯
  6
Continuous
 62
     3
370
     9
100
AcDbLine
 10
175.0996009831486
 20
180.5863316400048
 30
0.0
 11
175.0996009831486
 21
149.5863359996589
 31
0.0
  0
LINE
  5
3AA
330
1F
100
AcDbEntity
  8
通り芯
  6
Continuous
 62
     3
370
     9
100
AcDbLine
 10
175.0996009831486
 20
180.5863316400048
 30
0.0
 11
168.0996179504506
 21
180.5863316400048
 31
0.0
  0
LINE
  5
3AB
330
1F
100
AcDbEntity
  8
通り芯
  6
Continuous
 62
     3
370
     9
100
AcDbLine
 10
168.0996179504506
 20
180.5863316400048
 30
0.0
 11
168.0996179504506
 21
149.5863359996589
 31
0.0
  0
ARC
  5
3AC
330
1F
100
AcDbEntity
  8
仕上
  6
Continuous
 62
     6
370
     9
100
AcDbCircle
 10
138.0995774174511
 20
136.5863250416096
 30
0.0
 40
1.00000000920535
100
AcDbArc
 50
270.0
 51
0.0
  0
ARC
  5
3AD
330
1F
100
AcDbEntity
  8
仕上
  6
Continuous
 62
     6
370
     9
100
AcDbCircle
 10
138.0995774174511
 20
144.5863622754115
 30
0.0
 40
1.00000000920535
100
AcDbArc
 50
0.0
 51
90.0
  0
ARC
  5
3AE
330
1F
100
AcDbEntity
  8
仕上
  6
Continuous
 62
     6
370
     9
100
AcDbCircle
 10
136.0996672027582
 20
124.0689997765425
 30
0.0
 40
3.000000027616052
100
AcDbArc
 50
0.0
 51
79.99996948242188
  0
ARC
  5
3AF
330
1F
100
AcDbEntity
  8
仕上
  6
Continuous
 62
     6
370
     9
100
AcDbCircle
 10
118.099583426704
 20
133.3354552317187
 30
0.0
 40
3.000000027616052
100
AcDbArc
 50
180.0
 51
259.9999694824219
  0
ARC
  5
3B0
330
1F
100
AcDbEntity
  8
仕上
  6
Continuous
 62
     6
370
     9
100
AcDbCircle
 10
121.0996469362585
 20
144.5863622754115
 30
0.0
 40
1.00000000920535
100
AcDbArc
 50
90.0
 51
180.0
  0
ARC
  5
3B1
330
1F
100
AcDbEntity
  8
仕上
  6
Continuous
 62
     6
370
     9
100
AcDbCircle
 10
121.0996469362585
 20
136.5863250416096
 30
0.0
 40
1.00000000920535
100
AcDbArc
 50
180.0
 51
270.0
  0
ARC
  5
3B2
330
1F
100
AcDbEntity
  8
仕上
  6
Continuous
 62
     6
370
     9
100
AcDbCircle
 10
141.0996409270057
 20
128.264530377072
 30
0.0
 40
3.000000027616052
100
AcDbArc
 50
0.0
 51
80.00019836425781
  0
ARC
  5
3B3
330
1F
100
AcDbEntity
  8
仕上
  6
Continuous
 62
     6
370
     9
100
AcDbCircle
 10
138.0995774174511
 20
162.5863469577081
 30
0.0
 40
1.00000000920535
100
AcDbArc
 50
0.0
 51
90.0
  0
ARC
  5
3B4
330
1F
100
AcDbEntity
  8
仕上
  6
Continuous
 62
     6
370
     9
100
AcDbCircle
 10
138.0995774174511
 20
154.5863097239062
 30
0.0
 40
1.00000000920535
100
AcDbArc
 50
270.0
 51
0.0
  0
ARC
  5
3B5
330
1F
100
AcDbEntity
  8
仕上
  6
Continuous
 62
     6
370
     9
100
AcDbCircle
 10
136.0996672027582
 20
175.1036722227751
 30
0.0
 40
3.000000027616052
100
AcDbArc
 50
280.0000305175781
 51
0.0000000000000127
  0
ARC
  5
3B6
330
1F
100
AcDbEntity
  8
仕上
  6
Continuous
 62
     6
370
     9
100
AcDbCircle
 10
118.099583426704
 20
165.8371176738413
 30
0.0
 40
3.000000027616052
100
AcDbArc
 50
100.0000305175781
 51
180.0
  0
ARC
  5
3B7
330
1F
100
AcDbEntity
  8
仕上
  6
Continuous
 62
     6
370
     9
100
AcDbCircle
 10
121.0996469362585
 20
154.5863097239062
 30
0.0
 40
1.00000000920535
100
AcDbArc
 50
180.0
 51
270.0
  0
ARC
  5
3B8
330
1F
100
AcDbEntity
  8
仕上
  6
Continuous
 62
     6
370
     9
100
AcDbCircle
 10
121.0996469362585
 20
162.5863469577081
 30
0.0
 40
1.00000000920535
100
AcDbArc
 50
90.0
 51
180.0
  0
ARC
  5
3B9
330
1F
100
AcDbEntity
  8
仕上
  6
Continuous
 62
     6
370
     9
100
AcDbCircle
 10
141.0996409270057
 20
170.9081416222457
 30
0.0
 40
3.000000027616052
100
AcDbArc
 50
279.9998016357422
 51
0.0
  0
ARC
  5
3BA
330
1F
100
AcDbEntity
  8
仕上
  6
Continuous
 62
     6
370
     9
100
AcDbCircle
 10
143.0996502354561
 20
124.3670737992259
 30
0.0
 40
1.00000000920535
100
AcDbArc
 50
284.0365905761719
 51
0.0
  0
ARC
  5
3BB
330
1F
100
AcDbEntity
  8
仕上
  6
Continuous
 62
     6
370
     9
100
AcDbCircle
 10
143.0996502354561
 20
174.8054991063342
 30
0.0
 40
1.00000000920535
100
AcDbArc
 50
0.0
 51
75.96340942382812
  0
ARC
  5
3BC
330
1F
100
AcDbEntity
  8
通り芯
  6
JWW_DASHED1
 62
     3
370
     9
100
AcDbCircle
 10
137.0996223101048
 20
185.8062935059932
 30
0.0
 40
3.000000027616052
100
AcDbArc
 50
180.0
 51
262.9999389648438
  0
ARC
  5
3BD
330
1F
100
AcDbEntity
  8
通り芯
  6
JWW_DASHED1
 62
     3
370
     9
100
AcDbCircle
 10
132.0996485858574
 20
187.3206443087352
 30
0.0
 40
2.000000018410701
100
AcDbArc
 50
0.0
 51
30.70002746582032
  0
ARC
  5
3BE
330
1F
100
AcDbEntity
  8
通り芯
  6
JWW_DASHED1
 62
     3
370
     9
100
AcDbCircle
 10
132.0996485858574
 20
187.3206443087352
 30
0.0
 40
2.000000018410701
100
AcDbArc
 50
24.28056335449219
 51
82.87467956542969
  0
ARC
  5
3BF
330
1F
100
AcDbEntity
  8
通り芯
  6
Continuous
 62
     3
370
     9
100
AcDbCircle
 10
188.0997110349554
 20
181.8207425776933
 30
0.0
 40
2.000000018410701
100
AcDbArc
 50
0.0
 51
82.875732421875
  0
ARC
  5
3C0
330
1F
100
AcDbEntity
  8
通り芯
  6
Continuous
 62
     3
370
     9
100
AcDbCircle
 10
171.0995823662475
 20
186.9690596569796
 30
0.0
 40
1.00000000920535
100
AcDbArc
 50
180.0
 51
262.875732421875
  0
ARC
  5
3C1
330
1F
100
AcDbEntity
  8
通り芯
  6
Continuous
 62
     3
370
     9
100
AcDbCircle
 10
169.599600158349
 20
187.6046470178478
 30
0.0
 40
0.5000000046026752
100
AcDbArc
 50
0.0
 51
87.85003662109375
  0
ARC
  5
3C2
330
1F
100
AcDbEntity
  8
通り芯
  6
JWW_DASHED1
 62
     3
370
     9
100
AcDbCircle
 10
150.5995612749485
 20
176.1515887087714
 30
0.0
 40
5.000000046026753
100
AcDbArc
 50
0.0
 51
83.24653625488281
  0
ARC
  5
3C3
330
1F
100
AcDbEntity
  8
通り芯
  6
Continuous
 62
     3
370
     9
100
AcDbCircle
 10
143.0995511416985
 20
177.0398651513691
 30
0.0
 40
1.00000000920535
100
AcDbArc
 50
0.0
 51
83.24330139160155
  0
ARC
  5
3C4
330
1F
100
AcDbEntity
  8
通り芯
  6
Continuous
 62
     3
370
     9
100
AcDbCircle
 10
145.0996595439065
 20
172.5218834638012
 30
0.0
 40
1.00000000920535
100
AcDbArc
 50
180.0
 51
266.18359375
  0
ARC
  5
3C5
330
1F
100
AcDbEntity
  8
通り芯
  6
Continuous
 62
     3
370
     9
100
AcDbCircle
 10
149.599606167602
 20
175.2631140786586
 30
0.0
 40
2.000000018410701
100
AcDbArc
 50
0.0
 51
83.24734497070311
  0
ARC
  5
3C6
330
1F
100
AcDbEntity
  8
通り芯
  6
JWW_DASHED1
 62
     3
370
     9
100
AcDbCircle
 10
137.0996223101048
 20
113.3663784933244
 30
0.0
 40
3.000000027616052
100
AcDbArc
 50
97.00006103515625
 51
180.0
  0
ARC
  5
3C7
330
1F
100
AcDbEntity
  8
通り芯
  6
JWW_DASHED1
 62
     3
370
     9
100
AcDbCircle
 10
132.0996485858574
 20
111.8518790499462
 30
0.0
 40
2.000000018410701
100
AcDbArc
 50
329.2999725341797
 51
0.0
  0
ARC
  5
3C8
330
1F
100
AcDbEntity
  8
通り芯
  6
JWW_DASHED1
 62
     3
370
     9
100
AcDbCircle
 10
132.0996485858574
 20
111.8518790499462
 30
0.0
 40
2.000000018410701
100
AcDbArc
 50
277.1253204345703
 51
335.7194366455078
  0
ARC
  5
3C9
330
1F
100
AcDbEntity
  8
通り芯
  6
Continuous
 62
     3
370
     9
100
AcDbCircle
 10
188.0997110349554
 20
117.3519294216244
 30
0.0
 40
2.000000018410701
100
AcDbArc
 50
277.124267578125
 51
0.0000000000000127
  0
ARC
  5
3CA
330
1F
100
AcDbEntity
  8
通り芯
  6
Continuous
 62
     3
370
     9
100
AcDbCircle
 10
171.0995823662475
 20
112.2035132485805
 30
0.0
 40
1.00000000920535
100
AcDbArc
 50
97.124267578125
 51
180.0
  0
ARC
  5
3CB
330
1F
100
AcDbEntity
  8
通り芯
  6
Continuous
 62
     3
370
     9
100
AcDbCircle
 10
169.599600158349
 20
111.5679258877123
 30
0.0
 40
0.5000000046026752
100
AcDbArc
 50
272.1499633789062
 51
0.0
  0
ARC
  5
3CC
330
1F
100
AcDbEntity
  8
通り芯
  6
JWW_DASHED1
 62
     3
370
     9
100
AcDbCircle
 10
150.5995612749485
 20
123.0208851030312
 30
0.0
 40
5.000000046026753
100
AcDbArc
 50
276.7534637451171
 51
0.0
  0
ARC
  5
3CD
330
1F
100
AcDbEntity
  8
通り芯
  6
Continuous
 62
     3
370
     9
100
AcDbCircle
 10
143.0995511416985
 20
122.1328068479486
 30
0.0
 40
1.00000000920535
100
AcDbArc
 50
276.7566986083984
 51
0.0
  0
ARC
  5
3CE
330
1F
100
AcDbEntity
  8
通り芯
  6
Continuous
 62
     3
370
     9
100
AcDbCircle
 10
145.0996595439065
 20
126.6507885355164
 30
0.0
 40
1.00000000920535
100
AcDbArc
 50
93.81640625
 51
180.0
  0
ARC
  5
3CF
330
1F
100
AcDbEntity
  8
通り芯
  6
Continuous
 62
     3
370
     9
100
AcDbCircle
 10
149.599606167602
 20
123.909557920659
 30
0.0
 40
2.000000018410701
100
AcDbArc
 50
276.7526550292969
 51
0.0
  0
ARC
  5
3D0
330
1F
100
AcDbEntity
  8
通り芯
  6
Continuous
 62
     3
370
     9
100
AcDbCircle
 10
145.0996595439065
 20
153.847763948953
 30
0.0
 40
1.00000000920535
100
AcDbArc
 50
107.0994873046875
 51
180.0
  0
ARC
  5
3D1
330
1F
100
AcDbEntity
  8
通り芯
  6
Continuous
 62
     3
370
     9
100
AcDbCircle
 10
145.0996595439065
 20
145.3249080503647
 30
0.0
 40
1.00000000920535
100
AcDbArc
 50
180.0
 51
252.9005126953125
  0
ARC
  5
3D2
330
1F
100
AcDbEntity
  8
通り芯
  6
Continuous
 62
     3
370
     9
100
AcDbCircle
 10
129.4118295063145
 20
149.5863359996589
 30
0.0
 40
21.28547072870851
100
AcDbArc
 50
341.6612091064453
 51
18.33853149414064
  0
ARC
  5
3D3
330
1F
100
AcDbEntity
  8
通り芯
  6
Continuous
 62
     3
370
     9
100
AcDbCircle
 10
147.6162446104184
 20
157.7606791529754
 30
0.0
 40
2.000000018410701
100
AcDbArc
 50
287.0981445312501
 51
0.0000000000000254
  0
ARC
  5
3D4
330
1F
100
AcDbEntity
  8
通り芯
  6
Continuous
 62
     3
370
     9
100
AcDbCircle
 10
147.6162446104184
 20
141.4119928463423
 30
0.0
 40
2.000000018410701
100
AcDbArc
 50
0.0
 51
72.8983154296875
  0
LINE
  5
3D5
330
1F
100
AcDbEntity
  8
通り芯
  6
Continuous
 62
     3
370
     9
100
AcDbLine
 10
190.0996212496483
 20
181.8207425776933
 30
0.0
 11
190.0996212496483
 21
117.3519294216244
 31
0.0
  0
LINE
  5
3D6
330
1F
100
AcDbEntity
  8
通り芯
  6
Continuous
 62
     3
370
     9
100
AcDbLine
 10
175.0996009831486
 20
178.8969812614455
 30
0.0
 11
190.0996212496483
 21
179.3657571666201
 31
0.0
  0
LINE
  5
3D7
330
1F
100
AcDbEntity
  8
通り芯
  6
Continuous
 62
     3
370
     9
100
AcDbLine
 10
175.0996009831486
 20
120.2754925503571
 30
0.0
 11
190.0996212496483
 21
119.8067166451825
 31
0.0
  0
LINE
  5
3D8
330
1F
100
AcDbEntity
  8
建具
  6
Continuous
 62
     4
370
     9
100
AcDbLine
 10
170.0996294976424
 20
109.586352495647
 30
0.0
 11
170.0996294976424
 21
112.2392290660651
 31
0.0
  0
LINE
  5
3D9
330
1F
100
AcDbEntity
  8
建具
  6
Continuous
 62
     4
370
     9
100
AcDbLine
 10
170.0996294976424
 20
186.9335171651994
 30
0.0
 11
170.0996294976424
 21
189.5863195036708
 31
0.0
  0
LINE
  5
3DA
330
1F
100
AcDbEntity
  8
建具
  6
Continuous
 62
     4
370
     9
100
AcDbLine
 10
210.0995635136897
 20
109.586352495647
 30
0.0
 11
210.0995635136897
 21
189.5863195036708
 31
0.0
  0
LINE
  5
3DB
330
1F
100
AcDbEntity
  8
通り芯
  6
JWW_CENTER1
 62
     3
370
     9
100
AcDbLine
 10
218.6556376830144
 20
149.5863359996589
 30
0.0
 11
109.3080843514219
 21
149.5863359996589
 31
0.0
  0
LINE
  5
3DC
330
1F
100
AcDbEntity
  8
通り芯
  6
Continuous
 62
     3
370
     9
100
AcDbLine
 10
190.0996212496483
 20
119.8067166451825
 30
0.0
 11
189.0996426944329
 21
121.3187471693591
 31
0.0
  0
LINE
  5
3DD
330
1F
100
AcDbEntity
  8
通り芯
  6
Continuous
 62
     3
370
     9
100
AcDbLine
 10
189.1008688984649
 20
121.3168930716731
 30
0.0
 11
175.0996009831486
 21
121.7543677878993
 31
0.0
  0
LINE
  5
3DE
330
1F
100
AcDbEntity
  8
通り芯
  6
Continuous
 62
     3
370
     9
100
AcDbLine
 10
190.0996212496483
 20
179.3657571666201
 30
0.0
 11
189.0996426944329
 21
177.8538008743903
 31
0.0
  0
LINE
  5
3DF
330
1F
100
AcDbEntity
  8
通り芯
  6
Continuous
 62
     3
370
     9
100
AcDbLine
 10
189.0995907999856
 20
177.8554612926177
 30
0.0
 11
175.0996009831486
 21
177.4179078363881
 31
0.0
  0
LINE
  5
3E0
330
1F
100
AcDbEntity
  8
通り芯
  6
Continuous
 62
     3
370
     9
100
AcDbLine
 10
189.0996426944329
 20
177.8538008743903
 30
0.0
 11
189.0996426944329
 21
121.3187471693591
 31
0.0
  0
LINE
  5
3E1
330
1F
100
AcDbEntity
  8
その他
  6
Continuous
 62
     7
370
     9
100
AcDbLine
 10
89.66601161409591
 20
119.5862954666593
 30
0.0
 11
89.66601161409591
 21
179.5863765326584
 31
0.0
  0
LINE
  5
3E2
330
1F
100
AcDbEntity
  8
その他
  6
Continuous
 62
     7
370
     9
100
AcDbLine
 10
89.66601161409591
 20
119.5862954666593
 30
0.0
 11
89.01338065299565
 21
124.5435197735283
 31
0.0
  0
LINE
  5
3E3
330
1F
100
AcDbEntity
  8
その他
  6
Continuous
 62
     7
370
     9
100
AcDbLine
 10
89.66601161409591
 20
119.5862954666593
 30
0.0
 11
90.31864257519617
 21
124.5435197735283
 31
0.0
  0
LINE
  5
3E4
330
1F
100
AcDbEntity
  8
その他
  6
Continuous
 62
     7
370
     9
100
AcDbLine
 10
89.66601161409591
 20
179.5863765326584
 30
0.0
 11
89.01338065299565
 21
174.6291522257893
 31
0.0
  0
LINE
  5
3E5
330
1F
100
AcDbEntity
  8
その他
  6
Continuous
 62
     7
370
     9
100
AcDbLine
 10
89.66601161409591
 20
179.5863765326584
 30
0.0
 11
90.31864257519617
 21
174.6291522257893
 31
0.0
  0
LINE
  5
3E6
330
1F
100
AcDbEntity
  8
その他
  6
Continuous
 62
     7
370
     9
100
AcDbLine
 10
89.06601161409591
 20
119.5862954666593
 30
0.0
 11
126.0996392774069
 21
119.5862954666593
 31
0.0
  0
LINE
  5
3E7
330
1F
100
AcDbEntity
  8
その他
  6
Continuous
 62
     7
370
     9
100
AcDbLine
 10
89.06601161409591
 20
179.5863765326584
 30
0.0
 11
126.0996392774069
 21
179.5863765326584
 31
0.0
  0
TEXT
  5
3E8
330
1F
100
AcDbEntity
  8
その他
  6
Continuous
 62
     2
370
     5
100
AcDbText
 10
86.53801161409591
 20
145.3363359996588
 30
0.0
 40
6.096
  1
60
 50
90.0
 41
1.0625
  7
ＭＳ ゴシック
100
AcDbText
  0
LINE
  5
3E9
330
1F
100
AcDbEntity
  8
その他
  6
Continuous
 62
     7
370
     9
100
AcDbLine
 10
77.89272052291041
 20
109.5862984712857
 30
0.0
 11
77.89272052291041
 21
189.5863239811532
 31
0.0
  0
LINE
  5
3EA
330
1F
100
AcDbEntity
  8
その他
  6
Continuous
 62
     7
370
     9
100
AcDbLine
 10
77.89272052291041
 20
109.5862984712857
 30
0.0
 11
77.24008956181015
 21
114.5435227781548
 31
0.0
  0
LINE
  5
3EB
330
1F
100
AcDbEntity
  8
その他
  6
Continuous
 62
     7
370
     9
100
AcDbLine
 10
77.89272052291041
 20
109.5862984712857
 30
0.0
 11
78.54535148401067
 21
114.5435227781548
 31
0.0
  0
LINE
  5
3EC
330
1F
100
AcDbEntity
  8
その他
  6
Continuous
 62
     7
370
     9
100
AcDbLine
 10
77.89272052291041
 20
189.5863239811532
 30
0.0
 11
77.24008956181015
 21
184.6290996742841
 31
0.0
  0
LINE
  5
3ED
330
1F
100
AcDbEntity
  8
その他
  6
Continuous
 62
     7
370
     9
100
AcDbLine
 10
77.89272052291041
 20
189.5863239811532
 30
0.0
 11
78.54535148401067
 21
184.6290996742841
 31
0.0
  0
LINE
  5
3EE
330
1F
100
AcDbEntity
  8
その他
  6
Continuous
 62
     7
370
     9
100
AcDbLine
 10
77.29272052291041
 20
109.5862984712857
 30
0.0
 11
126.0996392774069
 21
109.5862984712857
 31
0.0
  0
LINE
  5
3EF
330
1F
100
AcDbEntity
  8
その他
  6
Continuous
 62
     7
370
     9
100
AcDbLine
 10
77.29272052291041
 20
189.5863239811532
 30
0.0
 11
126.0996392774069
 21
189.5863239811532
 31
0.0
  0
TEXT
  5
3F0
330
1F
100
AcDbEntity
  8
その他
  6
Continuous
 62
     2
370
     5
100
AcDbText
 10
74.76472052291041
 20
145.3363112262195
 30
0.0
 40
6.096
  1
80
 50
90.0
 41
1.0625
  7
ＭＳ ゴシック
100
AcDbText
  0
LINE
  5
3F1
330
1F
100
AcDbEntity
  8
その他
  6
Continuous
 62
     7
370
     9
100
AcDbLine
 10
101.9445162216821
 20
122.5863589762137
 30
0.0
 11
101.9445162216821
 21
176.5863130231039
 31
0.0
  0
LINE
  5
3F2
330
1F
100
AcDbEntity
  8
その他
  6
Continuous
 62
     7
370
     9
100
AcDbLine
 10
101.9445162216821
 20
122.5863589762137
 30
0.0
 11
101.2918852605818
 21
127.5435832830828
 31
0.0
  0
LINE
  5
3F3
330
1F
100
AcDbEntity
  8
その他
  6
Continuous
 62
     7
370
     9
100
AcDbLine
 10
101.9445162216821
 20
122.5863589762137
 30
0.0
 11
102.5971471827823
 21
127.5435832830828
 31
0.0
  0
LINE
  5
3F4
330
1F
100
AcDbEntity
  8
その他
  6
Continuous
 62
     7
370
     9
100
AcDbLine
 10
101.9445162216821
 20
176.5863130231039
 30
0.0
 11
101.2918852605818
 21
171.6290887162348
 31
0.0
  0
LINE
  5
3F5
330
1F
100
AcDbEntity
  8
その他
  6
Continuous
 62
     7
370
     9
100
AcDbLine
 10
101.9445162216821
 20
176.5863130231039
 30
0.0
 11
102.5971471827823
 21
171.6290887162348
 31
0.0
  0
LINE
  5
3F6
330
1F
100
AcDbEntity
  8
その他
  6
Continuous
 62
     7
370
     9
100
AcDbLine
 10
101.3445162216821
 20
122.5863589762137
 30
0.0
 11
136.0995867259015
 21
122.5863589762137
 31
0.0
  0
LINE
  5
3F7
330
1F
100
AcDbEntity
  8
その他
  6
Continuous
 62
     7
370
     9
100
AcDbLine
 10
101.3445162216821
 20
176.5863130231039
 30
0.0
 11
136.0995867259015
 21
176.5863130231039
 31
0.0
  0
TEXT
  5
3F8
330
1F
100
AcDbEntity
  8
その他
  6
Continuous
 62
     2
370
     5
100
AcDbText
 10
98.81651622168205
 20
145.3363359996588
 30
0.0
 40
6.096
  1
54
 50
90.0
 41
1.0625
  7
ＭＳ ゴシック
100
AcDbText
  0
LINE
  5
3F9
330
1F
100
AcDbEntity
  8
その他
  6
Continuous
 62
     7
370
     9
100
AcDbLine
 10
115.099583399088
 20
84.59370480150703
 30
0.0
 11
130.0996392774069
 21
84.59370480150703
 31
0.0
  0
LINE
  5
3FA
330
1F
100
AcDbEntity
  8
その他
  6
Continuous
 62
     7
370
     9
100
AcDbLine
 10
115.099583399088
 20
84.59370480150703
 30
0.0
 11
120.056807705957
 21
85.24633576260729
 31
0.0
  0
LINE
  5
3FB
330
1F
100
AcDbEntity
  8
その他
  6
Continuous
 62
     7
370
     9
100
AcDbLine
 10
115.099583399088
 20
84.59370480150703
 30
0.0
 11
120.056807705957
 21
83.94107384040677
 31
0.0
  0
LINE
  5
3FC
330
1F
100
AcDbEntity
  8
その他
  6
Continuous
 62
     7
370
     9
100
AcDbLine
 10
130.0996392774069
 20
84.59370480150703
 30
0.0
 11
125.1424149705379
 21
85.24633576260729
 31
0.0
  0
LINE
  5
3FD
330
1F
100
AcDbEntity
  8
その他
  6
Continuous
 62
     7
370
     9
100
AcDbLine
 10
130.0996392774069
 20
84.59370480150703
 30
0.0
 11
125.1424149705379
 21
83.94107384040677
 31
0.0
  0
LINE
  5
3FE
330
1F
100
AcDbEntity
  8
その他
  6
Continuous
 62
     7
370
     9
100
AcDbLine
 10
115.099583399088
 20
83.99370480150704
 30
0.0
 11
115.099583399088
 21
129.3354552317187
 31
0.0
  0
LINE
  5
3FF
330
1F
100
AcDbEntity
  8
その他
  6
Continuous
 62
     7
370
     9
100
AcDbLine
 10
130.0996392774069
 20
83.99370480150704
 30
0.0
 11
130.0996392774069
 21
105.5862984712857
 31
0.0
  0
TEXT
  5
400
330
1F
100
AcDbEntity
  8
その他
  6
Continuous
 62
     2
370
     5
100
AcDbText
 10
118.3496113382474
 20
87.72170480150703
 30
0.0
 40
6.096
  1
15
 41
1.0625
  7
ＭＳ ゴシック
100
AcDbText
  0
LINE
  5
401
330
1F
100
AcDbEntity
  8
その他
  6
Continuous
 62
     7
370
     9
100
AcDbLine
 10
130.0996392774069
 20
84.59370480150703
 30
0.0
 11
210.0995635136897
 21
84.59370480150703
 31
0.0
  0
LINE
  5
402
330
1F
100
AcDbEntity
  8
その他
  6
Continuous
 62
     7
370
     9
100
AcDbLine
 10
130.0996392774069
 20
84.59370480150703
 30
0.0
 11
135.056863584276
 21
85.24633576260729
 31
0.0
  0
LINE
  5
403
330
1F
100
AcDbEntity
  8
その他
  6
Continuous
 62
     7
370
     9
100
AcDbLine
 10
130.0996392774069
 20
84.59370480150703
 30
0.0
 11
135.056863584276
 21
83.94107384040677
 31
0.0
  0
LINE
  5
404
330
1F
100
AcDbEntity
  8
その他
  6
Continuous
 62
     7
370
     9
100
AcDbLine
 10
210.0995635136897
 20
84.59370480150703
 30
0.0
 11
205.1423392068207
 21
85.24633576260729
 31
0.0
  0
LINE
  5
405
330
1F
100
AcDbEntity
  8
その他
  6
Continuous
 62
     7
370
     9
100
AcDbLine
 10
210.0995635136897
 20
84.59370480150703
 30
0.0
 11
205.1423392068207
 21
83.94107384040677
 31
0.0
  0
LINE
  5
406
330
1F
100
AcDbEntity
  8
その他
  6
Continuous
 62
     7
370
     9
100
AcDbLine
 10
210.0995635136897
 20
83.99370480150704
 30
0.0
 11
210.0995635136897
 21
105.586352495647
 31
0.0
  0
LINE
  5
407
330
1F
100
AcDbEntity
  8
建具
  6
Continuous
 62
     7
370
     9
100
AcDbLine
 10
194.3425575180929
 20
108.089608967873
 30
0.0
 11
191.3496491434096
 21
112.7150510603561
 31
0.0
  0
LINE
  5
408
330
1F
100
AcDbEntity
  8
建具
  6
Continuous
 62
     7
370
     9
100
AcDbLine
 10
197.1060891771934
 20
108.4205844746296
 30
0.0
 11
194.0707448729282
 21
113.1115981201111
 31
0.0
  0
LINE
  5
409
330
1F
100
AcDbEntity
  8
建具
  6
Continuous
 62
     7
370
     9
100
AcDbLine
 10
194.3425575180929
 20
185.5895924718849
 30
0.0
 11
191.3496491434096
 21
190.215034564368
 31
0.0
  0
LINE
  5
40A
330
1F
100
AcDbEntity
  8
建具
  6
Continuous
 62
     7
370
     9
100
AcDbLine
 10
197.1060891771934
 20
185.9205679786415
 30
0.0
 11
194.0707448729282
 21
190.611581624123
 31
0.0
  0
LINE
  5
40B
330
1F
100
AcDbEntity
  8
建具
  6
Continuous
 62
     4
370
     9
100
AcDbLine
 10
210.0995635136897
 20
189.5863195036708
 30
0.0
 11
194.7341459569756
 21
189.5863195036708
 31
0.0
  0
LINE
  5
40C
330
1F
100
AcDbEntity
  8
建具
  6
Continuous
 62
     4
370
     9
100
AcDbLine
 10
191.7564614075839
 20
189.5863195036708
 30
0.0
 11
170.0996294976424
 21
189.5863195036708
 31
0.0
  0
LINE
  5
40D
330
1F
100
AcDbEntity
  8
建具
  6
Continuous
 62
     4
370
     9
100
AcDbLine
 10
210.0995635136897
 20
187.0863359996589
 30
0.0
 11
196.3517730335817
 21
187.0863359996589
 31
0.0
  0
LINE
  5
40E
330
1F
100
AcDbEntity
  8
建具
  6
Continuous
 62
     4
370
     9
100
AcDbLine
 10
193.3740844187739
 20
187.0863359996589
 30
0.0
 11
170.0996294976424
 21
187.0863359996589
 31
0.0
  0
LINE
  5
40F
330
1F
100
AcDbEntity
  8
建具
  6
Continuous
 62
     4
370
     9
100
AcDbLine
 10
210.0995635136897
 20
112.0863359996589
 30
0.0
 11
194.7341459569756
 21
112.0863359996589
 31
0.0
  0
LINE
  5
410
330
1F
100
AcDbEntity
  8
建具
  6
Continuous
 62
     4
370
     9
100
AcDbLine
 10
191.7564614075839
 20
112.0863359996589
 30
0.0
 11
170.0996294976424
 21
112.0863359996589
 31
0.0
  0
LINE
  5
411
330
1F
100
AcDbEntity
  8
建具
  6
Continuous
 62
     4
370
     9
100
AcDbLine
 10
210.0995635136897
 20
109.586352495647
 30
0.0
 11
196.3517730335817
 21
109.586352495647
 31
0.0
  0
LINE
  5
412
330
1F
100
AcDbEntity
  8
建具
  6
Continuous
 62
     4
370
     9
100
AcDbLine
 10
193.3740844187739
 20
109.586352495647
 30
0.0
 11
170.0996294976424
 21
109.586352495647
 31
0.0
  0
LINE
  5
413
330
1F
100
AcDbEntity
  8
寸法
  6
Continuous
 62
     7
370
     9
100
AcDbLine
 10
-116.8806037164813
 20
-20.25621900278554
 30
0.0
 11
-90.375623420006
 21
25.65175352432172
 31
0.0
  0
LINE
  5
414
330
1F
100
AcDbEntity
  8
寸法
  6
Continuous
 62
     7
370
     9
100
AcDbLine
 10
-90.375623420006
 20
25.65175352432172
 30
0.0
 11
-6.571368114896202
 21
25.65175352432172
 31
0.0
  0
TEXT
  5
415
330
1F
100
AcDbEntity
  8
寸法
  6
Continuous
 62
     7
370
     9
100
AcDbText
 10
-88.63977037946547
 20
29.00941618796193
 30
0.0
 40
4.572
  1
ストレーナー：ＳＣＳ１３
 41
1.152777777777778
  7
ＭＳ ゴシック
100
AcDbText
  0
LINE
  5
416
330
1F
100
AcDbEntity
  8
通り芯
  6
JWW_CENTER1
 62
     3
370
     9
100
AcDbLine
 10
-163.131412019902
 20
107.2842772225489
 30
0.0
 11
-163.131412019902
 21
194.8249395780261
 31
0.0
  0
LINE
  5
417
330
1F
100
AcDbEntity
  8
その他
  6
Continuous
 62
     7
370
     9
100
AcDbLine
 10
-65.42194787379967
 20
-75.25630148272643
 30
0.0
 11
-80.13139882311145
 21
-75.25630148272643
 31
0.0
  0
LINE
  5
418
330
1F
100
AcDbEntity
  8
その他
  6
Continuous
 62
     7
370
     9
100
AcDbLine
 10
-279.1404010712652
 20
-49.25626519155242
 30
0.0
 11
-246.159122085048
 21
-49.25626519155242
 31
0.0
  0
LINE
  5
419
330
1F
100
AcDbEntity
  8
その他
  6
Continuous
 62
     7
370
     9
100
AcDbLine
 10
-242.1314252166925
 20
19.29958774953615
 30
0.0
 11
-84.13139882311145
 21
19.29958774953615
 31
0.0
  0
LINE
  5
41A
330
1F
100
AcDbEntity
  8
その他
  6
Continuous
 62
     7
370
     9
100
AcDbLine
 10
-242.1314252166925
 20
19.29958774953615
 30
0.0
 11
-237.1742009098234
 21
19.95221871063641
 31
0.0
  0
LINE
  5
41B
330
1F
100
AcDbEntity
  8
その他
  6
Continuous
 62
     7
370
     9
100
AcDbLine
 10
-242.1314252166925
 20
19.29958774953615
 30
0.0
 11
-237.1742009098234
 21
18.64695678843589
 31
0.0
  0
LINE
  5
41C
330
1F
100
AcDbEntity
  8
その他
  6
Continuous
 62
     7
370
     9
100
AcDbLine
 10
-84.13139882311145
 20
19.29958774953615
 30
0.0
 11
-89.0886231299805
 21
19.95221871063641
 31
0.0
  0
LINE
  5
41D
330
1F
100
AcDbEntity
  8
その他
  6
Continuous
 62
     7
370
     9
100
AcDbLine
 10
-84.13139882311145
 20
19.29958774953615
 30
0.0
 11
-89.0886231299805
 21
18.64695678843589
 31
0.0
  0
LINE
  5
41E
330
1F
100
AcDbEntity
  8
その他
  6
Continuous
 62
     7
370
     9
100
AcDbLine
 10
-242.1314252166925
 20
19.89958774953615
 30
0.0
 11
-242.1314252166925
 21
-31.25626024275596
 31
0.0
  0
LINE
  5
41F
330
1F
100
AcDbEntity
  8
その他
  6
Continuous
 62
     7
370
     9
100
AcDbLine
 10
-84.13139882311145
 20
19.89958774953615
 30
0.0
 11
-84.13139882311145
 21
-31.25626024275596
 31
0.0
  0
LINE
  5
420
330
1F
100
AcDbEntity
  8
その他
  6
Continuous
 62
     7
370
     9
100
AcDbLine
 10
-232.1314417126806
 20
6.942150947654905
 30
0.0
 11
-94.1314318150877
 21
6.942150947654905
 31
0.0
  0
LINE
  5
421
330
1F
100
AcDbEntity
  8
その他
  6
Continuous
 62
     7
370
     9
100
AcDbLine
 10
-232.1314417126806
 20
6.942150947654905
 30
0.0
 11
-227.1742174058116
 21
7.594781908755162
 31
0.0
  0
LINE
  5
422
330
1F
100
AcDbEntity
  8
その他
  6
Continuous
 62
     7
370
     9
100
AcDbLine
 10
-232.1314417126806
 20
6.942150947654905
 30
0.0
 11
-227.1742174058116
 21
6.289519986554647
 31
0.0
  0
LINE
  5
423
330
1F
100
AcDbEntity
  8
その他
  6
Continuous
 62
     7
370
     9
100
AcDbLine
 10
-94.1314318150877
 20
6.942150947654905
 30
0.0
 11
-99.08865612195675
 21
7.594781908755162
 31
0.0
  0
LINE
  5
424
330
1F
100
AcDbEntity
  8
その他
  6
Continuous
 62
     7
370
     9
100
AcDbLine
 10
-94.1314318150877
 20
6.942150947654905
 30
0.0
 11
-99.08865612195675
 21
6.289519986554647
 31
0.0
  0
LINE
  5
425
330
1F
100
AcDbEntity
  8
その他
  6
Continuous
 62
     7
370
     9
100
AcDbLine
 10
-232.1314417126806
 20
7.542150947654906
 30
0.0
 11
-232.1314417126806
 21
-31.25626024275596
 31
0.0
  0
LINE
  5
426
330
1F
100
AcDbEntity
  8
その他
  6
Continuous
 62
     7
370
     9
100
AcDbLine
 10
-94.1314318150877
 20
7.542150947654906
 30
0.0
 11
-94.1314318150877
 21
-31.25626024275596
 31
0.0
  0
LINE
  5
427
330
1F
100
AcDbEntity
  8
その他
  6
Continuous
 62
     7
370
     9
100
AcDbLine
 10
-229.1313328391587
 20
-5.447227250894231
 30
0.0
 11
-97.1314912006452
 21
-5.447227250894231
 31
0.0
  0
LINE
  5
428
330
1F
100
AcDbEntity
  8
その他
  6
Continuous
 62
     7
370
     9
100
AcDbLine
 10
-229.1313328391587
 20
-5.447227250894231
 30
0.0
 11
-224.1741085322897
 21
-4.794596289793973
 31
0.0
  0
LINE
  5
429
330
1F
100
AcDbEntity
  8
その他
  6
Continuous
 62
     7
370
     9
100
AcDbLine
 10
-229.1313328391587
 20
-5.447227250894231
 30
0.0
 11
-224.1741085322897
 21
-6.099858211994488
 31
0.0
  0
LINE
  5
42A
330
1F
100
AcDbEntity
  8
その他
  6
Continuous
 62
     7
370
     9
100
AcDbLine
 10
-97.1314912006452
 20
-5.447227250894231
 30
0.0
 11
-102.0887155075143
 21
-4.794596289793973
 31
0.0
  0
LINE
  5
42B
330
1F
100
AcDbEntity
  8
その他
  6
Continuous
 62
     7
370
     9
100
AcDbLine
 10
-97.1314912006452
 20
-5.447227250894231
 30
0.0
 11
-102.0887155075143
 21
-6.099858211994488
 31
0.0
  0
LINE
  5
42C
330
1F
100
AcDbEntity
  8
その他
  6
Continuous
 62
     7
370
     9
100
AcDbLine
 10
-229.1313328391587
 20
-4.847227250894229
 30
0.0
 11
-229.1313328391587
 21
-40.25631467951695
 31
0.0
  0
LINE
  5
42D
330
1F
100
AcDbEntity
  8
その他
  6
Continuous
 62
     7
370
     9
100
AcDbLine
 10
-97.1314912006452
 20
-4.847227250894229
 30
0.0
 11
-97.1314912006452
 21
-40.25628993553469
 31
0.0
  0
TEXT
  5
42E
330
1F
100
AcDbEntity
  8
その他
  6
Continuous
 62
     2
370
     5
100
AcDbText
 10
-169.631412019902
 20
-2.31922725089423
 30
0.0
 40
6.096
  1
132
 41
1.083333333333333
  7
ＭＳ ゴシック
100
AcDbText
  0
TEXT
  5
42F
330
1F
100
AcDbEntity
  8
その他
  6
Continuous
 62
     2
370
     5
100
AcDbText
 10
-169.6314367638842
 20
10.07015094765491
 30
0.0
 40
6.096
  1
138
 41
1.083333333333333
  7
ＭＳ ゴシック
100
AcDbText
  0
TEXT
  5
430
330
1F
100
AcDbEntity
  8
その他
  6
Continuous
 62
     2
370
     5
100
AcDbText
 10
-169.631412019902
 20
22.42758774953615
 30
0.0
 40
6.096
  1
158
 41
1.083333333333333
  7
ＭＳ ゴシック
100
AcDbText
  0
LINE
  5
431
330
1F
100
AcDbEntity
  8
その他
  6
Continuous
 62
     7
370
     9
100
AcDbLine
 10
-203.1313955239139
 20
-159.0533627646361
 30
0.0
 11
-123.1314285158901
 21
-159.0533627646361
 31
0.0
  0
LINE
  5
432
330
1F
100
AcDbEntity
  8
その他
  6
Continuous
 62
     7
370
     9
100
AcDbLine
 10
-203.1313955239139
 20
-159.0533627646361
 30
0.0
 11
-198.1741712170448
 21
-158.4007318035358
 31
0.0
  0
LINE
  5
433
330
1F
100
AcDbEntity
  8
その他
  6
Continuous
 62
     7
370
     9
100
AcDbLine
 10
-203.1313955239139
 20
-159.0533627646361
 30
0.0
 11
-198.1741712170448
 21
-159.7059937257363
 31
0.0
  0
LINE
  5
434
330
1F
100
AcDbEntity
  8
その他
  6
Continuous
 62
     7
370
     9
100
AcDbLine
 10
-123.1314285158901
 20
-159.0533627646361
 30
0.0
 11
-128.0886528227591
 21
-158.4007318035358
 31
0.0
  0
LINE
  5
435
330
1F
100
AcDbEntity
  8
その他
  6
Continuous
 62
     7
370
     9
100
AcDbLine
 10
-123.1314285158901
 20
-159.0533627646361
 30
0.0
 11
-128.0886528227591
 21
-159.7059937257363
 31
0.0
  0
LINE
  5
436
330
1F
100
AcDbEntity
  8
その他
  6
Continuous
 62
     7
370
     9
100
AcDbLine
 10
-203.1313955239139
 20
-159.6533627646361
 30
0.0
 11
-203.1313955239139
 21
-119.2562354987737
 31
0.0
  0
LINE
  5
437
330
1F
100
AcDbEntity
  8
その他
  6
Continuous
 62
     7
370
     9
100
AcDbLine
 10
-123.1314285158901
 20
-159.6533627646361
 30
0.0
 11
-123.1314285158901
 21
-119.2562354987737
 31
0.0
  0
TEXT
  5
438
330
1F
100
AcDbEntity
  8
その他
  6
Continuous
 62
     2
370
     5
100
AcDbText
 10
-171.881412019902
 20
-155.9253627646361
 30
0.0
 40
6.096
  1
φ80
 41
1.09375
  7
ＭＳ ゴシック
100
AcDbText
  0
TEXT
  5
439
330
1F
100
AcDbEntity
  8
F-5ﾚｲﾔ
  6
Continuous
 62
     2
370
     9
100
AcDbText
 10
-163.0047893110186
 20
-266.0934682767872
 30
0.0
 40
6.096
  1
ステンレス鋳鉄製ルーフドレン　外廊下排水用　みぞ底幅８０ｍｍ　たて引き用
 41
0.7743055555555557
  7
ＭＳ ゴシック
100
AcDbText
  0
TEXT
  5
43A
330
1F
100
AcDbEntity
  8
F-5ﾚｲﾔ
  6
Continuous
 62
     2
370
     5
100
AcDbText
 10
187.5542949211423
 20
-229.7383204389396
 30
0.0
 40
6.096
  1
※ご注文の際はＣ寸法をご指示ください。
 41
1.118421052631579
  7
ＭＳ ゴシック
100
AcDbText
  0
TEXT
  5
43B
330
1F
100
AcDbEntity
  8
F-5ﾚｲﾔ
  6
Continuous
 62
     2
370
     9
100
AcDbText
 10
-163.0047893110186
 20
-275.4395675675676
 30
0.0
 40
6.096
  1
打込型　ねじ込み式　塗膜・モルタル防水用　　ＥＳＭＤ－２－５０　Ｃ＝指示
 41
0.7743055555555556
  7
ＭＳ ゴシック
100
AcDbText
  0
TEXT
  5
43C
330
1F
100
AcDbEntity
  8
その他
  6
Continuous
 62
     2
370
     5
100
AcDbText
 10
-44.61144111307068
 20
-79.25626436675302
 30
0.0
 40
6.096
  1
Ｃ
 50
90.0
  7
ＭＳ ゴシック
100
AcDbText
  0
TEXT
  5
43D
330
1F
100
AcDbEntity
  8
その他
  6
Continuous
 62
     2
370
     5
100
AcDbText
 10
166.0996013955483
 20
87.72170480150703
 30
0.0
 40
6.096
  1
Ｃ
  7
ＭＳ ゴシック
100
AcDbText
  0
TEXT
  5
43E
330
1F
100
AcDbEntity
  8
寸法
  6
Continuous
 62
     7
370
     9
100
AcDbText
 10
-295.2817011945747
 20
-3.79775595379903
 30
0.0
 40
4.572
  1
酸　洗
 41
1.111111111111111
  7
ＭＳ ゴシック
100
AcDbText
  0
TEXT
  5
43F
330
1F
100
AcDbEntity
  8
寸法
  6
Continuous
 62
     7
370
     9
100
AcDbText
 10
-60.32340536943589
 20
18.35116852379386
 30
0.0
 40
4.572
  1
酸　洗
 41
1.111111111111111
  7
ＭＳ ゴシック
100
AcDbText
  0
TEXT
  5
440
330
1F
100
AcDbEntity
  8
寸法
  6
Continuous
 62
     7
370
     9
100
AcDbText
 10
-77.67822502934439
 20
3.722867145889456
 30
0.0
 40
4.572
  1
丸小ねじ：ＳＵＳ３０４
 41
1.151515151515152
  7
ＭＳ ゴシック
100
AcDbText
  0
TEXT
  5
441
330
1F
100
AcDbEntity
  8
寸法
  6
Continuous
 62
     7
370
     9
100
AcDbText
 10
-327.323448761193
 20
-107.987959646261
 30
0.0
 40
4.572
  1
アンカー：ＳＷＲＭ８
 41
1.15
  7
ＭＳ ゴシック
100
AcDbText
  0
TEXT
  5
442
330
1F
100
AcDbEntity
  8
寸法
  6
Continuous
 62
     7
370
     9
100
AcDbText
 10
-282.2859033711986
 20
-142.3930031873692
 30
0.0
 40
4.572
  1
硬質ポリ塩化ビニル
 41
1.148148148148148
  7
ＭＳ ゴシック
100
AcDbText
  0
LINE
  5
443
330
1F
100
AcDbEntity
  8
寸法
  6
Continuous
 62
     7
370
     9
100
AcDbLine
 10
-327.8502632919993
 20
-111.6271593400955
 30
0.0
 11
-254.327511378538
 21
-111.6271593400955
 31
0.0
  0
TEXT
  5
444
330
1F
100
AcDbEntity
  8
寸法
  6
Continuous
 62
     7
370
     9
100
AcDbText
 10
-311.5888873352687
 20
-119.4269541827898
 30
0.0
 40
4.572
  1
りん酸塩被膜
 41
1.138888888888889
  7
ＭＳ ゴシック
100
AcDbText
  0
ENDSEC
  0
SECTION
  2
OBJECTS
  0
DICTIONARY
  5
C
330
0
100
AcDbDictionary
281
     1
  3
ACAD_DETAILVIEWSTYLE
350
48A
  3
ACAD_GROUP
350
D
  3
ACAD_LAYOUT
350
1A
  3
ACAD_MATERIAL
350
43
  3
ACAD_MLEADERSTYLE
350
6B
  3
ACAD_MLINESTYLE
350
17
  3
ACAD_PLOTSETTINGS
350
19
  3
ACAD_PLOTSTYLENAME
350
E
  3
ACAD_SCALELIST
350
47
  3
ACAD_SECTIONVIEWSTYLE
350
48B
  3
ACAD_TABLESTYLE
350
69
  3
ACAD_VISUALSTYLE
350
2A
  3
ACDB_RECOMPOSE_DATA
350
487
  3
AcDbVariableDictionary
350
447
  0
DICTIONARY
  5
445
330
8
100
AcDbDictionary
280
     1
281
     1
  3
ACAD_XREC_ROUNDTRIP
360
446
  0
DICTIONARY
  5
48A
102
{ACAD_REACTORS
330
C
102
}
330
C
100
AcDbDictionary
281
     1
  0
DICTIONARY
  5
D
102
{ACAD_REACTORS
330
C
102
}
330
C
100
AcDbDictionary
281
     1
  0
DICTIONARY
  5
1A
102
{ACAD_REACTORS
330
C
102
}
330
C
100
AcDbDictionary
281
     1
  3
Layout1
350
1E
  3
Layout2
350
26
  3
Model
350
22
  0
DICTIONARY
  5
43
102
{ACAD_REACTORS
330
C
102
}
330
C
100
AcDbDictionary
281
     1
  3
ByBlock
350
45
  3
ByLayer
350
44
  3
Global
350
46
  0
DICTIONARY
  5
6B
102
{ACAD_REACTORS
330
C
102
}
330
C
100
AcDbDictionary
281
     1
  3
Standard
350
6C
  0
DICTIONARY
  5
17
102
{ACAD_REACTORS
330
C
102
}
330
C
100
AcDbDictionary
281
     1
  3
Standard
350
18
  0
DICTIONARY
  5
19
102
{ACAD_REACTORS
330
C
102
}
330
C
100
AcDbDictionary
281
     1
  0
ACDBDICTIONARYWDFLT
  5
E
102
{ACAD_REACTORS
330
C
102
}
330
C
100
AcDbDictionary
281
     1
  3
Normal
350
F
100
AcDbDictionaryWithDefault
340
F
  0
DICTIONARY
  5
47
102
{ACAD_REACTORS
330
C
102
}
330
C
100
AcDbDictionary
281
     1
  3
A0
350
48
  3
A1
350
49
  3
A2
350
4A
  3
A3
350
4B
  3
A4
350
4C
  3
A5
350
4D
  3
A6
350
4E
  3
A7
350
4F
  3
A8
350
50
  3
A9
350
51
  3
B0
350
52
  3
B1
350
53
  3
B2
350
54
  3
B3
350
55
  3
B4
350
56
  3
B5
350
57
  3
B6
350
58
  3
B7
350
59
  3
B8
350
5A
  3
B9
350
5B
  3
C0
350
5C
  3
C1
350
5D
  3
C2
350
5E
  3
C3
350
5F
  3
C4
350
60
  3
C5
350
61
  3
C6
350
62
  3
C7
350
63
  3
C8
350
64
  3
C9
350
65
  3
D0
350
66
  3
D1
350
67
  3
D2
350
68
  0
DICTIONARY
  5
48B
102
{ACAD_REACTORS
330
C
102
}
330
C
100
AcDbDictionary
281
     1
  0
DICTIONARY
  5
69
102
{ACAD_REACTORS
330
C
102
}
330
C
100
AcDbDictionary
281
     1
  3
Standard
350
6A
  0
DICTIONARY
  5
2A
102
{ACAD_REACTORS
330
C
102
}
330
C
100
AcDbDictionary
281
     1
  3
2dWireframe
350
2F
  3
Basic
350
32
  3
Brighten
350
36
  3
ColorChange
350
3A
  3
Conceptual
350
34
  3
Dim
350
35
  3
EdgeColorOff
350
3D
  3
Facepattern
350
39
  3
Flat
350
2B
  3
FlatWithEdges
350
2C
  3
Gouraud
350
2D
  3
GouraudWithEdges
350
2E
  3
Hidden
350
31
  3
JitterOff
350
3B
  3
Linepattern
350
38
  3
OverhangOff
350
3C
  3
Realistic
350
33
  3
Shaded
350
42
  3
Shaded with edges
350
41
  3
Shades of Gray
350
3E
  3
Sketchy
350
3F
  3
Thicken
350
37
  3
Wireframe
350
30
  3
X-Ray
350
40
  0
XRECORD
  5
487
102
{ACAD_REACTORS
330
C
102
}
330
C
100
AcDbXrecord
280
     1
 90
        1
330
6A
  0
DICTIONARY
  5
447
102
{ACAD_REACTORS
330
C
102
}
330
C
100
AcDbDictionary
281
     1
  3
CANNOSCALE
350
448
  3
CENTEREXE
350
48C
  3
CENTERLTYPEFILE
350
48D
  3
CMLEADERSTYLE
350
489
  3
CTABLESTYLE
350
488
  3
MSLTSCALE
350
449
  3
XCLIPFRAME
350
44A
  0
XRECORD
  5
446
102
{ACAD_REACTORS
330
445
102
}
330
445
100
AcDbXrecord
280
     1
102
VTR_0.000_0.000_1.000_1.000_VISUALSTYLE
340
2F
102
VTR_0.000_0.000_1.000_1.000_GRIDDISPLAY
 70
     3
102
VTR_0.000_0.000_1.000_1.000_GRIDMAJOR
 70
     5
102
VTR_0.000_0.000_1.000_1.000_DEFAULTLIGHTING
280
     1
102
VTR_0.000_0.000_1.000_1.000_DEFAULTLIGHTINGTYPE
 70
     1
102
VTR_0.000_0.000_1.000_1.000_BRIGHTNESS
141
0.0
102
VTR_0.000_0.000_1.000_1.000_CONTRAST
142
0.0
  0
LAYOUT
  5
1E
102
{ACAD_REACTORS
330
1A
102
}
330
1A
100
AcDbPlotSettings
  1

  2
none_device
  4

  6

 40
0.0
 41
0.0
 42
0.0
 43
0.0
 44
0.0
 45
0.0
 46
0.0
 47
0.0
 48
0.0
 49
0.0
140
0.0
141
0.0
142
1.0
143
1.0
 70
   688
 72
     1
 73
     0
 74
     5
  7

 75
    16
 76
     0
 77
     5
 78
   300
147
1.0
148
0.0
149
0.0
100
AcDbLayout
  1
Layout1
 70
     1
 71
     1
 10
0.0
 20
0.0
 11
420.0
 21
297.0
 12
0.0
 22
0.0
 32
0.0
 14
1.000000000000000E+20
 24
1.000000000000000E+20
 34
1.000000000000000E+20
 15
-1.000000000000000E+20
 25
-1.000000000000000E+20
 35
-1.000000000000000E+20
146
0.0
 13
0.0
 23
0.0
 33
0.0
 16
1.0
 26
0.0
 36
0.0
 17
0.0
 27
1.0
 37
0.0
 76
     0
330
1B
  0
LAYOUT
  5
26
102
{ACAD_REACTORS
330
1A
102
}
330
1A
100
AcDbPlotSettings
  1

  2
none_device
  4

  6

 40
0.0
 41
0.0
 42
0.0
 43
0.0
 44
0.0
 45
0.0
 46
0.0
 47
0.0
 48
0.0
 49
0.0
140
0.0
141
0.0
142
1.0
143
1.0
 70
   688
 72
     1
 73
     0
 74
     5
  7

 75
    16
 76
     0
 77
     5
 78
   300
147
1.0
148
0.0
149
0.0
100
AcDbLayout
  1
Layout2
 70
     1
 71
     2
 10
0.0
 20
0.0
 11
0.0
 21
0.0
 12
0.0
 22
0.0
 32
0.0
 14
0.0
 24
0.0
 34
0.0
 15
0.0
 25
0.0
 35
0.0
146
0.0
 13
0.0
 23
0.0
 33
0.0
 16
1.0
 26
0.0
 36
0.0
 17
0.0
 27
1.0
 37
0.0
 76
     0
330
23
  0
LAYOUT
  5
22
102
{ACAD_REACTORS
330
1A
102
}
330
1A
100
AcDbPlotSettings
  1

  2
none_device
  4
Letter_(8.50_x_11.00_Inches)
  6

 40
6.35
 41
6.35
 42
6.35000508
 43
6.35000508
 44
215.9
 45
279.4
 46
0.0
 47
0.0
 48
0.0
 49
0.0
140
0.0
141
0.0
142
1.0
143
1.0
 70
  1712
 72
     1
 73
     0
 74
     0
  7

 75
     0
 76
     0
 77
     5
 78
   300
147
1.0
148
0.0
149
0.0
100
AcDbLayout
  1
Model
 70
     1
 71
     0
 10
-420.0
 20
-297.0
 11
420.0
 21
297.0
 12
0.0
 22
0.0
 32
0.0
 14
-420.0
 24
-297.0
 34
0.0
 15
420.0
 25
297.0
 35
0.0
146
0.0
 13
0.0
 23
0.0
 33
0.0
 16
1.0
 26
0.0
 36
0.0
 17
0.0
 27
1.0
 37
0.0
 76
     0
330
1F
331
29
  0
MATERIAL
  5
45
102
{ACAD_REACTORS
330
43
102
}
102
{ACAD_XDICTIONARY
360
47D
102
}
330
43
100
AcDbMaterial
  1
ByBlock
  0
MATERIAL
  5
44
102
{ACAD_REACTORS
330
43
102
}
102
{ACAD_XDICTIONARY
360
47B
102
}
330
43
100
AcDbMaterial
  1
ByLayer
  0
MATERIAL
  5
46
102
{ACAD_REACTORS
330
43
102
}
102
{ACAD_XDICTIONARY
360
47F
102
}
330
43
100
AcDbMaterial
  1
Global
  0
MLEADERSTYLE
  5
6C
102
{ACAD_REACTORS
330
6B
102
}
102
{ACAD_XDICTIONARY
360
485
102
}
330
6B
100
AcDbMLeaderStyle
170
     2
171
     1
172
     0
 90
        2
 40
0.0
 41
0.0
173
     1
 91
-1056964608
340
14
 92
       -2
290
     1
 42
2.0
291
     1
 43
8.0
  3
Standard
341
0
 44
4.0
300

342
11
174
     1
178
     6
175
     1
176
     0
 93
-1056964608
 45
4.0
292
     0
297
     0
 46
4.0
343
0
 94
-1056964608
 47
1.0
 49
1.0
140
1.0
293
     1
141
0.0
294
     1
177
     0
142
1.0
295
     0
296
     0
143
3.75
1001
ACAD_MLEADERVER
1070
     2
  0
MLINESTYLE
  5
18
102
{ACAD_REACTORS
330
17
102
}
330
17
100
AcDbMlineStyle
  2
Standard
 70
     0
  3

 62
   256
 51
90.0
 52
90.0
 71
     2
 49
0.5
 62
   256
  6
BYLAYER
 49
-0.5
 62
   256
  6
BYLAYER
  0
ACDBPLACEHOLDER
  5
F
102
{ACAD_REACTORS
330
E
102
}
330
E
  0
SCALE
  5
48
102
{ACAD_REACTORS
330
47
102
}
330
47
100
AcDbScale
 70
     0
300
1:1
140
1.0
141
1.0
290
     1
  0
SCALE
  5
49
102
{ACAD_REACTORS
330
47
102
}
330
47
100
AcDbScale
 70
     0
300
1:2
140
1.0
141
2.0
290
     0
  0
SCALE
  5
4A
102
{ACAD_REACTORS
330
47
102
}
330
47
100
AcDbScale
 70
     0
300
1:4
140
1.0
141
4.0
290
     0
  0
SCALE
  5
4B
102
{ACAD_REACTORS
330
47
102
}
330
47
100
AcDbScale
 70
     0
300
1:5
140
1.0
141
5.0
290
     0
  0
SCALE
  5
4C
102
{ACAD_REACTORS
330
47
102
}
330
47
100
AcDbScale
 70
     0
300
1:8
140
1.0
141
8.0
290
     0
  0
SCALE
  5
4D
102
{ACAD_REACTORS
330
47
102
}
330
47
100
AcDbScale
 70
     0
300
1:10
140
1.0
141
10.0
290
     0
  0
SCALE
  5
4E
102
{ACAD_REACTORS
330
47
102
}
330
47
100
AcDbScale
 70
     0
300
1:16
140
1.0
141
16.0
290
     0
  0
SCALE
  5
4F
102
{ACAD_REACTORS
330
47
102
}
330
47
100
AcDbScale
 70
     0
300
1:20
140
1.0
141
20.0
290
     0
  0
SCALE
  5
50
102
{ACAD_REACTORS
330
47
102
}
330
47
100
AcDbScale
 70
     0
300
1:30
140
1.0
141
30.0
290
     0
  0
SCALE
  5
51
102
{ACAD_REACTORS
330
47
102
}
330
47
100
AcDbScale
 70
     0
300
1:40
140
1.0
141
40.0
290
     0
  0
SCALE
  5
52
102
{ACAD_REACTORS
330
47
102
}
330
47
100
AcDbScale
 70
     0
300
1:50
140
1.0
141
50.0
290
     0
  0
SCALE
  5
53
102
{ACAD_REACTORS
330
47
102
}
330
47
100
AcDbScale
 70
     0
300
1:100
140
1.0
141
100.0
290
     0
  0
SCALE
  5
54
102
{ACAD_REACTORS
330
47
102
}
330
47
100
AcDbScale
 70
     0
300
2:1
140
2.0
141
1.0
290
     0
  0
SCALE
  5
55
102
{ACAD_REACTORS
330
47
102
}
330
47
100
AcDbScale
 70
     0
300
4:1
140
4.0
141
1.0
290
     0
  0
SCALE
  5
56
102
{ACAD_REACTORS
330
47
102
}
330
47
100
AcDbScale
 70
     0
300
8:1
140
8.0
141
1.0
290
     0
  0
SCALE
  5
57
102
{ACAD_REACTORS
330
47
102
}
330
47
100
AcDbScale
 70
     0
300
10:1
140
10.0
141
1.0
290
     0
  0
SCALE
  5
58
102
{ACAD_REACTORS
330
47
102
}
330
47
100
AcDbScale
 70
     0
300
100:1
140
100.0
141
1.0
290
     0
  0
SCALE
  5
59
102
{ACAD_REACTORS
330
47
102
}
330
47
100
AcDbScale
 70
     0
300
1/128" = 1'-0"
140
0.0078125
141
12.0
290
     0
  0
SCALE
  5
5A
102
{ACAD_REACTORS
330
47
102
}
330
47
100
AcDbScale
 70
     0
300
1/64" = 1'-0"
140
0.015625
141
12.0
290
     0
  0
SCALE
  5
5B
102
{ACAD_REACTORS
330
47
102
}
330
47
100
AcDbScale
 70
     0
300
1/32" = 1'-0"
140
0.03125
141
12.0
290
     0
  0
SCALE
  5
5C
102
{ACAD_REACTORS
330
47
102
}
330
47
100
AcDbScale
 70
     0
300
1/16" = 1'-0"
140
0.0625
141
12.0
290
     0
  0
SCALE
  5
5D
102
{ACAD_REACTORS
330
47
102
}
330
47
100
AcDbScale
 70
     0
300
3/32" = 1'-0"
140
0.09375
141
12.0
290
     0
  0
SCALE
  5
5E
102
{ACAD_REACTORS
330
47
102
}
330
47
100
AcDbScale
 70
     0
300
1/8" = 1'-0"
140
0.125
141
12.0
290
     0
  0
SCALE
  5
5F
102
{ACAD_REACTORS
330
47
102
}
330
47
100
AcDbScale
 70
     0
300
3/16" = 1'-0"
140
0.1875
141
12.0
290
     0
  0
SCALE
  5
60
102
{ACAD_REACTORS
330
47
102
}
330
47
100
AcDbScale
 70
     0
300
1/4" = 1'-0"
140
0.25
141
12.0
290
     0
  0
SCALE
  5
61
102
{ACAD_REACTORS
330
47
102
}
330
47
100
AcDbScale
 70
     0
300
3/8" = 1'-0"
140
0.375
141
12.0
290
     0
  0
SCALE
  5
62
102
{ACAD_REACTORS
330
47
102
}
330
47
100
AcDbScale
 70
     0
300
1/2" = 1'-0"
140
0.5
141
12.0
290
     0
  0
SCALE
  5
63
102
{ACAD_REACTORS
330
47
102
}
330
47
100
AcDbScale
 70
     0
300
3/4" = 1'-0"
140
0.75
141
12.0
290
     0
  0
SCALE
  5
64
102
{ACAD_REACTORS
330
47
102
}
330
47
100
AcDbScale
 70
     0
300
1" = 1'-0"
140
1.0
141
12.0
290
     0
  0
SCALE
  5
65
102
{ACAD_REACTORS
330
47
102
}
330
47
100
AcDbScale
 70
     0
300
1-1/2" = 1'-0"
140
1.5
141
12.0
290
     0
  0
SCALE
  5
66
102
{ACAD_REACTORS
330
47
102
}
330
47
100
AcDbScale
 70
     0
300
3" = 1'-0"
140
3.0
141
12.0
290
     0
  0
SCALE
  5
67
102
{ACAD_REACTORS
330
47
102
}
330
47
100
AcDbScale
 70
     0
300
6" = 1'-0"
140
6.0
141
12.0
290
     0
  0
SCALE
  5
68
102
{ACAD_REACTORS
330
47
102
}
330
47
100
AcDbScale
 70
     0
300
1'-0" = 1'-0"
140
12.0
141
12.0
290
     0
  0
TABLESTYLE
  5
6A
102
{ACAD_REACTORS
330
69
102
}
102
{ACAD_XDICTIONARY
360
481
102
}
330
69
100
AcDbTableStyle
  3
Standard
 70
     0
 71
     0
 40
0.06
 41
0.06
280
     0
281
     0
  7
Standard
140
4.5
170
     2
 62
     0
 63
   257
283
     0
274
    -2
284
     1
 64
     0
275
    -2
285
     1
 65
     0
276
    -2
286
     1
 66
     0
277
    -2
287
     1
 67
     0
278
    -2
288
     1
 68
     0
279
    -2
289
     1
 69
     0
  7
Standard
140
6.0
170
     5
 62
     0
 63
   257
283
     0
274
    -2
284
     1
 64
     0
275
    -2
285
     1
 65
     0
276
    -2
286
     1
 66
     0
277
    -2
287
     1
 67
     0
278
    -2
288
     1
 68
     0
279
    -2
289
     1
 69
     0
  7
Standard
140
4.5
170
     5
 62
     0
 63
   257
283
     0
274
    -2
284
     1
 64
     0
275
    -2
285
     1
 65
     0
276
    -2
286
     1
 66
     0
277
    -2
287
     1
 67
     0
278
    -2
288
     1
 68
     0
279
    -2
289
     1
 69
     0
  0
VISUALSTYLE
  5
2F
102
{ACAD_REACTORS
330
2A
102
}
102
{ACAD_XDICTIONARY
360
453
102
}
330
2A
100
AcDbVisualStyle
  2
2dWireframe
 70
     4
 71
     0
 72
     2
 73
     0
 90
        0
 40
0.6
 41
30.0
 62
     5
 63
     7
421
 16777215
 74
     1
 91
        4
 64
     7
 65
   257
 75
     1
175
     1
 42
1.0
 92
        0
 66
   257
 43
1.0
 76
     1
 77
     6
 78
     2
 67
     7
 79
     5
170
     0
171
     0
290
     0
174
     0
 93
        1
 44
0.0
173
     0
291
     0
 45
0.0
1001
ACAD
1000
AcDbSavedByObjectVersion
1070
     0
  0
VISUALSTYLE
  5
32
102
{ACAD_REACTORS
330
2A
102
}
102
{ACAD_XDICTIONARY
360
459
102
}
330
2A
100
AcDbVisualStyle
  2
Basic
 70
     7
 71
     1
 72
     0
 73
     1
 90
        0
 40
0.6
 41
30.0
 62
     5
 63
     7
421
 16777215
 74
     0
 91
        4
 64
     7
 65
   257
 75
     1
175
     1
 42
1.0
 92
        8
 66
     7
 43
1.0
 76
     1
 77
     6
 78
     2
 67
     7
 79
     5
170
     0
171
     0
290
     0
174
     0
 93
        1
 44
0.0
173
     0
291
     1
 45
0.0
1001
ACAD
1000
AcDbSavedByObjectVersion
1070
     0
  0
VISUALSTYLE
  5
36
102
{ACAD_REACTORS
330
2A
102
}
102
{ACAD_XDICTIONARY
360
461
102
}
330
2A
100
AcDbVisualStyle
  2
Brighten
 70
    12
 71
     2
 72
     2
 73
     0
 90
        0
 40
0.6
 41
30.0
 62
     5
 63
     7
421
 16777215
 74
     1
 91
        4
 64
     7
 65
   257
 75
     1
175
     1
 42
1.0
 92
        8
 66
     7
 43
1.0
 76
     1
 77
     6
 78
     2
 67
     7
 79
     5
170
     0
171
     0
290
     0
174
     0
 93
        1
 44
50.0
173
     0
291
     1
 45
0.0
1001
ACAD
1000
AcDbSavedByObjectVersion
1070
     0
  0
VISUALSTYLE
  5
3A
102
{ACAD_REACTORS
330
2A
102
}
102
{ACAD_XDICTIONARY
360
469
102
}
330
2A
100
AcDbVisualStyle
  2
ColorChange
 70
    16
 71
     2
 72
     2
 73
     3
 90
        0
 40
0.6
 41
30.0
 62
     5
 63
     8
421
  8421504
 74
     1
 91
        4
 64
     7
 65
   257
 75
     1
175
     1
 42
1.0
 92
        8
 66
     8
424
  8421504
 43
1.0
 76
     1
 77
     6
 78
     2
 67
     7
 79
     5
170
     0
171
     0
290
     0
174
     0
 93
        1
 44
0.0
173
     0
291
     1
 45
0.0
1001
ACAD
1000
AcDbSavedByObjectVersion
1070
     0
  0
VISUALSTYLE
  5
34
102
{ACAD_REACTORS
330
2A
102
}
102
{ACAD_XDICTIONARY
360
45D
102
}
330
2A
100
AcDbVisualStyle
  2
Conceptual
 70
     9
 71
     3
 72
     2
 73
     0
 90
        0
 40
0.6
 41
30.0
 62
     5
 63
     7
421
 16777215
 74
     2
 91
        2
 64
     7
 65
   257
 75
     1
175
     1
 42
179.0
 92
        8
 66
     7
 43
1.0
 76
     1
 77
     6
 78
     2
 67
     7
 79
     3
170
     0
171
     0
290
     0
174
     0
 93
        1
 44
0.0
173
     0
291
     0
 45
0.0
1001
ACAD
1000
AcDbSavedByObjectVersion
1070
     0
  0
VISUALSTYLE
  5
35
102
{ACAD_REACTORS
330
2A
102
}
102
{ACAD_XDICTIONARY
360
45F
102
}
330
2A
100
AcDbVisualStyle
  2
Dim
 70
    11
 71
     2
 72
     2
 73
     0
 90
        0
 40
0.6
 41
30.0
 62
     5
 63
     7
421
 16777215
 74
     1
 91
        4
 64
     7
 65
   257
 75
     1
175
     1
 42
1.0
 92
        8
 66
     7
 43
1.0
 76
     1
 77
     6
 78
     2
 67
     7
 79
     5
170
     0
171
     0
290
     0
174
     0
 93
        1
 44
-50.0
173
     0
291
     1
 45
0.0
1001
ACAD
1000
AcDbSavedByObjectVersion
1070
     0
  0
VISUALSTYLE
  5
3D
102
{ACAD_REACTORS
330
2A
102
}
102
{ACAD_XDICTIONARY
360
46F
102
}
330
2A
100
AcDbVisualStyle
  2
EdgeColorOff
 70
    22
 71
     2
 72
     2
 73
     0
 90
        0
 40
0.6
 41
30.0
 62
     5
 63
     7
421
 16777215
 74
     1
 91
        4
 64
     7
 65
   257
 75
     1
175
     1
 42
1.0
 92
        8
 66
     7
 43
1.0
 76
     1
 77
     6
 78
     2
 67
     7
 79
     5
170
     0
171
     0
290
     0
174
     0
 93
        1
 44
0.0
173
     0
291
     1
 45
0.0
1001
ACAD
1000
AcDbSavedByObjectVersion
1070
     0
  0
VISUALSTYLE
  5
39
102
{ACAD_REACTORS
330
2A
102
}
102
{ACAD_XDICTIONARY
360
467
102
}
330
2A
100
AcDbVisualStyle
  2
Facepattern
 70
    15
 71
     2
 72
     2
 73
     0
 90
        0
 40
0.6
 41
30.0
 62
     5
 63
     7
421
 16777215
 74
     1
 91
        4
 64
     7
 65
   257
 75
     1
175
     1
 42
1.0
 92
        8
 66
     7
 43
1.0
 76
     1
 77
     6
 78
     2
 67
     7
 79
     5
170
     0
171
     0
290
     0
174
     0
 93
        1
 44
0.0
173
     0
291
     1
 45
0.0
1001
ACAD
1000
AcDbSavedByObjectVersion
1070
     0
  0
VISUALSTYLE
  5
2B
102
{ACAD_REACTORS
330
2A
102
}
102
{ACAD_XDICTIONARY
360
44B
102
}
330
2A
100
AcDbVisualStyle
  2
Flat
 70
     0
 71
     2
 72
     1
 73
     1
 90
        2
 40
0.6
 41
30.0
 62
     5
 63
     7
421
 16777215
 74
     0
 91
        0
 64
     7
 65
   257
 75
     1
175
     1
 42
1.0
 92
        8
 66
     7
 43
1.0
 76
     1
 77
     6
 78
     2
 67
     7
 79
     5
170
     0
171
     0
290
     0
174
     0
 93
       13
 44
0.0
173
     0
291
     1
 45
0.0
1001
ACAD
1000
AcDbSavedByObjectVersion
1070
     0
  0
VISUALSTYLE
  5
2C
102
{ACAD_REACTORS
330
2A
102
}
102
{ACAD_XDICTIONARY
360
44D
102
}
330
2A
100
AcDbVisualStyle
  2
FlatWithEdges
 70
     1
 71
     2
 72
     1
 73
     1
 90
        2
 40
0.6
 41
30.0
 62
     5
 63
     7
421
 16777215
 74
     1
 91
        0
 64
     7
 65
   257
 75
     1
175
     1
 42
1.0
 92
        0
 66
   257
 43
1.0
 76
     1
 77
     6
 78
     2
 67
     7
 79
     5
170
     0
171
     0
290
     0
174
     0
 93
       13
 44
0.0
173
     0
291
     1
 45
0.0
1001
ACAD
1000
AcDbSavedByObjectVersion
1070
     0
  0
VISUALSTYLE
  5
2D
102
{ACAD_REACTORS
330
2A
102
}
102
{ACAD_XDICTIONARY
360
44F
102
}
330
2A
100
AcDbVisualStyle
  2
Gouraud
 70
     2
 71
     2
 72
     2
 73
     1
 90
        2
 40
0.6
 41
30.0
 62
     5
 63
     7
421
 16777215
 74
     0
 91
        0
 64
     7
 65
   257
 75
     1
175
     1
 42
1.0
 92
        0
 66
     7
 43
1.0
 76
     1
 77
     6
 78
     2
 67
     7
 79
     5
170
     0
171
     0
290
     0
174
     0
 93
       13
 44
0.0
173
     0
291
     1
 45
0.0
1001
ACAD
1000
AcDbSavedByObjectVersion
1070
     0
  0
VISUALSTYLE
  5
2E
102
{ACAD_REACTORS
330
2A
102
}
102
{ACAD_XDICTIONARY
360
451
102
}
330
2A
100
AcDbVisualStyle
  2
GouraudWithEdges
 70
     3
 71
     2
 72
     2
 73
     1
 90
        2
 40
0.6
 41
30.0
 62
     5
 63
     7
421
 16777215
 74
     1
 91
        0
 64
     7
 65
   257
 75
     1
175
     1
 42
1.0
 92
        0
 66
   257
 43
1.0
 76
     1
 77
     6
 78
     2
 67
     7
 79
     5
170
     0
171
     0
290
     0
174
     0
 93
       13
 44
0.0
173
     0
291
     1
 45
0.0
1001
ACAD
1000
AcDbSavedByObjectVersion
1070
     0
  0
VISUALSTYLE
  5
31
102
{ACAD_REACTORS
330
2A
102
}
102
{ACAD_XDICTIONARY
360
457
102
}
330
2A
100
AcDbVisualStyle
  2
Hidden
 70
     6
 71
     1
 72
     2
 73
     2
 90
        0
 40
0.6
 41
30.0
 62
     5
 63
     7
421
 16777215
 74
     2
 91
        2
 64
     7
 65
   257
 75
     2
175
     1
 42
40.0
 92
        0
 66
   257
 43
1.0
 76
     1
 77
     6
 78
     2
 67
     7
 79
     3
170
     0
171
     0
290
     0
174
     0
 93
        1
 44
0.0
173
     0
291
     0
 45
0.0
1001
ACAD
1000
AcDbSavedByObjectVersion
1070
     0
  0
VISUALSTYLE
  5
3B
102
{ACAD_REACTORS
330
2A
102
}
102
{ACAD_XDICTIONARY
360
46B
102
}
330
2A
100
AcDbVisualStyle
  2
JitterOff
 70
    20
 71
     2
 72
     2
 73
     0
 90
        0
 40
0.6
 41
30.0
 62
     5
 63
     7
421
 16777215
 74
     1
 91
        4
 64
     7
 65
   257
 75
     1
175
     1
 42
1.0
 92
       10
 66
     7
 43
1.0
 76
     1
 77
     6
 78
     2
 67
     7
 79
     5
170
     0
171
     0
290
     0
174
     0
 93
        1
 44
0.0
173
     0
291
     1
 45
0.0
1001
ACAD
1000
AcDbSavedByObjectVersion
1070
     0
  0
VISUALSTYLE
  5
38
102
{ACAD_REACTORS
330
2A
102
}
102
{ACAD_XDICTIONARY
360
465
102
}
330
2A
100
AcDbVisualStyle
  2
Linepattern
 70
    14
 71
     2
 72
     2
 73
     0
 90
        0
 40
0.6
 41
30.0
 62
     5
 63
     7
421
 16777215
 74
     1
 91
        4
 64
     7
 65
   257
 75
     7
175
     7
 42
1.0
 92
        8
 66
     7
 43
1.0
 76
     1
 77
     6
 78
     2
 67
     7
 79
     5
170
     0
171
     0
290
     0
174
     0
 93
        1
 44
0.0
173
     0
291
     1
 45
0.0
1001
ACAD
1000
AcDbSavedByObjectVersion
1070
     0
  0
VISUALSTYLE
  5
3C
102
{ACAD_REACTORS
330
2A
102
}
102
{ACAD_XDICTIONARY
360
46D
102
}
330
2A
100
AcDbVisualStyle
  2
OverhangOff
 70
    21
 71
     2
 72
     2
 73
     0
 90
        0
 40
0.6
 41
30.0
 62
     5
 63
     7
421
 16777215
 74
     1
 91
        4
 64
     7
 65
   257
 75
     1
175
     1
 42
1.0
 92
        9
 66
     7
 43
1.0
 76
     1
 77
     6
 78
     2
 67
     7
 79
     5
170
     0
171
     0
290
     0
174
     0
 93
        1
 44
0.0
173
     0
291
     1
 45
0.0
1001
ACAD
1000
AcDbSavedByObjectVersion
1070
     0
  0
VISUALSTYLE
  5
33
102
{ACAD_REACTORS
330
2A
102
}
102
{ACAD_XDICTIONARY
360
45B
102
}
330
2A
100
AcDbVisualStyle
  2
Realistic
 70
     8
 71
     2
 72
     3
 73
     0
 90
        2
 40
0.6
 41
30.0
 62
     5
 63
     7
421
 16777215
 74
     0
 91
        0
 64
     7
 65
   257
 75
     1
175
     1
 42
1.0
 92
        8
 66
   257
 43
1.0
 76
     1
 77
     6
 78
     2
 67
     7
 79
     3
170
     0
171
     0
290
     0
174
     0
 93
       13
 44
0.0
173
     0
291
     0
 45
0.0
1001
ACAD
1000
AcDbSavedByObjectVersion
1070
     0
  0
VISUALSTYLE
  5
42
102
{ACAD_REACTORS
330
2A
102
}
102
{ACAD_XDICTIONARY
360
479
102
}
330
2A
100
AcDbVisualStyle
  2
Shaded
 70
    27
 71
     2
 72
     2
 73
     1
 90
        2
 40
0.6
 41
30.0
 62
     5
 63
     7
421
 16777215
 74
     0
 91
        4
 64
     7
 65
   257
 75
     1
175
     1
 42
1.0
 92
        8
 66
   257
 43
1.0
 76
     1
 77
     6
 78
     2
 67
     8
425
  7895160
 79
     3
170
     0
171
     0
290
     0
174
     0
 93
        5
 44
0.0
173
     0
291
     0
 45
0.0
1001
ACAD
1000
AcDbSavedByObjectVersion
1070
     0
  0
VISUALSTYLE
  5
41
102
{ACAD_REACTORS
330
2A
102
}
102
{ACAD_XDICTIONARY
360
477
102
}
330
2A
100
AcDbVisualStyle
  2
Shaded with edges
 70
    26
 71
     2
 72
     2
 73
     1
 90
        2
 40
0.6
 41
30.0
 62
     5
 63
     7
421
 16777215
 74
     1
 91
       10
 64
     7
 65
   257
 75
     2
175
     1
 42
1.0
 92
        8
 66
   257
 43
1.0
 76
     1
 77
     6
 78
     2
 67
     7
 79
     3
170
     0
171
     0
290
     0
174
     0
 93
        5
 44
0.0
173
     0
291
     0
 45
0.0
1001
ACAD
1000
AcDbSavedByObjectVersion
1070
     0
  0
VISUALSTYLE
  5
3E
102
{ACAD_REACTORS
330
2A
102
}
102
{ACAD_XDICTIONARY
360
471
102
}
330
2A
100
AcDbVisualStyle
  2
Shades of Gray
 70
    23
 71
     2
 72
     2
 73
     3
 90
        0
 40
0.6
 41
30.0
 62
     5
 63
     7
421
 16777215
 74
     2
 91
        2
 64
     7
 65
     7
 75
     1
175
     1
 42
40.0
 92
        8
 66
     7
 43
1.0
 76
     1
 77
     6
 78
     2
 67
     7
 79
     3
170
     0
171
     0
290
     0
174
     0
 93
        1
 44
0.0
173
     0
291
     0
 45
0.0
1001
ACAD
1000
AcDbSavedByObjectVersion
1070
     0
  0
VISUALSTYLE
  5
3F
102
{ACAD_REACTORS
330
2A
102
}
102
{ACAD_XDICTIONARY
360
473
102
}
330
2A
100
AcDbVisualStyle
  2
Sketchy
 70
    24
 71
     1
 72
     2
 73
     2
 90
        0
 40
0.6
 41
30.0
 62
     5
 63
     7
421
 16777215
 74
     2
 91
        2
 64
     7
 65
     7
 75
     1
175
     1
 42
40.0
 92
       11
 66
     7
 43
1.0
 76
     1
 77
     6
 78
     2
 67
     7
 79
     6
170
     0
171
     0
290
     0
174
     0
 93
        1
 44
0.0
173
     0
291
     0
 45
0.0
1001
ACAD
1000
AcDbSavedByObjectVersion
1070
     0
  0
VISUALSTYLE
  5
37
102
{ACAD_REACTORS
330
2A
102
}
102
{ACAD_XDICTIONARY
360
463
102
}
330
2A
100
AcDbVisualStyle
  2
Thicken
 70
    13
 71
     2
 72
     2
 73
     0
 90
        0
 40
0.6
 41
30.0
 62
     5
 63
     7
421
 16777215
 74
     1
 91
        4
 64
     7
 65
   257
 75
     1
175
     1
 42
1.0
 92
       12
 66
     7
 43
1.0
 76
     1
 77
     6
 78
     2
 67
     7
 79
     5
170
     0
171
     0
290
     0
174
     0
 93
        1
 44
0.0
173
     0
291
     1
 45
0.0
1001
ACAD
1000
AcDbSavedByObjectVersion
1070
     0
  0
VISUALSTYLE
  5
30
102
{ACAD_REACTORS
330
2A
102
}
102
{ACAD_XDICTIONARY
360
455
102
}
330
2A
100
AcDbVisualStyle
  2
Wireframe
 70
     5
 71
     0
 72
     2
 73
     0
 90
        0
 40
0.6
 41
30.0
 62
     5
 63
     7
421
 16777215
 74
     1
 91
        4
 64
     7
 65
   257
 75
     1
175
     1
 42
1.0
 92
        0
 66
   257
 43
1.0
 76
     1
 77
     6
 78
     2
 67
     7
 79
     3
170
     0
171
     0
290
     0
174
     0
 93
        1
 44
0.0
173
     0
291
     0
 45
0.0
1001
ACAD
1000
AcDbSavedByObjectVersion
1070
     0
  0
VISUALSTYLE
  5
40
102
{ACAD_REACTORS
330
2A
102
}
102
{ACAD_XDICTIONARY
360
475
102
}
330
2A
100
AcDbVisualStyle
  2
X-Ray
 70
    25
 71
     2
 72
     2
 73
     1
 90
        1
 40
0.5
 41
30.0
 62
     5
 63
     7
421
 16777215
 74
     1
 91
        0
 64
     7
 65
   257
 75
     1
175
     1
 42
1.0
 92
        8
 66
     7
 43
1.0
 76
     1
 77
     6
 78
     2
 67
     7
 79
     3
170
     0
171
     0
290
     0
174
     0
 93
       13
 44
0.0
173
     0
291
     0
 45
0.0
1001
ACAD
1000
AcDbSavedByObjectVersion
1070
     0
  0
DICTIONARYVAR
  5
448
102
{ACAD_REACTORS
330
447
102
}
330
447
100
DictionaryVariables
280
     0
  1
1:1
  0
DICTIONARYVAR
  5
48C
102
{ACAD_REACTORS
330
447
102
}
330
447
100
DictionaryVariables
280
     0
  1
3.500000
  0
DICTIONARYVAR
  5
48D
102
{ACAD_REACTORS
330
447
102
}
330
447
100
DictionaryVariables
280
     0
  1
acadiso.lin
  0
DICTIONARYVAR
  5
489
102
{ACAD_REACTORS
330
447
102
}
330
447
100
DictionaryVariables
280
     0
  1
Standard
  0
DICTIONARYVAR
  5
488
102
{ACAD_REACTORS
330
447
102
}
330
447
100
DictionaryVariables
280
     0
  1
Standard
  0
DICTIONARYVAR
  5
449
102
{ACAD_REACTORS
330
447
102
}
330
447
100
DictionaryVariables
280
     0
  1
1
  0
DICTIONARYVAR
  5
44A
102
{ACAD_REACTORS
330
447
102
}
330
447
100
DictionaryVariables
280
     0
  1
2
  0
DICTIONARY
  5
47D
330
45
100
AcDbDictionary
280
     1
281
     1
  3
ACAD_XREC_ROUNDTRIP
360
47E
  0
DICTIONARY
  5
47B
330
44
100
AcDbDictionary
280
     1
281
     1
  3
ACAD_XREC_ROUNDTRIP
360
47C
  0
DICTIONARY
  5
47F
330
46
100
AcDbDictionary
280
     1
281
     1
  3
ACAD_XREC_ROUNDTRIP
360
480
  0
DICTIONARY
  5
485
330
6C
100
AcDbDictionary
280
     1
281
     1
  3
ACAD_XREC_ROUNDTRIP
360
486
  0
DICTIONARY
  5
481
330
6A
100
AcDbDictionary
280
     1
281
     1
  3
ACAD_ROUNDTRIP_2008_TABLESTYLE_CELLSTYLEMAP
360
483
  3
ACAD_XREC_ROUNDTRIP
360
482
  0
DICTIONARY
  5
453
330
2F
100
AcDbDictionary
280
     1
281
     1
  3
ACAD_XREC_ROUNDTRIP
360
454
  0
DICTIONARY
  5
459
330
32
100
AcDbDictionary
280
     1
281
     1
  3
ACAD_XREC_ROUNDTRIP
360
45A
  0
DICTIONARY
  5
461
330
36
100
AcDbDictionary
280
     1
281
     1
  3
ACAD_XREC_ROUNDTRIP
360
462
  0
DICTIONARY
  5
469
330
3A
100
AcDbDictionary
280
     1
281
     1
  3
ACAD_XREC_ROUNDTRIP
360
46A
  0
DICTIONARY
  5
45D
330
34
100
AcDbDictionary
280
     1
281
     1
  3
ACAD_XREC_ROUNDTRIP
360
45E
  0
DICTIONARY
  5
45F
330
35
100
AcDbDictionary
280
     1
281
     1
  3
ACAD_XREC_ROUNDTRIP
360
460
  0
DICTIONARY
  5
46F
330
3D
100
AcDbDictionary
280
     1
281
     1
  3
ACAD_XREC_ROUNDTRIP
360
470
  0
DICTIONARY
  5
467
330
39
100
AcDbDictionary
280
     1
281
     1
  3
ACAD_XREC_ROUNDTRIP
360
468
  0
DICTIONARY
  5
44B
330
2B
100
AcDbDictionary
280
     1
281
     1
  3
ACAD_XREC_ROUNDTRIP
360
44C
  0
DICTIONARY
  5
44D
330
2C
100
AcDbDictionary
280
     1
281
     1
  3
ACAD_XREC_ROUNDTRIP
360
44E
  0
DICTIONARY
  5
44F
330
2D
100
AcDbDictionary
280
     1
281
     1
  3
ACAD_XREC_ROUNDTRIP
360
450
  0
DICTIONARY
  5
451
330
2E
100
AcDbDictionary
280
     1
281
     1
  3
ACAD_XREC_ROUNDTRIP
360
452
  0
DICTIONARY
  5
457
330
31
100
AcDbDictionary
280
     1
281
     1
  3
ACAD_XREC_ROUNDTRIP
360
458
  0
DICTIONARY
  5
46B
330
3B
100
AcDbDictionary
280
     1
281
     1
  3
ACAD_XREC_ROUNDTRIP
360
46C
  0
DICTIONARY
  5
465
330
38
100
AcDbDictionary
280
     1
281
     1
  3
ACAD_XREC_ROUNDTRIP
360
466
  0
DICTIONARY
  5
46D
330
3C
100
AcDbDictionary
280
     1
281
     1
  3
ACAD_XREC_ROUNDTRIP
360
46E
  0
DICTIONARY
  5
45B
330
33
100
AcDbDictionary
280
     1
281
     1
  3
ACAD_XREC_ROUNDTRIP
360
45C
  0
DICTIONARY
  5
479
330
42
100
AcDbDictionary
280
     1
281
     1
  3
ACAD_XREC_ROUNDTRIP
360
47A
  0
DICTIONARY
  5
477
330
41
100
AcDbDictionary
280
     1
281
     1
  3
ACAD_XREC_ROUNDTRIP
360
478
  0
DICTIONARY
  5
471
330
3E
100
AcDbDictionary
280
     1
281
     1
  3
ACAD_XREC_ROUNDTRIP
360
472
  0
DICTIONARY
  5
473
330
3F
100
AcDbDictionary
280
     1
281
     1
  3
ACAD_XREC_ROUNDTRIP
360
474
  0
DICTIONARY
  5
463
330
37
100
AcDbDictionary
280
     1
281
     1
  3
ACAD_XREC_ROUNDTRIP
360
464
  0
DICTIONARY
  5
455
330
30
100
AcDbDictionary
280
     1
281
     1
  3
ACAD_XREC_ROUNDTRIP
360
456
  0
DICTIONARY
  5
475
330
40
100
AcDbDictionary
280
     1
281
     1
  3
ACAD_XREC_ROUNDTRIP
360
476
  0
XRECORD
  5
47E
102
{ACAD_REACTORS
330
47D
102
}
330
47D
100
AcDbXrecord
280
     1
102
MATERIAL
148
0.0
149
0.0
149
0.0
 93
        0
 94
      127
282
     0
 72
     1
 77
     1
171
     1
175
     1
179
     1
273
     0
  0
XRECORD
  5
47C
102
{ACAD_REACTORS
330
47B
102
}
330
47B
100
AcDbXrecord
280
     1
102
MATERIAL
148
0.0
149
0.0
149
0.0
 93
        0
 94
      127
282
     0
 72
     1
 77
     1
171
     1
175
     1
179
     1
273
     0
  0
XRECORD
  5
480
102
{ACAD_REACTORS
330
47F
102
}
330
47F
100
AcDbXrecord
280
     1
102
MATERIAL
148
0.0
149
0.0
149
0.0
 93
        0
 94
      127
282
     0
 72
     1
 77
     1
171
     1
175
     1
179
     1
273
     0
  0
XRECORD
  5
486
102
{ACAD_REACTORS
330
485
102
}
330
485
100
AcDbXrecord
280
     1
102
ACAD_ROUNDTRIP_2010_MLEADER_STYLE
  0
CELLSTYLEMAP
  5
483
102
{ACAD_REACTORS
330
481
102
}
330
481
100
AcDbCellStyleMap
 90
        3
300
CELLSTYLE
  1
TABLEFORMAT_BEGIN
 90
        5
170
     1
 91
        0
 92
    32768
 62
   257
 93
        1
300
CONTENTFORMAT
  1
CONTENTFORMAT_BEGIN
 90
        0
 91
        0
 92
        4
 93
        0
300

 40
0.0
140
1.0
 94
        5
 62
     0
340
11
144
6.0
309
CONTENTFORMAT_END
171
     1
301
MARGIN
  1
CELLMARGIN_BEGIN
 40
1.5
 40
1.5
 40
1.5
 40
1.5
 40
1.5
 40
1.5
309
CELLMARGIN_END
 94
        6
 95
        1
302
GRIDFORMAT
  1
GRIDFORMAT_BEGIN
 90
        0
 91
        1
 62
     0
 92
       -2
340
14
 93
        0
 40
0.045
309
GRIDFORMAT_END
 95
        2
302
GRIDFORMAT
  1
GRIDFORMAT_BEGIN
 90
        0
 91
        1
 62
     0
 92
       -2
340
14
 93
        0
 40
0.045
309
GRIDFORMAT_END
 95
        4
302
GRIDFORMAT
  1
GRIDFORMAT_BEGIN
 90
        0
 91
        1
 62
     0
 92
       -2
340
14
 93
        0
 40
0.045
309
GRIDFORMAT_END
 95
        8
302
GRIDFORMAT
  1
GRIDFORMAT_BEGIN
 90
        0
 91
        1
 62
     0
 92
       -2
340
14
 93
        0
 40
0.045
309
GRIDFORMAT_END
 95
       16
302
GRIDFORMAT
  1
GRIDFORMAT_BEGIN
 90
        0
 91
        1
 62
     0
 92
       -2
340
14
 93
        0
 40
0.045
309
GRIDFORMAT_END
 95
       32
302
GRIDFORMAT
  1
GRIDFORMAT_BEGIN
 90
        0
 91
        1
 62
     0
 92
       -2
340
14
 93
        0
 40
0.045
309
GRIDFORMAT_END
309
TABLEFORMAT_END
  1
CELLSTYLE_BEGIN
 90
        1
 91
        1
300
_TITLE
309
CELLSTYLE_END
300
CELLSTYLE
  1
TABLEFORMAT_BEGIN
 90
        5
170
     1
 91
        0
 92
        0
 62
   257
 93
        1
300
CONTENTFORMAT
  1
CONTENTFORMAT_BEGIN
 90
        0
 91
        0
 92
        4
 93
        0
300

 40
0.0
140
1.0
 94
        5
 62
     0
340
11
144
4.5
309
CONTENTFORMAT_END
171
     1
301
MARGIN
  1
CELLMARGIN_BEGIN
 40
1.5
 40
1.5
 40
1.5
 40
1.5
 40
1.5
 40
1.5
309
CELLMARGIN_END
 94
        6
 95
        1
302
GRIDFORMAT
  1
GRIDFORMAT_BEGIN
 90
        0
 91
        1
 62
     0
 92
       -2
340
14
 93
        0
 40
0.045
309
GRIDFORMAT_END
 95
        2
302
GRIDFORMAT
  1
GRIDFORMAT_BEGIN
 90
        0
 91
        1
 62
     0
 92
       -2
340
14
 93
        0
 40
0.045
309
GRIDFORMAT_END
 95
        4
302
GRIDFORMAT
  1
GRIDFORMAT_BEGIN
 90
        0
 91
        1
 62
     0
 92
       -2
340
14
 93
        0
 40
0.045
309
GRIDFORMAT_END
 95
        8
302
GRIDFORMAT
  1
GRIDFORMAT_BEGIN
 90
        0
 91
        1
 62
     0
 92
       -2
340
14
 93
        0
 40
0.045
309
GRIDFORMAT_END
 95
       16
302
GRIDFORMAT
  1
GRIDFORMAT_BEGIN
 90
        0
 91
        1
 62
     0
 92
       -2
340
14
 93
        0
 40
0.045
309
GRIDFORMAT_END
 95
       32
302
GRIDFORMAT
  1
GRIDFORMAT_BEGIN
 90
        0
 91
        1
 62
     0
 92
       -2
340
14
 93
        0
 40
0.045
309
GRIDFORMAT_END
309
TABLEFORMAT_END
  1
CELLSTYLE_BEGIN
 90
        2
 91
        1
300
_HEADER
309
CELLSTYLE_END
300
CELLSTYLE
  1
TABLEFORMAT_BEGIN
 90
        5
170
     1
 91
        0
 92
        0
 62
   257
 93
        1
300
CONTENTFORMAT
  1
CONTENTFORMAT_BEGIN
 90
        0
 91
        0
 92
        4
 93
        0
300

 40
0.0
140
1.0
 94
        2
 62
     0
340
11
144
4.5
309
CONTENTFORMAT_END
171
     1
301
MARGIN
  1
CELLMARGIN_BEGIN
 40
1.5
 40
1.5
 40
1.5
 40
1.5
 40
1.5
 40
1.5
309
CELLMARGIN_END
 94
        6
 95
        1
302
GRIDFORMAT
  1
GRIDFORMAT_BEGIN
 90
        0
 91
        1
 62
     0
 92
       -2
340
14
 93
        0
 40
0.045
309
GRIDFORMAT_END
 95
        2
302
GRIDFORMAT
  1
GRIDFORMAT_BEGIN
 90
        0
 91
        1
 62
     0
 92
       -2
340
14
 93
        0
 40
0.045
309
GRIDFORMAT_END
 95
        4
302
GRIDFORMAT
  1
GRIDFORMAT_BEGIN
 90
        0
 91
        1
 62
     0
 92
       -2
340
14
 93
        0
 40
0.045
309
GRIDFORMAT_END
 95
        8
302
GRIDFORMAT
  1
GRIDFORMAT_BEGIN
 90
        0
 91
        1
 62
     0
 92
       -2
340
14
 93
        0
 40
0.045
309
GRIDFORMAT_END
 95
       16
302
GRIDFORMAT
  1
GRIDFORMAT_BEGIN
 90
        0
 91
        1
 62
     0
 92
       -2
340
14
 93
        0
 40
0.045
309
GRIDFORMAT_END
 95
       32
302
GRIDFORMAT
  1
GRIDFORMAT_BEGIN
 90
        0
 91
        1
 62
     0
 92
       -2
340
14
 93
        0
 40
0.045
309
GRIDFORMAT_END
309
TABLEFORMAT_END
  1
CELLSTYLE_BEGIN
 90
        3
 91
        2
300
_DATA
309
CELLSTYLE_END
  0
XRECORD
  5
482
102
{ACAD_REACTORS
330
481
102
}
330
481
100
AcDbXrecord
280
     1
102
ACAD_ROUNDTRIP_PRE2007_TABLESTYLE
 90
        4
 91
        0
  1

 92
        4
 93
        0
  2

 94
        4
 95
        0
  3

  0
XRECORD
  5
454
102
{ACAD_REACTORS
330
453
102
}
330
453
100
AcDbXrecord
280
     1
102
RTVSPropertyOp0
 70
     1
102
RTVSPropertyOp1
 70
     1
102
RTVSPropertyOp2
 70
     1
102
RTVSPropertyOp3
 70
     1
102
RTVSPropertyOp4
 70
     1
102
RTVSPropertyOp5
 70
     1
102
RTVSPropertyOp6
 70
     1
102
RTVSPropertyOp7
 70
     1
102
RTVSPropertyOp8
 70
     1
102
RTVSPropertyOp9
 70
     1
102
RTVSPropertyOp10
 70
     1
102
RTVSPropertyOp11
 70
     1
102
RTVSPropertyOp12
 70
     1
102
RTVSPropertyOp13
 70
     1
102
RTVSPropertyOp14
 70
     1
102
RTVSPropertyOp15
 70
     1
102
RTVSPropertyOp16
 70
     1
102
RTVSPropertyOp17
 70
     1
102
RTVSPropertyOp18
 70
     1
102
RTVSPropertyOp19
 70
     1
102
RTVSPropertyOp20
 70
     1
102
RTVSPropertyOp21
 70
     1
102
RTVSPropertyOp22
 70
     1
102
RTVSPropertyOp23
 70
     1
102
RTVSPropertyOp24
 70
     1
102
RTVSPropertyOp25
 70
     1
102
RTVSPropertyOp26
 70
     1
102
RTVSPropertyOp27
 70
     1
102
RTVSPropertyOp28
 70
     1
102
RTVSPropertyOp29
 70
     1
102
RTVSPropertyOp30
 70
     1
102
RTVSPropertyOp31
 70
     1
102
RTVSPropertyOp32
 70
     1
102
RTVSPropertyOp33
 70
     1
102
RTVSPropertyOp34
 70
     1
102
RTVSPropertyOp35
 70
     1
102
RTVSPropertyOp36
 70
     1
102
RTVSPropertyOp37
 70
     1
102
RTVSPropertyOp38
 70
     1
102
RTVSPropertyOp39
 70
     1
102
RTVSPropertyOp40
 70
     1
102
RTVSPropertyOp41
 70
     1
102
RTVSPropertyOp42
 70
     1
102
RTVSPropertyOp43
 70
     1
102
RTVSPropertyOp44
 70
     1
102
RTVSPropertyOp45
 70
     1
102
RTVSPropertyOp46
 70
     1
102
RTVSPropertyOp47
 70
     1
102
RTVSPropertyOp48
 70
     1
102
RTVSPropertyOp49
 70
     1
102
RTVSPropertyOp50
 70
     1
102
RTVSPropertyOp51
 70
     0
102
RTVSPropertyOp52
 70
     0
102
RTVSPropertyOp53
 70
     1
102
RTVSPropertyOp54
 70
     1
102
RTVSPropertyOp55
 70
     1
102
RTVSPropertyOp56
 70
     1
102
RTVSPropertyOp57
 70
     1
102
RTVSPost2010Prop28
280
     1
102
RTVSPost2010PropOp28
 70
     1
102
RTVSPost2010Prop29
280
     1
102
RTVSPost2010PropOp29
 70
     1
102
RTVSPost2010Prop30
280
     0
102
RTVSPost2010PropOp30
 70
     1
102
RTVSPost2010Prop31
280
     0
102
RTVSPost2010PropOp31
 70
     1
102
RTVSPost2010Prop32
280
     0
102
RTVSPost2010PropOp32
 70
     1
102
RTVSPost2010Prop33
280
     0
102
RTVSPost2010PropOp33
 70
     1
102
RTVSPost2010Prop34
280
     0
102
RTVSPost2010PropOp34
 70
     1
102
RTVSPost2010Prop35
280
     0
102
RTVSPost2010PropOp35
 70
     1
102
RTVSPost2010Prop36
280
     0
102
RTVSPost2010PropOp36
 70
     1
102
RTVSPost2010Prop37
 90
       50
102
RTVSPost2010PropOp37
 70
     1
102
RTVSPost2010Prop38
140
0.0
102
RTVSPost2010PropOp38
 70
     1
102
RTVSPost2010Prop39
140
1.0
102
RTVSPost2010PropOp39
 70
     1
102
RTVSPost2010Prop40
 90
        0
102
RTVSPost2010PropOp40
 70
     1
102
RTVSPost2010Prop41ColorIndex
 90
       18
102
RTVSPost2010Prop41ColorRGB
 90
        0
102
RTVSPost2010PropOp41
 70
     1
102
RTVSPost2010Prop42
 90
       50
102
RTVSPost2010PropOp42
 70
     1
102
RTVSPost2010Prop43
 90
        3
102
RTVSPost2010PropOp43
 70
     1
102
RTVSPost2010Prop44ColorIndex
 90
        5
102
RTVSPost2010Prop44ColorRGB
 90
      255
102
RTVSPost2010PropOp44
 70
     1
102
RTVSPost2010Prop45
280
     0
102
RTVSPost2010PropOp45
 70
     1
102
RTVSPost2010Prop46
 90
       50
102
RTVSPost2010PropOp46
 70
     1
102
RTVSPost2010Prop47
 90
       50
102
RTVSPost2010PropOp47
 70
     1
102
RTVSPost2010Prop48
 90
       50
102
RTVSPost2010PropOp48
 70
     1
102
RTVSPost2010Prop49
280
     0
102
RTVSPost2010PropOp49
 70
     1
102
RTVSPost2010Prop50
 90
       50
102
RTVSPost2010PropOp50
 70
     1
102
RTVSPost2010Prop51ColorIndex
 90
      256
102
RTVSPost2010Prop51ColorRGB
 90
-16777216
102
RTVSPost2010PropOp51
 70
     0
102
RTVSPost2010Prop52
140
1.0
102
RTVSPost2010PropOp52
 70
     0
102
RTVSPost2010Prop53
 90
        2
102
RTVSPost2010PropOp53
 70
     1
102
RTVSPost2010Prop54
  1
strokes_ogs.tif
102
RTVSPost2010PropOp54
 70
     1
102
RTVSPost2010Prop55
280
     0
102
RTVSPost2010PropOp55
 70
     1
102
RTVSPost2010Prop56
140
1.0
102
RTVSPost2010PropOp56
 70
     1
102
RTVSPost2010Prop57
140
1.0
102
RTVSPost2010PropOp57
 70
     1
  0
XRECORD
  5
45A
102
{ACAD_REACTORS
330
459
102
}
330
459
100
AcDbXrecord
280
     1
102
RTVSPropertyOp0
 70
     1
102
RTVSPropertyOp1
 70
     1
102
RTVSPropertyOp2
 70
     1
102
RTVSPropertyOp3
 70
     1
102
RTVSPropertyOp4
 70
     1
102
RTVSPropertyOp5
 70
     1
102
RTVSPropertyOp6
 70
     1
102
RTVSPropertyOp7
 70
     1
102
RTVSPropertyOp8
 70
     1
102
RTVSPropertyOp9
 70
     1
102
RTVSPropertyOp10
 70
     1
102
RTVSPropertyOp11
 70
     1
102
RTVSPropertyOp12
 70
     1
102
RTVSPropertyOp13
 70
     1
102
RTVSPropertyOp14
 70
     1
102
RTVSPropertyOp15
 70
     1
102
RTVSPropertyOp16
 70
     1
102
RTVSPropertyOp17
 70
     1
102
RTVSPropertyOp18
 70
     1
102
RTVSPropertyOp19
 70
     1
102
RTVSPropertyOp20
 70
     1
102
RTVSPropertyOp21
 70
     1
102
RTVSPropertyOp22
 70
     1
102
RTVSPropertyOp23
 70
     1
102
RTVSPropertyOp24
 70
     1
102
RTVSPropertyOp25
 70
     1
102
RTVSPropertyOp26
 70
     1
102
RTVSPropertyOp27
 70
     1
102
RTVSPropertyOp28
 70
     1
102
RTVSPropertyOp29
 70
     1
102
RTVSPropertyOp30
 70
     1
102
RTVSPropertyOp31
 70
     1
102
RTVSPropertyOp32
 70
     1
102
RTVSPropertyOp33
 70
     1
102
RTVSPropertyOp34
 70
     1
102
RTVSPropertyOp35
 70
     1
102
RTVSPropertyOp36
 70
     1
102
RTVSPropertyOp37
 70
     1
102
RTVSPropertyOp38
 70
     1
102
RTVSPropertyOp39
 70
     1
102
RTVSPropertyOp40
 70
     1
102
RTVSPropertyOp41
 70
     1
102
RTVSPropertyOp42
 70
     1
102
RTVSPropertyOp43
 70
     1
102
RTVSPropertyOp44
 70
     1
102
RTVSPropertyOp45
 70
     1
102
RTVSPropertyOp46
 70
     1
102
RTVSPropertyOp47
 70
     1
102
RTVSPropertyOp48
 70
     1
102
RTVSPropertyOp49
 70
     1
102
RTVSPropertyOp50
 70
     1
102
RTVSPropertyOp51
 70
     0
102
RTVSPropertyOp52
 70
     0
102
RTVSPropertyOp53
 70
     1
102
RTVSPropertyOp54
 70
     1
102
RTVSPropertyOp55
 70
     1
102
RTVSPropertyOp56
 70
     1
102
RTVSPropertyOp57
 70
     1
102
RTVSPost2010Prop28
280
     0
102
RTVSPost2010PropOp28
 70
     1
102
RTVSPost2010Prop29
280
     1
102
RTVSPost2010PropOp29
 70
     1
102
RTVSPost2010Prop30
280
     1
102
RTVSPost2010PropOp30
 70
     1
102
RTVSPost2010Prop31
280
     0
102
RTVSPost2010PropOp31
 70
     1
102
RTVSPost2010Prop32
280
     0
102
RTVSPost2010PropOp32
 70
     1
102
RTVSPost2010Prop33
280
     0
102
RTVSPost2010PropOp33
 70
     1
102
RTVSPost2010Prop34
280
     0
102
RTVSPost2010PropOp34
 70
     1
102
RTVSPost2010Prop35
280
     0
102
RTVSPost2010PropOp35
 70
     1
102
RTVSPost2010Prop36
280
     0
102
RTVSPost2010PropOp36
 70
     1
102
RTVSPost2010Prop37
 90
       50
102
RTVSPost2010PropOp37
 70
     1
102
RTVSPost2010Prop38
140
0.0
102
RTVSPost2010PropOp38
 70
     1
102
RTVSPost2010Prop39
140
1.0
102
RTVSPost2010PropOp39
 70
     1
102
RTVSPost2010Prop40
 90
        0
102
RTVSPost2010PropOp40
 70
     1
102
RTVSPost2010Prop41ColorIndex
 90
       18
102
RTVSPost2010Prop41ColorRGB
 90
        0
102
RTVSPost2010PropOp41
 70
     1
102
RTVSPost2010Prop42
 90
       50
102
RTVSPost2010PropOp42
 70
     1
102
RTVSPost2010Prop43
 90
        3
102
RTVSPost2010PropOp43
 70
     1
102
RTVSPost2010Prop44ColorIndex
 90
        5
102
RTVSPost2010Prop44ColorRGB
 90
      255
102
RTVSPost2010PropOp44
 70
     1
102
RTVSPost2010Prop45
280
     0
102
RTVSPost2010PropOp45
 70
     1
102
RTVSPost2010Prop46
 90
       50
102
RTVSPost2010PropOp46
 70
     1
102
RTVSPost2010Prop47
 90
       50
102
RTVSPost2010PropOp47
 70
     1
102
RTVSPost2010Prop48
 90
       50
102
RTVSPost2010PropOp48
 70
     1
102
RTVSPost2010Prop49
280
     0
102
RTVSPost2010PropOp49
 70
     1
102
RTVSPost2010Prop50
 90
       50
102
RTVSPost2010PropOp50
 70
     1
102
RTVSPost2010Prop51ColorIndex
 90
      256
102
RTVSPost2010Prop51ColorRGB
 90
-16777216
102
RTVSPost2010PropOp51
 70
     0
102
RTVSPost2010Prop52
140
1.0
102
RTVSPost2010PropOp52
 70
     0
102
RTVSPost2010Prop53
 90
        2
102
RTVSPost2010PropOp53
 70
     1
102
RTVSPost2010Prop54
  1
strokes_ogs.tif
102
RTVSPost2010PropOp54
 70
     1
102
RTVSPost2010Prop55
280
     0
102
RTVSPost2010PropOp55
 70
     1
102
RTVSPost2010Prop56
140
1.0
102
RTVSPost2010PropOp56
 70
     1
102
RTVSPost2010Prop57
140
1.0
102
RTVSPost2010PropOp57
 70
     1
  0
XRECORD
  5
462
102
{ACAD_REACTORS
330
461
102
}
330
461
100
AcDbXrecord
280
     1
102
RTVSPropertyOp0
 70
     1
102
RTVSPropertyOp1
 70
     1
102
RTVSPropertyOp2
 70
     1
102
RTVSPropertyOp3
 70
     1
102
RTVSPropertyOp4
 70
     1
102
RTVSPropertyOp5
 70
     1
102
RTVSPropertyOp6
 70
     1
102
RTVSPropertyOp7
 70
     1
102
RTVSPropertyOp8
 70
     1
102
RTVSPropertyOp9
 70
     1
102
RTVSPropertyOp10
 70
     1
102
RTVSPropertyOp11
 70
     1
102
RTVSPropertyOp12
 70
     1
102
RTVSPropertyOp13
 70
     1
102
RTVSPropertyOp14
 70
     1
102
RTVSPropertyOp15
 70
     1
102
RTVSPropertyOp16
 70
     1
102
RTVSPropertyOp17
 70
     1
102
RTVSPropertyOp18
 70
     1
102
RTVSPropertyOp19
 70
     1
102
RTVSPropertyOp20
 70
     1
102
RTVSPropertyOp21
 70
     1
102
RTVSPropertyOp22
 70
     1
102
RTVSPropertyOp23
 70
     1
102
RTVSPropertyOp24
 70
     1
102
RTVSPropertyOp25
 70
     1
102
RTVSPropertyOp26
 70
     1
102
RTVSPropertyOp27
 70
     1
102
RTVSPropertyOp28
 70
     1
102
RTVSPropertyOp29
 70
     1
102
RTVSPropertyOp30
 70
     1
102
RTVSPropertyOp31
 70
     1
102
RTVSPropertyOp32
 70
     1
102
RTVSPropertyOp33
 70
     1
102
RTVSPropertyOp34
 70
     1
102
RTVSPropertyOp35
 70
     1
102
RTVSPropertyOp36
 70
     1
102
RTVSPropertyOp37
 70
     1
102
RTVSPropertyOp38
 70
     1
102
RTVSPropertyOp39
 70
     1
102
RTVSPropertyOp40
 70
     1
102
RTVSPropertyOp41
 70
     1
102
RTVSPropertyOp42
 70
     1
102
RTVSPropertyOp43
 70
     1
102
RTVSPropertyOp44
 70
     1
102
RTVSPropertyOp45
 70
     1
102
RTVSPropertyOp46
 70
     1
102
RTVSPropertyOp47
 70
     1
102
RTVSPropertyOp48
 70
     1
102
RTVSPropertyOp49
 70
     1
102
RTVSPropertyOp50
 70
     1
102
RTVSPropertyOp51
 70
     0
102
RTVSPropertyOp52
 70
     0
102
RTVSPropertyOp53
 70
     1
102
RTVSPropertyOp54
 70
     1
102
RTVSPropertyOp55
 70
     1
102
RTVSPropertyOp56
 70
     1
102
RTVSPropertyOp57
 70
     1
102
RTVSPost2010Prop28
280
     0
102
RTVSPost2010PropOp28
 70
     1
102
RTVSPost2010Prop29
280
     1
102
RTVSPost2010PropOp29
 70
     1
102
RTVSPost2010Prop30
280
     1
102
RTVSPost2010PropOp30
 70
     1
102
RTVSPost2010Prop31
280
     0
102
RTVSPost2010PropOp31
 70
     1
102
RTVSPost2010Prop32
280
     0
102
RTVSPost2010PropOp32
 70
     1
102
RTVSPost2010Prop33
280
     0
102
RTVSPost2010PropOp33
 70
     1
102
RTVSPost2010Prop34
280
     0
102
RTVSPost2010PropOp34
 70
     1
102
RTVSPost2010Prop35
280
     0
102
RTVSPost2010PropOp35
 70
     1
102
RTVSPost2010Prop36
280
     0
102
RTVSPost2010PropOp36
 70
     1
102
RTVSPost2010Prop37
 90
       50
102
RTVSPost2010PropOp37
 70
     1
102
RTVSPost2010Prop38
140
0.0
102
RTVSPost2010PropOp38
 70
     1
102
RTVSPost2010Prop39
140
1.0
102
RTVSPost2010PropOp39
 70
     1
102
RTVSPost2010Prop40
 90
        0
102
RTVSPost2010PropOp40
 70
     1
102
RTVSPost2010Prop41ColorIndex
 90
       18
102
RTVSPost2010Prop41ColorRGB
 90
        0
102
RTVSPost2010PropOp41
 70
     1
102
RTVSPost2010Prop42
 90
       50
102
RTVSPost2010PropOp42
 70
     1
102
RTVSPost2010Prop43
 90
        3
102
RTVSPost2010PropOp43
 70
     1
102
RTVSPost2010Prop44ColorIndex
 90
        5
102
RTVSPost2010Prop44ColorRGB
 90
      255
102
RTVSPost2010PropOp44
 70
     1
102
RTVSPost2010Prop45
280
     0
102
RTVSPost2010PropOp45
 70
     1
102
RTVSPost2010Prop46
 90
       50
102
RTVSPost2010PropOp46
 70
     1
102
RTVSPost2010Prop47
 90
       50
102
RTVSPost2010PropOp47
 70
     1
102
RTVSPost2010Prop48
 90
       50
102
RTVSPost2010PropOp48
 70
     1
102
RTVSPost2010Prop49
280
     0
102
RTVSPost2010PropOp49
 70
     1
102
RTVSPost2010Prop50
 90
       50
102
RTVSPost2010PropOp50
 70
     1
102
RTVSPost2010Prop51ColorIndex
 90
      256
102
RTVSPost2010Prop51ColorRGB
 90
-16777216
102
RTVSPost2010PropOp51
 70
     0
102
RTVSPost2010Prop52
140
1.0
102
RTVSPost2010PropOp52
 70
     0
102
RTVSPost2010Prop53
 90
        2
102
RTVSPost2010PropOp53
 70
     1
102
RTVSPost2010Prop54
  1
strokes_ogs.tif
102
RTVSPost2010PropOp54
 70
     1
102
RTVSPost2010Prop55
280
     0
102
RTVSPost2010PropOp55
 70
     1
102
RTVSPost2010Prop56
140
1.0
102
RTVSPost2010PropOp56
 70
     1
102
RTVSPost2010Prop57
140
1.0
102
RTVSPost2010PropOp57
 70
     1
  0
XRECORD
  5
46A
102
{ACAD_REACTORS
330
469
102
}
330
469
100
AcDbXrecord
280
     1
102
RTVSPropertyOp0
 70
     1
102
RTVSPropertyOp1
 70
     1
102
RTVSPropertyOp2
 70
     1
102
RTVSPropertyOp3
 70
     1
102
RTVSPropertyOp4
 70
     1
102
RTVSPropertyOp5
 70
     1
102
RTVSPropertyOp6
 70
     1
102
RTVSPropertyOp7
 70
     1
102
RTVSPropertyOp8
 70
     1
102
RTVSPropertyOp9
 70
     1
102
RTVSPropertyOp10
 70
     1
102
RTVSPropertyOp11
 70
     1
102
RTVSPropertyOp12
 70
     1
102
RTVSPropertyOp13
 70
     1
102
RTVSPropertyOp14
 70
     1
102
RTVSPropertyOp15
 70
     1
102
RTVSPropertyOp16
 70
     1
102
RTVSPropertyOp17
 70
     1
102
RTVSPropertyOp18
 70
     1
102
RTVSPropertyOp19
 70
     1
102
RTVSPropertyOp20
 70
     1
102
RTVSPropertyOp21
 70
     1
102
RTVSPropertyOp22
 70
     1
102
RTVSPropertyOp23
 70
     1
102
RTVSPropertyOp24
 70
     1
102
RTVSPropertyOp25
 70
     1
102
RTVSPropertyOp26
 70
     1
102
RTVSPropertyOp27
 70
     1
102
RTVSPropertyOp28
 70
     1
102
RTVSPropertyOp29
 70
     1
102
RTVSPropertyOp30
 70
     1
102
RTVSPropertyOp31
 70
     1
102
RTVSPropertyOp32
 70
     1
102
RTVSPropertyOp33
 70
     1
102
RTVSPropertyOp34
 70
     1
102
RTVSPropertyOp35
 70
     1
102
RTVSPropertyOp36
 70
     1
102
RTVSPropertyOp37
 70
     1
102
RTVSPropertyOp38
 70
     1
102
RTVSPropertyOp39
 70
     1
102
RTVSPropertyOp40
 70
     1
102
RTVSPropertyOp41
 70
     1
102
RTVSPropertyOp42
 70
     1
102
RTVSPropertyOp43
 70
     1
102
RTVSPropertyOp44
 70
     1
102
RTVSPropertyOp45
 70
     1
102
RTVSPropertyOp46
 70
     1
102
RTVSPropertyOp47
 70
     1
102
RTVSPropertyOp48
 70
     1
102
RTVSPropertyOp49
 70
     1
102
RTVSPropertyOp50
 70
     1
102
RTVSPropertyOp51
 70
     0
102
RTVSPropertyOp52
 70
     0
102
RTVSPropertyOp53
 70
     1
102
RTVSPropertyOp54
 70
     1
102
RTVSPropertyOp55
 70
     1
102
RTVSPropertyOp56
 70
     1
102
RTVSPropertyOp57
 70
     1
102
RTVSPost2010Prop28
280
     0
102
RTVSPost2010PropOp28
 70
     1
102
RTVSPost2010Prop29
280
     1
102
RTVSPost2010PropOp29
 70
     1
102
RTVSPost2010Prop30
280
     1
102
RTVSPost2010PropOp30
 70
     1
102
RTVSPost2010Prop31
280
     0
102
RTVSPost2010PropOp31
 70
     1
102
RTVSPost2010Prop32
280
     0
102
RTVSPost2010PropOp32
 70
     1
102
RTVSPost2010Prop33
280
     0
102
RTVSPost2010PropOp33
 70
     1
102
RTVSPost2010Prop34
280
     0
102
RTVSPost2010PropOp34
 70
     1
102
RTVSPost2010Prop35
280
     0
102
RTVSPost2010PropOp35
 70
     1
102
RTVSPost2010Prop36
280
     0
102
RTVSPost2010PropOp36
 70
     1
102
RTVSPost2010Prop37
 90
       50
102
RTVSPost2010PropOp37
 70
     1
102
RTVSPost2010Prop38
140
0.0
102
RTVSPost2010PropOp38
 70
     1
102
RTVSPost2010Prop39
140
1.0
102
RTVSPost2010PropOp39
 70
     1
102
RTVSPost2010Prop40
 90
        0
102
RTVSPost2010PropOp40
 70
     1
102
RTVSPost2010Prop41ColorIndex
 90
       18
102
RTVSPost2010Prop41ColorRGB
 90
        0
102
RTVSPost2010PropOp41
 70
     1
102
RTVSPost2010Prop42
 90
       50
102
RTVSPost2010PropOp42
 70
     1
102
RTVSPost2010Prop43
 90
        3
102
RTVSPost2010PropOp43
 70
     1
102
RTVSPost2010Prop44ColorIndex
 90
        5
102
RTVSPost2010Prop44ColorRGB
 90
      255
102
RTVSPost2010PropOp44
 70
     1
102
RTVSPost2010Prop45
280
     0
102
RTVSPost2010PropOp45
 70
     1
102
RTVSPost2010Prop46
 90
       50
102
RTVSPost2010PropOp46
 70
     1
102
RTVSPost2010Prop47
 90
       50
102
RTVSPost2010PropOp47
 70
     1
102
RTVSPost2010Prop48
 90
       50
102
RTVSPost2010PropOp48
 70
     1
102
RTVSPost2010Prop49
280
     0
102
RTVSPost2010PropOp49
 70
     1
102
RTVSPost2010Prop50
 90
       50
102
RTVSPost2010PropOp50
 70
     1
102
RTVSPost2010Prop51ColorIndex
 90
      256
102
RTVSPost2010Prop51ColorRGB
 90
-16777216
102
RTVSPost2010PropOp51
 70
     0
102
RTVSPost2010Prop52
140
1.0
102
RTVSPost2010PropOp52
 70
     0
102
RTVSPost2010Prop53
 90
        2
102
RTVSPost2010PropOp53
 70
     1
102
RTVSPost2010Prop54
  1
strokes_ogs.tif
102
RTVSPost2010PropOp54
 70
     1
102
RTVSPost2010Prop55
280
     0
102
RTVSPost2010PropOp55
 70
     1
102
RTVSPost2010Prop56
140
1.0
102
RTVSPost2010PropOp56
 70
     1
102
RTVSPost2010Prop57
140
1.0
102
RTVSPost2010PropOp57
 70
     1
  0
XRECORD
  5
45E
102
{ACAD_REACTORS
330
45D
102
}
330
45D
100
AcDbXrecord
280
     1
102
RTVSPropertyOp0
 70
     1
102
RTVSPropertyOp1
 70
     1
102
RTVSPropertyOp2
 70
     1
102
RTVSPropertyOp3
 70
     1
102
RTVSPropertyOp4
 70
     1
102
RTVSPropertyOp5
 70
     1
102
RTVSPropertyOp6
 70
     1
102
RTVSPropertyOp7
 70
     1
102
RTVSPropertyOp8
 70
     1
102
RTVSPropertyOp9
 70
     1
102
RTVSPropertyOp10
 70
     1
102
RTVSPropertyOp11
 70
     1
102
RTVSPropertyOp12
 70
     1
102
RTVSPropertyOp13
 70
     1
102
RTVSPropertyOp14
 70
     1
102
RTVSPropertyOp15
 70
     1
102
RTVSPropertyOp16
 70
     1
102
RTVSPropertyOp17
 70
     1
102
RTVSPropertyOp18
 70
     1
102
RTVSPropertyOp19
 70
     1
102
RTVSPropertyOp20
 70
     1
102
RTVSPropertyOp21
 70
     1
102
RTVSPropertyOp22
 70
     1
102
RTVSPropertyOp23
 70
     1
102
RTVSPropertyOp24
 70
     1
102
RTVSPropertyOp25
 70
     1
102
RTVSPropertyOp26
 70
     1
102
RTVSPropertyOp27
 70
     1
102
RTVSPropertyOp28
 70
     1
102
RTVSPropertyOp29
 70
     1
102
RTVSPropertyOp30
 70
     1
102
RTVSPropertyOp31
 70
     1
102
RTVSPropertyOp32
 70
     1
102
RTVSPropertyOp33
 70
     1
102
RTVSPropertyOp34
 70
     1
102
RTVSPropertyOp35
 70
     1
102
RTVSPropertyOp36
 70
     1
102
RTVSPropertyOp37
 70
     1
102
RTVSPropertyOp38
 70
     1
102
RTVSPropertyOp39
 70
     1
102
RTVSPropertyOp40
 70
     1
102
RTVSPropertyOp41
 70
     1
102
RTVSPropertyOp42
 70
     1
102
RTVSPropertyOp43
 70
     1
102
RTVSPropertyOp44
 70
     1
102
RTVSPropertyOp45
 70
     1
102
RTVSPropertyOp46
 70
     1
102
RTVSPropertyOp47
 70
     1
102
RTVSPropertyOp48
 70
     1
102
RTVSPropertyOp49
 70
     1
102
RTVSPropertyOp50
 70
     1
102
RTVSPropertyOp51
 70
     0
102
RTVSPropertyOp52
 70
     0
102
RTVSPropertyOp53
 70
     1
102
RTVSPropertyOp54
 70
     1
102
RTVSPropertyOp55
 70
     1
102
RTVSPropertyOp56
 70
     1
102
RTVSPropertyOp57
 70
     1
102
RTVSPost2010Prop28
280
     0
102
RTVSPost2010PropOp28
 70
     1
102
RTVSPost2010Prop29
280
     1
102
RTVSPost2010PropOp29
 70
     1
102
RTVSPost2010Prop30
280
     1
102
RTVSPost2010PropOp30
 70
     1
102
RTVSPost2010Prop31
280
     0
102
RTVSPost2010PropOp31
 70
     1
102
RTVSPost2010Prop32
280
     0
102
RTVSPost2010PropOp32
 70
     1
102
RTVSPost2010Prop33
280
     0
102
RTVSPost2010PropOp33
 70
     1
102
RTVSPost2010Prop34
280
     0
102
RTVSPost2010PropOp34
 70
     1
102
RTVSPost2010Prop35
280
     0
102
RTVSPost2010PropOp35
 70
     1
102
RTVSPost2010Prop36
280
     0
102
RTVSPost2010PropOp36
 70
     1
102
RTVSPost2010Prop37
 90
       50
102
RTVSPost2010PropOp37
 70
     1
102
RTVSPost2010Prop38
140
0.0
102
RTVSPost2010PropOp38
 70
     1
102
RTVSPost2010Prop39
140
1.0
102
RTVSPost2010PropOp39
 70
     1
102
RTVSPost2010Prop40
 90
        0
102
RTVSPost2010PropOp40
 70
     1
102
RTVSPost2010Prop41ColorIndex
 90
       18
102
RTVSPost2010Prop41ColorRGB
 90
        0
102
RTVSPost2010PropOp41
 70
     1
102
RTVSPost2010Prop42
 90
       50
102
RTVSPost2010PropOp42
 70
     1
102
RTVSPost2010Prop43
 90
        3
102
RTVSPost2010PropOp43
 70
     1
102
RTVSPost2010Prop44ColorIndex
 90
        5
102
RTVSPost2010Prop44ColorRGB
 90
      255
102
RTVSPost2010PropOp44
 70
     1
102
RTVSPost2010Prop45
280
     0
102
RTVSPost2010PropOp45
 70
     1
102
RTVSPost2010Prop46
 90
       50
102
RTVSPost2010PropOp46
 70
     1
102
RTVSPost2010Prop47
 90
       50
102
RTVSPost2010PropOp47
 70
     1
102
RTVSPost2010Prop48
 90
       50
102
RTVSPost2010PropOp48
 70
     1
102
RTVSPost2010Prop49
280
     0
102
RTVSPost2010PropOp49
 70
     1
102
RTVSPost2010Prop50
 90
       50
102
RTVSPost2010PropOp50
 70
     1
102
RTVSPost2010Prop51ColorIndex
 90
      256
102
RTVSPost2010Prop51ColorRGB
 90
-16777216
102
RTVSPost2010PropOp51
 70
     0
102
RTVSPost2010Prop52
140
1.0
102
RTVSPost2010PropOp52
 70
     0
102
RTVSPost2010Prop53
 90
        2
102
RTVSPost2010PropOp53
 70
     1
102
RTVSPost2010Prop54
  1
strokes_ogs.tif
102
RTVSPost2010PropOp54
 70
     1
102
RTVSPost2010Prop55
280
     0
102
RTVSPost2010PropOp55
 70
     1
102
RTVSPost2010Prop56
140
1.0
102
RTVSPost2010PropOp56
 70
     1
102
RTVSPost2010Prop57
140
1.0
102
RTVSPost2010PropOp57
 70
     1
  0
XRECORD
  5
460
102
{ACAD_REACTORS
330
45F
102
}
330
45F
100
AcDbXrecord
280
     1
102
RTVSPropertyOp0
 70
     1
102
RTVSPropertyOp1
 70
     1
102
RTVSPropertyOp2
 70
     1
102
RTVSPropertyOp3
 70
     1
102
RTVSPropertyOp4
 70
     1
102
RTVSPropertyOp5
 70
     1
102
RTVSPropertyOp6
 70
     1
102
RTVSPropertyOp7
 70
     1
102
RTVSPropertyOp8
 70
     1
102
RTVSPropertyOp9
 70
     1
102
RTVSPropertyOp10
 70
     1
102
RTVSPropertyOp11
 70
     1
102
RTVSPropertyOp12
 70
     1
102
RTVSPropertyOp13
 70
     1
102
RTVSPropertyOp14
 70
     1
102
RTVSPropertyOp15
 70
     1
102
RTVSPropertyOp16
 70
     1
102
RTVSPropertyOp17
 70
     1
102
RTVSPropertyOp18
 70
     1
102
RTVSPropertyOp19
 70
     1
102
RTVSPropertyOp20
 70
     1
102
RTVSPropertyOp21
 70
     1
102
RTVSPropertyOp22
 70
     1
102
RTVSPropertyOp23
 70
     1
102
RTVSPropertyOp24
 70
     1
102
RTVSPropertyOp25
 70
     1
102
RTVSPropertyOp26
 70
     1
102
RTVSPropertyOp27
 70
     1
102
RTVSPropertyOp28
 70
     1
102
RTVSPropertyOp29
 70
     1
102
RTVSPropertyOp30
 70
     1
102
RTVSPropertyOp31
 70
     1
102
RTVSPropertyOp32
 70
     1
102
RTVSPropertyOp33
 70
     1
102
RTVSPropertyOp34
 70
     1
102
RTVSPropertyOp35
 70
     1
102
RTVSPropertyOp36
 70
     1
102
RTVSPropertyOp37
 70
     1
102
RTVSPropertyOp38
 70
     1
102
RTVSPropertyOp39
 70
     1
102
RTVSPropertyOp40
 70
     1
102
RTVSPropertyOp41
 70
     1
102
RTVSPropertyOp42
 70
     1
102
RTVSPropertyOp43
 70
     1
102
RTVSPropertyOp44
 70
     1
102
RTVSPropertyOp45
 70
     1
102
RTVSPropertyOp46
 70
     1
102
RTVSPropertyOp47
 70
     1
102
RTVSPropertyOp48
 70
     1
102
RTVSPropertyOp49
 70
     1
102
RTVSPropertyOp50
 70
     1
102
RTVSPropertyOp51
 70
     0
102
RTVSPropertyOp52
 70
     0
102
RTVSPropertyOp53
 70
     1
102
RTVSPropertyOp54
 70
     1
102
RTVSPropertyOp55
 70
     1
102
RTVSPropertyOp56
 70
     1
102
RTVSPropertyOp57
 70
     1
102
RTVSPost2010Prop28
280
     0
102
RTVSPost2010PropOp28
 70
     1
102
RTVSPost2010Prop29
280
     1
102
RTVSPost2010PropOp29
 70
     1
102
RTVSPost2010Prop30
280
     1
102
RTVSPost2010PropOp30
 70
     1
102
RTVSPost2010Prop31
280
     0
102
RTVSPost2010PropOp31
 70
     1
102
RTVSPost2010Prop32
280
     0
102
RTVSPost2010PropOp32
 70
     1
102
RTVSPost2010Prop33
280
     0
102
RTVSPost2010PropOp33
 70
     1
102
RTVSPost2010Prop34
280
     0
102
RTVSPost2010PropOp34
 70
     1
102
RTVSPost2010Prop35
280
     0
102
RTVSPost2010PropOp35
 70
     1
102
RTVSPost2010Prop36
280
     0
102
RTVSPost2010PropOp36
 70
     1
102
RTVSPost2010Prop37
 90
       50
102
RTVSPost2010PropOp37
 70
     1
102
RTVSPost2010Prop38
140
0.0
102
RTVSPost2010PropOp38
 70
     1
102
RTVSPost2010Prop39
140
1.0
102
RTVSPost2010PropOp39
 70
     1
102
RTVSPost2010Prop40
 90
        0
102
RTVSPost2010PropOp40
 70
     1
102
RTVSPost2010Prop41ColorIndex
 90
       18
102
RTVSPost2010Prop41ColorRGB
 90
        0
102
RTVSPost2010PropOp41
 70
     1
102
RTVSPost2010Prop42
 90
       50
102
RTVSPost2010PropOp42
 70
     1
102
RTVSPost2010Prop43
 90
        3
102
RTVSPost2010PropOp43
 70
     1
102
RTVSPost2010Prop44ColorIndex
 90
        5
102
RTVSPost2010Prop44ColorRGB
 90
      255
102
RTVSPost2010PropOp44
 70
     1
102
RTVSPost2010Prop45
280
     0
102
RTVSPost2010PropOp45
 70
     1
102
RTVSPost2010Prop46
 90
       50
102
RTVSPost2010PropOp46
 70
     1
102
RTVSPost2010Prop47
 90
       50
102
RTVSPost2010PropOp47
 70
     1
102
RTVSPost2010Prop48
 90
       50
102
RTVSPost2010PropOp48
 70
     1
102
RTVSPost2010Prop49
280
     0
102
RTVSPost2010PropOp49
 70
     1
102
RTVSPost2010Prop50
 90
       50
102
RTVSPost2010PropOp50
 70
     1
102
RTVSPost2010Prop51ColorIndex
 90
      256
102
RTVSPost2010Prop51ColorRGB
 90
-16777216
102
RTVSPost2010PropOp51
 70
     0
102
RTVSPost2010Prop52
140
1.0
102
RTVSPost2010PropOp52
 70
     0
102
RTVSPost2010Prop53
 90
        2
102
RTVSPost2010PropOp53
 70
     1
102
RTVSPost2010Prop54
  1
strokes_ogs.tif
102
RTVSPost2010PropOp54
 70
     1
102
RTVSPost2010Prop55
280
     0
102
RTVSPost2010PropOp55
 70
     1
102
RTVSPost2010Prop56
140
1.0
102
RTVSPost2010PropOp56
 70
     1
102
RTVSPost2010Prop57
140
1.0
102
RTVSPost2010PropOp57
 70
     1
  0
XRECORD
  5
470
102
{ACAD_REACTORS
330
46F
102
}
330
46F
100
AcDbXrecord
280
     1
102
RTVSPropertyOp0
 70
     0
102
RTVSPropertyOp1
 70
     0
102
RTVSPropertyOp2
 70
     0
102
RTVSPropertyOp3
 70
     0
102
RTVSPropertyOp4
 70
     0
102
RTVSPropertyOp5
 70
     0
102
RTVSPropertyOp6
 70
     0
102
RTVSPropertyOp7
 70
     0
102
RTVSPropertyOp8
 70
     0
102
RTVSPropertyOp9
 70
     0
102
RTVSPropertyOp10
 70
     0
102
RTVSPropertyOp11
 70
     0
102
RTVSPropertyOp12
 70
     0
102
RTVSPropertyOp13
 70
     0
102
RTVSPropertyOp14
 70
     2
102
RTVSPropertyOp15
 70
     0
102
RTVSPropertyOp16
 70
     0
102
RTVSPropertyOp17
 70
     0
102
RTVSPropertyOp18
 70
     0
102
RTVSPropertyOp19
 70
     0
102
RTVSPropertyOp20
 70
     0
102
RTVSPropertyOp21
 70
     0
102
RTVSPropertyOp22
 70
     0
102
RTVSPropertyOp23
 70
     0
102
RTVSPropertyOp24
 70
     0
102
RTVSPropertyOp25
 70
     0
102
RTVSPropertyOp26
 70
     0
102
RTVSPropertyOp27
 70
     0
102
RTVSPropertyOp28
 70
     0
102
RTVSPropertyOp29
 70
     0
102
RTVSPropertyOp30
 70
     0
102
RTVSPropertyOp31
 70
     0
102
RTVSPropertyOp32
 70
     0
102
RTVSPropertyOp33
 70
     0
102
RTVSPropertyOp34
 70
     0
102
RTVSPropertyOp35
 70
     0
102
RTVSPropertyOp36
 70
     0
102
RTVSPropertyOp37
 70
     0
102
RTVSPropertyOp38
 70
     0
102
RTVSPropertyOp39
 70
     0
102
RTVSPropertyOp40
 70
     0
102
RTVSPropertyOp41
 70
     0
102
RTVSPropertyOp42
 70
     0
102
RTVSPropertyOp43
 70
     0
102
RTVSPropertyOp44
 70
     0
102
RTVSPropertyOp45
 70
     0
102
RTVSPropertyOp46
 70
     0
102
RTVSPropertyOp47
 70
     0
102
RTVSPropertyOp48
 70
     0
102
RTVSPropertyOp49
 70
     0
102
RTVSPropertyOp50
 70
     0
102
RTVSPropertyOp51
 70
     0
102
RTVSPropertyOp52
 70
     0
102
RTVSPropertyOp53
 70
     0
102
RTVSPropertyOp54
 70
     0
102
RTVSPropertyOp55
 70
     0
102
RTVSPropertyOp56
 70
     0
102
RTVSPropertyOp57
 70
     0
102
RTVSPost2010Prop28
280
     0
102
RTVSPost2010PropOp28
 70
     0
102
RTVSPost2010Prop29
280
     1
102
RTVSPost2010PropOp29
 70
     0
102
RTVSPost2010Prop30
280
     1
102
RTVSPost2010PropOp30
 70
     0
102
RTVSPost2010Prop31
280
     0
102
RTVSPost2010PropOp31
 70
     0
102
RTVSPost2010Prop32
280
     0
102
RTVSPost2010PropOp32
 70
     0
102
RTVSPost2010Prop33
280
     0
102
RTVSPost2010PropOp33
 70
     0
102
RTVSPost2010Prop34
280
     0
102
RTVSPost2010PropOp34
 70
     0
102
RTVSPost2010Prop35
280
     0
102
RTVSPost2010PropOp35
 70
     0
102
RTVSPost2010Prop36
280
     0
102
RTVSPost2010PropOp36
 70
     0
102
RTVSPost2010Prop37
 90
       50
102
RTVSPost2010PropOp37
 70
     0
102
RTVSPost2010Prop38
140
0.0
102
RTVSPost2010PropOp38
 70
     0
102
RTVSPost2010Prop39
140
1.0
102
RTVSPost2010PropOp39
 70
     0
102
RTVSPost2010Prop40
 90
        0
102
RTVSPost2010PropOp40
 70
     0
102
RTVSPost2010Prop41ColorIndex
 90
       18
102
RTVSPost2010Prop41ColorRGB
 90
        0
102
RTVSPost2010PropOp41
 70
     0
102
RTVSPost2010Prop42
 90
       50
102
RTVSPost2010PropOp42
 70
     0
102
RTVSPost2010Prop43
 90
        3
102
RTVSPost2010PropOp43
 70
     0
102
RTVSPost2010Prop44ColorIndex
 90
        5
102
RTVSPost2010Prop44ColorRGB
 90
      255
102
RTVSPost2010PropOp44
 70
     0
102
RTVSPost2010Prop45
280
     0
102
RTVSPost2010PropOp45
 70
     0
102
RTVSPost2010Prop46
 90
       50
102
RTVSPost2010PropOp46
 70
     0
102
RTVSPost2010Prop47
 90
       50
102
RTVSPost2010PropOp47
 70
     0
102
RTVSPost2010Prop48
 90
       50
102
RTVSPost2010PropOp48
 70
     0
102
RTVSPost2010Prop49
280
     0
102
RTVSPost2010PropOp49
 70
     0
102
RTVSPost2010Prop50
 90
       50
102
RTVSPost2010PropOp50
 70
     0
102
RTVSPost2010Prop51ColorIndex
 90
      256
102
RTVSPost2010Prop51ColorRGB
 90
-16777216
102
RTVSPost2010PropOp51
 70
     0
102
RTVSPost2010Prop52
140
1.0
102
RTVSPost2010PropOp52
 70
     0
102
RTVSPost2010Prop53
 90
        2
102
RTVSPost2010PropOp53
 70
     0
102
RTVSPost2010Prop54
  1
strokes_ogs.tif
102
RTVSPost2010PropOp54
 70
     0
102
RTVSPost2010Prop55
280
     0
102
RTVSPost2010PropOp55
 70
     0
102
RTVSPost2010Prop56
140
1.0
102
RTVSPost2010PropOp56
 70
     0
102
RTVSPost2010Prop57
140
1.0
102
RTVSPost2010PropOp57
 70
     0
  0
XRECORD
  5
468
102
{ACAD_REACTORS
330
467
102
}
330
467
100
AcDbXrecord
280
     1
102
RTVSPropertyOp0
 70
     1
102
RTVSPropertyOp1
 70
     1
102
RTVSPropertyOp2
 70
     1
102
RTVSPropertyOp3
 70
     1
102
RTVSPropertyOp4
 70
     1
102
RTVSPropertyOp5
 70
     1
102
RTVSPropertyOp6
 70
     1
102
RTVSPropertyOp7
 70
     1
102
RTVSPropertyOp8
 70
     1
102
RTVSPropertyOp9
 70
     1
102
RTVSPropertyOp10
 70
     1
102
RTVSPropertyOp11
 70
     1
102
RTVSPropertyOp12
 70
     1
102
RTVSPropertyOp13
 70
     1
102
RTVSPropertyOp14
 70
     1
102
RTVSPropertyOp15
 70
     1
102
RTVSPropertyOp16
 70
     1
102
RTVSPropertyOp17
 70
     1
102
RTVSPropertyOp18
 70
     1
102
RTVSPropertyOp19
 70
     1
102
RTVSPropertyOp20
 70
     1
102
RTVSPropertyOp21
 70
     1
102
RTVSPropertyOp22
 70
     1
102
RTVSPropertyOp23
 70
     1
102
RTVSPropertyOp24
 70
     1
102
RTVSPropertyOp25
 70
     1
102
RTVSPropertyOp26
 70
     1
102
RTVSPropertyOp27
 70
     1
102
RTVSPropertyOp28
 70
     1
102
RTVSPropertyOp29
 70
     1
102
RTVSPropertyOp30
 70
     1
102
RTVSPropertyOp31
 70
     1
102
RTVSPropertyOp32
 70
     1
102
RTVSPropertyOp33
 70
     1
102
RTVSPropertyOp34
 70
     1
102
RTVSPropertyOp35
 70
     1
102
RTVSPropertyOp36
 70
     1
102
RTVSPropertyOp37
 70
     1
102
RTVSPropertyOp38
 70
     1
102
RTVSPropertyOp39
 70
     1
102
RTVSPropertyOp40
 70
     1
102
RTVSPropertyOp41
 70
     1
102
RTVSPropertyOp42
 70
     1
102
RTVSPropertyOp43
 70
     1
102
RTVSPropertyOp44
 70
     1
102
RTVSPropertyOp45
 70
     1
102
RTVSPropertyOp46
 70
     1
102
RTVSPropertyOp47
 70
     1
102
RTVSPropertyOp48
 70
     1
102
RTVSPropertyOp49
 70
     1
102
RTVSPropertyOp50
 70
     1
102
RTVSPropertyOp51
 70
     0
102
RTVSPropertyOp52
 70
     0
102
RTVSPropertyOp53
 70
     1
102
RTVSPropertyOp54
 70
     1
102
RTVSPropertyOp55
 70
     1
102
RTVSPropertyOp56
 70
     1
102
RTVSPropertyOp57
 70
     1
102
RTVSPost2010Prop28
280
     0
102
RTVSPost2010PropOp28
 70
     1
102
RTVSPost2010Prop29
280
     1
102
RTVSPost2010PropOp29
 70
     1
102
RTVSPost2010Prop30
280
     1
102
RTVSPost2010PropOp30
 70
     1
102
RTVSPost2010Prop31
280
     0
102
RTVSPost2010PropOp31
 70
     1
102
RTVSPost2010Prop32
280
     0
102
RTVSPost2010PropOp32
 70
     1
102
RTVSPost2010Prop33
280
     0
102
RTVSPost2010PropOp33
 70
     1
102
RTVSPost2010Prop34
280
     0
102
RTVSPost2010PropOp34
 70
     1
102
RTVSPost2010Prop35
280
     0
102
RTVSPost2010PropOp35
 70
     1
102
RTVSPost2010Prop36
280
     0
102
RTVSPost2010PropOp36
 70
     1
102
RTVSPost2010Prop37
 90
       50
102
RTVSPost2010PropOp37
 70
     1
102
RTVSPost2010Prop38
140
0.0
102
RTVSPost2010PropOp38
 70
     1
102
RTVSPost2010Prop39
140
1.0
102
RTVSPost2010PropOp39
 70
     1
102
RTVSPost2010Prop40
 90
        0
102
RTVSPost2010PropOp40
 70
     1
102
RTVSPost2010Prop41ColorIndex
 90
       18
102
RTVSPost2010Prop41ColorRGB
 90
        0
102
RTVSPost2010PropOp41
 70
     1
102
RTVSPost2010Prop42
 90
       50
102
RTVSPost2010PropOp42
 70
     1
102
RTVSPost2010Prop43
 90
        3
102
RTVSPost2010PropOp43
 70
     1
102
RTVSPost2010Prop44ColorIndex
 90
        5
102
RTVSPost2010Prop44ColorRGB
 90
      255
102
RTVSPost2010PropOp44
 70
     1
102
RTVSPost2010Prop45
280
     0
102
RTVSPost2010PropOp45
 70
     1
102
RTVSPost2010Prop46
 90
       50
102
RTVSPost2010PropOp46
 70
     1
102
RTVSPost2010Prop47
 90
       50
102
RTVSPost2010PropOp47
 70
     1
102
RTVSPost2010Prop48
 90
       50
102
RTVSPost2010PropOp48
 70
     1
102
RTVSPost2010Prop49
280
     0
102
RTVSPost2010PropOp49
 70
     1
102
RTVSPost2010Prop50
 90
       50
102
RTVSPost2010PropOp50
 70
     1
102
RTVSPost2010Prop51ColorIndex
 90
      256
102
RTVSPost2010Prop51ColorRGB
 90
-16777216
102
RTVSPost2010PropOp51
 70
     0
102
RTVSPost2010Prop52
140
1.0
102
RTVSPost2010PropOp52
 70
     0
102
RTVSPost2010Prop53
 90
        2
102
RTVSPost2010PropOp53
 70
     1
102
RTVSPost2010Prop54
  1
strokes_ogs.tif
102
RTVSPost2010PropOp54
 70
     1
102
RTVSPost2010Prop55
280
     0
102
RTVSPost2010PropOp55
 70
     1
102
RTVSPost2010Prop56
140
1.0
102
RTVSPost2010PropOp56
 70
     1
102
RTVSPost2010Prop57
140
1.0
102
RTVSPost2010PropOp57
 70
     1
  0
XRECORD
  5
44C
102
{ACAD_REACTORS
330
44B
102
}
330
44B
100
AcDbXrecord
280
     1
102
RTVSPropertyOp0
 70
     1
102
RTVSPropertyOp1
 70
     1
102
RTVSPropertyOp2
 70
     1
102
RTVSPropertyOp3
 70
     1
102
RTVSPropertyOp4
 70
     1
102
RTVSPropertyOp5
 70
     1
102
RTVSPropertyOp6
 70
     1
102
RTVSPropertyOp7
 70
     1
102
RTVSPropertyOp8
 70
     1
102
RTVSPropertyOp9
 70
     1
102
RTVSPropertyOp10
 70
     1
102
RTVSPropertyOp11
 70
     1
102
RTVSPropertyOp12
 70
     1
102
RTVSPropertyOp13
 70
     1
102
RTVSPropertyOp14
 70
     1
102
RTVSPropertyOp15
 70
     1
102
RTVSPropertyOp16
 70
     1
102
RTVSPropertyOp17
 70
     1
102
RTVSPropertyOp18
 70
     1
102
RTVSPropertyOp19
 70
     1
102
RTVSPropertyOp20
 70
     1
102
RTVSPropertyOp21
 70
     1
102
RTVSPropertyOp22
 70
     1
102
RTVSPropertyOp23
 70
     1
102
RTVSPropertyOp24
 70
     1
102
RTVSPropertyOp25
 70
     1
102
RTVSPropertyOp26
 70
     1
102
RTVSPropertyOp27
 70
     1
102
RTVSPropertyOp28
 70
     1
102
RTVSPropertyOp29
 70
     1
102
RTVSPropertyOp30
 70
     1
102
RTVSPropertyOp31
 70
     1
102
RTVSPropertyOp32
 70
     1
102
RTVSPropertyOp33
 70
     1
102
RTVSPropertyOp34
 70
     1
102
RTVSPropertyOp35
 70
     1
102
RTVSPropertyOp36
 70
     1
102
RTVSPropertyOp37
 70
     1
102
RTVSPropertyOp38
 70
     1
102
RTVSPropertyOp39
 70
     1
102
RTVSPropertyOp40
 70
     1
102
RTVSPropertyOp41
 70
     1
102
RTVSPropertyOp42
 70
     1
102
RTVSPropertyOp43
 70
     1
102
RTVSPropertyOp44
 70
     1
102
RTVSPropertyOp45
 70
     1
102
RTVSPropertyOp46
 70
     1
102
RTVSPropertyOp47
 70
     1
102
RTVSPropertyOp48
 70
     1
102
RTVSPropertyOp49
 70
     1
102
RTVSPropertyOp50
 70
     1
102
RTVSPropertyOp51
 70
     0
102
RTVSPropertyOp52
 70
     0
102
RTVSPropertyOp53
 70
     1
102
RTVSPropertyOp54
 70
     1
102
RTVSPropertyOp55
 70
     1
102
RTVSPropertyOp56
 70
     1
102
RTVSPropertyOp57
 70
     1
102
RTVSPost2010Prop28
280
     0
102
RTVSPost2010PropOp28
 70
     1
102
RTVSPost2010Prop29
280
     1
102
RTVSPost2010PropOp29
 70
     1
102
RTVSPost2010Prop30
280
     1
102
RTVSPost2010PropOp30
 70
     1
102
RTVSPost2010Prop31
280
     0
102
RTVSPost2010PropOp31
 70
     1
102
RTVSPost2010Prop32
280
     0
102
RTVSPost2010PropOp32
 70
     1
102
RTVSPost2010Prop33
280
     0
102
RTVSPost2010PropOp33
 70
     1
102
RTVSPost2010Prop34
280
     0
102
RTVSPost2010PropOp34
 70
     1
102
RTVSPost2010Prop35
280
     0
102
RTVSPost2010PropOp35
 70
     1
102
RTVSPost2010Prop36
280
     0
102
RTVSPost2010PropOp36
 70
     1
102
RTVSPost2010Prop37
 90
       50
102
RTVSPost2010PropOp37
 70
     1
102
RTVSPost2010Prop38
140
0.0
102
RTVSPost2010PropOp38
 70
     1
102
RTVSPost2010Prop39
140
1.0
102
RTVSPost2010PropOp39
 70
     1
102
RTVSPost2010Prop40
 90
        0
102
RTVSPost2010PropOp40
 70
     1
102
RTVSPost2010Prop41ColorIndex
 90
       18
102
RTVSPost2010Prop41ColorRGB
 90
        0
102
RTVSPost2010PropOp41
 70
     1
102
RTVSPost2010Prop42
 90
       50
102
RTVSPost2010PropOp42
 70
     1
102
RTVSPost2010Prop43
 90
        3
102
RTVSPost2010PropOp43
 70
     1
102
RTVSPost2010Prop44ColorIndex
 90
        5
102
RTVSPost2010Prop44ColorRGB
 90
      255
102
RTVSPost2010PropOp44
 70
     1
102
RTVSPost2010Prop45
280
     0
102
RTVSPost2010PropOp45
 70
     1
102
RTVSPost2010Prop46
 90
       50
102
RTVSPost2010PropOp46
 70
     1
102
RTVSPost2010Prop47
 90
       50
102
RTVSPost2010PropOp47
 70
     1
102
RTVSPost2010Prop48
 90
       50
102
RTVSPost2010PropOp48
 70
     1
102
RTVSPost2010Prop49
280
     0
102
RTVSPost2010PropOp49
 70
     1
102
RTVSPost2010Prop50
 90
       50
102
RTVSPost2010PropOp50
 70
     1
102
RTVSPost2010Prop51ColorIndex
 90
      256
102
RTVSPost2010Prop51ColorRGB
 90
-16777216
102
RTVSPost2010PropOp51
 70
     0
102
RTVSPost2010Prop52
140
1.0
102
RTVSPost2010PropOp52
 70
     0
102
RTVSPost2010Prop53
 90
        2
102
RTVSPost2010PropOp53
 70
     1
102
RTVSPost2010Prop54
  1
strokes_ogs.tif
102
RTVSPost2010PropOp54
 70
     1
102
RTVSPost2010Prop55
280
     0
102
RTVSPost2010PropOp55
 70
     1
102
RTVSPost2010Prop56
140
1.0
102
RTVSPost2010PropOp56
 70
     1
102
RTVSPost2010Prop57
140
1.0
102
RTVSPost2010PropOp57
 70
     1
  0
XRECORD
  5
44E
102
{ACAD_REACTORS
330
44D
102
}
330
44D
100
AcDbXrecord
280
     1
102
RTVSPropertyOp0
 70
     1
102
RTVSPropertyOp1
 70
     1
102
RTVSPropertyOp2
 70
     1
102
RTVSPropertyOp3
 70
     1
102
RTVSPropertyOp4
 70
     1
102
RTVSPropertyOp5
 70
     1
102
RTVSPropertyOp6
 70
     1
102
RTVSPropertyOp7
 70
     1
102
RTVSPropertyOp8
 70
     1
102
RTVSPropertyOp9
 70
     1
102
RTVSPropertyOp10
 70
     1
102
RTVSPropertyOp11
 70
     1
102
RTVSPropertyOp12
 70
     1
102
RTVSPropertyOp13
 70
     1
102
RTVSPropertyOp14
 70
     1
102
RTVSPropertyOp15
 70
     1
102
RTVSPropertyOp16
 70
     1
102
RTVSPropertyOp17
 70
     1
102
RTVSPropertyOp18
 70
     1
102
RTVSPropertyOp19
 70
     1
102
RTVSPropertyOp20
 70
     1
102
RTVSPropertyOp21
 70
     1
102
RTVSPropertyOp22
 70
     1
102
RTVSPropertyOp23
 70
     1
102
RTVSPropertyOp24
 70
     1
102
RTVSPropertyOp25
 70
     1
102
RTVSPropertyOp26
 70
     1
102
RTVSPropertyOp27
 70
     1
102
RTVSPropertyOp28
 70
     1
102
RTVSPropertyOp29
 70
     1
102
RTVSPropertyOp30
 70
     1
102
RTVSPropertyOp31
 70
     1
102
RTVSPropertyOp32
 70
     1
102
RTVSPropertyOp33
 70
     1
102
RTVSPropertyOp34
 70
     1
102
RTVSPropertyOp35
 70
     1
102
RTVSPropertyOp36
 70
     1
102
RTVSPropertyOp37
 70
     1
102
RTVSPropertyOp38
 70
     1
102
RTVSPropertyOp39
 70
     1
102
RTVSPropertyOp40
 70
     1
102
RTVSPropertyOp41
 70
     1
102
RTVSPropertyOp42
 70
     1
102
RTVSPropertyOp43
 70
     1
102
RTVSPropertyOp44
 70
     1
102
RTVSPropertyOp45
 70
     1
102
RTVSPropertyOp46
 70
     1
102
RTVSPropertyOp47
 70
     1
102
RTVSPropertyOp48
 70
     1
102
RTVSPropertyOp49
 70
     1
102
RTVSPropertyOp50
 70
     1
102
RTVSPropertyOp51
 70
     0
102
RTVSPropertyOp52
 70
     0
102
RTVSPropertyOp53
 70
     1
102
RTVSPropertyOp54
 70
     1
102
RTVSPropertyOp55
 70
     1
102
RTVSPropertyOp56
 70
     1
102
RTVSPropertyOp57
 70
     1
102
RTVSPost2010Prop28
280
     0
102
RTVSPost2010PropOp28
 70
     1
102
RTVSPost2010Prop29
280
     1
102
RTVSPost2010PropOp29
 70
     1
102
RTVSPost2010Prop30
280
     1
102
RTVSPost2010PropOp30
 70
     1
102
RTVSPost2010Prop31
280
     0
102
RTVSPost2010PropOp31
 70
     1
102
RTVSPost2010Prop32
280
     0
102
RTVSPost2010PropOp32
 70
     1
102
RTVSPost2010Prop33
280
     0
102
RTVSPost2010PropOp33
 70
     1
102
RTVSPost2010Prop34
280
     0
102
RTVSPost2010PropOp34
 70
     1
102
RTVSPost2010Prop35
280
     0
102
RTVSPost2010PropOp35
 70
     1
102
RTVSPost2010Prop36
280
     0
102
RTVSPost2010PropOp36
 70
     1
102
RTVSPost2010Prop37
 90
       50
102
RTVSPost2010PropOp37
 70
     1
102
RTVSPost2010Prop38
140
0.0
102
RTVSPost2010PropOp38
 70
     1
102
RTVSPost2010Prop39
140
1.0
102
RTVSPost2010PropOp39
 70
     1
102
RTVSPost2010Prop40
 90
        0
102
RTVSPost2010PropOp40
 70
     1
102
RTVSPost2010Prop41ColorIndex
 90
       18
102
RTVSPost2010Prop41ColorRGB
 90
        0
102
RTVSPost2010PropOp41
 70
     1
102
RTVSPost2010Prop42
 90
       50
102
RTVSPost2010PropOp42
 70
     1
102
RTVSPost2010Prop43
 90
        3
102
RTVSPost2010PropOp43
 70
     1
102
RTVSPost2010Prop44ColorIndex
 90
        5
102
RTVSPost2010Prop44ColorRGB
 90
      255
102
RTVSPost2010PropOp44
 70
     1
102
RTVSPost2010Prop45
280
     0
102
RTVSPost2010PropOp45
 70
     1
102
RTVSPost2010Prop46
 90
       50
102
RTVSPost2010PropOp46
 70
     1
102
RTVSPost2010Prop47
 90
       50
102
RTVSPost2010PropOp47
 70
     1
102
RTVSPost2010Prop48
 90
       50
102
RTVSPost2010PropOp48
 70
     1
102
RTVSPost2010Prop49
280
     0
102
RTVSPost2010PropOp49
 70
     1
102
RTVSPost2010Prop50
 90
       50
102
RTVSPost2010PropOp50
 70
     1
102
RTVSPost2010Prop51ColorIndex
 90
      256
102
RTVSPost2010Prop51ColorRGB
 90
-16777216
102
RTVSPost2010PropOp51
 70
     0
102
RTVSPost2010Prop52
140
1.0
102
RTVSPost2010PropOp52
 70
     0
102
RTVSPost2010Prop53
 90
        2
102
RTVSPost2010PropOp53
 70
     1
102
RTVSPost2010Prop54
  1
strokes_ogs.tif
102
RTVSPost2010PropOp54
 70
     1
102
RTVSPost2010Prop55
280
     0
102
RTVSPost2010PropOp55
 70
     1
102
RTVSPost2010Prop56
140
1.0
102
RTVSPost2010PropOp56
 70
     1
102
RTVSPost2010Prop57
140
1.0
102
RTVSPost2010PropOp57
 70
     1
  0
XRECORD
  5
450
102
{ACAD_REACTORS
330
44F
102
}
330
44F
100
AcDbXrecord
280
     1
102
RTVSPropertyOp0
 70
     1
102
RTVSPropertyOp1
 70
     1
102
RTVSPropertyOp2
 70
     1
102
RTVSPropertyOp3
 70
     1
102
RTVSPropertyOp4
 70
     1
102
RTVSPropertyOp5
 70
     1
102
RTVSPropertyOp6
 70
     1
102
RTVSPropertyOp7
 70
     1
102
RTVSPropertyOp8
 70
     1
102
RTVSPropertyOp9
 70
     1
102
RTVSPropertyOp10
 70
     1
102
RTVSPropertyOp11
 70
     1
102
RTVSPropertyOp12
 70
     1
102
RTVSPropertyOp13
 70
     1
102
RTVSPropertyOp14
 70
     1
102
RTVSPropertyOp15
 70
     1
102
RTVSPropertyOp16
 70
     1
102
RTVSPropertyOp17
 70
     1
102
RTVSPropertyOp18
 70
     1
102
RTVSPropertyOp19
 70
     1
102
RTVSPropertyOp20
 70
     1
102
RTVSPropertyOp21
 70
     1
102
RTVSPropertyOp22
 70
     1
102
RTVSPropertyOp23
 70
     1
102
RTVSPropertyOp24
 70
     1
102
RTVSPropertyOp25
 70
     1
102
RTVSPropertyOp26
 70
     1
102
RTVSPropertyOp27
 70
     1
102
RTVSPropertyOp28
 70
     1
102
RTVSPropertyOp29
 70
     1
102
RTVSPropertyOp30
 70
     1
102
RTVSPropertyOp31
 70
     1
102
RTVSPropertyOp32
 70
     1
102
RTVSPropertyOp33
 70
     1
102
RTVSPropertyOp34
 70
     1
102
RTVSPropertyOp35
 70
     1
102
RTVSPropertyOp36
 70
     1
102
RTVSPropertyOp37
 70
     1
102
RTVSPropertyOp38
 70
     1
102
RTVSPropertyOp39
 70
     1
102
RTVSPropertyOp40
 70
     1
102
RTVSPropertyOp41
 70
     1
102
RTVSPropertyOp42
 70
     1
102
RTVSPropertyOp43
 70
     1
102
RTVSPropertyOp44
 70
     1
102
RTVSPropertyOp45
 70
     1
102
RTVSPropertyOp46
 70
     1
102
RTVSPropertyOp47
 70
     1
102
RTVSPropertyOp48
 70
     1
102
RTVSPropertyOp49
 70
     1
102
RTVSPropertyOp50
 70
     1
102
RTVSPropertyOp51
 70
     0
102
RTVSPropertyOp52
 70
     0
102
RTVSPropertyOp53
 70
     1
102
RTVSPropertyOp54
 70
     1
102
RTVSPropertyOp55
 70
     1
102
RTVSPropertyOp56
 70
     1
102
RTVSPropertyOp57
 70
     1
102
RTVSPost2010Prop28
280
     0
102
RTVSPost2010PropOp28
 70
     1
102
RTVSPost2010Prop29
280
     1
102
RTVSPost2010PropOp29
 70
     1
102
RTVSPost2010Prop30
280
     1
102
RTVSPost2010PropOp30
 70
     1
102
RTVSPost2010Prop31
280
     0
102
RTVSPost2010PropOp31
 70
     1
102
RTVSPost2010Prop32
280
     0
102
RTVSPost2010PropOp32
 70
     1
102
RTVSPost2010Prop33
280
     0
102
RTVSPost2010PropOp33
 70
     1
102
RTVSPost2010Prop34
280
     0
102
RTVSPost2010PropOp34
 70
     1
102
RTVSPost2010Prop35
280
     0
102
RTVSPost2010PropOp35
 70
     1
102
RTVSPost2010Prop36
280
     0
102
RTVSPost2010PropOp36
 70
     1
102
RTVSPost2010Prop37
 90
       50
102
RTVSPost2010PropOp37
 70
     1
102
RTVSPost2010Prop38
140
0.0
102
RTVSPost2010PropOp38
 70
     1
102
RTVSPost2010Prop39
140
1.0
102
RTVSPost2010PropOp39
 70
     1
102
RTVSPost2010Prop40
 90
        0
102
RTVSPost2010PropOp40
 70
     1
102
RTVSPost2010Prop41ColorIndex
 90
       18
102
RTVSPost2010Prop41ColorRGB
 90
        0
102
RTVSPost2010PropOp41
 70
     1
102
RTVSPost2010Prop42
 90
       50
102
RTVSPost2010PropOp42
 70
     1
102
RTVSPost2010Prop43
 90
        3
102
RTVSPost2010PropOp43
 70
     1
102
RTVSPost2010Prop44ColorIndex
 90
        5
102
RTVSPost2010Prop44ColorRGB
 90
      255
102
RTVSPost2010PropOp44
 70
     1
102
RTVSPost2010Prop45
280
     0
102
RTVSPost2010PropOp45
 70
     1
102
RTVSPost2010Prop46
 90
       50
102
RTVSPost2010PropOp46
 70
     1
102
RTVSPost2010Prop47
 90
       50
102
RTVSPost2010PropOp47
 70
     1
102
RTVSPost2010Prop48
 90
       50
102
RTVSPost2010PropOp48
 70
     1
102
RTVSPost2010Prop49
280
     0
102
RTVSPost2010PropOp49
 70
     1
102
RTVSPost2010Prop50
 90
       50
102
RTVSPost2010PropOp50
 70
     1
102
RTVSPost2010Prop51ColorIndex
 90
      256
102
RTVSPost2010Prop51ColorRGB
 90
-16777216
102
RTVSPost2010PropOp51
 70
     0
102
RTVSPost2010Prop52
140
1.0
102
RTVSPost2010PropOp52
 70
     0
102
RTVSPost2010Prop53
 90
        2
102
RTVSPost2010PropOp53
 70
     1
102
RTVSPost2010Prop54
  1
strokes_ogs.tif
102
RTVSPost2010PropOp54
 70
     1
102
RTVSPost2010Prop55
280
     0
102
RTVSPost2010PropOp55
 70
     1
102
RTVSPost2010Prop56
140
1.0
102
RTVSPost2010PropOp56
 70
     1
102
RTVSPost2010Prop57
140
1.0
102
RTVSPost2010PropOp57
 70
     1
  0
XRECORD
  5
452
102
{ACAD_REACTORS
330
451
102
}
330
451
100
AcDbXrecord
280
     1
102
RTVSPropertyOp0
 70
     1
102
RTVSPropertyOp1
 70
     1
102
RTVSPropertyOp2
 70
     1
102
RTVSPropertyOp3
 70
     1
102
RTVSPropertyOp4
 70
     1
102
RTVSPropertyOp5
 70
     1
102
RTVSPropertyOp6
 70
     1
102
RTVSPropertyOp7
 70
     1
102
RTVSPropertyOp8
 70
     1
102
RTVSPropertyOp9
 70
     1
102
RTVSPropertyOp10
 70
     1
102
RTVSPropertyOp11
 70
     1
102
RTVSPropertyOp12
 70
     1
102
RTVSPropertyOp13
 70
     1
102
RTVSPropertyOp14
 70
     1
102
RTVSPropertyOp15
 70
     1
102
RTVSPropertyOp16
 70
     1
102
RTVSPropertyOp17
 70
     1
102
RTVSPropertyOp18
 70
     1
102
RTVSPropertyOp19
 70
     1
102
RTVSPropertyOp20
 70
     1
102
RTVSPropertyOp21
 70
     1
102
RTVSPropertyOp22
 70
     1
102
RTVSPropertyOp23
 70
     1
102
RTVSPropertyOp24
 70
     1
102
RTVSPropertyOp25
 70
     1
102
RTVSPropertyOp26
 70
     1
102
RTVSPropertyOp27
 70
     1
102
RTVSPropertyOp28
 70
     1
102
RTVSPropertyOp29
 70
     1
102
RTVSPropertyOp30
 70
     1
102
RTVSPropertyOp31
 70
     1
102
RTVSPropertyOp32
 70
     1
102
RTVSPropertyOp33
 70
     1
102
RTVSPropertyOp34
 70
     1
102
RTVSPropertyOp35
 70
     1
102
RTVSPropertyOp36
 70
     1
102
RTVSPropertyOp37
 70
     1
102
RTVSPropertyOp38
 70
     1
102
RTVSPropertyOp39
 70
     1
102
RTVSPropertyOp40
 70
     1
102
RTVSPropertyOp41
 70
     1
102
RTVSPropertyOp42
 70
     1
102
RTVSPropertyOp43
 70
     1
102
RTVSPropertyOp44
 70
     1
102
RTVSPropertyOp45
 70
     1
102
RTVSPropertyOp46
 70
     1
102
RTVSPropertyOp47
 70
     1
102
RTVSPropertyOp48
 70
     1
102
RTVSPropertyOp49
 70
     1
102
RTVSPropertyOp50
 70
     1
102
RTVSPropertyOp51
 70
     0
102
RTVSPropertyOp52
 70
     0
102
RTVSPropertyOp53
 70
     1
102
RTVSPropertyOp54
 70
     1
102
RTVSPropertyOp55
 70
     1
102
RTVSPropertyOp56
 70
     1
102
RTVSPropertyOp57
 70
     1
102
RTVSPost2010Prop28
280
     0
102
RTVSPost2010PropOp28
 70
     1
102
RTVSPost2010Prop29
280
     1
102
RTVSPost2010PropOp29
 70
     1
102
RTVSPost2010Prop30
280
     1
102
RTVSPost2010PropOp30
 70
     1
102
RTVSPost2010Prop31
280
     0
102
RTVSPost2010PropOp31
 70
     1
102
RTVSPost2010Prop32
280
     0
102
RTVSPost2010PropOp32
 70
     1
102
RTVSPost2010Prop33
280
     0
102
RTVSPost2010PropOp33
 70
     1
102
RTVSPost2010Prop34
280
     0
102
RTVSPost2010PropOp34
 70
     1
102
RTVSPost2010Prop35
280
     0
102
RTVSPost2010PropOp35
 70
     1
102
RTVSPost2010Prop36
280
     0
102
RTVSPost2010PropOp36
 70
     1
102
RTVSPost2010Prop37
 90
       50
102
RTVSPost2010PropOp37
 70
     1
102
RTVSPost2010Prop38
140
0.0
102
RTVSPost2010PropOp38
 70
     1
102
RTVSPost2010Prop39
140
1.0
102
RTVSPost2010PropOp39
 70
     1
102
RTVSPost2010Prop40
 90
        0
102
RTVSPost2010PropOp40
 70
     1
102
RTVSPost2010Prop41ColorIndex
 90
       18
102
RTVSPost2010Prop41ColorRGB
 90
        0
102
RTVSPost2010PropOp41
 70
     1
102
RTVSPost2010Prop42
 90
       50
102
RTVSPost2010PropOp42
 70
     1
102
RTVSPost2010Prop43
 90
        3
102
RTVSPost2010PropOp43
 70
     1
102
RTVSPost2010Prop44ColorIndex
 90
        5
102
RTVSPost2010Prop44ColorRGB
 90
      255
102
RTVSPost2010PropOp44
 70
     1
102
RTVSPost2010Prop45
280
     0
102
RTVSPost2010PropOp45
 70
     1
102
RTVSPost2010Prop46
 90
       50
102
RTVSPost2010PropOp46
 70
     1
102
RTVSPost2010Prop47
 90
       50
102
RTVSPost2010PropOp47
 70
     1
102
RTVSPost2010Prop48
 90
       50
102
RTVSPost2010PropOp48
 70
     1
102
RTVSPost2010Prop49
280
     0
102
RTVSPost2010PropOp49
 70
     1
102
RTVSPost2010Prop50
 90
       50
102
RTVSPost2010PropOp50
 70
     1
102
RTVSPost2010Prop51ColorIndex
 90
      256
102
RTVSPost2010Prop51ColorRGB
 90
-16777216
102
RTVSPost2010PropOp51
 70
     0
102
RTVSPost2010Prop52
140
1.0
102
RTVSPost2010PropOp52
 70
     0
102
RTVSPost2010Prop53
 90
        2
102
RTVSPost2010PropOp53
 70
     1
102
RTVSPost2010Prop54
  1
strokes_ogs.tif
102
RTVSPost2010PropOp54
 70
     1
102
RTVSPost2010Prop55
280
     0
102
RTVSPost2010PropOp55
 70
     1
102
RTVSPost2010Prop56
140
1.0
102
RTVSPost2010PropOp56
 70
     1
102
RTVSPost2010Prop57
140
1.0
102
RTVSPost2010PropOp57
 70
     1
  0
XRECORD
  5
458
102
{ACAD_REACTORS
330
457
102
}
330
457
100
AcDbXrecord
280
     1
102
RTVSPropertyOp0
 70
     1
102
RTVSPropertyOp1
 70
     1
102
RTVSPropertyOp2
 70
     1
102
RTVSPropertyOp3
 70
     1
102
RTVSPropertyOp4
 70
     1
102
RTVSPropertyOp5
 70
     1
102
RTVSPropertyOp6
 70
     1
102
RTVSPropertyOp7
 70
     1
102
RTVSPropertyOp8
 70
     1
102
RTVSPropertyOp9
 70
     1
102
RTVSPropertyOp10
 70
     1
102
RTVSPropertyOp11
 70
     1
102
RTVSPropertyOp12
 70
     1
102
RTVSPropertyOp13
 70
     1
102
RTVSPropertyOp14
 70
     1
102
RTVSPropertyOp15
 70
     1
102
RTVSPropertyOp16
 70
     1
102
RTVSPropertyOp17
 70
     1
102
RTVSPropertyOp18
 70
     1
102
RTVSPropertyOp19
 70
     1
102
RTVSPropertyOp20
 70
     1
102
RTVSPropertyOp21
 70
     1
102
RTVSPropertyOp22
 70
     1
102
RTVSPropertyOp23
 70
     1
102
RTVSPropertyOp24
 70
     1
102
RTVSPropertyOp25
 70
     1
102
RTVSPropertyOp26
 70
     1
102
RTVSPropertyOp27
 70
     1
102
RTVSPropertyOp28
 70
     1
102
RTVSPropertyOp29
 70
     1
102
RTVSPropertyOp30
 70
     1
102
RTVSPropertyOp31
 70
     1
102
RTVSPropertyOp32
 70
     1
102
RTVSPropertyOp33
 70
     1
102
RTVSPropertyOp34
 70
     1
102
RTVSPropertyOp35
 70
     1
102
RTVSPropertyOp36
 70
     1
102
RTVSPropertyOp37
 70
     1
102
RTVSPropertyOp38
 70
     1
102
RTVSPropertyOp39
 70
     1
102
RTVSPropertyOp40
 70
     1
102
RTVSPropertyOp41
 70
     1
102
RTVSPropertyOp42
 70
     1
102
RTVSPropertyOp43
 70
     1
102
RTVSPropertyOp44
 70
     1
102
RTVSPropertyOp45
 70
     1
102
RTVSPropertyOp46
 70
     1
102
RTVSPropertyOp47
 70
     1
102
RTVSPropertyOp48
 70
     1
102
RTVSPropertyOp49
 70
     1
102
RTVSPropertyOp50
 70
     1
102
RTVSPropertyOp51
 70
     0
102
RTVSPropertyOp52
 70
     0
102
RTVSPropertyOp53
 70
     1
102
RTVSPropertyOp54
 70
     1
102
RTVSPropertyOp55
 70
     1
102
RTVSPropertyOp56
 70
     1
102
RTVSPropertyOp57
 70
     1
102
RTVSPost2010Prop28
280
     0
102
RTVSPost2010PropOp28
 70
     1
102
RTVSPost2010Prop29
280
     1
102
RTVSPost2010PropOp29
 70
     1
102
RTVSPost2010Prop30
280
     1
102
RTVSPost2010PropOp30
 70
     1
102
RTVSPost2010Prop31
280
     0
102
RTVSPost2010PropOp31
 70
     1
102
RTVSPost2010Prop32
280
     0
102
RTVSPost2010PropOp32
 70
     1
102
RTVSPost2010Prop33
280
     0
102
RTVSPost2010PropOp33
 70
     1
102
RTVSPost2010Prop34
280
     0
102
RTVSPost2010PropOp34
 70
     1
102
RTVSPost2010Prop35
280
     0
102
RTVSPost2010PropOp35
 70
     1
102
RTVSPost2010Prop36
280
     0
102
RTVSPost2010PropOp36
 70
     1
102
RTVSPost2010Prop37
 90
       50
102
RTVSPost2010PropOp37
 70
     1
102
RTVSPost2010Prop38
140
0.0
102
RTVSPost2010PropOp38
 70
     1
102
RTVSPost2010Prop39
140
1.0
102
RTVSPost2010PropOp39
 70
     1
102
RTVSPost2010Prop40
 90
        0
102
RTVSPost2010PropOp40
 70
     1
102
RTVSPost2010Prop41ColorIndex
 90
       18
102
RTVSPost2010Prop41ColorRGB
 90
        0
102
RTVSPost2010PropOp41
 70
     1
102
RTVSPost2010Prop42
 90
       50
102
RTVSPost2010PropOp42
 70
     1
102
RTVSPost2010Prop43
 90
        3
102
RTVSPost2010PropOp43
 70
     1
102
RTVSPost2010Prop44ColorIndex
 90
        5
102
RTVSPost2010Prop44ColorRGB
 90
      255
102
RTVSPost2010PropOp44
 70
     1
102
RTVSPost2010Prop45
280
     0
102
RTVSPost2010PropOp45
 70
     1
102
RTVSPost2010Prop46
 90
       50
102
RTVSPost2010PropOp46
 70
     1
102
RTVSPost2010Prop47
 90
       50
102
RTVSPost2010PropOp47
 70
     1
102
RTVSPost2010Prop48
 90
       50
102
RTVSPost2010PropOp48
 70
     1
102
RTVSPost2010Prop49
280
     0
102
RTVSPost2010PropOp49
 70
     1
102
RTVSPost2010Prop50
 90
       50
102
RTVSPost2010PropOp50
 70
     1
102
RTVSPost2010Prop51ColorIndex
 90
      256
102
RTVSPost2010Prop51ColorRGB
 90
-16777216
102
RTVSPost2010PropOp51
 70
     0
102
RTVSPost2010Prop52
140
1.0
102
RTVSPost2010PropOp52
 70
     0
102
RTVSPost2010Prop53
 90
        2
102
RTVSPost2010PropOp53
 70
     1
102
RTVSPost2010Prop54
  1
strokes_ogs.tif
102
RTVSPost2010PropOp54
 70
     1
102
RTVSPost2010Prop55
280
     0
102
RTVSPost2010PropOp55
 70
     1
102
RTVSPost2010Prop56
140
1.0
102
RTVSPost2010PropOp56
 70
     1
102
RTVSPost2010Prop57
140
1.0
102
RTVSPost2010PropOp57
 70
     1
  0
XRECORD
  5
46C
102
{ACAD_REACTORS
330
46B
102
}
330
46B
100
AcDbXrecord
280
     1
102
RTVSPropertyOp0
 70
     0
102
RTVSPropertyOp1
 70
     0
102
RTVSPropertyOp2
 70
     0
102
RTVSPropertyOp3
 70
     0
102
RTVSPropertyOp4
 70
     0
102
RTVSPropertyOp5
 70
     0
102
RTVSPropertyOp6
 70
     0
102
RTVSPropertyOp7
 70
     0
102
RTVSPropertyOp8
 70
     0
102
RTVSPropertyOp9
 70
     0
102
RTVSPropertyOp10
 70
     0
102
RTVSPropertyOp11
 70
     0
102
RTVSPropertyOp12
 70
     0
102
RTVSPropertyOp13
 70
     0
102
RTVSPropertyOp14
 70
     2
102
RTVSPropertyOp15
 70
     0
102
RTVSPropertyOp16
 70
     0
102
RTVSPropertyOp17
 70
     0
102
RTVSPropertyOp18
 70
     0
102
RTVSPropertyOp19
 70
     0
102
RTVSPropertyOp20
 70
     0
102
RTVSPropertyOp21
 70
     0
102
RTVSPropertyOp22
 70
     0
102
RTVSPropertyOp23
 70
     0
102
RTVSPropertyOp24
 70
     0
102
RTVSPropertyOp25
 70
     0
102
RTVSPropertyOp26
 70
     0
102
RTVSPropertyOp27
 70
     0
102
RTVSPropertyOp28
 70
     0
102
RTVSPropertyOp29
 70
     0
102
RTVSPropertyOp30
 70
     0
102
RTVSPropertyOp31
 70
     0
102
RTVSPropertyOp32
 70
     0
102
RTVSPropertyOp33
 70
     0
102
RTVSPropertyOp34
 70
     0
102
RTVSPropertyOp35
 70
     0
102
RTVSPropertyOp36
 70
     0
102
RTVSPropertyOp37
 70
     0
102
RTVSPropertyOp38
 70
     0
102
RTVSPropertyOp39
 70
     0
102
RTVSPropertyOp40
 70
     0
102
RTVSPropertyOp41
 70
     0
102
RTVSPropertyOp42
 70
     0
102
RTVSPropertyOp43
 70
     0
102
RTVSPropertyOp44
 70
     0
102
RTVSPropertyOp45
 70
     0
102
RTVSPropertyOp46
 70
     0
102
RTVSPropertyOp47
 70
     0
102
RTVSPropertyOp48
 70
     0
102
RTVSPropertyOp49
 70
     0
102
RTVSPropertyOp50
 70
     0
102
RTVSPropertyOp51
 70
     0
102
RTVSPropertyOp52
 70
     0
102
RTVSPropertyOp53
 70
     0
102
RTVSPropertyOp54
 70
     0
102
RTVSPropertyOp55
 70
     0
102
RTVSPropertyOp56
 70
     0
102
RTVSPropertyOp57
 70
     0
102
RTVSPost2010Prop28
280
     0
102
RTVSPost2010PropOp28
 70
     0
102
RTVSPost2010Prop29
280
     1
102
RTVSPost2010PropOp29
 70
     0
102
RTVSPost2010Prop30
280
     1
102
RTVSPost2010PropOp30
 70
     0
102
RTVSPost2010Prop31
280
     0
102
RTVSPost2010PropOp31
 70
     0
102
RTVSPost2010Prop32
280
     0
102
RTVSPost2010PropOp32
 70
     0
102
RTVSPost2010Prop33
280
     0
102
RTVSPost2010PropOp33
 70
     0
102
RTVSPost2010Prop34
280
     0
102
RTVSPost2010PropOp34
 70
     0
102
RTVSPost2010Prop35
280
     0
102
RTVSPost2010PropOp35
 70
     0
102
RTVSPost2010Prop36
280
     0
102
RTVSPost2010PropOp36
 70
     0
102
RTVSPost2010Prop37
 90
       50
102
RTVSPost2010PropOp37
 70
     0
102
RTVSPost2010Prop38
140
0.0
102
RTVSPost2010PropOp38
 70
     0
102
RTVSPost2010Prop39
140
1.0
102
RTVSPost2010PropOp39
 70
     0
102
RTVSPost2010Prop40
 90
        0
102
RTVSPost2010PropOp40
 70
     0
102
RTVSPost2010Prop41ColorIndex
 90
       18
102
RTVSPost2010Prop41ColorRGB
 90
        0
102
RTVSPost2010PropOp41
 70
     0
102
RTVSPost2010Prop42
 90
       50
102
RTVSPost2010PropOp42
 70
     0
102
RTVSPost2010Prop43
 90
        3
102
RTVSPost2010PropOp43
 70
     0
102
RTVSPost2010Prop44ColorIndex
 90
        5
102
RTVSPost2010Prop44ColorRGB
 90
      255
102
RTVSPost2010PropOp44
 70
     0
102
RTVSPost2010Prop45
280
     0
102
RTVSPost2010PropOp45
 70
     0
102
RTVSPost2010Prop46
 90
       50
102
RTVSPost2010PropOp46
 70
     0
102
RTVSPost2010Prop47
 90
       50
102
RTVSPost2010PropOp47
 70
     0
102
RTVSPost2010Prop48
 90
       50
102
RTVSPost2010PropOp48
 70
     0
102
RTVSPost2010Prop49
280
     0
102
RTVSPost2010PropOp49
 70
     0
102
RTVSPost2010Prop50
 90
       50
102
RTVSPost2010PropOp50
 70
     0
102
RTVSPost2010Prop51ColorIndex
 90
      256
102
RTVSPost2010Prop51ColorRGB
 90
-16777216
102
RTVSPost2010PropOp51
 70
     0
102
RTVSPost2010Prop52
140
1.0
102
RTVSPost2010PropOp52
 70
     0
102
RTVSPost2010Prop53
 90
        2
102
RTVSPost2010PropOp53
 70
     0
102
RTVSPost2010Prop54
  1
strokes_ogs.tif
102
RTVSPost2010PropOp54
 70
     0
102
RTVSPost2010Prop55
280
     0
102
RTVSPost2010PropOp55
 70
     0
102
RTVSPost2010Prop56
140
1.0
102
RTVSPost2010PropOp56
 70
     0
102
RTVSPost2010Prop57
140
1.0
102
RTVSPost2010PropOp57
 70
     0
  0
XRECORD
  5
466
102
{ACAD_REACTORS
330
465
102
}
330
465
100
AcDbXrecord
280
     1
102
RTVSPropertyOp0
 70
     1
102
RTVSPropertyOp1
 70
     1
102
RTVSPropertyOp2
 70
     1
102
RTVSPropertyOp3
 70
     1
102
RTVSPropertyOp4
 70
     1
102
RTVSPropertyOp5
 70
     1
102
RTVSPropertyOp6
 70
     1
102
RTVSPropertyOp7
 70
     1
102
RTVSPropertyOp8
 70
     1
102
RTVSPropertyOp9
 70
     1
102
RTVSPropertyOp10
 70
     1
102
RTVSPropertyOp11
 70
     1
102
RTVSPropertyOp12
 70
     1
102
RTVSPropertyOp13
 70
     1
102
RTVSPropertyOp14
 70
     1
102
RTVSPropertyOp15
 70
     1
102
RTVSPropertyOp16
 70
     1
102
RTVSPropertyOp17
 70
     1
102
RTVSPropertyOp18
 70
     1
102
RTVSPropertyOp19
 70
     1
102
RTVSPropertyOp20
 70
     1
102
RTVSPropertyOp21
 70
     1
102
RTVSPropertyOp22
 70
     1
102
RTVSPropertyOp23
 70
     1
102
RTVSPropertyOp24
 70
     1
102
RTVSPropertyOp25
 70
     1
102
RTVSPropertyOp26
 70
     1
102
RTVSPropertyOp27
 70
     1
102
RTVSPropertyOp28
 70
     1
102
RTVSPropertyOp29
 70
     1
102
RTVSPropertyOp30
 70
     1
102
RTVSPropertyOp31
 70
     1
102
RTVSPropertyOp32
 70
     1
102
RTVSPropertyOp33
 70
     1
102
RTVSPropertyOp34
 70
     1
102
RTVSPropertyOp35
 70
     1
102
RTVSPropertyOp36
 70
     1
102
RTVSPropertyOp37
 70
     1
102
RTVSPropertyOp38
 70
     1
102
RTVSPropertyOp39
 70
     1
102
RTVSPropertyOp40
 70
     1
102
RTVSPropertyOp41
 70
     1
102
RTVSPropertyOp42
 70
     1
102
RTVSPropertyOp43
 70
     1
102
RTVSPropertyOp44
 70
     1
102
RTVSPropertyOp45
 70
     1
102
RTVSPropertyOp46
 70
     1
102
RTVSPropertyOp47
 70
     1
102
RTVSPropertyOp48
 70
     1
102
RTVSPropertyOp49
 70
     1
102
RTVSPropertyOp50
 70
     1
102
RTVSPropertyOp51
 70
     0
102
RTVSPropertyOp52
 70
     0
102
RTVSPropertyOp53
 70
     1
102
RTVSPropertyOp54
 70
     1
102
RTVSPropertyOp55
 70
     1
102
RTVSPropertyOp56
 70
     1
102
RTVSPropertyOp57
 70
     1
102
RTVSPost2010Prop28
280
     0
102
RTVSPost2010PropOp28
 70
     1
102
RTVSPost2010Prop29
280
     1
102
RTVSPost2010PropOp29
 70
     1
102
RTVSPost2010Prop30
280
     1
102
RTVSPost2010PropOp30
 70
     1
102
RTVSPost2010Prop31
280
     0
102
RTVSPost2010PropOp31
 70
     1
102
RTVSPost2010Prop32
280
     0
102
RTVSPost2010PropOp32
 70
     1
102
RTVSPost2010Prop33
280
     0
102
RTVSPost2010PropOp33
 70
     1
102
RTVSPost2010Prop34
280
     0
102
RTVSPost2010PropOp34
 70
     1
102
RTVSPost2010Prop35
280
     0
102
RTVSPost2010PropOp35
 70
     1
102
RTVSPost2010Prop36
280
     0
102
RTVSPost2010PropOp36
 70
     1
102
RTVSPost2010Prop37
 90
       50
102
RTVSPost2010PropOp37
 70
     1
102
RTVSPost2010Prop38
140
0.0
102
RTVSPost2010PropOp38
 70
     1
102
RTVSPost2010Prop39
140
1.0
102
RTVSPost2010PropOp39
 70
     1
102
RTVSPost2010Prop40
 90
        0
102
RTVSPost2010PropOp40
 70
     1
102
RTVSPost2010Prop41ColorIndex
 90
       18
102
RTVSPost2010Prop41ColorRGB
 90
        0
102
RTVSPost2010PropOp41
 70
     1
102
RTVSPost2010Prop42
 90
       50
102
RTVSPost2010PropOp42
 70
     1
102
RTVSPost2010Prop43
 90
        3
102
RTVSPost2010PropOp43
 70
     1
102
RTVSPost2010Prop44ColorIndex
 90
        5
102
RTVSPost2010Prop44ColorRGB
 90
      255
102
RTVSPost2010PropOp44
 70
     1
102
RTVSPost2010Prop45
280
     0
102
RTVSPost2010PropOp45
 70
     1
102
RTVSPost2010Prop46
 90
       50
102
RTVSPost2010PropOp46
 70
     1
102
RTVSPost2010Prop47
 90
       50
102
RTVSPost2010PropOp47
 70
     1
102
RTVSPost2010Prop48
 90
       50
102
RTVSPost2010PropOp48
 70
     1
102
RTVSPost2010Prop49
280
     0
102
RTVSPost2010PropOp49
 70
     1
102
RTVSPost2010Prop50
 90
       50
102
RTVSPost2010PropOp50
 70
     1
102
RTVSPost2010Prop51ColorIndex
 90
      256
102
RTVSPost2010Prop51ColorRGB
 90
-16777216
102
RTVSPost2010PropOp51
 70
     0
102
RTVSPost2010Prop52
140
1.0
102
RTVSPost2010PropOp52
 70
     0
102
RTVSPost2010Prop53
 90
        2
102
RTVSPost2010PropOp53
 70
     1
102
RTVSPost2010Prop54
  1
strokes_ogs.tif
102
RTVSPost2010PropOp54
 70
     1
102
RTVSPost2010Prop55
280
     0
102
RTVSPost2010PropOp55
 70
     1
102
RTVSPost2010Prop56
140
1.0
102
RTVSPost2010PropOp56
 70
     1
102
RTVSPost2010Prop57
140
1.0
102
RTVSPost2010PropOp57
 70
     1
  0
XRECORD
  5
46E
102
{ACAD_REACTORS
330
46D
102
}
330
46D
100
AcDbXrecord
280
     1
102
RTVSPropertyOp0
 70
     0
102
RTVSPropertyOp1
 70
     0
102
RTVSPropertyOp2
 70
     0
102
RTVSPropertyOp3
 70
     0
102
RTVSPropertyOp4
 70
     0
102
RTVSPropertyOp5
 70
     0
102
RTVSPropertyOp6
 70
     0
102
RTVSPropertyOp7
 70
     0
102
RTVSPropertyOp8
 70
     0
102
RTVSPropertyOp9
 70
     0
102
RTVSPropertyOp10
 70
     0
102
RTVSPropertyOp11
 70
     0
102
RTVSPropertyOp12
 70
     0
102
RTVSPropertyOp13
 70
     0
102
RTVSPropertyOp14
 70
     2
102
RTVSPropertyOp15
 70
     0
102
RTVSPropertyOp16
 70
     0
102
RTVSPropertyOp17
 70
     0
102
RTVSPropertyOp18
 70
     0
102
RTVSPropertyOp19
 70
     0
102
RTVSPropertyOp20
 70
     0
102
RTVSPropertyOp21
 70
     0
102
RTVSPropertyOp22
 70
     0
102
RTVSPropertyOp23
 70
     0
102
RTVSPropertyOp24
 70
     0
102
RTVSPropertyOp25
 70
     0
102
RTVSPropertyOp26
 70
     0
102
RTVSPropertyOp27
 70
     0
102
RTVSPropertyOp28
 70
     0
102
RTVSPropertyOp29
 70
     0
102
RTVSPropertyOp30
 70
     0
102
RTVSPropertyOp31
 70
     0
102
RTVSPropertyOp32
 70
     0
102
RTVSPropertyOp33
 70
     0
102
RTVSPropertyOp34
 70
     0
102
RTVSPropertyOp35
 70
     0
102
RTVSPropertyOp36
 70
     0
102
RTVSPropertyOp37
 70
     0
102
RTVSPropertyOp38
 70
     0
102
RTVSPropertyOp39
 70
     0
102
RTVSPropertyOp40
 70
     0
102
RTVSPropertyOp41
 70
     0
102
RTVSPropertyOp42
 70
     0
102
RTVSPropertyOp43
 70
     0
102
RTVSPropertyOp44
 70
     0
102
RTVSPropertyOp45
 70
     0
102
RTVSPropertyOp46
 70
     0
102
RTVSPropertyOp47
 70
     0
102
RTVSPropertyOp48
 70
     0
102
RTVSPropertyOp49
 70
     0
102
RTVSPropertyOp50
 70
     0
102
RTVSPropertyOp51
 70
     0
102
RTVSPropertyOp52
 70
     0
102
RTVSPropertyOp53
 70
     0
102
RTVSPropertyOp54
 70
     0
102
RTVSPropertyOp55
 70
     0
102
RTVSPropertyOp56
 70
     0
102
RTVSPropertyOp57
 70
     0
102
RTVSPost2010Prop28
280
     0
102
RTVSPost2010PropOp28
 70
     0
102
RTVSPost2010Prop29
280
     1
102
RTVSPost2010PropOp29
 70
     0
102
RTVSPost2010Prop30
280
     1
102
RTVSPost2010PropOp30
 70
     0
102
RTVSPost2010Prop31
280
     0
102
RTVSPost2010PropOp31
 70
     0
102
RTVSPost2010Prop32
280
     0
102
RTVSPost2010PropOp32
 70
     0
102
RTVSPost2010Prop33
280
     0
102
RTVSPost2010PropOp33
 70
     0
102
RTVSPost2010Prop34
280
     0
102
RTVSPost2010PropOp34
 70
     0
102
RTVSPost2010Prop35
280
     0
102
RTVSPost2010PropOp35
 70
     0
102
RTVSPost2010Prop36
280
     0
102
RTVSPost2010PropOp36
 70
     0
102
RTVSPost2010Prop37
 90
       50
102
RTVSPost2010PropOp37
 70
     0
102
RTVSPost2010Prop38
140
0.0
102
RTVSPost2010PropOp38
 70
     0
102
RTVSPost2010Prop39
140
1.0
102
RTVSPost2010PropOp39
 70
     0
102
RTVSPost2010Prop40
 90
        0
102
RTVSPost2010PropOp40
 70
     0
102
RTVSPost2010Prop41ColorIndex
 90
       18
102
RTVSPost2010Prop41ColorRGB
 90
        0
102
RTVSPost2010PropOp41
 70
     0
102
RTVSPost2010Prop42
 90
       50
102
RTVSPost2010PropOp42
 70
     0
102
RTVSPost2010Prop43
 90
        3
102
RTVSPost2010PropOp43
 70
     0
102
RTVSPost2010Prop44ColorIndex
 90
        5
102
RTVSPost2010Prop44ColorRGB
 90
      255
102
RTVSPost2010PropOp44
 70
     0
102
RTVSPost2010Prop45
280
     0
102
RTVSPost2010PropOp45
 70
     0
102
RTVSPost2010Prop46
 90
       50
102
RTVSPost2010PropOp46
 70
     0
102
RTVSPost2010Prop47
 90
       50
102
RTVSPost2010PropOp47
 70
     0
102
RTVSPost2010Prop48
 90
       50
102
RTVSPost2010PropOp48
 70
     0
102
RTVSPost2010Prop49
280
     0
102
RTVSPost2010PropOp49
 70
     0
102
RTVSPost2010Prop50
 90
       50
102
RTVSPost2010PropOp50
 70
     0
102
RTVSPost2010Prop51ColorIndex
 90
      256
102
RTVSPost2010Prop51ColorRGB
 90
-16777216
102
RTVSPost2010PropOp51
 70
     0
102
RTVSPost2010Prop52
140
1.0
102
RTVSPost2010PropOp52
 70
     0
102
RTVSPost2010Prop53
 90
        2
102
RTVSPost2010PropOp53
 70
     0
102
RTVSPost2010Prop54
  1
strokes_ogs.tif
102
RTVSPost2010PropOp54
 70
     0
102
RTVSPost2010Prop55
280
     0
102
RTVSPost2010PropOp55
 70
     0
102
RTVSPost2010Prop56
140
1.0
102
RTVSPost2010PropOp56
 70
     0
102
RTVSPost2010Prop57
140
1.0
102
RTVSPost2010PropOp57
 70
     0
  0
XRECORD
  5
45C
102
{ACAD_REACTORS
330
45B
102
}
330
45B
100
AcDbXrecord
280
     1
102
RTVSPropertyOp0
 70
     1
102
RTVSPropertyOp1
 70
     1
102
RTVSPropertyOp2
 70
     1
102
RTVSPropertyOp3
 70
     1
102
RTVSPropertyOp4
 70
     1
102
RTVSPropertyOp5
 70
     1
102
RTVSPropertyOp6
 70
     1
102
RTVSPropertyOp7
 70
     1
102
RTVSPropertyOp8
 70
     1
102
RTVSPropertyOp9
 70
     1
102
RTVSPropertyOp10
 70
     1
102
RTVSPropertyOp11
 70
     1
102
RTVSPropertyOp12
 70
     1
102
RTVSPropertyOp13
 70
     1
102
RTVSPropertyOp14
 70
     1
102
RTVSPropertyOp15
 70
     1
102
RTVSPropertyOp16
 70
     1
102
RTVSPropertyOp17
 70
     1
102
RTVSPropertyOp18
 70
     1
102
RTVSPropertyOp19
 70
     1
102
RTVSPropertyOp20
 70
     1
102
RTVSPropertyOp21
 70
     1
102
RTVSPropertyOp22
 70
     1
102
RTVSPropertyOp23
 70
     1
102
RTVSPropertyOp24
 70
     1
102
RTVSPropertyOp25
 70
     1
102
RTVSPropertyOp26
 70
     1
102
RTVSPropertyOp27
 70
     1
102
RTVSPropertyOp28
 70
     1
102
RTVSPropertyOp29
 70
     1
102
RTVSPropertyOp30
 70
     1
102
RTVSPropertyOp31
 70
     1
102
RTVSPropertyOp32
 70
     1
102
RTVSPropertyOp33
 70
     1
102
RTVSPropertyOp34
 70
     1
102
RTVSPropertyOp35
 70
     1
102
RTVSPropertyOp36
 70
     1
102
RTVSPropertyOp37
 70
     1
102
RTVSPropertyOp38
 70
     1
102
RTVSPropertyOp39
 70
     1
102
RTVSPropertyOp40
 70
     1
102
RTVSPropertyOp41
 70
     1
102
RTVSPropertyOp42
 70
     1
102
RTVSPropertyOp43
 70
     1
102
RTVSPropertyOp44
 70
     1
102
RTVSPropertyOp45
 70
     1
102
RTVSPropertyOp46
 70
     1
102
RTVSPropertyOp47
 70
     1
102
RTVSPropertyOp48
 70
     1
102
RTVSPropertyOp49
 70
     1
102
RTVSPropertyOp50
 70
     1
102
RTVSPropertyOp51
 70
     0
102
RTVSPropertyOp52
 70
     0
102
RTVSPropertyOp53
 70
     1
102
RTVSPropertyOp54
 70
     1
102
RTVSPropertyOp55
 70
     1
102
RTVSPropertyOp56
 70
     1
102
RTVSPropertyOp57
 70
     1
102
RTVSPost2010Prop28
280
     0
102
RTVSPost2010PropOp28
 70
     1
102
RTVSPost2010Prop29
280
     1
102
RTVSPost2010PropOp29
 70
     1
102
RTVSPost2010Prop30
280
     1
102
RTVSPost2010PropOp30
 70
     1
102
RTVSPost2010Prop31
280
     0
102
RTVSPost2010PropOp31
 70
     1
102
RTVSPost2010Prop32
280
     0
102
RTVSPost2010PropOp32
 70
     1
102
RTVSPost2010Prop33
280
     0
102
RTVSPost2010PropOp33
 70
     1
102
RTVSPost2010Prop34
280
     0
102
RTVSPost2010PropOp34
 70
     1
102
RTVSPost2010Prop35
280
     0
102
RTVSPost2010PropOp35
 70
     1
102
RTVSPost2010Prop36
280
     0
102
RTVSPost2010PropOp36
 70
     1
102
RTVSPost2010Prop37
 90
       50
102
RTVSPost2010PropOp37
 70
     1
102
RTVSPost2010Prop38
140
0.0
102
RTVSPost2010PropOp38
 70
     1
102
RTVSPost2010Prop39
140
1.0
102
RTVSPost2010PropOp39
 70
     1
102
RTVSPost2010Prop40
 90
        0
102
RTVSPost2010PropOp40
 70
     1
102
RTVSPost2010Prop41ColorIndex
 90
       18
102
RTVSPost2010Prop41ColorRGB
 90
        0
102
RTVSPost2010PropOp41
 70
     1
102
RTVSPost2010Prop42
 90
       50
102
RTVSPost2010PropOp42
 70
     1
102
RTVSPost2010Prop43
 90
        3
102
RTVSPost2010PropOp43
 70
     1
102
RTVSPost2010Prop44ColorIndex
 90
        5
102
RTVSPost2010Prop44ColorRGB
 90
      255
102
RTVSPost2010PropOp44
 70
     1
102
RTVSPost2010Prop45
280
     0
102
RTVSPost2010PropOp45
 70
     1
102
RTVSPost2010Prop46
 90
       50
102
RTVSPost2010PropOp46
 70
     1
102
RTVSPost2010Prop47
 90
       50
102
RTVSPost2010PropOp47
 70
     1
102
RTVSPost2010Prop48
 90
       50
102
RTVSPost2010PropOp48
 70
     1
102
RTVSPost2010Prop49
280
     0
102
RTVSPost2010PropOp49
 70
     1
102
RTVSPost2010Prop50
 90
       50
102
RTVSPost2010PropOp50
 70
     1
102
RTVSPost2010Prop51ColorIndex
 90
      256
102
RTVSPost2010Prop51ColorRGB
 90
-16777216
102
RTVSPost2010PropOp51
 70
     0
102
RTVSPost2010Prop52
140
1.0
102
RTVSPost2010PropOp52
 70
     0
102
RTVSPost2010Prop53
 90
        2
102
RTVSPost2010PropOp53
 70
     1
102
RTVSPost2010Prop54
  1
strokes_ogs.tif
102
RTVSPost2010PropOp54
 70
     1
102
RTVSPost2010Prop55
280
     0
102
RTVSPost2010PropOp55
 70
     1
102
RTVSPost2010Prop56
140
1.0
102
RTVSPost2010PropOp56
 70
     1
102
RTVSPost2010Prop57
140
1.0
102
RTVSPost2010PropOp57
 70
     1
  0
XRECORD
  5
47A
102
{ACAD_REACTORS
330
479
102
}
330
479
100
AcDbXrecord
280
     1
102
RTVSPropertyOp0
 70
     1
102
RTVSPropertyOp1
 70
     1
102
RTVSPropertyOp2
 70
     1
102
RTVSPropertyOp3
 70
     1
102
RTVSPropertyOp4
 70
     1
102
RTVSPropertyOp5
 70
     1
102
RTVSPropertyOp6
 70
     1
102
RTVSPropertyOp7
 70
     1
102
RTVSPropertyOp8
 70
     1
102
RTVSPropertyOp9
 70
     1
102
RTVSPropertyOp10
 70
     1
102
RTVSPropertyOp11
 70
     1
102
RTVSPropertyOp12
 70
     1
102
RTVSPropertyOp13
 70
     1
102
RTVSPropertyOp14
 70
     1
102
RTVSPropertyOp15
 70
     1
102
RTVSPropertyOp16
 70
     1
102
RTVSPropertyOp17
 70
     1
102
RTVSPropertyOp18
 70
     1
102
RTVSPropertyOp19
 70
     1
102
RTVSPropertyOp20
 70
     1
102
RTVSPropertyOp21
 70
     1
102
RTVSPropertyOp22
 70
     1
102
RTVSPropertyOp23
 70
     1
102
RTVSPropertyOp24
 70
     1
102
RTVSPropertyOp25
 70
     1
102
RTVSPropertyOp26
 70
     1
102
RTVSPropertyOp27
 70
     1
102
RTVSPropertyOp28
 70
     1
102
RTVSPropertyOp29
 70
     1
102
RTVSPropertyOp30
 70
     1
102
RTVSPropertyOp31
 70
     1
102
RTVSPropertyOp32
 70
     1
102
RTVSPropertyOp33
 70
     1
102
RTVSPropertyOp34
 70
     1
102
RTVSPropertyOp35
 70
     1
102
RTVSPropertyOp36
 70
     1
102
RTVSPropertyOp37
 70
     1
102
RTVSPropertyOp38
 70
     1
102
RTVSPropertyOp39
 70
     1
102
RTVSPropertyOp40
 70
     1
102
RTVSPropertyOp41
 70
     1
102
RTVSPropertyOp42
 70
     1
102
RTVSPropertyOp43
 70
     1
102
RTVSPropertyOp44
 70
     1
102
RTVSPropertyOp45
 70
     1
102
RTVSPropertyOp46
 70
     1
102
RTVSPropertyOp47
 70
     1
102
RTVSPropertyOp48
 70
     1
102
RTVSPropertyOp49
 70
     1
102
RTVSPropertyOp50
 70
     1
102
RTVSPropertyOp51
 70
     0
102
RTVSPropertyOp52
 70
     0
102
RTVSPropertyOp53
 70
     1
102
RTVSPropertyOp54
 70
     1
102
RTVSPropertyOp55
 70
     1
102
RTVSPropertyOp56
 70
     1
102
RTVSPropertyOp57
 70
     1
102
RTVSPost2010Prop28
280
     0
102
RTVSPost2010PropOp28
 70
     1
102
RTVSPost2010Prop29
280
     1
102
RTVSPost2010PropOp29
 70
     1
102
RTVSPost2010Prop30
280
     1
102
RTVSPost2010PropOp30
 70
     1
102
RTVSPost2010Prop31
280
     0
102
RTVSPost2010PropOp31
 70
     1
102
RTVSPost2010Prop32
280
     0
102
RTVSPost2010PropOp32
 70
     1
102
RTVSPost2010Prop33
280
     0
102
RTVSPost2010PropOp33
 70
     1
102
RTVSPost2010Prop34
280
     0
102
RTVSPost2010PropOp34
 70
     1
102
RTVSPost2010Prop35
280
     0
102
RTVSPost2010PropOp35
 70
     1
102
RTVSPost2010Prop36
280
     0
102
RTVSPost2010PropOp36
 70
     1
102
RTVSPost2010Prop37
 90
       50
102
RTVSPost2010PropOp37
 70
     1
102
RTVSPost2010Prop38
140
0.0
102
RTVSPost2010PropOp38
 70
     1
102
RTVSPost2010Prop39
140
1.0
102
RTVSPost2010PropOp39
 70
     1
102
RTVSPost2010Prop40
 90
        0
102
RTVSPost2010PropOp40
 70
     1
102
RTVSPost2010Prop41ColorIndex
 90
       18
102
RTVSPost2010Prop41ColorRGB
 90
        0
102
RTVSPost2010PropOp41
 70
     1
102
RTVSPost2010Prop42
 90
       50
102
RTVSPost2010PropOp42
 70
     1
102
RTVSPost2010Prop43
 90
        3
102
RTVSPost2010PropOp43
 70
     1
102
RTVSPost2010Prop44ColorIndex
 90
        5
102
RTVSPost2010Prop44ColorRGB
 90
      255
102
RTVSPost2010PropOp44
 70
     1
102
RTVSPost2010Prop45
280
     0
102
RTVSPost2010PropOp45
 70
     1
102
RTVSPost2010Prop46
 90
       50
102
RTVSPost2010PropOp46
 70
     1
102
RTVSPost2010Prop47
 90
       50
102
RTVSPost2010PropOp47
 70
     1
102
RTVSPost2010Prop48
 90
       50
102
RTVSPost2010PropOp48
 70
     1
102
RTVSPost2010Prop49
280
     0
102
RTVSPost2010PropOp49
 70
     1
102
RTVSPost2010Prop50
 90
       50
102
RTVSPost2010PropOp50
 70
     1
102
RTVSPost2010Prop51ColorIndex
 90
      256
102
RTVSPost2010Prop51ColorRGB
 90
-16777216
102
RTVSPost2010PropOp51
 70
     0
102
RTVSPost2010Prop52
140
1.0
102
RTVSPost2010PropOp52
 70
     0
102
RTVSPost2010Prop53
 90
        2
102
RTVSPost2010PropOp53
 70
     1
102
RTVSPost2010Prop54
  1
strokes_ogs.tif
102
RTVSPost2010PropOp54
 70
     1
102
RTVSPost2010Prop55
280
     0
102
RTVSPost2010PropOp55
 70
     1
102
RTVSPost2010Prop56
140
1.0
102
RTVSPost2010PropOp56
 70
     1
102
RTVSPost2010Prop57
140
1.0
102
RTVSPost2010PropOp57
 70
     1
  0
XRECORD
  5
478
102
{ACAD_REACTORS
330
477
102
}
330
477
100
AcDbXrecord
280
     1
102
RTVSPropertyOp0
 70
     1
102
RTVSPropertyOp1
 70
     1
102
RTVSPropertyOp2
 70
     1
102
RTVSPropertyOp3
 70
     1
102
RTVSPropertyOp4
 70
     1
102
RTVSPropertyOp5
 70
     1
102
RTVSPropertyOp6
 70
     1
102
RTVSPropertyOp7
 70
     1
102
RTVSPropertyOp8
 70
     1
102
RTVSPropertyOp9
 70
     1
102
RTVSPropertyOp10
 70
     1
102
RTVSPropertyOp11
 70
     1
102
RTVSPropertyOp12
 70
     1
102
RTVSPropertyOp13
 70
     1
102
RTVSPropertyOp14
 70
     1
102
RTVSPropertyOp15
 70
     1
102
RTVSPropertyOp16
 70
     1
102
RTVSPropertyOp17
 70
     1
102
RTVSPropertyOp18
 70
     1
102
RTVSPropertyOp19
 70
     1
102
RTVSPropertyOp20
 70
     1
102
RTVSPropertyOp21
 70
     1
102
RTVSPropertyOp22
 70
     1
102
RTVSPropertyOp23
 70
     1
102
RTVSPropertyOp24
 70
     1
102
RTVSPropertyOp25
 70
     1
102
RTVSPropertyOp26
 70
     1
102
RTVSPropertyOp27
 70
     1
102
RTVSPropertyOp28
 70
     1
102
RTVSPropertyOp29
 70
     1
102
RTVSPropertyOp30
 70
     1
102
RTVSPropertyOp31
 70
     1
102
RTVSPropertyOp32
 70
     1
102
RTVSPropertyOp33
 70
     1
102
RTVSPropertyOp34
 70
     1
102
RTVSPropertyOp35
 70
     1
102
RTVSPropertyOp36
 70
     1
102
RTVSPropertyOp37
 70
     1
102
RTVSPropertyOp38
 70
     1
102
RTVSPropertyOp39
 70
     1
102
RTVSPropertyOp40
 70
     1
102
RTVSPropertyOp41
 70
     1
102
RTVSPropertyOp42
 70
     1
102
RTVSPropertyOp43
 70
     1
102
RTVSPropertyOp44
 70
     1
102
RTVSPropertyOp45
 70
     1
102
RTVSPropertyOp46
 70
     1
102
RTVSPropertyOp47
 70
     1
102
RTVSPropertyOp48
 70
     1
102
RTVSPropertyOp49
 70
     1
102
RTVSPropertyOp50
 70
     1
102
RTVSPropertyOp51
 70
     0
102
RTVSPropertyOp52
 70
     0
102
RTVSPropertyOp53
 70
     1
102
RTVSPropertyOp54
 70
     1
102
RTVSPropertyOp55
 70
     1
102
RTVSPropertyOp56
 70
     1
102
RTVSPropertyOp57
 70
     1
102
RTVSPost2010Prop28
280
     0
102
RTVSPost2010PropOp28
 70
     1
102
RTVSPost2010Prop29
280
     1
102
RTVSPost2010PropOp29
 70
     1
102
RTVSPost2010Prop30
280
     1
102
RTVSPost2010PropOp30
 70
     1
102
RTVSPost2010Prop31
280
     0
102
RTVSPost2010PropOp31
 70
     1
102
RTVSPost2010Prop32
280
     0
102
RTVSPost2010PropOp32
 70
     1
102
RTVSPost2010Prop33
280
     0
102
RTVSPost2010PropOp33
 70
     1
102
RTVSPost2010Prop34
280
     0
102
RTVSPost2010PropOp34
 70
     1
102
RTVSPost2010Prop35
280
     0
102
RTVSPost2010PropOp35
 70
     1
102
RTVSPost2010Prop36
280
     0
102
RTVSPost2010PropOp36
 70
     1
102
RTVSPost2010Prop37
 90
       50
102
RTVSPost2010PropOp37
 70
     1
102
RTVSPost2010Prop38
140
0.0
102
RTVSPost2010PropOp38
 70
     1
102
RTVSPost2010Prop39
140
1.0
102
RTVSPost2010PropOp39
 70
     1
102
RTVSPost2010Prop40
 90
        0
102
RTVSPost2010PropOp40
 70
     1
102
RTVSPost2010Prop41ColorIndex
 90
       18
102
RTVSPost2010Prop41ColorRGB
 90
        0
102
RTVSPost2010PropOp41
 70
     1
102
RTVSPost2010Prop42
 90
       50
102
RTVSPost2010PropOp42
 70
     1
102
RTVSPost2010Prop43
 90
        3
102
RTVSPost2010PropOp43
 70
     1
102
RTVSPost2010Prop44ColorIndex
 90
        5
102
RTVSPost2010Prop44ColorRGB
 90
      255
102
RTVSPost2010PropOp44
 70
     1
102
RTVSPost2010Prop45
280
     0
102
RTVSPost2010PropOp45
 70
     1
102
RTVSPost2010Prop46
 90
       50
102
RTVSPost2010PropOp46
 70
     1
102
RTVSPost2010Prop47
 90
       50
102
RTVSPost2010PropOp47
 70
     1
102
RTVSPost2010Prop48
 90
       50
102
RTVSPost2010PropOp48
 70
     1
102
RTVSPost2010Prop49
280
     0
102
RTVSPost2010PropOp49
 70
     1
102
RTVSPost2010Prop50
 90
       50
102
RTVSPost2010PropOp50
 70
     1
102
RTVSPost2010Prop51ColorIndex
 90
      256
102
RTVSPost2010Prop51ColorRGB
 90
-16777216
102
RTVSPost2010PropOp51
 70
     0
102
RTVSPost2010Prop52
140
1.0
102
RTVSPost2010PropOp52
 70
     0
102
RTVSPost2010Prop53
 90
        2
102
RTVSPost2010PropOp53
 70
     1
102
RTVSPost2010Prop54
  1
strokes_ogs.tif
102
RTVSPost2010PropOp54
 70
     1
102
RTVSPost2010Prop55
280
     0
102
RTVSPost2010PropOp55
 70
     1
102
RTVSPost2010Prop56
140
1.0
102
RTVSPost2010PropOp56
 70
     1
102
RTVSPost2010Prop57
140
1.0
102
RTVSPost2010PropOp57
 70
     1
  0
XRECORD
  5
472
102
{ACAD_REACTORS
330
471
102
}
330
471
100
AcDbXrecord
280
     1
102
RTVSPropertyOp0
 70
     1
102
RTVSPropertyOp1
 70
     1
102
RTVSPropertyOp2
 70
     1
102
RTVSPropertyOp3
 70
     1
102
RTVSPropertyOp4
 70
     1
102
RTVSPropertyOp5
 70
     1
102
RTVSPropertyOp6
 70
     1
102
RTVSPropertyOp7
 70
     1
102
RTVSPropertyOp8
 70
     1
102
RTVSPropertyOp9
 70
     1
102
RTVSPropertyOp10
 70
     1
102
RTVSPropertyOp11
 70
     1
102
RTVSPropertyOp12
 70
     1
102
RTVSPropertyOp13
 70
     1
102
RTVSPropertyOp14
 70
     1
102
RTVSPropertyOp15
 70
     1
102
RTVSPropertyOp16
 70
     1
102
RTVSPropertyOp17
 70
     1
102
RTVSPropertyOp18
 70
     1
102
RTVSPropertyOp19
 70
     1
102
RTVSPropertyOp20
 70
     1
102
RTVSPropertyOp21
 70
     1
102
RTVSPropertyOp22
 70
     1
102
RTVSPropertyOp23
 70
     1
102
RTVSPropertyOp24
 70
     1
102
RTVSPropertyOp25
 70
     1
102
RTVSPropertyOp26
 70
     1
102
RTVSPropertyOp27
 70
     1
102
RTVSPropertyOp28
 70
     1
102
RTVSPropertyOp29
 70
     1
102
RTVSPropertyOp30
 70
     1
102
RTVSPropertyOp31
 70
     1
102
RTVSPropertyOp32
 70
     1
102
RTVSPropertyOp33
 70
     1
102
RTVSPropertyOp34
 70
     1
102
RTVSPropertyOp35
 70
     1
102
RTVSPropertyOp36
 70
     1
102
RTVSPropertyOp37
 70
     1
102
RTVSPropertyOp38
 70
     1
102
RTVSPropertyOp39
 70
     1
102
RTVSPropertyOp40
 70
     1
102
RTVSPropertyOp41
 70
     1
102
RTVSPropertyOp42
 70
     1
102
RTVSPropertyOp43
 70
     1
102
RTVSPropertyOp44
 70
     1
102
RTVSPropertyOp45
 70
     1
102
RTVSPropertyOp46
 70
     1
102
RTVSPropertyOp47
 70
     1
102
RTVSPropertyOp48
 70
     1
102
RTVSPropertyOp49
 70
     1
102
RTVSPropertyOp50
 70
     1
102
RTVSPropertyOp51
 70
     0
102
RTVSPropertyOp52
 70
     0
102
RTVSPropertyOp53
 70
     1
102
RTVSPropertyOp54
 70
     1
102
RTVSPropertyOp55
 70
     1
102
RTVSPropertyOp56
 70
     1
102
RTVSPropertyOp57
 70
     1
102
RTVSPost2010Prop28
280
     0
102
RTVSPost2010PropOp28
 70
     1
102
RTVSPost2010Prop29
280
     1
102
RTVSPost2010PropOp29
 70
     1
102
RTVSPost2010Prop30
280
     1
102
RTVSPost2010PropOp30
 70
     1
102
RTVSPost2010Prop31
280
     0
102
RTVSPost2010PropOp31
 70
     1
102
RTVSPost2010Prop32
280
     0
102
RTVSPost2010PropOp32
 70
     1
102
RTVSPost2010Prop33
280
     0
102
RTVSPost2010PropOp33
 70
     1
102
RTVSPost2010Prop34
280
     0
102
RTVSPost2010PropOp34
 70
     1
102
RTVSPost2010Prop35
280
     0
102
RTVSPost2010PropOp35
 70
     1
102
RTVSPost2010Prop36
280
     0
102
RTVSPost2010PropOp36
 70
     1
102
RTVSPost2010Prop37
 90
       50
102
RTVSPost2010PropOp37
 70
     1
102
RTVSPost2010Prop38
140
0.0
102
RTVSPost2010PropOp38
 70
     1
102
RTVSPost2010Prop39
140
1.0
102
RTVSPost2010PropOp39
 70
     1
102
RTVSPost2010Prop40
 90
        0
102
RTVSPost2010PropOp40
 70
     1
102
RTVSPost2010Prop41ColorIndex
 90
       18
102
RTVSPost2010Prop41ColorRGB
 90
        0
102
RTVSPost2010PropOp41
 70
     1
102
RTVSPost2010Prop42
 90
       50
102
RTVSPost2010PropOp42
 70
     1
102
RTVSPost2010Prop43
 90
        3
102
RTVSPost2010PropOp43
 70
     1
102
RTVSPost2010Prop44ColorIndex
 90
        5
102
RTVSPost2010Prop44ColorRGB
 90
      255
102
RTVSPost2010PropOp44
 70
     1
102
RTVSPost2010Prop45
280
     0
102
RTVSPost2010PropOp45
 70
     1
102
RTVSPost2010Prop46
 90
       50
102
RTVSPost2010PropOp46
 70
     1
102
RTVSPost2010Prop47
 90
       50
102
RTVSPost2010PropOp47
 70
     1
102
RTVSPost2010Prop48
 90
       50
102
RTVSPost2010PropOp48
 70
     1
102
RTVSPost2010Prop49
280
     0
102
RTVSPost2010PropOp49
 70
     1
102
RTVSPost2010Prop50
 90
       50
102
RTVSPost2010PropOp50
 70
     1
102
RTVSPost2010Prop51ColorIndex
 90
      256
102
RTVSPost2010Prop51ColorRGB
 90
-16777216
102
RTVSPost2010PropOp51
 70
     0
102
RTVSPost2010Prop52
140
1.0
102
RTVSPost2010PropOp52
 70
     0
102
RTVSPost2010Prop53
 90
        2
102
RTVSPost2010PropOp53
 70
     1
102
RTVSPost2010Prop54
  1
strokes_ogs.tif
102
RTVSPost2010PropOp54
 70
     1
102
RTVSPost2010Prop55
280
     0
102
RTVSPost2010PropOp55
 70
     1
102
RTVSPost2010Prop56
140
1.0
102
RTVSPost2010PropOp56
 70
     1
102
RTVSPost2010Prop57
140
1.0
102
RTVSPost2010PropOp57
 70
     1
  0
XRECORD
  5
474
102
{ACAD_REACTORS
330
473
102
}
330
473
100
AcDbXrecord
280
     1
102
RTVSPropertyOp0
 70
     1
102
RTVSPropertyOp1
 70
     1
102
RTVSPropertyOp2
 70
     1
102
RTVSPropertyOp3
 70
     1
102
RTVSPropertyOp4
 70
     1
102
RTVSPropertyOp5
 70
     1
102
RTVSPropertyOp6
 70
     1
102
RTVSPropertyOp7
 70
     1
102
RTVSPropertyOp8
 70
     1
102
RTVSPropertyOp9
 70
     1
102
RTVSPropertyOp10
 70
     1
102
RTVSPropertyOp11
 70
     1
102
RTVSPropertyOp12
 70
     1
102
RTVSPropertyOp13
 70
     1
102
RTVSPropertyOp14
 70
     1
102
RTVSPropertyOp15
 70
     1
102
RTVSPropertyOp16
 70
     1
102
RTVSPropertyOp17
 70
     1
102
RTVSPropertyOp18
 70
     1
102
RTVSPropertyOp19
 70
     1
102
RTVSPropertyOp20
 70
     1
102
RTVSPropertyOp21
 70
     1
102
RTVSPropertyOp22
 70
     1
102
RTVSPropertyOp23
 70
     1
102
RTVSPropertyOp24
 70
     1
102
RTVSPropertyOp25
 70
     1
102
RTVSPropertyOp26
 70
     1
102
RTVSPropertyOp27
 70
     1
102
RTVSPropertyOp28
 70
     1
102
RTVSPropertyOp29
 70
     1
102
RTVSPropertyOp30
 70
     1
102
RTVSPropertyOp31
 70
     1
102
RTVSPropertyOp32
 70
     1
102
RTVSPropertyOp33
 70
     1
102
RTVSPropertyOp34
 70
     1
102
RTVSPropertyOp35
 70
     1
102
RTVSPropertyOp36
 70
     1
102
RTVSPropertyOp37
 70
     1
102
RTVSPropertyOp38
 70
     1
102
RTVSPropertyOp39
 70
     1
102
RTVSPropertyOp40
 70
     1
102
RTVSPropertyOp41
 70
     1
102
RTVSPropertyOp42
 70
     1
102
RTVSPropertyOp43
 70
     1
102
RTVSPropertyOp44
 70
     1
102
RTVSPropertyOp45
 70
     1
102
RTVSPropertyOp46
 70
     1
102
RTVSPropertyOp47
 70
     1
102
RTVSPropertyOp48
 70
     1
102
RTVSPropertyOp49
 70
     1
102
RTVSPropertyOp50
 70
     1
102
RTVSPropertyOp51
 70
     0
102
RTVSPropertyOp52
 70
     0
102
RTVSPropertyOp53
 70
     1
102
RTVSPropertyOp54
 70
     1
102
RTVSPropertyOp55
 70
     1
102
RTVSPropertyOp56
 70
     1
102
RTVSPropertyOp57
 70
     1
102
RTVSPost2010Prop28
280
     0
102
RTVSPost2010PropOp28
 70
     1
102
RTVSPost2010Prop29
280
     1
102
RTVSPost2010PropOp29
 70
     1
102
RTVSPost2010Prop30
280
     1
102
RTVSPost2010PropOp30
 70
     1
102
RTVSPost2010Prop31
280
     0
102
RTVSPost2010PropOp31
 70
     1
102
RTVSPost2010Prop32
280
     0
102
RTVSPost2010PropOp32
 70
     1
102
RTVSPost2010Prop33
280
     0
102
RTVSPost2010PropOp33
 70
     1
102
RTVSPost2010Prop34
280
     0
102
RTVSPost2010PropOp34
 70
     1
102
RTVSPost2010Prop35
280
     0
102
RTVSPost2010PropOp35
 70
     1
102
RTVSPost2010Prop36
280
     0
102
RTVSPost2010PropOp36
 70
     1
102
RTVSPost2010Prop37
 90
       50
102
RTVSPost2010PropOp37
 70
     1
102
RTVSPost2010Prop38
140
0.0
102
RTVSPost2010PropOp38
 70
     1
102
RTVSPost2010Prop39
140
1.0
102
RTVSPost2010PropOp39
 70
     1
102
RTVSPost2010Prop40
 90
        0
102
RTVSPost2010PropOp40
 70
     1
102
RTVSPost2010Prop41ColorIndex
 90
       18
102
RTVSPost2010Prop41ColorRGB
 90
        0
102
RTVSPost2010PropOp41
 70
     1
102
RTVSPost2010Prop42
 90
       50
102
RTVSPost2010PropOp42
 70
     1
102
RTVSPost2010Prop43
 90
        3
102
RTVSPost2010PropOp43
 70
     1
102
RTVSPost2010Prop44ColorIndex
 90
        5
102
RTVSPost2010Prop44ColorRGB
 90
      255
102
RTVSPost2010PropOp44
 70
     1
102
RTVSPost2010Prop45
280
     0
102
RTVSPost2010PropOp45
 70
     1
102
RTVSPost2010Prop46
 90
       50
102
RTVSPost2010PropOp46
 70
     1
102
RTVSPost2010Prop47
 90
       50
102
RTVSPost2010PropOp47
 70
     1
102
RTVSPost2010Prop48
 90
       50
102
RTVSPost2010PropOp48
 70
     1
102
RTVSPost2010Prop49
280
     0
102
RTVSPost2010PropOp49
 70
     1
102
RTVSPost2010Prop50
 90
       50
102
RTVSPost2010PropOp50
 70
     1
102
RTVSPost2010Prop51ColorIndex
 90
      256
102
RTVSPost2010Prop51ColorRGB
 90
-16777216
102
RTVSPost2010PropOp51
 70
     0
102
RTVSPost2010Prop52
140
1.0
102
RTVSPost2010PropOp52
 70
     0
102
RTVSPost2010Prop53
 90
        2
102
RTVSPost2010PropOp53
 70
     1
102
RTVSPost2010Prop54
  1
strokes_ogs.tif
102
RTVSPost2010PropOp54
 70
     1
102
RTVSPost2010Prop55
280
     0
102
RTVSPost2010PropOp55
 70
     1
102
RTVSPost2010Prop56
140
1.0
102
RTVSPost2010PropOp56
 70
     1
102
RTVSPost2010Prop57
140
1.0
102
RTVSPost2010PropOp57
 70
     1
  0
XRECORD
  5
464
102
{ACAD_REACTORS
330
463
102
}
330
463
100
AcDbXrecord
280
     1
102
RTVSPropertyOp0
 70
     1
102
RTVSPropertyOp1
 70
     1
102
RTVSPropertyOp2
 70
     1
102
RTVSPropertyOp3
 70
     1
102
RTVSPropertyOp4
 70
     1
102
RTVSPropertyOp5
 70
     1
102
RTVSPropertyOp6
 70
     1
102
RTVSPropertyOp7
 70
     1
102
RTVSPropertyOp8
 70
     1
102
RTVSPropertyOp9
 70
     1
102
RTVSPropertyOp10
 70
     1
102
RTVSPropertyOp11
 70
     1
102
RTVSPropertyOp12
 70
     1
102
RTVSPropertyOp13
 70
     1
102
RTVSPropertyOp14
 70
     1
102
RTVSPropertyOp15
 70
     1
102
RTVSPropertyOp16
 70
     1
102
RTVSPropertyOp17
 70
     1
102
RTVSPropertyOp18
 70
     1
102
RTVSPropertyOp19
 70
     1
102
RTVSPropertyOp20
 70
     1
102
RTVSPropertyOp21
 70
     1
102
RTVSPropertyOp22
 70
     1
102
RTVSPropertyOp23
 70
     1
102
RTVSPropertyOp24
 70
     1
102
RTVSPropertyOp25
 70
     1
102
RTVSPropertyOp26
 70
     1
102
RTVSPropertyOp27
 70
     1
102
RTVSPropertyOp28
 70
     1
102
RTVSPropertyOp29
 70
     1
102
RTVSPropertyOp30
 70
     1
102
RTVSPropertyOp31
 70
     1
102
RTVSPropertyOp32
 70
     1
102
RTVSPropertyOp33
 70
     1
102
RTVSPropertyOp34
 70
     1
102
RTVSPropertyOp35
 70
     1
102
RTVSPropertyOp36
 70
     1
102
RTVSPropertyOp37
 70
     1
102
RTVSPropertyOp38
 70
     1
102
RTVSPropertyOp39
 70
     1
102
RTVSPropertyOp40
 70
     1
102
RTVSPropertyOp41
 70
     1
102
RTVSPropertyOp42
 70
     1
102
RTVSPropertyOp43
 70
     1
102
RTVSPropertyOp44
 70
     1
102
RTVSPropertyOp45
 70
     1
102
RTVSPropertyOp46
 70
     1
102
RTVSPropertyOp47
 70
     1
102
RTVSPropertyOp48
 70
     1
102
RTVSPropertyOp49
 70
     1
102
RTVSPropertyOp50
 70
     1
102
RTVSPropertyOp51
 70
     0
102
RTVSPropertyOp52
 70
     0
102
RTVSPropertyOp53
 70
     1
102
RTVSPropertyOp54
 70
     1
102
RTVSPropertyOp55
 70
     1
102
RTVSPropertyOp56
 70
     1
102
RTVSPropertyOp57
 70
     1
102
RTVSPost2010Prop28
280
     0
102
RTVSPost2010PropOp28
 70
     1
102
RTVSPost2010Prop29
280
     1
102
RTVSPost2010PropOp29
 70
     1
102
RTVSPost2010Prop30
280
     1
102
RTVSPost2010PropOp30
 70
     1
102
RTVSPost2010Prop31
280
     0
102
RTVSPost2010PropOp31
 70
     1
102
RTVSPost2010Prop32
280
     0
102
RTVSPost2010PropOp32
 70
     1
102
RTVSPost2010Prop33
280
     0
102
RTVSPost2010PropOp33
 70
     1
102
RTVSPost2010Prop34
280
     0
102
RTVSPost2010PropOp34
 70
     1
102
RTVSPost2010Prop35
280
     0
102
RTVSPost2010PropOp35
 70
     1
102
RTVSPost2010Prop36
280
     0
102
RTVSPost2010PropOp36
 70
     1
102
RTVSPost2010Prop37
 90
       50
102
RTVSPost2010PropOp37
 70
     1
102
RTVSPost2010Prop38
140
0.0
102
RTVSPost2010PropOp38
 70
     1
102
RTVSPost2010Prop39
140
1.0
102
RTVSPost2010PropOp39
 70
     1
102
RTVSPost2010Prop40
 90
        0
102
RTVSPost2010PropOp40
 70
     1
102
RTVSPost2010Prop41ColorIndex
 90
       18
102
RTVSPost2010Prop41ColorRGB
 90
        0
102
RTVSPost2010PropOp41
 70
     1
102
RTVSPost2010Prop42
 90
       50
102
RTVSPost2010PropOp42
 70
     1
102
RTVSPost2010Prop43
 90
        3
102
RTVSPost2010PropOp43
 70
     1
102
RTVSPost2010Prop44ColorIndex
 90
        5
102
RTVSPost2010Prop44ColorRGB
 90
      255
102
RTVSPost2010PropOp44
 70
     1
102
RTVSPost2010Prop45
280
     0
102
RTVSPost2010PropOp45
 70
     1
102
RTVSPost2010Prop46
 90
       50
102
RTVSPost2010PropOp46
 70
     1
102
RTVSPost2010Prop47
 90
       50
102
RTVSPost2010PropOp47
 70
     1
102
RTVSPost2010Prop48
 90
       50
102
RTVSPost2010PropOp48
 70
     1
102
RTVSPost2010Prop49
280
     0
102
RTVSPost2010PropOp49
 70
     1
102
RTVSPost2010Prop50
 90
       50
102
RTVSPost2010PropOp50
 70
     1
102
RTVSPost2010Prop51ColorIndex
 90
      256
102
RTVSPost2010Prop51ColorRGB
 90
-16777216
102
RTVSPost2010PropOp51
 70
     0
102
RTVSPost2010Prop52
140
1.0
102
RTVSPost2010PropOp52
 70
     0
102
RTVSPost2010Prop53
 90
        2
102
RTVSPost2010PropOp53
 70
     1
102
RTVSPost2010Prop54
  1
strokes_ogs.tif
102
RTVSPost2010PropOp54
 70
     1
102
RTVSPost2010Prop55
280
     0
102
RTVSPost2010PropOp55
 70
     1
102
RTVSPost2010Prop56
140
1.0
102
RTVSPost2010PropOp56
 70
     1
102
RTVSPost2010Prop57
140
1.0
102
RTVSPost2010PropOp57
 70
     1
  0
XRECORD
  5
456
102
{ACAD_REACTORS
330
455
102
}
330
455
100
AcDbXrecord
280
     1
102
RTVSPropertyOp0
 70
     1
102
RTVSPropertyOp1
 70
     1
102
RTVSPropertyOp2
 70
     1
102
RTVSPropertyOp3
 70
     1
102
RTVSPropertyOp4
 70
     1
102
RTVSPropertyOp5
 70
     1
102
RTVSPropertyOp6
 70
     1
102
RTVSPropertyOp7
 70
     1
102
RTVSPropertyOp8
 70
     1
102
RTVSPropertyOp9
 70
     1
102
RTVSPropertyOp10
 70
     1
102
RTVSPropertyOp11
 70
     1
102
RTVSPropertyOp12
 70
     1
102
RTVSPropertyOp13
 70
     1
102
RTVSPropertyOp14
 70
     1
102
RTVSPropertyOp15
 70
     1
102
RTVSPropertyOp16
 70
     1
102
RTVSPropertyOp17
 70
     1
102
RTVSPropertyOp18
 70
     1
102
RTVSPropertyOp19
 70
     1
102
RTVSPropertyOp20
 70
     1
102
RTVSPropertyOp21
 70
     1
102
RTVSPropertyOp22
 70
     1
102
RTVSPropertyOp23
 70
     1
102
RTVSPropertyOp24
 70
     1
102
RTVSPropertyOp25
 70
     1
102
RTVSPropertyOp26
 70
     1
102
RTVSPropertyOp27
 70
     1
102
RTVSPropertyOp28
 70
     1
102
RTVSPropertyOp29
 70
     1
102
RTVSPropertyOp30
 70
     1
102
RTVSPropertyOp31
 70
     1
102
RTVSPropertyOp32
 70
     1
102
RTVSPropertyOp33
 70
     1
102
RTVSPropertyOp34
 70
     1
102
RTVSPropertyOp35
 70
     1
102
RTVSPropertyOp36
 70
     1
102
RTVSPropertyOp37
 70
     1
102
RTVSPropertyOp38
 70
     1
102
RTVSPropertyOp39
 70
     1
102
RTVSPropertyOp40
 70
     1
102
RTVSPropertyOp41
 70
     1
102
RTVSPropertyOp42
 70
     1
102
RTVSPropertyOp43
 70
     1
102
RTVSPropertyOp44
 70
     1
102
RTVSPropertyOp45
 70
     1
102
RTVSPropertyOp46
 70
     1
102
RTVSPropertyOp47
 70
     1
102
RTVSPropertyOp48
 70
     1
102
RTVSPropertyOp49
 70
     1
102
RTVSPropertyOp50
 70
     1
102
RTVSPropertyOp51
 70
     0
102
RTVSPropertyOp52
 70
     0
102
RTVSPropertyOp53
 70
     1
102
RTVSPropertyOp54
 70
     1
102
RTVSPropertyOp55
 70
     1
102
RTVSPropertyOp56
 70
     1
102
RTVSPropertyOp57
 70
     1
102
RTVSPost2010Prop28
280
     0
102
RTVSPost2010PropOp28
 70
     1
102
RTVSPost2010Prop29
280
     1
102
RTVSPost2010PropOp29
 70
     1
102
RTVSPost2010Prop30
280
     1
102
RTVSPost2010PropOp30
 70
     1
102
RTVSPost2010Prop31
280
     0
102
RTVSPost2010PropOp31
 70
     1
102
RTVSPost2010Prop32
280
     0
102
RTVSPost2010PropOp32
 70
     1
102
RTVSPost2010Prop33
280
     0
102
RTVSPost2010PropOp33
 70
     1
102
RTVSPost2010Prop34
280
     0
102
RTVSPost2010PropOp34
 70
     1
102
RTVSPost2010Prop35
280
     0
102
RTVSPost2010PropOp35
 70
     1
102
RTVSPost2010Prop36
280
     0
102
RTVSPost2010PropOp36
 70
     1
102
RTVSPost2010Prop37
 90
       50
102
RTVSPost2010PropOp37
 70
     1
102
RTVSPost2010Prop38
140
0.0
102
RTVSPost2010PropOp38
 70
     1
102
RTVSPost2010Prop39
140
1.0
102
RTVSPost2010PropOp39
 70
     1
102
RTVSPost2010Prop40
 90
        0
102
RTVSPost2010PropOp40
 70
     1
102
RTVSPost2010Prop41ColorIndex
 90
       18
102
RTVSPost2010Prop41ColorRGB
 90
        0
102
RTVSPost2010PropOp41
 70
     1
102
RTVSPost2010Prop42
 90
       50
102
RTVSPost2010PropOp42
 70
     1
102
RTVSPost2010Prop43
 90
        3
102
RTVSPost2010PropOp43
 70
     1
102
RTVSPost2010Prop44ColorIndex
 90
        5
102
RTVSPost2010Prop44ColorRGB
 90
      255
102
RTVSPost2010PropOp44
 70
     1
102
RTVSPost2010Prop45
280
     0
102
RTVSPost2010PropOp45
 70
     1
102
RTVSPost2010Prop46
 90
       50
102
RTVSPost2010PropOp46
 70
     1
102
RTVSPost2010Prop47
 90
       50
102
RTVSPost2010PropOp47
 70
     1
102
RTVSPost2010Prop48
 90
       50
102
RTVSPost2010PropOp48
 70
     1
102
RTVSPost2010Prop49
280
     0
102
RTVSPost2010PropOp49
 70
     1
102
RTVSPost2010Prop50
 90
       50
102
RTVSPost2010PropOp50
 70
     1
102
RTVSPost2010Prop51ColorIndex
 90
      256
102
RTVSPost2010Prop51ColorRGB
 90
-16777216
102
RTVSPost2010PropOp51
 70
     0
102
RTVSPost2010Prop52
140
1.0
102
RTVSPost2010PropOp52
 70
     0
102
RTVSPost2010Prop53
 90
        2
102
RTVSPost2010PropOp53
 70
     1
102
RTVSPost2010Prop54
  1
strokes_ogs.tif
102
RTVSPost2010PropOp54
 70
     1
102
RTVSPost2010Prop55
280
     0
102
RTVSPost2010PropOp55
 70
     1
102
RTVSPost2010Prop56
140
1.0
102
RTVSPost2010PropOp56
 70
     1
102
RTVSPost2010Prop57
140
1.0
102
RTVSPost2010PropOp57
 70
     1
  0
XRECORD
  5
476
102
{ACAD_REACTORS
330
475
102
}
330
475
100
AcDbXrecord
280
     1
102
RTVSPropertyOp0
 70
     1
102
RTVSPropertyOp1
 70
     1
102
RTVSPropertyOp2
 70
     1
102
RTVSPropertyOp3
 70
     1
102
RTVSPropertyOp4
 70
     1
102
RTVSPropertyOp5
 70
     1
102
RTVSPropertyOp6
 70
     1
102
RTVSPropertyOp7
 70
     1
102
RTVSPropertyOp8
 70
     1
102
RTVSPropertyOp9
 70
     1
102
RTVSPropertyOp10
 70
     1
102
RTVSPropertyOp11
 70
     1
102
RTVSPropertyOp12
 70
     1
102
RTVSPropertyOp13
 70
     1
102
RTVSPropertyOp14
 70
     1
102
RTVSPropertyOp15
 70
     1
102
RTVSPropertyOp16
 70
     1
102
RTVSPropertyOp17
 70
     1
102
RTVSPropertyOp18
 70
     1
102
RTVSPropertyOp19
 70
     1
102
RTVSPropertyOp20
 70
     1
102
RTVSPropertyOp21
 70
     1
102
RTVSPropertyOp22
 70
     1
102
RTVSPropertyOp23
 70
     1
102
RTVSPropertyOp24
 70
     1
102
RTVSPropertyOp25
 70
     1
102
RTVSPropertyOp26
 70
     1
102
RTVSPropertyOp27
 70
     1
102
RTVSPropertyOp28
 70
     1
102
RTVSPropertyOp29
 70
     1
102
RTVSPropertyOp30
 70
     1
102
RTVSPropertyOp31
 70
     1
102
RTVSPropertyOp32
 70
     1
102
RTVSPropertyOp33
 70
     1
102
RTVSPropertyOp34
 70
     1
102
RTVSPropertyOp35
 70
     1
102
RTVSPropertyOp36
 70
     1
102
RTVSPropertyOp37
 70
     1
102
RTVSPropertyOp38
 70
     1
102
RTVSPropertyOp39
 70
     1
102
RTVSPropertyOp40
 70
     1
102
RTVSPropertyOp41
 70
     1
102
RTVSPropertyOp42
 70
     1
102
RTVSPropertyOp43
 70
     1
102
RTVSPropertyOp44
 70
     1
102
RTVSPropertyOp45
 70
     1
102
RTVSPropertyOp46
 70
     1
102
RTVSPropertyOp47
 70
     1
102
RTVSPropertyOp48
 70
     1
102
RTVSPropertyOp49
 70
     1
102
RTVSPropertyOp50
 70
     1
102
RTVSPropertyOp51
 70
     0
102
RTVSPropertyOp52
 70
     0
102
RTVSPropertyOp53
 70
     1
102
RTVSPropertyOp54
 70
     1
102
RTVSPropertyOp55
 70
     1
102
RTVSPropertyOp56
 70
     1
102
RTVSPropertyOp57
 70
     1
102
RTVSPost2010Prop28
280
     0
102
RTVSPost2010PropOp28
 70
     1
102
RTVSPost2010Prop29
280
     1
102
RTVSPost2010PropOp29
 70
     1
102
RTVSPost2010Prop30
280
     1
102
RTVSPost2010PropOp30
 70
     1
102
RTVSPost2010Prop31
280
     0
102
RTVSPost2010PropOp31
 70
     1
102
RTVSPost2010Prop32
280
     0
102
RTVSPost2010PropOp32
 70
     1
102
RTVSPost2010Prop33
280
     0
102
RTVSPost2010PropOp33
 70
     1
102
RTVSPost2010Prop34
280
     0
102
RTVSPost2010PropOp34
 70
     1
102
RTVSPost2010Prop35
280
     0
102
RTVSPost2010PropOp35
 70
     1
102
RTVSPost2010Prop36
280
     0
102
RTVSPost2010PropOp36
 70
     1
102
RTVSPost2010Prop37
 90
       50
102
RTVSPost2010PropOp37
 70
     1
102
RTVSPost2010Prop38
140
0.0
102
RTVSPost2010PropOp38
 70
     1
102
RTVSPost2010Prop39
140
1.0
102
RTVSPost2010PropOp39
 70
     1
102
RTVSPost2010Prop40
 90
        0
102
RTVSPost2010PropOp40
 70
     1
102
RTVSPost2010Prop41ColorIndex
 90
       18
102
RTVSPost2010Prop41ColorRGB
 90
        0
102
RTVSPost2010PropOp41
 70
     1
102
RTVSPost2010Prop42
 90
       50
102
RTVSPost2010PropOp42
 70
     1
102
RTVSPost2010Prop43
 90
        3
102
RTVSPost2010PropOp43
 70
     1
102
RTVSPost2010Prop44ColorIndex
 90
        5
102
RTVSPost2010Prop44ColorRGB
 90
      255
102
RTVSPost2010PropOp44
 70
     1
102
RTVSPost2010Prop45
280
     0
102
RTVSPost2010PropOp45
 70
     1
102
RTVSPost2010Prop46
 90
       50
102
RTVSPost2010PropOp46
 70
     1
102
RTVSPost2010Prop47
 90
       50
102
RTVSPost2010PropOp47
 70
     1
102
RTVSPost2010Prop48
 90
       50
102
RTVSPost2010PropOp48
 70
     1
102
RTVSPost2010Prop49
280
     0
102
RTVSPost2010PropOp49
 70
     1
102
RTVSPost2010Prop50
 90
       50
102
RTVSPost2010PropOp50
 70
     1
102
RTVSPost2010Prop51ColorIndex
 90
      256
102
RTVSPost2010Prop51ColorRGB
 90
-16777216
102
RTVSPost2010PropOp51
 70
     0
102
RTVSPost2010Prop52
140
1.0
102
RTVSPost2010PropOp52
 70
     0
102
RTVSPost2010Prop53
 90
        2
102
RTVSPost2010PropOp53
 70
     1
102
RTVSPost2010Prop54
  1
strokes_ogs.tif
102
RTVSPost2010PropOp54
 70
     1
102
RTVSPost2010Prop55
280
     0
102
RTVSPost2010PropOp55
 70
     1
102
RTVSPost2010Prop56
140
1.0
102
RTVSPost2010PropOp56
 70
     1
102
RTVSPost2010Prop57
140
1.0
102
RTVSPost2010PropOp57
 70
     1
  0
ENDSEC
  0
EOF
