  0
SECTION
  2
HEADER
  9
$ACADVER
  1
AC1018
  9
$ACADMAINTVER
 70
     0
  9
$DWGCODEPAGE
  3
ANSI_932
  9
$INSBASE
 10
0.0
 20
0.0
 30
0.0
  9
$EXTMIN
 10
-630.0
 20
-445.5
 30
0.0
  9
$EXTMAX
 10
630.0
 20
445.5
 30
0.0
  9
$LIMMIN
 10
-630.0
 20
-445.5
  9
$LIMMAX
 10
630.0
 20
445.5
  9
$ORTHOMODE
 70
     0
  9
$REGENMODE
 70
     1
  9
$FILLMODE
 70
     1
  9
$QTEXTMODE
 70
     0
  9
$MIRRTEXT
 70
     1
  9
$LTSCALE
 40
3.0
  9
$ATTMODE
 70
     1
  9
$TEXTSIZE
 40
2.5
  9
$TRACEWID
 40
1.0
  9
$TEXTSTYLE
  7
Standard
  9
$CLAYER
  8
0
  9
$CELTYPE
  6
ByLayer
  9
$CECOLOR
 62
   256
  9
$CELTSCALE
 40
1.0
  9
$DISPSILH
 70
     0
  9
$DIMSCALE
 40
1.0
  9
$DIMASZ
 40
2.5
  9
$DIMEXO
 40
0.625
  9
$DIMDLI
 40
3.75
  9
$DIMRND
 40
0.0
  9
$DIMDLE
 40
0.0
  9
$DIMEXE
 40
1.25
  9
$DIMTP
 40
0.0
  9
$DIMTM
 40
0.0
  9
$DIMTXT
 40
2.5
  9
$DIMCEN
 40
2.5
  9
$DIMTSZ
 40
0.0
  9
$DIMTOL
 70
     0
  9
$DIMLIM
 70
     0
  9
$DIMTIH
 70
     0
  9
$DIMTOH
 70
     0
  9
$DIMSE1
 70
     0
  9
$DIMSE2
 70
     0
  9
$DIMTAD
 70
     1
  9
$DIMZIN
 70
     8
  9
$DIMBLK
  1

  9
$DIMASO
 70
     1
  9
$DIMSHO
 70
     1
  9
$DIMPOST
  1

  9
$DIMAPOST
  1

  9
$DIMALT
 70
     0
  9
$DIMALTD
 70
     3
  9
$DIMALTF
 40
0.03937007874016
  9
$DIMLFAC
 40
1.0
  9
$DIMTOFL
 70
     1
  9
$DIMTVP
 40
0.0
  9
$DIMTIX
 70
     0
  9
$DIMSOXD
 70
     0
  9
$DIMSAH
 70
     0
  9
$DIMBLK1
  1

  9
$DIMBLK2
  1

  9
$DIMSTYLE
  2
ISO-25
  9
$DIMCLRD
 70
     0
  9
$DIMCLRE
 70
     0
  9
$DIMCLRT
 70
     0
  9
$DIMTFAC
 40
1.0
  9
$DIMGAP
 40
0.625
  9
$DIMJUST
 70
     0
  9
$DIMSD1
 70
     0
  9
$DIMSD2
 70
     0
  9
$DIMTOLJ
 70
     0
  9
$DIMTZIN
 70
     8
  9
$DIMALTZ
 70
     0
  9
$DIMALTTZ
 70
     0
  9
$DIMUPT
 70
     0
  9
$DIMDEC
 70
     2
  9
$DIMTDEC
 70
     2
  9
$DIMALTU
 70
     2
  9
$DIMALTTD
 70
     3
  9
$DIMTXSTY
  7
Standard
  9
$DIMAUNIT
 70
     0
  9
$DIMADEC
 70
     0
  9
$DIMALTRND
 40
0.0
  9
$DIMAZIN
 70
     0
  9
$DIMDSEP
 70
    44
  9
$DIMATFIT
 70
     3
  9
$DIMFRAC
 70
     0
  9
$DIMLDRBLK
  1

  9
$DIMLUNIT
 70
     2
  9
$DIMLWD
 70
    -2
  9
$DIMLWE
 70
    -2
  9
$DIMTMOVE
 70
     0
  9
$LUNITS
 70
     2
  9
$LUPREC
 70
     4
  9
$SKETCHINC
 40
1.0
  9
$FILLETRAD
 40
10.0
  9
$AUNITS
 70
     0
  9
$AUPREC
 70
     0
  9
$MENU
  1
.
  9
$ELEVATION
 40
0.0
  9
$PELEVATION
 40
0.0
  9
$THICKNESS
 40
0.0
  9
$LIMCHECK
 70
     0
  9
$CHAMFERA
 40
0.0
  9
$CHAMFERB
 40
0.0
  9
$CHAMFERC
 40
0.0
  9
$CHAMFERD
 40
0.0
  9
$SKPOLY
 70
     0
  9
$TDCREATE
 40
2460080.628241597
  9
$TDUCREATE
 40
2460080.253241597
  9
$TDUPDATE
 40
2460080.628241724
  9
$TDUUPDATE
 40
2460080.253241724
  9
$TDINDWG
 40
0.0000000116
  9
$TDUSRTIMER
 40
0.0000000116
  9
$USRTIMER
 70
     1
  9
$ANGBASE
 50
0.0
  9
$ANGDIR
 70
     0
  9
$PDMODE
 70
     0
  9
$PDSIZE
 40
0.0
  9
$PLINEWID
 40
0.0
  9
$SPLFRAME
 70
     0
  9
$SPLINETYPE
 70
     6
  9
$SPLINESEGS
 70
     8
  9
$HANDSEED
  5
2BB
  9
$SURFTAB1
 70
     6
  9
$SURFTAB2
 70
     6
  9
$SURFTYPE
 70
     6
  9
$SURFU
 70
     6
  9
$SURFV
 70
     6
  9
$UCSBASE
  2

  9
$UCSNAME
  2

  9
$UCSORG
 10
0.0
 20
0.0
 30
0.0
  9
$UCSXDIR
 10
1.0
 20
0.0
 30
0.0
  9
$UCSYDIR
 10
0.0
 20
1.0
 30
0.0
  9
$UCSORTHOREF
  2

  9
$UCSORTHOVIEW
 70
     0
  9
$UCSORGTOP
 10
0.0
 20
0.0
 30
0.0
  9
$UCSORGBOTTOM
 10
0.0
 20
0.0
 30
0.0
  9
$UCSORGLEFT
 10
0.0
 20
0.0
 30
0.0
  9
$UCSORGRIGHT
 10
0.0
 20
0.0
 30
0.0
  9
$UCSORGFRONT
 10
0.0
 20
0.0
 30
0.0
  9
$UCSORGBACK
 10
0.0
 20
0.0
 30
0.0
  9
$PUCSBASE
  2

  9
$PUCSNAME
  2

  9
$PUCSORG
 10
0.0
 20
0.0
 30
0.0
  9
$PUCSXDIR
 10
1.0
 20
0.0
 30
0.0
  9
$PUCSYDIR
 10
0.0
 20
1.0
 30
0.0
  9
$PUCSORTHOREF
  2

  9
$PUCSORTHOVIEW
 70
     0
  9
$PUCSORGTOP
 10
0.0
 20
0.0
 30
0.0
  9
$PUCSORGBOTTOM
 10
0.0
 20
0.0
 30
0.0
  9
$PUCSORGLEFT
 10
0.0
 20
0.0
 30
0.0
  9
$PUCSORGRIGHT
 10
0.0
 20
0.0
 30
0.0
  9
$PUCSORGFRONT
 10
0.0
 20
0.0
 30
0.0
  9
$PUCSORGBACK
 10
0.0
 20
0.0
 30
0.0
  9
$USERI1
 70
     0
  9
$USERI2
 70
     0
  9
$USERI3
 70
     0
  9
$USERI4
 70
     0
  9
$USERI5
 70
     0
  9
$USERR1
 40
0.0
  9
$USERR2
 40
0.0
  9
$USERR3
 40
0.0
  9
$USERR4
 40
0.0
  9
$USERR5
 40
0.0
  9
$WORLDVIEW
 70
     1
  9
$SHADEDGE
 70
     3
  9
$SHADEDIF
 70
    70
  9
$TILEMODE
 70
     1
  9
$MAXACTVP
 70
    64
  9
$PINSBASE
 10
0.0
 20
0.0
 30
0.0
  9
$PLIMCHECK
 70
     0
  9
$PEXTMIN
 10
1.000000000000000E+20
 20
1.000000000000000E+20
 30
1.000000000000000E+20
  9
$PEXTMAX
 10
-1.000000000000000E+20
 20
-1.000000000000000E+20
 30
-1.000000000000000E+20
  9
$PLIMMIN
 10
0.0
 20
0.0
  9
$PLIMMAX
 10
420.0
 20
297.0
  9
$UNITMODE
 70
     0
  9
$VISRETAIN
 70
     1
  9
$PLINEGEN
 70
     0
  9
$PSLTSCALE
 70
     1
  9
$TREEDEPTH
 70
  3020
  9
$CMLSTYLE
  2
Standard
  9
$CMLJUST
 70
     0
  9
$CMLSCALE
 40
20.0
  9
$PROXYGRAPHICS
 70
     1
  9
$MEASUREMENT
 70
     1
  9
$CELWEIGHT
370
    -1
  9
$ENDCAPS
280
     0
  9
$JOINSTYLE
280
     0
  9
$LWDISPLAY
290
     0
  9
$INSUNITS
 70
     4
  9
$HYPERLINKBASE
  1

  9
$STYLESHEET
  1

  9
$XEDIT
290
     1
  9
$CEPSNTYPE
380
     0
  9
$PSTYLEMODE
290
     1
  9
$FINGERPRINTGUID
  2
{A153DBEE-18F3-4E6E-89E9-2D6158E7E7F3}
  9
$VERSIONGUID
  2
{FAEB1C32-E019-11D5-929B-00C0DF256EC4}
  9
$EXTNAMES
290
     1
  9
$PSVPSCALE
 40
0.0
  9
$OLESTARTUP
290
     0
  9
$SORTENTS
280
   127
  9
$INDEXCTL
280
     0
  9
$HIDETEXT
280
     1
  9
$XCLIPFRAME
290
     0
  9
$HALOGAP
280
     0
  9
$OBSCOLOR
 70
   257
  9
$OBSLTYPE
280
     0
  9
$INTERSECTIONDISPLAY
280
     0
  9
$INTERSECTIONCOLOR
 70
   257
  9
$DIMASSOC
280
     2
  9
$PROJECTNAME
  1

  0
ENDSEC
  0
SECTION
  2
CLASSES
  0
CLASS
  1
ACDBDICTIONARYWDFLT
  2
AcDbDictionaryWithDefault
  3
ObjectDBX Classes
 90
        0
 91
        4
280
     0
281
     0
  0
CLASS
  1
VISUALSTYLE
  2
AcDbVisualStyle
  3
ObjectDBX Classes
 90
     4095
 91
        4
280
     0
281
     0
  0
CLASS
  1
MATERIAL
  2
AcDbMaterial
  3
ObjectDBX Classes
 90
     1153
 91
        4
280
     0
281
     0
  0
CLASS
  1
SCALE
  2
AcDbScale
  3
ObjectDBX Classes
 90
     1153
 91
        4
280
     0
281
     0
  0
CLASS
  1
TABLESTYLE
  2
AcDbTableStyle
  3
ObjectDBX Classes
 90
     4095
 91
        4
280
     0
281
     0
  0
CLASS
  1
MLEADERSTYLE
  2
AcDbMLeaderStyle
  3
ACDB_MLEADERSTYLE_CLASS
 90
     4095
 91
        4
280
     0
281
     0
  0
CLASS
  1
SUN
  2
AcDbSun
  3
SCENEOE
 90
     1153
 91
        4
280
     0
281
     0
  0
CLASS
  1
DICTIONARYVAR
  2
AcDbDictionaryVar
  3
ObjectDBX Classes
 90
        0
 91
        4
280
     0
281
     0
  0
CLASS
  1
CELLSTYLEMAP
  2
AcDbCellStyleMap
  3
ObjectDBX Classes
 90
     1152
 91
        4
280
     0
281
     0
  0
ENDSEC
  0
SECTION
  2
TABLES
  0
TABLE
  2
VPORT
  5
8
102
{ACAD_XDICTIONARY
360
272
102
}
330
0
100
AcDbSymbolTable
 70
     1
  0
VPORT
  5
29
330
8
100
AcDbSymbolTableRecord
100
AcDbViewportTableRecord
  2
*Active
 70
     0
 10
0.0
 20
0.0
 11
1.0
 21
1.0
 12
0.0
 22
0.0
 13
0.0
 23
0.0
 14
10.0
 24
10.0
 15
10.0
 25
10.0
 16
0.0
 26
0.0
 36
1.0
 17
0.0
 27
0.0
 37
0.0
 40
980.1
 41
1.414141414141414
 42
50.0
 43
0.0
 44
0.0
 50
0.0
 51
0.0
 71
     0
 72
 10000
 73
     1
 74
     3
 75
     0
 76
     0
 77
     0
 78
     0
281
     0
 65
     1
110
0.0
120
0.0
130
0.0
111
1.0
121
0.0
131
0.0
112
0.0
122
1.0
132
0.0
 79
     0
146
0.0
  0
ENDTAB
  0
TABLE
  2
LTYPE
  5
5
330
0
100
AcDbSymbolTable
 70
     4
  0
LTYPE
  5
14
330
5
100
AcDbSymbolTableRecord
100
AcDbLinetypeTableRecord
  2
ByBlock
 70
     0
  3

 72
    65
 73
     0
 40
0.0
  0
LTYPE
  5
15
330
5
100
AcDbSymbolTableRecord
100
AcDbLinetypeTableRecord
  2
ByLayer
 70
     0
  3

 72
    65
 73
     0
 40
0.0
  0
LTYPE
  5
16
330
5
100
AcDbSymbolTableRecord
100
AcDbLinetypeTableRecord
  2
Continuous
 70
     0
  3
Solid line
 72
    65
 73
     0
 40
0.0
  0
LTYPE
  5
6F
330
5
100
AcDbSymbolTableRecord
100
AcDbLinetypeTableRecord
  2
JWW_CENTER1
 70
     0
  3
-----  --  ----------  --  -----
 72
    65
 73
     4
 40
6.773333333333333
 49
4.233333333333333
 74
     0
 49
-0.8466666666666667
 74
     0
 49
0.8466666666666667
 74
     0
 49
-0.8466666666666667
 74
     0
  0
LTYPE
  5
70
330
5
100
AcDbSymbolTableRecord
100
AcDbLinetypeTableRecord
  2
JWW_DASHED1
 70
     0
  3
-  --  --  --  --  --  --  --  -
 72
    65
 73
     2
 40
1.693333333333333
 49
0.8466666666666667
 74
     0
 49
-0.8466666666666667
 74
     0
  0
LTYPE
  5
71
330
5
100
AcDbSymbolTableRecord
100
AcDbLinetypeTableRecord
  2
JWW_PHANTOM2
 70
     0
  3
------------  -  -  ------------
 72
    65
 73
     6
 40
13.54666666666667
 49
10.16
 74
     0
 49
-0.8466666666666667
 74
     0
 49
0.4233333333333333
 74
     0
 49
-0.8466666666666667
 74
     0
 49
0.4233333333333333
 74
     0
 49
-0.8466666666666667
 74
     0
  0
ENDTAB
  0
TABLE
  2
LAYER
  5
2
330
0
100
AcDbSymbolTable
 70
     7
  0
LAYER
  5
10
330
2
100
AcDbSymbolTableRecord
100
AcDbLayerTableRecord
  2
0
 70
     0
 62
     7
  6
Continuous
370
    -3
390
F
  0
LAYER
  5
72
330
2
100
AcDbSymbolTableRecord
100
AcDbLayerTableRecord
  2
F-5ﾚｲﾔ
 70
     0
 62
     7
  6
Continuous
370
    -3
390
F
  0
LAYER
  5
73
330
2
100
AcDbSymbolTableRecord
100
AcDbLayerTableRecord
  2
B-0
 70
     0
 62
     7
  6
Continuous
370
    -3
390
F
  0
LAYER
  5
74
330
2
100
AcDbSymbolTableRecord
100
AcDbLayerTableRecord
  2
B-2
 70
     0
 62
     7
  6
Continuous
370
    -3
390
F
  0
LAYER
  5
75
330
2
100
AcDbSymbolTableRecord
100
AcDbLayerTableRecord
  2
B-3
 70
     0
 62
     7
  6
Continuous
370
    -3
390
F
  0
LAYER
  5
76
330
2
100
AcDbSymbolTableRecord
100
AcDbLayerTableRecord
  2
B-4
 70
     0
 62
     7
  6
Continuous
370
    -3
390
F
  0
LAYER
  5
77
330
2
100
AcDbSymbolTableRecord
100
AcDbLayerTableRecord
  2
B-5
 70
     0
 62
     7
  6
Continuous
370
    -3
390
F
  0
ENDTAB
  0
TABLE
  2
STYLE
  5
3
330
0
100
AcDbSymbolTable
 70
     2
  0
STYLE
  5
11
330
3
100
AcDbSymbolTableRecord
100
AcDbTextStyleTableRecord
  2
Standard
 70
     0
 40
0.0
 41
1.0
 50
0.0
 71
     0
 42
2.5
  3
txt
  4

  0
STYLE
  5
6E
330
3
100
AcDbSymbolTableRecord
100
AcDbTextStyleTableRecord
  2
ＭＳ ゴシック
 70
     0
 40
1.0
 41
1.0
 50
0.0
 71
     0
 42
2.5
  3

  4

1001
ACAD
1000
MS Gothic
1071
    32817
  0
ENDTAB
  0
TABLE
  2
VIEW
  5
6
330
0
100
AcDbSymbolTable
 70
     0
  0
ENDTAB
  0
TABLE
  2
UCS
  5
7
330
0
100
AcDbSymbolTable
 70
     0
  0
ENDTAB
  0
TABLE
  2
APPID
  5
9
330
0
100
AcDbSymbolTable
 70
     2
  0
APPID
  5
12
330
9
100
AcDbSymbolTableRecord
100
AcDbRegAppTableRecord
  2
ACAD
 70
     0
  0
APPID
  5
2B1
330
9
100
AcDbSymbolTableRecord
100
AcDbRegAppTableRecord
  2
ACAD_MLEADERVER
 70
     0
  0
ENDTAB
  0
TABLE
  2
DIMSTYLE
  5
A
330
0
100
AcDbSymbolTable
 70
     1
100
AcDbDimStyleTable
  0
DIMSTYLE
105
27
330
A
100
AcDbSymbolTableRecord
100
AcDbDimStyleTableRecord
  2
ISO-25
 70
     0
 41
2.5
 42
0.625
 43
3.75
 44
1.25
 73
     0
 74
     0
 77
     1
 78
     8
140
2.5
141
2.5
143
0.03937007874016
147
0.625
171
     3
172
     1
178
     0
271
     2
272
     2
274
     3
278
    44
283
     0
284
     8
340
11
  0
ENDTAB
  0
TABLE
  2
BLOCK_RECORD
  5
1
330
0
100
AcDbSymbolTable
 70
     1
  0
BLOCK_RECORD
  5
1F
330
1
100
AcDbSymbolTableRecord
100
AcDbBlockTableRecord
  2
*Model_Space
340
22
  0
BLOCK_RECORD
  5
1B
330
1
100
AcDbSymbolTableRecord
100
AcDbBlockTableRecord
  2
*Paper_Space
340
1E
  0
BLOCK_RECORD
  5
23
330
1
100
AcDbSymbolTableRecord
100
AcDbBlockTableRecord
  2
*Paper_Space0
340
26
  0
ENDTAB
  0
ENDSEC
  0
SECTION
  2
BLOCKS
  0
BLOCK
  5
20
330
1F
100
AcDbEntity
  8
0
100
AcDbBlockBegin
  2
*Model_Space
 70
     0
 10
0.0
 20
0.0
 30
0.0
  3
*Model_Space
  1

  0
ENDBLK
  5
21
330
1F
100
AcDbEntity
  8
0
100
AcDbBlockEnd
  0
BLOCK
  5
1C
330
1B
100
AcDbEntity
 67
     1
  8
0
100
AcDbBlockBegin
  2
*Paper_Space
 70
     0
 10
0.0
 20
0.0
 30
0.0
  3
*Paper_Space
  1

  0
ENDBLK
  5
1D
330
1B
100
AcDbEntity
 67
     1
  8
0
100
AcDbBlockEnd
  0
BLOCK
  5
24
330
23
100
AcDbEntity
  8
0
100
AcDbBlockBegin
  2
*Paper_Space0
 70
     0
 10
0.0
 20
0.0
 30
0.0
  3
*Paper_Space0
  1

  0
ENDBLK
  5
25
330
23
100
AcDbEntity
  8
0
100
AcDbBlockEnd
  0
ENDSEC
  0
SECTION
  2
ENTITIES
  0
TEXT
  5
78
330
1F
100
AcDbEntity
  8
F-5ﾚｲﾔ
  6
Continuous
 62
     6
370
     9
100
AcDbText
 10
-40.78001459928548
 20
-331.9511210633175
 30
0.0
 40
9.144
  1
ステンレス鋳鋼製ルーフドレン　たて引き用　打込型　差し込み式
 41
0.75
  7
ＭＳ ゴシック
100
AcDbText
  0
TEXT
  5
79
330
1F
100
AcDbEntity
  8
F-5ﾚｲﾔ
  6
Continuous
 62
     2
370
     9
100
AcDbText
 10
-40.60159180329431
 20
-277.0956249041304
 30
0.0
 40
9.144
  1
※ご注文の際はＣ寸法をご指示ください。
 41
1.118421052631579
  7
ＭＳ ゴシック
100
AcDbText
  0
TEXT
  5
7A
330
1F
100
AcDbEntity
  8
F-5ﾚｲﾔ
  6
Continuous
 62
     6
370
     9
100
AcDbText
 10
-15.7746789929859
 20
-345.9747933707051
 30
0.0
 40
9.144
  1
モルタル・塗膜防水用　　　ＥＳＭＲ－１－５０　Ｃ＝指示
 41
0.75
  7
ＭＳ ゴシック
100
AcDbText
  0
LINE
  5
7B
330
1F
100
AcDbEntity
  8
B-0
  6
Continuous
 62
     3
370
     9
100
AcDbLine
 10
24.87790008011081
 20
229.941365693936
 30
0.0
 11
25.47106282293174
 21
232.6409836468499
 31
0.0
  0
LINE
  5
7C
330
1F
100
AcDbEntity
  8
B-0
  6
Continuous
 62
     3
370
     9
100
AcDbLine
 10
20.77514986896215
 20
231.5692227990881
 30
0.0
 11
25.47106282293174
 21
232.6409836468499
 31
0.0
  0
LINE
  5
7D
330
1F
100
AcDbEntity
  8
B-0
  6
Continuous
 62
     3
370
     9
100
AcDbLine
 10
21.93970065021215
 20
229.2707047986658
 30
0.0
 11
20.77514986896215
 21
231.5692227990881
 31
0.0
  0
LINE
  5
7E
330
1F
100
AcDbEntity
  8
B-0
  6
Continuous
 62
     3
370
     9
100
AcDbLine
 10
24.87790008011081
 20
229.941365693936
 30
0.0
 11
21.93970065021215
 21
229.2707047986658
 31
0.0
  0
LINE
  5
7F
330
1F
100
AcDbEntity
  8
B-0
  6
Continuous
 62
     3
370
     9
100
AcDbLine
 10
16.12021294962096
 20
253.5117903666556
 30
0.0
 11
15.4833028461581
 21
256.2014612386996
 31
0.0
  0
LINE
  5
80
330
1F
100
AcDbEntity
  8
B-0
  6
Continuous
 62
     3
370
     9
100
AcDbLine
 10
11.71756567343851
 20
253.1983335993415
 30
0.0
 11
15.4833028461581
 21
256.2014612386996
 31
0.0
  0
LINE
  5
81
330
1F
100
AcDbEntity
  8
B-0
  6
Continuous
 62
     3
370
     9
100
AcDbLine
 10
13.76409095848919
 20
251.6327323535645
 30
0.0
 11
11.71746669750945
 21
253.1983335993415
 31
0.0
  0
LINE
  5
82
330
1F
100
AcDbEntity
  8
B-0
  6
Continuous
 62
     3
370
     9
100
AcDbLine
 10
16.12021294962096
 20
253.5117903666556
 30
0.0
 11
13.76409095848919
 21
251.6327323535645
 31
0.0
  0
LINE
  5
83
330
1F
100
AcDbEntity
  8
B-0
  6
Continuous
 62
     3
370
     9
100
AcDbLine
 10
22.54147429886081
 20
240.1780501322806
 30
0.0
 11
24.24712648424934
 21
238.0031035792824
 31
0.0
  0
LINE
  5
84
330
1F
100
AcDbEntity
  8
B-0
  6
Continuous
 62
     3
370
     9
100
AcDbLine
 10
19.60327486896215
 20
239.5074387249749
 30
0.0
 11
19.55131250620877
 21
236.9312437555915
 31
0.0
  0
LINE
  5
85
330
1F
100
AcDbEntity
  8
B-0
  6
Continuous
 62
     3
370
     9
100
AcDbLine
 10
22.54147429886081
 20
240.1780501322806
 30
0.0
 11
19.60327486896215
 21
239.5073892370104
 31
0.0
  0
LINE
  5
86
330
1F
100
AcDbEntity
  8
B-0
  6
Continuous
 62
     3
370
     9
100
AcDbLine
 10
19.55131250620877
 20
236.9312437555915
 30
0.0
 11
24.24722546017841
 21
238.0030540913178
 31
0.0
  0
LINE
  5
87
330
1F
100
AcDbEntity
  8
B-0
  6
Continuous
 62
     3
370
     9
100
AcDbLine
 10
-1.996934960007424
 20
270.9481818362503
 30
0.0
 11
-3.737822576139198
 21
273.0951676892908
 31
0.0
  0
LINE
  5
88
330
1F
100
AcDbEntity
  8
B-0
  6
Continuous
 62
     3
370
     9
100
AcDbLine
 10
-5.827699318115551
 20
268.7555185919513
 30
0.0
 11
-3.737822576139198
 21
273.0951676892908
 31
0.0
  0
LINE
  5
89
330
1F
100
AcDbEntity
  8
B-0
  6
Continuous
 62
     3
370
     9
100
AcDbLine
 10
-3.304505958740551
 20
268.2328761985814
 30
0.0
 11
-5.827699318115551
 21
268.7554691039867
 31
0.0
  0
LINE
  5
8A
330
1F
100
AcDbEntity
  8
B-0
  6
Continuous
 62
     3
370
     9
100
AcDbLine
 10
-1.996934960007424
 20
270.9481818362503
 30
0.0
 11
-3.304505958740551
 21
268.2328761985814
 31
0.0
  0
LINE
  5
8B
330
1F
100
AcDbEntity
  8
B-0
  6
Continuous
 62
     3
370
     9
100
AcDbLine
 10
9.57364807419867
 20
261.720952898328
 30
0.0
 11
12.05408383222232
 21
260.501470476453
 31
0.0
  0
LINE
  5
8C
330
1F
100
AcDbEntity
  8
B-0
  6
Continuous
 62
     3
370
     9
100
AcDbLine
 10
7.217427107137839
 20
259.8418948852367
 30
0.0
 11
8.288346659502734
 21
257.4983428370949
 31
0.0
  0
LINE
  5
8D
330
1F
100
AcDbEntity
  8
B-0
  6
Continuous
 62
     3
370
     9
100
AcDbLine
 10
9.57364807419867
 20
261.720952898328
 30
0.0
 11
7.217427107137839
 21
259.8418948852367
 31
0.0
  0
LINE
  5
8E
330
1F
100
AcDbEntity
  8
B-0
  6
Continuous
 62
     3
370
     9
100
AcDbLine
 10
8.288346659502734
 20
257.4983428370949
 30
0.0
 11
12.05418280815138
 21
260.501470476453
 31
0.0
  0
LINE
  5
8F
330
1F
100
AcDbEntity
  8
B-0
  6
Continuous
 62
     3
370
     9
100
AcDbLine
 10
-25.88534454879545
 20
278.7971709620949
 30
0.0
 11
-28.38532805280727
 21
279.9761227410223
 31
0.0
  0
LINE
  5
90
330
1F
100
AcDbEntity
  8
B-0
  6
Continuous
 62
     3
370
     9
100
AcDbLine
 10
-28.38535279678951
 20
275.1595086415712
 30
0.0
 11
-28.38532805280727
 21
279.9761227410223
 31
0.0
  0
LINE
  5
91
330
1F
100
AcDbEntity
  8
B-0
  6
Continuous
 62
     3
370
     9
100
AcDbLine
 10
-25.88534454879545
 20
275.7833539223989
 30
0.0
 11
-28.38535279678951
 21
275.1595086415712
 31
0.0
  0
LINE
  5
92
330
1F
100
AcDbEntity
  8
B-0
  6
Continuous
 62
     3
370
     9
100
AcDbLine
 10
-25.88534454879545
 20
278.7971709620949
 30
0.0
 11
-25.88534454879545
 21
275.7833539223989
 31
0.0
  0
LINE
  5
93
330
1F
100
AcDbEntity
  8
B-0
  6
Continuous
 62
     3
370
     9
100
AcDbLine
 10
-11.45705425899394
 20
275.5039448746793
 30
0.0
 11
-8.693151440159456
 21
275.4814278508196
 31
0.0
  0
LINE
  5
94
330
1F
100
AcDbEntity
  8
B-0
  6
Continuous
 62
     3
370
     9
100
AcDbLine
 10
-12.76469948967383
 20
272.7886392370104
 30
0.0
 11
-10.78297869417128
 21
271.14177875348
 31
0.0
  0
LINE
  5
95
330
1F
100
AcDbEntity
  8
B-0
  6
Continuous
 62
     3
370
     9
100
AcDbLine
 10
-11.45705425899394
 20
275.5039448746793
 30
0.0
 11
-12.76469948967383
 21
272.7886887249749
 31
0.0
  0
LINE
  5
96
330
1F
100
AcDbEntity
  8
B-0
  6
Continuous
 62
     3
370
     9
100
AcDbLine
 10
-10.78295395018904
 20
271.14177875348
 30
0.0
 11
-8.693101952194924
 21
275.481477338784
 31
0.0
  0
LINE
  5
97
330
1F
100
AcDbEntity
  8
B-0
  6
Continuous
 62
     3
370
     9
100
AcDbLine
 10
-87.14854958733007
 20
229.941365693936
 30
0.0
 11
-87.74168758616872
 21
232.6409836468499
 31
0.0
  0
LINE
  5
98
330
1F
100
AcDbEntity
  8
B-0
  6
Continuous
 62
     3
370
     9
100
AcDbLine
 10
-83.04579937618144
 20
231.5692227990881
 30
0.0
 11
-87.74168758616872
 21
232.6409836468499
 31
0.0
  0
LINE
  5
99
330
1F
100
AcDbEntity
  8
B-0
  6
Continuous
 62
     3
370
     9
100
AcDbLine
 10
-84.21035015743144
 20
229.2707047986658
 30
0.0
 11
-83.04579937618144
 21
231.5692227990881
 31
0.0
  0
LINE
  5
9A
330
1F
100
AcDbEntity
  8
B-0
  6
Continuous
 62
     3
370
     9
100
AcDbLine
 10
-87.14854958733007
 20
229.941365693936
 30
0.0
 11
-84.21035015743144
 21
229.2707047986658
 31
0.0
  0
LINE
  5
9B
330
1F
100
AcDbEntity
  8
B-0
  6
Continuous
 62
     3
370
     9
100
AcDbLine
 10
-78.39088720082248
 20
253.5117903666556
 30
0.0
 11
-77.75395235337737
 21
256.2014612386996
 31
0.0
  0
LINE
  5
9C
330
1F
100
AcDbEntity
  8
B-0
  6
Continuous
 62
     3
370
     9
100
AcDbLine
 10
-73.98816569269326
 20
253.1983335993415
 30
0.0
 11
-77.75395235337737
 21
256.2014612386996
 31
0.0
  0
LINE
  5
9D
330
1F
100
AcDbEntity
  8
B-0
  6
Continuous
 62
     3
370
     9
100
AcDbLine
 10
-76.0346414897794
 20
251.6327323535645
 30
0.0
 11
-73.98811620472873
 21
253.1983335993415
 31
0.0
  0
LINE
  5
9E
330
1F
100
AcDbEntity
  8
B-0
  6
Continuous
 62
     3
370
     9
100
AcDbLine
 10
-78.39088720082248
 20
253.5117903666556
 30
0.0
 11
-76.0346414897794
 21
251.6327323535645
 31
0.0
  0
LINE
  5
9F
330
1F
100
AcDbEntity
  8
B-0
  6
Continuous
 62
     3
370
     9
100
AcDbLine
 10
-84.81209906209779
 20
240.1780501322806
 30
0.0
 11
-86.51780073545085
 21
238.0031035792824
 31
0.0
  0
LINE
  5
A0
330
1F
100
AcDbEntity
  8
B-0
  6
Continuous
 62
     3
370
     9
100
AcDbLine
 10
-81.8738748882169
 20
239.5074387249749
 30
0.0
 11
-81.82193726944575
 21
236.9312437555915
 31
0.0
  0
LINE
  5
A1
330
1F
100
AcDbEntity
  8
B-0
  6
Continuous
 62
     3
370
     9
100
AcDbLine
 10
-84.81209906209779
 20
240.1780501322806
 30
0.0
 11
-81.8738748882169
 21
239.5073892370104
 31
0.0
  0
LINE
  5
A2
330
1F
100
AcDbEntity
  8
B-0
  6
Continuous
 62
     3
370
     9
100
AcDbLine
 10
-81.82193726944575
 20
236.9312437555915
 30
0.0
 11
-86.5178254794331
 21
238.0030540913178
 31
0.0
  0
LINE
  5
A3
330
1F
100
AcDbEntity
  8
B-0
  6
Continuous
 62
     3
370
     9
100
AcDbLine
 10
-60.27368980322956
 20
270.9481818362503
 30
0.0
 11
-58.53282693108009
 21
273.0951676892908
 31
0.0
  0
LINE
  5
A4
330
1F
100
AcDbEntity
  8
B-0
  6
Continuous
 62
     3
370
     9
100
AcDbLine
 10
-56.44295018910372
 20
268.7555185919513
 30
0.0
 11
-58.53282693108009
 21
273.0951676892908
 31
0.0
  0
LINE
  5
A5
330
1F
100
AcDbEntity
  8
B-0
  6
Continuous
 62
     3
370
     9
100
AcDbLine
 10
-58.9660693165319
 20
268.2328761985814
 30
0.0
 11
-56.44295018910372
 21
268.7554691039867
 31
0.0
  0
LINE
  5
A6
330
1F
100
AcDbEntity
  8
B-0
  6
Continuous
 62
     3
370
     9
100
AcDbLine
 10
-60.27368980322956
 20
270.9481818362503
 30
0.0
 11
-58.9660693165319
 21
268.2328761985814
 31
0.0
  0
LINE
  5
A7
330
1F
100
AcDbEntity
  8
B-0
  6
Continuous
 62
     3
370
     9
100
AcDbLine
 10
-71.84427283743565
 20
261.720952898328
 30
0.0
 11
-74.32475808342383
 21
260.501470476453
 31
0.0
  0
LINE
  5
A8
330
1F
100
AcDbEntity
  8
B-0
  6
Continuous
 62
     3
370
     9
100
AcDbLine
 10
-69.48800238241029
 20
259.8418948852367
 30
0.0
 11
-70.55897142273972
 21
257.4983428370949
 31
0.0
  0
LINE
  5
A9
330
1F
100
AcDbEntity
  8
B-0
  6
Continuous
 62
     3
370
     9
100
AcDbLine
 10
-71.84427283743565
 20
261.720952898328
 30
0.0
 11
-69.48805187037482
 21
259.8418948852367
 31
0.0
  0
LINE
  5
AA
330
1F
100
AcDbEntity
  8
B-0
  6
Continuous
 62
     3
370
     9
100
AcDbLine
 10
-70.55899616672195
 20
257.4983428370949
 30
0.0
 11
-74.32478282740607
 21
260.501470476453
 31
0.0
  0
LINE
  5
AB
330
1F
100
AcDbEntity
  8
B-0
  6
Continuous
 62
     3
370
     9
100
AcDbLine
 10
-36.3852554704593
 20
278.7971709620949
 30
0.0
 11
-33.88529671042971
 21
279.9761227410223
 31
0.0
  0
LINE
  5
AC
330
1F
100
AcDbEntity
  8
B-0
  6
Continuous
 62
     3
370
     9
100
AcDbLine
 10
-33.88527196644748
 20
275.1595086415712
 30
0.0
 11
-33.88529671042971
 21
279.9761227410223
 31
0.0
  0
LINE
  5
AD
330
1F
100
AcDbEntity
  8
B-0
  6
Continuous
 62
     3
370
     9
100
AcDbLine
 10
-36.38528021444154
 20
275.7833539223989
 30
0.0
 11
-33.88524722246518
 21
275.1595086415712
 31
0.0
  0
LINE
  5
AE
330
1F
100
AcDbEntity
  8
B-0
  6
Continuous
 62
     3
370
     9
100
AcDbLine
 10
-36.3852554704593
 20
278.7971709620949
 30
0.0
 11
-36.3852554704593
 21
275.7833539223989
 31
0.0
  0
LINE
  5
AF
330
1F
100
AcDbEntity
  8
B-0
  6
Continuous
 62
     3
370
     9
100
AcDbLine
 10
-50.81354576026081
 20
275.5039448746793
 30
0.0
 11
-53.57747332307753
 21
275.4814278508196
 31
0.0
  0
LINE
  5
B0
330
1F
100
AcDbEntity
  8
B-0
  6
Continuous
 62
     3
370
     9
100
AcDbLine
 10
-49.50592527356315
 20
272.7886392370104
 30
0.0
 11
-51.48764606906571
 21
271.14177875348
 31
0.0
  0
LINE
  5
B1
330
1F
100
AcDbEntity
  8
B-0
  6
Continuous
 62
     3
370
     9
100
AcDbLine
 10
-50.81354576026081
 20
275.5039448746793
 30
0.0
 11
-49.50592527356315
 21
272.7886887249749
 31
0.0
  0
LINE
  5
B2
330
1F
100
AcDbEntity
  8
B-0
  6
Continuous
 62
     3
370
     9
100
AcDbLine
 10
-51.48769555703024
 20
271.14177875348
 30
0.0
 11
-53.57752281104206
 21
275.481477338784
 31
0.0
  0
LINE
  5
B3
330
1F
100
AcDbEntity
  8
B-2
  6
Continuous
 62
     4
370
     9
100
AcDbLine
 10
15.34632016034732
 20
223.7911004384462
 30
0.0
 11
15.11372672707029
 21
223.2925091958364
 31
0.0
  0
LINE
  5
B4
330
1F
100
AcDbEntity
  8
B-2
  6
Continuous
 62
     4
370
     9
100
AcDbLine
 10
14.61518497242503
 20
223.0600147384885
 30
0.0
 11
15.11372672707029
 21
223.2925091958364
 31
0.0
  0
LINE
  5
B5
330
1F
100
AcDbEntity
  8
B-2
  6
Continuous
 62
     4
370
     9
100
AcDbLine
 10
16.38289506533039
 20
223.7911004384462
 30
0.0
 11
16.61548849860742
 21
223.2925091958364
 31
0.0
  0
LINE
  5
B6
330
1F
100
AcDbEntity
  8
B-2
  6
Continuous
 62
     4
370
     9
100
AcDbLine
 10
17.11403025325274
 20
223.0600147384885
 30
0.0
 11
16.61548849860742
 21
223.2925091958364
 31
0.0
  0
LINE
  5
B7
330
1F
100
AcDbEntity
  8
B-2
  6
Continuous
 62
     4
370
     9
100
AcDbLine
 10
16.36112036093851
 20
225.0416613020442
 30
0.0
 11
16.38289506533039
 21
223.7911004384462
 31
0.0
  0
LINE
  5
B8
330
1F
100
AcDbEntity
  8
B-2
  6
Continuous
 62
     4
370
     9
100
AcDbLine
 10
13.36462410882706
 20
223.038190546132
 30
0.0
 11
14.61518497242503
 21
223.0600147384885
 31
0.0
  0
LINE
  5
B9
330
1F
100
AcDbEntity
  8
B-2
  6
Continuous
 62
     4
370
     9
100
AcDbLine
 10
18.3645911168507
 20
223.038190546132
 30
0.0
 11
17.11403025325274
 21
223.0600147384885
 31
0.0
  0
LINE
  5
BA
330
1F
100
AcDbEntity
  8
B-2
  6
Continuous
 62
     4
370
     9
100
AcDbLine
 10
16.36112036093851
 20
225.0416613020442
 30
0.0
 11
15.36809486473919
 21
225.0416613020442
 31
0.0
  0
LINE
  5
BB
330
1F
100
AcDbEntity
  8
B-2
  6
Continuous
 62
     4
370
     9
100
AcDbLine
 10
15.36809486473919
 20
225.0416613020442
 30
0.0
 11
15.34632016034732
 21
223.7911004384462
 31
0.0
  0
LINE
  5
BC
330
1F
100
AcDbEntity
  8
B-2
  6
Continuous
 62
     4
370
     9
100
AcDbLine
 10
18.3645911168507
 20
223.038190546132
 30
0.0
 11
18.3645911168507
 21
222.5416283100678
 31
0.0
  0
LINE
  5
BD
330
1F
100
AcDbEntity
  8
B-2
  6
Continuous
 62
     4
370
     9
100
AcDbLine
 10
13.36462410882706
 20
223.038190546132
 30
0.0
 11
13.36462410882706
 21
222.5416283100678
 31
0.0
  0
LINE
  5
BE
330
1F
100
AcDbEntity
  8
B-2
  6
Continuous
 62
     4
370
     9
100
AcDbLine
 10
-77.61689543561975
 20
223.7911004384462
 30
0.0
 11
-77.38442572225404
 21
223.2925091958364
 31
0.0
  0
LINE
  5
BF
330
1F
100
AcDbEntity
  8
B-2
  6
Continuous
 62
     4
370
     9
100
AcDbLine
 10
-76.88578499167971
 20
223.0600147384885
 30
0.0
 11
-77.38442572225404
 21
223.2925091958364
 31
0.0
  0
LINE
  5
C0
330
1F
100
AcDbEntity
  8
B-2
  6
Continuous
 62
     4
370
     9
100
AcDbLine
 10
-78.6535693165319
 20
223.7911004384462
 30
0.0
 11
-78.88606377387987
 21
223.2925091958364
 31
0.0
  0
LINE
  5
C1
330
1F
100
AcDbEntity
  8
B-2
  6
Continuous
 62
     4
370
     9
100
AcDbLine
 10
-79.38465501648972
 20
223.0600147384885
 30
0.0
 11
-78.88606377387987
 21
223.2925091958364
 31
0.0
  0
LINE
  5
C2
330
1F
100
AcDbEntity
  8
B-2
  6
Continuous
 62
     4
370
     9
100
AcDbLine
 10
-78.63172038019326
 20
225.0416613020442
 30
0.0
 11
-78.6535693165319
 21
223.7911004384462
 31
0.0
  0
LINE
  5
C3
330
1F
100
AcDbEntity
  8
B-2
  6
Continuous
 62
     4
370
     9
100
AcDbLine
 10
-75.63524887206404
 20
223.038190546132
 30
0.0
 11
-76.88578499167971
 21
223.0600147384885
 31
0.0
  0
LINE
  5
C4
330
1F
100
AcDbEntity
  8
B-2
  6
Continuous
 62
     4
370
     9
100
AcDbLine
 10
-80.63521588008769
 20
223.038190546132
 30
0.0
 11
-79.38465501648972
 21
223.0600147384885
 31
0.0
  0
LINE
  5
C5
330
1F
100
AcDbEntity
  8
B-2
  6
Continuous
 62
     4
370
     9
100
AcDbLine
 10
-78.63172038019326
 20
225.0416613020442
 30
0.0
 11
-77.63874437195847
 21
225.0416613020442
 31
0.0
  0
LINE
  5
C6
330
1F
100
AcDbEntity
  8
B-2
  6
Continuous
 62
     4
370
     9
100
AcDbLine
 10
-77.63874437195847
 20
225.0416613020442
 30
0.0
 11
-77.61689543561975
 21
223.7911004384462
 31
0.0
  0
LINE
  5
C7
330
1F
100
AcDbEntity
  8
B-2
  6
Continuous
 62
     4
370
     9
100
AcDbLine
 10
-80.63521588008769
 20
223.038190546132
 30
0.0
 11
-80.63521588008769
 21
222.5416283100678
 31
0.0
  0
LINE
  5
C8
330
1F
100
AcDbEntity
  8
B-2
  6
Continuous
 62
     4
370
     9
100
AcDbLine
 10
-75.63524887206404
 20
223.038190546132
 30
0.0
 11
-75.63524887206404
 21
222.5416283100678
 31
0.0
  0
LINE
  5
C9
330
1F
100
AcDbEntity
  8
B-2
  6
Continuous
 62
     6
370
     9
100
AcDbLine
 10
8.435523866006065
 20
233.5416151132773
 30
0.0
 11
8.626448433151381
 21
232.5416613020442
 31
0.0
  0
LINE
  5
CA
330
1F
100
AcDbEntity
  8
B-2
  6
Continuous
 62
     6
370
     9
100
AcDbLine
 10
8.626448433151381
 20
232.5416613020442
 30
0.0
 11
17.85456815443513
 21
232.5416613020442
 31
0.0
  0
LINE
  5
CB
330
1F
100
AcDbEntity
  8
B-2
  6
Continuous
 62
     6
370
     9
100
AcDbLine
 10
8.435523866006065
 20
233.5416151132773
 30
0.0
 11
18.66429023002638
 21
233.5416151132773
 31
0.0
  0
LINE
  5
CC
330
1F
100
AcDbEntity
  8
B-2
  6
Continuous
 62
     6
370
     9
100
AcDbLine
 10
18.66429023002638
 20
233.5416151132773
 30
0.0
 11
17.85456815443513
 21
232.5416613020442
 31
0.0
  0
LINE
  5
CD
330
1F
100
AcDbEntity
  8
B-2
  6
Continuous
 62
     6
370
     9
100
AcDbLine
 10
-70.70612388526081
 20
233.5416151132773
 30
0.0
 11
-70.8970979403706
 21
232.5416613020442
 31
0.0
  0
LINE
  5
CE
330
1F
100
AcDbEntity
  8
B-2
  6
Continuous
 62
     6
370
     9
100
AcDbLine
 10
-70.8970979403706
 20
232.5416613020442
 30
0.0
 11
-80.12516817368987
 21
232.5416613020442
 31
0.0
  0
LINE
  5
CF
330
1F
100
AcDbEntity
  8
B-2
  6
Continuous
 62
     6
370
     9
100
AcDbLine
 10
-70.70612388526081
 20
233.5416151132773
 30
0.0
 11
-80.93498922521013
 21
233.5416151132773
 31
0.0
  0
LINE
  5
D0
330
1F
100
AcDbEntity
  8
B-2
  6
Continuous
 62
     6
370
     9
100
AcDbLine
 10
-80.93498922521013
 20
233.5416151132773
 30
0.0
 11
-80.12516817368987
 21
232.5416613020442
 31
0.0
  0
LINE
  5
D1
330
1F
100
AcDbEntity
  8
B-2
  6
Continuous
 62
     6
370
     9
100
AcDbLine
 10
6.668902508320286
 20
238.5944352674158
 30
0.0
 11
1.509089374874344
 21
236.4034051259462
 31
0.0
  0
LINE
  5
D2
330
1F
100
AcDbEntity
  8
B-2
  6
Continuous
 62
     6
370
     9
100
AcDbLine
 10
9.630460257475702
 20
227.541644806056
 30
0.0
 11
4.06652840570206
 21
226.8592552631928
 31
0.0
  0
LINE
  5
D3
330
1F
100
AcDbEntity
  8
B-2
  6
Continuous
 62
     6
370
     9
100
AcDbLine
 10
-6.422247723943261
 20
255.3459133079564
 30
0.0
 11
-9.79524841017633
 21
250.8685392053381
 31
0.0
  0
LINE
  5
D4
330
1F
100
AcDbEntity
  8
B-2
  6
Continuous
 62
     6
370
     9
100
AcDbLine
 10
1.668935500296639
 20
247.254680595752
 30
0.0
 11
-2.808438602321592
 21
243.8816799095189
 31
0.0
  0
LINE
  5
D5
330
1F
100
AcDbEntity
  8
B-2
  6
Continuous
 62
     6
370
     9
100
AcDbLine
 10
-26.13530825762143
 20
263.3074875530999
 30
0.0
 11
-26.81774728844914
 21
257.7434567253972
 31
0.0
  0
LINE
  5
D6
330
1F
100
AcDbEntity
  8
B-2
  6
Continuous
 62
     6
370
     9
100
AcDbLine
 10
-15.08254254024394
 20
260.34588031598
 30
0.0
 11
-17.27352319374899
 21
255.186067182534
 31
0.0
  0
LINE
  5
D7
330
1F
100
AcDbEntity
  8
B-2
  6
Continuous
 62
     6
370
     9
100
AcDbLine
 10
-47.18805747901081
 20
260.34588031598
 30
0.0
 11
-44.99707682550576
 21
255.186067182534
 31
0.0
  0
LINE
  5
D8
330
1F
100
AcDbEntity
  8
B-2
  6
Continuous
 62
     6
370
     9
100
AcDbLine
 10
-36.13529176163325
 20
263.3074380651354
 30
0.0
 11
-35.45287747478784
 21
257.7434567253972
 31
0.0
  0
LINE
  5
D9
330
1F
100
AcDbEntity
  8
B-2
  6
Continuous
 62
     6
370
     9
100
AcDbLine
 10
-63.93951077556909
 20
247.2547300837165
 30
0.0
 11
-59.46216141693309
 21
243.8816799095189
 31
0.0
  0
LINE
  5
DA
330
1F
100
AcDbEntity
  8
B-2
  6
Continuous
 62
     6
370
     9
100
AcDbLine
 10
-55.84835229531149
 20
255.3459133079564
 30
0.0
 11
-52.47532686509612
 21
250.8685392053381
 31
0.0
  0
LINE
  5
DB
330
1F
100
AcDbEntity
  8
B-2
  6
Continuous
 62
     6
370
     9
100
AcDbLine
 10
-71.90110976469492
 20
227.5416942940206
 30
0.0
 11
-66.33710368097451
 21
226.8592552631928
 31
0.0
  0
LINE
  5
DC
330
1F
100
AcDbEntity
  8
B-2
  6
Continuous
 62
     6
370
     9
100
AcDbLine
 10
-68.93950252757497
 20
238.5944352674158
 30
0.0
 11
-63.77976362607586
 21
236.4034051259462
 31
0.0
  0
LINE
  5
DD
330
1F
100
AcDbEntity
  8
B-2
  6
Continuous
 62
     6
370
     9
100
AcDbLine
 10
-54.15024702451337
 20
225.7916514044513
 30
0.0
 11
-47.45821227736383
 21
225.7916514044513
 31
0.0
  0
LINE
  5
DE
330
1F
100
AcDbEntity
  8
B-2
  6
Continuous
 62
     6
370
     9
100
AcDbLine
 10
-49.70741552113498
 20
236.5176233480746
 30
0.0
 11
-44.97542584102519
 21
231.7855841800003
 31
0.0
  0
LINE
  5
DF
330
1F
100
AcDbEntity
  8
B-2
  6
Continuous
 62
     6
370
     9
100
AcDbLine
 10
-12.56320924210201
 20
236.5176233480746
 30
0.0
 11
-17.29517417822956
 21
231.7855841800003
 31
0.0
  0
LINE
  5
E0
330
1F
100
AcDbEntity
  8
B-2
  6
Continuous
 62
     6
370
     9
100
AcDbLine
 10
-8.120377738723622
 20
225.7916514044513
 30
0.0
 11
-14.81241248587316
 21
225.7916514044513
 31
0.0
  0
LINE
  5
E1
330
1F
100
AcDbEntity
  8
B-2
  6
Continuous
 62
     6
370
     9
100
AcDbLine
 10
-27.88532640320847
 20
245.556600068936
 30
0.0
 11
-27.88532640320847
 21
238.8645900657689
 31
0.0
  0
LINE
  5
E2
330
1F
100
AcDbEntity
  8
B-2
  6
Continuous
 62
     6
370
     9
100
AcDbLine
 10
-17.15937920356737
 20
241.1137685655577
 30
0.0
 11
-21.89136888367716
 21
236.3818283734124
 31
0.0
  0
LINE
  5
E3
330
1F
100
AcDbEntity
  8
B-2
  6
Continuous
 62
     6
370
     9
100
AcDbLine
 10
-45.11124555966961
 20
241.1137685655577
 30
0.0
 11
-40.37925587955976
 21
236.3818283734124
 31
0.0
  0
LINE
  5
E4
330
1F
100
AcDbEntity
  8
B-2
  6
Continuous
 62
     6
370
     9
100
AcDbLine
 10
-34.38529836002851
 20
245.556600068936
 30
0.0
 11
-34.38529836002851
 21
238.8645900657689
 31
0.0
  0
LINE
  5
E5
330
1F
100
AcDbEntity
  8
B-2
  6
Continuous
 62
     6
370
     9
100
AcDbLine
 10
-38.18424195694575
 20
225.7916514044513
 30
0.0
 11
-24.08638280629123
 21
225.7916514044513
 31
0.0
  0
LINE
  5
E6
330
1F
100
AcDbEntity
  8
B-0
  6
JWW_CENTER1
 62
     3
370
     9
100
AcDbLine
 10
-31.13530000962737
 20
303.2072579289446
 30
0.0
 11
-31.13530000962737
 21
215.5339345811827
 31
0.0
  0
LINE
  5
E7
330
1F
100
AcDbEntity
  8
B-0
  6
JWW_CENTER1
 62
     3
370
     9
100
AcDbLine
 10
-114.1440857729297
 20
222.5416283100678
 30
0.0
 11
51.86497382377638
 21
222.5416283100678
 31
0.0
  0
LINE
  5
E8
330
1F
100
AcDbEntity
  8
B-2
  6
JWW_CENTER1
 62
     4
370
     9
100
AcDbLine
 10
-78.1352571200581
 20
230.0814166335476
 30
0.0
 11
-78.1352571200581
 21
220.7055753381506
 31
0.0
  0
LINE
  5
E9
330
1F
100
AcDbEntity
  8
B-2
  6
JWW_CENTER1
 62
     4
370
     9
100
AcDbLine
 10
15.86465710080341
 20
230.0814166335476
 30
0.0
 11
15.86465710080341
 21
220.7055753381506
 31
0.0
  0
ARC
  5
EA
330
1F
100
AcDbEntity
  8
B-0
  6
Continuous
 62
     3
370
     9
100
AcDbCircle
 10
-31.13530000962737
 20
222.5416283100678
 30
0.0
 40
56.49990803486592
100
AcDbArc
 50
18.18876647949221
 51
33.23980712890627
  0
ARC
  5
EB
330
1F
100
AcDbEntity
  8
B-0
  6
Continuous
 62
     3
370
     9
100
AcDbCircle
 10
-31.13530000962737
 20
222.5416283100678
 30
0.0
 40
53.49992288125527
100
AcDbArc
 50
18.48867797851565
 51
32.93989562988284
  0
ARC
  5
EC
330
1F
100
AcDbEntity
  8
B-0
  6
Continuous
 62
     3
370
     9
100
AcDbCircle
 10
-31.13530000962737
 20
222.5416283100678
 30
0.0
 40
57.50024537782411
100
AcDbArc
 50
15.59840393066408
 51
35.8301696777344
  0
ARC
  5
ED
330
1F
100
AcDbEntity
  8
B-0
  6
Continuous
 62
     3
370
     9
100
AcDbCircle
 10
-31.13532475360961
 20
222.5416777980324
 30
0.0
 40
52.6896131360853
100
AcDbArc
 50
9.86535644531252
 51
15.84884643554689
  0
ARC
  5
EE
330
1F
100
AcDbEntity
  8
B-0
  6
Continuous
 62
     3
370
     9
100
AcDbCircle
 10
-31.13530000962737
 20
222.5416283100678
 30
0.0
 40
56.49990803486592
100
AcDbArc
 50
43.9030456542969
 51
58.95408630371096
  0
ARC
  5
EF
330
1F
100
AcDbEntity
  8
B-0
  6
Continuous
 62
     3
370
     9
100
AcDbCircle
 10
-31.13530000962737
 20
222.5416283100678
 30
0.0
 40
53.49992288125527
100
AcDbArc
 50
44.20295715332034
 51
58.65417480468753
  0
ARC
  5
F0
330
1F
100
AcDbEntity
  8
B-0
  6
Continuous
 62
     3
370
     9
100
AcDbCircle
 10
-31.13530000962737
 20
222.5416283100678
 30
0.0
 40
57.50024537782411
100
AcDbArc
 50
41.31268310546877
 51
61.54444885253908
  0
ARC
  5
F1
330
1F
100
AcDbEntity
  8
B-0
  6
Continuous
 62
     3
370
     9
100
AcDbCircle
 10
-31.13532475360961
 20
222.5416777980324
 30
0.0
 40
52.6896131360853
100
AcDbArc
 50
35.57963562011723
 51
41.56312561035161
  0
ARC
  5
F2
330
1F
100
AcDbEntity
  8
B-0
  6
Continuous
 62
     3
370
     9
100
AcDbCircle
 10
-31.13530000962737
 20
222.5416283100678
 30
0.0
 40
56.49990803486592
100
AcDbArc
 50
69.61734008789062
 51
84.6683807373047
  0
ARC
  5
F3
330
1F
100
AcDbEntity
  8
B-0
  6
Continuous
 62
     3
370
     9
100
AcDbCircle
 10
-31.13530000962737
 20
222.5416283100678
 30
0.0
 40
53.49992288125527
100
AcDbArc
 50
69.91725158691408
 51
84.36846923828126
  0
ARC
  5
F4
330
1F
100
AcDbEntity
  8
B-0
  6
Continuous
 62
     3
370
     9
100
AcDbCircle
 10
-31.13530000962737
 20
222.5416283100678
 30
0.0
 40
57.50024537782411
100
AcDbArc
 50
67.0269775390625
 51
87.2587432861328
  0
ARC
  5
F5
330
1F
100
AcDbEntity
  8
B-0
  6
Continuous
 62
     3
370
     9
100
AcDbCircle
 10
-31.1353494975919
 20
222.5416777980324
 30
0.0
 40
52.6896131360853
100
AcDbArc
 50
61.29393005371099
 51
67.27742004394537
  0
ARC
  5
F6
330
1F
100
AcDbEntity
  8
B-0
  6
Continuous
 62
     3
370
     9
100
AcDbCircle
 10
-31.13530000962737
 20
222.5416283100678
 30
0.0
 40
51.31455292572846
100
AcDbArc
 50
11.94525146484373
 51
81.66943359374999
  0
ARC
  5
F7
330
1F
100
AcDbEntity
  8
B-0
  6
Continuous
 62
     3
370
     9
100
AcDbCircle
 10
-31.13530000962737
 20
222.5416283100678
 30
0.0
 40
56.49990803486592
100
AcDbArc
 50
146.7601928710938
 51
161.8112335205079
  0
ARC
  5
F8
330
1F
100
AcDbEntity
  8
B-0
  6
Continuous
 62
     3
370
     9
100
AcDbCircle
 10
-31.13530000962737
 20
222.5416283100678
 30
0.0
 40
53.49992288125527
100
AcDbArc
 50
147.0601043701172
 51
161.5113220214844
  0
ARC
  5
F9
330
1F
100
AcDbEntity
  8
B-0
  6
Continuous
 62
     3
370
     9
100
AcDbCircle
 10
-31.13530000962737
 20
222.5416283100678
 30
0.0
 40
57.50024537782411
100
AcDbArc
 50
144.1698303222657
 51
164.401596069336
  0
ARC
  5
FA
330
1F
100
AcDbEntity
  8
B-0
  6
Continuous
 62
     3
370
     9
100
AcDbCircle
 10
-31.13530000962737
 20
222.5416777980324
 30
0.0
 40
52.6896131360853
100
AcDbArc
 50
164.1511688232422
 51
170.1346588134766
  0
ARC
  5
FB
330
1F
100
AcDbEntity
  8
B-0
  6
Continuous
 62
     3
370
     9
100
AcDbCircle
 10
-31.13530000962737
 20
222.5416283100678
 30
0.0
 40
56.49990803486592
100
AcDbArc
 50
121.0459136962891
 51
136.0969543457032
  0
ARC
  5
FC
330
1F
100
AcDbEntity
  8
B-0
  6
Continuous
 62
     3
370
     9
100
AcDbCircle
 10
-31.13530000962737
 20
222.5416283100678
 30
0.0
 40
53.49992288125527
100
AcDbArc
 50
121.3458251953126
 51
135.7970428466797
  0
ARC
  5
FD
330
1F
100
AcDbEntity
  8
B-0
  6
Continuous
 62
     3
370
     9
100
AcDbCircle
 10
-31.13530000962737
 20
222.5416283100678
 30
0.0
 40
57.50024537782411
100
AcDbArc
 50
118.455551147461
 51
138.6873168945313
  0
ARC
  5
FE
330
1F
100
AcDbEntity
  8
B-0
  6
Continuous
 62
     3
370
     9
100
AcDbCircle
 10
-31.13530000962737
 20
222.5416777980324
 30
0.0
 40
52.6896131360853
100
AcDbArc
 50
138.4368743896485
 51
144.4203643798828
  0
ARC
  5
FF
330
1F
100
AcDbEntity
  8
B-0
  6
Continuous
 62
     3
370
     9
100
AcDbCircle
 10
-31.13530000962737
 20
222.5416283100678
 30
0.0
 40
56.49990803486592
100
AcDbArc
 50
95.33163452148439
 51
110.3826751708985
  0
ARC
  5
100
330
1F
100
AcDbEntity
  8
B-0
  6
Continuous
 62
     3
370
     9
100
AcDbCircle
 10
-31.13530000962737
 20
222.5416283100678
 30
0.0
 40
53.49992288125527
100
AcDbArc
 50
95.63153076171879
 51
110.082748413086
  0
ARC
  5
101
330
1F
100
AcDbEntity
  8
B-0
  6
Continuous
 62
     3
370
     9
100
AcDbCircle
 10
-31.13530000962737
 20
222.5416283100678
 30
0.0
 40
57.50024537782411
100
AcDbArc
 50
92.74125671386723
 51
112.9730224609375
  0
ARC
  5
102
330
1F
100
AcDbEntity
  8
B-0
  6
Continuous
 62
     3
370
     9
100
AcDbCircle
 10
-31.13527526564508
 20
222.5416777980324
 30
0.0
 40
52.6896131360853
100
AcDbArc
 50
112.7225799560548
 51
118.7060699462891
  0
ARC
  5
103
330
1F
100
AcDbEntity
  8
B-0
  6
Continuous
 62
     3
370
     9
100
AcDbCircle
 10
-31.13530000962737
 20
222.5416283100678
 30
0.0
 40
51.31455292572846
100
AcDbArc
 50
98.33056640625
 51
168.0547485351562
  0
ARC
  5
104
330
1F
100
AcDbEntity
  8
B-0
  6
Continuous
 62
     3
370
     9
100
AcDbCircle
 10
-31.13530000962737
 20
192.6277373683449
 30
0.0
 40
81.86729018752638
100
AcDbArc
 50
87.78402709960938
 51
92.21597290039064
  0
ARC
  5
105
330
1F
100
AcDbEntity
  8
B-0
  6
Continuous
 62
     3
370
     9
100
AcDbCircle
 10
-31.1353494975919
 20
222.5416283100678
 30
0.0
 40
52.6896131360853
100
AcDbArc
 50
87.00820922851562
 51
92.99166870117189
  0
ARC
  5
106
330
1F
100
AcDbEntity
  8
B-0
  6
Continuous
 62
     3
370
     9
100
AcDbCircle
 10
-31.13530000962737
 20
222.5416283100678
 30
0.0
 40
57.50024537782411
100
AcDbArc
 50
0.0
 51
10.1158752441406
  0
ARC
  5
107
330
1F
100
AcDbEntity
  8
B-0
  6
Continuous
 62
     3
370
     9
100
AcDbCircle
 10
-31.13530000962737
 20
222.5416283100678
 30
0.0
 40
56.49990803486592
100
AcDbArc
 50
0.0
 51
7.525512695312475
  0
ARC
  5
108
330
1F
100
AcDbEntity
  8
B-0
  6
Continuous
 62
     3
370
     9
100
AcDbCircle
 10
-31.13530000962737
 20
222.5416283100678
 30
0.0
 40
53.49992288125527
100
AcDbArc
 50
0.0
 51
7.225601196289037
  0
ARC
  5
109
330
1F
100
AcDbEntity
  8
B-0
  6
Continuous
 62
     3
370
     9
100
AcDbCircle
 10
-31.13530000962737
 20
222.5416283100678
 30
0.0
 40
57.50024537782411
100
AcDbArc
 50
169.8841247558594
 51
180.0
  0
ARC
  5
10A
330
1F
100
AcDbEntity
  8
B-0
  6
Continuous
 62
     3
370
     9
100
AcDbCircle
 10
-31.13530000962737
 20
222.5416283100678
 30
0.0
 40
56.49990803486592
100
AcDbArc
 50
172.4744873046876
 51
180.0
  0
ARC
  5
10B
330
1F
100
AcDbEntity
  8
B-0
  6
Continuous
 62
     3
370
     9
100
AcDbCircle
 10
-31.13530000962737
 20
222.5416283100678
 30
0.0
 40
53.49992288125527
100
AcDbArc
 50
172.774398803711
 51
180.0
  0
ARC
  5
10C
330
1F
100
AcDbEntity
  8
B-2
  6
Continuous
 62
     4
370
     9
100
AcDbCircle
 10
15.86465710080341
 20
222.5416283100678
 30
0.0
 40
5.249999922675055
100
AcDbArc
 50
0.0
 51
180.0
  0
ARC
  5
10D
330
1F
100
AcDbEntity
  8
B-2
  6
Continuous
 62
     4
370
     9
100
AcDbCircle
 10
-78.1352571200581
 20
222.5416283100678
 30
0.0
 40
5.249999922675055
100
AcDbArc
 50
0.0
 51
180.0
  0
ARC
  5
10E
330
1F
100
AcDbEntity
  8
B-0
  6
Continuous
 62
     3
370
     9
100
AcDbCircle
 10
-24.13530165922617
 20
270.3464576755661
 30
0.0
 40
3.000000038662472
100
AcDbArc
 50
81.66932678222658
 51
108.9213256835938
  0
ARC
  5
10F
330
1F
100
AcDbEntity
  8
B-0
  6
Continuous
 62
     3
370
     9
100
AcDbCircle
 10
-24.72096697542128
 20
271.4432594333786
 30
0.0
 40
4.415625494879645
100
AcDbArc
 50
137.37109375
 51
152.52392578125
  0
ARC
  5
110
330
1F
100
AcDbEntity
  8
B-0
  6
Continuous
 62
     3
370
     9
100
AcDbCircle
 10
-37.54963304383347
 20
271.4432594333786
 30
0.0
 40
4.415625494879645
100
AcDbArc
 50
27.47607421875
 51
42.62890625
  0
ARC
  5
111
330
1F
100
AcDbEntity
  8
B-0
  6
Continuous
 62
     3
370
     9
100
AcDbCircle
 10
-38.13532310401081
 20
270.3464576755661
 30
0.0
 40
3.000000038662472
100
AcDbArc
 50
71.07861328125
 51
98.33067321777344
  0
ARC
  5
112
330
1F
100
AcDbEntity
  8
B-0
  6
Continuous
 62
     3
370
     9
100
AcDbCircle
 10
-31.13532475360961
 20
222.5416283100678
 30
0.0
 40
51.90369477143158
100
AcDbArc
 50
2.175308227539084
 51
9.415161132812523
  0
ARC
  5
113
330
1F
100
AcDbEntity
  8
B-0
  6
Continuous
 62
     3
370
     9
100
AcDbCircle
 10
16.133079820398
 20
232.5416613020442
 30
0.0
 40
3.000000038662472
100
AcDbArc
 50
344.6929473876953
 51
11.94532775878912
  0
ARC
  5
114
330
1F
100
AcDbEntity
  8
B-0
  6
Continuous
 62
     3
370
     9
100
AcDbCircle
 10
17.10957633644529
 20
230.5416547036489
 30
0.0
 40
3.000000038662472
100
AcDbArc
 50
322.501708984375
 51
9.41502380371088
  0
ARC
  5
115
330
1F
100
AcDbEntity
  8
B-0
  6
Continuous
 62
     3
370
     9
100
AcDbCircle
 10
-79.38020109968225
 20
230.5416547036489
 30
0.0
 40
3.000000038662472
100
AcDbArc
 50
170.5849761962891
 51
217.498291015625
  0
ARC
  5
116
330
1F
100
AcDbEntity
  8
B-0
  6
Continuous
 62
     3
370
     9
100
AcDbCircle
 10
-78.40367983965268
 20
232.5416613020442
 30
0.0
 40
3.000000038662472
100
AcDbArc
 50
168.054672241211
 51
195.3069610595704
  0
ARC
  5
117
330
1F
100
AcDbEntity
  8
B-0
  6
Continuous
 62
     3
370
     9
100
AcDbCircle
 10
-31.13530000962737
 20
222.5416283100678
 30
0.0
 40
51.90369477143158
100
AcDbArc
 50
170.5848388671875
 51
177.82470703125
  0
ARC
  5
118
330
1F
100
AcDbEntity
  8
B-2
  6
Continuous
 62
     6
370
     9
100
AcDbCircle
 10
-31.13530000962737
 20
222.5416283100678
 30
0.0
 40
50.00006907695049
100
AcDbArc
 50
7.033401489257813
 51
11.53695678710938
  0
ARC
  5
119
330
1F
100
AcDbEntity
  8
B-2
  6
Continuous
 62
     6
370
     9
100
AcDbCircle
 10
17.49597836347232
 20
228.5416481052536
 30
0.0
 40
1.000000012887491
100
AcDbArc
 50
270.0
 51
7.033370971679696
  0
ARC
  5
11A
330
1F
100
AcDbEntity
  8
B-2
  6
Continuous
 62
     6
370
     9
100
AcDbCircle
 10
-31.13530000962737
 20
222.5416283100678
 30
0.0
 40
50.00006907695049
100
AcDbArc
 50
168.4630432128907
 51
172.9665985107422
  0
ARC
  5
11B
330
1F
100
AcDbEntity
  8
B-2
  6
Continuous
 62
     6
370
     9
100
AcDbCircle
 10
-79.76665261467382
 20
228.5416481052536
 30
0.0
 40
1.000000012887491
100
AcDbArc
 50
172.9666290283203
 51
270.0
  0
ARC
  5
11C
330
1F
100
AcDbEntity
  8
B-2
  6
Continuous
 62
     6
370
     9
100
AcDbCircle
 10
-31.13530000962737
 20
222.5416283100678
 30
0.0
 40
41.07127112311286
100
AcDbArc
 50
15.53495788574219
 51
164.4650421142578
  0
ARC
  5
11D
330
1F
100
AcDbEntity
  8
B-2
  6
Continuous
 62
     6
370
     9
100
AcDbCircle
 10
-31.13530000962737
 20
222.5416283100678
 30
0.0
 40
51.00006928315033
100
AcDbArc
 50
5.739151000976571
 51
174.2608489990235
  0
ARC
  5
11E
330
1F
100
AcDbEntity
  8
B-2
  6
Continuous
 62
     6
370
     9
100
AcDbCircle
 10
2.095422778590544
 20
235.0227898915712
 30
0.0
 40
1.500000019331236
100
AcDbArc
 50
113.0066986083985
 51
200.5852813720703
  0
ARC
  5
11F
330
1F
100
AcDbEntity
  8
B-2
  6
Continuous
 62
     6
370
     9
100
AcDbCircle
 10
3.883818840668255
 20
228.3480511880239
 30
0.0
 40
1.500000019331236
100
AcDbArc
 50
189.4140930175782
 51
276.9927215576172
  0
ARC
  5
120
330
1F
100
AcDbEntity
  8
B-2
  6
Continuous
 62
     6
370
     9
100
AcDbCircle
 10
-31.13530000962737
 20
222.5416283100678
 30
0.0
 40
33.9973006377349
100
AcDbArc
 50
9.414367675781273
 51
20.58563232421877
  0
ARC
  5
121
330
1F
100
AcDbEntity
  8
B-2
  6
Continuous
 62
     6
370
     9
100
AcDbCircle
 10
-8.59719427694154
 20
249.9659777082942
 30
0.0
 40
1.500000019331236
100
AcDbArc
 50
143.0066986083984
 51
230.5852813720703
  0
ARC
  5
122
330
1F
100
AcDbEntity
  8
B-2
  6
Continuous
 62
     6
370
     9
100
AcDbCircle
 10
-3.711000099365551
 20
245.0797340427536
 30
0.0
 40
1.500000019331236
100
AcDbArc
 50
219.4140930175782
 51
306.9927215576172
  0
ARC
  5
123
330
1F
100
AcDbEntity
  8
B-2
  6
Continuous
 62
     6
370
     9
100
AcDbCircle
 10
-31.13530000962737
 20
222.5416283100678
 30
0.0
 40
33.9973006377349
100
AcDbArc
 50
39.41436767578126
 51
50.58563232421876
  0
ARC
  5
124
330
1F
100
AcDbEntity
  8
B-2
  6
Continuous
 62
     6
370
     9
100
AcDbCircle
 10
-25.32887713167128
 20
257.5608461362925
 30
0.0
 40
1.500000019331236
100
AcDbArc
 50
173.0066986083984
 51
260.5852813720703
  0
ARC
  5
125
330
1F
100
AcDbEntity
  8
B-2
  6
Continuous
 62
     6
370
     9
100
AcDbCircle
 10
-18.65421266007076
 20
255.7723510982858
 30
0.0
 40
1.500000019331236
100
AcDbArc
 50
249.4140930175781
 51
336.9927215576172
  0
ARC
  5
126
330
1F
100
AcDbEntity
  8
B-2
  6
Continuous
 62
     6
370
     9
100
AcDbCircle
 10
-31.13530000962737
 20
222.5416283100678
 30
0.0
 40
33.9973006377349
100
AcDbArc
 50
69.41436767578128
 51
80.58563232421878
  0
ARC
  5
127
330
1F
100
AcDbEntity
  8
B-2
  6
Continuous
 62
     6
370
     9
100
AcDbCircle
 10
-43.61638735918393
 20
255.7723510982858
 30
0.0
 40
1.500000019331236
100
AcDbArc
 50
203.0066986083985
 51
290.5852813720703
  0
ARC
  5
128
330
1F
100
AcDbEntity
  8
B-2
  6
Continuous
 62
     6
370
     9
100
AcDbCircle
 10
-36.94169814360117
 20
257.5608461362925
 30
0.0
 40
1.500000019331236
100
AcDbArc
 50
279.4140930175781
 51
6.992721557617207
  0
ARC
  5
129
330
1F
100
AcDbEntity
  8
B-2
  6
Continuous
 62
     6
370
     9
100
AcDbCircle
 10
-31.13530000962737
 20
222.5416283100678
 30
0.0
 40
33.9973006377349
100
AcDbArc
 50
99.41436767578126
 51
110.5856323242188
  0
ARC
  5
12A
330
1F
100
AcDbEntity
  8
B-2
  6
Continuous
 62
     6
370
     9
100
AcDbCircle
 10
-58.55962466387143
 20
245.0797340427536
 30
0.0
 40
1.500000019331236
100
AcDbArc
 50
233.0066986083985
 51
320.5852813720703
  0
ARC
  5
12B
330
1F
100
AcDbEntity
  8
B-2
  6
Continuous
 62
     6
370
     9
100
AcDbCircle
 10
-53.67338099833091
 20
249.9659777082942
 30
0.0
 40
1.500000019331236
100
AcDbArc
 50
309.4140930175781
 51
36.99272155761719
  0
ARC
  5
12C
330
1F
100
AcDbEntity
  8
B-2
  6
Continuous
 62
     6
370
     9
100
AcDbCircle
 10
-31.13530000962737
 20
222.5416283100678
 30
0.0
 40
33.9973006377349
100
AcDbArc
 50
129.4143676757813
 51
140.5856323242188
  0
ARC
  5
12D
330
1F
100
AcDbEntity
  8
B-2
  6
Continuous
 62
     6
370
     9
100
AcDbCircle
 10
-66.15449309186977
 20
228.3481006759885
 30
0.0
 40
1.500000019331236
100
AcDbArc
 50
263.0066986083984
 51
350.5852813720703
  0
ARC
  5
12E
330
1F
100
AcDbEntity
  8
B-2
  6
Continuous
 62
     6
370
     9
100
AcDbCircle
 10
-64.36602279784529
 20
235.0227898915712
 30
0.0
 40
1.500000019331236
100
AcDbArc
 50
339.4140930175781
 51
66.9927215576172
  0
ARC
  5
12F
330
1F
100
AcDbEntity
  8
B-2
  6
Continuous
 62
     6
370
     9
100
AcDbCircle
 10
-31.13530000962737
 20
222.5416283100678
 30
0.0
 40
33.9973006377349
100
AcDbArc
 50
159.4143676757812
 51
170.5856323242188
  0
ARC
  5
130
330
1F
100
AcDbEntity
  8
B-2
  6
Continuous
 62
     6
370
     9
100
AcDbCircle
 10
-47.45821227736383
 20
227.2916810972299
 30
0.0
 40
1.500000019331236
100
AcDbArc
 50
270.0
 51
343.7748718261719
  0
ARC
  5
131
330
1F
100
AcDbEntity
  8
B-2
  6
Continuous
 62
     6
370
     9
100
AcDbCircle
 10
-54.15024702451337
 20
227.2916810972299
 30
0.0
 40
1.500000019331236
100
AcDbArc
 50
168.3383941650391
 51
270.0
  0
ARC
  5
132
330
1F
100
AcDbEntity
  8
B-2
  6
Continuous
 62
     6
370
     9
100
AcDbCircle
 10
-46.03612612871518
 20
230.724958124257
 30
0.0
 40
1.500000019331236
100
AcDbArc
 50
331.2249298095704
 51
45.00000000000003
  0
ARC
  5
133
330
1F
100
AcDbEntity
  8
B-2
  6
Continuous
 62
     6
370
     9
100
AcDbCircle
 10
-31.13530000962737
 20
222.5416283100678
 30
0.0
 40
15.49999391710436
100
AcDbArc
 50
151.2251129150391
 51
163.7749481201172
  0
ARC
  5
134
330
1F
100
AcDbEntity
  8
B-2
  6
Continuous
 62
     6
370
     9
100
AcDbCircle
 10
-50.76809106484274
 20
235.4568983164023
 30
0.0
 40
1.500000019331236
100
AcDbArc
 50
45.0
 51
146.6613922119141
  0
ARC
  5
135
330
1F
100
AcDbEntity
  8
B-2
  6
Continuous
 62
     6
370
     9
100
AcDbCircle
 10
-31.13530000962737
 20
222.5416283100678
 30
0.0
 40
24.99999896900074
100
AcDbArc
 50
146.6614074707031
 51
168.338607788086
  0
ARC
  5
136
330
1F
100
AcDbEntity
  8
B-2
  6
Continuous
 62
     6
370
     9
100
AcDbCircle
 10
-16.23452337850404
 20
230.724958124257
 30
0.0
 40
1.500000019331236
100
AcDbArc
 50
135.0
 51
208.7748718261719
  0
ARC
  5
137
330
1F
100
AcDbEntity
  8
B-2
  6
Continuous
 62
     6
370
     9
100
AcDbCircle
 10
-11.50253369839425
 20
235.4568983164023
 30
0.0
 40
1.500000019331236
100
AcDbArc
 50
33.33839416503906
 51
135.0
  0
ARC
  5
138
330
1F
100
AcDbEntity
  8
B-2
  6
Continuous
 62
     6
370
     9
100
AcDbCircle
 10
-14.81241248587316
 20
227.2916810972299
 30
0.0
 40
1.500000019331236
100
AcDbArc
 50
196.2249298095703
 51
270.0
  0
ARC
  5
139
330
1F
100
AcDbEntity
  8
B-2
  6
Continuous
 62
     6
370
     9
100
AcDbCircle
 10
-31.13530000962737
 20
222.5416283100678
 30
0.0
 40
15.49999391710436
100
AcDbArc
 50
16.22511291503909
 51
28.77494812011721
  0
ARC
  5
13A
330
1F
100
AcDbEntity
  8
B-2
  6
Continuous
 62
     6
370
     9
100
AcDbCircle
 10
-8.120377738723622
 20
227.2916810972299
 30
0.0
 40
1.500000019331236
100
AcDbArc
 50
270.0
 51
11.66139221191407
  0
ARC
  5
13B
330
1F
100
AcDbEntity
  8
B-2
  6
Continuous
 62
     6
370
     9
100
AcDbCircle
 10
-31.13530000962737
 20
222.5416283100678
 30
0.0
 40
24.99999896900074
100
AcDbArc
 50
11.66140747070314
 51
33.33860778808596
  0
ARC
  5
13C
330
1F
100
AcDbEntity
  8
B-2
  6
Continuous
 62
     6
370
     9
100
AcDbCircle
 10
-26.38532145441201
 20
238.8645900657689
 30
0.0
 40
1.500000019331236
100
AcDbArc
 50
180.0
 51
253.7748718261719
  0
ARC
  5
13D
330
1F
100
AcDbEntity
  8
B-2
  6
Continuous
 62
     6
370
     9
100
AcDbCircle
 10
-26.38532145441201
 20
245.556600068936
 30
0.0
 40
1.500000019331236
100
AcDbArc
 50
78.33839416503906
 51
180.0
  0
ARC
  5
13E
330
1F
100
AcDbEntity
  8
B-2
  6
Continuous
 62
     6
370
     9
100
AcDbCircle
 10
-22.95201968340269
 20
237.4424544291556
 30
0.0
 40
1.500000019331236
100
AcDbArc
 50
241.2249298095704
 51
315.0000000000001
  0
ARC
  5
13F
330
1F
100
AcDbEntity
  8
B-2
  6
Continuous
 62
     6
370
     9
100
AcDbCircle
 10
-31.13530000962737
 20
222.5416283100678
 30
0.0
 40
15.49999391710436
100
AcDbArc
 50
61.22511291503908
 51
73.77494812011722
  0
ARC
  5
140
330
1F
100
AcDbEntity
  8
B-2
  6
Continuous
 62
     6
370
     9
100
AcDbCircle
 10
-18.22005474727519
 20
242.1744935972299
 30
0.0
 40
1.500000019331236
100
AcDbArc
 50
315.0000000000001
 51
56.66139221191412
  0
ARC
  5
141
330
1F
100
AcDbEntity
  8
B-2
  6
Continuous
 62
     6
370
     9
100
AcDbCircle
 10
-31.13530000962737
 20
222.5416283100678
 30
0.0
 40
24.99999896900074
100
AcDbArc
 50
56.66140747070315
 51
78.33860778808597
  0
ARC
  5
142
330
1F
100
AcDbEntity
  8
B-2
  6
Continuous
 62
     6
370
     9
100
AcDbCircle
 10
-39.3186050798343
 20
237.4424544291556
 30
0.0
 40
1.500000019331236
100
AcDbArc
 50
225.0
 51
298.7748718261719
  0
ARC
  5
143
330
1F
100
AcDbEntity
  8
B-2
  6
Continuous
 62
     6
370
     9
100
AcDbCircle
 10
-44.05059475994409
 20
242.1744935972299
 30
0.0
 40
1.500000019331236
100
AcDbArc
 50
123.3383941650391
 51
225.0
  0
ARC
  5
144
330
1F
100
AcDbEntity
  8
B-2
  6
Continuous
 62
     6
370
     9
100
AcDbCircle
 10
-35.88530330882497
 20
238.8645900657689
 30
0.0
 40
1.500000019331236
100
AcDbArc
 50
286.2249298095704
 51
0.0000000000000254
  0
ARC
  5
145
330
1F
100
AcDbEntity
  8
B-2
  6
Continuous
 62
     6
370
     9
100
AcDbCircle
 10
-31.13530000962737
 20
222.5416283100678
 30
0.0
 40
15.49999391710436
100
AcDbArc
 50
106.2251129150391
 51
118.7749481201172
  0
ARC
  5
146
330
1F
100
AcDbEntity
  8
B-2
  6
Continuous
 62
     6
370
     9
100
AcDbCircle
 10
-35.88530330882497
 20
245.556600068936
 30
0.0
 40
1.500000019331236
100
AcDbArc
 50
0.0
 51
101.6613922119141
  0
ARC
  5
147
330
1F
100
AcDbEntity
  8
B-2
  6
Continuous
 62
     6
370
     9
100
AcDbCircle
 10
-31.13530000962737
 20
222.5416283100678
 30
0.0
 40
24.99999896900074
100
AcDbArc
 50
101.6614074707031
 51
123.338607788086
  0
ARC
  5
148
330
1F
100
AcDbEntity
  8
B-2
  6
Continuous
 62
     6
370
     9
100
AcDbCircle
 10
-24.08638280629123
 20
227.2916810972299
 30
0.0
 40
1.500000019331236
100
AcDbArc
 50
270.0
 51
33.97442626953126
  0
ARC
  5
149
330
1F
100
AcDbEntity
  8
B-2
  6
Continuous
 62
     6
370
     9
100
AcDbCircle
 10
-31.13530000962737
 20
222.5416283100678
 30
0.0
 40
9.999996649252402
100
AcDbArc
 50
33.97441101074219
 51
146.0255889892578
  0
ARC
  5
14A
330
1F
100
AcDbEntity
  8
B-2
  6
Continuous
 62
     6
370
     9
100
AcDbCircle
 10
-38.18424195694575
 20
227.2916810972299
 30
0.0
 40
1.500000019331236
100
AcDbArc
 50
146.0255737304688
 51
270.0
  0
ARC
  5
14B
330
1F
100
AcDbEntity
  8
B-2
  6
Continuous
 62
     6
370
     9
100
AcDbCircle
 10
-31.13530000962737
 20
222.5416283100678
 30
0.0
 40
41.00000536119616
100
AcDbArc
 50
0.0
 51
14.11700439453125
  0
ARC
  5
14C
330
1F
100
AcDbEntity
  8
B-2
  6
Continuous
 62
     6
370
     9
100
AcDbCircle
 10
-31.13530000962737
 20
222.5416283100678
 30
0.0
 40
41.00000536119616
100
AcDbArc
 50
165.8829956054688
 51
180.0
  0
ARC
  5
14D
330
1F
100
AcDbEntity
  8
B-2
  6
Continuous
 62
     6
370
     9
100
AcDbCircle
 10
18.61410943399596
 20
227.541644806056
 30
0.0
 40
1.000000012887491
100
AcDbArc
 50
299.4902191162109
 51
5.739120483398428
  0
ARC
  5
14E
330
1F
100
AcDbEntity
  8
B-2
  6
Continuous
 62
     6
370
     9
100
AcDbCircle
 10
-80.88475894121518
 20
227.541644806056
 30
0.0
 40
1.000000012887491
100
AcDbArc
 50
174.2608795166015
 51
240.5086669921875
  0
ARC
  5
14F
330
1F
100
AcDbEntity
  8
B-0
  6
Continuous
 62
     3
370
     9
100
AcDbCircle
 10
-31.13530000962737
 20
222.5416283100678
 30
0.0
 40
74.00001525878906
100
AcDbArc
 50
0.0
 51
180.0
  0
ARC
  5
150
330
1F
100
AcDbEntity
  8
B-0
  6
Continuous
 62
     3
370
     9
100
AcDbCircle
 10
-31.13530000962737
 20
222.5416283100678
 30
0.0
 40
75.00001855798669
100
AcDbArc
 50
0.0
 51
180.0
  0
LINE
  5
151
330
1F
100
AcDbEntity
  8
B-2
  6
Continuous
 62
     4
370
     9
100
AcDbLine
 10
12.86469669117503
 20
-12.65893052310749
 30
0.0
 11
18.86481546228987
 21
-12.65893052310749
 31
0.0
  0
LINE
  5
152
330
1F
100
AcDbEntity
  8
B-2
  6
Continuous
 62
     4
370
     9
100
AcDbLine
 10
17.99481704590477
 20
-12.65893052310749
 30
0.0
 11
19.04683219582029
 21
-10.78645440929838
 31
0.0
  0
LINE
  5
153
330
1F
100
AcDbEntity
  8
B-2
  6
Continuous
 62
     4
370
     9
100
AcDbLine
 10
18.86481546228987
 20
-12.65893052310749
 30
0.0
 11
18.42387769835409
 21
-11.89528174249093
 31
0.0
  0
LINE
  5
154
330
1F
100
AcDbEntity
  8
B-2
  6
Continuous
 62
     4
370
     9
100
AcDbLine
 10
13.73479408348919
 20
-12.65893052310749
 30
0.0
 11
12.68277893357367
 21
-10.78645440929838
 31
0.0
  0
LINE
  5
155
330
1F
100
AcDbEntity
  8
B-2
  6
Continuous
 62
     4
370
     9
100
AcDbLine
 10
12.86469669117503
 20
-12.65893052310749
 30
0.0
 11
13.30563445511081
 21
-11.89528174249093
 31
0.0
  0
LINE
  5
156
330
1F
100
AcDbEntity
  8
B-2
  6
Continuous
 62
     4
370
     9
100
AcDbLine
 10
17.99481704590477
 20
-22.65891402711932
 30
0.0
 11
18.86481546228987
 21
-21.78896509869869
 31
0.0
  0
LINE
  5
157
330
1F
100
AcDbEntity
  8
B-2
  6
Continuous
 62
     4
370
     9
100
AcDbLine
 10
13.73479408348919
 20
-22.65891402711932
 30
0.0
 11
12.86469669117503
 21
-21.78896509869869
 31
0.0
  0
LINE
  5
158
330
1F
100
AcDbEntity
  8
B-2
  6
Continuous
 62
     4
370
     9
100
AcDbLine
 10
13.73479408348919
 20
-22.65891402711932
 30
0.0
 11
17.99481704590477
 21
-22.65891402711932
 31
0.0
  0
LINE
  5
159
330
1F
100
AcDbEntity
  8
B-2
  6
Continuous
 62
     4
370
     9
100
AcDbLine
 10
12.86469669117503
 20
-21.78896509869869
 30
0.0
 11
18.86481546228987
 21
-21.78896509869869
 31
0.0
  0
LINE
  5
15A
330
1F
100
AcDbEntity
  8
B-2
  6
Continuous
 62
     4
370
     9
100
AcDbLine
 10
12.86469669117503
 20
-12.65893052310749
 30
0.0
 11
12.86469669117503
 21
-21.78896509869869
 31
0.0
  0
LINE
  5
15B
330
1F
100
AcDbEntity
  8
B-2
  6
Continuous
 62
     4
370
     9
100
AcDbLine
 10
18.86481546228987
 20
-12.65893052310749
 30
0.0
 11
18.86481546228987
 21
-21.78896509869869
 31
0.0
  0
LINE
  5
15C
330
1F
100
AcDbEntity
  8
B-2
  6
Continuous
 62
     4
370
     9
100
AcDbLine
 10
10.61467689598919
 20
-10.65892392471224
 30
0.0
 11
10.7811544086581
 21
-8.755765272896348
 31
0.0
  0
LINE
  5
15D
330
1F
100
AcDbEntity
  8
B-2
  6
Continuous
 62
     4
370
     9
100
AcDbLine
 10
21.11473628154664
 20
-10.65892392471224
 30
0.0
 11
20.94825876887774
 21
-8.755765272896348
 31
0.0
  0
LINE
  5
15E
330
1F
100
AcDbEntity
  8
B-2
  6
Continuous
 62
     4
370
     9
100
AcDbLine
 10
21.11473628154664
 20
-10.65892392471224
 30
0.0
 11
10.61467689598919
 21
-10.65892392471224
 31
0.0
  0
LINE
  5
15F
330
1F
100
AcDbEntity
  8
B-0
  6
Continuous
 62
     3
370
     9
100
AcDbLine
 10
-87.63528846243565
 20
-4.658854641561863
 30
0.0
 11
-87.97759671306909
 21
-6.382668909931816
 31
0.0
  0
LINE
  5
160
330
1F
100
AcDbEntity
  8
B-0
  6
Continuous
 62
     3
370
     9
100
AcDbLine
 10
25.36456472326961
 20
-4.658854641561863
 30
0.0
 11
25.70702143779664
 21
-6.382668909931816
 31
0.0
  0
LINE
  5
161
330
1F
100
AcDbEntity
  8
B-0
  6
Continuous
 62
     3
370
     9
100
AcDbLine
 10
20.98398907926622
 20
-15.90261915803145
 30
0.0
 11
22.36460431364122
 21
-4.658854641561863
 31
0.0
  0
LINE
  5
162
330
1F
100
AcDbEntity
  8
B-0
  6
Continuous
 62
     3
370
     9
100
AcDbLine
 10
41.86454492808377
 20
-4.658854641561863
 30
0.0
 11
29.57658436009393
 21
-8.651543619602442
 31
0.0
  0
LINE
  5
163
330
1F
100
AcDbEntity
  8
B-0
  6
JWW_DASHED1
 62
     3
370
     9
100
AcDbLine
 10
29.57658436009393
 20
-8.651543619602442
 30
0.0
 11
21.5542883824757
 21
-11.25817368716999
 31
0.0
  0
LINE
  5
164
330
1F
100
AcDbEntity
  8
B-0
  6
Continuous
 62
     3
370
     9
100
AcDbLine
 10
24.12568301930003
 20
-23.13741315613114
 30
0.0
 11
24.98103299818512
 21
-16.17178419709395
 31
0.0
  0
LINE
  5
165
330
1F
100
AcDbEntity
  8
B-0
  6
Continuous
 62
     3
370
     9
100
AcDbLine
 10
13.8646505024081
 20
-34.62178815613115
 30
0.0
 11
10.86469009277977
 21
-34.62178815613115
 31
0.0
  0
LINE
  5
166
330
1F
100
AcDbEntity
  8
B-0
  6
Continuous
 62
     3
370
     9
100
AcDbLine
 10
10.23500523213784
 20
-30.50760622517677
 30
0.0
 11
10.86469009277977
 21
-34.62178815613115
 31
0.0
  0
LINE
  5
167
330
1F
100
AcDbEntity
  8
B-0
  6
Continuous
 62
     3
370
     9
100
AcDbLine
 10
-5.967057426223621
 20
-34.30264027289635
 30
0.0
 11
-8.56893664919659
 21
-70.73008761770205
 31
0.0
  0
LINE
  5
168
330
1F
100
AcDbEntity
  8
B-0
  6
Continuous
 62
     3
370
     9
100
AcDbLine
 10
-56.30359208099559
 20
-34.30264027289635
 30
0.0
 11
-53.70166337005809
 21
-70.73008761770205
 31
0.0
  0
LINE
  5
169
330
1F
100
AcDbEntity
  8
B-0
  6
JWW_DASHED1
 62
     3
370
     9
100
AcDbLine
 10
20.68161761600606
 20
-18.36583310439974
 30
0.0
 11
20.98398907926622
 21
-15.90261915803145
 31
0.0
  0
LINE
  5
16A
330
1F
100
AcDbEntity
  8
B-0
  6
Continuous
 62
     3
370
     9
100
AcDbLine
 10
-82.95219289127857
 20
-18.3659320803288
 30
0.0
 11
-84.6351053569669
 21
-4.658854641561863
 31
0.0
  0
LINE
  5
16B
330
1F
100
AcDbEntity
  8
B-0
  6
JWW_DASHED1
 62
     3
370
     9
100
AcDbLine
 10
-90.54829851839003
 20
-13.2793611343828
 30
0.0
 11
-89.30229054752857
 21
-13.68422217217843
 31
0.0
  0
LINE
  5
16C
330
1F
100
AcDbEntity
  8
B-0
  6
Continuous
 62
     3
370
     9
100
AcDbLine
 10
9.794958251563513
 20
-28.19523159468686
 30
0.0
 11
19.51172213458715
 21
-27.5158113296953
 31
0.0
  0
LINE
  5
16D
330
1F
100
AcDbEntity
  8
B-0
  6
Continuous
 62
     3
370
     9
100
AcDbLine
 10
8.86468349438445
 20
-29.19276049565817
 30
0.0
 11
8.86468349438445
 21
-29.65888763353822
 31
0.0
  0
LINE
  5
16E
330
1F
100
AcDbEntity
  8
B-0
  6
Continuous
 62
     3
370
     9
100
AcDbLine
 10
-0.9797593371189404
 20
-29.65888763353822
 30
0.0
 11
9.246532628675029
 21
-29.65888763353822
 31
0.0
  0
LINE
  5
16F
330
1F
100
AcDbEntity
  8
B-0
  6
Continuous
 62
     3
370
     9
100
AcDbLine
 10
13.8646505024081
 20
-34.62178815613115
 30
0.0
 11
15.86465710080341
 21
-27.77082281090312
 31
0.0
  0
LINE
  5
170
330
1F
100
AcDbEntity
  8
B-0
  6
Continuous
 62
     3
370
     9
100
AcDbLine
 10
8.415233800550029
 20
-22.37574389409567
 30
0.0
 11
9.732801368117576
 21
-18.65781209510916
 31
0.0
  0
LINE
  5
171
330
1F
100
AcDbEntity
  8
B-0
  6
Continuous
 62
     3
370
     9
100
AcDbLine
 10
7.105980211022997
 20
-23.37109532462775
 30
0.0
 11
-5.956467001814874
 21
-24.28439570997405
 31
0.0
  0
LINE
  5
172
330
1F
100
AcDbEntity
  8
B-0
  6
Continuous
 62
     3
370
     9
100
AcDbLine
 10
-51.67565084630388
 20
-28.91612277395208
 30
0.0
 11
-48.62261459472029
 21
-71.65887773594534
 31
0.0
  0
LINE
  5
173
330
1F
100
AcDbEntity
  8
B-0
  6
Continuous
 62
     3
370
     9
100
AcDbLine
 10
-10.59499866091534
 20
-28.91602379802302
 30
0.0
 11
-13.64805965648123
 21
-71.65887773594534
 31
0.0
  0
LINE
  5
174
330
1F
100
AcDbEntity
  8
B-0
  6
Continuous
 62
     3
370
     9
100
AcDbLine
 10
-9.566416062203361
 20
-71.65887773594534
 30
0.0
 11
-52.70420870103362
 21
-71.65887773594534
 31
0.0
  0
LINE
  5
175
330
1F
100
AcDbEntity
  8
B-0
  6
JWW_DASHED1
 62
     3
370
     9
100
AcDbLine
 10
7.105980211022997
 20
-23.37109532462775
 30
0.0
 11
16.06765673129325
 21
-22.74442922982202
 31
0.0
  0
LINE
  5
176
330
1F
100
AcDbEntity
  8
B-0
  6
Continuous
 62
     3
370
     9
100
AcDbLine
 10
13.73479408348919
 20
-25.65882494878317
 30
0.0
 11
17.99461909404664
 21
-25.65882494878317
 31
0.0
  0
LINE
  5
177
330
1F
100
AcDbEntity
  8
B-0
  6
Continuous
 62
     3
370
     9
100
AcDbLine
 10
14.968529039148
 20
-30.84075920237271
 30
0.0
 11
19.86467029759393
 21
-30.84075920237271
 31
0.0
  0
LINE
  5
178
330
1F
100
AcDbEntity
  8
B-0
  6
JWW_DASHED1
 62
     3
370
     9
100
AcDbLine
 10
11.86464390401284
 20
-30.84075920237271
 30
0.0
 11
14.968529039148
 21
-30.84075920237271
 31
0.0
  0
LINE
  5
179
330
1F
100
AcDbEntity
  8
B-0
  6
Continuous
 62
     3
370
     9
100
AcDbLine
 10
19.86467029759393
 20
-30.84075920237271
 30
0.0
 11
20.86472308475606
 21
-27.22952345490645
 31
0.0
  0
LINE
  5
17A
330
1F
100
AcDbEntity
  8
B-0
  6
JWW_DASHED1
 62
     3
370
     9
100
AcDbLine
 10
11.86464390401284
 20
-30.84075920237271
 30
0.0
 11
10.86469009277977
 21
-28.12045528028655
 31
0.0
  0
LINE
  5
17B
330
1F
100
AcDbEntity
  8
B-0
  6
Continuous
 62
     3
370
     9
100
AcDbLine
 10
11.14667251465477
 20
-17.65884804316661
 30
0.0
 11
13.73479408348919
 21
-17.65884804316661
 31
0.0
  0
LINE
  5
17C
330
1F
100
AcDbEntity
  8
B-0
  6
Continuous
 62
     3
370
     9
100
AcDbLine
 10
17.99461909404664
 20
-17.65884804316661
 30
0.0
 11
18.9989278461581
 21
-17.65884804316661
 31
0.0
  0
LINE
  5
17D
330
1F
100
AcDbEntity
  8
B-3
  6
Continuous
 62
     4
370
     9
100
AcDbLine
 10
8.86468349438445
 20
-84.65884639356779
 30
0.0
 11
-71.13530825762143
 21
-84.65884639356779
 31
0.0
  0
LINE
  5
17E
330
1F
100
AcDbEntity
  8
B-2
  6
Continuous
 62
     6
370
     9
100
AcDbLine
 10
-41.13530825762143
 20
27.09094080818475
 30
0.0
 11
-42.63528846243565
 21
23.00343289011042
 31
0.0
  0
LINE
  5
17F
330
1F
100
AcDbEntity
  8
B-2
  6
Continuous
 62
     6
370
     9
100
AcDbLine
 10
-46.63530165922617
 20
26.73957626004287
 30
0.0
 11
-45.13532145441201
 21
22.84041953495839
 31
0.0
  0
LINE
  5
180
330
1F
100
AcDbEntity
  8
B-2
  6
Continuous
 62
     6
370
     9
100
AcDbLine
 10
-27.88532640320847
 20
27.31467589581142
 30
0.0
 11
-29.38530660802263
 21
23.33327017368308
 31
0.0
  0
LINE
  5
181
330
1F
100
AcDbEntity
  8
B-2
  6
Continuous
 62
     6
370
     9
100
AcDbLine
 10
-34.38529836002851
 20
27.31467589581142
 30
0.0
 11
-32.88531815521435
 21
23.33327017368308
 31
0.0
  0
LINE
  5
182
330
1F
100
AcDbEntity
  8
B-2
  6
Continuous
 62
     6
370
     9
100
AcDbLine
 10
-21.13531650561555
 20
27.09094080818475
 30
0.0
 11
-19.63531155681909
 21
23.00343289011042
 31
0.0
  0
LINE
  5
183
330
1F
100
AcDbEntity
  8
B-2
  6
Continuous
 62
     6
370
     9
100
AcDbLine
 10
19.864769273523
 20
-11.65892722390983
 30
0.0
 11
18.86481546228987
 21
-10.65892392471224
 31
0.0
  0
LINE
  5
184
330
1F
100
AcDbEntity
  8
B-2
  6
Continuous
 62
     6
370
     9
100
AcDbLine
 10
19.004173570398
 20
-16.82334273805682
 30
0.0
 11
19.864769273523
 21
-11.65892722390983
 31
0.0
  0
LINE
  5
185
330
1F
100
AcDbEntity
  8
B-2
  6
Continuous
 62
     6
370
     9
100
AcDbLine
 10
11.11470328957029
 20
-11.65892722390983
 30
0.0
 11
9.614723084756065
 21
-17.65889753113114
 31
0.0
  0
LINE
  5
186
330
1F
100
AcDbEntity
  8
B-2
  6
Continuous
 62
     6
370
     9
100
AcDbLine
 10
11.11470328957029
 20
-11.65892722390983
 30
0.0
 11
10.1146505024081
 21
-10.65892392471224
 31
0.0
  0
LINE
  5
187
330
1F
100
AcDbEntity
  8
B-2
  6
Continuous
 62
     6
370
     9
100
AcDbLine
 10
-81.27477358965268
 20
-16.82334273805682
 30
0.0
 11
-82.13539403675998
 21
-11.65892722390983
 31
0.0
  0
LINE
  5
188
330
1F
100
AcDbEntity
  8
B-2
  6
Continuous
 62
     6
370
     9
100
AcDbLine
 10
10.09673585924935
 20
-10.65892392471224
 30
0.0
 11
18.86481546228987
 21
-10.65892392471224
 31
0.0
  0
LINE
  5
189
330
1F
100
AcDbEntity
  8
B-2
  6
Continuous
 62
     6
370
     9
100
AcDbLine
 10
7.43408541583716
 20
-16.17653504168858
 30
0.0
 11
-1.38862890004123
 21
16.74998522858173
 31
0.0
  0
LINE
  5
18A
330
1F
100
AcDbEntity
  8
B-2
  6
Continuous
 62
     6
370
     9
100
AcDbLine
 10
10.09673585924935
 20
-10.65892392471224
 30
0.0
 11
2.474995466512834
 21
17.78527344648709
 31
0.0
  0
LINE
  5
18B
330
1F
100
AcDbEntity
  8
B-2
  6
Continuous
 62
     6
370
     9
100
AcDbLine
 10
-74.0444087643782
 20
-16.91771628640983
 30
0.0
 11
-64.74564497373211
 21
17.78522395852256
 31
0.0
  0
LINE
  5
18C
330
1F
100
AcDbEntity
  8
B-2
  6
Continuous
 62
     6
370
     9
100
AcDbLine
 10
-56.13530825762143
 20
25.75209341587058
 30
0.0
 11
-57.31195884619831
 21
21.16832018951923
 31
0.0
  0
LINE
  5
18D
330
1F
100
AcDbEntity
  8
B-2
  6
Continuous
 62
     6
370
     9
100
AcDbLine
 10
-72.63528846243565
 20
-11.65892722390983
 30
0.0
 11
-82.13539403675998
 21
-11.65892722390983
 31
0.0
  0
LINE
  5
18E
330
1F
100
AcDbEntity
  8
B-2
  6
Continuous
 62
     6
370
     9
100
AcDbLine
 10
-69.7046854350919
 20
-16.17653504168858
 30
0.0
 11
-60.88197111921352
 21
16.74998522858173
 31
0.0
  0
LINE
  5
18F
330
1F
100
AcDbEntity
  8
B-2
  6
JWW_CENTER1
 62
     6
370
     9
100
AcDbLine
 10
2.861991349114186
 20
16.34111566565944
 30
0.0
 11
-1.38862890004123
 21
16.34111566565944
 31
0.0
  0
LINE
  5
190
330
1F
100
AcDbEntity
  8
B-2
  6
Continuous
 62
     6
370
     9
100
AcDbLine
 10
-60.88197111921352
 20
16.34106617769491
 30
0.0
 11
-65.13261611235117
 21
16.34106617769491
 31
0.0
  0
LINE
  5
191
330
1F
100
AcDbEntity
  8
B-2
  6
Continuous
 62
     6
370
     9
100
AcDbLine
 10
11.11470328957029
 20
-11.65892722390983
 30
0.0
 11
13.17290773424935
 21
-11.65892722390983
 31
0.0
  0
LINE
  5
192
330
1F
100
AcDbEntity
  8
B-2
  6
Continuous
 62
     6
370
     9
100
AcDbLine
 10
18.55660441921555
 20
-11.65892722390983
 30
0.0
 11
19.864769273523
 21
-11.65892722390983
 31
0.0
  0
LINE
  5
193
330
1F
100
AcDbEntity
  8
B-2
  6
Continuous
 62
     6
370
     9
100
AcDbLine
 10
12.86469669117503
 20
-17.65889753113114
 30
0.0
 11
-80.30077621581404
 21
-17.65889753113114
 31
0.0
  0
LINE
  5
194
330
1F
100
AcDbEntity
  8
B-2
  6
Continuous
 62
     4
370
     9
100
AcDbLine
 10
17.99461909404664
 20
-12.65893052310749
 30
0.0
 11
17.99461909404664
 21
-22.65891402711932
 31
0.0
  0
LINE
  5
195
330
1F
100
AcDbEntity
  8
B-2
  6
Continuous
 62
     4
370
     9
100
AcDbLine
 10
13.73479408348919
 20
-12.65893052310749
 30
0.0
 11
13.73479408348919
 21
-22.65891402711932
 31
0.0
  0
LINE
  5
196
330
1F
100
AcDbEntity
  8
B-0
  6
Continuous
 62
     3
370
     9
100
AcDbLine
 10
13.73479408348919
 20
-22.65891402711932
 30
0.0
 11
13.73479408348919
 21
-25.65882494878317
 31
0.0
  0
LINE
  5
197
330
1F
100
AcDbEntity
  8
B-0
  6
Continuous
 62
     3
370
     9
100
AcDbLine
 10
17.99461909404664
 20
-22.65891402711932
 30
0.0
 11
17.99461909404664
 21
-25.65882494878317
 31
0.0
  0
LINE
  5
198
330
1F
100
AcDbEntity
  8
B-2
  6
JWW_CENTER1
 62
     4
370
     9
100
AcDbLine
 10
15.86465710080341
 20
-4.614018545700411
 30
0.0
 11
15.86465710080341
 21
-26.18710897010916
 31
0.0
  0
LINE
  5
199
330
1F
100
AcDbEntity
  8
B-0
  6
JWW_CENTER1
 62
     3
370
     9
100
AcDbLine
 10
-31.13530000962737
 20
33.56705956610283
 30
0.0
 11
-31.13530000962737
 21
-90.00139383602978
 31
0.0
  0
LINE
  5
19A
330
1F
100
AcDbEntity
  8
B-0
  6
Continuous
 62
     3
370
     9
100
AcDbLine
 10
8.488970867695286
 20
-4.658854641561863
 30
0.0
 11
25.36456472326961
 21
-4.658854641561863
 31
0.0
  0
LINE
  5
19B
330
1F
100
AcDbEntity
  8
B-0
  6
Continuous
 62
     3
370
     9
100
AcDbLine
 10
-70.75959563093227
 20
-4.658854641561863
 30
0.0
 11
-87.63528846243565
 21
-4.658854641561863
 31
0.0
  0
LINE
  5
19C
330
1F
100
AcDbEntity
  8
B-0
  6
Continuous
 62
     3
370
     9
100
AcDbLine
 10
-90.54829851839003
 20
-13.2793611343828
 30
0.0
 11
-92.91256127968647
 21
-12.51120894899432
 31
0.0
  0
LINE
  5
19D
330
1F
100
AcDbEntity
  8
B-0
  6
Continuous
 62
     3
370
     9
100
AcDbLine
 10
-100.1353049584238
 20
-12.65885629116067
 30
0.0
 11
-105.1352967104297
 21
-12.65885629116067
 31
0.0
  0
LINE
  5
19E
330
1F
100
AcDbEntity
  8
B-0
  6
Continuous
 62
     3
370
     9
100
AcDbLine
 10
-106.1353000096274
 20
-11.65885299196307
 30
0.0
 11
-105.1352967104297
 21
-12.65885629116067
 31
0.0
  0
LINE
  5
19F
330
1F
100
AcDbEntity
  8
B-0
  6
Continuous
 62
     3
370
     9
100
AcDbLine
 10
-104.1352191792853
 20
-4.658854641561863
 30
0.0
 11
-83.82496263367722
 21
-11.25807471124093
 31
0.0
  0
LINE
  5
1A0
330
1F
100
AcDbEntity
  8
B-0
  6
Continuous
 62
     3
370
     9
100
AcDbLine
 10
-104.2679953881113
 20
-4.658854641561863
 30
0.0
 11
-104.1352191792853
 21
-4.658854641561863
 31
0.0
  0
LINE
  5
1A1
330
1F
100
AcDbEntity
  8
B-0
  6
Continuous
 62
     3
370
     9
100
AcDbLine
 10
-105.25795263051
 20
-5.517421338141236
 30
0.0
 11
-106.1353000096274
 21
-11.65885299196307
 31
0.0
  0
LINE
  5
1A2
330
1F
100
AcDbEntity
  8
B-0
  6
Continuous
 62
     3
370
     9
100
AcDbLine
 10
37.86472968315137
 20
-12.65885629116067
 30
0.0
 11
42.86469669117503
 21
-12.65885629116067
 31
0.0
  0
LINE
  5
1A3
330
1F
100
AcDbEntity
  8
B-0
  6
Continuous
 62
     3
370
     9
100
AcDbLine
 10
43.86469999037262
 20
-11.65885299196307
 30
0.0
 11
42.86469669117503
 21
-12.65885629116067
 31
0.0
  0
LINE
  5
1A4
330
1F
100
AcDbEntity
  8
B-0
  6
Continuous
 62
     3
370
     9
100
AcDbLine
 10
41.99737062487434
 20
-4.658854641561863
 30
0.0
 11
41.86459441604831
 21
-4.658854641561863
 31
0.0
  0
LINE
  5
1A5
330
1F
100
AcDbEntity
  8
B-0
  6
Continuous
 62
     3
370
     9
100
AcDbLine
 10
42.987327867273
 20
-5.517421338141236
 30
0.0
 11
43.86469999037262
 21
-11.65885299196307
 31
0.0
  0
LINE
  5
1A6
330
1F
100
AcDbEntity
  8
B-0
  6
Continuous
 62
     3
370
     9
100
AcDbLine
 10
30.64171382060914
 20
-12.51130792492338
 30
0.0
 11
27.03171527225606
 21
-13.68432114810749
 31
0.0
  0
LINE
  5
1A7
330
1F
100
AcDbEntity
  8
B-4
  6
Continuous
 62
     7
370
     9
100
AcDbLine
 10
63.86471648636081
 20
-29.65888763353822
 30
0.0
 11
63.86471648636081
 21
-4.658854641561863
 31
0.0
  0
LINE
  5
1A8
330
1F
100
AcDbEntity
  8
B-4
  6
Continuous
 62
     7
370
     9
100
AcDbLine
 10
14.2465491246632
 20
-29.65888763353822
 30
0.0
 11
64.46470856828648
 21
-29.65888763353822
 31
0.0
  0
LINE
  5
1A9
330
1F
100
AcDbEntity
  8
B-4
  6
Continuous
 62
     7
370
     9
100
AcDbLine
 10
46.99738712086253
 20
-4.658854641561863
 30
0.0
 11
90.50246613259871
 21
-4.658854641561863
 31
0.0
  0
LINE
  5
1AA
330
1F
100
AcDbEntity
  8
B-4
  6
Continuous
 62
     7
370
     9
100
AcDbLine
 10
63.86471648636081
 20
-29.65888763353822
 30
0.0
 11
63.21206921017841
 21
-24.70165348288369
 31
0.0
  0
LINE
  5
1AB
330
1F
100
AcDbEntity
  8
B-4
  6
Continuous
 62
     7
370
     9
100
AcDbLine
 10
63.86471648636081
 20
-29.65888763353822
 30
0.0
 11
64.51736376254325
 21
-24.70165348288369
 31
0.0
  0
LINE
  5
1AC
330
1F
100
AcDbEntity
  8
B-4
  6
Continuous
 62
     7
370
     9
100
AcDbLine
 10
63.86471648636081
 20
-4.658854641561863
 30
0.0
 11
63.21206921017841
 21
-9.616088792216456
 31
0.0
  0
LINE
  5
1AD
330
1F
100
AcDbEntity
  8
B-4
  6
Continuous
 62
     7
370
     9
100
AcDbLine
 10
63.86471648636081
 20
-4.658854641561863
 30
0.0
 11
64.51736376254325
 21
-9.616088792216456
 31
0.0
  0
LINE
  5
1AE
330
1F
100
AcDbEntity
  8
B-4
  6
Continuous
 62
     7
370
     9
100
AcDbLine
 10
-126.1352917616333
 20
-17.65884804316661
 30
0.0
 11
-126.1352917616333
 21
27.34110246886886
 31
0.0
  0
LINE
  5
1AF
330
1F
100
AcDbEntity
  8
B-4
  6
Continuous
 62
     7
370
     9
100
AcDbLine
 10
-85.28832174474138
 20
-17.65884804316661
 30
0.0
 11
-126.7352838435589
 21
-17.65884804316661
 31
0.0
  0
LINE
  5
1B0
330
1F
100
AcDbEntity
  8
B-4
  6
Continuous
 62
     7
370
     9
100
AcDbLine
 10
-126.1352917616333
 20
-17.65884804316661
 30
0.0
 11
-126.7879142938334
 21
-12.70161389251202
 31
0.0
  0
LINE
  5
1B1
330
1F
100
AcDbEntity
  8
B-4
  6
Continuous
 62
     7
370
     9
100
AcDbLine
 10
-126.1352917616333
 20
-17.65884804316661
 30
0.0
 11
-125.4826939734154
 21
-12.70161389251202
 31
0.0
  0
LINE
  5
1B2
330
1F
100
AcDbEntity
  8
B-4
  6
Continuous
 62
     7
370
     9
100
AcDbLine
 10
-126.1352917616333
 20
27.34110246886886
 30
0.0
 11
-126.7879142938334
 21
22.38386831821433
 31
0.0
  0
LINE
  5
1B3
330
1F
100
AcDbEntity
  8
B-4
  6
Continuous
 62
     7
370
     9
100
AcDbLine
 10
-126.1352917616333
 20
27.34110246886886
 30
0.0
 11
-125.4826939734154
 21
22.38386831821433
 31
0.0
  0
LINE
  5
1B4
330
1F
100
AcDbEntity
  8
B-4
  6
Continuous
 62
     7
370
     9
100
AcDbLine
 10
-55.45823867094493
 20
27.34110246886886
 30
0.0
 11
-126.7352838435589
 21
27.34110246886886
 31
0.0
  0
LINE
  5
1B5
330
1F
100
AcDbEntity
  8
B-3
  6
Continuous
 62
     7
370
     9
100
AcDbLine
 10
0.2513527564199176
 20
-62.31384269846646
 30
0.0
 11
14.03830376993347
 21
-59.8827711850585
 31
0.0
  0
LINE
  5
1B6
330
1F
100
AcDbEntity
  8
B-3
  6
Continuous
 62
     7
370
     9
100
AcDbLine
 10
0.945866850592207
 20
-66.25305993083553
 30
0.0
 11
14.73291684003482
 21
-63.82201316140986
 31
0.0
  0
LINE
  5
1B7
330
1F
100
AcDbEntity
  8
B-3
  6
Continuous
 62
     7
370
     9
100
AcDbLine
 10
-77.2486307475919
 20
-62.31384269846646
 30
0.0
 11
-63.46163024611383
 21
-59.8827711850585
 31
0.0
  0
LINE
  5
1B8
330
1F
100
AcDbEntity
  8
B-3
  6
Continuous
 62
     7
370
     9
100
AcDbLine
 10
-76.55406716545508
 20
-66.25305993083553
 30
0.0
 11
-62.76701717601247
 21
-63.82201316140986
 31
0.0
  0
LINE
  5
1B9
330
1F
100
AcDbEntity
  8
B-3
  6
Continuous
 62
     4
370
     9
100
AcDbLine
 10
-71.13530825762143
 20
-29.65883814557369
 30
0.0
 11
-71.13530825762143
 21
-61.23587111115647
 31
0.0
  0
LINE
  5
1BA
330
1F
100
AcDbEntity
  8
B-3
  6
Continuous
 62
     4
370
     9
100
AcDbLine
 10
-71.13530825762143
 20
-65.29757105572997
 30
0.0
 11
-71.13530825762143
 21
-84.65884639356779
 31
0.0
  0
LINE
  5
1BB
330
1F
100
AcDbEntity
  8
B-3
  6
Continuous
 62
     4
370
     9
100
AcDbLine
 10
-68.63532475360961
 20
-29.65883814557369
 30
0.0
 11
-68.63532475360961
 21
-60.79505706713196
 31
0.0
  0
LINE
  5
1BC
330
1F
100
AcDbEntity
  8
B-3
  6
Continuous
 62
     4
370
     9
100
AcDbLine
 10
-68.63532475360961
 20
-64.85675701170545
 30
0.0
 11
-68.63532475360961
 21
-84.65884639356779
 31
0.0
  0
LINE
  5
1BD
330
1F
100
AcDbEntity
  8
B-3
  6
Continuous
 62
     4
370
     9
100
AcDbLine
 10
8.86468349438445
 20
-29.65878865760916
 30
0.0
 11
8.86468349438445
 21
-60.7950323231497
 31
0.0
  0
LINE
  5
1BE
330
1F
100
AcDbEntity
  8
B-3
  6
Continuous
 62
     4
370
     9
100
AcDbLine
 10
8.86468349438445
 20
-64.85675701170545
 30
0.0
 11
8.86468349438445
 21
-84.65884639356779
 31
0.0
  0
LINE
  5
1BF
330
1F
100
AcDbEntity
  8
B-3
  6
Continuous
 62
     4
370
     9
100
AcDbLine
 10
6.364650502408097
 20
-29.65878865760916
 30
0.0
 11
6.364650502408097
 21
-61.23587111115647
 31
0.0
  0
LINE
  5
1C0
330
1F
100
AcDbEntity
  8
B-3
  6
Continuous
 62
     4
370
     9
100
AcDbLine
 10
6.364650502408097
 20
-65.29757105572997
 30
0.0
 11
6.364650502408097
 21
-84.65884639356779
 31
0.0
  0
ARC
  5
1C1
330
1F
100
AcDbEntity
  8
B-2
  6
Continuous
 62
     4
370
     9
100
AcDbCircle
 10
18.95577434109055
 20
-8.930061883960516
 30
0.0
 40
2.000000025774982
100
AcDbArc
 50
4.999984741210936
 51
83.66183471679688
  0
ARC
  5
1C2
330
1F
100
AcDbEntity
  8
B-2
  6
Continuous
 62
     4
370
     9
100
AcDbCircle
 10
15.86465710080341
 20
-36.75892590423076
 30
0.0
 40
29.99999690700222
100
AcDbArc
 50
83.66180419921876
 51
96.33819580078126
  0
ARC
  5
1C3
330
1F
100
AcDbEntity
  8
B-2
  6
Continuous
 62
     4
370
     9
100
AcDbCircle
 10
12.77353986051622
 20
-8.930061883960516
 30
0.0
 40
2.000000025774982
100
AcDbArc
 50
96.33816528320312
 51
175.0000152587891
  0
ARC
  5
1C4
330
1F
100
AcDbEntity
  8
B-2
  6
Continuous
 62
     4
370
     9
100
AcDbCircle
 10
19.26477719159731
 20
-10.90893712150275
 30
0.0
 40
0.2500000032218727
100
AcDbArc
 50
90.0
 51
150.6708221435547
  0
ARC
  5
1C5
330
1F
100
AcDbEntity
  8
B-2
  6
Continuous
 62
     4
370
     9
100
AcDbCircle
 10
12.46473496186758
 20
-10.90893712150275
 30
0.0
 40
0.2500000032218727
100
AcDbArc
 50
29.32917785644531
 51
90.0
  0
ARC
  5
1C6
330
1F
100
AcDbEntity
  8
B-0
  6
Continuous
 62
     3
370
     9
100
AcDbCircle
 10
-90.92012633986381
 20
-5.798364512761189
 30
0.0
 40
3.000000038662472
100
AcDbArc
 50
251.9999389648437
 51
348.7693023681641
  0
ARC
  5
1C7
330
1F
100
AcDbEntity
  8
B-0
  6
JWW_DASHED1
 62
     3
370
     9
100
AcDbCircle
 10
-90.22932384303107
 20
-16.53740127901963
 30
0.0
 40
3.000000038662472
100
AcDbArc
 50
7.000427246093758
 51
72.00015258789064
  0
ARC
  5
1C8
330
1F
100
AcDbEntity
  8
B-0
  6
Continuous
 62
     3
370
     9
100
AcDbCircle
 10
28.64947683264461
 20
-5.798364512761189
 30
0.0
 40
3.000000038662472
100
AcDbArc
 50
191.230697631836
 51
288.0000610351562
  0
ARC
  5
1C9
330
1F
100
AcDbEntity
  8
B-0
  6
Continuous
 62
     3
370
     9
100
AcDbCircle
 10
27.95872382377637
 20
-16.53740127901963
 30
0.0
 40
3.000000038662472
100
AcDbArc
 50
107.9998474121094
 51
172.9995727539063
  0
ARC
  5
1CA
330
1F
100
AcDbEntity
  8
B-0
  6
Continuous
 62
     3
370
     9
100
AcDbCircle
 10
18.9989278461581
 20
-15.65889093273588
 30
0.0
 40
2.000000025774982
100
AcDbArc
 50
270.0
 51
353.0000152587891
  0
ARC
  5
1CB
330
1F
100
AcDbEntity
  8
B-0
  6
Continuous
 62
     3
370
     9
100
AcDbCircle
 10
19.1629309606007
 20
-22.5280183609453
 30
0.0
 40
5.000000257749815
100
AcDbArc
 50
273.9997558593749
 51
352.9993286132812
  0
ARC
  5
1CC
330
1F
100
AcDbEntity
  8
B-0
  6
Continuous
 62
     3
370
     9
100
AcDbCircle
 10
9.246532628675029
 20
-30.65884144477135
 30
0.0
 40
1.000000012887491
100
AcDbArc
 50
8.701187133789057
 51
90.0
  0
ARC
  5
1CD
330
1F
100
AcDbEntity
  8
B-0
  6
Continuous
 62
     3
370
     9
100
AcDbCircle
 10
-9.566416062203361
 20
-70.65887443674768
 30
0.0
 40
1.000000012887491
100
AcDbArc
 50
270.0
 51
355.9161682128906
  0
ARC
  5
1CE
330
1F
100
AcDbEntity
  8
B-0
  6
Continuous
 62
     3
370
     9
100
AcDbCircle
 10
-0.9797593371189404
 20
-34.65885464156186
 30
0.0
 40
5.000000257749815
100
AcDbArc
 50
90.0
 51
175.9146270751953
  0
ARC
  5
1CF
330
1F
100
AcDbEntity
  8
B-0
  6
Continuous
 62
     3
370
     9
100
AcDbCircle
 10
-52.70420870103362
 20
-70.65887443674768
 30
0.0
 40
1.000000012887491
100
AcDbArc
 50
184.0838317871093
 51
270.0
  0
ARC
  5
1D0
330
1F
100
AcDbEntity
  8
B-0
  6
JWW_DASHED1
 62
     3
370
     9
100
AcDbCircle
 10
15.71886555730674
 20
-17.75658677310749
 30
0.0
 40
5.000000257749815
100
AcDbArc
 50
273.9997253417969
 51
353.0013275146485
  0
ARC
  5
1D1
330
1F
100
AcDbEntity
  8
B-0
  6
Continuous
 62
     3
370
     9
100
AcDbCircle
 10
-5.607675827828361
 20
-29.27223816668858
 30
0.0
 40
5.000000257749815
100
AcDbArc
 50
93.99975585937501
 51
175.9146118164063
  0
ARC
  5
1D2
330
1F
100
AcDbEntity
  8
B-0
  6
Continuous
 62
     3
370
     9
100
AcDbCircle
 10
-56.66292419142633
 20
-29.27238663058213
 30
0.0
 40
5.000000257749815
100
AcDbArc
 50
4.085784912109379
 51
86.00006103515625
  0
ARC
  5
1D3
330
1F
100
AcDbEntity
  8
B-0
  6
Continuous
 62
     3
370
     9
100
AcDbCircle
 10
-91.01182753813241
 20
-14.70600017576796
 30
0.0
 40
1.500000019331236
100
AcDbArc
 50
6.763488769531248
 51
72.00085449218749
  0
ARC
  5
1D4
330
1F
100
AcDbEntity
  8
B-0
  6
Continuous
 62
     3
370
     9
100
AcDbCircle
 10
9.864637305617576
 20
-29.19276049565817
 30
0.0
 40
1.000000012887491
100
AcDbArc
 50
93.99946594238281
 51
180.0
  0
ARC
  5
1D5
330
1F
100
AcDbEntity
  8
B-0
  6
Continuous
 62
     3
370
     9
100
AcDbCircle
 10
11.14667251465477
 20
-19.1588777359453
 30
0.0
 40
1.500000019331236
100
AcDbArc
 50
90.0
 51
160.4870758056641
  0
ARC
  5
1D6
330
1F
100
AcDbEntity
  8
B-0
  6
Continuous
 62
     3
370
     9
100
AcDbCircle
 10
7.001362654012839
 20
-21.87472774122405
 30
0.0
 40
1.500000019331236
100
AcDbArc
 50
273.9993286132813
 51
340.487075805664
  0
ARC
  5
1D7
330
1F
100
AcDbEntity
  8
B-2
  6
Continuous
 62
     6
370
     9
100
AcDbCircle
 10
-80.28835473671772
 20
-16.65894371989802
 30
0.0
 40
1.000000012887491
100
AcDbArc
 50
189.461669921875
 51
270.0
  0
ARC
  5
1D8
330
1F
100
AcDbEntity
  8
B-2
  6
Continuous
 62
     6
370
     9
100
AcDbCircle
 10
9.365897599114192
 20
-15.65889093273588
 30
0.0
 40
2.000000025774982
100
AcDbArc
 50
195.0002593994141
 51
270.0
  0
ARC
  5
1D9
330
1F
100
AcDbEntity
  8
B-2
  6
Continuous
 62
     6
370
     9
100
AcDbCircle
 10
-71.63654710633347
 20
-15.65889093273588
 30
0.0
 40
2.000000025774982
100
AcDbArc
 50
270.0
 51
344.9997406005859
  0
ARC
  5
1DA
330
1F
100
AcDbEntity
  8
B-2
  6
Continuous
 62
     6
370
     9
100
AcDbCircle
 10
-74.93727062037482
 20
-8.658966814281452
 30
0.0
 40
3.000000038662472
100
AcDbArc
 50
270.0
 51
344.9997863769531
  0
ARC
  5
1DB
330
1F
100
AcDbEntity
  8
B-2
  6
Continuous
 62
     6
370
     9
100
AcDbCircle
 10
-75.01033959999899
 20
-16.65894371989802
 30
0.0
 40
1.000000012887491
100
AcDbArc
 50
270.0
 51
345.0015411376953
  0
ARC
  5
1DC
330
1F
100
AcDbEntity
  8
B-2
  6
Continuous
 62
     6
370
     9
100
AcDbCircle
 10
-8.150169493368939
 20
14.93818135928272
 30
0.0
 40
6.999999896900073
100
AcDbArc
 50
15.000244140625
 51
83.01467895507812
  0
ARC
  5
1DD
330
1F
100
AcDbEntity
  8
B-2
  6
Continuous
 62
     6
370
     9
100
AcDbCircle
 10
-8.150169493368939
 20
14.93818135928272
 30
0.0
 40
10.99999994845004
100
AcDbArc
 50
15.00027465820312
 51
83.01467895507811
  0
ARC
  5
1DE
330
1F
100
AcDbEntity
  8
B-2
  6
Continuous
 62
     6
370
     9
100
AcDbCircle
 10
-31.13530000962737
 20
-172.6589263991104
 30
0.0
 40
200.0000164959882
100
AcDbArc
 50
83.0146942138672
 51
96.98530578613283
  0
ARC
  5
1DF
330
1F
100
AcDbEntity
  8
B-2
  6
Continuous
 62
     6
370
     9
100
AcDbCircle
 10
-54.12048001385034
 20
14.93818135928272
 30
0.0
 40
10.99999994845004
100
AcDbArc
 50
96.98527526855474
 51
164.9999084472657
  0
ARC
  5
1E0
330
1F
100
AcDbEntity
  8
B-2
  6
Continuous
 62
     6
370
     9
100
AcDbCircle
 10
-31.13530000962737
 20
-172.6589263991104
 30
0.0
 40
196.0000032991977
100
AcDbArc
 50
83.0146942138672
 51
96.98530578613283
  0
ARC
  5
1E1
330
1F
100
AcDbEntity
  8
B-2
  6
Continuous
 62
     6
370
     9
100
AcDbCircle
 10
-54.12048001385034
 20
14.93818135928272
 30
0.0
 40
6.999999896900073
100
AcDbArc
 50
96.98532104492189
 51
164.9997558593749
  0
ARC
  5
1E2
330
1F
100
AcDbEntity
  8
B-2
  6
Continuous
 62
     6
370
     9
100
AcDbCircle
 10
18.01768048551622
 20
-16.65894371989802
 30
0.0
 40
1.000000012887491
100
AcDbArc
 50
327.8928070068359
 51
350.538330078125
  0
ARC
  5
1E3
330
1F
100
AcDbEntity
  8
B-0
  6
Continuous
 62
     3
370
     9
100
AcDbCircle
 10
-96.31159263526081
 20
-22.97289041806103
 30
0.0
 40
10.99999994845004
100
AcDbArc
 50
72.00086975097656
 51
110.3412017822266
  0
ARC
  5
1E4
330
1F
100
AcDbEntity
  8
B-0
  6
Continuous
 62
     3
370
     9
100
AcDbCircle
 10
-104.2679953881113
 20
-5.658857940759521
 30
0.0
 40
1.000000012887491
100
AcDbArc
 50
90.0
 51
171.8690948486328
  0
ARC
  5
1E5
330
1F
100
AcDbEntity
  8
B-0
  6
Continuous
 62
     3
370
     9
100
AcDbCircle
 10
41.99737062487434
 20
-5.658857940759521
 30
0.0
 40
1.000000012887491
100
AcDbArc
 50
8.130905151367172
 51
89.99999999999999
  0
ARC
  5
1E6
330
1F
100
AcDbEntity
  8
B-0
  6
Continuous
 62
     3
370
     9
100
AcDbCircle
 10
34.04104210397059
 20
-22.97289041806103
 30
0.0
 40
10.99999994845004
100
AcDbArc
 50
69.65892028808594
 51
108.0007629394531
  0
LINE
  5
1E7
330
1F
100
AcDbEntity
  8
B-0
  6
Continuous
 62
     3
370
     9
100
AcDbLine
 10
-51.67563148055724
 20
-24.28449468590312
 30
0.0
 11
-10.59499866091534
 21
-24.28449468590312
 31
0.0
  0
LINE
  5
1E8
330
1F
100
AcDbEntity
  8
B-5
  6
Continuous
 62
     7
370
     9
100
AcDbLine
 10
19.9557776402882
 20
-7.198007869496866
 30
0.0
 11
21.86918030076117
 21
-2.578603308686034
 31
0.0
  0
LINE
  5
1E9
330
1F
100
AcDbEntity
  8
B-5
  6
Continuous
 62
     7
370
     9
100
AcDbLine
 10
19.9557776402882
 20
-7.198007869496866
 30
0.0
 11
22.99958438648753
 21
-3.231250584868487
 31
0.0
  0
LINE
  5
1EA
330
1F
100
AcDbEntity
  8
B-5
  6
Continuous
 62
     7
370
     9
100
AcDbLine
 10
-2.650126603799666
 20
24.46446606684183
 30
0.0
 11
-0.7367239433266981
 21
29.08387062765267
 31
0.0
  0
LINE
  5
1EB
330
1F
100
AcDbEntity
  8
B-5
  6
Continuous
 62
     7
370
     9
100
AcDbLine
 10
-2.650126603799666
 20
24.46446606684183
 30
0.0
 11
0.3936801423996545
 21
28.43122335147021
 31
0.0
  0
LINE
  5
1EC
330
1F
100
AcDbEntity
  8
B-5
  6
Continuous
 62
     7
370
     9
100
AcDbLine
 10
-95.13528846243565
 20
-60.65889093273587
 30
0.0
 11
-97.04874061087315
 21
-65.2782954935467
 31
0.0
  0
LINE
  5
1ED
330
1F
100
AcDbEntity
  8
B-5
  6
Continuous
 62
     7
370
     9
100
AcDbLine
 10
-95.13528846243565
 20
-60.65889093273587
 30
0.0
 11
-98.17911995261721
 21
-64.62564821736423
 31
0.0
  0
LINE
  5
1EE
330
1F
100
AcDbEntity
  8
B-5
  6
Continuous
 62
     7
370
     9
100
AcDbLine
 10
-105.1352967104297
 20
-12.65885629116067
 30
0.0
 11
-107.048724114885
 21
-17.2782608519715
 31
0.0
  0
LINE
  5
1EF
330
1F
100
AcDbEntity
  8
B-5
  6
Continuous
 62
     7
370
     9
100
AcDbLine
 10
-105.1352967104297
 20
-12.65885629116067
 30
0.0
 11
-108.179103456629
 21
-16.62561357578905
 31
0.0
  0
LINE
  5
1F0
330
1F
100
AcDbEntity
  8
B-5
  6
Continuous
 62
     7
370
     9
100
AcDbLine
 10
-71.13530825762143
 20
-84.65884639356779
 30
0.0
 11
-73.04876040605893
 21
-89.27822621039634
 31
0.0
  0
LINE
  5
1F1
330
1F
100
AcDbEntity
  8
B-5
  6
Continuous
 62
     7
370
     9
100
AcDbLine
 10
-71.13530825762143
 20
-84.65884639356779
 30
0.0
 11
-74.17911500382075
 21
-88.62562842217841
 31
0.0
  0
LINE
  5
1F2
330
1F
100
AcDbEntity
  8
B-5
  6
Continuous
 62
     7
370
     9
100
AcDbLine
 10
19.9557776402882
 20
-7.198007869496866
 30
0.0
 11
51.44393022158044
 21
47.34109422087479
 31
0.0
  0
LINE
  5
1F3
330
1F
100
AcDbEntity
  8
B-5
  6
Continuous
 62
     7
370
     9
100
AcDbLine
 10
-95.13528846243565
 20
-60.65889093273587
 30
0.0
 11
-106.6822904815446
 21
-80.6588579407595
 31
0.0
  0
LINE
  5
1F4
330
1F
100
AcDbEntity
  8
B-5
  6
Continuous
 62
     7
370
     9
100
AcDbLine
 10
-105.1352967104297
 20
-12.65885629116067
 30
0.0
 11
-119.5690554203115
 21
-37.65883979517255
 31
0.0
  0
LINE
  5
1F5
330
1F
100
AcDbEntity
  8
B-0
  6
Continuous
 62
     3
370
     9
100
AcDbLine
 10
-84.68531089697956
 20
-29.65888763353822
 30
0.0
 11
-85.58532376385034
 21
-30.55887575642677
 31
0.0
  0
LINE
  5
1F6
330
1F
100
AcDbEntity
  8
B-0
  6
Continuous
 62
     3
370
     9
100
AcDbLine
 10
-79.58535345662904
 20
-29.65888763353822
 30
0.0
 11
-84.68531089697956
 21
-29.65888763353822
 31
0.0
  0
LINE
  5
1F7
330
1F
100
AcDbEntity
  8
B-0
  6
Continuous
 62
     3
370
     9
100
AcDbLine
 10
-79.58535345662904
 20
-29.65888763353822
 30
0.0
 11
-78.685315845776
 21
-30.55887575642677
 31
0.0
  0
LINE
  5
1F8
330
1F
100
AcDbEntity
  8
B-0
  6
JWW_CENTER1
 62
     3
370
     9
100
AcDbLine
 10
-82.13529506083091
 20
-52.65891402711931
 30
0.0
 11
-82.13529506083091
 21
-26.62626516732202
 31
0.0
  0
LINE
  5
1F9
330
1F
100
AcDbEntity
  8
B-0
  6
Continuous
 62
     3
370
     9
100
AcDbLine
 10
-85.58532376385034
 20
-30.55887575642677
 30
0.0
 11
-78.685315845776
 21
-30.55887575642677
 31
0.0
  0
LINE
  5
1FA
330
1F
100
AcDbEntity
  8
B-0
  6
Continuous
 62
     3
370
     9
100
AcDbLine
 10
-79.58535345662904
 20
-29.65888763353822
 30
0.0
 11
-79.58535345662904
 21
-39.65887113755005
 31
0.0
  0
LINE
  5
1FB
330
1F
100
AcDbEntity
  8
B-0
  6
Continuous
 62
     3
370
     9
100
AcDbLine
 10
-84.68531089697956
 20
-39.65887113755005
 30
0.0
 11
-84.68531089697956
 21
-27.65883154717843
 31
0.0
  0
LINE
  5
1FC
330
1F
100
AcDbEntity
  8
B-0
  6
Continuous
 62
     3
370
     9
100
AcDbLine
 10
-85.58532376385034
 20
-39.65887113755005
 30
0.0
 11
-85.58532376385034
 21
-30.55887575642677
 31
0.0
  0
LINE
  5
1FD
330
1F
100
AcDbEntity
  8
B-0
  6
Continuous
 62
     3
370
     9
100
AcDbLine
 10
-79.13533465120253
 20
-52.65891402711931
 30
0.0
 11
-79.13533465120253
 21
-39.65887113755005
 31
0.0
  0
LINE
  5
1FE
330
1F
100
AcDbEntity
  8
B-0
  6
Continuous
 62
     3
370
     9
100
AcDbLine
 10
-78.685315845776
 20
-30.55887575642677
 30
0.0
 11
-78.685315845776
 21
-39.65887113755005
 31
0.0
  0
LINE
  5
1FF
330
1F
100
AcDbEntity
  8
B-0
  6
Continuous
 62
     3
370
     9
100
AcDbLine
 10
-85.58532376385034
 20
-39.65887113755005
 30
0.0
 11
-78.685315845776
 21
-39.65887113755005
 31
0.0
  0
LINE
  5
200
330
1F
100
AcDbEntity
  8
B-0
  6
Continuous
 62
     3
370
     9
100
AcDbLine
 10
-85.13530495842382
 20
-52.65891402711931
 30
0.0
 11
-85.13530495842382
 21
-39.65887113755005
 31
0.0
  0
LINE
  5
201
330
1F
100
AcDbEntity
  8
B-0
  6
Continuous
 62
     3
370
     9
100
AcDbLine
 10
-87.13531155681909
 20
-60.65889093273587
 30
0.0
 11
-95.13528846243565
 21
-60.65889093273587
 31
0.0
  0
LINE
  5
202
330
1F
100
AcDbEntity
  8
B-0
  6
Continuous
 62
     3
370
     9
100
AcDbLine
 10
-95.13528846243565
 20
-60.65889093273587
 30
0.0
 11
-95.13528846243565
 21
-54.65887113755005
 31
0.0
  0
LINE
  5
203
330
1F
100
AcDbEntity
  8
B-0
  6
Continuous
 62
     3
370
     9
100
AcDbLine
 10
-87.13531155681909
 20
-54.65887113755005
 30
0.0
 11
-95.13528846243565
 21
-54.65887113755005
 31
0.0
  0
LINE
  5
204
330
1F
100
AcDbEntity
  8
B-0
  6
JWW_CENTER1
 62
     3
370
     9
100
AcDbLine
 10
-97.8593782138081
 20
-57.65888103514295
 30
0.0
 11
-87.13531155681909
 21
-57.65888103514295
 31
0.0
  0
LINE
  5
205
330
1F
100
AcDbEntity
  8
B-0
  6
JWW_DASHED1
 62
     3
370
     9
100
AcDbLine
 10
-86.35035820747362
 20
-23.51198755963619
 30
0.0
 11
-87.2516577614221
 21
-16.17178419709395
 31
0.0
  0
LINE
  5
206
330
1F
100
AcDbEntity
  8
B-0
  6
Continuous
 62
     3
370
     9
100
AcDbLine
 10
-79.5853039686645
 20
-34.65885464156186
 30
0.0
 11
-79.5853039686645
 21
-27.65883154717843
 31
0.0
  0
LINE
  5
207
330
1F
100
AcDbEntity
  8
B-0
  6
Continuous
 62
     3
370
     9
100
AcDbLine
 10
-84.68531089697956
 20
-27.65883154717843
 30
0.0
 11
-79.5853039686645
 21
-27.65883154717843
 31
0.0
  0
LINE
  5
208
330
1F
100
AcDbEntity
  8
B-0
  6
Continuous
 62
     3
370
     9
100
AcDbLine
 10
-72.26519271972029
 20
-30.50760622517677
 30
0.0
 11
-72.88319842073378
 21
-33.47010424565818
 31
0.0
  0
LINE
  5
209
330
1F
100
AcDbEntity
  8
B-0
  6
Continuous
 62
     3
370
     9
100
AcDbLine
 10
-61.29091491408258
 20
-29.65888763353822
 30
0.0
 11
-71.27672011625742
 21
-29.65888763353822
 31
0.0
  0
LINE
  5
20A
330
1F
100
AcDbEntity
  8
B-0
  6
Continuous
 62
     3
370
     9
100
AcDbLine
 10
-89.52226454985116
 20
-14.52932814240645
 30
0.0
 11
-87.29226263631654
 21
-33.33544749418009
 31
0.0
  0
LINE
  5
20B
330
1F
100
AcDbEntity
  8
B-0
  6
JWW_PHANTOM2
 62
     3
370
     9
100
AcDbLine
 10
-73.40690480534101
 20
-17.65884804316661
 30
0.0
 11
-81.26952786541284
 21
-17.65884804316661
 31
0.0
  0
LINE
  5
20C
330
1F
100
AcDbEntity
  8
B-0
  6
JWW_PHANTOM2
 62
     3
370
     9
100
AcDbLine
 10
-70.67544134725404
 20
-22.37648621356358
 30
0.0
 11
-71.99303365880388
 21
-18.65786158307369
 31
0.0
  0
LINE
  5
20D
330
1F
100
AcDbEntity
  8
B-0
  6
Continuous
 62
     3
370
     9
100
AcDbLine
 10
-78.33823200656569
 20
-22.74442922982202
 30
0.0
 11
-56.31415776142212
 21
-24.28449468590312
 31
0.0
  0
LINE
  5
20E
330
1F
100
AcDbEntity
  8
B-0
  6
JWW_DASHED1
 62
     3
370
     9
100
AcDbLine
 10
-71.13530825762143
 20
-29.19285947158724
 30
0.0
 11
-71.13530825762143
 21
-29.65888763353822
 31
0.0
  0
LINE
  5
20F
330
1F
100
AcDbEntity
  8
B-0
  6
JWW_DASHED1
 62
     3
370
     9
100
AcDbLine
 10
-72.06555827081826
 20
-28.19528108265139
 30
0.0
 11
-81.7823221538419
 21
-27.5158113296953
 31
0.0
  0
LINE
  5
210
330
1F
100
AcDbEntity
  8
B-0
  6
Continuous
 62
     3
370
     9
100
AcDbLine
 10
-85.80269964803529
 20
-34.65885464156186
 30
0.0
 11
-84.68531089697956
 21
-34.65885464156186
 31
0.0
  0
LINE
  5
211
330
1F
100
AcDbEntity
  8
B-0
  6
Continuous
 62
     3
370
     9
100
AcDbLine
 10
-79.58535345662904
 20
-34.65885464156186
 30
0.0
 11
-74.35054131294237
 21
-34.65885464156186
 31
0.0
  0
ARC
  5
212
330
1F
100
AcDbEntity
  8
B-0
  6
Continuous
 62
     3
370
     9
100
AcDbCircle
 10
-87.13531155681909
 20
-52.65891402711931
 30
0.0
 40
2.000000025774982
100
AcDbArc
 50
270.0
 51
0.0
  0
ARC
  5
213
330
1F
100
AcDbEntity
  8
B-0
  6
JWW_CENTER1
 62
     3
370
     9
100
AcDbCircle
 10
-87.13531155681909
 20
-52.65891402711931
 30
0.0
 40
2.000000025774982
100
AcDbArc
 50
270.0
 51
0.0
  0
ARC
  5
214
330
1F
100
AcDbEntity
  8
B-0
  6
JWW_CENTER1
 62
     3
370
     9
100
AcDbCircle
 10
-87.13531155681909
 20
-52.65891402711931
 30
0.0
 40
5.000000257749815
100
AcDbArc
 50
270.0
 51
0.0
  0
ARC
  5
215
330
1F
100
AcDbEntity
  8
B-0
  6
Continuous
 62
     3
370
     9
100
AcDbCircle
 10
-87.13531155681909
 20
-52.65891402711931
 30
0.0
 40
8.000000103099927
100
AcDbArc
 50
270.0
 51
0.0
  0
ARC
  5
216
330
1F
100
AcDbEntity
  8
B-0
  6
JWW_PHANTOM2
 62
     3
370
     9
100
AcDbCircle
 10
-81.26952786541284
 20
-15.65889093273588
 30
0.0
 40
2.000000025774982
100
AcDbArc
 50
186.999984741211
 51
270.0
  0
ARC
  5
217
330
1F
100
AcDbEntity
  8
B-0
  6
Continuous
 62
     3
370
     9
100
AcDbCircle
 10
-74.35054131294237
 20
-33.15882494878318
 30
0.0
 40
1.500000019331236
100
AcDbArc
 50
270.0
 51
348.0235290527344
  0
ARC
  5
218
330
1F
100
AcDbEntity
  8
B-0
  6
Continuous
 62
     3
370
     9
100
AcDbCircle
 10
-61.29091491408258
 20
-34.65885464156186
 30
0.0
 40
5.000000257749815
100
AcDbArc
 50
4.085372924804703
 51
90.00000000000001
  0
ARC
  5
219
330
1F
100
AcDbEntity
  8
B-0
  6
Continuous
 62
     3
370
     9
100
AcDbCircle
 10
-71.27672011625742
 20
-30.65884144477135
 30
0.0
 40
1.000000012887491
100
AcDbArc
 50
90.0
 51
171.2988128662109
  0
ARC
  5
21A
330
1F
100
AcDbEntity
  8
B-0
  6
JWW_DASHED1
 62
     3
370
     9
100
AcDbCircle
 10
-81.43358046781991
 20
-22.5280183609453
 30
0.0
 40
5.000000257749815
100
AcDbArc
 50
245.1371307373047
 51
266.0002441406249
  0
ARC
  5
21B
330
1F
100
AcDbEntity
  8
B-0
  6
JWW_DASHED1
 62
     3
370
     9
100
AcDbCircle
 10
-81.43358046781991
 20
-22.5280183609453
 30
0.0
 40
5.000000257749815
100
AcDbArc
 50
187.0006713867188
 51
245.1371307373047
  0
ARC
  5
21C
330
1F
100
AcDbEntity
  8
B-0
  6
Continuous
 62
     3
370
     9
100
AcDbCircle
 10
-77.98946557656147
 20
-17.75663626107202
 30
0.0
 40
5.000000257749815
100
AcDbArc
 50
186.9994506835938
 51
266.0000457763672
  0
ARC
  5
21D
330
1F
100
AcDbEntity
  8
B-0
  6
Continuous
 62
     3
370
     9
100
AcDbCircle
 10
-85.80269964803529
 20
-33.15882494878318
 30
0.0
 40
1.500000019331236
100
AcDbArc
 50
186.7620849609375
 51
270.0
  0
ARC
  5
21E
330
1F
100
AcDbEntity
  8
B-0
  6
JWW_PHANTOM2
 62
     3
370
     9
100
AcDbCircle
 10
-73.40690480534101
 20
-19.1588777359453
 30
0.0
 40
1.500000019331236
100
AcDbArc
 50
19.51121520996094
 51
90.0
  0
ARC
  5
21F
330
1F
100
AcDbEntity
  8
B-0
  6
JWW_PHANTOM2
 62
     3
370
     9
100
AcDbCircle
 10
-69.26154545673461
 20
-21.87547006069192
 30
0.0
 40
1.500000019331236
100
AcDbArc
 50
199.5112152099609
 51
266.0
  0
ARC
  5
220
330
1F
100
AcDbEntity
  8
B-0
  6
JWW_DASHED1
 62
     3
370
     9
100
AcDbCircle
 10
-72.13531155681909
 20
-29.19285947158724
 30
0.0
 40
1.000000012887491
100
AcDbArc
 50
0.0
 51
85.99966430664062
  0
LINE
  5
221
330
1F
100
AcDbEntity
  8
B-4
  6
Continuous
 62
     7
370
     9
100
AcDbLine
 10
-82.13539403675998
 20
52.70848186209106
 30
0.0
 11
19.864769273523
 21
52.70848186209106
 31
0.0
  0
LINE
  5
222
330
1F
100
AcDbEntity
  8
B-4
  6
Continuous
 62
     7
370
     9
100
AcDbLine
 10
-82.13539403675998
 20
-6.658935471903956
 30
0.0
 11
-82.13539403675998
 21
53.30847394401674
 31
0.0
  0
LINE
  5
223
330
1F
100
AcDbEntity
  8
B-4
  6
Continuous
 62
     7
370
     9
100
AcDbLine
 10
19.864769273523
 20
-6.658935471903956
 30
0.0
 11
19.864769273523
 21
53.30847394401674
 31
0.0
  0
LINE
  5
224
330
1F
100
AcDbEntity
  8
B-4
  6
Continuous
 62
     7
370
     9
100
AcDbLine
 10
-82.13539403675998
 20
52.70848186209106
 30
0.0
 11
-77.17813514212315
 21
53.36110439429122
 31
0.0
  0
LINE
  5
225
330
1F
100
AcDbEntity
  8
B-4
  6
Continuous
 62
     7
370
     9
100
AcDbLine
 10
-82.13539403675998
 20
52.70848186209106
 30
0.0
 11
-77.17813514212315
 21
52.05585932989084
 31
0.0
  0
LINE
  5
226
330
1F
100
AcDbEntity
  8
B-4
  6
Continuous
 62
     7
370
     9
100
AcDbLine
 10
19.864769273523
 20
52.70848186209106
 30
0.0
 11
14.9075598668507
 21
53.36110439429122
 31
0.0
  0
LINE
  5
227
330
1F
100
AcDbEntity
  8
B-4
  6
Continuous
 62
     7
370
     9
100
AcDbLine
 10
19.864769273523
 20
52.70848186209106
 30
0.0
 11
14.9075598668507
 21
52.05585932989084
 31
0.0
  0
LINE
  5
228
330
1F
100
AcDbEntity
  8
B-4
  6
Continuous
 62
     7
370
     9
100
AcDbLine
 10
-84.6351053569669
 20
74.01638613738379
 30
0.0
 11
22.36460431364122
 21
74.01638613738379
 31
0.0
  0
LINE
  5
229
330
1F
100
AcDbEntity
  8
B-4
  6
Continuous
 62
     7
370
     9
100
AcDbLine
 10
-84.6351053569669
 20
0.3411371104440128
 30
0.0
 11
-84.6351053569669
 21
74.61637821930947
 31
0.0
  0
LINE
  5
22A
330
1F
100
AcDbEntity
  8
B-4
  6
Continuous
 62
     7
370
     9
100
AcDbLine
 10
22.36460431364122
 20
0.3411371104440128
 30
0.0
 11
22.36460431364122
 21
74.61637821930947
 31
0.0
  0
LINE
  5
22B
330
1F
100
AcDbEntity
  8
B-4
  6
Continuous
 62
     7
370
     9
100
AcDbLine
 10
-84.6351053569669
 20
74.01638613738379
 30
0.0
 11
-79.6778959502946
 21
74.669008669584
 31
0.0
  0
LINE
  5
22C
330
1F
100
AcDbEntity
  8
B-4
  6
Continuous
 62
     7
370
     9
100
AcDbLine
 10
-84.6351053569669
 20
74.01638613738379
 30
0.0
 11
-79.6778959502946
 21
73.36376360518364
 31
0.0
  0
LINE
  5
22D
330
1F
100
AcDbEntity
  8
B-4
  6
Continuous
 62
     7
370
     9
100
AcDbLine
 10
22.36460431364122
 20
74.01638613738379
 30
0.0
 11
17.40739490696893
 21
74.669008669584
 31
0.0
  0
LINE
  5
22E
330
1F
100
AcDbEntity
  8
B-4
  6
Continuous
 62
     7
370
     9
100
AcDbLine
 10
22.36460431364122
 20
74.01638613738379
 30
0.0
 11
17.40739490696893
 21
73.36376360518364
 31
0.0
  0
TEXT
  5
22F
330
1F
100
AcDbEntity
  8
B-4
  6
Continuous
 62
     2
370
     9
100
AcDbText
 10
-47.63533712560076
 20
56.37876477280579
 30
0.0
 40
9.144
  1
φ102
 41
1.1
  7
ＭＳ ゴシック
100
AcDbText
  0
TEXT
  5
230
330
1F
100
AcDbEntity
  8
B-4
  6
Continuous
 62
     2
370
     9
100
AcDbText
 10
-47.63528763763622
 20
77.68666904809854
 30
0.0
 40
9.144
  1
φ107
 41
1.1
  7
ＭＳ ゴシック
100
AcDbText
  0
TEXT
  5
231
330
1F
100
AcDbEntity
  8
B-4
  6
Continuous
 62
     2
370
     9
100
AcDbText
 10
61.44469369152941
 20
-23.53387113755005
 30
0.0
 40
9.144
  1
25
 50
90.0
 41
1.0625
  7
ＭＳ ゴシック
100
AcDbText
  0
TEXT
  5
232
330
1F
100
AcDbEntity
  8
B-4
  6
Continuous
 62
     2
370
     9
100
AcDbText
 10
-128.5553145564647
 20
-1.533872787148876
 30
0.0
 40
9.144
  1
45
 50
90.0
 41
1.0625
  7
ＭＳ ゴシック
100
AcDbText
  0
LINE
  5
233
330
1F
100
AcDbEntity
  8
B-4
  6
Continuous
 62
     7
370
     9
100
AcDbLine
 10
89.90247405067305
 20
-84.65884639356779
 30
0.0
 11
89.90247405067305
 21
-4.658854641561863
 31
0.0
  0
LINE
  5
234
330
1F
100
AcDbEntity
  8
B-4
  6
Continuous
 62
     7
370
     9
100
AcDbLine
 10
13.86469999037263
 20
-84.65884639356779
 30
0.0
 11
90.50246613259871
 21
-84.65884639356779
 31
0.0
  0
LINE
  5
235
330
1F
100
AcDbEntity
  8
B-4
  6
Continuous
 62
     7
370
     9
100
AcDbLine
 10
89.90247405067305
 20
-84.65884639356779
 30
0.0
 11
89.24982677449059
 21
-79.7016369868955
 31
0.0
  0
LINE
  5
236
330
1F
100
AcDbEntity
  8
B-4
  6
Continuous
 62
     7
370
     9
100
AcDbLine
 10
89.90247405067305
 20
-84.65884639356779
 30
0.0
 11
90.5551213268555
 21
-79.7016369868955
 31
0.0
  0
LINE
  5
237
330
1F
100
AcDbEntity
  8
B-4
  6
Continuous
 62
     7
370
     9
100
AcDbLine
 10
89.90247405067305
 20
-4.658854641561863
 30
0.0
 11
89.24982677449059
 21
-9.616088792216456
 31
0.0
  0
LINE
  5
238
330
1F
100
AcDbEntity
  8
B-4
  6
Continuous
 62
     7
370
     9
100
AcDbLine
 10
89.90247405067305
 20
-4.658854641561863
 30
0.0
 11
90.5551213268555
 21
-9.616088792216456
 31
0.0
  0
LINE
  5
239
330
1F
100
AcDbEntity
  8
B-4
  6
Continuous
 62
     7
370
     9
100
AcDbLine
 10
89.90247405067305
 20
-4.658854641561863
 30
0.0
 11
89.90247405067305
 21
27.34110246886886
 31
0.0
  0
LINE
  5
23A
330
1F
100
AcDbEntity
  8
B-4
  6
Continuous
 62
     7
370
     9
100
AcDbLine
 10
89.90247405067305
 20
-4.658854641561863
 30
0.0
 11
89.24982677449059
 21
0.2983795090926655
 31
0.0
  0
LINE
  5
23B
330
1F
100
AcDbEntity
  8
B-4
  6
Continuous
 62
     7
370
     9
100
AcDbLine
 10
89.90247405067305
 20
-4.658854641561863
 30
0.0
 11
90.5551213268555
 21
0.2983795090926655
 31
0.0
  0
LINE
  5
23C
330
1F
100
AcDbEntity
  8
B-4
  6
Continuous
 62
     7
370
     9
100
AcDbLine
 10
89.90247405067305
 20
27.34110246886886
 30
0.0
 11
89.24982677449059
 21
22.38386831821433
 31
0.0
  0
LINE
  5
23D
330
1F
100
AcDbEntity
  8
B-4
  6
Continuous
 62
     7
370
     9
100
AcDbLine
 10
89.90247405067305
 20
27.34110246886886
 30
0.0
 11
90.5551213268555
 21
22.38386831821433
 31
0.0
  0
LINE
  5
23E
330
1F
100
AcDbEntity
  8
B-4
  6
Continuous
 62
     7
370
     9
100
AcDbLine
 10
2.461485252196949
 20
27.34110246886886
 30
0.0
 11
90.50246613259871
 21
27.34110246886886
 31
0.0
  0
TEXT
  5
23F
330
1F
100
AcDbEntity
  8
B-4
  6
Continuous
 62
     2
370
     9
100
AcDbText
 10
87.48245125584165
 20
4.966123913653497
 30
0.0
 40
9.144
  1
32
 50
90.0
 41
1.0625
  7
ＭＳ ゴシック
100
AcDbText
  0
TEXT
  5
240
330
1F
100
AcDbEntity
  8
B-4
  6
Continuous
 62
     2
370
     9
100
AcDbText
 10
88.17755920558824
 20
-52.03529639092845
 30
0.0
 40
9.144
  1
Ｃ
 50
90.0
  7
ＭＳ ゴシック
100
AcDbText
  0
TEXT
  5
241
330
1F
100
AcDbEntity
  8
B-5
  6
Continuous
 62
     7
370
     9
100
AcDbText
 10
51.72804550479879
 20
49.63066929583056
 30
0.0
 40
6.858000000000001
  1
丸小ねじ：ＳＵＳ３０４
 41
1.151515151515151
  7
ＭＳ ゴシック
100
AcDbText
  0
TEXT
  5
242
330
1F
100
AcDbEntity
  8
B-5
  6
Continuous
 62
     7
370
     9
100
AcDbText
 10
-202.9189720824064
 20
-34.51046973227465
 30
0.0
 40
6.858000000000001
  1
本体：ＳＣＳ１３
 41
1.145833333333333
  7
ＭＳ ゴシック
100
AcDbText
  0
TEXT
  5
243
330
1F
100
AcDbEntity
  8
B-5
  6
Continuous
 62
     7
370
     9
100
AcDbText
 10
-211.1673409730589
 20
-77.45229160340368
 30
0.0
 40
6.858000000000001
  1
アンカー：ＳＷＲＭ８
 41
1.15
  7
ＭＳ ゴシック
100
AcDbText
  0
LINE
  5
244
330
1F
100
AcDbEntity
  8
B-5
  6
Continuous
 62
     7
370
     9
100
AcDbLine
 10
-106.6822904815446
 20
-80.6588579407595
 30
0.0
 11
-211.1128147688675
 21
-80.6588579407595
 31
0.0
  0
LINE
  5
245
330
1F
100
AcDbEntity
  8
B-5
  6
Continuous
 62
     7
370
     9
100
AcDbLine
 10
-71.13530825762143
 20
-84.65884639356779
 30
0.0
 11
-90.97187945611492
 21
-119.4568479908034
 31
0.0
  0
TEXT
  5
246
330
1F
100
AcDbEntity
  8
B-5
  6
Continuous
 62
     7
370
     9
100
AcDbText
 10
-185.8813380320167
 20
-128.5893286714358
 30
0.0
 40
6.858000000000001
  1
硬質ポリ塩化ビニル
 41
1.148148148148148
  7
ＭＳ ゴシック
100
AcDbText
  0
LINE
  5
247
330
1F
100
AcDbEntity
  8
B-5
  6
Continuous
 62
     7
370
     9
100
AcDbLine
 10
-90.97187945611492
 20
-119.4568479908034
 30
0.0
 11
-187.4271154470541
 21
-119.4568479908034
 31
0.0
  0
LINE
  5
248
330
1F
100
AcDbEntity
  8
B-5
  6
Continuous
 62
     7
370
     9
100
AcDbLine
 10
-204.5091728080793
 20
-37.65883979517255
 30
0.0
 11
-119.5690554203115
 21
-37.65883979517255
 31
0.0
  0
TEXT
  5
249
330
1F
100
AcDbEntity
  8
B-5
  6
Continuous
 62
     7
370
     9
100
AcDbText
 10
-177.0391141141954
 20
-47.15872609003224
 30
0.0
 40
6.858000000000001
  1
酸　洗
 41
1.111111111111111
  7
ＭＳ ゴシック
100
AcDbText
  0
TEXT
  5
24A
330
1F
100
AcDbEntity
  8
B-5
  6
Continuous
 62
     7
370
     9
100
AcDbText
 10
-189.6475526252061
 20
-89.99709349834025
 30
0.0
 40
6.858000000000001
  1
りん酸塩被膜
 41
1.138888888888889
  7
ＭＳ ゴシック
100
AcDbText
  0
TEXT
  5
24B
330
1F
100
AcDbEntity
  8
B-5
  6
Continuous
 62
     7
370
     9
100
AcDbText
 10
-164.6994974515845
 20
-116.6607218649437
 30
0.0
 40
6.858000000000001
  1
スペーサー
 41
1.133333333333333
  7
ＭＳ ゴシック
100
AcDbText
  0
LINE
  5
24C
330
1F
100
AcDbEntity
  8
B-5
  6
Continuous
 62
     7
370
     9
100
AcDbLine
 10
51.44393022158044
 20
47.34109422087479
 30
0.0
 11
164.8891702477472
 21
47.34109422087479
 31
0.0
  0
TEXT
  5
24D
330
1F
100
AcDbEntity
  8
B-5
  6
Continuous
 62
     7
370
     9
100
AcDbText
 10
82.66655023466386
 20
38.25842360939533
 30
0.0
 40
6.858000000000001
  1
Ｍ６×１２
 41
1.133333333333333
  7
ＭＳ ゴシック
100
AcDbText
  0
LINE
  5
24E
330
1F
100
AcDbEntity
  8
B-5
  6
Continuous
 62
     7
370
     9
100
AcDbLine
 10
-2.650126603799666
 20
24.46446606684183
 30
0.0
 11
49.39395987805734
 21
114.6145497649508
 31
0.0
  0
TEXT
  5
24F
330
1F
100
AcDbEntity
  8
B-5
  6
Continuous
 62
     7
370
     9
100
AcDbText
 10
49.55123978007389
 20
117.321342062679
 30
0.0
 40
6.858000000000001
  1
ストレーナー：ＳＣＳ１３
 41
1.152777777777777
  7
ＭＳ ゴシック
100
AcDbText
  0
LINE
  5
250
330
1F
100
AcDbEntity
  8
B-5
  6
Continuous
 62
     7
370
     9
100
AcDbLine
 10
49.39395987805734
 20
114.6145497649508
 30
0.0
 11
174.9964537343002
 21
114.6145497649508
 31
0.0
  0
TEXT
  5
251
330
1F
100
AcDbEntity
  8
B-5
  6
Continuous
 62
     7
370
     9
100
AcDbText
 10
97.19520680617876
 20
105.5085816260142
 30
0.0
 40
6.858000000000001
  1
酸　洗
 41
1.111111111111111
  7
ＭＳ ゴシック
100
AcDbText
  0
LINE
  5
252
330
1F
100
AcDbEntity
  8
B-4
  6
Continuous
 62
     7
370
     9
100
AcDbLine
 10
-106.1353000096274
 20
94.56691571584133
 30
0.0
 11
43.86469999037262
 21
94.56691571584133
 31
0.0
  0
LINE
  5
253
330
1F
100
AcDbEntity
  8
B-4
  6
Continuous
 62
     7
370
     9
100
AcDbLine
 10
-106.1353000096274
 20
-6.658861239957126
 30
0.0
 11
-106.1353000096274
 21
95.16690779776701
 31
0.0
  0
LINE
  5
254
330
1F
100
AcDbEntity
  8
B-4
  6
Continuous
 62
     7
370
     9
100
AcDbLine
 10
43.86469999037262
 20
-6.658861239957126
 30
0.0
 11
43.86469999037262
 21
95.16690779776701
 31
0.0
  0
LINE
  5
255
330
1F
100
AcDbEntity
  8
B-4
  6
Continuous
 62
     7
370
     9
100
AcDbLine
 10
-106.1353000096274
 20
94.56691571584133
 30
0.0
 11
-101.1780658589728
 21
95.21953824804149
 31
0.0
  0
LINE
  5
256
330
1F
100
AcDbEntity
  8
B-4
  6
Continuous
 62
     7
370
     9
100
AcDbLine
 10
-106.1353000096274
 20
94.56691571584133
 30
0.0
 11
-101.1780658589728
 21
93.91429318364118
 31
0.0
  0
LINE
  5
257
330
1F
100
AcDbEntity
  8
B-4
  6
Continuous
 62
     7
370
     9
100
AcDbLine
 10
43.86469999037262
 20
94.56691571584133
 30
0.0
 11
38.90749058370034
 21
95.21953824804149
 31
0.0
  0
LINE
  5
258
330
1F
100
AcDbEntity
  8
B-4
  6
Continuous
 62
     7
370
     9
100
AcDbLine
 10
43.86469999037262
 20
94.56691571584133
 30
0.0
 11
38.90749058370034
 21
93.91429318364118
 31
0.0
  0
TEXT
  5
259
330
1F
100
AcDbEntity
  8
B-4
  6
Continuous
 62
     2
370
     9
100
AcDbText
 10
-47.63531238161849
 20
98.23719862655608
 30
0.0
 40
9.144
  1
φ150
 41
1.1
  7
ＭＳ ゴシック
100
AcDbText
  0
LINE
  5
25A
330
1F
100
AcDbEntity
  8
B-4
  6
Continuous
 62
     7
370
     9
100
AcDbLine
 10
-71.13530825762143
 20
-161.1779376887675
 30
0.0
 11
8.86468349438445
 21
-161.1779376887675
 31
0.0
  0
LINE
  5
25B
330
1F
100
AcDbEntity
  8
B-4
  6
Continuous
 62
     7
370
     9
100
AcDbLine
 10
-71.13530825762143
 20
-89.65883814557372
 30
0.0
 11
-71.13530825762143
 21
-161.7779421426843
 31
0.0
  0
LINE
  5
25C
330
1F
100
AcDbEntity
  8
B-4
  6
Continuous
 62
     7
370
     9
100
AcDbLine
 10
8.86468349438445
 20
-89.65883814557372
 30
0.0
 11
8.86468349438445
 21
-161.7779421426843
 31
0.0
  0
LINE
  5
25D
330
1F
100
AcDbEntity
  8
B-4
  6
Continuous
 62
     7
370
     9
100
AcDbLine
 10
-71.13530825762143
 20
-161.1779376887675
 30
0.0
 11
-66.1780741069669
 21
-160.5253027845763
 31
0.0
  0
LINE
  5
25E
330
1F
100
AcDbEntity
  8
B-4
  6
Continuous
 62
     7
370
     9
100
AcDbLine
 10
-71.13530825762143
 20
-161.1779376887675
 30
0.0
 11
-66.1780741069669
 21
-161.8305725929588
 31
0.0
  0
LINE
  5
25F
330
1F
100
AcDbEntity
  8
B-4
  6
Continuous
 62
     7
370
     9
100
AcDbLine
 10
8.86468349438445
 20
-161.1779376887675
 30
0.0
 11
3.90747408771216
 21
-160.5253027845763
 31
0.0
  0
LINE
  5
260
330
1F
100
AcDbEntity
  8
B-4
  6
Continuous
 62
     7
370
     9
100
AcDbLine
 10
8.86468349438445
 20
-161.1779376887675
 30
0.0
 11
3.90747408771216
 21
-161.8305725929588
 31
0.0
  0
TEXT
  5
261
330
1F
100
AcDbEntity
  8
B-4
  6
Continuous
 62
     2
370
     9
100
AcDbText
 10
-44.26031238161849
 20
-158.1764069574906
 30
0.0
 40
9.144
  1
φ80
 41
1.09375
  7
ＭＳ ゴシック
100
AcDbText
  0
LINE
  5
262
330
1F
100
AcDbEntity
  8
B-4
  6
Continuous
 62
     7
370
     9
100
AcDbLine
 10
-53.63532475360962
 20
-117.01392604098
 30
0.0
 11
-8.635300009627375
 21
-117.01392604098
 31
0.0
  0
LINE
  5
263
330
1F
100
AcDbEntity
  8
B-4
  6
Continuous
 62
     7
370
     9
100
AcDbLine
 10
-8.635300009627375
 20
-76.65889423193353
 30
0.0
 11
-8.635300009627375
 21
-117.6139304948968
 31
0.0
  0
LINE
  5
264
330
1F
100
AcDbEntity
  8
B-4
  6
Continuous
 62
     7
370
     9
100
AcDbLine
 10
-53.63532475360962
 20
-117.01392604098
 30
0.0
 11
-48.67809060295509
 21
-116.3612911367887
 31
0.0
  0
LINE
  5
265
330
1F
100
AcDbEntity
  8
B-4
  6
Continuous
 62
     7
370
     9
100
AcDbLine
 10
-53.63532475360962
 20
-117.01392604098
 30
0.0
 11
-48.67809060295509
 21
-117.6665609451713
 31
0.0
  0
LINE
  5
266
330
1F
100
AcDbEntity
  8
B-4
  6
Continuous
 62
     7
370
     9
100
AcDbLine
 10
-8.635300009627375
 20
-117.01392604098
 30
0.0
 11
-13.5925341602819
 21
-116.3612911367887
 31
0.0
  0
LINE
  5
267
330
1F
100
AcDbEntity
  8
B-4
  6
Continuous
 62
     7
370
     9
100
AcDbLine
 10
-8.635300009627375
 20
-117.01392604098
 30
0.0
 11
-13.5925341602819
 21
-117.6665609451713
 31
0.0
  0
LINE
  5
268
330
1F
100
AcDbEntity
  8
B-4
  6
Continuous
 62
     7
370
     9
100
AcDbLine
 10
-53.63532475360962
 20
-76.65889423193353
 30
0.0
 11
-53.63532475360962
 21
-117.6139304948968
 31
0.0
  0
LINE
  5
269
330
1F
100
AcDbEntity
  8
B-4
  6
Continuous
 62
     7
370
     9
100
AcDbLine
 10
-56.63530990722028
 20
-138.4891448369679
 30
0.0
 11
-5.635389087963519
 21
-138.4891448369679
 31
0.0
  0
LINE
  5
26A
330
1F
100
AcDbEntity
  8
B-4
  6
Continuous
 62
     7
370
     9
100
AcDbLine
 10
-56.63530990722028
 20
-34.65887938554416
 30
0.0
 11
-56.63530990722028
 21
-139.0891492908848
 31
0.0
  0
LINE
  5
26B
330
1F
100
AcDbEntity
  8
B-4
  6
Continuous
 62
     7
370
     9
100
AcDbLine
 10
-5.635389087963519
 20
-34.65887938554416
 30
0.0
 11
-5.635389087963519
 21
-139.0891492908848
 31
0.0
  0
LINE
  5
26C
330
1F
100
AcDbEntity
  8
B-4
  6
Continuous
 62
     7
370
     9
100
AcDbLine
 10
-56.63530990722028
 20
-138.4891448369679
 30
0.0
 11
-51.67807575656571
 21
-137.8365099327766
 31
0.0
  0
LINE
  5
26D
330
1F
100
AcDbEntity
  8
B-4
  6
Continuous
 62
     7
370
     9
100
AcDbLine
 10
-56.63530990722028
 20
-138.4891448369679
 30
0.0
 11
-51.67807575656571
 21
-139.1417797411593
 31
0.0
  0
LINE
  5
26E
330
1F
100
AcDbEntity
  8
B-4
  6
Continuous
 62
     7
370
     9
100
AcDbLine
 10
-5.635389087963519
 20
-138.4891448369679
 30
0.0
 11
-10.59262323861805
 21
-137.8365099327766
 31
0.0
  0
LINE
  5
26F
330
1F
100
AcDbEntity
  8
B-4
  6
Continuous
 62
     7
370
     9
100
AcDbLine
 10
-5.635389087963519
 20
-138.4891448369679
 30
0.0
 11
-10.59262323861805
 21
-139.1417797411593
 31
0.0
  0
TEXT
  5
270
330
1F
100
AcDbEntity
  8
B-4
  6
Continuous
 62
     2
370
     9
100
AcDbText
 10
-44.26031238161849
 20
-114.0123953097031
 30
0.0
 40
9.144
  1
φ45
 41
1.09375
  7
ＭＳ ゴシック
100
AcDbText
  0
TEXT
  5
271
330
1F
100
AcDbEntity
  8
B-4
  6
Continuous
 62
     2
370
     9
100
AcDbText
 10
-44.26036186958302
 20
-135.4876141056909
 30
0.0
 40
9.144
  1
φ51
 41
1.09375
  7
ＭＳ ゴシック
100
AcDbText
  0
ENDSEC
  0
SECTION
  2
OBJECTS
  0
DICTIONARY
  5
C
330
0
100
AcDbDictionary
281
     1
  3
ACAD_DETAILVIEWSTYLE
350
2B7
  3
ACAD_GROUP
350
D
  3
ACAD_LAYOUT
350
1A
  3
ACAD_MATERIAL
350
43
  3
ACAD_MLEADERSTYLE
350
6B
  3
ACAD_MLINESTYLE
350
17
  3
ACAD_PLOTSETTINGS
350
19
  3
ACAD_PLOTSTYLENAME
350
E
  3
ACAD_SCALELIST
350
47
  3
ACAD_SECTIONVIEWSTYLE
350
2B8
  3
ACAD_TABLESTYLE
350
69
  3
ACAD_VISUALSTYLE
350
2A
  3
ACDB_RECOMPOSE_DATA
350
2B4
  3
AcDbVariableDictionary
350
274
  0
DICTIONARY
  5
272
330
8
100
AcDbDictionary
280
     1
281
     1
  3
ACAD_XREC_ROUNDTRIP
360
273
  0
DICTIONARY
  5
2B7
102
{ACAD_REACTORS
330
C
102
}
330
C
100
AcDbDictionary
281
     1
  0
DICTIONARY
  5
D
102
{ACAD_REACTORS
330
C
102
}
330
C
100
AcDbDictionary
281
     1
  0
DICTIONARY
  5
1A
102
{ACAD_REACTORS
330
C
102
}
330
C
100
AcDbDictionary
281
     1
  3
Layout1
350
1E
  3
Layout2
350
26
  3
Model
350
22
  0
DICTIONARY
  5
43
102
{ACAD_REACTORS
330
C
102
}
330
C
100
AcDbDictionary
281
     1
  3
ByBlock
350
45
  3
ByLayer
350
44
  3
Global
350
46
  0
DICTIONARY
  5
6B
102
{ACAD_REACTORS
330
C
102
}
330
C
100
AcDbDictionary
281
     1
  3
Standard
350
6C
  0
DICTIONARY
  5
17
102
{ACAD_REACTORS
330
C
102
}
330
C
100
AcDbDictionary
281
     1
  3
Standard
350
18
  0
DICTIONARY
  5
19
102
{ACAD_REACTORS
330
C
102
}
330
C
100
AcDbDictionary
281
     1
  0
ACDBDICTIONARYWDFLT
  5
E
102
{ACAD_REACTORS
330
C
102
}
330
C
100
AcDbDictionary
281
     1
  3
Normal
350
F
100
AcDbDictionaryWithDefault
340
F
  0
DICTIONARY
  5
47
102
{ACAD_REACTORS
330
C
102
}
330
C
100
AcDbDictionary
281
     1
  3
A0
350
48
  3
A1
350
49
  3
A2
350
4A
  3
A3
350
4B
  3
A4
350
4C
  3
A5
350
4D
  3
A6
350
4E
  3
A7
350
4F
  3
A8
350
50
  3
A9
350
51
  3
B0
350
52
  3
B1
350
53
  3
B2
350
54
  3
B3
350
55
  3
B4
350
56
  3
B5
350
57
  3
B6
350
58
  3
B7
350
59
  3
B8
350
5A
  3
B9
350
5B
  3
C0
350
5C
  3
C1
350
5D
  3
C2
350
5E
  3
C3
350
5F
  3
C4
350
60
  3
C5
350
61
  3
C6
350
62
  3
C7
350
63
  3
C8
350
64
  3
C9
350
65
  3
D0
350
66
  3
D1
350
67
  3
D2
350
68
  0
DICTIONARY
  5
2B8
102
{ACAD_REACTORS
330
C
102
}
330
C
100
AcDbDictionary
281
     1
  0
DICTIONARY
  5
69
102
{ACAD_REACTORS
330
C
102
}
330
C
100
AcDbDictionary
281
     1
  3
Standard
350
6A
  0
DICTIONARY
  5
2A
102
{ACAD_REACTORS
330
C
102
}
330
C
100
AcDbDictionary
281
     1
  3
2dWireframe
350
2F
  3
Basic
350
32
  3
Brighten
350
36
  3
ColorChange
350
3A
  3
Conceptual
350
34
  3
Dim
350
35
  3
EdgeColorOff
350
3D
  3
Facepattern
350
39
  3
Flat
350
2B
  3
FlatWithEdges
350
2C
  3
Gouraud
350
2D
  3
GouraudWithEdges
350
2E
  3
Hidden
350
31
  3
JitterOff
350
3B
  3
Linepattern
350
38
  3
OverhangOff
350
3C
  3
Realistic
350
33
  3
Shaded
350
42
  3
Shaded with edges
350
41
  3
Shades of Gray
350
3E
  3
Sketchy
350
3F
  3
Thicken
350
37
  3
Wireframe
350
30
  3
X-Ray
350
40
  0
XRECORD
  5
2B4
102
{ACAD_REACTORS
330
C
102
}
330
C
100
AcDbXrecord
280
     1
 90
        1
330
6A
  0
DICTIONARY
  5
274
102
{ACAD_REACTORS
330
C
102
}
330
C
100
AcDbDictionary
281
     1
  3
CANNOSCALE
350
275
  3
CENTEREXE
350
2B9
  3
CENTERLTYPEFILE
350
2BA
  3
CMLEADERSTYLE
350
2B6
  3
CTABLESTYLE
350
2B5
  3
MSLTSCALE
350
276
  3
XCLIPFRAME
350
277
  0
XRECORD
  5
273
102
{ACAD_REACTORS
330
272
102
}
330
272
100
AcDbXrecord
280
     1
102
VTR_0.000_0.000_1.000_1.000_VISUALSTYLE
340
2F
102
VTR_0.000_0.000_1.000_1.000_GRIDDISPLAY
 70
     3
102
VTR_0.000_0.000_1.000_1.000_GRIDMAJOR
 70
     5
102
VTR_0.000_0.000_1.000_1.000_DEFAULTLIGHTING
280
     1
102
VTR_0.000_0.000_1.000_1.000_DEFAULTLIGHTINGTYPE
 70
     1
102
VTR_0.000_0.000_1.000_1.000_BRIGHTNESS
141
0.0
102
VTR_0.000_0.000_1.000_1.000_CONTRAST
142
0.0
  0
LAYOUT
  5
1E
102
{ACAD_REACTORS
330
1A
102
}
330
1A
100
AcDbPlotSettings
  1

  2
none_device
  4

  6

 40
0.0
 41
0.0
 42
0.0
 43
0.0
 44
0.0
 45
0.0
 46
0.0
 47
0.0
 48
0.0
 49
0.0
140
0.0
141
0.0
142
1.0
143
1.0
 70
   688
 72
     1
 73
     0
 74
     5
  7

 75
    16
 76
     0
 77
     5
 78
   300
147
1.0
148
0.0
149
0.0
100
AcDbLayout
  1
Layout1
 70
     1
 71
     1
 10
0.0
 20
0.0
 11
420.0
 21
297.0
 12
0.0
 22
0.0
 32
0.0
 14
1.000000000000000E+20
 24
1.000000000000000E+20
 34
1.000000000000000E+20
 15
-1.000000000000000E+20
 25
-1.000000000000000E+20
 35
-1.000000000000000E+20
146
0.0
 13
0.0
 23
0.0
 33
0.0
 16
1.0
 26
0.0
 36
0.0
 17
0.0
 27
1.0
 37
0.0
 76
     0
330
1B
  0
LAYOUT
  5
26
102
{ACAD_REACTORS
330
1A
102
}
330
1A
100
AcDbPlotSettings
  1

  2
none_device
  4

  6

 40
0.0
 41
0.0
 42
0.0
 43
0.0
 44
0.0
 45
0.0
 46
0.0
 47
0.0
 48
0.0
 49
0.0
140
0.0
141
0.0
142
1.0
143
1.0
 70
   688
 72
     1
 73
     0
 74
     5
  7

 75
    16
 76
     0
 77
     5
 78
   300
147
1.0
148
0.0
149
0.0
100
AcDbLayout
  1
Layout2
 70
     1
 71
     2
 10
0.0
 20
0.0
 11
0.0
 21
0.0
 12
0.0
 22
0.0
 32
0.0
 14
0.0
 24
0.0
 34
0.0
 15
0.0
 25
0.0
 35
0.0
146
0.0
 13
0.0
 23
0.0
 33
0.0
 16
1.0
 26
0.0
 36
0.0
 17
0.0
 27
1.0
 37
0.0
 76
     0
330
23
  0
LAYOUT
  5
22
102
{ACAD_REACTORS
330
1A
102
}
330
1A
100
AcDbPlotSettings
  1

  2
none_device
  4
Letter_(8.50_x_11.00_Inches)
  6

 40
6.35
 41
6.35
 42
6.35000508
 43
6.35000508
 44
215.9
 45
279.4
 46
0.0
 47
0.0
 48
0.0
 49
0.0
140
0.0
141
0.0
142
1.0
143
1.0
 70
  1712
 72
     1
 73
     0
 74
     0
  7

 75
     0
 76
     0
 77
     5
 78
   300
147
1.0
148
0.0
149
0.0
100
AcDbLayout
  1
Model
 70
     1
 71
     0
 10
-630.0
 20
-445.5
 11
630.0
 21
445.5
 12
0.0
 22
0.0
 32
0.0
 14
-630.0
 24
-445.5
 34
0.0
 15
630.0
 25
445.5
 35
0.0
146
0.0
 13
0.0
 23
0.0
 33
0.0
 16
1.0
 26
0.0
 36
0.0
 17
0.0
 27
1.0
 37
0.0
 76
     0
330
1F
331
29
  0
MATERIAL
  5
45
102
{ACAD_REACTORS
330
43
102
}
102
{ACAD_XDICTIONARY
360
2AA
102
}
330
43
100
AcDbMaterial
  1
ByBlock
  0
MATERIAL
  5
44
102
{ACAD_REACTORS
330
43
102
}
102
{ACAD_XDICTIONARY
360
2A8
102
}
330
43
100
AcDbMaterial
  1
ByLayer
  0
MATERIAL
  5
46
102
{ACAD_REACTORS
330
43
102
}
102
{ACAD_XDICTIONARY
360
2AC
102
}
330
43
100
AcDbMaterial
  1
Global
  0
MLEADERSTYLE
  5
6C
102
{ACAD_REACTORS
330
6B
102
}
102
{ACAD_XDICTIONARY
360
2B2
102
}
330
6B
100
AcDbMLeaderStyle
170
     2
171
     1
172
     0
 90
        2
 40
0.0
 41
0.0
173
     1
 91
-1056964608
340
14
 92
       -2
290
     1
 42
2.0
291
     1
 43
8.0
  3
Standard
341
0
 44
4.0
300

342
11
174
     1
178
     6
175
     1
176
     0
 93
-1056964608
 45
4.0
292
     0
297
     0
 46
4.0
343
0
 94
-1056964608
 47
1.0
 49
1.0
140
1.0
293
     1
141
0.0
294
     1
177
     0
142
1.0
295
     0
296
     0
143
3.75
1001
ACAD_MLEADERVER
1070
     2
  0
MLINESTYLE
  5
18
102
{ACAD_REACTORS
330
17
102
}
330
17
100
AcDbMlineStyle
  2
Standard
 70
     0
  3

 62
   256
 51
90.0
 52
90.0
 71
     2
 49
0.5
 62
   256
  6
BYLAYER
 49
-0.5
 62
   256
  6
BYLAYER
  0
ACDBPLACEHOLDER
  5
F
102
{ACAD_REACTORS
330
E
102
}
330
E
  0
SCALE
  5
48
102
{ACAD_REACTORS
330
47
102
}
330
47
100
AcDbScale
 70
     0
300
1:1
140
1.0
141
1.0
290
     1
  0
SCALE
  5
49
102
{ACAD_REACTORS
330
47
102
}
330
47
100
AcDbScale
 70
     0
300
1:2
140
1.0
141
2.0
290
     0
  0
SCALE
  5
4A
102
{ACAD_REACTORS
330
47
102
}
330
47
100
AcDbScale
 70
     0
300
1:4
140
1.0
141
4.0
290
     0
  0
SCALE
  5
4B
102
{ACAD_REACTORS
330
47
102
}
330
47
100
AcDbScale
 70
     0
300
1:5
140
1.0
141
5.0
290
     0
  0
SCALE
  5
4C
102
{ACAD_REACTORS
330
47
102
}
330
47
100
AcDbScale
 70
     0
300
1:8
140
1.0
141
8.0
290
     0
  0
SCALE
  5
4D
102
{ACAD_REACTORS
330
47
102
}
330
47
100
AcDbScale
 70
     0
300
1:10
140
1.0
141
10.0
290
     0
  0
SCALE
  5
4E
102
{ACAD_REACTORS
330
47
102
}
330
47
100
AcDbScale
 70
     0
300
1:16
140
1.0
141
16.0
290
     0
  0
SCALE
  5
4F
102
{ACAD_REACTORS
330
47
102
}
330
47
100
AcDbScale
 70
     0
300
1:20
140
1.0
141
20.0
290
     0
  0
SCALE
  5
50
102
{ACAD_REACTORS
330
47
102
}
330
47
100
AcDbScale
 70
     0
300
1:30
140
1.0
141
30.0
290
     0
  0
SCALE
  5
51
102
{ACAD_REACTORS
330
47
102
}
330
47
100
AcDbScale
 70
     0
300
1:40
140
1.0
141
40.0
290
     0
  0
SCALE
  5
52
102
{ACAD_REACTORS
330
47
102
}
330
47
100
AcDbScale
 70
     0
300
1:50
140
1.0
141
50.0
290
     0
  0
SCALE
  5
53
102
{ACAD_REACTORS
330
47
102
}
330
47
100
AcDbScale
 70
     0
300
1:100
140
1.0
141
100.0
290
     0
  0
SCALE
  5
54
102
{ACAD_REACTORS
330
47
102
}
330
47
100
AcDbScale
 70
     0
300
2:1
140
2.0
141
1.0
290
     0
  0
SCALE
  5
55
102
{ACAD_REACTORS
330
47
102
}
330
47
100
AcDbScale
 70
     0
300
4:1
140
4.0
141
1.0
290
     0
  0
SCALE
  5
56
102
{ACAD_REACTORS
330
47
102
}
330
47
100
AcDbScale
 70
     0
300
8:1
140
8.0
141
1.0
290
     0
  0
SCALE
  5
57
102
{ACAD_REACTORS
330
47
102
}
330
47
100
AcDbScale
 70
     0
300
10:1
140
10.0
141
1.0
290
     0
  0
SCALE
  5
58
102
{ACAD_REACTORS
330
47
102
}
330
47
100
AcDbScale
 70
     0
300
100:1
140
100.0
141
1.0
290
     0
  0
SCALE
  5
59
102
{ACAD_REACTORS
330
47
102
}
330
47
100
AcDbScale
 70
     0
300
1/128" = 1'-0"
140
0.0078125
141
12.0
290
     0
  0
SCALE
  5
5A
102
{ACAD_REACTORS
330
47
102
}
330
47
100
AcDbScale
 70
     0
300
1/64" = 1'-0"
140
0.015625
141
12.0
290
     0
  0
SCALE
  5
5B
102
{ACAD_REACTORS
330
47
102
}
330
47
100
AcDbScale
 70
     0
300
1/32" = 1'-0"
140
0.03125
141
12.0
290
     0
  0
SCALE
  5
5C
102
{ACAD_REACTORS
330
47
102
}
330
47
100
AcDbScale
 70
     0
300
1/16" = 1'-0"
140
0.0625
141
12.0
290
     0
  0
SCALE
  5
5D
102
{ACAD_REACTORS
330
47
102
}
330
47
100
AcDbScale
 70
     0
300
3/32" = 1'-0"
140
0.09375
141
12.0
290
     0
  0
SCALE
  5
5E
102
{ACAD_REACTORS
330
47
102
}
330
47
100
AcDbScale
 70
     0
300
1/8" = 1'-0"
140
0.125
141
12.0
290
     0
  0
SCALE
  5
5F
102
{ACAD_REACTORS
330
47
102
}
330
47
100
AcDbScale
 70
     0
300
3/16" = 1'-0"
140
0.1875
141
12.0
290
     0
  0
SCALE
  5
60
102
{ACAD_REACTORS
330
47
102
}
330
47
100
AcDbScale
 70
     0
300
1/4" = 1'-0"
140
0.25
141
12.0
290
     0
  0
SCALE
  5
61
102
{ACAD_REACTORS
330
47
102
}
330
47
100
AcDbScale
 70
     0
300
3/8" = 1'-0"
140
0.375
141
12.0
290
     0
  0
SCALE
  5
62
102
{ACAD_REACTORS
330
47
102
}
330
47
100
AcDbScale
 70
     0
300
1/2" = 1'-0"
140
0.5
141
12.0
290
     0
  0
SCALE
  5
63
102
{ACAD_REACTORS
330
47
102
}
330
47
100
AcDbScale
 70
     0
300
3/4" = 1'-0"
140
0.75
141
12.0
290
     0
  0
SCALE
  5
64
102
{ACAD_REACTORS
330
47
102
}
330
47
100
AcDbScale
 70
     0
300
1" = 1'-0"
140
1.0
141
12.0
290
     0
  0
SCALE
  5
65
102
{ACAD_REACTORS
330
47
102
}
330
47
100
AcDbScale
 70
     0
300
1-1/2" = 1'-0"
140
1.5
141
12.0
290
     0
  0
SCALE
  5
66
102
{ACAD_REACTORS
330
47
102
}
330
47
100
AcDbScale
 70
     0
300
3" = 1'-0"
140
3.0
141
12.0
290
     0
  0
SCALE
  5
67
102
{ACAD_REACTORS
330
47
102
}
330
47
100
AcDbScale
 70
     0
300
6" = 1'-0"
140
6.0
141
12.0
290
     0
  0
SCALE
  5
68
102
{ACAD_REACTORS
330
47
102
}
330
47
100
AcDbScale
 70
     0
300
1'-0" = 1'-0"
140
12.0
141
12.0
290
     0
  0
TABLESTYLE
  5
6A
102
{ACAD_REACTORS
330
69
102
}
102
{ACAD_XDICTIONARY
360
2AE
102
}
330
69
100
AcDbTableStyle
  3
Standard
 70
     0
 71
     0
 40
0.06
 41
0.06
280
     0
281
     0
  7
Standard
140
4.5
170
     2
 62
     0
 63
   257
283
     0
274
    -2
284
     1
 64
     0
275
    -2
285
     1
 65
     0
276
    -2
286
     1
 66
     0
277
    -2
287
     1
 67
     0
278
    -2
288
     1
 68
     0
279
    -2
289
     1
 69
     0
  7
Standard
140
6.0
170
     5
 62
     0
 63
   257
283
     0
274
    -2
284
     1
 64
     0
275
    -2
285
     1
 65
     0
276
    -2
286
     1
 66
     0
277
    -2
287
     1
 67
     0
278
    -2
288
     1
 68
     0
279
    -2
289
     1
 69
     0
  7
Standard
140
4.5
170
     5
 62
     0
 63
   257
283
     0
274
    -2
284
     1
 64
     0
275
    -2
285
     1
 65
     0
276
    -2
286
     1
 66
     0
277
    -2
287
     1
 67
     0
278
    -2
288
     1
 68
     0
279
    -2
289
     1
 69
     0
  0
VISUALSTYLE
  5
2F
102
{ACAD_REACTORS
330
2A
102
}
102
{ACAD_XDICTIONARY
360
280
102
}
330
2A
100
AcDbVisualStyle
  2
2dWireframe
 70
     4
 71
     0
 72
     2
 73
     0
 90
        0
 40
0.6
 41
30.0
 62
     5
 63
     7
421
 16777215
 74
     1
 91
        4
 64
     7
 65
   257
 75
     1
175
     1
 42
1.0
 92
        0
 66
   257
 43
1.0
 76
     1
 77
     6
 78
     2
 67
     7
 79
     5
170
     0
171
     0
290
     0
174
     0
 93
        1
 44
0.0
173
     0
291
     0
 45
0.0
1001
ACAD
1000
AcDbSavedByObjectVersion
1070
     0
  0
VISUALSTYLE
  5
32
102
{ACAD_REACTORS
330
2A
102
}
102
{ACAD_XDICTIONARY
360
286
102
}
330
2A
100
AcDbVisualStyle
  2
Basic
 70
     7
 71
     1
 72
     0
 73
     1
 90
        0
 40
0.6
 41
30.0
 62
     5
 63
     7
421
 16777215
 74
     0
 91
        4
 64
     7
 65
   257
 75
     1
175
     1
 42
1.0
 92
        8
 66
     7
 43
1.0
 76
     1
 77
     6
 78
     2
 67
     7
 79
     5
170
     0
171
     0
290
     0
174
     0
 93
        1
 44
0.0
173
     0
291
     1
 45
0.0
1001
ACAD
1000
AcDbSavedByObjectVersion
1070
     0
  0
VISUALSTYLE
  5
36
102
{ACAD_REACTORS
330
2A
102
}
102
{ACAD_XDICTIONARY
360
28E
102
}
330
2A
100
AcDbVisualStyle
  2
Brighten
 70
    12
 71
     2
 72
     2
 73
     0
 90
        0
 40
0.6
 41
30.0
 62
     5
 63
     7
421
 16777215
 74
     1
 91
        4
 64
     7
 65
   257
 75
     1
175
     1
 42
1.0
 92
        8
 66
     7
 43
1.0
 76
     1
 77
     6
 78
     2
 67
     7
 79
     5
170
     0
171
     0
290
     0
174
     0
 93
        1
 44
50.0
173
     0
291
     1
 45
0.0
1001
ACAD
1000
AcDbSavedByObjectVersion
1070
     0
  0
VISUALSTYLE
  5
3A
102
{ACAD_REACTORS
330
2A
102
}
102
{ACAD_XDICTIONARY
360
296
102
}
330
2A
100
AcDbVisualStyle
  2
ColorChange
 70
    16
 71
     2
 72
     2
 73
     3
 90
        0
 40
0.6
 41
30.0
 62
     5
 63
     8
421
  8421504
 74
     1
 91
        4
 64
     7
 65
   257
 75
     1
175
     1
 42
1.0
 92
        8
 66
     8
424
  8421504
 43
1.0
 76
     1
 77
     6
 78
     2
 67
     7
 79
     5
170
     0
171
     0
290
     0
174
     0
 93
        1
 44
0.0
173
     0
291
     1
 45
0.0
1001
ACAD
1000
AcDbSavedByObjectVersion
1070
     0
  0
VISUALSTYLE
  5
34
102
{ACAD_REACTORS
330
2A
102
}
102
{ACAD_XDICTIONARY
360
28A
102
}
330
2A
100
AcDbVisualStyle
  2
Conceptual
 70
     9
 71
     3
 72
     2
 73
     0
 90
        0
 40
0.6
 41
30.0
 62
     5
 63
     7
421
 16777215
 74
     2
 91
        2
 64
     7
 65
   257
 75
     1
175
     1
 42
179.0
 92
        8
 66
     7
 43
1.0
 76
     1
 77
     6
 78
     2
 67
     7
 79
     3
170
     0
171
     0
290
     0
174
     0
 93
        1
 44
0.0
173
     0
291
     0
 45
0.0
1001
ACAD
1000
AcDbSavedByObjectVersion
1070
     0
  0
VISUALSTYLE
  5
35
102
{ACAD_REACTORS
330
2A
102
}
102
{ACAD_XDICTIONARY
360
28C
102
}
330
2A
100
AcDbVisualStyle
  2
Dim
 70
    11
 71
     2
 72
     2
 73
     0
 90
        0
 40
0.6
 41
30.0
 62
     5
 63
     7
421
 16777215
 74
     1
 91
        4
 64
     7
 65
   257
 75
     1
175
     1
 42
1.0
 92
        8
 66
     7
 43
1.0
 76
     1
 77
     6
 78
     2
 67
     7
 79
     5
170
     0
171
     0
290
     0
174
     0
 93
        1
 44
-50.0
173
     0
291
     1
 45
0.0
1001
ACAD
1000
AcDbSavedByObjectVersion
1070
     0
  0
VISUALSTYLE
  5
3D
102
{ACAD_REACTORS
330
2A
102
}
102
{ACAD_XDICTIONARY
360
29C
102
}
330
2A
100
AcDbVisualStyle
  2
EdgeColorOff
 70
    22
 71
     2
 72
     2
 73
     0
 90
        0
 40
0.6
 41
30.0
 62
     5
 63
     7
421
 16777215
 74
     1
 91
        4
 64
     7
 65
   257
 75
     1
175
     1
 42
1.0
 92
        8
 66
     7
 43
1.0
 76
     1
 77
     6
 78
     2
 67
     7
 79
     5
170
     0
171
     0
290
     0
174
     0
 93
        1
 44
0.0
173
     0
291
     1
 45
0.0
1001
ACAD
1000
AcDbSavedByObjectVersion
1070
     0
  0
VISUALSTYLE
  5
39
102
{ACAD_REACTORS
330
2A
102
}
102
{ACAD_XDICTIONARY
360
294
102
}
330
2A
100
AcDbVisualStyle
  2
Facepattern
 70
    15
 71
     2
 72
     2
 73
     0
 90
        0
 40
0.6
 41
30.0
 62
     5
 63
     7
421
 16777215
 74
     1
 91
        4
 64
     7
 65
   257
 75
     1
175
     1
 42
1.0
 92
        8
 66
     7
 43
1.0
 76
     1
 77
     6
 78
     2
 67
     7
 79
     5
170
     0
171
     0
290
     0
174
     0
 93
        1
 44
0.0
173
     0
291
     1
 45
0.0
1001
ACAD
1000
AcDbSavedByObjectVersion
1070
     0
  0
VISUALSTYLE
  5
2B
102
{ACAD_REACTORS
330
2A
102
}
102
{ACAD_XDICTIONARY
360
278
102
}
330
2A
100
AcDbVisualStyle
  2
Flat
 70
     0
 71
     2
 72
     1
 73
     1
 90
        2
 40
0.6
 41
30.0
 62
     5
 63
     7
421
 16777215
 74
     0
 91
        0
 64
     7
 65
   257
 75
     1
175
     1
 42
1.0
 92
        8
 66
     7
 43
1.0
 76
     1
 77
     6
 78
     2
 67
     7
 79
     5
170
     0
171
     0
290
     0
174
     0
 93
       13
 44
0.0
173
     0
291
     1
 45
0.0
1001
ACAD
1000
AcDbSavedByObjectVersion
1070
     0
  0
VISUALSTYLE
  5
2C
102
{ACAD_REACTORS
330
2A
102
}
102
{ACAD_XDICTIONARY
360
27A
102
}
330
2A
100
AcDbVisualStyle
  2
FlatWithEdges
 70
     1
 71
     2
 72
     1
 73
     1
 90
        2
 40
0.6
 41
30.0
 62
     5
 63
     7
421
 16777215
 74
     1
 91
        0
 64
     7
 65
   257
 75
     1
175
     1
 42
1.0
 92
        0
 66
   257
 43
1.0
 76
     1
 77
     6
 78
     2
 67
     7
 79
     5
170
     0
171
     0
290
     0
174
     0
 93
       13
 44
0.0
173
     0
291
     1
 45
0.0
1001
ACAD
1000
AcDbSavedByObjectVersion
1070
     0
  0
VISUALSTYLE
  5
2D
102
{ACAD_REACTORS
330
2A
102
}
102
{ACAD_XDICTIONARY
360
27C
102
}
330
2A
100
AcDbVisualStyle
  2
Gouraud
 70
     2
 71
     2
 72
     2
 73
     1
 90
        2
 40
0.6
 41
30.0
 62
     5
 63
     7
421
 16777215
 74
     0
 91
        0
 64
     7
 65
   257
 75
     1
175
     1
 42
1.0
 92
        0
 66
     7
 43
1.0
 76
     1
 77
     6
 78
     2
 67
     7
 79
     5
170
     0
171
     0
290
     0
174
     0
 93
       13
 44
0.0
173
     0
291
     1
 45
0.0
1001
ACAD
1000
AcDbSavedByObjectVersion
1070
     0
  0
VISUALSTYLE
  5
2E
102
{ACAD_REACTORS
330
2A
102
}
102
{ACAD_XDICTIONARY
360
27E
102
}
330
2A
100
AcDbVisualStyle
  2
GouraudWithEdges
 70
     3
 71
     2
 72
     2
 73
     1
 90
        2
 40
0.6
 41
30.0
 62
     5
 63
     7
421
 16777215
 74
     1
 91
        0
 64
     7
 65
   257
 75
     1
175
     1
 42
1.0
 92
        0
 66
   257
 43
1.0
 76
     1
 77
     6
 78
     2
 67
     7
 79
     5
170
     0
171
     0
290
     0
174
     0
 93
       13
 44
0.0
173
     0
291
     1
 45
0.0
1001
ACAD
1000
AcDbSavedByObjectVersion
1070
     0
  0
VISUALSTYLE
  5
31
102
{ACAD_REACTORS
330
2A
102
}
102
{ACAD_XDICTIONARY
360
284
102
}
330
2A
100
AcDbVisualStyle
  2
Hidden
 70
     6
 71
     1
 72
     2
 73
     2
 90
        0
 40
0.6
 41
30.0
 62
     5
 63
     7
421
 16777215
 74
     2
 91
        2
 64
     7
 65
   257
 75
     2
175
     1
 42
40.0
 92
        0
 66
   257
 43
1.0
 76
     1
 77
     6
 78
     2
 67
     7
 79
     3
170
     0
171
     0
290
     0
174
     0
 93
        1
 44
0.0
173
     0
291
     0
 45
0.0
1001
ACAD
1000
AcDbSavedByObjectVersion
1070
     0
  0
VISUALSTYLE
  5
3B
102
{ACAD_REACTORS
330
2A
102
}
102
{ACAD_XDICTIONARY
360
298
102
}
330
2A
100
AcDbVisualStyle
  2
JitterOff
 70
    20
 71
     2
 72
     2
 73
     0
 90
        0
 40
0.6
 41
30.0
 62
     5
 63
     7
421
 16777215
 74
     1
 91
        4
 64
     7
 65
   257
 75
     1
175
     1
 42
1.0
 92
       10
 66
     7
 43
1.0
 76
     1
 77
     6
 78
     2
 67
     7
 79
     5
170
     0
171
     0
290
     0
174
     0
 93
        1
 44
0.0
173
     0
291
     1
 45
0.0
1001
ACAD
1000
AcDbSavedByObjectVersion
1070
     0
  0
VISUALSTYLE
  5
38
102
{ACAD_REACTORS
330
2A
102
}
102
{ACAD_XDICTIONARY
360
292
102
}
330
2A
100
AcDbVisualStyle
  2
Linepattern
 70
    14
 71
     2
 72
     2
 73
     0
 90
        0
 40
0.6
 41
30.0
 62
     5
 63
     7
421
 16777215
 74
     1
 91
        4
 64
     7
 65
   257
 75
     7
175
     7
 42
1.0
 92
        8
 66
     7
 43
1.0
 76
     1
 77
     6
 78
     2
 67
     7
 79
     5
170
     0
171
     0
290
     0
174
     0
 93
        1
 44
0.0
173
     0
291
     1
 45
0.0
1001
ACAD
1000
AcDbSavedByObjectVersion
1070
     0
  0
VISUALSTYLE
  5
3C
102
{ACAD_REACTORS
330
2A
102
}
102
{ACAD_XDICTIONARY
360
29A
102
}
330
2A
100
AcDbVisualStyle
  2
OverhangOff
 70
    21
 71
     2
 72
     2
 73
     0
 90
        0
 40
0.6
 41
30.0
 62
     5
 63
     7
421
 16777215
 74
     1
 91
        4
 64
     7
 65
   257
 75
     1
175
     1
 42
1.0
 92
        9
 66
     7
 43
1.0
 76
     1
 77
     6
 78
     2
 67
     7
 79
     5
170
     0
171
     0
290
     0
174
     0
 93
        1
 44
0.0
173
     0
291
     1
 45
0.0
1001
ACAD
1000
AcDbSavedByObjectVersion
1070
     0
  0
VISUALSTYLE
  5
33
102
{ACAD_REACTORS
330
2A
102
}
102
{ACAD_XDICTIONARY
360
288
102
}
330
2A
100
AcDbVisualStyle
  2
Realistic
 70
     8
 71
     2
 72
     3
 73
     0
 90
        2
 40
0.6
 41
30.0
 62
     5
 63
     7
421
 16777215
 74
     0
 91
        0
 64
     7
 65
   257
 75
     1
175
     1
 42
1.0
 92
        8
 66
   257
 43
1.0
 76
     1
 77
     6
 78
     2
 67
     7
 79
     3
170
     0
171
     0
290
     0
174
     0
 93
       13
 44
0.0
173
     0
291
     0
 45
0.0
1001
ACAD
1000
AcDbSavedByObjectVersion
1070
     0
  0
VISUALSTYLE
  5
42
102
{ACAD_REACTORS
330
2A
102
}
102
{ACAD_XDICTIONARY
360
2A6
102
}
330
2A
100
AcDbVisualStyle
  2
Shaded
 70
    27
 71
     2
 72
     2
 73
     1
 90
        2
 40
0.6
 41
30.0
 62
     5
 63
     7
421
 16777215
 74
     0
 91
        4
 64
     7
 65
   257
 75
     1
175
     1
 42
1.0
 92
        8
 66
   257
 43
1.0
 76
     1
 77
     6
 78
     2
 67
     8
425
  7895160
 79
     3
170
     0
171
     0
290
     0
174
     0
 93
        5
 44
0.0
173
     0
291
     0
 45
0.0
1001
ACAD
1000
AcDbSavedByObjectVersion
1070
     0
  0
VISUALSTYLE
  5
41
102
{ACAD_REACTORS
330
2A
102
}
102
{ACAD_XDICTIONARY
360
2A4
102
}
330
2A
100
AcDbVisualStyle
  2
Shaded with edges
 70
    26
 71
     2
 72
     2
 73
     1
 90
        2
 40
0.6
 41
30.0
 62
     5
 63
     7
421
 16777215
 74
     1
 91
       10
 64
     7
 65
   257
 75
     2
175
     1
 42
1.0
 92
        8
 66
   257
 43
1.0
 76
     1
 77
     6
 78
     2
 67
     7
 79
     3
170
     0
171
     0
290
     0
174
     0
 93
        5
 44
0.0
173
     0
291
     0
 45
0.0
1001
ACAD
1000
AcDbSavedByObjectVersion
1070
     0
  0
VISUALSTYLE
  5
3E
102
{ACAD_REACTORS
330
2A
102
}
102
{ACAD_XDICTIONARY
360
29E
102
}
330
2A
100
AcDbVisualStyle
  2
Shades of Gray
 70
    23
 71
     2
 72
     2
 73
     3
 90
        0
 40
0.6
 41
30.0
 62
     5
 63
     7
421
 16777215
 74
     2
 91
        2
 64
     7
 65
     7
 75
     1
175
     1
 42
40.0
 92
        8
 66
     7
 43
1.0
 76
     1
 77
     6
 78
     2
 67
     7
 79
     3
170
     0
171
     0
290
     0
174
     0
 93
        1
 44
0.0
173
     0
291
     0
 45
0.0
1001
ACAD
1000
AcDbSavedByObjectVersion
1070
     0
  0
VISUALSTYLE
  5
3F
102
{ACAD_REACTORS
330
2A
102
}
102
{ACAD_XDICTIONARY
360
2A0
102
}
330
2A
100
AcDbVisualStyle
  2
Sketchy
 70
    24
 71
     1
 72
     2
 73
     2
 90
        0
 40
0.6
 41
30.0
 62
     5
 63
     7
421
 16777215
 74
     2
 91
        2
 64
     7
 65
     7
 75
     1
175
     1
 42
40.0
 92
       11
 66
     7
 43
1.0
 76
     1
 77
     6
 78
     2
 67
     7
 79
     6
170
     0
171
     0
290
     0
174
     0
 93
        1
 44
0.0
173
     0
291
     0
 45
0.0
1001
ACAD
1000
AcDbSavedByObjectVersion
1070
     0
  0
VISUALSTYLE
  5
37
102
{ACAD_REACTORS
330
2A
102
}
102
{ACAD_XDICTIONARY
360
290
102
}
330
2A
100
AcDbVisualStyle
  2
Thicken
 70
    13
 71
     2
 72
     2
 73
     0
 90
        0
 40
0.6
 41
30.0
 62
     5
 63
     7
421
 16777215
 74
     1
 91
        4
 64
     7
 65
   257
 75
     1
175
     1
 42
1.0
 92
       12
 66
     7
 43
1.0
 76
     1
 77
     6
 78
     2
 67
     7
 79
     5
170
     0
171
     0
290
     0
174
     0
 93
        1
 44
0.0
173
     0
291
     1
 45
0.0
1001
ACAD
1000
AcDbSavedByObjectVersion
1070
     0
  0
VISUALSTYLE
  5
30
102
{ACAD_REACTORS
330
2A
102
}
102
{ACAD_XDICTIONARY
360
282
102
}
330
2A
100
AcDbVisualStyle
  2
Wireframe
 70
     5
 71
     0
 72
     2
 73
     0
 90
        0
 40
0.6
 41
30.0
 62
     5
 63
     7
421
 16777215
 74
     1
 91
        4
 64
     7
 65
   257
 75
     1
175
     1
 42
1.0
 92
        0
 66
   257
 43
1.0
 76
     1
 77
     6
 78
     2
 67
     7
 79
     3
170
     0
171
     0
290
     0
174
     0
 93
        1
 44
0.0
173
     0
291
     0
 45
0.0
1001
ACAD
1000
AcDbSavedByObjectVersion
1070
     0
  0
VISUALSTYLE
  5
40
102
{ACAD_REACTORS
330
2A
102
}
102
{ACAD_XDICTIONARY
360
2A2
102
}
330
2A
100
AcDbVisualStyle
  2
X-Ray
 70
    25
 71
     2
 72
     2
 73
     1
 90
        1
 40
0.5
 41
30.0
 62
     5
 63
     7
421
 16777215
 74
     1
 91
        0
 64
     7
 65
   257
 75
     1
175
     1
 42
1.0
 92
        8
 66
     7
 43
1.0
 76
     1
 77
     6
 78
     2
 67
     7
 79
     3
170
     0
171
     0
290
     0
174
     0
 93
       13
 44
0.0
173
     0
291
     0
 45
0.0
1001
ACAD
1000
AcDbSavedByObjectVersion
1070
     0
  0
DICTIONARYVAR
  5
275
102
{ACAD_REACTORS
330
274
102
}
330
274
100
DictionaryVariables
280
     0
  1
1:1
  0
DICTIONARYVAR
  5
2B9
102
{ACAD_REACTORS
330
274
102
}
330
274
100
DictionaryVariables
280
     0
  1
3.500000
  0
DICTIONARYVAR
  5
2BA
102
{ACAD_REACTORS
330
274
102
}
330
274
100
DictionaryVariables
280
     0
  1
acadiso.lin
  0
DICTIONARYVAR
  5
2B6
102
{ACAD_REACTORS
330
274
102
}
330
274
100
DictionaryVariables
280
     0
  1
Standard
  0
DICTIONARYVAR
  5
2B5
102
{ACAD_REACTORS
330
274
102
}
330
274
100
DictionaryVariables
280
     0
  1
Standard
  0
DICTIONARYVAR
  5
276
102
{ACAD_REACTORS
330
274
102
}
330
274
100
DictionaryVariables
280
     0
  1
1
  0
DICTIONARYVAR
  5
277
102
{ACAD_REACTORS
330
274
102
}
330
274
100
DictionaryVariables
280
     0
  1
2
  0
DICTIONARY
  5
2AA
330
45
100
AcDbDictionary
280
     1
281
     1
  3
ACAD_XREC_ROUNDTRIP
360
2AB
  0
DICTIONARY
  5
2A8
330
44
100
AcDbDictionary
280
     1
281
     1
  3
ACAD_XREC_ROUNDTRIP
360
2A9
  0
DICTIONARY
  5
2AC
330
46
100
AcDbDictionary
280
     1
281
     1
  3
ACAD_XREC_ROUNDTRIP
360
2AD
  0
DICTIONARY
  5
2B2
330
6C
100
AcDbDictionary
280
     1
281
     1
  3
ACAD_XREC_ROUNDTRIP
360
2B3
  0
DICTIONARY
  5
2AE
330
6A
100
AcDbDictionary
280
     1
281
     1
  3
ACAD_ROUNDTRIP_2008_TABLESTYLE_CELLSTYLEMAP
360
2B0
  3
ACAD_XREC_ROUNDTRIP
360
2AF
  0
DICTIONARY
  5
280
330
2F
100
AcDbDictionary
280
     1
281
     1
  3
ACAD_XREC_ROUNDTRIP
360
281
  0
DICTIONARY
  5
286
330
32
100
AcDbDictionary
280
     1
281
     1
  3
ACAD_XREC_ROUNDTRIP
360
287
  0
DICTIONARY
  5
28E
330
36
100
AcDbDictionary
280
     1
281
     1
  3
ACAD_XREC_ROUNDTRIP
360
28F
  0
DICTIONARY
  5
296
330
3A
100
AcDbDictionary
280
     1
281
     1
  3
ACAD_XREC_ROUNDTRIP
360
297
  0
DICTIONARY
  5
28A
330
34
100
AcDbDictionary
280
     1
281
     1
  3
ACAD_XREC_ROUNDTRIP
360
28B
  0
DICTIONARY
  5
28C
330
35
100
AcDbDictionary
280
     1
281
     1
  3
ACAD_XREC_ROUNDTRIP
360
28D
  0
DICTIONARY
  5
29C
330
3D
100
AcDbDictionary
280
     1
281
     1
  3
ACAD_XREC_ROUNDTRIP
360
29D
  0
DICTIONARY
  5
294
330
39
100
AcDbDictionary
280
     1
281
     1
  3
ACAD_XREC_ROUNDTRIP
360
295
  0
DICTIONARY
  5
278
330
2B
100
AcDbDictionary
280
     1
281
     1
  3
ACAD_XREC_ROUNDTRIP
360
279
  0
DICTIONARY
  5
27A
330
2C
100
AcDbDictionary
280
     1
281
     1
  3
ACAD_XREC_ROUNDTRIP
360
27B
  0
DICTIONARY
  5
27C
330
2D
100
AcDbDictionary
280
     1
281
     1
  3
ACAD_XREC_ROUNDTRIP
360
27D
  0
DICTIONARY
  5
27E
330
2E
100
AcDbDictionary
280
     1
281
     1
  3
ACAD_XREC_ROUNDTRIP
360
27F
  0
DICTIONARY
  5
284
330
31
100
AcDbDictionary
280
     1
281
     1
  3
ACAD_XREC_ROUNDTRIP
360
285
  0
DICTIONARY
  5
298
330
3B
100
AcDbDictionary
280
     1
281
     1
  3
ACAD_XREC_ROUNDTRIP
360
299
  0
DICTIONARY
  5
292
330
38
100
AcDbDictionary
280
     1
281
     1
  3
ACAD_XREC_ROUNDTRIP
360
293
  0
DICTIONARY
  5
29A
330
3C
100
AcDbDictionary
280
     1
281
     1
  3
ACAD_XREC_ROUNDTRIP
360
29B
  0
DICTIONARY
  5
288
330
33
100
AcDbDictionary
280
     1
281
     1
  3
ACAD_XREC_ROUNDTRIP
360
289
  0
DICTIONARY
  5
2A6
330
42
100
AcDbDictionary
280
     1
281
     1
  3
ACAD_XREC_ROUNDTRIP
360
2A7
  0
DICTIONARY
  5
2A4
330
41
100
AcDbDictionary
280
     1
281
     1
  3
ACAD_XREC_ROUNDTRIP
360
2A5
  0
DICTIONARY
  5
29E
330
3E
100
AcDbDictionary
280
     1
281
     1
  3
ACAD_XREC_ROUNDTRIP
360
29F
  0
DICTIONARY
  5
2A0
330
3F
100
AcDbDictionary
280
     1
281
     1
  3
ACAD_XREC_ROUNDTRIP
360
2A1
  0
DICTIONARY
  5
290
330
37
100
AcDbDictionary
280
     1
281
     1
  3
ACAD_XREC_ROUNDTRIP
360
291
  0
DICTIONARY
  5
282
330
30
100
AcDbDictionary
280
     1
281
     1
  3
ACAD_XREC_ROUNDTRIP
360
283
  0
DICTIONARY
  5
2A2
330
40
100
AcDbDictionary
280
     1
281
     1
  3
ACAD_XREC_ROUNDTRIP
360
2A3
  0
XRECORD
  5
2AB
102
{ACAD_REACTORS
330
2AA
102
}
330
2AA
100
AcDbXrecord
280
     1
102
MATERIAL
148
0.0
149
0.0
149
0.0
 93
        0
 94
      127
282
     0
 72
     1
 77
     1
171
     1
175
     1
179
     1
273
     0
  0
XRECORD
  5
2A9
102
{ACAD_REACTORS
330
2A8
102
}
330
2A8
100
AcDbXrecord
280
     1
102
MATERIAL
148
0.0
149
0.0
149
0.0
 93
        0
 94
      127
282
     0
 72
     1
 77
     1
171
     1
175
     1
179
     1
273
     0
  0
XRECORD
  5
2AD
102
{ACAD_REACTORS
330
2AC
102
}
330
2AC
100
AcDbXrecord
280
     1
102
MATERIAL
148
0.0
149
0.0
149
0.0
 93
        0
 94
      127
282
     0
 72
     1
 77
     1
171
     1
175
     1
179
     1
273
     0
  0
XRECORD
  5
2B3
102
{ACAD_REACTORS
330
2B2
102
}
330
2B2
100
AcDbXrecord
280
     1
102
ACAD_ROUNDTRIP_2010_MLEADER_STYLE
  0
CELLSTYLEMAP
  5
2B0
102
{ACAD_REACTORS
330
2AE
102
}
330
2AE
100
AcDbCellStyleMap
 90
        3
300
CELLSTYLE
  1
TABLEFORMAT_BEGIN
 90
        5
170
     1
 91
        0
 92
    32768
 62
   257
 93
        1
300
CONTENTFORMAT
  1
CONTENTFORMAT_BEGIN
 90
        0
 91
        0
 92
        4
 93
        0
300

 40
0.0
140
1.0
 94
        5
 62
     0
340
11
144
6.0
309
CONTENTFORMAT_END
171
     1
301
MARGIN
  1
CELLMARGIN_BEGIN
 40
1.5
 40
1.5
 40
1.5
 40
1.5
 40
1.5
 40
1.5
309
CELLMARGIN_END
 94
        6
 95
        1
302
GRIDFORMAT
  1
GRIDFORMAT_BEGIN
 90
        0
 91
        1
 62
     0
 92
       -2
340
14
 93
        0
 40
0.045
309
GRIDFORMAT_END
 95
        2
302
GRIDFORMAT
  1
GRIDFORMAT_BEGIN
 90
        0
 91
        1
 62
     0
 92
       -2
340
14
 93
        0
 40
0.045
309
GRIDFORMAT_END
 95
        4
302
GRIDFORMAT
  1
GRIDFORMAT_BEGIN
 90
        0
 91
        1
 62
     0
 92
       -2
340
14
 93
        0
 40
0.045
309
GRIDFORMAT_END
 95
        8
302
GRIDFORMAT
  1
GRIDFORMAT_BEGIN
 90
        0
 91
        1
 62
     0
 92
       -2
340
14
 93
        0
 40
0.045
309
GRIDFORMAT_END
 95
       16
302
GRIDFORMAT
  1
GRIDFORMAT_BEGIN
 90
        0
 91
        1
 62
     0
 92
       -2
340
14
 93
        0
 40
0.045
309
GRIDFORMAT_END
 95
       32
302
GRIDFORMAT
  1
GRIDFORMAT_BEGIN
 90
        0
 91
        1
 62
     0
 92
       -2
340
14
 93
        0
 40
0.045
309
GRIDFORMAT_END
309
TABLEFORMAT_END
  1
CELLSTYLE_BEGIN
 90
        1
 91
        1
300
_TITLE
309
CELLSTYLE_END
300
CELLSTYLE
  1
TABLEFORMAT_BEGIN
 90
        5
170
     1
 91
        0
 92
        0
 62
   257
 93
        1
300
CONTENTFORMAT
  1
CONTENTFORMAT_BEGIN
 90
        0
 91
        0
 92
        4
 93
        0
300

 40
0.0
140
1.0
 94
        5
 62
     0
340
11
144
4.5
309
CONTENTFORMAT_END
171
     1
301
MARGIN
  1
CELLMARGIN_BEGIN
 40
1.5
 40
1.5
 40
1.5
 40
1.5
 40
1.5
 40
1.5
309
CELLMARGIN_END
 94
        6
 95
        1
302
GRIDFORMAT
  1
GRIDFORMAT_BEGIN
 90
        0
 91
        1
 62
     0
 92
       -2
340
14
 93
        0
 40
0.045
309
GRIDFORMAT_END
 95
        2
302
GRIDFORMAT
  1
GRIDFORMAT_BEGIN
 90
        0
 91
        1
 62
     0
 92
       -2
340
14
 93
        0
 40
0.045
309
GRIDFORMAT_END
 95
        4
302
GRIDFORMAT
  1
GRIDFORMAT_BEGIN
 90
        0
 91
        1
 62
     0
 92
       -2
340
14
 93
        0
 40
0.045
309
GRIDFORMAT_END
 95
        8
302
GRIDFORMAT
  1
GRIDFORMAT_BEGIN
 90
        0
 91
        1
 62
     0
 92
       -2
340
14
 93
        0
 40
0.045
309
GRIDFORMAT_END
 95
       16
302
GRIDFORMAT
  1
GRIDFORMAT_BEGIN
 90
        0
 91
        1
 62
     0
 92
       -2
340
14
 93
        0
 40
0.045
309
GRIDFORMAT_END
 95
       32
302
GRIDFORMAT
  1
GRIDFORMAT_BEGIN
 90
        0
 91
        1
 62
     0
 92
       -2
340
14
 93
        0
 40
0.045
309
GRIDFORMAT_END
309
TABLEFORMAT_END
  1
CELLSTYLE_BEGIN
 90
        2
 91
        1
300
_HEADER
309
CELLSTYLE_END
300
CELLSTYLE
  1
TABLEFORMAT_BEGIN
 90
        5
170
     1
 91
        0
 92
        0
 62
   257
 93
        1
300
CONTENTFORMAT
  1
CONTENTFORMAT_BEGIN
 90
        0
 91
        0
 92
        4
 93
        0
300

 40
0.0
140
1.0
 94
        2
 62
     0
340
11
144
4.5
309
CONTENTFORMAT_END
171
     1
301
MARGIN
  1
CELLMARGIN_BEGIN
 40
1.5
 40
1.5
 40
1.5
 40
1.5
 40
1.5
 40
1.5
309
CELLMARGIN_END
 94
        6
 95
        1
302
GRIDFORMAT
  1
GRIDFORMAT_BEGIN
 90
        0
 91
        1
 62
     0
 92
       -2
340
14
 93
        0
 40
0.045
309
GRIDFORMAT_END
 95
        2
302
GRIDFORMAT
  1
GRIDFORMAT_BEGIN
 90
        0
 91
        1
 62
     0
 92
       -2
340
14
 93
        0
 40
0.045
309
GRIDFORMAT_END
 95
        4
302
GRIDFORMAT
  1
GRIDFORMAT_BEGIN
 90
        0
 91
        1
 62
     0
 92
       -2
340
14
 93
        0
 40
0.045
309
GRIDFORMAT_END
 95
        8
302
GRIDFORMAT
  1
GRIDFORMAT_BEGIN
 90
        0
 91
        1
 62
     0
 92
       -2
340
14
 93
        0
 40
0.045
309
GRIDFORMAT_END
 95
       16
302
GRIDFORMAT
  1
GRIDFORMAT_BEGIN
 90
        0
 91
        1
 62
     0
 92
       -2
340
14
 93
        0
 40
0.045
309
GRIDFORMAT_END
 95
       32
302
GRIDFORMAT
  1
GRIDFORMAT_BEGIN
 90
        0
 91
        1
 62
     0
 92
       -2
340
14
 93
        0
 40
0.045
309
GRIDFORMAT_END
309
TABLEFORMAT_END
  1
CELLSTYLE_BEGIN
 90
        3
 91
        2
300
_DATA
309
CELLSTYLE_END
  0
XRECORD
  5
2AF
102
{ACAD_REACTORS
330
2AE
102
}
330
2AE
100
AcDbXrecord
280
     1
102
ACAD_ROUNDTRIP_PRE2007_TABLESTYLE
 90
        4
 91
        0
  1

 92
        4
 93
        0
  2

 94
        4
 95
        0
  3

  0
XRECORD
  5
281
102
{ACAD_REACTORS
330
280
102
}
330
280
100
AcDbXrecord
280
     1
102
RTVSPropertyOp0
 70
     1
102
RTVSPropertyOp1
 70
     1
102
RTVSPropertyOp2
 70
     1
102
RTVSPropertyOp3
 70
     1
102
RTVSPropertyOp4
 70
     1
102
RTVSPropertyOp5
 70
     1
102
RTVSPropertyOp6
 70
     1
102
RTVSPropertyOp7
 70
     1
102
RTVSPropertyOp8
 70
     1
102
RTVSPropertyOp9
 70
     1
102
RTVSPropertyOp10
 70
     1
102
RTVSPropertyOp11
 70
     1
102
RTVSPropertyOp12
 70
     1
102
RTVSPropertyOp13
 70
     1
102
RTVSPropertyOp14
 70
     1
102
RTVSPropertyOp15
 70
     1
102
RTVSPropertyOp16
 70
     1
102
RTVSPropertyOp17
 70
     1
102
RTVSPropertyOp18
 70
     1
102
RTVSPropertyOp19
 70
     1
102
RTVSPropertyOp20
 70
     1
102
RTVSPropertyOp21
 70
     1
102
RTVSPropertyOp22
 70
     1
102
RTVSPropertyOp23
 70
     1
102
RTVSPropertyOp24
 70
     1
102
RTVSPropertyOp25
 70
     1
102
RTVSPropertyOp26
 70
     1
102
RTVSPropertyOp27
 70
     1
102
RTVSPropertyOp28
 70
     1
102
RTVSPropertyOp29
 70
     1
102
RTVSPropertyOp30
 70
     1
102
RTVSPropertyOp31
 70
     1
102
RTVSPropertyOp32
 70
     1
102
RTVSPropertyOp33
 70
     1
102
RTVSPropertyOp34
 70
     1
102
RTVSPropertyOp35
 70
     1
102
RTVSPropertyOp36
 70
     1
102
RTVSPropertyOp37
 70
     1
102
RTVSPropertyOp38
 70
     1
102
RTVSPropertyOp39
 70
     1
102
RTVSPropertyOp40
 70
     1
102
RTVSPropertyOp41
 70
     1
102
RTVSPropertyOp42
 70
     1
102
RTVSPropertyOp43
 70
     1
102
RTVSPropertyOp44
 70
     1
102
RTVSPropertyOp45
 70
     1
102
RTVSPropertyOp46
 70
     1
102
RTVSPropertyOp47
 70
     1
102
RTVSPropertyOp48
 70
     1
102
RTVSPropertyOp49
 70
     1
102
RTVSPropertyOp50
 70
     1
102
RTVSPropertyOp51
 70
     0
102
RTVSPropertyOp52
 70
     0
102
RTVSPropertyOp53
 70
     1
102
RTVSPropertyOp54
 70
     1
102
RTVSPropertyOp55
 70
     1
102
RTVSPropertyOp56
 70
     1
102
RTVSPropertyOp57
 70
     1
102
RTVSPost2010Prop28
280
     1
102
RTVSPost2010PropOp28
 70
     1
102
RTVSPost2010Prop29
280
     1
102
RTVSPost2010PropOp29
 70
     1
102
RTVSPost2010Prop30
280
     0
102
RTVSPost2010PropOp30
 70
     1
102
RTVSPost2010Prop31
280
     0
102
RTVSPost2010PropOp31
 70
     1
102
RTVSPost2010Prop32
280
     0
102
RTVSPost2010PropOp32
 70
     1
102
RTVSPost2010Prop33
280
     0
102
RTVSPost2010PropOp33
 70
     1
102
RTVSPost2010Prop34
280
     0
102
RTVSPost2010PropOp34
 70
     1
102
RTVSPost2010Prop35
280
     0
102
RTVSPost2010PropOp35
 70
     1
102
RTVSPost2010Prop36
280
     0
102
RTVSPost2010PropOp36
 70
     1
102
RTVSPost2010Prop37
 90
       50
102
RTVSPost2010PropOp37
 70
     1
102
RTVSPost2010Prop38
140
0.0
102
RTVSPost2010PropOp38
 70
     1
102
RTVSPost2010Prop39
140
1.0
102
RTVSPost2010PropOp39
 70
     1
102
RTVSPost2010Prop40
 90
        0
102
RTVSPost2010PropOp40
 70
     1
102
RTVSPost2010Prop41ColorIndex
 90
       18
102
RTVSPost2010Prop41ColorRGB
 90
        0
102
RTVSPost2010PropOp41
 70
     1
102
RTVSPost2010Prop42
 90
       50
102
RTVSPost2010PropOp42
 70
     1
102
RTVSPost2010Prop43
 90
        3
102
RTVSPost2010PropOp43
 70
     1
102
RTVSPost2010Prop44ColorIndex
 90
        5
102
RTVSPost2010Prop44ColorRGB
 90
      255
102
RTVSPost2010PropOp44
 70
     1
102
RTVSPost2010Prop45
280
     0
102
RTVSPost2010PropOp45
 70
     1
102
RTVSPost2010Prop46
 90
       50
102
RTVSPost2010PropOp46
 70
     1
102
RTVSPost2010Prop47
 90
       50
102
RTVSPost2010PropOp47
 70
     1
102
RTVSPost2010Prop48
 90
       50
102
RTVSPost2010PropOp48
 70
     1
102
RTVSPost2010Prop49
280
     0
102
RTVSPost2010PropOp49
 70
     1
102
RTVSPost2010Prop50
 90
       50
102
RTVSPost2010PropOp50
 70
     1
102
RTVSPost2010Prop51ColorIndex
 90
      256
102
RTVSPost2010Prop51ColorRGB
 90
-16777216
102
RTVSPost2010PropOp51
 70
     0
102
RTVSPost2010Prop52
140
1.0
102
RTVSPost2010PropOp52
 70
     0
102
RTVSPost2010Prop53
 90
        2
102
RTVSPost2010PropOp53
 70
     1
102
RTVSPost2010Prop54
  1
strokes_ogs.tif
102
RTVSPost2010PropOp54
 70
     1
102
RTVSPost2010Prop55
280
     0
102
RTVSPost2010PropOp55
 70
     1
102
RTVSPost2010Prop56
140
1.0
102
RTVSPost2010PropOp56
 70
     1
102
RTVSPost2010Prop57
140
1.0
102
RTVSPost2010PropOp57
 70
     1
  0
XRECORD
  5
287
102
{ACAD_REACTORS
330
286
102
}
330
286
100
AcDbXrecord
280
     1
102
RTVSPropertyOp0
 70
     1
102
RTVSPropertyOp1
 70
     1
102
RTVSPropertyOp2
 70
     1
102
RTVSPropertyOp3
 70
     1
102
RTVSPropertyOp4
 70
     1
102
RTVSPropertyOp5
 70
     1
102
RTVSPropertyOp6
 70
     1
102
RTVSPropertyOp7
 70
     1
102
RTVSPropertyOp8
 70
     1
102
RTVSPropertyOp9
 70
     1
102
RTVSPropertyOp10
 70
     1
102
RTVSPropertyOp11
 70
     1
102
RTVSPropertyOp12
 70
     1
102
RTVSPropertyOp13
 70
     1
102
RTVSPropertyOp14
 70
     1
102
RTVSPropertyOp15
 70
     1
102
RTVSPropertyOp16
 70
     1
102
RTVSPropertyOp17
 70
     1
102
RTVSPropertyOp18
 70
     1
102
RTVSPropertyOp19
 70
     1
102
RTVSPropertyOp20
 70
     1
102
RTVSPropertyOp21
 70
     1
102
RTVSPropertyOp22
 70
     1
102
RTVSPropertyOp23
 70
     1
102
RTVSPropertyOp24
 70
     1
102
RTVSPropertyOp25
 70
     1
102
RTVSPropertyOp26
 70
     1
102
RTVSPropertyOp27
 70
     1
102
RTVSPropertyOp28
 70
     1
102
RTVSPropertyOp29
 70
     1
102
RTVSPropertyOp30
 70
     1
102
RTVSPropertyOp31
 70
     1
102
RTVSPropertyOp32
 70
     1
102
RTVSPropertyOp33
 70
     1
102
RTVSPropertyOp34
 70
     1
102
RTVSPropertyOp35
 70
     1
102
RTVSPropertyOp36
 70
     1
102
RTVSPropertyOp37
 70
     1
102
RTVSPropertyOp38
 70
     1
102
RTVSPropertyOp39
 70
     1
102
RTVSPropertyOp40
 70
     1
102
RTVSPropertyOp41
 70
     1
102
RTVSPropertyOp42
 70
     1
102
RTVSPropertyOp43
 70
     1
102
RTVSPropertyOp44
 70
     1
102
RTVSPropertyOp45
 70
     1
102
RTVSPropertyOp46
 70
     1
102
RTVSPropertyOp47
 70
     1
102
RTVSPropertyOp48
 70
     1
102
RTVSPropertyOp49
 70
     1
102
RTVSPropertyOp50
 70
     1
102
RTVSPropertyOp51
 70
     0
102
RTVSPropertyOp52
 70
     0
102
RTVSPropertyOp53
 70
     1
102
RTVSPropertyOp54
 70
     1
102
RTVSPropertyOp55
 70
     1
102
RTVSPropertyOp56
 70
     1
102
RTVSPropertyOp57
 70
     1
102
RTVSPost2010Prop28
280
     0
102
RTVSPost2010PropOp28
 70
     1
102
RTVSPost2010Prop29
280
     1
102
RTVSPost2010PropOp29
 70
     1
102
RTVSPost2010Prop30
280
     1
102
RTVSPost2010PropOp30
 70
     1
102
RTVSPost2010Prop31
280
     0
102
RTVSPost2010PropOp31
 70
     1
102
RTVSPost2010Prop32
280
     0
102
RTVSPost2010PropOp32
 70
     1
102
RTVSPost2010Prop33
280
     0
102
RTVSPost2010PropOp33
 70
     1
102
RTVSPost2010Prop34
280
     0
102
RTVSPost2010PropOp34
 70
     1
102
RTVSPost2010Prop35
280
     0
102
RTVSPost2010PropOp35
 70
     1
102
RTVSPost2010Prop36
280
     0
102
RTVSPost2010PropOp36
 70
     1
102
RTVSPost2010Prop37
 90
       50
102
RTVSPost2010PropOp37
 70
     1
102
RTVSPost2010Prop38
140
0.0
102
RTVSPost2010PropOp38
 70
     1
102
RTVSPost2010Prop39
140
1.0
102
RTVSPost2010PropOp39
 70
     1
102
RTVSPost2010Prop40
 90
        0
102
RTVSPost2010PropOp40
 70
     1
102
RTVSPost2010Prop41ColorIndex
 90
       18
102
RTVSPost2010Prop41ColorRGB
 90
        0
102
RTVSPost2010PropOp41
 70
     1
102
RTVSPost2010Prop42
 90
       50
102
RTVSPost2010PropOp42
 70
     1
102
RTVSPost2010Prop43
 90
        3
102
RTVSPost2010PropOp43
 70
     1
102
RTVSPost2010Prop44ColorIndex
 90
        5
102
RTVSPost2010Prop44ColorRGB
 90
      255
102
RTVSPost2010PropOp44
 70
     1
102
RTVSPost2010Prop45
280
     0
102
RTVSPost2010PropOp45
 70
     1
102
RTVSPost2010Prop46
 90
       50
102
RTVSPost2010PropOp46
 70
     1
102
RTVSPost2010Prop47
 90
       50
102
RTVSPost2010PropOp47
 70
     1
102
RTVSPost2010Prop48
 90
       50
102
RTVSPost2010PropOp48
 70
     1
102
RTVSPost2010Prop49
280
     0
102
RTVSPost2010PropOp49
 70
     1
102
RTVSPost2010Prop50
 90
       50
102
RTVSPost2010PropOp50
 70
     1
102
RTVSPost2010Prop51ColorIndex
 90
      256
102
RTVSPost2010Prop51ColorRGB
 90
-16777216
102
RTVSPost2010PropOp51
 70
     0
102
RTVSPost2010Prop52
140
1.0
102
RTVSPost2010PropOp52
 70
     0
102
RTVSPost2010Prop53
 90
        2
102
RTVSPost2010PropOp53
 70
     1
102
RTVSPost2010Prop54
  1
strokes_ogs.tif
102
RTVSPost2010PropOp54
 70
     1
102
RTVSPost2010Prop55
280
     0
102
RTVSPost2010PropOp55
 70
     1
102
RTVSPost2010Prop56
140
1.0
102
RTVSPost2010PropOp56
 70
     1
102
RTVSPost2010Prop57
140
1.0
102
RTVSPost2010PropOp57
 70
     1
  0
XRECORD
  5
28F
102
{ACAD_REACTORS
330
28E
102
}
330
28E
100
AcDbXrecord
280
     1
102
RTVSPropertyOp0
 70
     1
102
RTVSPropertyOp1
 70
     1
102
RTVSPropertyOp2
 70
     1
102
RTVSPropertyOp3
 70
     1
102
RTVSPropertyOp4
 70
     1
102
RTVSPropertyOp5
 70
     1
102
RTVSPropertyOp6
 70
     1
102
RTVSPropertyOp7
 70
     1
102
RTVSPropertyOp8
 70
     1
102
RTVSPropertyOp9
 70
     1
102
RTVSPropertyOp10
 70
     1
102
RTVSPropertyOp11
 70
     1
102
RTVSPropertyOp12
 70
     1
102
RTVSPropertyOp13
 70
     1
102
RTVSPropertyOp14
 70
     1
102
RTVSPropertyOp15
 70
     1
102
RTVSPropertyOp16
 70
     1
102
RTVSPropertyOp17
 70
     1
102
RTVSPropertyOp18
 70
     1
102
RTVSPropertyOp19
 70
     1
102
RTVSPropertyOp20
 70
     1
102
RTVSPropertyOp21
 70
     1
102
RTVSPropertyOp22
 70
     1
102
RTVSPropertyOp23
 70
     1
102
RTVSPropertyOp24
 70
     1
102
RTVSPropertyOp25
 70
     1
102
RTVSPropertyOp26
 70
     1
102
RTVSPropertyOp27
 70
     1
102
RTVSPropertyOp28
 70
     1
102
RTVSPropertyOp29
 70
     1
102
RTVSPropertyOp30
 70
     1
102
RTVSPropertyOp31
 70
     1
102
RTVSPropertyOp32
 70
     1
102
RTVSPropertyOp33
 70
     1
102
RTVSPropertyOp34
 70
     1
102
RTVSPropertyOp35
 70
     1
102
RTVSPropertyOp36
 70
     1
102
RTVSPropertyOp37
 70
     1
102
RTVSPropertyOp38
 70
     1
102
RTVSPropertyOp39
 70
     1
102
RTVSPropertyOp40
 70
     1
102
RTVSPropertyOp41
 70
     1
102
RTVSPropertyOp42
 70
     1
102
RTVSPropertyOp43
 70
     1
102
RTVSPropertyOp44
 70
     1
102
RTVSPropertyOp45
 70
     1
102
RTVSPropertyOp46
 70
     1
102
RTVSPropertyOp47
 70
     1
102
RTVSPropertyOp48
 70
     1
102
RTVSPropertyOp49
 70
     1
102
RTVSPropertyOp50
 70
     1
102
RTVSPropertyOp51
 70
     0
102
RTVSPropertyOp52
 70
     0
102
RTVSPropertyOp53
 70
     1
102
RTVSPropertyOp54
 70
     1
102
RTVSPropertyOp55
 70
     1
102
RTVSPropertyOp56
 70
     1
102
RTVSPropertyOp57
 70
     1
102
RTVSPost2010Prop28
280
     0
102
RTVSPost2010PropOp28
 70
     1
102
RTVSPost2010Prop29
280
     1
102
RTVSPost2010PropOp29
 70
     1
102
RTVSPost2010Prop30
280
     1
102
RTVSPost2010PropOp30
 70
     1
102
RTVSPost2010Prop31
280
     0
102
RTVSPost2010PropOp31
 70
     1
102
RTVSPost2010Prop32
280
     0
102
RTVSPost2010PropOp32
 70
     1
102
RTVSPost2010Prop33
280
     0
102
RTVSPost2010PropOp33
 70
     1
102
RTVSPost2010Prop34
280
     0
102
RTVSPost2010PropOp34
 70
     1
102
RTVSPost2010Prop35
280
     0
102
RTVSPost2010PropOp35
 70
     1
102
RTVSPost2010Prop36
280
     0
102
RTVSPost2010PropOp36
 70
     1
102
RTVSPost2010Prop37
 90
       50
102
RTVSPost2010PropOp37
 70
     1
102
RTVSPost2010Prop38
140
0.0
102
RTVSPost2010PropOp38
 70
     1
102
RTVSPost2010Prop39
140
1.0
102
RTVSPost2010PropOp39
 70
     1
102
RTVSPost2010Prop40
 90
        0
102
RTVSPost2010PropOp40
 70
     1
102
RTVSPost2010Prop41ColorIndex
 90
       18
102
RTVSPost2010Prop41ColorRGB
 90
        0
102
RTVSPost2010PropOp41
 70
     1
102
RTVSPost2010Prop42
 90
       50
102
RTVSPost2010PropOp42
 70
     1
102
RTVSPost2010Prop43
 90
        3
102
RTVSPost2010PropOp43
 70
     1
102
RTVSPost2010Prop44ColorIndex
 90
        5
102
RTVSPost2010Prop44ColorRGB
 90
      255
102
RTVSPost2010PropOp44
 70
     1
102
RTVSPost2010Prop45
280
     0
102
RTVSPost2010PropOp45
 70
     1
102
RTVSPost2010Prop46
 90
       50
102
RTVSPost2010PropOp46
 70
     1
102
RTVSPost2010Prop47
 90
       50
102
RTVSPost2010PropOp47
 70
     1
102
RTVSPost2010Prop48
 90
       50
102
RTVSPost2010PropOp48
 70
     1
102
RTVSPost2010Prop49
280
     0
102
RTVSPost2010PropOp49
 70
     1
102
RTVSPost2010Prop50
 90
       50
102
RTVSPost2010PropOp50
 70
     1
102
RTVSPost2010Prop51ColorIndex
 90
      256
102
RTVSPost2010Prop51ColorRGB
 90
-16777216
102
RTVSPost2010PropOp51
 70
     0
102
RTVSPost2010Prop52
140
1.0
102
RTVSPost2010PropOp52
 70
     0
102
RTVSPost2010Prop53
 90
        2
102
RTVSPost2010PropOp53
 70
     1
102
RTVSPost2010Prop54
  1
strokes_ogs.tif
102
RTVSPost2010PropOp54
 70
     1
102
RTVSPost2010Prop55
280
     0
102
RTVSPost2010PropOp55
 70
     1
102
RTVSPost2010Prop56
140
1.0
102
RTVSPost2010PropOp56
 70
     1
102
RTVSPost2010Prop57
140
1.0
102
RTVSPost2010PropOp57
 70
     1
  0
XRECORD
  5
297
102
{ACAD_REACTORS
330
296
102
}
330
296
100
AcDbXrecord
280
     1
102
RTVSPropertyOp0
 70
     1
102
RTVSPropertyOp1
 70
     1
102
RTVSPropertyOp2
 70
     1
102
RTVSPropertyOp3
 70
     1
102
RTVSPropertyOp4
 70
     1
102
RTVSPropertyOp5
 70
     1
102
RTVSPropertyOp6
 70
     1
102
RTVSPropertyOp7
 70
     1
102
RTVSPropertyOp8
 70
     1
102
RTVSPropertyOp9
 70
     1
102
RTVSPropertyOp10
 70
     1
102
RTVSPropertyOp11
 70
     1
102
RTVSPropertyOp12
 70
     1
102
RTVSPropertyOp13
 70
     1
102
RTVSPropertyOp14
 70
     1
102
RTVSPropertyOp15
 70
     1
102
RTVSPropertyOp16
 70
     1
102
RTVSPropertyOp17
 70
     1
102
RTVSPropertyOp18
 70
     1
102
RTVSPropertyOp19
 70
     1
102
RTVSPropertyOp20
 70
     1
102
RTVSPropertyOp21
 70
     1
102
RTVSPropertyOp22
 70
     1
102
RTVSPropertyOp23
 70
     1
102
RTVSPropertyOp24
 70
     1
102
RTVSPropertyOp25
 70
     1
102
RTVSPropertyOp26
 70
     1
102
RTVSPropertyOp27
 70
     1
102
RTVSPropertyOp28
 70
     1
102
RTVSPropertyOp29
 70
     1
102
RTVSPropertyOp30
 70
     1
102
RTVSPropertyOp31
 70
     1
102
RTVSPropertyOp32
 70
     1
102
RTVSPropertyOp33
 70
     1
102
RTVSPropertyOp34
 70
     1
102
RTVSPropertyOp35
 70
     1
102
RTVSPropertyOp36
 70
     1
102
RTVSPropertyOp37
 70
     1
102
RTVSPropertyOp38
 70
     1
102
RTVSPropertyOp39
 70
     1
102
RTVSPropertyOp40
 70
     1
102
RTVSPropertyOp41
 70
     1
102
RTVSPropertyOp42
 70
     1
102
RTVSPropertyOp43
 70
     1
102
RTVSPropertyOp44
 70
     1
102
RTVSPropertyOp45
 70
     1
102
RTVSPropertyOp46
 70
     1
102
RTVSPropertyOp47
 70
     1
102
RTVSPropertyOp48
 70
     1
102
RTVSPropertyOp49
 70
     1
102
RTVSPropertyOp50
 70
     1
102
RTVSPropertyOp51
 70
     0
102
RTVSPropertyOp52
 70
     0
102
RTVSPropertyOp53
 70
     1
102
RTVSPropertyOp54
 70
     1
102
RTVSPropertyOp55
 70
     1
102
RTVSPropertyOp56
 70
     1
102
RTVSPropertyOp57
 70
     1
102
RTVSPost2010Prop28
280
     0
102
RTVSPost2010PropOp28
 70
     1
102
RTVSPost2010Prop29
280
     1
102
RTVSPost2010PropOp29
 70
     1
102
RTVSPost2010Prop30
280
     1
102
RTVSPost2010PropOp30
 70
     1
102
RTVSPost2010Prop31
280
     0
102
RTVSPost2010PropOp31
 70
     1
102
RTVSPost2010Prop32
280
     0
102
RTVSPost2010PropOp32
 70
     1
102
RTVSPost2010Prop33
280
     0
102
RTVSPost2010PropOp33
 70
     1
102
RTVSPost2010Prop34
280
     0
102
RTVSPost2010PropOp34
 70
     1
102
RTVSPost2010Prop35
280
     0
102
RTVSPost2010PropOp35
 70
     1
102
RTVSPost2010Prop36
280
     0
102
RTVSPost2010PropOp36
 70
     1
102
RTVSPost2010Prop37
 90
       50
102
RTVSPost2010PropOp37
 70
     1
102
RTVSPost2010Prop38
140
0.0
102
RTVSPost2010PropOp38
 70
     1
102
RTVSPost2010Prop39
140
1.0
102
RTVSPost2010PropOp39
 70
     1
102
RTVSPost2010Prop40
 90
        0
102
RTVSPost2010PropOp40
 70
     1
102
RTVSPost2010Prop41ColorIndex
 90
       18
102
RTVSPost2010Prop41ColorRGB
 90
        0
102
RTVSPost2010PropOp41
 70
     1
102
RTVSPost2010Prop42
 90
       50
102
RTVSPost2010PropOp42
 70
     1
102
RTVSPost2010Prop43
 90
        3
102
RTVSPost2010PropOp43
 70
     1
102
RTVSPost2010Prop44ColorIndex
 90
        5
102
RTVSPost2010Prop44ColorRGB
 90
      255
102
RTVSPost2010PropOp44
 70
     1
102
RTVSPost2010Prop45
280
     0
102
RTVSPost2010PropOp45
 70
     1
102
RTVSPost2010Prop46
 90
       50
102
RTVSPost2010PropOp46
 70
     1
102
RTVSPost2010Prop47
 90
       50
102
RTVSPost2010PropOp47
 70
     1
102
RTVSPost2010Prop48
 90
       50
102
RTVSPost2010PropOp48
 70
     1
102
RTVSPost2010Prop49
280
     0
102
RTVSPost2010PropOp49
 70
     1
102
RTVSPost2010Prop50
 90
       50
102
RTVSPost2010PropOp50
 70
     1
102
RTVSPost2010Prop51ColorIndex
 90
      256
102
RTVSPost2010Prop51ColorRGB
 90
-16777216
102
RTVSPost2010PropOp51
 70
     0
102
RTVSPost2010Prop52
140
1.0
102
RTVSPost2010PropOp52
 70
     0
102
RTVSPost2010Prop53
 90
        2
102
RTVSPost2010PropOp53
 70
     1
102
RTVSPost2010Prop54
  1
strokes_ogs.tif
102
RTVSPost2010PropOp54
 70
     1
102
RTVSPost2010Prop55
280
     0
102
RTVSPost2010PropOp55
 70
     1
102
RTVSPost2010Prop56
140
1.0
102
RTVSPost2010PropOp56
 70
     1
102
RTVSPost2010Prop57
140
1.0
102
RTVSPost2010PropOp57
 70
     1
  0
XRECORD
  5
28B
102
{ACAD_REACTORS
330
28A
102
}
330
28A
100
AcDbXrecord
280
     1
102
RTVSPropertyOp0
 70
     1
102
RTVSPropertyOp1
 70
     1
102
RTVSPropertyOp2
 70
     1
102
RTVSPropertyOp3
 70
     1
102
RTVSPropertyOp4
 70
     1
102
RTVSPropertyOp5
 70
     1
102
RTVSPropertyOp6
 70
     1
102
RTVSPropertyOp7
 70
     1
102
RTVSPropertyOp8
 70
     1
102
RTVSPropertyOp9
 70
     1
102
RTVSPropertyOp10
 70
     1
102
RTVSPropertyOp11
 70
     1
102
RTVSPropertyOp12
 70
     1
102
RTVSPropertyOp13
 70
     1
102
RTVSPropertyOp14
 70
     1
102
RTVSPropertyOp15
 70
     1
102
RTVSPropertyOp16
 70
     1
102
RTVSPropertyOp17
 70
     1
102
RTVSPropertyOp18
 70
     1
102
RTVSPropertyOp19
 70
     1
102
RTVSPropertyOp20
 70
     1
102
RTVSPropertyOp21
 70
     1
102
RTVSPropertyOp22
 70
     1
102
RTVSPropertyOp23
 70
     1
102
RTVSPropertyOp24
 70
     1
102
RTVSPropertyOp25
 70
     1
102
RTVSPropertyOp26
 70
     1
102
RTVSPropertyOp27
 70
     1
102
RTVSPropertyOp28
 70
     1
102
RTVSPropertyOp29
 70
     1
102
RTVSPropertyOp30
 70
     1
102
RTVSPropertyOp31
 70
     1
102
RTVSPropertyOp32
 70
     1
102
RTVSPropertyOp33
 70
     1
102
RTVSPropertyOp34
 70
     1
102
RTVSPropertyOp35
 70
     1
102
RTVSPropertyOp36
 70
     1
102
RTVSPropertyOp37
 70
     1
102
RTVSPropertyOp38
 70
     1
102
RTVSPropertyOp39
 70
     1
102
RTVSPropertyOp40
 70
     1
102
RTVSPropertyOp41
 70
     1
102
RTVSPropertyOp42
 70
     1
102
RTVSPropertyOp43
 70
     1
102
RTVSPropertyOp44
 70
     1
102
RTVSPropertyOp45
 70
     1
102
RTVSPropertyOp46
 70
     1
102
RTVSPropertyOp47
 70
     1
102
RTVSPropertyOp48
 70
     1
102
RTVSPropertyOp49
 70
     1
102
RTVSPropertyOp50
 70
     1
102
RTVSPropertyOp51
 70
     0
102
RTVSPropertyOp52
 70
     0
102
RTVSPropertyOp53
 70
     1
102
RTVSPropertyOp54
 70
     1
102
RTVSPropertyOp55
 70
     1
102
RTVSPropertyOp56
 70
     1
102
RTVSPropertyOp57
 70
     1
102
RTVSPost2010Prop28
280
     0
102
RTVSPost2010PropOp28
 70
     1
102
RTVSPost2010Prop29
280
     1
102
RTVSPost2010PropOp29
 70
     1
102
RTVSPost2010Prop30
280
     1
102
RTVSPost2010PropOp30
 70
     1
102
RTVSPost2010Prop31
280
     0
102
RTVSPost2010PropOp31
 70
     1
102
RTVSPost2010Prop32
280
     0
102
RTVSPost2010PropOp32
 70
     1
102
RTVSPost2010Prop33
280
     0
102
RTVSPost2010PropOp33
 70
     1
102
RTVSPost2010Prop34
280
     0
102
RTVSPost2010PropOp34
 70
     1
102
RTVSPost2010Prop35
280
     0
102
RTVSPost2010PropOp35
 70
     1
102
RTVSPost2010Prop36
280
     0
102
RTVSPost2010PropOp36
 70
     1
102
RTVSPost2010Prop37
 90
       50
102
RTVSPost2010PropOp37
 70
     1
102
RTVSPost2010Prop38
140
0.0
102
RTVSPost2010PropOp38
 70
     1
102
RTVSPost2010Prop39
140
1.0
102
RTVSPost2010PropOp39
 70
     1
102
RTVSPost2010Prop40
 90
        0
102
RTVSPost2010PropOp40
 70
     1
102
RTVSPost2010Prop41ColorIndex
 90
       18
102
RTVSPost2010Prop41ColorRGB
 90
        0
102
RTVSPost2010PropOp41
 70
     1
102
RTVSPost2010Prop42
 90
       50
102
RTVSPost2010PropOp42
 70
     1
102
RTVSPost2010Prop43
 90
        3
102
RTVSPost2010PropOp43
 70
     1
102
RTVSPost2010Prop44ColorIndex
 90
        5
102
RTVSPost2010Prop44ColorRGB
 90
      255
102
RTVSPost2010PropOp44
 70
     1
102
RTVSPost2010Prop45
280
     0
102
RTVSPost2010PropOp45
 70
     1
102
RTVSPost2010Prop46
 90
       50
102
RTVSPost2010PropOp46
 70
     1
102
RTVSPost2010Prop47
 90
       50
102
RTVSPost2010PropOp47
 70
     1
102
RTVSPost2010Prop48
 90
       50
102
RTVSPost2010PropOp48
 70
     1
102
RTVSPost2010Prop49
280
     0
102
RTVSPost2010PropOp49
 70
     1
102
RTVSPost2010Prop50
 90
       50
102
RTVSPost2010PropOp50
 70
     1
102
RTVSPost2010Prop51ColorIndex
 90
      256
102
RTVSPost2010Prop51ColorRGB
 90
-16777216
102
RTVSPost2010PropOp51
 70
     0
102
RTVSPost2010Prop52
140
1.0
102
RTVSPost2010PropOp52
 70
     0
102
RTVSPost2010Prop53
 90
        2
102
RTVSPost2010PropOp53
 70
     1
102
RTVSPost2010Prop54
  1
strokes_ogs.tif
102
RTVSPost2010PropOp54
 70
     1
102
RTVSPost2010Prop55
280
     0
102
RTVSPost2010PropOp55
 70
     1
102
RTVSPost2010Prop56
140
1.0
102
RTVSPost2010PropOp56
 70
     1
102
RTVSPost2010Prop57
140
1.0
102
RTVSPost2010PropOp57
 70
     1
  0
XRECORD
  5
28D
102
{ACAD_REACTORS
330
28C
102
}
330
28C
100
AcDbXrecord
280
     1
102
RTVSPropertyOp0
 70
     1
102
RTVSPropertyOp1
 70
     1
102
RTVSPropertyOp2
 70
     1
102
RTVSPropertyOp3
 70
     1
102
RTVSPropertyOp4
 70
     1
102
RTVSPropertyOp5
 70
     1
102
RTVSPropertyOp6
 70
     1
102
RTVSPropertyOp7
 70
     1
102
RTVSPropertyOp8
 70
     1
102
RTVSPropertyOp9
 70
     1
102
RTVSPropertyOp10
 70
     1
102
RTVSPropertyOp11
 70
     1
102
RTVSPropertyOp12
 70
     1
102
RTVSPropertyOp13
 70
     1
102
RTVSPropertyOp14
 70
     1
102
RTVSPropertyOp15
 70
     1
102
RTVSPropertyOp16
 70
     1
102
RTVSPropertyOp17
 70
     1
102
RTVSPropertyOp18
 70
     1
102
RTVSPropertyOp19
 70
     1
102
RTVSPropertyOp20
 70
     1
102
RTVSPropertyOp21
 70
     1
102
RTVSPropertyOp22
 70
     1
102
RTVSPropertyOp23
 70
     1
102
RTVSPropertyOp24
 70
     1
102
RTVSPropertyOp25
 70
     1
102
RTVSPropertyOp26
 70
     1
102
RTVSPropertyOp27
 70
     1
102
RTVSPropertyOp28
 70
     1
102
RTVSPropertyOp29
 70
     1
102
RTVSPropertyOp30
 70
     1
102
RTVSPropertyOp31
 70
     1
102
RTVSPropertyOp32
 70
     1
102
RTVSPropertyOp33
 70
     1
102
RTVSPropertyOp34
 70
     1
102
RTVSPropertyOp35
 70
     1
102
RTVSPropertyOp36
 70
     1
102
RTVSPropertyOp37
 70
     1
102
RTVSPropertyOp38
 70
     1
102
RTVSPropertyOp39
 70
     1
102
RTVSPropertyOp40
 70
     1
102
RTVSPropertyOp41
 70
     1
102
RTVSPropertyOp42
 70
     1
102
RTVSPropertyOp43
 70
     1
102
RTVSPropertyOp44
 70
     1
102
RTVSPropertyOp45
 70
     1
102
RTVSPropertyOp46
 70
     1
102
RTVSPropertyOp47
 70
     1
102
RTVSPropertyOp48
 70
     1
102
RTVSPropertyOp49
 70
     1
102
RTVSPropertyOp50
 70
     1
102
RTVSPropertyOp51
 70
     0
102
RTVSPropertyOp52
 70
     0
102
RTVSPropertyOp53
 70
     1
102
RTVSPropertyOp54
 70
     1
102
RTVSPropertyOp55
 70
     1
102
RTVSPropertyOp56
 70
     1
102
RTVSPropertyOp57
 70
     1
102
RTVSPost2010Prop28
280
     0
102
RTVSPost2010PropOp28
 70
     1
102
RTVSPost2010Prop29
280
     1
102
RTVSPost2010PropOp29
 70
     1
102
RTVSPost2010Prop30
280
     1
102
RTVSPost2010PropOp30
 70
     1
102
RTVSPost2010Prop31
280
     0
102
RTVSPost2010PropOp31
 70
     1
102
RTVSPost2010Prop32
280
     0
102
RTVSPost2010PropOp32
 70
     1
102
RTVSPost2010Prop33
280
     0
102
RTVSPost2010PropOp33
 70
     1
102
RTVSPost2010Prop34
280
     0
102
RTVSPost2010PropOp34
 70
     1
102
RTVSPost2010Prop35
280
     0
102
RTVSPost2010PropOp35
 70
     1
102
RTVSPost2010Prop36
280
     0
102
RTVSPost2010PropOp36
 70
     1
102
RTVSPost2010Prop37
 90
       50
102
RTVSPost2010PropOp37
 70
     1
102
RTVSPost2010Prop38
140
0.0
102
RTVSPost2010PropOp38
 70
     1
102
RTVSPost2010Prop39
140
1.0
102
RTVSPost2010PropOp39
 70
     1
102
RTVSPost2010Prop40
 90
        0
102
RTVSPost2010PropOp40
 70
     1
102
RTVSPost2010Prop41ColorIndex
 90
       18
102
RTVSPost2010Prop41ColorRGB
 90
        0
102
RTVSPost2010PropOp41
 70
     1
102
RTVSPost2010Prop42
 90
       50
102
RTVSPost2010PropOp42
 70
     1
102
RTVSPost2010Prop43
 90
        3
102
RTVSPost2010PropOp43
 70
     1
102
RTVSPost2010Prop44ColorIndex
 90
        5
102
RTVSPost2010Prop44ColorRGB
 90
      255
102
RTVSPost2010PropOp44
 70
     1
102
RTVSPost2010Prop45
280
     0
102
RTVSPost2010PropOp45
 70
     1
102
RTVSPost2010Prop46
 90
       50
102
RTVSPost2010PropOp46
 70
     1
102
RTVSPost2010Prop47
 90
       50
102
RTVSPost2010PropOp47
 70
     1
102
RTVSPost2010Prop48
 90
       50
102
RTVSPost2010PropOp48
 70
     1
102
RTVSPost2010Prop49
280
     0
102
RTVSPost2010PropOp49
 70
     1
102
RTVSPost2010Prop50
 90
       50
102
RTVSPost2010PropOp50
 70
     1
102
RTVSPost2010Prop51ColorIndex
 90
      256
102
RTVSPost2010Prop51ColorRGB
 90
-16777216
102
RTVSPost2010PropOp51
 70
     0
102
RTVSPost2010Prop52
140
1.0
102
RTVSPost2010PropOp52
 70
     0
102
RTVSPost2010Prop53
 90
        2
102
RTVSPost2010PropOp53
 70
     1
102
RTVSPost2010Prop54
  1
strokes_ogs.tif
102
RTVSPost2010PropOp54
 70
     1
102
RTVSPost2010Prop55
280
     0
102
RTVSPost2010PropOp55
 70
     1
102
RTVSPost2010Prop56
140
1.0
102
RTVSPost2010PropOp56
 70
     1
102
RTVSPost2010Prop57
140
1.0
102
RTVSPost2010PropOp57
 70
     1
  0
XRECORD
  5
29D
102
{ACAD_REACTORS
330
29C
102
}
330
29C
100
AcDbXrecord
280
     1
102
RTVSPropertyOp0
 70
     0
102
RTVSPropertyOp1
 70
     0
102
RTVSPropertyOp2
 70
     0
102
RTVSPropertyOp3
 70
     0
102
RTVSPropertyOp4
 70
     0
102
RTVSPropertyOp5
 70
     0
102
RTVSPropertyOp6
 70
     0
102
RTVSPropertyOp7
 70
     0
102
RTVSPropertyOp8
 70
     0
102
RTVSPropertyOp9
 70
     0
102
RTVSPropertyOp10
 70
     0
102
RTVSPropertyOp11
 70
     0
102
RTVSPropertyOp12
 70
     0
102
RTVSPropertyOp13
 70
     0
102
RTVSPropertyOp14
 70
     2
102
RTVSPropertyOp15
 70
     0
102
RTVSPropertyOp16
 70
     0
102
RTVSPropertyOp17
 70
     0
102
RTVSPropertyOp18
 70
     0
102
RTVSPropertyOp19
 70
     0
102
RTVSPropertyOp20
 70
     0
102
RTVSPropertyOp21
 70
     0
102
RTVSPropertyOp22
 70
     0
102
RTVSPropertyOp23
 70
     0
102
RTVSPropertyOp24
 70
     0
102
RTVSPropertyOp25
 70
     0
102
RTVSPropertyOp26
 70
     0
102
RTVSPropertyOp27
 70
     0
102
RTVSPropertyOp28
 70
     0
102
RTVSPropertyOp29
 70
     0
102
RTVSPropertyOp30
 70
     0
102
RTVSPropertyOp31
 70
     0
102
RTVSPropertyOp32
 70
     0
102
RTVSPropertyOp33
 70
     0
102
RTVSPropertyOp34
 70
     0
102
RTVSPropertyOp35
 70
     0
102
RTVSPropertyOp36
 70
     0
102
RTVSPropertyOp37
 70
     0
102
RTVSPropertyOp38
 70
     0
102
RTVSPropertyOp39
 70
     0
102
RTVSPropertyOp40
 70
     0
102
RTVSPropertyOp41
 70
     0
102
RTVSPropertyOp42
 70
     0
102
RTVSPropertyOp43
 70
     0
102
RTVSPropertyOp44
 70
     0
102
RTVSPropertyOp45
 70
     0
102
RTVSPropertyOp46
 70
     0
102
RTVSPropertyOp47
 70
     0
102
RTVSPropertyOp48
 70
     0
102
RTVSPropertyOp49
 70
     0
102
RTVSPropertyOp50
 70
     0
102
RTVSPropertyOp51
 70
     0
102
RTVSPropertyOp52
 70
     0
102
RTVSPropertyOp53
 70
     0
102
RTVSPropertyOp54
 70
     0
102
RTVSPropertyOp55
 70
     0
102
RTVSPropertyOp56
 70
     0
102
RTVSPropertyOp57
 70
     0
102
RTVSPost2010Prop28
280
     0
102
RTVSPost2010PropOp28
 70
     0
102
RTVSPost2010Prop29
280
     1
102
RTVSPost2010PropOp29
 70
     0
102
RTVSPost2010Prop30
280
     1
102
RTVSPost2010PropOp30
 70
     0
102
RTVSPost2010Prop31
280
     0
102
RTVSPost2010PropOp31
 70
     0
102
RTVSPost2010Prop32
280
     0
102
RTVSPost2010PropOp32
 70
     0
102
RTVSPost2010Prop33
280
     0
102
RTVSPost2010PropOp33
 70
     0
102
RTVSPost2010Prop34
280
     0
102
RTVSPost2010PropOp34
 70
     0
102
RTVSPost2010Prop35
280
     0
102
RTVSPost2010PropOp35
 70
     0
102
RTVSPost2010Prop36
280
     0
102
RTVSPost2010PropOp36
 70
     0
102
RTVSPost2010Prop37
 90
       50
102
RTVSPost2010PropOp37
 70
     0
102
RTVSPost2010Prop38
140
0.0
102
RTVSPost2010PropOp38
 70
     0
102
RTVSPost2010Prop39
140
1.0
102
RTVSPost2010PropOp39
 70
     0
102
RTVSPost2010Prop40
 90
        0
102
RTVSPost2010PropOp40
 70
     0
102
RTVSPost2010Prop41ColorIndex
 90
       18
102
RTVSPost2010Prop41ColorRGB
 90
        0
102
RTVSPost2010PropOp41
 70
     0
102
RTVSPost2010Prop42
 90
       50
102
RTVSPost2010PropOp42
 70
     0
102
RTVSPost2010Prop43
 90
        3
102
RTVSPost2010PropOp43
 70
     0
102
RTVSPost2010Prop44ColorIndex
 90
        5
102
RTVSPost2010Prop44ColorRGB
 90
      255
102
RTVSPost2010PropOp44
 70
     0
102
RTVSPost2010Prop45
280
     0
102
RTVSPost2010PropOp45
 70
     0
102
RTVSPost2010Prop46
 90
       50
102
RTVSPost2010PropOp46
 70
     0
102
RTVSPost2010Prop47
 90
       50
102
RTVSPost2010PropOp47
 70
     0
102
RTVSPost2010Prop48
 90
       50
102
RTVSPost2010PropOp48
 70
     0
102
RTVSPost2010Prop49
280
     0
102
RTVSPost2010PropOp49
 70
     0
102
RTVSPost2010Prop50
 90
       50
102
RTVSPost2010PropOp50
 70
     0
102
RTVSPost2010Prop51ColorIndex
 90
      256
102
RTVSPost2010Prop51ColorRGB
 90
-16777216
102
RTVSPost2010PropOp51
 70
     0
102
RTVSPost2010Prop52
140
1.0
102
RTVSPost2010PropOp52
 70
     0
102
RTVSPost2010Prop53
 90
        2
102
RTVSPost2010PropOp53
 70
     0
102
RTVSPost2010Prop54
  1
strokes_ogs.tif
102
RTVSPost2010PropOp54
 70
     0
102
RTVSPost2010Prop55
280
     0
102
RTVSPost2010PropOp55
 70
     0
102
RTVSPost2010Prop56
140
1.0
102
RTVSPost2010PropOp56
 70
     0
102
RTVSPost2010Prop57
140
1.0
102
RTVSPost2010PropOp57
 70
     0
  0
XRECORD
  5
295
102
{ACAD_REACTORS
330
294
102
}
330
294
100
AcDbXrecord
280
     1
102
RTVSPropertyOp0
 70
     1
102
RTVSPropertyOp1
 70
     1
102
RTVSPropertyOp2
 70
     1
102
RTVSPropertyOp3
 70
     1
102
RTVSPropertyOp4
 70
     1
102
RTVSPropertyOp5
 70
     1
102
RTVSPropertyOp6
 70
     1
102
RTVSPropertyOp7
 70
     1
102
RTVSPropertyOp8
 70
     1
102
RTVSPropertyOp9
 70
     1
102
RTVSPropertyOp10
 70
     1
102
RTVSPropertyOp11
 70
     1
102
RTVSPropertyOp12
 70
     1
102
RTVSPropertyOp13
 70
     1
102
RTVSPropertyOp14
 70
     1
102
RTVSPropertyOp15
 70
     1
102
RTVSPropertyOp16
 70
     1
102
RTVSPropertyOp17
 70
     1
102
RTVSPropertyOp18
 70
     1
102
RTVSPropertyOp19
 70
     1
102
RTVSPropertyOp20
 70
     1
102
RTVSPropertyOp21
 70
     1
102
RTVSPropertyOp22
 70
     1
102
RTVSPropertyOp23
 70
     1
102
RTVSPropertyOp24
 70
     1
102
RTVSPropertyOp25
 70
     1
102
RTVSPropertyOp26
 70
     1
102
RTVSPropertyOp27
 70
     1
102
RTVSPropertyOp28
 70
     1
102
RTVSPropertyOp29
 70
     1
102
RTVSPropertyOp30
 70
     1
102
RTVSPropertyOp31
 70
     1
102
RTVSPropertyOp32
 70
     1
102
RTVSPropertyOp33
 70
     1
102
RTVSPropertyOp34
 70
     1
102
RTVSPropertyOp35
 70
     1
102
RTVSPropertyOp36
 70
     1
102
RTVSPropertyOp37
 70
     1
102
RTVSPropertyOp38
 70
     1
102
RTVSPropertyOp39
 70
     1
102
RTVSPropertyOp40
 70
     1
102
RTVSPropertyOp41
 70
     1
102
RTVSPropertyOp42
 70
     1
102
RTVSPropertyOp43
 70
     1
102
RTVSPropertyOp44
 70
     1
102
RTVSPropertyOp45
 70
     1
102
RTVSPropertyOp46
 70
     1
102
RTVSPropertyOp47
 70
     1
102
RTVSPropertyOp48
 70
     1
102
RTVSPropertyOp49
 70
     1
102
RTVSPropertyOp50
 70
     1
102
RTVSPropertyOp51
 70
     0
102
RTVSPropertyOp52
 70
     0
102
RTVSPropertyOp53
 70
     1
102
RTVSPropertyOp54
 70
     1
102
RTVSPropertyOp55
 70
     1
102
RTVSPropertyOp56
 70
     1
102
RTVSPropertyOp57
 70
     1
102
RTVSPost2010Prop28
280
     0
102
RTVSPost2010PropOp28
 70
     1
102
RTVSPost2010Prop29
280
     1
102
RTVSPost2010PropOp29
 70
     1
102
RTVSPost2010Prop30
280
     1
102
RTVSPost2010PropOp30
 70
     1
102
RTVSPost2010Prop31
280
     0
102
RTVSPost2010PropOp31
 70
     1
102
RTVSPost2010Prop32
280
     0
102
RTVSPost2010PropOp32
 70
     1
102
RTVSPost2010Prop33
280
     0
102
RTVSPost2010PropOp33
 70
     1
102
RTVSPost2010Prop34
280
     0
102
RTVSPost2010PropOp34
 70
     1
102
RTVSPost2010Prop35
280
     0
102
RTVSPost2010PropOp35
 70
     1
102
RTVSPost2010Prop36
280
     0
102
RTVSPost2010PropOp36
 70
     1
102
RTVSPost2010Prop37
 90
       50
102
RTVSPost2010PropOp37
 70
     1
102
RTVSPost2010Prop38
140
0.0
102
RTVSPost2010PropOp38
 70
     1
102
RTVSPost2010Prop39
140
1.0
102
RTVSPost2010PropOp39
 70
     1
102
RTVSPost2010Prop40
 90
        0
102
RTVSPost2010PropOp40
 70
     1
102
RTVSPost2010Prop41ColorIndex
 90
       18
102
RTVSPost2010Prop41ColorRGB
 90
        0
102
RTVSPost2010PropOp41
 70
     1
102
RTVSPost2010Prop42
 90
       50
102
RTVSPost2010PropOp42
 70
     1
102
RTVSPost2010Prop43
 90
        3
102
RTVSPost2010PropOp43
 70
     1
102
RTVSPost2010Prop44ColorIndex
 90
        5
102
RTVSPost2010Prop44ColorRGB
 90
      255
102
RTVSPost2010PropOp44
 70
     1
102
RTVSPost2010Prop45
280
     0
102
RTVSPost2010PropOp45
 70
     1
102
RTVSPost2010Prop46
 90
       50
102
RTVSPost2010PropOp46
 70
     1
102
RTVSPost2010Prop47
 90
       50
102
RTVSPost2010PropOp47
 70
     1
102
RTVSPost2010Prop48
 90
       50
102
RTVSPost2010PropOp48
 70
     1
102
RTVSPost2010Prop49
280
     0
102
RTVSPost2010PropOp49
 70
     1
102
RTVSPost2010Prop50
 90
       50
102
RTVSPost2010PropOp50
 70
     1
102
RTVSPost2010Prop51ColorIndex
 90
      256
102
RTVSPost2010Prop51ColorRGB
 90
-16777216
102
RTVSPost2010PropOp51
 70
     0
102
RTVSPost2010Prop52
140
1.0
102
RTVSPost2010PropOp52
 70
     0
102
RTVSPost2010Prop53
 90
        2
102
RTVSPost2010PropOp53
 70
     1
102
RTVSPost2010Prop54
  1
strokes_ogs.tif
102
RTVSPost2010PropOp54
 70
     1
102
RTVSPost2010Prop55
280
     0
102
RTVSPost2010PropOp55
 70
     1
102
RTVSPost2010Prop56
140
1.0
102
RTVSPost2010PropOp56
 70
     1
102
RTVSPost2010Prop57
140
1.0
102
RTVSPost2010PropOp57
 70
     1
  0
XRECORD
  5
279
102
{ACAD_REACTORS
330
278
102
}
330
278
100
AcDbXrecord
280
     1
102
RTVSPropertyOp0
 70
     1
102
RTVSPropertyOp1
 70
     1
102
RTVSPropertyOp2
 70
     1
102
RTVSPropertyOp3
 70
     1
102
RTVSPropertyOp4
 70
     1
102
RTVSPropertyOp5
 70
     1
102
RTVSPropertyOp6
 70
     1
102
RTVSPropertyOp7
 70
     1
102
RTVSPropertyOp8
 70
     1
102
RTVSPropertyOp9
 70
     1
102
RTVSPropertyOp10
 70
     1
102
RTVSPropertyOp11
 70
     1
102
RTVSPropertyOp12
 70
     1
102
RTVSPropertyOp13
 70
     1
102
RTVSPropertyOp14
 70
     1
102
RTVSPropertyOp15
 70
     1
102
RTVSPropertyOp16
 70
     1
102
RTVSPropertyOp17
 70
     1
102
RTVSPropertyOp18
 70
     1
102
RTVSPropertyOp19
 70
     1
102
RTVSPropertyOp20
 70
     1
102
RTVSPropertyOp21
 70
     1
102
RTVSPropertyOp22
 70
     1
102
RTVSPropertyOp23
 70
     1
102
RTVSPropertyOp24
 70
     1
102
RTVSPropertyOp25
 70
     1
102
RTVSPropertyOp26
 70
     1
102
RTVSPropertyOp27
 70
     1
102
RTVSPropertyOp28
 70
     1
102
RTVSPropertyOp29
 70
     1
102
RTVSPropertyOp30
 70
     1
102
RTVSPropertyOp31
 70
     1
102
RTVSPropertyOp32
 70
     1
102
RTVSPropertyOp33
 70
     1
102
RTVSPropertyOp34
 70
     1
102
RTVSPropertyOp35
 70
     1
102
RTVSPropertyOp36
 70
     1
102
RTVSPropertyOp37
 70
     1
102
RTVSPropertyOp38
 70
     1
102
RTVSPropertyOp39
 70
     1
102
RTVSPropertyOp40
 70
     1
102
RTVSPropertyOp41
 70
     1
102
RTVSPropertyOp42
 70
     1
102
RTVSPropertyOp43
 70
     1
102
RTVSPropertyOp44
 70
     1
102
RTVSPropertyOp45
 70
     1
102
RTVSPropertyOp46
 70
     1
102
RTVSPropertyOp47
 70
     1
102
RTVSPropertyOp48
 70
     1
102
RTVSPropertyOp49
 70
     1
102
RTVSPropertyOp50
 70
     1
102
RTVSPropertyOp51
 70
     0
102
RTVSPropertyOp52
 70
     0
102
RTVSPropertyOp53
 70
     1
102
RTVSPropertyOp54
 70
     1
102
RTVSPropertyOp55
 70
     1
102
RTVSPropertyOp56
 70
     1
102
RTVSPropertyOp57
 70
     1
102
RTVSPost2010Prop28
280
     0
102
RTVSPost2010PropOp28
 70
     1
102
RTVSPost2010Prop29
280
     1
102
RTVSPost2010PropOp29
 70
     1
102
RTVSPost2010Prop30
280
     1
102
RTVSPost2010PropOp30
 70
     1
102
RTVSPost2010Prop31
280
     0
102
RTVSPost2010PropOp31
 70
     1
102
RTVSPost2010Prop32
280
     0
102
RTVSPost2010PropOp32
 70
     1
102
RTVSPost2010Prop33
280
     0
102
RTVSPost2010PropOp33
 70
     1
102
RTVSPost2010Prop34
280
     0
102
RTVSPost2010PropOp34
 70
     1
102
RTVSPost2010Prop35
280
     0
102
RTVSPost2010PropOp35
 70
     1
102
RTVSPost2010Prop36
280
     0
102
RTVSPost2010PropOp36
 70
     1
102
RTVSPost2010Prop37
 90
       50
102
RTVSPost2010PropOp37
 70
     1
102
RTVSPost2010Prop38
140
0.0
102
RTVSPost2010PropOp38
 70
     1
102
RTVSPost2010Prop39
140
1.0
102
RTVSPost2010PropOp39
 70
     1
102
RTVSPost2010Prop40
 90
        0
102
RTVSPost2010PropOp40
 70
     1
102
RTVSPost2010Prop41ColorIndex
 90
       18
102
RTVSPost2010Prop41ColorRGB
 90
        0
102
RTVSPost2010PropOp41
 70
     1
102
RTVSPost2010Prop42
 90
       50
102
RTVSPost2010PropOp42
 70
     1
102
RTVSPost2010Prop43
 90
        3
102
RTVSPost2010PropOp43
 70
     1
102
RTVSPost2010Prop44ColorIndex
 90
        5
102
RTVSPost2010Prop44ColorRGB
 90
      255
102
RTVSPost2010PropOp44
 70
     1
102
RTVSPost2010Prop45
280
     0
102
RTVSPost2010PropOp45
 70
     1
102
RTVSPost2010Prop46
 90
       50
102
RTVSPost2010PropOp46
 70
     1
102
RTVSPost2010Prop47
 90
       50
102
RTVSPost2010PropOp47
 70
     1
102
RTVSPost2010Prop48
 90
       50
102
RTVSPost2010PropOp48
 70
     1
102
RTVSPost2010Prop49
280
     0
102
RTVSPost2010PropOp49
 70
     1
102
RTVSPost2010Prop50
 90
       50
102
RTVSPost2010PropOp50
 70
     1
102
RTVSPost2010Prop51ColorIndex
 90
      256
102
RTVSPost2010Prop51ColorRGB
 90
-16777216
102
RTVSPost2010PropOp51
 70
     0
102
RTVSPost2010Prop52
140
1.0
102
RTVSPost2010PropOp52
 70
     0
102
RTVSPost2010Prop53
 90
        2
102
RTVSPost2010PropOp53
 70
     1
102
RTVSPost2010Prop54
  1
strokes_ogs.tif
102
RTVSPost2010PropOp54
 70
     1
102
RTVSPost2010Prop55
280
     0
102
RTVSPost2010PropOp55
 70
     1
102
RTVSPost2010Prop56
140
1.0
102
RTVSPost2010PropOp56
 70
     1
102
RTVSPost2010Prop57
140
1.0
102
RTVSPost2010PropOp57
 70
     1
  0
XRECORD
  5
27B
102
{ACAD_REACTORS
330
27A
102
}
330
27A
100
AcDbXrecord
280
     1
102
RTVSPropertyOp0
 70
     1
102
RTVSPropertyOp1
 70
     1
102
RTVSPropertyOp2
 70
     1
102
RTVSPropertyOp3
 70
     1
102
RTVSPropertyOp4
 70
     1
102
RTVSPropertyOp5
 70
     1
102
RTVSPropertyOp6
 70
     1
102
RTVSPropertyOp7
 70
     1
102
RTVSPropertyOp8
 70
     1
102
RTVSPropertyOp9
 70
     1
102
RTVSPropertyOp10
 70
     1
102
RTVSPropertyOp11
 70
     1
102
RTVSPropertyOp12
 70
     1
102
RTVSPropertyOp13
 70
     1
102
RTVSPropertyOp14
 70
     1
102
RTVSPropertyOp15
 70
     1
102
RTVSPropertyOp16
 70
     1
102
RTVSPropertyOp17
 70
     1
102
RTVSPropertyOp18
 70
     1
102
RTVSPropertyOp19
 70
     1
102
RTVSPropertyOp20
 70
     1
102
RTVSPropertyOp21
 70
     1
102
RTVSPropertyOp22
 70
     1
102
RTVSPropertyOp23
 70
     1
102
RTVSPropertyOp24
 70
     1
102
RTVSPropertyOp25
 70
     1
102
RTVSPropertyOp26
 70
     1
102
RTVSPropertyOp27
 70
     1
102
RTVSPropertyOp28
 70
     1
102
RTVSPropertyOp29
 70
     1
102
RTVSPropertyOp30
 70
     1
102
RTVSPropertyOp31
 70
     1
102
RTVSPropertyOp32
 70
     1
102
RTVSPropertyOp33
 70
     1
102
RTVSPropertyOp34
 70
     1
102
RTVSPropertyOp35
 70
     1
102
RTVSPropertyOp36
 70
     1
102
RTVSPropertyOp37
 70
     1
102
RTVSPropertyOp38
 70
     1
102
RTVSPropertyOp39
 70
     1
102
RTVSPropertyOp40
 70
     1
102
RTVSPropertyOp41
 70
     1
102
RTVSPropertyOp42
 70
     1
102
RTVSPropertyOp43
 70
     1
102
RTVSPropertyOp44
 70
     1
102
RTVSPropertyOp45
 70
     1
102
RTVSPropertyOp46
 70
     1
102
RTVSPropertyOp47
 70
     1
102
RTVSPropertyOp48
 70
     1
102
RTVSPropertyOp49
 70
     1
102
RTVSPropertyOp50
 70
     1
102
RTVSPropertyOp51
 70
     0
102
RTVSPropertyOp52
 70
     0
102
RTVSPropertyOp53
 70
     1
102
RTVSPropertyOp54
 70
     1
102
RTVSPropertyOp55
 70
     1
102
RTVSPropertyOp56
 70
     1
102
RTVSPropertyOp57
 70
     1
102
RTVSPost2010Prop28
280
     0
102
RTVSPost2010PropOp28
 70
     1
102
RTVSPost2010Prop29
280
     1
102
RTVSPost2010PropOp29
 70
     1
102
RTVSPost2010Prop30
280
     1
102
RTVSPost2010PropOp30
 70
     1
102
RTVSPost2010Prop31
280
     0
102
RTVSPost2010PropOp31
 70
     1
102
RTVSPost2010Prop32
280
     0
102
RTVSPost2010PropOp32
 70
     1
102
RTVSPost2010Prop33
280
     0
102
RTVSPost2010PropOp33
 70
     1
102
RTVSPost2010Prop34
280
     0
102
RTVSPost2010PropOp34
 70
     1
102
RTVSPost2010Prop35
280
     0
102
RTVSPost2010PropOp35
 70
     1
102
RTVSPost2010Prop36
280
     0
102
RTVSPost2010PropOp36
 70
     1
102
RTVSPost2010Prop37
 90
       50
102
RTVSPost2010PropOp37
 70
     1
102
RTVSPost2010Prop38
140
0.0
102
RTVSPost2010PropOp38
 70
     1
102
RTVSPost2010Prop39
140
1.0
102
RTVSPost2010PropOp39
 70
     1
102
RTVSPost2010Prop40
 90
        0
102
RTVSPost2010PropOp40
 70
     1
102
RTVSPost2010Prop41ColorIndex
 90
       18
102
RTVSPost2010Prop41ColorRGB
 90
        0
102
RTVSPost2010PropOp41
 70
     1
102
RTVSPost2010Prop42
 90
       50
102
RTVSPost2010PropOp42
 70
     1
102
RTVSPost2010Prop43
 90
        3
102
RTVSPost2010PropOp43
 70
     1
102
RTVSPost2010Prop44ColorIndex
 90
        5
102
RTVSPost2010Prop44ColorRGB
 90
      255
102
RTVSPost2010PropOp44
 70
     1
102
RTVSPost2010Prop45
280
     0
102
RTVSPost2010PropOp45
 70
     1
102
RTVSPost2010Prop46
 90
       50
102
RTVSPost2010PropOp46
 70
     1
102
RTVSPost2010Prop47
 90
       50
102
RTVSPost2010PropOp47
 70
     1
102
RTVSPost2010Prop48
 90
       50
102
RTVSPost2010PropOp48
 70
     1
102
RTVSPost2010Prop49
280
     0
102
RTVSPost2010PropOp49
 70
     1
102
RTVSPost2010Prop50
 90
       50
102
RTVSPost2010PropOp50
 70
     1
102
RTVSPost2010Prop51ColorIndex
 90
      256
102
RTVSPost2010Prop51ColorRGB
 90
-16777216
102
RTVSPost2010PropOp51
 70
     0
102
RTVSPost2010Prop52
140
1.0
102
RTVSPost2010PropOp52
 70
     0
102
RTVSPost2010Prop53
 90
        2
102
RTVSPost2010PropOp53
 70
     1
102
RTVSPost2010Prop54
  1
strokes_ogs.tif
102
RTVSPost2010PropOp54
 70
     1
102
RTVSPost2010Prop55
280
     0
102
RTVSPost2010PropOp55
 70
     1
102
RTVSPost2010Prop56
140
1.0
102
RTVSPost2010PropOp56
 70
     1
102
RTVSPost2010Prop57
140
1.0
102
RTVSPost2010PropOp57
 70
     1
  0
XRECORD
  5
27D
102
{ACAD_REACTORS
330
27C
102
}
330
27C
100
AcDbXrecord
280
     1
102
RTVSPropertyOp0
 70
     1
102
RTVSPropertyOp1
 70
     1
102
RTVSPropertyOp2
 70
     1
102
RTVSPropertyOp3
 70
     1
102
RTVSPropertyOp4
 70
     1
102
RTVSPropertyOp5
 70
     1
102
RTVSPropertyOp6
 70
     1
102
RTVSPropertyOp7
 70
     1
102
RTVSPropertyOp8
 70
     1
102
RTVSPropertyOp9
 70
     1
102
RTVSPropertyOp10
 70
     1
102
RTVSPropertyOp11
 70
     1
102
RTVSPropertyOp12
 70
     1
102
RTVSPropertyOp13
 70
     1
102
RTVSPropertyOp14
 70
     1
102
RTVSPropertyOp15
 70
     1
102
RTVSPropertyOp16
 70
     1
102
RTVSPropertyOp17
 70
     1
102
RTVSPropertyOp18
 70
     1
102
RTVSPropertyOp19
 70
     1
102
RTVSPropertyOp20
 70
     1
102
RTVSPropertyOp21
 70
     1
102
RTVSPropertyOp22
 70
     1
102
RTVSPropertyOp23
 70
     1
102
RTVSPropertyOp24
 70
     1
102
RTVSPropertyOp25
 70
     1
102
RTVSPropertyOp26
 70
     1
102
RTVSPropertyOp27
 70
     1
102
RTVSPropertyOp28
 70
     1
102
RTVSPropertyOp29
 70
     1
102
RTVSPropertyOp30
 70
     1
102
RTVSPropertyOp31
 70
     1
102
RTVSPropertyOp32
 70
     1
102
RTVSPropertyOp33
 70
     1
102
RTVSPropertyOp34
 70
     1
102
RTVSPropertyOp35
 70
     1
102
RTVSPropertyOp36
 70
     1
102
RTVSPropertyOp37
 70
     1
102
RTVSPropertyOp38
 70
     1
102
RTVSPropertyOp39
 70
     1
102
RTVSPropertyOp40
 70
     1
102
RTVSPropertyOp41
 70
     1
102
RTVSPropertyOp42
 70
     1
102
RTVSPropertyOp43
 70
     1
102
RTVSPropertyOp44
 70
     1
102
RTVSPropertyOp45
 70
     1
102
RTVSPropertyOp46
 70
     1
102
RTVSPropertyOp47
 70
     1
102
RTVSPropertyOp48
 70
     1
102
RTVSPropertyOp49
 70
     1
102
RTVSPropertyOp50
 70
     1
102
RTVSPropertyOp51
 70
     0
102
RTVSPropertyOp52
 70
     0
102
RTVSPropertyOp53
 70
     1
102
RTVSPropertyOp54
 70
     1
102
RTVSPropertyOp55
 70
     1
102
RTVSPropertyOp56
 70
     1
102
RTVSPropertyOp57
 70
     1
102
RTVSPost2010Prop28
280
     0
102
RTVSPost2010PropOp28
 70
     1
102
RTVSPost2010Prop29
280
     1
102
RTVSPost2010PropOp29
 70
     1
102
RTVSPost2010Prop30
280
     1
102
RTVSPost2010PropOp30
 70
     1
102
RTVSPost2010Prop31
280
     0
102
RTVSPost2010PropOp31
 70
     1
102
RTVSPost2010Prop32
280
     0
102
RTVSPost2010PropOp32
 70
     1
102
RTVSPost2010Prop33
280
     0
102
RTVSPost2010PropOp33
 70
     1
102
RTVSPost2010Prop34
280
     0
102
RTVSPost2010PropOp34
 70
     1
102
RTVSPost2010Prop35
280
     0
102
RTVSPost2010PropOp35
 70
     1
102
RTVSPost2010Prop36
280
     0
102
RTVSPost2010PropOp36
 70
     1
102
RTVSPost2010Prop37
 90
       50
102
RTVSPost2010PropOp37
 70
     1
102
RTVSPost2010Prop38
140
0.0
102
RTVSPost2010PropOp38
 70
     1
102
RTVSPost2010Prop39
140
1.0
102
RTVSPost2010PropOp39
 70
     1
102
RTVSPost2010Prop40
 90
        0
102
RTVSPost2010PropOp40
 70
     1
102
RTVSPost2010Prop41ColorIndex
 90
       18
102
RTVSPost2010Prop41ColorRGB
 90
        0
102
RTVSPost2010PropOp41
 70
     1
102
RTVSPost2010Prop42
 90
       50
102
RTVSPost2010PropOp42
 70
     1
102
RTVSPost2010Prop43
 90
        3
102
RTVSPost2010PropOp43
 70
     1
102
RTVSPost2010Prop44ColorIndex
 90
        5
102
RTVSPost2010Prop44ColorRGB
 90
      255
102
RTVSPost2010PropOp44
 70
     1
102
RTVSPost2010Prop45
280
     0
102
RTVSPost2010PropOp45
 70
     1
102
RTVSPost2010Prop46
 90
       50
102
RTVSPost2010PropOp46
 70
     1
102
RTVSPost2010Prop47
 90
       50
102
RTVSPost2010PropOp47
 70
     1
102
RTVSPost2010Prop48
 90
       50
102
RTVSPost2010PropOp48
 70
     1
102
RTVSPost2010Prop49
280
     0
102
RTVSPost2010PropOp49
 70
     1
102
RTVSPost2010Prop50
 90
       50
102
RTVSPost2010PropOp50
 70
     1
102
RTVSPost2010Prop51ColorIndex
 90
      256
102
RTVSPost2010Prop51ColorRGB
 90
-16777216
102
RTVSPost2010PropOp51
 70
     0
102
RTVSPost2010Prop52
140
1.0
102
RTVSPost2010PropOp52
 70
     0
102
RTVSPost2010Prop53
 90
        2
102
RTVSPost2010PropOp53
 70
     1
102
RTVSPost2010Prop54
  1
strokes_ogs.tif
102
RTVSPost2010PropOp54
 70
     1
102
RTVSPost2010Prop55
280
     0
102
RTVSPost2010PropOp55
 70
     1
102
RTVSPost2010Prop56
140
1.0
102
RTVSPost2010PropOp56
 70
     1
102
RTVSPost2010Prop57
140
1.0
102
RTVSPost2010PropOp57
 70
     1
  0
XRECORD
  5
27F
102
{ACAD_REACTORS
330
27E
102
}
330
27E
100
AcDbXrecord
280
     1
102
RTVSPropertyOp0
 70
     1
102
RTVSPropertyOp1
 70
     1
102
RTVSPropertyOp2
 70
     1
102
RTVSPropertyOp3
 70
     1
102
RTVSPropertyOp4
 70
     1
102
RTVSPropertyOp5
 70
     1
102
RTVSPropertyOp6
 70
     1
102
RTVSPropertyOp7
 70
     1
102
RTVSPropertyOp8
 70
     1
102
RTVSPropertyOp9
 70
     1
102
RTVSPropertyOp10
 70
     1
102
RTVSPropertyOp11
 70
     1
102
RTVSPropertyOp12
 70
     1
102
RTVSPropertyOp13
 70
     1
102
RTVSPropertyOp14
 70
     1
102
RTVSPropertyOp15
 70
     1
102
RTVSPropertyOp16
 70
     1
102
RTVSPropertyOp17
 70
     1
102
RTVSPropertyOp18
 70
     1
102
RTVSPropertyOp19
 70
     1
102
RTVSPropertyOp20
 70
     1
102
RTVSPropertyOp21
 70
     1
102
RTVSPropertyOp22
 70
     1
102
RTVSPropertyOp23
 70
     1
102
RTVSPropertyOp24
 70
     1
102
RTVSPropertyOp25
 70
     1
102
RTVSPropertyOp26
 70
     1
102
RTVSPropertyOp27
 70
     1
102
RTVSPropertyOp28
 70
     1
102
RTVSPropertyOp29
 70
     1
102
RTVSPropertyOp30
 70
     1
102
RTVSPropertyOp31
 70
     1
102
RTVSPropertyOp32
 70
     1
102
RTVSPropertyOp33
 70
     1
102
RTVSPropertyOp34
 70
     1
102
RTVSPropertyOp35
 70
     1
102
RTVSPropertyOp36
 70
     1
102
RTVSPropertyOp37
 70
     1
102
RTVSPropertyOp38
 70
     1
102
RTVSPropertyOp39
 70
     1
102
RTVSPropertyOp40
 70
     1
102
RTVSPropertyOp41
 70
     1
102
RTVSPropertyOp42
 70
     1
102
RTVSPropertyOp43
 70
     1
102
RTVSPropertyOp44
 70
     1
102
RTVSPropertyOp45
 70
     1
102
RTVSPropertyOp46
 70
     1
102
RTVSPropertyOp47
 70
     1
102
RTVSPropertyOp48
 70
     1
102
RTVSPropertyOp49
 70
     1
102
RTVSPropertyOp50
 70
     1
102
RTVSPropertyOp51
 70
     0
102
RTVSPropertyOp52
 70
     0
102
RTVSPropertyOp53
 70
     1
102
RTVSPropertyOp54
 70
     1
102
RTVSPropertyOp55
 70
     1
102
RTVSPropertyOp56
 70
     1
102
RTVSPropertyOp57
 70
     1
102
RTVSPost2010Prop28
280
     0
102
RTVSPost2010PropOp28
 70
     1
102
RTVSPost2010Prop29
280
     1
102
RTVSPost2010PropOp29
 70
     1
102
RTVSPost2010Prop30
280
     1
102
RTVSPost2010PropOp30
 70
     1
102
RTVSPost2010Prop31
280
     0
102
RTVSPost2010PropOp31
 70
     1
102
RTVSPost2010Prop32
280
     0
102
RTVSPost2010PropOp32
 70
     1
102
RTVSPost2010Prop33
280
     0
102
RTVSPost2010PropOp33
 70
     1
102
RTVSPost2010Prop34
280
     0
102
RTVSPost2010PropOp34
 70
     1
102
RTVSPost2010Prop35
280
     0
102
RTVSPost2010PropOp35
 70
     1
102
RTVSPost2010Prop36
280
     0
102
RTVSPost2010PropOp36
 70
     1
102
RTVSPost2010Prop37
 90
       50
102
RTVSPost2010PropOp37
 70
     1
102
RTVSPost2010Prop38
140
0.0
102
RTVSPost2010PropOp38
 70
     1
102
RTVSPost2010Prop39
140
1.0
102
RTVSPost2010PropOp39
 70
     1
102
RTVSPost2010Prop40
 90
        0
102
RTVSPost2010PropOp40
 70
     1
102
RTVSPost2010Prop41ColorIndex
 90
       18
102
RTVSPost2010Prop41ColorRGB
 90
        0
102
RTVSPost2010PropOp41
 70
     1
102
RTVSPost2010Prop42
 90
       50
102
RTVSPost2010PropOp42
 70
     1
102
RTVSPost2010Prop43
 90
        3
102
RTVSPost2010PropOp43
 70
     1
102
RTVSPost2010Prop44ColorIndex
 90
        5
102
RTVSPost2010Prop44ColorRGB
 90
      255
102
RTVSPost2010PropOp44
 70
     1
102
RTVSPost2010Prop45
280
     0
102
RTVSPost2010PropOp45
 70
     1
102
RTVSPost2010Prop46
 90
       50
102
RTVSPost2010PropOp46
 70
     1
102
RTVSPost2010Prop47
 90
       50
102
RTVSPost2010PropOp47
 70
     1
102
RTVSPost2010Prop48
 90
       50
102
RTVSPost2010PropOp48
 70
     1
102
RTVSPost2010Prop49
280
     0
102
RTVSPost2010PropOp49
 70
     1
102
RTVSPost2010Prop50
 90
       50
102
RTVSPost2010PropOp50
 70
     1
102
RTVSPost2010Prop51ColorIndex
 90
      256
102
RTVSPost2010Prop51ColorRGB
 90
-16777216
102
RTVSPost2010PropOp51
 70
     0
102
RTVSPost2010Prop52
140
1.0
102
RTVSPost2010PropOp52
 70
     0
102
RTVSPost2010Prop53
 90
        2
102
RTVSPost2010PropOp53
 70
     1
102
RTVSPost2010Prop54
  1
strokes_ogs.tif
102
RTVSPost2010PropOp54
 70
     1
102
RTVSPost2010Prop55
280
     0
102
RTVSPost2010PropOp55
 70
     1
102
RTVSPost2010Prop56
140
1.0
102
RTVSPost2010PropOp56
 70
     1
102
RTVSPost2010Prop57
140
1.0
102
RTVSPost2010PropOp57
 70
     1
  0
XRECORD
  5
285
102
{ACAD_REACTORS
330
284
102
}
330
284
100
AcDbXrecord
280
     1
102
RTVSPropertyOp0
 70
     1
102
RTVSPropertyOp1
 70
     1
102
RTVSPropertyOp2
 70
     1
102
RTVSPropertyOp3
 70
     1
102
RTVSPropertyOp4
 70
     1
102
RTVSPropertyOp5
 70
     1
102
RTVSPropertyOp6
 70
     1
102
RTVSPropertyOp7
 70
     1
102
RTVSPropertyOp8
 70
     1
102
RTVSPropertyOp9
 70
     1
102
RTVSPropertyOp10
 70
     1
102
RTVSPropertyOp11
 70
     1
102
RTVSPropertyOp12
 70
     1
102
RTVSPropertyOp13
 70
     1
102
RTVSPropertyOp14
 70
     1
102
RTVSPropertyOp15
 70
     1
102
RTVSPropertyOp16
 70
     1
102
RTVSPropertyOp17
 70
     1
102
RTVSPropertyOp18
 70
     1
102
RTVSPropertyOp19
 70
     1
102
RTVSPropertyOp20
 70
     1
102
RTVSPropertyOp21
 70
     1
102
RTVSPropertyOp22
 70
     1
102
RTVSPropertyOp23
 70
     1
102
RTVSPropertyOp24
 70
     1
102
RTVSPropertyOp25
 70
     1
102
RTVSPropertyOp26
 70
     1
102
RTVSPropertyOp27
 70
     1
102
RTVSPropertyOp28
 70
     1
102
RTVSPropertyOp29
 70
     1
102
RTVSPropertyOp30
 70
     1
102
RTVSPropertyOp31
 70
     1
102
RTVSPropertyOp32
 70
     1
102
RTVSPropertyOp33
 70
     1
102
RTVSPropertyOp34
 70
     1
102
RTVSPropertyOp35
 70
     1
102
RTVSPropertyOp36
 70
     1
102
RTVSPropertyOp37
 70
     1
102
RTVSPropertyOp38
 70
     1
102
RTVSPropertyOp39
 70
     1
102
RTVSPropertyOp40
 70
     1
102
RTVSPropertyOp41
 70
     1
102
RTVSPropertyOp42
 70
     1
102
RTVSPropertyOp43
 70
     1
102
RTVSPropertyOp44
 70
     1
102
RTVSPropertyOp45
 70
     1
102
RTVSPropertyOp46
 70
     1
102
RTVSPropertyOp47
 70
     1
102
RTVSPropertyOp48
 70
     1
102
RTVSPropertyOp49
 70
     1
102
RTVSPropertyOp50
 70
     1
102
RTVSPropertyOp51
 70
     0
102
RTVSPropertyOp52
 70
     0
102
RTVSPropertyOp53
 70
     1
102
RTVSPropertyOp54
 70
     1
102
RTVSPropertyOp55
 70
     1
102
RTVSPropertyOp56
 70
     1
102
RTVSPropertyOp57
 70
     1
102
RTVSPost2010Prop28
280
     0
102
RTVSPost2010PropOp28
 70
     1
102
RTVSPost2010Prop29
280
     1
102
RTVSPost2010PropOp29
 70
     1
102
RTVSPost2010Prop30
280
     1
102
RTVSPost2010PropOp30
 70
     1
102
RTVSPost2010Prop31
280
     0
102
RTVSPost2010PropOp31
 70
     1
102
RTVSPost2010Prop32
280
     0
102
RTVSPost2010PropOp32
 70
     1
102
RTVSPost2010Prop33
280
     0
102
RTVSPost2010PropOp33
 70
     1
102
RTVSPost2010Prop34
280
     0
102
RTVSPost2010PropOp34
 70
     1
102
RTVSPost2010Prop35
280
     0
102
RTVSPost2010PropOp35
 70
     1
102
RTVSPost2010Prop36
280
     0
102
RTVSPost2010PropOp36
 70
     1
102
RTVSPost2010Prop37
 90
       50
102
RTVSPost2010PropOp37
 70
     1
102
RTVSPost2010Prop38
140
0.0
102
RTVSPost2010PropOp38
 70
     1
102
RTVSPost2010Prop39
140
1.0
102
RTVSPost2010PropOp39
 70
     1
102
RTVSPost2010Prop40
 90
        0
102
RTVSPost2010PropOp40
 70
     1
102
RTVSPost2010Prop41ColorIndex
 90
       18
102
RTVSPost2010Prop41ColorRGB
 90
        0
102
RTVSPost2010PropOp41
 70
     1
102
RTVSPost2010Prop42
 90
       50
102
RTVSPost2010PropOp42
 70
     1
102
RTVSPost2010Prop43
 90
        3
102
RTVSPost2010PropOp43
 70
     1
102
RTVSPost2010Prop44ColorIndex
 90
        5
102
RTVSPost2010Prop44ColorRGB
 90
      255
102
RTVSPost2010PropOp44
 70
     1
102
RTVSPost2010Prop45
280
     0
102
RTVSPost2010PropOp45
 70
     1
102
RTVSPost2010Prop46
 90
       50
102
RTVSPost2010PropOp46
 70
     1
102
RTVSPost2010Prop47
 90
       50
102
RTVSPost2010PropOp47
 70
     1
102
RTVSPost2010Prop48
 90
       50
102
RTVSPost2010PropOp48
 70
     1
102
RTVSPost2010Prop49
280
     0
102
RTVSPost2010PropOp49
 70
     1
102
RTVSPost2010Prop50
 90
       50
102
RTVSPost2010PropOp50
 70
     1
102
RTVSPost2010Prop51ColorIndex
 90
      256
102
RTVSPost2010Prop51ColorRGB
 90
-16777216
102
RTVSPost2010PropOp51
 70
     0
102
RTVSPost2010Prop52
140
1.0
102
RTVSPost2010PropOp52
 70
     0
102
RTVSPost2010Prop53
 90
        2
102
RTVSPost2010PropOp53
 70
     1
102
RTVSPost2010Prop54
  1
strokes_ogs.tif
102
RTVSPost2010PropOp54
 70
     1
102
RTVSPost2010Prop55
280
     0
102
RTVSPost2010PropOp55
 70
     1
102
RTVSPost2010Prop56
140
1.0
102
RTVSPost2010PropOp56
 70
     1
102
RTVSPost2010Prop57
140
1.0
102
RTVSPost2010PropOp57
 70
     1
  0
XRECORD
  5
299
102
{ACAD_REACTORS
330
298
102
}
330
298
100
AcDbXrecord
280
     1
102
RTVSPropertyOp0
 70
     0
102
RTVSPropertyOp1
 70
     0
102
RTVSPropertyOp2
 70
     0
102
RTVSPropertyOp3
 70
     0
102
RTVSPropertyOp4
 70
     0
102
RTVSPropertyOp5
 70
     0
102
RTVSPropertyOp6
 70
     0
102
RTVSPropertyOp7
 70
     0
102
RTVSPropertyOp8
 70
     0
102
RTVSPropertyOp9
 70
     0
102
RTVSPropertyOp10
 70
     0
102
RTVSPropertyOp11
 70
     0
102
RTVSPropertyOp12
 70
     0
102
RTVSPropertyOp13
 70
     0
102
RTVSPropertyOp14
 70
     2
102
RTVSPropertyOp15
 70
     0
102
RTVSPropertyOp16
 70
     0
102
RTVSPropertyOp17
 70
     0
102
RTVSPropertyOp18
 70
     0
102
RTVSPropertyOp19
 70
     0
102
RTVSPropertyOp20
 70
     0
102
RTVSPropertyOp21
 70
     0
102
RTVSPropertyOp22
 70
     0
102
RTVSPropertyOp23
 70
     0
102
RTVSPropertyOp24
 70
     0
102
RTVSPropertyOp25
 70
     0
102
RTVSPropertyOp26
 70
     0
102
RTVSPropertyOp27
 70
     0
102
RTVSPropertyOp28
 70
     0
102
RTVSPropertyOp29
 70
     0
102
RTVSPropertyOp30
 70
     0
102
RTVSPropertyOp31
 70
     0
102
RTVSPropertyOp32
 70
     0
102
RTVSPropertyOp33
 70
     0
102
RTVSPropertyOp34
 70
     0
102
RTVSPropertyOp35
 70
     0
102
RTVSPropertyOp36
 70
     0
102
RTVSPropertyOp37
 70
     0
102
RTVSPropertyOp38
 70
     0
102
RTVSPropertyOp39
 70
     0
102
RTVSPropertyOp40
 70
     0
102
RTVSPropertyOp41
 70
     0
102
RTVSPropertyOp42
 70
     0
102
RTVSPropertyOp43
 70
     0
102
RTVSPropertyOp44
 70
     0
102
RTVSPropertyOp45
 70
     0
102
RTVSPropertyOp46
 70
     0
102
RTVSPropertyOp47
 70
     0
102
RTVSPropertyOp48
 70
     0
102
RTVSPropertyOp49
 70
     0
102
RTVSPropertyOp50
 70
     0
102
RTVSPropertyOp51
 70
     0
102
RTVSPropertyOp52
 70
     0
102
RTVSPropertyOp53
 70
     0
102
RTVSPropertyOp54
 70
     0
102
RTVSPropertyOp55
 70
     0
102
RTVSPropertyOp56
 70
     0
102
RTVSPropertyOp57
 70
     0
102
RTVSPost2010Prop28
280
     0
102
RTVSPost2010PropOp28
 70
     0
102
RTVSPost2010Prop29
280
     1
102
RTVSPost2010PropOp29
 70
     0
102
RTVSPost2010Prop30
280
     1
102
RTVSPost2010PropOp30
 70
     0
102
RTVSPost2010Prop31
280
     0
102
RTVSPost2010PropOp31
 70
     0
102
RTVSPost2010Prop32
280
     0
102
RTVSPost2010PropOp32
 70
     0
102
RTVSPost2010Prop33
280
     0
102
RTVSPost2010PropOp33
 70
     0
102
RTVSPost2010Prop34
280
     0
102
RTVSPost2010PropOp34
 70
     0
102
RTVSPost2010Prop35
280
     0
102
RTVSPost2010PropOp35
 70
     0
102
RTVSPost2010Prop36
280
     0
102
RTVSPost2010PropOp36
 70
     0
102
RTVSPost2010Prop37
 90
       50
102
RTVSPost2010PropOp37
 70
     0
102
RTVSPost2010Prop38
140
0.0
102
RTVSPost2010PropOp38
 70
     0
102
RTVSPost2010Prop39
140
1.0
102
RTVSPost2010PropOp39
 70
     0
102
RTVSPost2010Prop40
 90
        0
102
RTVSPost2010PropOp40
 70
     0
102
RTVSPost2010Prop41ColorIndex
 90
       18
102
RTVSPost2010Prop41ColorRGB
 90
        0
102
RTVSPost2010PropOp41
 70
     0
102
RTVSPost2010Prop42
 90
       50
102
RTVSPost2010PropOp42
 70
     0
102
RTVSPost2010Prop43
 90
        3
102
RTVSPost2010PropOp43
 70
     0
102
RTVSPost2010Prop44ColorIndex
 90
        5
102
RTVSPost2010Prop44ColorRGB
 90
      255
102
RTVSPost2010PropOp44
 70
     0
102
RTVSPost2010Prop45
280
     0
102
RTVSPost2010PropOp45
 70
     0
102
RTVSPost2010Prop46
 90
       50
102
RTVSPost2010PropOp46
 70
     0
102
RTVSPost2010Prop47
 90
       50
102
RTVSPost2010PropOp47
 70
     0
102
RTVSPost2010Prop48
 90
       50
102
RTVSPost2010PropOp48
 70
     0
102
RTVSPost2010Prop49
280
     0
102
RTVSPost2010PropOp49
 70
     0
102
RTVSPost2010Prop50
 90
       50
102
RTVSPost2010PropOp50
 70
     0
102
RTVSPost2010Prop51ColorIndex
 90
      256
102
RTVSPost2010Prop51ColorRGB
 90
-16777216
102
RTVSPost2010PropOp51
 70
     0
102
RTVSPost2010Prop52
140
1.0
102
RTVSPost2010PropOp52
 70
     0
102
RTVSPost2010Prop53
 90
        2
102
RTVSPost2010PropOp53
 70
     0
102
RTVSPost2010Prop54
  1
strokes_ogs.tif
102
RTVSPost2010PropOp54
 70
     0
102
RTVSPost2010Prop55
280
     0
102
RTVSPost2010PropOp55
 70
     0
102
RTVSPost2010Prop56
140
1.0
102
RTVSPost2010PropOp56
 70
     0
102
RTVSPost2010Prop57
140
1.0
102
RTVSPost2010PropOp57
 70
     0
  0
XRECORD
  5
293
102
{ACAD_REACTORS
330
292
102
}
330
292
100
AcDbXrecord
280
     1
102
RTVSPropertyOp0
 70
     1
102
RTVSPropertyOp1
 70
     1
102
RTVSPropertyOp2
 70
     1
102
RTVSPropertyOp3
 70
     1
102
RTVSPropertyOp4
 70
     1
102
RTVSPropertyOp5
 70
     1
102
RTVSPropertyOp6
 70
     1
102
RTVSPropertyOp7
 70
     1
102
RTVSPropertyOp8
 70
     1
102
RTVSPropertyOp9
 70
     1
102
RTVSPropertyOp10
 70
     1
102
RTVSPropertyOp11
 70
     1
102
RTVSPropertyOp12
 70
     1
102
RTVSPropertyOp13
 70
     1
102
RTVSPropertyOp14
 70
     1
102
RTVSPropertyOp15
 70
     1
102
RTVSPropertyOp16
 70
     1
102
RTVSPropertyOp17
 70
     1
102
RTVSPropertyOp18
 70
     1
102
RTVSPropertyOp19
 70
     1
102
RTVSPropertyOp20
 70
     1
102
RTVSPropertyOp21
 70
     1
102
RTVSPropertyOp22
 70
     1
102
RTVSPropertyOp23
 70
     1
102
RTVSPropertyOp24
 70
     1
102
RTVSPropertyOp25
 70
     1
102
RTVSPropertyOp26
 70
     1
102
RTVSPropertyOp27
 70
     1
102
RTVSPropertyOp28
 70
     1
102
RTVSPropertyOp29
 70
     1
102
RTVSPropertyOp30
 70
     1
102
RTVSPropertyOp31
 70
     1
102
RTVSPropertyOp32
 70
     1
102
RTVSPropertyOp33
 70
     1
102
RTVSPropertyOp34
 70
     1
102
RTVSPropertyOp35
 70
     1
102
RTVSPropertyOp36
 70
     1
102
RTVSPropertyOp37
 70
     1
102
RTVSPropertyOp38
 70
     1
102
RTVSPropertyOp39
 70
     1
102
RTVSPropertyOp40
 70
     1
102
RTVSPropertyOp41
 70
     1
102
RTVSPropertyOp42
 70
     1
102
RTVSPropertyOp43
 70
     1
102
RTVSPropertyOp44
 70
     1
102
RTVSPropertyOp45
 70
     1
102
RTVSPropertyOp46
 70
     1
102
RTVSPropertyOp47
 70
     1
102
RTVSPropertyOp48
 70
     1
102
RTVSPropertyOp49
 70
     1
102
RTVSPropertyOp50
 70
     1
102
RTVSPropertyOp51
 70
     0
102
RTVSPropertyOp52
 70
     0
102
RTVSPropertyOp53
 70
     1
102
RTVSPropertyOp54
 70
     1
102
RTVSPropertyOp55
 70
     1
102
RTVSPropertyOp56
 70
     1
102
RTVSPropertyOp57
 70
     1
102
RTVSPost2010Prop28
280
     0
102
RTVSPost2010PropOp28
 70
     1
102
RTVSPost2010Prop29
280
     1
102
RTVSPost2010PropOp29
 70
     1
102
RTVSPost2010Prop30
280
     1
102
RTVSPost2010PropOp30
 70
     1
102
RTVSPost2010Prop31
280
     0
102
RTVSPost2010PropOp31
 70
     1
102
RTVSPost2010Prop32
280
     0
102
RTVSPost2010PropOp32
 70
     1
102
RTVSPost2010Prop33
280
     0
102
RTVSPost2010PropOp33
 70
     1
102
RTVSPost2010Prop34
280
     0
102
RTVSPost2010PropOp34
 70
     1
102
RTVSPost2010Prop35
280
     0
102
RTVSPost2010PropOp35
 70
     1
102
RTVSPost2010Prop36
280
     0
102
RTVSPost2010PropOp36
 70
     1
102
RTVSPost2010Prop37
 90
       50
102
RTVSPost2010PropOp37
 70
     1
102
RTVSPost2010Prop38
140
0.0
102
RTVSPost2010PropOp38
 70
     1
102
RTVSPost2010Prop39
140
1.0
102
RTVSPost2010PropOp39
 70
     1
102
RTVSPost2010Prop40
 90
        0
102
RTVSPost2010PropOp40
 70
     1
102
RTVSPost2010Prop41ColorIndex
 90
       18
102
RTVSPost2010Prop41ColorRGB
 90
        0
102
RTVSPost2010PropOp41
 70
     1
102
RTVSPost2010Prop42
 90
       50
102
RTVSPost2010PropOp42
 70
     1
102
RTVSPost2010Prop43
 90
        3
102
RTVSPost2010PropOp43
 70
     1
102
RTVSPost2010Prop44ColorIndex
 90
        5
102
RTVSPost2010Prop44ColorRGB
 90
      255
102
RTVSPost2010PropOp44
 70
     1
102
RTVSPost2010Prop45
280
     0
102
RTVSPost2010PropOp45
 70
     1
102
RTVSPost2010Prop46
 90
       50
102
RTVSPost2010PropOp46
 70
     1
102
RTVSPost2010Prop47
 90
       50
102
RTVSPost2010PropOp47
 70
     1
102
RTVSPost2010Prop48
 90
       50
102
RTVSPost2010PropOp48
 70
     1
102
RTVSPost2010Prop49
280
     0
102
RTVSPost2010PropOp49
 70
     1
102
RTVSPost2010Prop50
 90
       50
102
RTVSPost2010PropOp50
 70
     1
102
RTVSPost2010Prop51ColorIndex
 90
      256
102
RTVSPost2010Prop51ColorRGB
 90
-16777216
102
RTVSPost2010PropOp51
 70
     0
102
RTVSPost2010Prop52
140
1.0
102
RTVSPost2010PropOp52
 70
     0
102
RTVSPost2010Prop53
 90
        2
102
RTVSPost2010PropOp53
 70
     1
102
RTVSPost2010Prop54
  1
strokes_ogs.tif
102
RTVSPost2010PropOp54
 70
     1
102
RTVSPost2010Prop55
280
     0
102
RTVSPost2010PropOp55
 70
     1
102
RTVSPost2010Prop56
140
1.0
102
RTVSPost2010PropOp56
 70
     1
102
RTVSPost2010Prop57
140
1.0
102
RTVSPost2010PropOp57
 70
     1
  0
XRECORD
  5
29B
102
{ACAD_REACTORS
330
29A
102
}
330
29A
100
AcDbXrecord
280
     1
102
RTVSPropertyOp0
 70
     0
102
RTVSPropertyOp1
 70
     0
102
RTVSPropertyOp2
 70
     0
102
RTVSPropertyOp3
 70
     0
102
RTVSPropertyOp4
 70
     0
102
RTVSPropertyOp5
 70
     0
102
RTVSPropertyOp6
 70
     0
102
RTVSPropertyOp7
 70
     0
102
RTVSPropertyOp8
 70
     0
102
RTVSPropertyOp9
 70
     0
102
RTVSPropertyOp10
 70
     0
102
RTVSPropertyOp11
 70
     0
102
RTVSPropertyOp12
 70
     0
102
RTVSPropertyOp13
 70
     0
102
RTVSPropertyOp14
 70
     2
102
RTVSPropertyOp15
 70
     0
102
RTVSPropertyOp16
 70
     0
102
RTVSPropertyOp17
 70
     0
102
RTVSPropertyOp18
 70
     0
102
RTVSPropertyOp19
 70
     0
102
RTVSPropertyOp20
 70
     0
102
RTVSPropertyOp21
 70
     0
102
RTVSPropertyOp22
 70
     0
102
RTVSPropertyOp23
 70
     0
102
RTVSPropertyOp24
 70
     0
102
RTVSPropertyOp25
 70
     0
102
RTVSPropertyOp26
 70
     0
102
RTVSPropertyOp27
 70
     0
102
RTVSPropertyOp28
 70
     0
102
RTVSPropertyOp29
 70
     0
102
RTVSPropertyOp30
 70
     0
102
RTVSPropertyOp31
 70
     0
102
RTVSPropertyOp32
 70
     0
102
RTVSPropertyOp33
 70
     0
102
RTVSPropertyOp34
 70
     0
102
RTVSPropertyOp35
 70
     0
102
RTVSPropertyOp36
 70
     0
102
RTVSPropertyOp37
 70
     0
102
RTVSPropertyOp38
 70
     0
102
RTVSPropertyOp39
 70
     0
102
RTVSPropertyOp40
 70
     0
102
RTVSPropertyOp41
 70
     0
102
RTVSPropertyOp42
 70
     0
102
RTVSPropertyOp43
 70
     0
102
RTVSPropertyOp44
 70
     0
102
RTVSPropertyOp45
 70
     0
102
RTVSPropertyOp46
 70
     0
102
RTVSPropertyOp47
 70
     0
102
RTVSPropertyOp48
 70
     0
102
RTVSPropertyOp49
 70
     0
102
RTVSPropertyOp50
 70
     0
102
RTVSPropertyOp51
 70
     0
102
RTVSPropertyOp52
 70
     0
102
RTVSPropertyOp53
 70
     0
102
RTVSPropertyOp54
 70
     0
102
RTVSPropertyOp55
 70
     0
102
RTVSPropertyOp56
 70
     0
102
RTVSPropertyOp57
 70
     0
102
RTVSPost2010Prop28
280
     0
102
RTVSPost2010PropOp28
 70
     0
102
RTVSPost2010Prop29
280
     1
102
RTVSPost2010PropOp29
 70
     0
102
RTVSPost2010Prop30
280
     1
102
RTVSPost2010PropOp30
 70
     0
102
RTVSPost2010Prop31
280
     0
102
RTVSPost2010PropOp31
 70
     0
102
RTVSPost2010Prop32
280
     0
102
RTVSPost2010PropOp32
 70
     0
102
RTVSPost2010Prop33
280
     0
102
RTVSPost2010PropOp33
 70
     0
102
RTVSPost2010Prop34
280
     0
102
RTVSPost2010PropOp34
 70
     0
102
RTVSPost2010Prop35
280
     0
102
RTVSPost2010PropOp35
 70
     0
102
RTVSPost2010Prop36
280
     0
102
RTVSPost2010PropOp36
 70
     0
102
RTVSPost2010Prop37
 90
       50
102
RTVSPost2010PropOp37
 70
     0
102
RTVSPost2010Prop38
140
0.0
102
RTVSPost2010PropOp38
 70
     0
102
RTVSPost2010Prop39
140
1.0
102
RTVSPost2010PropOp39
 70
     0
102
RTVSPost2010Prop40
 90
        0
102
RTVSPost2010PropOp40
 70
     0
102
RTVSPost2010Prop41ColorIndex
 90
       18
102
RTVSPost2010Prop41ColorRGB
 90
        0
102
RTVSPost2010PropOp41
 70
     0
102
RTVSPost2010Prop42
 90
       50
102
RTVSPost2010PropOp42
 70
     0
102
RTVSPost2010Prop43
 90
        3
102
RTVSPost2010PropOp43
 70
     0
102
RTVSPost2010Prop44ColorIndex
 90
        5
102
RTVSPost2010Prop44ColorRGB
 90
      255
102
RTVSPost2010PropOp44
 70
     0
102
RTVSPost2010Prop45
280
     0
102
RTVSPost2010PropOp45
 70
     0
102
RTVSPost2010Prop46
 90
       50
102
RTVSPost2010PropOp46
 70
     0
102
RTVSPost2010Prop47
 90
       50
102
RTVSPost2010PropOp47
 70
     0
102
RTVSPost2010Prop48
 90
       50
102
RTVSPost2010PropOp48
 70
     0
102
RTVSPost2010Prop49
280
     0
102
RTVSPost2010PropOp49
 70
     0
102
RTVSPost2010Prop50
 90
       50
102
RTVSPost2010PropOp50
 70
     0
102
RTVSPost2010Prop51ColorIndex
 90
      256
102
RTVSPost2010Prop51ColorRGB
 90
-16777216
102
RTVSPost2010PropOp51
 70
     0
102
RTVSPost2010Prop52
140
1.0
102
RTVSPost2010PropOp52
 70
     0
102
RTVSPost2010Prop53
 90
        2
102
RTVSPost2010PropOp53
 70
     0
102
RTVSPost2010Prop54
  1
strokes_ogs.tif
102
RTVSPost2010PropOp54
 70
     0
102
RTVSPost2010Prop55
280
     0
102
RTVSPost2010PropOp55
 70
     0
102
RTVSPost2010Prop56
140
1.0
102
RTVSPost2010PropOp56
 70
     0
102
RTVSPost2010Prop57
140
1.0
102
RTVSPost2010PropOp57
 70
     0
  0
XRECORD
  5
289
102
{ACAD_REACTORS
330
288
102
}
330
288
100
AcDbXrecord
280
     1
102
RTVSPropertyOp0
 70
     1
102
RTVSPropertyOp1
 70
     1
102
RTVSPropertyOp2
 70
     1
102
RTVSPropertyOp3
 70
     1
102
RTVSPropertyOp4
 70
     1
102
RTVSPropertyOp5
 70
     1
102
RTVSPropertyOp6
 70
     1
102
RTVSPropertyOp7
 70
     1
102
RTVSPropertyOp8
 70
     1
102
RTVSPropertyOp9
 70
     1
102
RTVSPropertyOp10
 70
     1
102
RTVSPropertyOp11
 70
     1
102
RTVSPropertyOp12
 70
     1
102
RTVSPropertyOp13
 70
     1
102
RTVSPropertyOp14
 70
     1
102
RTVSPropertyOp15
 70
     1
102
RTVSPropertyOp16
 70
     1
102
RTVSPropertyOp17
 70
     1
102
RTVSPropertyOp18
 70
     1
102
RTVSPropertyOp19
 70
     1
102
RTVSPropertyOp20
 70
     1
102
RTVSPropertyOp21
 70
     1
102
RTVSPropertyOp22
 70
     1
102
RTVSPropertyOp23
 70
     1
102
RTVSPropertyOp24
 70
     1
102
RTVSPropertyOp25
 70
     1
102
RTVSPropertyOp26
 70
     1
102
RTVSPropertyOp27
 70
     1
102
RTVSPropertyOp28
 70
     1
102
RTVSPropertyOp29
 70
     1
102
RTVSPropertyOp30
 70
     1
102
RTVSPropertyOp31
 70
     1
102
RTVSPropertyOp32
 70
     1
102
RTVSPropertyOp33
 70
     1
102
RTVSPropertyOp34
 70
     1
102
RTVSPropertyOp35
 70
     1
102
RTVSPropertyOp36
 70
     1
102
RTVSPropertyOp37
 70
     1
102
RTVSPropertyOp38
 70
     1
102
RTVSPropertyOp39
 70
     1
102
RTVSPropertyOp40
 70
     1
102
RTVSPropertyOp41
 70
     1
102
RTVSPropertyOp42
 70
     1
102
RTVSPropertyOp43
 70
     1
102
RTVSPropertyOp44
 70
     1
102
RTVSPropertyOp45
 70
     1
102
RTVSPropertyOp46
 70
     1
102
RTVSPropertyOp47
 70
     1
102
RTVSPropertyOp48
 70
     1
102
RTVSPropertyOp49
 70
     1
102
RTVSPropertyOp50
 70
     1
102
RTVSPropertyOp51
 70
     0
102
RTVSPropertyOp52
 70
     0
102
RTVSPropertyOp53
 70
     1
102
RTVSPropertyOp54
 70
     1
102
RTVSPropertyOp55
 70
     1
102
RTVSPropertyOp56
 70
     1
102
RTVSPropertyOp57
 70
     1
102
RTVSPost2010Prop28
280
     0
102
RTVSPost2010PropOp28
 70
     1
102
RTVSPost2010Prop29
280
     1
102
RTVSPost2010PropOp29
 70
     1
102
RTVSPost2010Prop30
280
     1
102
RTVSPost2010PropOp30
 70
     1
102
RTVSPost2010Prop31
280
     0
102
RTVSPost2010PropOp31
 70
     1
102
RTVSPost2010Prop32
280
     0
102
RTVSPost2010PropOp32
 70
     1
102
RTVSPost2010Prop33
280
     0
102
RTVSPost2010PropOp33
 70
     1
102
RTVSPost2010Prop34
280
     0
102
RTVSPost2010PropOp34
 70
     1
102
RTVSPost2010Prop35
280
     0
102
RTVSPost2010PropOp35
 70
     1
102
RTVSPost2010Prop36
280
     0
102
RTVSPost2010PropOp36
 70
     1
102
RTVSPost2010Prop37
 90
       50
102
RTVSPost2010PropOp37
 70
     1
102
RTVSPost2010Prop38
140
0.0
102
RTVSPost2010PropOp38
 70
     1
102
RTVSPost2010Prop39
140
1.0
102
RTVSPost2010PropOp39
 70
     1
102
RTVSPost2010Prop40
 90
        0
102
RTVSPost2010PropOp40
 70
     1
102
RTVSPost2010Prop41ColorIndex
 90
       18
102
RTVSPost2010Prop41ColorRGB
 90
        0
102
RTVSPost2010PropOp41
 70
     1
102
RTVSPost2010Prop42
 90
       50
102
RTVSPost2010PropOp42
 70
     1
102
RTVSPost2010Prop43
 90
        3
102
RTVSPost2010PropOp43
 70
     1
102
RTVSPost2010Prop44ColorIndex
 90
        5
102
RTVSPost2010Prop44ColorRGB
 90
      255
102
RTVSPost2010PropOp44
 70
     1
102
RTVSPost2010Prop45
280
     0
102
RTVSPost2010PropOp45
 70
     1
102
RTVSPost2010Prop46
 90
       50
102
RTVSPost2010PropOp46
 70
     1
102
RTVSPost2010Prop47
 90
       50
102
RTVSPost2010PropOp47
 70
     1
102
RTVSPost2010Prop48
 90
       50
102
RTVSPost2010PropOp48
 70
     1
102
RTVSPost2010Prop49
280
     0
102
RTVSPost2010PropOp49
 70
     1
102
RTVSPost2010Prop50
 90
       50
102
RTVSPost2010PropOp50
 70
     1
102
RTVSPost2010Prop51ColorIndex
 90
      256
102
RTVSPost2010Prop51ColorRGB
 90
-16777216
102
RTVSPost2010PropOp51
 70
     0
102
RTVSPost2010Prop52
140
1.0
102
RTVSPost2010PropOp52
 70
     0
102
RTVSPost2010Prop53
 90
        2
102
RTVSPost2010PropOp53
 70
     1
102
RTVSPost2010Prop54
  1
strokes_ogs.tif
102
RTVSPost2010PropOp54
 70
     1
102
RTVSPost2010Prop55
280
     0
102
RTVSPost2010PropOp55
 70
     1
102
RTVSPost2010Prop56
140
1.0
102
RTVSPost2010PropOp56
 70
     1
102
RTVSPost2010Prop57
140
1.0
102
RTVSPost2010PropOp57
 70
     1
  0
XRECORD
  5
2A7
102
{ACAD_REACTORS
330
2A6
102
}
330
2A6
100
AcDbXrecord
280
     1
102
RTVSPropertyOp0
 70
     1
102
RTVSPropertyOp1
 70
     1
102
RTVSPropertyOp2
 70
     1
102
RTVSPropertyOp3
 70
     1
102
RTVSPropertyOp4
 70
     1
102
RTVSPropertyOp5
 70
     1
102
RTVSPropertyOp6
 70
     1
102
RTVSPropertyOp7
 70
     1
102
RTVSPropertyOp8
 70
     1
102
RTVSPropertyOp9
 70
     1
102
RTVSPropertyOp10
 70
     1
102
RTVSPropertyOp11
 70
     1
102
RTVSPropertyOp12
 70
     1
102
RTVSPropertyOp13
 70
     1
102
RTVSPropertyOp14
 70
     1
102
RTVSPropertyOp15
 70
     1
102
RTVSPropertyOp16
 70
     1
102
RTVSPropertyOp17
 70
     1
102
RTVSPropertyOp18
 70
     1
102
RTVSPropertyOp19
 70
     1
102
RTVSPropertyOp20
 70
     1
102
RTVSPropertyOp21
 70
     1
102
RTVSPropertyOp22
 70
     1
102
RTVSPropertyOp23
 70
     1
102
RTVSPropertyOp24
 70
     1
102
RTVSPropertyOp25
 70
     1
102
RTVSPropertyOp26
 70
     1
102
RTVSPropertyOp27
 70
     1
102
RTVSPropertyOp28
 70
     1
102
RTVSPropertyOp29
 70
     1
102
RTVSPropertyOp30
 70
     1
102
RTVSPropertyOp31
 70
     1
102
RTVSPropertyOp32
 70
     1
102
RTVSPropertyOp33
 70
     1
102
RTVSPropertyOp34
 70
     1
102
RTVSPropertyOp35
 70
     1
102
RTVSPropertyOp36
 70
     1
102
RTVSPropertyOp37
 70
     1
102
RTVSPropertyOp38
 70
     1
102
RTVSPropertyOp39
 70
     1
102
RTVSPropertyOp40
 70
     1
102
RTVSPropertyOp41
 70
     1
102
RTVSPropertyOp42
 70
     1
102
RTVSPropertyOp43
 70
     1
102
RTVSPropertyOp44
 70
     1
102
RTVSPropertyOp45
 70
     1
102
RTVSPropertyOp46
 70
     1
102
RTVSPropertyOp47
 70
     1
102
RTVSPropertyOp48
 70
     1
102
RTVSPropertyOp49
 70
     1
102
RTVSPropertyOp50
 70
     1
102
RTVSPropertyOp51
 70
     0
102
RTVSPropertyOp52
 70
     0
102
RTVSPropertyOp53
 70
     1
102
RTVSPropertyOp54
 70
     1
102
RTVSPropertyOp55
 70
     1
102
RTVSPropertyOp56
 70
     1
102
RTVSPropertyOp57
 70
     1
102
RTVSPost2010Prop28
280
     0
102
RTVSPost2010PropOp28
 70
     1
102
RTVSPost2010Prop29
280
     1
102
RTVSPost2010PropOp29
 70
     1
102
RTVSPost2010Prop30
280
     1
102
RTVSPost2010PropOp30
 70
     1
102
RTVSPost2010Prop31
280
     0
102
RTVSPost2010PropOp31
 70
     1
102
RTVSPost2010Prop32
280
     0
102
RTVSPost2010PropOp32
 70
     1
102
RTVSPost2010Prop33
280
     0
102
RTVSPost2010PropOp33
 70
     1
102
RTVSPost2010Prop34
280
     0
102
RTVSPost2010PropOp34
 70
     1
102
RTVSPost2010Prop35
280
     0
102
RTVSPost2010PropOp35
 70
     1
102
RTVSPost2010Prop36
280
     0
102
RTVSPost2010PropOp36
 70
     1
102
RTVSPost2010Prop37
 90
       50
102
RTVSPost2010PropOp37
 70
     1
102
RTVSPost2010Prop38
140
0.0
102
RTVSPost2010PropOp38
 70
     1
102
RTVSPost2010Prop39
140
1.0
102
RTVSPost2010PropOp39
 70
     1
102
RTVSPost2010Prop40
 90
        0
102
RTVSPost2010PropOp40
 70
     1
102
RTVSPost2010Prop41ColorIndex
 90
       18
102
RTVSPost2010Prop41ColorRGB
 90
        0
102
RTVSPost2010PropOp41
 70
     1
102
RTVSPost2010Prop42
 90
       50
102
RTVSPost2010PropOp42
 70
     1
102
RTVSPost2010Prop43
 90
        3
102
RTVSPost2010PropOp43
 70
     1
102
RTVSPost2010Prop44ColorIndex
 90
        5
102
RTVSPost2010Prop44ColorRGB
 90
      255
102
RTVSPost2010PropOp44
 70
     1
102
RTVSPost2010Prop45
280
     0
102
RTVSPost2010PropOp45
 70
     1
102
RTVSPost2010Prop46
 90
       50
102
RTVSPost2010PropOp46
 70
     1
102
RTVSPost2010Prop47
 90
       50
102
RTVSPost2010PropOp47
 70
     1
102
RTVSPost2010Prop48
 90
       50
102
RTVSPost2010PropOp48
 70
     1
102
RTVSPost2010Prop49
280
     0
102
RTVSPost2010PropOp49
 70
     1
102
RTVSPost2010Prop50
 90
       50
102
RTVSPost2010PropOp50
 70
     1
102
RTVSPost2010Prop51ColorIndex
 90
      256
102
RTVSPost2010Prop51ColorRGB
 90
-16777216
102
RTVSPost2010PropOp51
 70
     0
102
RTVSPost2010Prop52
140
1.0
102
RTVSPost2010PropOp52
 70
     0
102
RTVSPost2010Prop53
 90
        2
102
RTVSPost2010PropOp53
 70
     1
102
RTVSPost2010Prop54
  1
strokes_ogs.tif
102
RTVSPost2010PropOp54
 70
     1
102
RTVSPost2010Prop55
280
     0
102
RTVSPost2010PropOp55
 70
     1
102
RTVSPost2010Prop56
140
1.0
102
RTVSPost2010PropOp56
 70
     1
102
RTVSPost2010Prop57
140
1.0
102
RTVSPost2010PropOp57
 70
     1
  0
XRECORD
  5
2A5
102
{ACAD_REACTORS
330
2A4
102
}
330
2A4
100
AcDbXrecord
280
     1
102
RTVSPropertyOp0
 70
     1
102
RTVSPropertyOp1
 70
     1
102
RTVSPropertyOp2
 70
     1
102
RTVSPropertyOp3
 70
     1
102
RTVSPropertyOp4
 70
     1
102
RTVSPropertyOp5
 70
     1
102
RTVSPropertyOp6
 70
     1
102
RTVSPropertyOp7
 70
     1
102
RTVSPropertyOp8
 70
     1
102
RTVSPropertyOp9
 70
     1
102
RTVSPropertyOp10
 70
     1
102
RTVSPropertyOp11
 70
     1
102
RTVSPropertyOp12
 70
     1
102
RTVSPropertyOp13
 70
     1
102
RTVSPropertyOp14
 70
     1
102
RTVSPropertyOp15
 70
     1
102
RTVSPropertyOp16
 70
     1
102
RTVSPropertyOp17
 70
     1
102
RTVSPropertyOp18
 70
     1
102
RTVSPropertyOp19
 70
     1
102
RTVSPropertyOp20
 70
     1
102
RTVSPropertyOp21
 70
     1
102
RTVSPropertyOp22
 70
     1
102
RTVSPropertyOp23
 70
     1
102
RTVSPropertyOp24
 70
     1
102
RTVSPropertyOp25
 70
     1
102
RTVSPropertyOp26
 70
     1
102
RTVSPropertyOp27
 70
     1
102
RTVSPropertyOp28
 70
     1
102
RTVSPropertyOp29
 70
     1
102
RTVSPropertyOp30
 70
     1
102
RTVSPropertyOp31
 70
     1
102
RTVSPropertyOp32
 70
     1
102
RTVSPropertyOp33
 70
     1
102
RTVSPropertyOp34
 70
     1
102
RTVSPropertyOp35
 70
     1
102
RTVSPropertyOp36
 70
     1
102
RTVSPropertyOp37
 70
     1
102
RTVSPropertyOp38
 70
     1
102
RTVSPropertyOp39
 70
     1
102
RTVSPropertyOp40
 70
     1
102
RTVSPropertyOp41
 70
     1
102
RTVSPropertyOp42
 70
     1
102
RTVSPropertyOp43
 70
     1
102
RTVSPropertyOp44
 70
     1
102
RTVSPropertyOp45
 70
     1
102
RTVSPropertyOp46
 70
     1
102
RTVSPropertyOp47
 70
     1
102
RTVSPropertyOp48
 70
     1
102
RTVSPropertyOp49
 70
     1
102
RTVSPropertyOp50
 70
     1
102
RTVSPropertyOp51
 70
     0
102
RTVSPropertyOp52
 70
     0
102
RTVSPropertyOp53
 70
     1
102
RTVSPropertyOp54
 70
     1
102
RTVSPropertyOp55
 70
     1
102
RTVSPropertyOp56
 70
     1
102
RTVSPropertyOp57
 70
     1
102
RTVSPost2010Prop28
280
     0
102
RTVSPost2010PropOp28
 70
     1
102
RTVSPost2010Prop29
280
     1
102
RTVSPost2010PropOp29
 70
     1
102
RTVSPost2010Prop30
280
     1
102
RTVSPost2010PropOp30
 70
     1
102
RTVSPost2010Prop31
280
     0
102
RTVSPost2010PropOp31
 70
     1
102
RTVSPost2010Prop32
280
     0
102
RTVSPost2010PropOp32
 70
     1
102
RTVSPost2010Prop33
280
     0
102
RTVSPost2010PropOp33
 70
     1
102
RTVSPost2010Prop34
280
     0
102
RTVSPost2010PropOp34
 70
     1
102
RTVSPost2010Prop35
280
     0
102
RTVSPost2010PropOp35
 70
     1
102
RTVSPost2010Prop36
280
     0
102
RTVSPost2010PropOp36
 70
     1
102
RTVSPost2010Prop37
 90
       50
102
RTVSPost2010PropOp37
 70
     1
102
RTVSPost2010Prop38
140
0.0
102
RTVSPost2010PropOp38
 70
     1
102
RTVSPost2010Prop39
140
1.0
102
RTVSPost2010PropOp39
 70
     1
102
RTVSPost2010Prop40
 90
        0
102
RTVSPost2010PropOp40
 70
     1
102
RTVSPost2010Prop41ColorIndex
 90
       18
102
RTVSPost2010Prop41ColorRGB
 90
        0
102
RTVSPost2010PropOp41
 70
     1
102
RTVSPost2010Prop42
 90
       50
102
RTVSPost2010PropOp42
 70
     1
102
RTVSPost2010Prop43
 90
        3
102
RTVSPost2010PropOp43
 70
     1
102
RTVSPost2010Prop44ColorIndex
 90
        5
102
RTVSPost2010Prop44ColorRGB
 90
      255
102
RTVSPost2010PropOp44
 70
     1
102
RTVSPost2010Prop45
280
     0
102
RTVSPost2010PropOp45
 70
     1
102
RTVSPost2010Prop46
 90
       50
102
RTVSPost2010PropOp46
 70
     1
102
RTVSPost2010Prop47
 90
       50
102
RTVSPost2010PropOp47
 70
     1
102
RTVSPost2010Prop48
 90
       50
102
RTVSPost2010PropOp48
 70
     1
102
RTVSPost2010Prop49
280
     0
102
RTVSPost2010PropOp49
 70
     1
102
RTVSPost2010Prop50
 90
       50
102
RTVSPost2010PropOp50
 70
     1
102
RTVSPost2010Prop51ColorIndex
 90
      256
102
RTVSPost2010Prop51ColorRGB
 90
-16777216
102
RTVSPost2010PropOp51
 70
     0
102
RTVSPost2010Prop52
140
1.0
102
RTVSPost2010PropOp52
 70
     0
102
RTVSPost2010Prop53
 90
        2
102
RTVSPost2010PropOp53
 70
     1
102
RTVSPost2010Prop54
  1
strokes_ogs.tif
102
RTVSPost2010PropOp54
 70
     1
102
RTVSPost2010Prop55
280
     0
102
RTVSPost2010PropOp55
 70
     1
102
RTVSPost2010Prop56
140
1.0
102
RTVSPost2010PropOp56
 70
     1
102
RTVSPost2010Prop57
140
1.0
102
RTVSPost2010PropOp57
 70
     1
  0
XRECORD
  5
29F
102
{ACAD_REACTORS
330
29E
102
}
330
29E
100
AcDbXrecord
280
     1
102
RTVSPropertyOp0
 70
     1
102
RTVSPropertyOp1
 70
     1
102
RTVSPropertyOp2
 70
     1
102
RTVSPropertyOp3
 70
     1
102
RTVSPropertyOp4
 70
     1
102
RTVSPropertyOp5
 70
     1
102
RTVSPropertyOp6
 70
     1
102
RTVSPropertyOp7
 70
     1
102
RTVSPropertyOp8
 70
     1
102
RTVSPropertyOp9
 70
     1
102
RTVSPropertyOp10
 70
     1
102
RTVSPropertyOp11
 70
     1
102
RTVSPropertyOp12
 70
     1
102
RTVSPropertyOp13
 70
     1
102
RTVSPropertyOp14
 70
     1
102
RTVSPropertyOp15
 70
     1
102
RTVSPropertyOp16
 70
     1
102
RTVSPropertyOp17
 70
     1
102
RTVSPropertyOp18
 70
     1
102
RTVSPropertyOp19
 70
     1
102
RTVSPropertyOp20
 70
     1
102
RTVSPropertyOp21
 70
     1
102
RTVSPropertyOp22
 70
     1
102
RTVSPropertyOp23
 70
     1
102
RTVSPropertyOp24
 70
     1
102
RTVSPropertyOp25
 70
     1
102
RTVSPropertyOp26
 70
     1
102
RTVSPropertyOp27
 70
     1
102
RTVSPropertyOp28
 70
     1
102
RTVSPropertyOp29
 70
     1
102
RTVSPropertyOp30
 70
     1
102
RTVSPropertyOp31
 70
     1
102
RTVSPropertyOp32
 70
     1
102
RTVSPropertyOp33
 70
     1
102
RTVSPropertyOp34
 70
     1
102
RTVSPropertyOp35
 70
     1
102
RTVSPropertyOp36
 70
     1
102
RTVSPropertyOp37
 70
     1
102
RTVSPropertyOp38
 70
     1
102
RTVSPropertyOp39
 70
     1
102
RTVSPropertyOp40
 70
     1
102
RTVSPropertyOp41
 70
     1
102
RTVSPropertyOp42
 70
     1
102
RTVSPropertyOp43
 70
     1
102
RTVSPropertyOp44
 70
     1
102
RTVSPropertyOp45
 70
     1
102
RTVSPropertyOp46
 70
     1
102
RTVSPropertyOp47
 70
     1
102
RTVSPropertyOp48
 70
     1
102
RTVSPropertyOp49
 70
     1
102
RTVSPropertyOp50
 70
     1
102
RTVSPropertyOp51
 70
     0
102
RTVSPropertyOp52
 70
     0
102
RTVSPropertyOp53
 70
     1
102
RTVSPropertyOp54
 70
     1
102
RTVSPropertyOp55
 70
     1
102
RTVSPropertyOp56
 70
     1
102
RTVSPropertyOp57
 70
     1
102
RTVSPost2010Prop28
280
     0
102
RTVSPost2010PropOp28
 70
     1
102
RTVSPost2010Prop29
280
     1
102
RTVSPost2010PropOp29
 70
     1
102
RTVSPost2010Prop30
280
     1
102
RTVSPost2010PropOp30
 70
     1
102
RTVSPost2010Prop31
280
     0
102
RTVSPost2010PropOp31
 70
     1
102
RTVSPost2010Prop32
280
     0
102
RTVSPost2010PropOp32
 70
     1
102
RTVSPost2010Prop33
280
     0
102
RTVSPost2010PropOp33
 70
     1
102
RTVSPost2010Prop34
280
     0
102
RTVSPost2010PropOp34
 70
     1
102
RTVSPost2010Prop35
280
     0
102
RTVSPost2010PropOp35
 70
     1
102
RTVSPost2010Prop36
280
     0
102
RTVSPost2010PropOp36
 70
     1
102
RTVSPost2010Prop37
 90
       50
102
RTVSPost2010PropOp37
 70
     1
102
RTVSPost2010Prop38
140
0.0
102
RTVSPost2010PropOp38
 70
     1
102
RTVSPost2010Prop39
140
1.0
102
RTVSPost2010PropOp39
 70
     1
102
RTVSPost2010Prop40
 90
        0
102
RTVSPost2010PropOp40
 70
     1
102
RTVSPost2010Prop41ColorIndex
 90
       18
102
RTVSPost2010Prop41ColorRGB
 90
        0
102
RTVSPost2010PropOp41
 70
     1
102
RTVSPost2010Prop42
 90
       50
102
RTVSPost2010PropOp42
 70
     1
102
RTVSPost2010Prop43
 90
        3
102
RTVSPost2010PropOp43
 70
     1
102
RTVSPost2010Prop44ColorIndex
 90
        5
102
RTVSPost2010Prop44ColorRGB
 90
      255
102
RTVSPost2010PropOp44
 70
     1
102
RTVSPost2010Prop45
280
     0
102
RTVSPost2010PropOp45
 70
     1
102
RTVSPost2010Prop46
 90
       50
102
RTVSPost2010PropOp46
 70
     1
102
RTVSPost2010Prop47
 90
       50
102
RTVSPost2010PropOp47
 70
     1
102
RTVSPost2010Prop48
 90
       50
102
RTVSPost2010PropOp48
 70
     1
102
RTVSPost2010Prop49
280
     0
102
RTVSPost2010PropOp49
 70
     1
102
RTVSPost2010Prop50
 90
       50
102
RTVSPost2010PropOp50
 70
     1
102
RTVSPost2010Prop51ColorIndex
 90
      256
102
RTVSPost2010Prop51ColorRGB
 90
-16777216
102
RTVSPost2010PropOp51
 70
     0
102
RTVSPost2010Prop52
140
1.0
102
RTVSPost2010PropOp52
 70
     0
102
RTVSPost2010Prop53
 90
        2
102
RTVSPost2010PropOp53
 70
     1
102
RTVSPost2010Prop54
  1
strokes_ogs.tif
102
RTVSPost2010PropOp54
 70
     1
102
RTVSPost2010Prop55
280
     0
102
RTVSPost2010PropOp55
 70
     1
102
RTVSPost2010Prop56
140
1.0
102
RTVSPost2010PropOp56
 70
     1
102
RTVSPost2010Prop57
140
1.0
102
RTVSPost2010PropOp57
 70
     1
  0
XRECORD
  5
2A1
102
{ACAD_REACTORS
330
2A0
102
}
330
2A0
100
AcDbXrecord
280
     1
102
RTVSPropertyOp0
 70
     1
102
RTVSPropertyOp1
 70
     1
102
RTVSPropertyOp2
 70
     1
102
RTVSPropertyOp3
 70
     1
102
RTVSPropertyOp4
 70
     1
102
RTVSPropertyOp5
 70
     1
102
RTVSPropertyOp6
 70
     1
102
RTVSPropertyOp7
 70
     1
102
RTVSPropertyOp8
 70
     1
102
RTVSPropertyOp9
 70
     1
102
RTVSPropertyOp10
 70
     1
102
RTVSPropertyOp11
 70
     1
102
RTVSPropertyOp12
 70
     1
102
RTVSPropertyOp13
 70
     1
102
RTVSPropertyOp14
 70
     1
102
RTVSPropertyOp15
 70
     1
102
RTVSPropertyOp16
 70
     1
102
RTVSPropertyOp17
 70
     1
102
RTVSPropertyOp18
 70
     1
102
RTVSPropertyOp19
 70
     1
102
RTVSPropertyOp20
 70
     1
102
RTVSPropertyOp21
 70
     1
102
RTVSPropertyOp22
 70
     1
102
RTVSPropertyOp23
 70
     1
102
RTVSPropertyOp24
 70
     1
102
RTVSPropertyOp25
 70
     1
102
RTVSPropertyOp26
 70
     1
102
RTVSPropertyOp27
 70
     1
102
RTVSPropertyOp28
 70
     1
102
RTVSPropertyOp29
 70
     1
102
RTVSPropertyOp30
 70
     1
102
RTVSPropertyOp31
 70
     1
102
RTVSPropertyOp32
 70
     1
102
RTVSPropertyOp33
 70
     1
102
RTVSPropertyOp34
 70
     1
102
RTVSPropertyOp35
 70
     1
102
RTVSPropertyOp36
 70
     1
102
RTVSPropertyOp37
 70
     1
102
RTVSPropertyOp38
 70
     1
102
RTVSPropertyOp39
 70
     1
102
RTVSPropertyOp40
 70
     1
102
RTVSPropertyOp41
 70
     1
102
RTVSPropertyOp42
 70
     1
102
RTVSPropertyOp43
 70
     1
102
RTVSPropertyOp44
 70
     1
102
RTVSPropertyOp45
 70
     1
102
RTVSPropertyOp46
 70
     1
102
RTVSPropertyOp47
 70
     1
102
RTVSPropertyOp48
 70
     1
102
RTVSPropertyOp49
 70
     1
102
RTVSPropertyOp50
 70
     1
102
RTVSPropertyOp51
 70
     0
102
RTVSPropertyOp52
 70
     0
102
RTVSPropertyOp53
 70
     1
102
RTVSPropertyOp54
 70
     1
102
RTVSPropertyOp55
 70
     1
102
RTVSPropertyOp56
 70
     1
102
RTVSPropertyOp57
 70
     1
102
RTVSPost2010Prop28
280
     0
102
RTVSPost2010PropOp28
 70
     1
102
RTVSPost2010Prop29
280
     1
102
RTVSPost2010PropOp29
 70
     1
102
RTVSPost2010Prop30
280
     1
102
RTVSPost2010PropOp30
 70
     1
102
RTVSPost2010Prop31
280
     0
102
RTVSPost2010PropOp31
 70
     1
102
RTVSPost2010Prop32
280
     0
102
RTVSPost2010PropOp32
 70
     1
102
RTVSPost2010Prop33
280
     0
102
RTVSPost2010PropOp33
 70
     1
102
RTVSPost2010Prop34
280
     0
102
RTVSPost2010PropOp34
 70
     1
102
RTVSPost2010Prop35
280
     0
102
RTVSPost2010PropOp35
 70
     1
102
RTVSPost2010Prop36
280
     0
102
RTVSPost2010PropOp36
 70
     1
102
RTVSPost2010Prop37
 90
       50
102
RTVSPost2010PropOp37
 70
     1
102
RTVSPost2010Prop38
140
0.0
102
RTVSPost2010PropOp38
 70
     1
102
RTVSPost2010Prop39
140
1.0
102
RTVSPost2010PropOp39
 70
     1
102
RTVSPost2010Prop40
 90
        0
102
RTVSPost2010PropOp40
 70
     1
102
RTVSPost2010Prop41ColorIndex
 90
       18
102
RTVSPost2010Prop41ColorRGB
 90
        0
102
RTVSPost2010PropOp41
 70
     1
102
RTVSPost2010Prop42
 90
       50
102
RTVSPost2010PropOp42
 70
     1
102
RTVSPost2010Prop43
 90
        3
102
RTVSPost2010PropOp43
 70
     1
102
RTVSPost2010Prop44ColorIndex
 90
        5
102
RTVSPost2010Prop44ColorRGB
 90
      255
102
RTVSPost2010PropOp44
 70
     1
102
RTVSPost2010Prop45
280
     0
102
RTVSPost2010PropOp45
 70
     1
102
RTVSPost2010Prop46
 90
       50
102
RTVSPost2010PropOp46
 70
     1
102
RTVSPost2010Prop47
 90
       50
102
RTVSPost2010PropOp47
 70
     1
102
RTVSPost2010Prop48
 90
       50
102
RTVSPost2010PropOp48
 70
     1
102
RTVSPost2010Prop49
280
     0
102
RTVSPost2010PropOp49
 70
     1
102
RTVSPost2010Prop50
 90
       50
102
RTVSPost2010PropOp50
 70
     1
102
RTVSPost2010Prop51ColorIndex
 90
      256
102
RTVSPost2010Prop51ColorRGB
 90
-16777216
102
RTVSPost2010PropOp51
 70
     0
102
RTVSPost2010Prop52
140
1.0
102
RTVSPost2010PropOp52
 70
     0
102
RTVSPost2010Prop53
 90
        2
102
RTVSPost2010PropOp53
 70
     1
102
RTVSPost2010Prop54
  1
strokes_ogs.tif
102
RTVSPost2010PropOp54
 70
     1
102
RTVSPost2010Prop55
280
     0
102
RTVSPost2010PropOp55
 70
     1
102
RTVSPost2010Prop56
140
1.0
102
RTVSPost2010PropOp56
 70
     1
102
RTVSPost2010Prop57
140
1.0
102
RTVSPost2010PropOp57
 70
     1
  0
XRECORD
  5
291
102
{ACAD_REACTORS
330
290
102
}
330
290
100
AcDbXrecord
280
     1
102
RTVSPropertyOp0
 70
     1
102
RTVSPropertyOp1
 70
     1
102
RTVSPropertyOp2
 70
     1
102
RTVSPropertyOp3
 70
     1
102
RTVSPropertyOp4
 70
     1
102
RTVSPropertyOp5
 70
     1
102
RTVSPropertyOp6
 70
     1
102
RTVSPropertyOp7
 70
     1
102
RTVSPropertyOp8
 70
     1
102
RTVSPropertyOp9
 70
     1
102
RTVSPropertyOp10
 70
     1
102
RTVSPropertyOp11
 70
     1
102
RTVSPropertyOp12
 70
     1
102
RTVSPropertyOp13
 70
     1
102
RTVSPropertyOp14
 70
     1
102
RTVSPropertyOp15
 70
     1
102
RTVSPropertyOp16
 70
     1
102
RTVSPropertyOp17
 70
     1
102
RTVSPropertyOp18
 70
     1
102
RTVSPropertyOp19
 70
     1
102
RTVSPropertyOp20
 70
     1
102
RTVSPropertyOp21
 70
     1
102
RTVSPropertyOp22
 70
     1
102
RTVSPropertyOp23
 70
     1
102
RTVSPropertyOp24
 70
     1
102
RTVSPropertyOp25
 70
     1
102
RTVSPropertyOp26
 70
     1
102
RTVSPropertyOp27
 70
     1
102
RTVSPropertyOp28
 70
     1
102
RTVSPropertyOp29
 70
     1
102
RTVSPropertyOp30
 70
     1
102
RTVSPropertyOp31
 70
     1
102
RTVSPropertyOp32
 70
     1
102
RTVSPropertyOp33
 70
     1
102
RTVSPropertyOp34
 70
     1
102
RTVSPropertyOp35
 70
     1
102
RTVSPropertyOp36
 70
     1
102
RTVSPropertyOp37
 70
     1
102
RTVSPropertyOp38
 70
     1
102
RTVSPropertyOp39
 70
     1
102
RTVSPropertyOp40
 70
     1
102
RTVSPropertyOp41
 70
     1
102
RTVSPropertyOp42
 70
     1
102
RTVSPropertyOp43
 70
     1
102
RTVSPropertyOp44
 70
     1
102
RTVSPropertyOp45
 70
     1
102
RTVSPropertyOp46
 70
     1
102
RTVSPropertyOp47
 70
     1
102
RTVSPropertyOp48
 70
     1
102
RTVSPropertyOp49
 70
     1
102
RTVSPropertyOp50
 70
     1
102
RTVSPropertyOp51
 70
     0
102
RTVSPropertyOp52
 70
     0
102
RTVSPropertyOp53
 70
     1
102
RTVSPropertyOp54
 70
     1
102
RTVSPropertyOp55
 70
     1
102
RTVSPropertyOp56
 70
     1
102
RTVSPropertyOp57
 70
     1
102
RTVSPost2010Prop28
280
     0
102
RTVSPost2010PropOp28
 70
     1
102
RTVSPost2010Prop29
280
     1
102
RTVSPost2010PropOp29
 70
     1
102
RTVSPost2010Prop30
280
     1
102
RTVSPost2010PropOp30
 70
     1
102
RTVSPost2010Prop31
280
     0
102
RTVSPost2010PropOp31
 70
     1
102
RTVSPost2010Prop32
280
     0
102
RTVSPost2010PropOp32
 70
     1
102
RTVSPost2010Prop33
280
     0
102
RTVSPost2010PropOp33
 70
     1
102
RTVSPost2010Prop34
280
     0
102
RTVSPost2010PropOp34
 70
     1
102
RTVSPost2010Prop35
280
     0
102
RTVSPost2010PropOp35
 70
     1
102
RTVSPost2010Prop36
280
     0
102
RTVSPost2010PropOp36
 70
     1
102
RTVSPost2010Prop37
 90
       50
102
RTVSPost2010PropOp37
 70
     1
102
RTVSPost2010Prop38
140
0.0
102
RTVSPost2010PropOp38
 70
     1
102
RTVSPost2010Prop39
140
1.0
102
RTVSPost2010PropOp39
 70
     1
102
RTVSPost2010Prop40
 90
        0
102
RTVSPost2010PropOp40
 70
     1
102
RTVSPost2010Prop41ColorIndex
 90
       18
102
RTVSPost2010Prop41ColorRGB
 90
        0
102
RTVSPost2010PropOp41
 70
     1
102
RTVSPost2010Prop42
 90
       50
102
RTVSPost2010PropOp42
 70
     1
102
RTVSPost2010Prop43
 90
        3
102
RTVSPost2010PropOp43
 70
     1
102
RTVSPost2010Prop44ColorIndex
 90
        5
102
RTVSPost2010Prop44ColorRGB
 90
      255
102
RTVSPost2010PropOp44
 70
     1
102
RTVSPost2010Prop45
280
     0
102
RTVSPost2010PropOp45
 70
     1
102
RTVSPost2010Prop46
 90
       50
102
RTVSPost2010PropOp46
 70
     1
102
RTVSPost2010Prop47
 90
       50
102
RTVSPost2010PropOp47
 70
     1
102
RTVSPost2010Prop48
 90
       50
102
RTVSPost2010PropOp48
 70
     1
102
RTVSPost2010Prop49
280
     0
102
RTVSPost2010PropOp49
 70
     1
102
RTVSPost2010Prop50
 90
       50
102
RTVSPost2010PropOp50
 70
     1
102
RTVSPost2010Prop51ColorIndex
 90
      256
102
RTVSPost2010Prop51ColorRGB
 90
-16777216
102
RTVSPost2010PropOp51
 70
     0
102
RTVSPost2010Prop52
140
1.0
102
RTVSPost2010PropOp52
 70
     0
102
RTVSPost2010Prop53
 90
        2
102
RTVSPost2010PropOp53
 70
     1
102
RTVSPost2010Prop54
  1
strokes_ogs.tif
102
RTVSPost2010PropOp54
 70
     1
102
RTVSPost2010Prop55
280
     0
102
RTVSPost2010PropOp55
 70
     1
102
RTVSPost2010Prop56
140
1.0
102
RTVSPost2010PropOp56
 70
     1
102
RTVSPost2010Prop57
140
1.0
102
RTVSPost2010PropOp57
 70
     1
  0
XRECORD
  5
283
102
{ACAD_REACTORS
330
282
102
}
330
282
100
AcDbXrecord
280
     1
102
RTVSPropertyOp0
 70
     1
102
RTVSPropertyOp1
 70
     1
102
RTVSPropertyOp2
 70
     1
102
RTVSPropertyOp3
 70
     1
102
RTVSPropertyOp4
 70
     1
102
RTVSPropertyOp5
 70
     1
102
RTVSPropertyOp6
 70
     1
102
RTVSPropertyOp7
 70
     1
102
RTVSPropertyOp8
 70
     1
102
RTVSPropertyOp9
 70
     1
102
RTVSPropertyOp10
 70
     1
102
RTVSPropertyOp11
 70
     1
102
RTVSPropertyOp12
 70
     1
102
RTVSPropertyOp13
 70
     1
102
RTVSPropertyOp14
 70
     1
102
RTVSPropertyOp15
 70
     1
102
RTVSPropertyOp16
 70
     1
102
RTVSPropertyOp17
 70
     1
102
RTVSPropertyOp18
 70
     1
102
RTVSPropertyOp19
 70
     1
102
RTVSPropertyOp20
 70
     1
102
RTVSPropertyOp21
 70
     1
102
RTVSPropertyOp22
 70
     1
102
RTVSPropertyOp23
 70
     1
102
RTVSPropertyOp24
 70
     1
102
RTVSPropertyOp25
 70
     1
102
RTVSPropertyOp26
 70
     1
102
RTVSPropertyOp27
 70
     1
102
RTVSPropertyOp28
 70
     1
102
RTVSPropertyOp29
 70
     1
102
RTVSPropertyOp30
 70
     1
102
RTVSPropertyOp31
 70
     1
102
RTVSPropertyOp32
 70
     1
102
RTVSPropertyOp33
 70
     1
102
RTVSPropertyOp34
 70
     1
102
RTVSPropertyOp35
 70
     1
102
RTVSPropertyOp36
 70
     1
102
RTVSPropertyOp37
 70
     1
102
RTVSPropertyOp38
 70
     1
102
RTVSPropertyOp39
 70
     1
102
RTVSPropertyOp40
 70
     1
102
RTVSPropertyOp41
 70
     1
102
RTVSPropertyOp42
 70
     1
102
RTVSPropertyOp43
 70
     1
102
RTVSPropertyOp44
 70
     1
102
RTVSPropertyOp45
 70
     1
102
RTVSPropertyOp46
 70
     1
102
RTVSPropertyOp47
 70
     1
102
RTVSPropertyOp48
 70
     1
102
RTVSPropertyOp49
 70
     1
102
RTVSPropertyOp50
 70
     1
102
RTVSPropertyOp51
 70
     0
102
RTVSPropertyOp52
 70
     0
102
RTVSPropertyOp53
 70
     1
102
RTVSPropertyOp54
 70
     1
102
RTVSPropertyOp55
 70
     1
102
RTVSPropertyOp56
 70
     1
102
RTVSPropertyOp57
 70
     1
102
RTVSPost2010Prop28
280
     0
102
RTVSPost2010PropOp28
 70
     1
102
RTVSPost2010Prop29
280
     1
102
RTVSPost2010PropOp29
 70
     1
102
RTVSPost2010Prop30
280
     1
102
RTVSPost2010PropOp30
 70
     1
102
RTVSPost2010Prop31
280
     0
102
RTVSPost2010PropOp31
 70
     1
102
RTVSPost2010Prop32
280
     0
102
RTVSPost2010PropOp32
 70
     1
102
RTVSPost2010Prop33
280
     0
102
RTVSPost2010PropOp33
 70
     1
102
RTVSPost2010Prop34
280
     0
102
RTVSPost2010PropOp34
 70
     1
102
RTVSPost2010Prop35
280
     0
102
RTVSPost2010PropOp35
 70
     1
102
RTVSPost2010Prop36
280
     0
102
RTVSPost2010PropOp36
 70
     1
102
RTVSPost2010Prop37
 90
       50
102
RTVSPost2010PropOp37
 70
     1
102
RTVSPost2010Prop38
140
0.0
102
RTVSPost2010PropOp38
 70
     1
102
RTVSPost2010Prop39
140
1.0
102
RTVSPost2010PropOp39
 70
     1
102
RTVSPost2010Prop40
 90
        0
102
RTVSPost2010PropOp40
 70
     1
102
RTVSPost2010Prop41ColorIndex
 90
       18
102
RTVSPost2010Prop41ColorRGB
 90
        0
102
RTVSPost2010PropOp41
 70
     1
102
RTVSPost2010Prop42
 90
       50
102
RTVSPost2010PropOp42
 70
     1
102
RTVSPost2010Prop43
 90
        3
102
RTVSPost2010PropOp43
 70
     1
102
RTVSPost2010Prop44ColorIndex
 90
        5
102
RTVSPost2010Prop44ColorRGB
 90
      255
102
RTVSPost2010PropOp44
 70
     1
102
RTVSPost2010Prop45
280
     0
102
RTVSPost2010PropOp45
 70
     1
102
RTVSPost2010Prop46
 90
       50
102
RTVSPost2010PropOp46
 70
     1
102
RTVSPost2010Prop47
 90
       50
102
RTVSPost2010PropOp47
 70
     1
102
RTVSPost2010Prop48
 90
       50
102
RTVSPost2010PropOp48
 70
     1
102
RTVSPost2010Prop49
280
     0
102
RTVSPost2010PropOp49
 70
     1
102
RTVSPost2010Prop50
 90
       50
102
RTVSPost2010PropOp50
 70
     1
102
RTVSPost2010Prop51ColorIndex
 90
      256
102
RTVSPost2010Prop51ColorRGB
 90
-16777216
102
RTVSPost2010PropOp51
 70
     0
102
RTVSPost2010Prop52
140
1.0
102
RTVSPost2010PropOp52
 70
     0
102
RTVSPost2010Prop53
 90
        2
102
RTVSPost2010PropOp53
 70
     1
102
RTVSPost2010Prop54
  1
strokes_ogs.tif
102
RTVSPost2010PropOp54
 70
     1
102
RTVSPost2010Prop55
280
     0
102
RTVSPost2010PropOp55
 70
     1
102
RTVSPost2010Prop56
140
1.0
102
RTVSPost2010PropOp56
 70
     1
102
RTVSPost2010Prop57
140
1.0
102
RTVSPost2010PropOp57
 70
     1
  0
XRECORD
  5
2A3
102
{ACAD_REACTORS
330
2A2
102
}
330
2A2
100
AcDbXrecord
280
     1
102
RTVSPropertyOp0
 70
     1
102
RTVSPropertyOp1
 70
     1
102
RTVSPropertyOp2
 70
     1
102
RTVSPropertyOp3
 70
     1
102
RTVSPropertyOp4
 70
     1
102
RTVSPropertyOp5
 70
     1
102
RTVSPropertyOp6
 70
     1
102
RTVSPropertyOp7
 70
     1
102
RTVSPropertyOp8
 70
     1
102
RTVSPropertyOp9
 70
     1
102
RTVSPropertyOp10
 70
     1
102
RTVSPropertyOp11
 70
     1
102
RTVSPropertyOp12
 70
     1
102
RTVSPropertyOp13
 70
     1
102
RTVSPropertyOp14
 70
     1
102
RTVSPropertyOp15
 70
     1
102
RTVSPropertyOp16
 70
     1
102
RTVSPropertyOp17
 70
     1
102
RTVSPropertyOp18
 70
     1
102
RTVSPropertyOp19
 70
     1
102
RTVSPropertyOp20
 70
     1
102
RTVSPropertyOp21
 70
     1
102
RTVSPropertyOp22
 70
     1
102
RTVSPropertyOp23
 70
     1
102
RTVSPropertyOp24
 70
     1
102
RTVSPropertyOp25
 70
     1
102
RTVSPropertyOp26
 70
     1
102
RTVSPropertyOp27
 70
     1
102
RTVSPropertyOp28
 70
     1
102
RTVSPropertyOp29
 70
     1
102
RTVSPropertyOp30
 70
     1
102
RTVSPropertyOp31
 70
     1
102
RTVSPropertyOp32
 70
     1
102
RTVSPropertyOp33
 70
     1
102
RTVSPropertyOp34
 70
     1
102
RTVSPropertyOp35
 70
     1
102
RTVSPropertyOp36
 70
     1
102
RTVSPropertyOp37
 70
     1
102
RTVSPropertyOp38
 70
     1
102
RTVSPropertyOp39
 70
     1
102
RTVSPropertyOp40
 70
     1
102
RTVSPropertyOp41
 70
     1
102
RTVSPropertyOp42
 70
     1
102
RTVSPropertyOp43
 70
     1
102
RTVSPropertyOp44
 70
     1
102
RTVSPropertyOp45
 70
     1
102
RTVSPropertyOp46
 70
     1
102
RTVSPropertyOp47
 70
     1
102
RTVSPropertyOp48
 70
     1
102
RTVSPropertyOp49
 70
     1
102
RTVSPropertyOp50
 70
     1
102
RTVSPropertyOp51
 70
     0
102
RTVSPropertyOp52
 70
     0
102
RTVSPropertyOp53
 70
     1
102
RTVSPropertyOp54
 70
     1
102
RTVSPropertyOp55
 70
     1
102
RTVSPropertyOp56
 70
     1
102
RTVSPropertyOp57
 70
     1
102
RTVSPost2010Prop28
280
     0
102
RTVSPost2010PropOp28
 70
     1
102
RTVSPost2010Prop29
280
     1
102
RTVSPost2010PropOp29
 70
     1
102
RTVSPost2010Prop30
280
     1
102
RTVSPost2010PropOp30
 70
     1
102
RTVSPost2010Prop31
280
     0
102
RTVSPost2010PropOp31
 70
     1
102
RTVSPost2010Prop32
280
     0
102
RTVSPost2010PropOp32
 70
     1
102
RTVSPost2010Prop33
280
     0
102
RTVSPost2010PropOp33
 70
     1
102
RTVSPost2010Prop34
280
     0
102
RTVSPost2010PropOp34
 70
     1
102
RTVSPost2010Prop35
280
     0
102
RTVSPost2010PropOp35
 70
     1
102
RTVSPost2010Prop36
280
     0
102
RTVSPost2010PropOp36
 70
     1
102
RTVSPost2010Prop37
 90
       50
102
RTVSPost2010PropOp37
 70
     1
102
RTVSPost2010Prop38
140
0.0
102
RTVSPost2010PropOp38
 70
     1
102
RTVSPost2010Prop39
140
1.0
102
RTVSPost2010PropOp39
 70
     1
102
RTVSPost2010Prop40
 90
        0
102
RTVSPost2010PropOp40
 70
     1
102
RTVSPost2010Prop41ColorIndex
 90
       18
102
RTVSPost2010Prop41ColorRGB
 90
        0
102
RTVSPost2010PropOp41
 70
     1
102
RTVSPost2010Prop42
 90
       50
102
RTVSPost2010PropOp42
 70
     1
102
RTVSPost2010Prop43
 90
        3
102
RTVSPost2010PropOp43
 70
     1
102
RTVSPost2010Prop44ColorIndex
 90
        5
102
RTVSPost2010Prop44ColorRGB
 90
      255
102
RTVSPost2010PropOp44
 70
     1
102
RTVSPost2010Prop45
280
     0
102
RTVSPost2010PropOp45
 70
     1
102
RTVSPost2010Prop46
 90
       50
102
RTVSPost2010PropOp46
 70
     1
102
RTVSPost2010Prop47
 90
       50
102
RTVSPost2010PropOp47
 70
     1
102
RTVSPost2010Prop48
 90
       50
102
RTVSPost2010PropOp48
 70
     1
102
RTVSPost2010Prop49
280
     0
102
RTVSPost2010PropOp49
 70
     1
102
RTVSPost2010Prop50
 90
       50
102
RTVSPost2010PropOp50
 70
     1
102
RTVSPost2010Prop51ColorIndex
 90
      256
102
RTVSPost2010Prop51ColorRGB
 90
-16777216
102
RTVSPost2010PropOp51
 70
     0
102
RTVSPost2010Prop52
140
1.0
102
RTVSPost2010PropOp52
 70
     0
102
RTVSPost2010Prop53
 90
        2
102
RTVSPost2010PropOp53
 70
     1
102
RTVSPost2010Prop54
  1
strokes_ogs.tif
102
RTVSPost2010PropOp54
 70
     1
102
RTVSPost2010Prop55
280
     0
102
RTVSPost2010PropOp55
 70
     1
102
RTVSPost2010Prop56
140
1.0
102
RTVSPost2010PropOp56
 70
     1
102
RTVSPost2010Prop57
140
1.0
102
RTVSPost2010PropOp57
 70
     1
  0
ENDSEC
  0
EOF
