  0
SECTION
  2
HEADER
  9
$ACADVER
  1
AC1018
  9
$ACADMAINTVER
 70
     0
  9
$DWGCODEPAGE
  3
ANSI_932
  9
$INSBASE
 10
0.0
 20
0.0
 30
0.0
  9
$EXTMIN
 10
-2100.0
 20
-1485.0
 30
0.0
  9
$EXTMAX
 10
2100.0
 20
1485.0
 30
0.0
  9
$LIMMIN
 10
-2100.0
 20
-1485.0
  9
$LIMMAX
 10
2100.0
 20
1485.0
  9
$ORTHOMODE
 70
     0
  9
$REGENMODE
 70
     1
  9
$FILLMODE
 70
     1
  9
$QTEXTMODE
 70
     0
  9
$MIRRTEXT
 70
     1
  9
$LTSCALE
 40
10.0
  9
$ATTMODE
 70
     1
  9
$TEXTSIZE
 40
2.5
  9
$TRACEWID
 40
1.0
  9
$TEXTSTYLE
  7
Standard
  9
$CLAYER
  8
0
  9
$CELTYPE
  6
ByLayer
  9
$CECOLOR
 62
   256
  9
$CELTSCALE
 40
1.0
  9
$DISPSILH
 70
     0
  9
$DIMSCALE
 40
1.0
  9
$DIMASZ
 40
2.5
  9
$DIMEXO
 40
0.625
  9
$DIMDLI
 40
3.75
  9
$DIMRND
 40
0.0
  9
$DIMDLE
 40
0.0
  9
$DIMEXE
 40
1.25
  9
$DIMTP
 40
0.0
  9
$DIMTM
 40
0.0
  9
$DIMTXT
 40
2.5
  9
$DIMCEN
 40
2.5
  9
$DIMTSZ
 40
0.0
  9
$DIMTOL
 70
     0
  9
$DIMLIM
 70
     0
  9
$DIMTIH
 70
     0
  9
$DIMTOH
 70
     0
  9
$DIMSE1
 70
     0
  9
$DIMSE2
 70
     0
  9
$DIMTAD
 70
     1
  9
$DIMZIN
 70
     8
  9
$DIMBLK
  1

  9
$DIMASO
 70
     1
  9
$DIMSHO
 70
     1
  9
$DIMPOST
  1

  9
$DIMAPOST
  1

  9
$DIMALT
 70
     0
  9
$DIMALTD
 70
     3
  9
$DIMALTF
 40
0.03937007874016
  9
$DIMLFAC
 40
1.0
  9
$DIMTOFL
 70
     1
  9
$DIMTVP
 40
0.0
  9
$DIMTIX
 70
     0
  9
$DIMSOXD
 70
     0
  9
$DIMSAH
 70
     0
  9
$DIMBLK1
  1

  9
$DIMBLK2
  1

  9
$DIMSTYLE
  2
ISO-25
  9
$DIMCLRD
 70
     0
  9
$DIMCLRE
 70
     0
  9
$DIMCLRT
 70
     0
  9
$DIMTFAC
 40
1.0
  9
$DIMGAP
 40
0.625
  9
$DIMJUST
 70
     0
  9
$DIMSD1
 70
     0
  9
$DIMSD2
 70
     0
  9
$DIMTOLJ
 70
     0
  9
$DIMTZIN
 70
     8
  9
$DIMALTZ
 70
     0
  9
$DIMALTTZ
 70
     0
  9
$DIMUPT
 70
     0
  9
$DIMDEC
 70
     2
  9
$DIMTDEC
 70
     2
  9
$DIMALTU
 70
     2
  9
$DIMALTTD
 70
     3
  9
$DIMTXSTY
  7
Standard
  9
$DIMAUNIT
 70
     0
  9
$DIMADEC
 70
     0
  9
$DIMALTRND
 40
0.0
  9
$DIMAZIN
 70
     0
  9
$DIMDSEP
 70
    44
  9
$DIMATFIT
 70
     3
  9
$DIMFRAC
 70
     0
  9
$DIMLDRBLK
  1

  9
$DIMLUNIT
 70
     2
  9
$DIMLWD
 70
    -2
  9
$DIMLWE
 70
    -2
  9
$DIMTMOVE
 70
     0
  9
$LUNITS
 70
     2
  9
$LUPREC
 70
     4
  9
$SKETCHINC
 40
1.0
  9
$FILLETRAD
 40
10.0
  9
$AUNITS
 70
     0
  9
$AUPREC
 70
     0
  9
$MENU
  1
.
  9
$ELEVATION
 40
0.0
  9
$PELEVATION
 40
0.0
  9
$THICKNESS
 40
0.0
  9
$LIMCHECK
 70
     0
  9
$CHAMFERA
 40
10.0
  9
$CHAMFERB
 40
10.0
  9
$CHAMFERC
 40
20.0
  9
$CHAMFERD
 40
0.0
  9
$SKPOLY
 70
     0
  9
$TDCREATE
 40
2456498.82230941
  9
$TDUCREATE
 40
2456498.44730941
  9
$TDUPDATE
 40
2456498.822309421
  9
$TDUUPDATE
 40
2456498.447309421
  9
$TDINDWG
 40
0.0000000116
  9
$TDUSRTIMER
 40
0.0000000116
  9
$USRTIMER
 70
     1
  9
$ANGBASE
 50
0.0
  9
$ANGDIR
 70
     0
  9
$PDMODE
 70
     0
  9
$PDSIZE
 40
0.0
  9
$PLINEWID
 40
0.0
  9
$SPLFRAME
 70
     0
  9
$SPLINETYPE
 70
     6
  9
$SPLINESEGS
 70
     8
  9
$HANDSEED
  5
414
  9
$SURFTAB1
 70
     6
  9
$SURFTAB2
 70
     6
  9
$SURFTYPE
 70
     6
  9
$SURFU
 70
     6
  9
$SURFV
 70
     6
  9
$UCSBASE
  2

  9
$UCSNAME
  2

  9
$UCSORG
 10
0.0
 20
0.0
 30
0.0
  9
$UCSXDIR
 10
1.0
 20
0.0
 30
0.0
  9
$UCSYDIR
 10
0.0
 20
1.0
 30
0.0
  9
$UCSORTHOREF
  2

  9
$UCSORTHOVIEW
 70
     0
  9
$UCSORGTOP
 10
0.0
 20
0.0
 30
0.0
  9
$UCSORGBOTTOM
 10
0.0
 20
0.0
 30
0.0
  9
$UCSORGLEFT
 10
0.0
 20
0.0
 30
0.0
  9
$UCSORGRIGHT
 10
0.0
 20
0.0
 30
0.0
  9
$UCSORGFRONT
 10
0.0
 20
0.0
 30
0.0
  9
$UCSORGBACK
 10
0.0
 20
0.0
 30
0.0
  9
$PUCSBASE
  2

  9
$PUCSNAME
  2

  9
$PUCSORG
 10
0.0
 20
0.0
 30
0.0
  9
$PUCSXDIR
 10
1.0
 20
0.0
 30
0.0
  9
$PUCSYDIR
 10
0.0
 20
1.0
 30
0.0
  9
$PUCSORTHOREF
  2

  9
$PUCSORTHOVIEW
 70
     0
  9
$PUCSORGTOP
 10
0.0
 20
0.0
 30
0.0
  9
$PUCSORGBOTTOM
 10
0.0
 20
0.0
 30
0.0
  9
$PUCSORGLEFT
 10
0.0
 20
0.0
 30
0.0
  9
$PUCSORGRIGHT
 10
0.0
 20
0.0
 30
0.0
  9
$PUCSORGFRONT
 10
0.0
 20
0.0
 30
0.0
  9
$PUCSORGBACK
 10
0.0
 20
0.0
 30
0.0
  9
$USERI1
 70
     0
  9
$USERI2
 70
     0
  9
$USERI3
 70
     0
  9
$USERI4
 70
     0
  9
$USERI5
 70
     0
  9
$USERR1
 40
0.0
  9
$USERR2
 40
0.0
  9
$USERR3
 40
0.0
  9
$USERR4
 40
0.0
  9
$USERR5
 40
0.0
  9
$WORLDVIEW
 70
     1
  9
$SHADEDGE
 70
     3
  9
$SHADEDIF
 70
    70
  9
$TILEMODE
 70
     1
  9
$MAXACTVP
 70
    64
  9
$PINSBASE
 10
0.0
 20
0.0
 30
0.0
  9
$PLIMCHECK
 70
     0
  9
$PEXTMIN
 10
1.000000000000000E+20
 20
1.000000000000000E+20
 30
1.000000000000000E+20
  9
$PEXTMAX
 10
-1.000000000000000E+20
 20
-1.000000000000000E+20
 30
-1.000000000000000E+20
  9
$PLIMMIN
 10
0.0
 20
0.0
  9
$PLIMMAX
 10
420.0
 20
297.0
  9
$UNITMODE
 70
     0
  9
$VISRETAIN
 70
     1
  9
$PLINEGEN
 70
     0
  9
$PSLTSCALE
 70
     1
  9
$TREEDEPTH
 70
  3020
  9
$CMLSTYLE
  2
Standard
  9
$CMLJUST
 70
     0
  9
$CMLSCALE
 40
20.0
  9
$PROXYGRAPHICS
 70
     1
  9
$MEASUREMENT
 70
     1
  9
$CELWEIGHT
370
    -1
  9
$ENDCAPS
280
     0
  9
$JOINSTYLE
280
     0
  9
$LWDISPLAY
290
     0
  9
$INSUNITS
 70
     4
  9
$HYPERLINKBASE
  1

  9
$STYLESHEET
  1

  9
$XEDIT
290
     1
  9
$CEPSNTYPE
380
     0
  9
$PSTYLEMODE
290
     1
  9
$FINGERPRINTGUID
  2
{BA2C001E-BADC-4B38-99DC-F8C83A7AD34D}
  9
$VERSIONGUID
  2
{FAEB1C32-E019-11D5-929B-00C0DF256EC4}
  9
$EXTNAMES
290
     1
  9
$PSVPSCALE
 40
0.0
  9
$OLESTARTUP
290
     0
  9
$SORTENTS
280
   127
  9
$INDEXCTL
280
     0
  9
$HIDETEXT
280
     1
  9
$XCLIPFRAME
290
     0
  9
$HALOGAP
280
     0
  9
$OBSCOLOR
 70
   257
  9
$OBSLTYPE
280
     0
  9
$INTERSECTIONDISPLAY
280
     0
  9
$INTERSECTIONCOLOR
 70
   257
  9
$DIMASSOC
280
     2
  9
$PROJECTNAME
  1

  0
ENDSEC
  0
SECTION
  2
CLASSES
  0
CLASS
  1
ACDBDICTIONARYWDFLT
  2
AcDbDictionaryWithDefault
  3
ObjectDBX Classes
 90
        0
 91
        4
280
     0
281
     0
  0
CLASS
  1
VISUALSTYLE
  2
AcDbVisualStyle
  3
ObjectDBX Classes
 90
     4095
 91
        4
280
     0
281
     0
  0
ENDSEC
  0
SECTION
  2
TABLES
  0
TABLE
  2
VPORT
  5
8
330
0
100
AcDbSymbolTable
 70
     1
  0
VPORT
  5
29
330
8
100
AcDbSymbolTableRecord
100
AcDbViewportTableRecord
  2
*Active
 70
     0
 10
0.0
 20
0.0
 11
1.0
 21
1.0
 12
0.0
 22
0.0
 13
0.0
 23
0.0
 14
10.0
 24
10.0
 15
10.0
 25
10.0
 16
0.0
 26
0.0
 36
1.0
 17
0.0
 27
0.0
 37
0.0
 40
3267.0
 41
1.414141414141414
 42
50.0
 43
0.0
 44
0.0
 50
0.0
 51
0.0
 71
     0
 72
 10000
 73
     1
 74
     3
 75
     0
 76
     0
 77
     0
 78
     0
281
     0
 65
     1
110
0.0
120
0.0
130
0.0
111
1.0
121
0.0
131
0.0
112
0.0
122
1.0
132
0.0
 79
     0
146
0.0
  0
ENDTAB
  0
TABLE
  2
LTYPE
  5
5
330
0
100
AcDbSymbolTable
 70
     3
  0
LTYPE
  5
14
330
5
100
AcDbSymbolTableRecord
100
AcDbLinetypeTableRecord
  2
ByBlock
 70
     0
  3

 72
    65
 73
     0
 40
0.0
  0
LTYPE
  5
15
330
5
100
AcDbSymbolTableRecord
100
AcDbLinetypeTableRecord
  2
ByLayer
 70
     0
  3

 72
    65
 73
     0
 40
0.0
  0
LTYPE
  5
16
330
5
100
AcDbSymbolTableRecord
100
AcDbLinetypeTableRecord
  2
Continuous
 70
     0
  3
Solid line
 72
    65
 73
     0
 40
0.0
  0
LTYPE
  5
3C
330
5
100
AcDbSymbolTableRecord
100
AcDbLinetypeTableRecord
  2
JWW_DASHED1
 70
     0
  3
-  --  --  --  --  --  --  --  -
 72
    65
 73
     2
 40
1.693333333333333
 49
0.8466666666666667
 74
     0
 49
-0.8466666666666667
 74
     0
  0
LTYPE
  5
3D
330
5
100
AcDbSymbolTableRecord
100
AcDbLinetypeTableRecord
  2
JWW_CENTER1
 70
     0
  3
-----  --  ----------  --  -----
 72
    65
 73
     4
 40
6.773333333333333
 49
4.233333333333333
 74
     0
 49
-0.8466666666666667
 74
     0
 49
0.8466666666666667
 74
     0
 49
-0.8466666666666667
 74
     0
  0
ENDTAB
  0
TABLE
  2
LAYER
  5
2
330
0
100
AcDbSymbolTable
 70
     9
  0
LAYER
  5
10
330
2
100
AcDbSymbolTableRecord
100
AcDbLayerTableRecord
  2
0
 70
     0
 62
     7
  6
Continuous
370
    -3
390
F
  0
LAYER
  5
3E
330
2
100
AcDbSymbolTableRecord
100
AcDbLayerTableRecord
  2
0-0
 70
     0
 62
     7
  6
Continuous
370
    -3
390
F
  0
LAYER
  5
3F
330
2
100
AcDbSymbolTableRecord
100
AcDbLayerTableRecord
  2
0-1
 70
     0
 62
     7
  6
Continuous
370
    -3
390
F
  0
LAYER
  5
40
330
2
100
AcDbSymbolTableRecord
100
AcDbLayerTableRecord
  2
0-3
 70
     0
 62
     7
  6
Continuous
370
    -3
390
F
  0
LAYER
  5
41
330
2
100
AcDbSymbolTableRecord
100
AcDbLayerTableRecord
  2
0-2
 70
     0
 62
     7
  6
Continuous
370
    -3
390
F
  0
LAYER
  5
42
330
2
100
AcDbSymbolTableRecord
100
AcDbLayerTableRecord
  2
0-4
 70
     0
 62
     7
  6
Continuous
370
    -3
390
F
  0
LAYER
  5
43
330
2
100
AcDbSymbolTableRecord
100
AcDbLayerTableRecord
  2
0-A
 70
     0
 62
     7
  6
Continuous
370
    -3
390
F
  0
LAYER
  5
44
330
2
100
AcDbSymbolTableRecord
100
AcDbLayerTableRecord
  2
0-5
 70
     0
 62
     7
  6
Continuous
370
    -3
390
F
  0
LAYER
  5
45
330
2
100
AcDbSymbolTableRecord
100
AcDbLayerTableRecord
  2
F-4
 70
     0
 62
     7
  6
Continuous
370
    -3
390
F
  0
ENDTAB
  0
TABLE
  2
STYLE
  5
3
330
0
100
AcDbSymbolTable
 70
     2
  0
STYLE
  5
11
330
3
100
AcDbSymbolTableRecord
100
AcDbTextStyleTableRecord
  2
Standard
 70
     0
 40
0.0
 41
1.0
 50
0.0
 71
     0
 42
2.5
  3
txt
  4

1001
ACAD
1000

1071
        0
  0
STYLE
  5
3B
330
3
100
AcDbSymbolTableRecord
100
AcDbTextStyleTableRecord
  2
ＭＳ ゴシック
 70
     0
 40
1.0
 41
1.0
 50
0.0
 71
     0
 42
10.0
  3

  4

1001
ACAD
1000
MS Gothic
1071
    32817
  0
ENDTAB
  0
TABLE
  2
VIEW
  5
6
330
0
100
AcDbSymbolTable
 70
     0
  0
ENDTAB
  0
TABLE
  2
UCS
  5
7
330
0
100
AcDbSymbolTable
 70
     0
  0
ENDTAB
  0
TABLE
  2
APPID
  5
9
330
0
100
AcDbSymbolTable
 70
     1
  0
APPID
  5
12
330
9
100
AcDbSymbolTableRecord
100
AcDbRegAppTableRecord
  2
ACAD
 70
     0
  0
ENDTAB
  0
TABLE
  2
DIMSTYLE
  5
A
330
0
100
AcDbSymbolTable
 70
     1
100
AcDbDimStyleTable
  0
DIMSTYLE
105
27
330
A
100
AcDbSymbolTableRecord
100
AcDbDimStyleTableRecord
  2
ISO-25
 70
     0
 41
2.5
 42
0.625
 43
3.75
 44
1.25
 73
     0
 74
     0
 77
     1
 78
     8
140
2.5
141
2.5
143
0.03937007874016
147
0.625
171
     3
172
     1
271
     2
272
     2
274
     3
278
    44
283
     0
284
     8
340
11
  0
ENDTAB
  0
TABLE
  2
BLOCK_RECORD
  5
1
330
0
100
AcDbSymbolTable
 70
     1
  0
BLOCK_RECORD
  5
1F
330
1
100
AcDbSymbolTableRecord
100
AcDbBlockTableRecord
  2
*Model_Space
340
22
  0
BLOCK_RECORD
  5
1B
330
1
100
AcDbSymbolTableRecord
100
AcDbBlockTableRecord
  2
*Paper_Space
340
1E
  0
BLOCK_RECORD
  5
23
330
1
100
AcDbSymbolTableRecord
100
AcDbBlockTableRecord
  2
*Paper_Space0
340
26
  0
ENDTAB
  0
ENDSEC
  0
SECTION
  2
BLOCKS
  0
BLOCK
  5
20
330
1F
100
AcDbEntity
  8
0
100
AcDbBlockBegin
  2
*Model_Space
 70
     0
 10
0.0
 20
0.0
 30
0.0
  3
*Model_Space
  1

  0
ENDBLK
  5
21
330
1F
100
AcDbEntity
  8
0
100
AcDbBlockEnd
  0
BLOCK
  5
1C
330
1B
100
AcDbEntity
 67
     1
  8
0
100
AcDbBlockBegin
  2
*Paper_Space
 70
     0
 10
0.0
 20
0.0
 30
0.0
  3
*Paper_Space
  1

  0
ENDBLK
  5
1D
330
1B
100
AcDbEntity
 67
     1
  8
0
100
AcDbBlockEnd
  0
BLOCK
  5
24
330
23
100
AcDbEntity
  8
0
100
AcDbBlockBegin
  2
*Paper_Space0
 70
     0
 10
0.0
 20
0.0
 30
0.0
  3
*Paper_Space0
  1

  0
ENDBLK
  5
25
330
23
100
AcDbEntity
  8
0
100
AcDbBlockEnd
  0
ENDSEC
  0
SECTION
  2
ENTITIES
  0
ARC
  5
46
330
1F
100
AcDbEntity
  8
0-0
  6
Continuous
 62
     3
370
    13
100
AcDbCircle
 10
286.2272303768609
 20
-160.5655361058301
 30
0.0
 40
3.333333376291636
100
AcDbArc
 50
7.125259399414078
 51
90.00000000000001
  0
LINE
  5
47
330
1F
100
AcDbEntity
  8
0-0
  6
Continuous
 62
     3
370
    13
100
AcDbLine
 10
-367.4476633889753
 20
-189.9269928995379
 30
0.0
 11
-350.8793403051493
 21
-194.3665581972576
 31
0.0
  0
LINE
  5
48
330
1F
100
AcDbEntity
  8
0-0
  6
Continuous
 62
     3
370
    13
100
AcDbLine
 10
-401.652012391298
 20
-170.4091871299011
 30
0.0
 11
-391.9927040350902
 21
-172.9976551144873
 31
0.0
  0
LINE
  5
49
330
1F
100
AcDbEntity
  8
0-0
  6
Continuous
 62
     3
370
    13
100
AcDbLine
 10
-374.6639983763063
 20
-177.6406159464129
 30
0.0
 11
-382.333643118705
 21
-175.5858756592508
 31
0.0
  0
LINE
  5
4A
330
1F
100
AcDbEntity
  8
0-0
  6
Continuous
 62
     3
370
    13
100
AcDbLine
 10
-372.2613576985191
 20
-180.1922153974265
 30
0.0
 11
-371.0523667251238
 21
-186.0998411628402
 31
0.0
  0
LINE
  5
4B
330
1F
100
AcDbEntity
  8
0-0
  6
Continuous
 62
     3
370
    13
100
AcDbLine
 10
-341.8435803019821
 20
-188.3423882753826
 30
0.0
 11
-345.844187354347
 21
-192.8542060013116
 31
0.0
  0
LINE
  5
4C
330
1F
100
AcDbEntity
  8
0-0
  6
Continuous
 62
     3
370
    13
100
AcDbLine
 10
-330.8171669257152
 20
-189.3895536047744
 30
0.0
 11
-338.4868116681136
 21
-187.3343184379669
 31
0.0
  0
LINE
  5
4D
330
1F
100
AcDbEntity
  8
0-0
  6
Continuous
 62
     3
370
    13
100
AcDbLine
 10
-388.0645968507574
 20
-187.8536946256781
 30
0.0
 11
-418.6904711381305
 21
-179.6476003478065
 31
0.0
  0
LINE
  5
4E
330
1F
100
AcDbEntity
  8
0-0
  6
JWW_DASHED1
 62
     3
370
    13
100
AcDbLine
 10
-341.3353389062894
 20
-207.86588516094
 30
0.0
 11
-338.701589434161
 21
-204.8958649698504
 31
0.0
  0
LINE
  5
4F
330
1F
100
AcDbEntity
  8
0-0
  6
JWW_DASHED1
 62
     3
370
    13
100
AcDbLine
 10
-329.4834662817118
 20
-203.5502872143606
 30
0.0
 11
-331.9880521664246
 21
-202.8792304153741
 31
0.0
  0
LINE
  5
50
330
1F
100
AcDbEntity
  8
0-0
  6
Continuous
 62
     3
370
    13
100
AcDbLine
 10
202.4540040255096
 20
-189.9269928995379
 30
0.0
 11
185.8854335018609
 21
-194.3665581972576
 31
0.0
  0
LINE
  5
51
330
1F
100
AcDbEntity
  8
0-0
  6
Continuous
 62
     3
370
    13
100
AcDbLine
 10
236.6581055880096
 20
-170.4091871299011
 30
0.0
 11
226.9990446716244
 21
-172.9976551144873
 31
0.0
  0
LINE
  5
52
330
1F
100
AcDbEntity
  8
0-0
  6
Continuous
 62
     3
370
    13
100
AcDbLine
 10
209.6698441331955
 20
-177.6406159464129
 30
0.0
 11
217.3399837552392
 21
-175.5858756592508
 31
0.0
  0
LINE
  5
53
330
1F
100
AcDbEntity
  8
0-0
  6
Continuous
 62
     3
370
    13
100
AcDbLine
 10
207.2676983350536
 20
-180.1922153974265
 30
0.0
 11
206.0587073616583
 21
-186.0998411628402
 31
0.0
  0
LINE
  5
54
330
1F
100
AcDbEntity
  8
0-0
  6
Continuous
 62
     3
370
    13
100
AcDbLine
 10
176.849426058871
 20
-188.3423882753826
 30
0.0
 11
180.8500331112359
 21
-192.8542060013116
 31
0.0
  0
LINE
  5
55
330
1F
100
AcDbEntity
  8
0-0
  6
Continuous
 62
     3
370
    13
100
AcDbLine
 10
165.8235075622494
 20
-189.3895536047744
 30
0.0
 11
173.4926574250028
 21
-187.3343184379669
 31
0.0
  0
LINE
  5
56
330
1F
100
AcDbEntity
  8
0-0
  6
Continuous
 62
     3
370
    13
100
AcDbLine
 10
285.8362754570973
 20
-157.2320268152896
 30
0.0
 11
246.3171665043947
 21
-167.8209665851375
 31
0.0
  0
LINE
  5
57
330
1F
100
AcDbEntity
  8
0-0
  6
Continuous
 62
     3
370
    13
100
AcDbLine
 10
223.0706900474689
 20
-187.8536946256781
 30
0.0
 11
253.696811774665
 21
-179.6476003478065
 31
0.0
  0
LINE
  5
58
330
1F
100
AcDbEntity
  8
0-0
  6
Continuous
 62
     3
370
    13
100
AcDbLine
 10
217.4686524630096
 20
-196.8461526598843
 30
0.0
 11
218.2644189326041
 21
-192.9566460878826
 31
0.0
  0
LINE
  5
59
330
1F
100
AcDbEntity
  8
0-0
  6
Continuous
 62
     3
370
    13
100
AcDbLine
 10
176.3411846631786
 20
-207.86588516094
 30
0.0
 11
173.7079300706955
 21
-204.8958649698504
 31
0.0
  0
LINE
  5
5A
330
1F
100
AcDbEntity
  8
0-0
  6
Continuous
 62
     3
370
    13
100
AcDbLine
 10
152.3518938587023
 20
-192.9992057373758
 30
0.0
 11
156.1644466458642
 21
-191.9775267097152
 31
0.0
  0
LINE
  5
5B
330
1F
100
AcDbEntity
  8
0-0
  6
Continuous
 62
     3
370
    13
100
AcDbLine
 10
164.4893120386007
 20
-203.5502872143606
 30
0.0
 11
166.9938979233137
 21
-202.8792304153741
 31
0.0
  0
LINE
  5
5C
330
1F
100
AcDbEntity
  8
0-0
  6
Continuous
 62
     3
370
    13
100
AcDbLine
 10
154.7218724799015
 20
-231.7841607363201
 30
0.0
 11
157.1522264178239
 21
-211.9909544440902
 31
0.0
  0
LINE
  5
5D
330
1F
100
AcDbEntity
  8
0-0
  6
Continuous
 62
     3
370
    13
100
AcDbLine
 10
144.3383077628405
 20
-206.9441718216241
 30
0.0
 11
145.0143133582799
 21
-201.4396255272828
 31
0.0
  0
LINE
  5
5E
330
1F
100
AcDbEntity
  8
0-0
  6
Continuous
 62
     3
370
    13
100
AcDbLine
 10
-294.1635348390386
 20
-207.2321917751714
 30
0.0
 11
-301.9900564289878
 21
-207.2321917751714
 31
0.0
  0
LINE
  5
5F
330
1F
100
AcDbEntity
  8
0-0
  6
Continuous
 62
     3
370
    13
100
AcDbLine
 10
-450.8301822603858
 20
-157.2320268152896
 30
0.0
 11
-411.311444467417
 21
-167.8209665851375
 31
0.0
  0
LINE
  5
60
330
1F
100
AcDbEntity
  8
0-0
  6
Continuous
 62
     3
370
    13
100
AcDbLine
 10
-321.1579822894186
 20
-191.9775267097152
 30
0.0
 11
-317.3455532221678
 21
-192.9992057373758
 31
0.0
  0
LINE
  5
61
330
1F
100
AcDbEntity
  8
0-0
  6
Continuous
 62
     3
370
    13
100
AcDbLine
 10
-454.5285415694016
 20
-160.1520641622068
 30
0.0
 11
-457.4969534016441
 21
-183.8986165006781
 31
0.0
  0
LINE
  5
62
330
1F
100
AcDbEntity
  8
0-0
  6
Continuous
 62
     3
370
    13
100
AcDbLine
 10
289.5350059258473
 20
-160.1520641622068
 30
0.0
 11
292.5032940381786
 21
-183.8986165006781
 31
0.0
  0
LINE
  5
63
330
1F
100
AcDbEntity
  8
0-0
  6
JWW_DASHED1
 62
     3
370
    13
100
AcDbLine
 10
-309.3324620059516
 20
-206.9441718216241
 30
0.0
 11
-310.008220161568
 21
-201.4396255272828
 31
0.0
  0
LINE
  5
64
330
1F
100
AcDbEntity
  8
0-0
  6
Continuous
 62
     3
370
    13
100
AcDbLine
 10
-382.4629304260318
 20
-196.845657780239
 30
0.0
 11
-383.2584494558037
 21
-192.9566460878826
 31
0.0
  0
LINE
  5
65
330
1F
100
AcDbEntity
  8
0-0
  6
JWW_DASHED1
 62
     3
370
    13
100
AcDbLine
 10
-378.8584745297058
 20
-200.6733043965818
 30
0.0
 11
-346.3702444172691
 21
-209.3782373568858
 31
0.0
  0
LINE
  5
66
330
1F
100
AcDbEntity
  8
0-0
  6
Continuous
 62
     3
370
    13
100
AcDbLine
 10
-376.9966135842878
 20
-204.0055764880093
 30
0.0
 11
-371.5335134602378
 21
-226.3969009179078
 31
0.0
  0
LINE
  5
67
330
1F
100
AcDbEntity
  8
0-0
  6
JWW_DASHED1
 62
     3
370
    13
100
AcDbLine
 10
-300.1045649805081
 20
-215.7010671446815
 30
0.0
 11
-242.3333049509475
 21
-219.7407696890227
 31
0.0
  0
LINE
  5
68
330
1F
100
AcDbEntity
  8
0-0
  6
Continuous
 62
     3
370
    13
100
AcDbLine
 10
79.97822013615149
 20
-219.5564270211595
 30
0.0
 11
135.1107818971312
 21
-215.7010671446815
 31
0.0
  0
LINE
  5
69
330
1F
100
AcDbEntity
  8
0-0
  6
Continuous
 62
     3
370
    13
100
AcDbLine
 10
-229.5106021822608
 20
-234.9946924350108
 30
0.0
 11
-219.1125622355759
 21
-380.5657670496646
 31
0.0
  0
LINE
  5
6A
330
1F
100
AcDbEntity
  8
0-0
  6
Continuous
 62
     3
370
    13
100
AcDbLine
 10
-245.3015930632785
 20
-204.9225884706951
 30
0.0
 11
-242.3481513403055
 21
-219.9515884179078
 31
0.0
  0
LINE
  5
6B
330
1F
100
AcDbEntity
  8
0-0
  6
Continuous
 62
     3
370
    13
100
AcDbLine
 10
167.5031290782968
 20
-257.2321092952305
 30
0.0
 11
157.5030960863205
 21
-257.2321092952305
 31
0.0
  0
LINE
  5
6C
330
1F
100
AcDbEntity
  8
0-0
  6
Continuous
 62
     3
370
    13
100
AcDbLine
 10
173.6965478388541
 20
-214.5682876366578
 30
0.0
 11
167.5031290782968
 21
-257.2321092952305
 31
0.0
  0
LINE
  5
6D
330
1F
100
AcDbEntity
  8
0-0
  6
Continuous
 62
     3
370
    13
100
AcDbLine
 10
177.3507391395299
 20
-210.457074983575
 30
0.0
 11
213.8644440065062
 21
-200.6733043965818
 31
0.0
  0
LINE
  5
6E
330
1F
100
AcDbEntity
  8
0-0
  6
Continuous
 62
     3
370
    13
100
AcDbLine
 10
151.4368613945973
 20
-240.5655526018184
 30
0.0
 11
99.6882866479757
 21
-240.5655526018184
 31
0.0
  0
LINE
  5
6F
330
1F
100
AcDbEntity
  8
0-0
  6
Continuous
 62
     3
370
    13
100
AcDbLine
 10
154.7055414516075
 20
-243.2450784411343
 30
0.0
 11
157.5030960863205
 21
-257.2321092952305
 31
0.0
  0
LINE
  5
70
330
1F
100
AcDbEntity
  8
0-0
  6
Continuous
 62
     3
370
    13
100
AcDbLine
 10
-309.7904731176493
 20
-240.5655526018184
 30
0.0
 11
-264.6821934512641
 21
-240.5655526018184
 31
0.0
  0
LINE
  5
71
330
1F
100
AcDbEntity
  8
0-0
  6
Continuous
 62
     3
370
    13
100
AcDbLine
 10
-360.9969072128771
 20
-207.2321917751714
 30
0.0
 11
-343.9969253584641
 21
-207.2321917751714
 31
0.0
  0
LINE
  5
72
330
1F
100
AcDbEntity
  8
0-0
  6
JWW_DASHED1
 62
     3
370
    13
100
AcDbLine
 10
-319.5450458055714
 20
-233.1762571784652
 30
0.0
 11
-322.1461332211121
 21
-211.9909544440902
 31
0.0
  0
LINE
  5
73
330
1F
100
AcDbEntity
  8
0-0
  6
Continuous
 62
     3
370
    13
100
AcDbLine
 10
-239.3846883045157
 20
-377.4697999888538
 30
0.0
 11
-248.0579489675225
 21
-256.0448930262271
 31
0.0
  0
LINE
  5
74
330
1F
100
AcDbEntity
  8
0-0
  6
Continuous
 62
     3
370
    13
100
AcDbLine
 10
74.3910289410502
 20
-377.4697999888538
 30
0.0
 11
83.06379472441165
 21
-256.0448930262271
 31
0.0
  0
LINE
  5
75
330
1F
100
AcDbEntity
  8
0-0
  6
Continuous
 62
     3
370
    13
100
AcDbLine
 10
71.06593260447909
 20
-380.5657670496646
 30
0.0
 11
-236.0598394077675
 21
-380.5657670496646
 31
0.0
  0
LINE
  5
76
330
1F
100
AcDbEntity
  8
0-0
  6
Continuous
 62
     3
370
    13
100
AcDbLine
 10
64.51669537897232
 20
-234.9949398748335
 30
0.0
 11
54.1187791521989
 21
-380.5657670496646
 31
0.0
  0
LINE
  5
77
330
1F
100
AcDbEntity
  8
0-1
  6
Continuous
 62
     2
370
    13
100
AcDbLine
 10
259.1696857717091
 20
-164.3773465735244
 30
0.0
 11
257.5029311264387
 21
-157.7105754322659
 31
0.0
  0
LINE
  5
78
330
1F
100
AcDbEntity
  8
0-1
  6
Continuous
 62
     2
370
    13
100
AcDbLine
 10
238.9731525685841
 20
-157.7105754322659
 30
0.0
 11
257.5029311264387
 21
-157.7105754322659
 31
0.0
  0
LINE
  5
79
330
1F
100
AcDbEntity
  8
0-1
  6
Continuous
 62
     2
370
    13
100
AcDbLine
 10
-285.8302564923324
 20
-182.7109053520294
 30
0.0
 11
-282.4969946416147
 21
-199.3774620454417
 31
0.0
  0
LINE
  5
7A
330
1F
100
AcDbEntity
  8
0-1
  6
Continuous
 62
     2
370
    13
100
AcDbLine
 10
-245.8301245244272
 20
-182.7109053520294
 30
0.0
 11
-249.1636338149675
 21
-199.3774620454417
 31
0.0
  0
LINE
  5
7B
330
1F
100
AcDbEntity
  8
0-1
  6
Continuous
 62
     2
370
    13
100
AcDbLine
 10
218.286193636996
 20
-163.2537223389383
 30
0.0
 11
238.9731525685841
 21
-157.7105754322659
 31
0.0
  0
LINE
  5
7C
330
1F
100
AcDbEntity
  8
0-1
  6
Continuous
 62
     2
370
    13
100
AcDbLine
 10
194.1697187636854
 20
-144.3772805895716
 30
0.0
 11
204.1697517556617
 21
-144.3772805895716
 31
0.0
  0
LINE
  5
7D
330
1F
100
AcDbEntity
  8
0-1
  6
Continuous
 62
     2
370
    13
100
AcDbLine
 10
190.8362094731447
 20
-184.4125490122913
 30
0.0
 11
197.5032280542257
 21
-182.6262809326883
 31
0.0
  0
LINE
  5
7E
330
1F
100
AcDbEntity
  8
0-1
  6
Continuous
 62
     2
370
    13
100
AcDbLine
 10
190.8362094731447
 20
-184.4125490122913
 30
0.0
 11
187.5027001826041
 21
-183.5804088887693
 31
0.0
  0
LINE
  5
7F
330
1F
100
AcDbEntity
  8
0-1
  6
Continuous
 62
     2
370
    13
100
AcDbLine
 10
197.5032280542257
 20
-182.6262809326883
 30
0.0
 11
200.8367373447663
 21
-180.007377849918
 31
0.0
  0
LINE
  5
80
330
1F
100
AcDbEntity
  8
0-1
  6
Continuous
 62
     2
370
    13
100
AcDbLine
 10
200.8367373447663
 20
-180.007377849918
 30
0.0
 11
259.1696857717091
 21
-164.3773465735244
 31
0.0
  0
LINE
  5
81
330
1F
100
AcDbEntity
  8
0-1
  6
Continuous
 62
     2
370
    13
100
AcDbLine
 10
-355.8299925565217
 20
-184.4125490122913
 30
0.0
 11
-362.49676369778
 21
-182.6262809326883
 31
0.0
  0
LINE
  5
82
330
1F
100
AcDbEntity
  8
0-1
  6
Continuous
 62
     2
370
    13
100
AcDbLine
 10
-362.49676369778
 20
-182.6262809326883
 30
0.0
 11
-365.8302729883206
 21
-180.0076252897406
 31
0.0
  0
LINE
  5
83
330
1F
100
AcDbEntity
  8
0-1
  6
Continuous
 62
     2
370
    13
100
AcDbLine
 10
-365.8302729883206
 20
-180.0076252897406
 30
0.0
 11
-424.1634688550857
 21
-164.3773465735244
 31
0.0
  0
LINE
  5
84
330
1F
100
AcDbEntity
  8
0-1
  6
Continuous
 62
     2
370
    13
100
AcDbLine
 10
-355.8299925565217
 20
-184.4125490122913
 30
0.0
 11
-352.4968544257152
 21
-183.5804088887693
 31
0.0
  0
LINE
  5
85
330
1F
100
AcDbEntity
  8
0-1
  6
Continuous
 62
     2
370
    13
100
AcDbLine
 10
-293.5406050855545
 20
-199.3774620454417
 30
0.0
 11
-352.4968544257152
 21
-183.5804088887693
 31
0.0
  0
LINE
  5
86
330
1F
100
AcDbEntity
  8
0-1
  6
Continuous
 62
     2
370
    13
100
AcDbLine
 10
205.8132470576041
 20
-155.1084982574349
 30
0.0
 11
204.1697517556617
 21
-144.3772805895716
 31
0.0
  0
LINE
  5
87
330
1F
100
AcDbEntity
  8
0-1
  6
Continuous
 62
     2
370
    13
100
AcDbLine
 10
191.1860893823507
 20
-160.2983010973841
 30
0.0
 11
194.1697187636854
 21
-144.3772805895716
 31
0.0
  0
LINE
  5
88
330
1F
100
AcDbEntity
  8
0-1
  6
JWW_DASHED1
 62
     2
370
    13
100
AcDbLine
 10
191.1860893823507
 20
-160.2985485372068
 30
0.0
 11
189.942951713432
 21
-166.9301832236511
 31
0.0
  0
LINE
  5
89
330
1F
100
AcDbEntity
  8
0-1
  6
Continuous
 62
     2
370
    13
100
AcDbLine
 10
144.9123681513541
 20
-178.9386852559568
 30
0.0
 11
146.7691565804083
 21
-168.5014260973841
 31
0.0
  0
LINE
  5
8A
330
1F
100
AcDbEntity
  8
0-1
  6
Continuous
 62
     2
370
    13
100
AcDbLine
 10
140.0744247391921
 20
-184.210638117021
 30
0.0
 11
127.0110867429926
 21
-187.7106744081951
 31
0.0
  0
LINE
  5
8B
330
1F
100
AcDbEntity
  8
0-1
  6
Continuous
 62
     2
370
    13
100
AcDbLine
 10
-225.0263739965555
 20
-186.7303178309146
 30
0.0
 11
-222.4969204096678
 21
-199.3774620454417
 31
0.0
  0
LINE
  5
8C
330
1F
100
AcDbEntity
  8
0-1
  6
Continuous
 62
     2
370
    13
100
AcDbLine
 10
-229.929146642248
 20
-182.7109053520294
 30
0.0
 11
-310.6650491707532
 21
-182.7109053520294
 31
0.0
  0
LINE
  5
8D
330
1F
100
AcDbEntity
  8
0-1
  6
Continuous
 62
     2
370
    13
100
AcDbLine
 10
100.1455554402057
 20
-190.1284089151629
 30
0.0
 11
97.50289813446216
 21
-199.3774620454417
 31
0.0
  0
LINE
  5
8E
330
1F
100
AcDbEntity
  8
0-1
  6
Continuous
 62
     2
370
    13
100
AcDbLine
 10
-224.830277937117
 20
-187.7106744081951
 30
0.0
 11
127.0110867429926
 21
-187.7106744081951
 31
0.0
  0
LINE
  5
8F
330
1F
100
AcDbEntity
  8
0-1
  6
Continuous
 62
     2
370
    13
100
AcDbLine
 10
-279.4185958082107
 20
-199.3774620454417
 30
0.0
 11
-293.5406050855545
 21
-199.3774620454417
 31
0.0
  0
LINE
  5
90
330
1F
100
AcDbEntity
  8
0-0
  6
Continuous
 62
     3
370
    13
100
AcDbLine
 10
-279.4184720882996
 20
-202.2321752791832
 30
0.0
 11
-286.5259335536712
 21
-202.2321752791832
 31
0.0
  0
LINE
  5
91
330
1F
100
AcDbEntity
  8
0-1
  6
Continuous
 62
     2
370
    13
100
AcDbLine
 10
-350.1094312970199
 20
-172.1417607679923
 30
0.0
 11
-310.6650491707532
 21
-182.7109053520294
 31
0.0
  0
LINE
  5
92
330
1F
100
AcDbEntity
  8
0-1
  6
Continuous
 62
     2
370
    13
100
AcDbLine
 10
-354.9364873569863
 20
-166.9304306634737
 30
0.0
 11
-359.1635018470623
 21
-144.3772805895716
 31
0.0
  0
LINE
  5
93
330
1F
100
AcDbEntity
  8
0-3
  6
Continuous
 62
     4
370
    13
100
AcDbLine
 10
-300.8304297002084
 20
-240.5655526018184
 30
0.0
 11
-315.8302317483503
 21
-240.5655526018184
 31
0.0
  0
LINE
  5
94
330
1F
100
AcDbEntity
  8
0-3
  6
Continuous
 62
     4
370
    13
100
AcDbLine
 10
135.8362754570973
 20
-240.5655526018184
 30
0.0
 11
150.8365723848846
 21
-240.5655526018184
 31
0.0
  0
LINE
  5
95
330
1F
100
AcDbEntity
  8
0-3
  6
Continuous
 62
     4
370
    13
100
AcDbLine
 10
-315.8302317483503
 20
-424.2319674297322
 30
0.0
 11
150.8365723848846
 21
-424.2319674297322
 31
0.0
  0
LINE
  5
96
330
1F
100
AcDbEntity
  8
0-2
  6
Continuous
 62
     4
370
    13
100
AcDbLine
 10
172.5711915255096
 20
-136.8343250363623
 30
0.0
 11
169.3777331745807
 21
-136.8343250363623
 31
0.0
  0
LINE
  5
97
330
1F
100
AcDbEntity
  8
0-2
  6
Continuous
 62
     4
370
    13
100
AcDbLine
 10
160.974181918246
 20
-147.7105424402896
 30
0.0
 11
180.9742479021989
 21
-147.7105424402896
 31
0.0
  0
LINE
  5
98
330
1F
100
AcDbEntity
  8
0-2
  6
Continuous
 62
     4
370
    13
100
AcDbLine
 10
178.074253180915
 20
-147.7105424402896
 30
0.0
 11
181.5809703473002
 21
-141.4691203541409
 31
0.0
  0
LINE
  5
99
330
1F
100
AcDbEntity
  8
0-2
  6
Continuous
 62
     4
370
    13
100
AcDbLine
 10
180.9742479021989
 20
-147.7105424402896
 30
0.0
 11
179.504455355746
 21
-145.1651289848419
 31
0.0
  0
LINE
  5
9A
330
1F
100
AcDbEntity
  8
0-2
  6
Continuous
 62
     4
370
    13
100
AcDbLine
 10
163.8741766395299
 20
-147.7105424402896
 30
0.0
 11
160.3674594731447
 21
-141.4691203541409
 31
0.0
  0
LINE
  5
9B
330
1F
100
AcDbEntity
  8
0-2
  6
Continuous
 62
     4
370
    13
100
AcDbLine
 10
160.974181918246
 20
-147.7105424402896
 30
0.0
 11
162.4439744646989
 21
-145.1651289848419
 31
0.0
  0
LINE
  5
9C
330
1F
100
AcDbEntity
  8
0-2
  6
Continuous
 62
     4
370
    13
100
AcDbLine
 10
178.074253180915
 20
-181.0439032669366
 30
0.0
 11
180.9742479021989
 21
-178.1441559854754
 31
0.0
  0
LINE
  5
9D
330
1F
100
AcDbEntity
  8
0-2
  6
Continuous
 62
     4
370
    13
100
AcDbLine
 10
163.8741766395299
 20
-181.0439032669366
 30
0.0
 11
160.974181918246
 21
-178.1441559854754
 31
0.0
  0
LINE
  5
9E
330
1F
100
AcDbEntity
  8
0-2
  6
Continuous
 62
     4
370
    13
100
AcDbLine
 10
163.8741766395299
 20
-147.7105424402896
 30
0.0
 11
163.8741766395299
 21
-181.0439032669366
 31
0.0
  0
LINE
  5
9F
330
1F
100
AcDbEntity
  8
0-2
  6
Continuous
 62
     4
370
    13
100
AcDbLine
 10
178.074253180915
 20
-147.7105424402896
 30
0.0
 11
178.074253180915
 21
-181.0439032669366
 31
0.0
  0
LINE
  5
A0
330
1F
100
AcDbEntity
  8
0-2
  6
Continuous
 62
     4
370
    13
100
AcDbLine
 10
163.8741766395299
 20
-181.0439032669366
 30
0.0
 11
178.074253180915
 21
-181.0439032669366
 31
0.0
  0
LINE
  5
A1
330
1F
100
AcDbEntity
  8
0-2
  6
Continuous
 62
     4
370
    13
100
AcDbLine
 10
160.974181918246
 20
-178.1441559854754
 30
0.0
 11
180.9742479021989
 21
-178.1441559854754
 31
0.0
  0
LINE
  5
A2
330
1F
100
AcDbEntity
  8
0-2
  6
Continuous
 62
     4
370
    13
100
AcDbLine
 10
160.974181918246
 20
-147.7105424402896
 30
0.0
 11
160.974181918246
 21
-178.1441559854754
 31
0.0
  0
LINE
  5
A3
330
1F
100
AcDbEntity
  8
0-2
  6
Continuous
 62
     4
370
    13
100
AcDbLine
 10
180.9742479021989
 20
-147.7105424402896
 30
0.0
 11
180.9742479021989
 21
-178.1441559854754
 31
0.0
  0
LINE
  5
A4
330
1F
100
AcDbEntity
  8
0-2
  6
JWW_CENTER1
 62
     4
370
    13
100
AcDbLine
 10
170.9742149102223
 20
-120.8942516622068
 30
0.0
 11
170.9742149102223
 21
-186.6498998885582
 31
0.0
  0
LINE
  5
A5
330
1F
100
AcDbEntity
  8
0-1
  6
Continuous
 62
     2
370
    13
100
AcDbLine
 10
128.5466982822663
 20
-199.3774620454417
 30
0.0
 11
187.5027001826041
 21
-183.5804088887693
 31
0.0
  0
LINE
  5
A6
330
1F
100
AcDbEntity
  8
0-1
  6
Continuous
 62
     2
370
    13
100
AcDbLine
 10
180.9742479021989
 20
-178.1441559854754
 30
0.0
 11
180.9742479021989
 21
-185.3295609949771
 31
0.0
  0
LINE
  5
A7
330
1F
100
AcDbEntity
  8
0-1
  6
Continuous
 62
     2
370
    13
100
AcDbLine
 10
178.074253180915
 20
-181.0439032669366
 30
0.0
 11
178.074253180915
 21
-186.1065220380515
 31
0.0
  0
LINE
  5
A8
330
1F
100
AcDbEntity
  8
0-1
  6
Continuous
 62
     2
370
    13
100
AcDbLine
 10
163.8741766395299
 20
-181.0439032669366
 30
0.0
 11
163.8741766395299
 21
-189.9114041907119
 31
0.0
  0
LINE
  5
A9
330
1F
100
AcDbEntity
  8
0-1
  6
Continuous
 62
     2
370
    13
100
AcDbLine
 10
160.974181918246
 20
-178.1441559854754
 30
0.0
 11
160.974181918246
 21
-190.6883652337862
 31
0.0
  0
LINE
  5
AA
330
1F
100
AcDbEntity
  8
0-1
  6
Continuous
 62
     2
370
    13
100
AcDbLine
 10
186.2714396251718
 20
-164.3773465735244
 30
0.0
 11
180.9742479021989
 21
-164.3773465735244
 31
0.0
  0
LINE
  5
AB
330
1F
100
AcDbEntity
  8
0-1
  6
Continuous
 62
     2
370
    13
100
AcDbLine
 10
160.974181918246
 20
-164.3773465735244
 30
0.0
 11
151.6917244119117
 21
-164.3773465735244
 31
0.0
  0
LINE
  5
AC
330
1F
100
AcDbEntity
  8
0-1
  6
JWW_DASHED1
 62
     2
370
    13
100
AcDbLine
 10
140.0744247391921
 20
-184.210638117021
 30
0.0
 11
160.974181918246
 21
-178.6103326113201
 31
0.0
  0
LINE
  5
AD
330
1F
100
AcDbEntity
  8
0-1
  6
JWW_DASHED1
 62
     2
370
    13
100
AcDbLine
 10
180.9742479021989
 20
-173.2512809326883
 30
0.0
 11
218.286193636996
 21
-163.2537223389383
 31
0.0
  0
LINE
  5
AE
330
1F
100
AcDbEntity
  8
0-0
  6
Continuous
 62
     3
370
    13
100
AcDbLine
 10
-323.9372263772566
 20
-230.5655196098419
 30
0.0
 11
-340.9969649488357
 21
-230.5655196098419
 31
0.0
  0
LINE
  5
AF
330
1F
100
AcDbEntity
  8
0-0
  6
Continuous
 62
     3
370
    13
100
AcDbLine
 10
-363.9968676225055
 20
-230.5655196098419
 30
0.0
 11
-366.6030275544102
 21
-230.5655196098419
 31
0.0
  0
LINE
  5
B0
330
1F
100
AcDbEntity
  8
0-0
  6
Continuous
 62
     3
370
    13
100
AcDbLine
 10
-343.9969253584641
 20
-213.8987154766072
 30
0.0
 11
-343.9969253584641
 21
-207.2321917751714
 31
0.0
  0
LINE
  5
B1
330
1F
100
AcDbEntity
  8
0-0
  6
Continuous
 62
     3
370
    13
100
AcDbLine
 10
-360.9969072128771
 20
-213.8987154766072
 30
0.0
 11
-360.9969072128771
 21
-207.2321917751714
 31
0.0
  0
LINE
  5
B2
330
1F
100
AcDbEntity
  8
0-1
  6
Continuous
 62
     2
370
    13
100
AcDbLine
 10
128.5466982822663
 20
-199.3774620454417
 30
0.0
 11
-252.2420326483714
 21
-199.3774620454417
 31
0.0
  0
LINE
  5
B3
330
1F
100
AcDbEntity
  8
0-0
  6
Continuous
 62
     3
370
    13
100
AcDbLine
 10
-248.5723763587811
 20
-202.2321752791832
 30
0.0
 11
-252.2420326483714
 21
-202.2321752791832
 31
0.0
  0
LINE
  5
B4
330
1F
100
AcDbEntity
  8
0-2
  6
Continuous
 62
     6
370
    13
100
AcDbLine
 10
-349.6611940583165
 20
-161.6404146953572
 30
0.0
 11
-352.4968544257152
 21
-144.3775280293943
 31
0.0
  0
LINE
  5
B5
330
1F
100
AcDbEntity
  8
0-2
  6
Continuous
 62
     6
370
    13
100
AcDbLine
 10
187.5027001826041
 20
-144.3775280293943
 30
0.0
 11
184.7571079106447
 21
-161.0957996457373
 31
0.0
  0
LINE
  5
B6
330
1F
100
AcDbEntity
  8
0-2
  6
Continuous
 62
     6
370
    13
100
AcDbLine
 10
187.5027001826041
 20
-144.3775280293943
 30
0.0
 11
184.1696857717091
 21
-141.0440187388538
 31
0.0
  0
LINE
  5
B7
330
1F
100
AcDbEntity
  8
0-2
  6
Continuous
 62
     6
370
    13
100
AcDbLine
 10
184.1696857717091
 20
-141.0440187388538
 30
0.0
 11
150.2610273574354
 21
-141.0440187388538
 31
0.0
  0
LINE
  5
B8
330
1F
100
AcDbEntity
  8
0-2
  6
Continuous
 62
     6
370
    13
100
AcDbLine
 10
152.5033270301549
 20
-164.377594013347
 30
0.0
 11
157.5798024313374
 21
-144.3775280293943
 31
0.0
  0
LINE
  5
B9
330
1F
100
AcDbEntity
  8
0-2
  6
Continuous
 62
     6
370
    13
100
AcDbLine
 10
-293.1271331419313
 20
68.95593177318162
 30
0.0
 11
-82.49695340164408
 21
68.95593177318162
 31
0.0
  0
LINE
  5
BA
330
1F
100
AcDbEntity
  8
0-2
  6
Continuous
 62
     6
370
    13
100
AcDbLine
 10
128.1334737784655
 20
68.95593177318162
 30
0.0
 11
-82.49695340164408
 21
68.95593177318162
 31
0.0
  0
LINE
  5
BB
330
1F
100
AcDbEntity
  8
0-2
  6
Continuous
 62
     6
370
    13
100
AcDbLine
 10
131.4531264389387
 20
65.92429906625611
 30
0.0
 11
150.2610273574354
 21
-141.0440187388538
 31
0.0
  0
LINE
  5
BC
330
1F
100
AcDbEntity
  8
0-2
  6
JWW_DASHED1
 62
     6
370
    13
100
AcDbLine
 10
122.5175795639387
 20
18.24239780464282
 30
0.0
 11
136.0243297223002
 21
15.6222575227595
 31
0.0
  0
LINE
  5
BD
330
1F
100
AcDbEntity
  8
0-2
  6
Continuous
 62
     6
370
    13
100
AcDbLine
 10
135.117710212165
 20
-155.3074398748335
 30
0.0
 11
114.1694548278744
 21
68.95593177318162
 31
0.0
  0
LINE
  5
BE
330
1F
100
AcDbEntity
  8
0-2
  6
Continuous
 62
     6
370
    13
100
AcDbLine
 10
-287.5119812468722
 20
18.24239780464282
 30
0.0
 11
-301.0179890857657
 21
15.6222575227595
 31
0.0
  0
LINE
  5
BF
330
1F
100
AcDbEntity
  8
0-0
  6
JWW_CENTER1
 62
     3
370
    13
100
AcDbLine
 10
-82.49695340164408
 20
97.2336021437475
 30
0.0
 11
-82.49695340164408
 21
-435.5748563391494
 31
0.0
  0
LINE
  5
C0
330
1F
100
AcDbEntity
  8
0-2
  6
Continuous
 62
     6
370
    13
100
AcDbLine
 10
187.5027001826041
 20
-144.3775280293943
 30
0.0
 11
179.9468777586176
 21
-144.3775280293943
 31
0.0
  0
LINE
  5
C1
330
1F
100
AcDbEntity
  8
0-2
  6
Continuous
 62
     6
370
    13
100
AcDbLine
 10
162.0015520618273
 20
-144.3775280293943
 30
0.0
 11
157.5798024313374
 21
-144.3775280293943
 31
0.0
  0
LINE
  5
C2
330
1F
100
AcDbEntity
  8
0-2
  6
Continuous
 62
     4
370
    13
100
AcDbLine
 10
172.5711915255096
 20
-127.7827288845464
 30
0.0
 11
172.5711915255096
 21
-136.8343250363623
 31
0.0
  0
LINE
  5
C3
330
1F
100
AcDbEntity
  8
0-2
  6
Continuous
 62
     4
370
    13
100
AcDbLine
 10
169.3777331745807
 20
-127.7827288845464
 30
0.0
 11
169.3777331745807
 21
-136.8343250363623
 31
0.0
  0
LINE
  5
C4
330
1F
100
AcDbEntity
  8
0-2
  6
Continuous
 62
     4
370
    13
100
AcDbLine
 10
154.3076582168104
 20
-139.3772640935835
 30
0.0
 11
154.3076582168104
 21
-141.0440187388538
 31
0.0
  0
LINE
  5
C5
330
1F
100
AcDbEntity
  8
0-2
  6
Continuous
 62
     4
370
    13
100
AcDbLine
 10
187.6407716036346
 20
-139.3772640935835
 30
0.0
 11
187.6407716036346
 21
-141.0440187388538
 31
0.0
  0
LINE
  5
C6
330
1F
100
AcDbEntity
  8
0-2
  6
Continuous
 62
     4
370
    13
100
AcDbLine
 10
154.3076582168104
 20
-141.0440187388538
 30
0.0
 11
187.6407716036346
 21
-141.0440187388538
 31
0.0
  0
LINE
  5
C7
330
1F
100
AcDbEntity
  8
0-2
  6
Continuous
 62
     6
370
    13
100
AcDbLine
 10
154.2225389178239
 20
-141.0440187388538
 30
0.0
 11
157.5798024313374
 21
-144.3775280293943
 31
0.0
  0
LINE
  5
C8
330
1F
100
AcDbEntity
  8
0-2
  6
Continuous
 62
     6
370
    13
100
AcDbLine
 10
-346.3816266491105
 20
-164.377594013347
 30
0.0
 11
-290.8302729883206
 21
-164.377594013347
 31
0.0
  0
LINE
  5
C9
330
1F
100
AcDbEntity
  8
0-2
  6
Continuous
 62
     6
370
    13
100
AcDbLine
 10
-240.8301080284389
 20
-164.377594013347
 30
0.0
 11
-82.49695340164408
 21
-164.377594013347
 31
0.0
  0
LINE
  5
CA
330
1F
100
AcDbEntity
  8
0-2
  6
Continuous
 62
     6
370
    13
100
AcDbLine
 10
181.3879672856447
 20
-164.377594013347
 30
0.0
 11
180.9742479021989
 21
-164.377594013347
 31
0.0
  0
LINE
  5
CB
330
1F
100
AcDbEntity
  8
0-2
  6
Continuous
 62
     6
370
    13
100
AcDbLine
 10
160.974181918246
 20
-164.377594013347
 30
0.0
 11
-82.49695340164408
 21
-164.377594013347
 31
0.0
  0
LINE
  5
CC
330
1F
100
AcDbEntity
  8
0-2
  6
Continuous
 62
     6
370
    13
100
AcDbLine
 10
-314.6296537289246
 20
29.99158290282693
 30
0.0
 11
-311.4619291195496
 21
64.84768839797042
 31
0.0
  0
LINE
  5
CD
330
1F
100
AcDbEntity
  8
0-2
  6
Continuous
 62
     6
370
    13
100
AcDbLine
 10
-316.5163823765175
 20
46.06131474404307
 30
0.0
 11
-316.2146295128139
 21
49.38121484433893
 31
0.0
  0
LINE
  5
CE
330
1F
100
AcDbEntity
  8
0-2
  6
Continuous
 62
     6
370
    13
100
AcDbLine
 10
-325.7816428151787
 20
50.25071838107877
 30
0.0
 11
-316.2146295128139
 21
49.38121484433893
 31
0.0
  0
LINE
  5
CF
330
1F
100
AcDbEntity
  8
0-2
  6
Continuous
 62
     6
370
    13
100
AcDbLine
 10
-326.0833956788824
 20
46.93081828078292
 30
0.0
 11
-316.5163823765175
 21
46.06131474404307
 31
0.0
  0
LINE
  5
D0
330
1F
100
AcDbEntity
  8
0-2
  6
Continuous
 62
     6
370
    13
100
AcDbLine
 10
-273.9641560779532
 20
35.50033567415298
 30
0.0
 11
-272.4557629191696
 21
52.09859897651782
 31
0.0
  0
LINE
  5
D1
330
1F
100
AcDbEntity
  8
0-2
  6
Continuous
 62
     6
370
    13
100
AcDbLine
 10
-275.7749206999972
 20
33.99120019590143
 30
0.0
 11
-273.96477467751
 21
53.90936359856184
 31
0.0
  0
LINE
  5
D2
330
1F
100
AcDbEntity
  8
0-2
  6
Continuous
 62
     6
370
    13
100
AcDbLine
 10
-275.7749206999972
 20
33.99120019590143
 30
0.0
 11
-273.9641560779532
 21
35.50033567415298
 31
0.0
  0
LINE
  5
D3
330
1F
100
AcDbEntity
  8
0-2
  6
Continuous
 62
     6
370
    13
100
AcDbLine
 10
-273.96477467751
 20
53.90936359856184
 30
0.0
 11
-272.4557629191696
 21
52.09859897651782
 31
0.0
  0
LINE
  5
D4
330
1F
100
AcDbEntity
  8
0-2
  6
Continuous
 62
     6
370
    13
100
AcDbLine
 10
-312.140780272949
 20
57.37846991190636
 30
0.0
 11
-273.96477467751
 21
53.90936359856184
 31
0.0
  0
LINE
  5
D5
330
1F
100
AcDbEntity
  8
0-2
  6
Continuous
 62
     6
370
    13
100
AcDbLine
 10
-312.2915948448451
 20
55.71864358166991
 30
0.0
 11
-272.4557629191696
 21
52.09859897651782
 31
0.0
  0
LINE
  5
D6
330
1F
100
AcDbEntity
  8
0-2
  6
Continuous
 62
     6
370
    13
100
AcDbLine
 10
-313.799988003629
 20
39.12062771912773
 30
0.0
 11
-273.9641560779532
 21
35.50033567415298
 31
0.0
  0
LINE
  5
D7
330
1F
100
AcDbEntity
  8
0-2
  6
Continuous
 62
     6
370
    13
100
AcDbLine
 10
-313.9510500153477
 20
37.46055394906861
 30
0.0
 11
-275.7749206999972
 21
33.99120019590143
 31
0.0
  0
LINE
  5
D8
330
1F
100
AcDbEntity
  8
0-2
  6
JWW_CENTER1
 62
     6
370
    13
100
AcDbLine
 10
-335.9465944489415
 20
49.50072827867146
 30
0.0
 11
-261.0745208372438
 21
42.69638059602798
 31
0.0
  0
LINE
  5
D9
330
1F
100
AcDbEntity
  8
0-2
  6
Continuous
 62
     6
370
    13
100
AcDbLine
 10
-296.4469095223157
 20
65.92429906625611
 30
0.0
 11
-297.3456109581264
 21
56.03412935552953
 31
0.0
  0
LINE
  5
DA
330
1F
100
AcDbEntity
  8
0-2
  6
Continuous
 62
     6
370
    13
100
AcDbLine
 10
-299.1557569806136
 20
36.11596595286912
 30
0.0
 11
-316.8251872751662
 21
-158.3140811596731
 31
0.0
  0
LINE
  5
DB
330
1F
100
AcDbEntity
  8
0-2
  6
Continuous
 62
     6
370
    13
100
AcDbLine
 10
-300.1126067747438
 20
-155.3074398748335
 30
0.0
 11
-282.3737696099423
 21
34.59074688614621
 31
0.0
  0
LINE
  5
DC
330
1F
100
AcDbEntity
  8
0-2
  6
Continuous
 62
     6
370
    13
100
AcDbLine
 10
-280.5135170233714
 20
54.50445637199934
 30
0.0
 11
-279.1636090709852
 21
68.95593177318162
 31
0.0
  0
LINE
  5
DD
330
1F
100
AcDbEntity
  8
0-0
  6
Continuous
 62
     3
370
    13
100
AcDbLine
 10
286.2272303768609
 20
-157.2320268152896
 30
0.0
 11
206.3828535293104
 21
-157.2320268152896
 31
0.0
  0
LINE
  5
DE
330
1F
100
AcDbEntity
  8
0-4
  6
Continuous
 62
     7
370
    13
100
AcDbLine
 10
-279.1636090709852
 20
168.9558905332113
 30
0.0
 11
114.1694548278744
 21
168.9558905332113
 31
0.0
  0
LINE
  5
DF
330
1F
100
AcDbEntity
  8
0-4
  6
Continuous
 62
     7
370
    13
100
AcDbLine
 10
-279.1636090709852
 20
93.95589053321132
 30
0.0
 11
-279.1636090709852
 21
171.9558509428397
 31
0.0
  0
LINE
  5
E0
330
1F
100
AcDbEntity
  8
0-4
  6
Continuous
 62
     7
370
    13
100
AcDbLine
 10
114.1694548278744
 20
93.95589053321132
 30
0.0
 11
114.1694548278744
 21
171.9558509428397
 31
0.0
  0
LINE
  5
E1
330
1F
100
AcDbEntity
  8
0-4
  6
Continuous
 62
     7
370
    13
100
AcDbLine
 10
-279.1636090709852
 20
168.9558905332113
 30
0.0
 11
-254.3774383177126
 21
172.2190031942121
 31
0.0
  0
LINE
  5
E2
330
1F
100
AcDbEntity
  8
0-4
  6
Continuous
 62
     7
370
    13
100
AcDbLine
 10
-279.1636090709852
 20
168.9558905332113
 30
0.0
 11
-254.3774383177126
 21
165.6927778722105
 31
0.0
  0
LINE
  5
E3
330
1F
100
AcDbEntity
  8
0-4
  6
Continuous
 62
     7
370
    13
100
AcDbLine
 10
114.1694548278744
 20
168.9558905332113
 30
0.0
 11
89.38340779451295
 21
172.2190031942121
 31
0.0
  0
LINE
  5
E4
330
1F
100
AcDbEntity
  8
0-4
  6
Continuous
 62
     7
370
    13
100
AcDbLine
 10
114.1694548278744
 20
168.9558905332113
 30
0.0
 11
89.38340779451295
 21
165.6927778722105
 31
0.0
  0
LINE
  5
E5
330
1F
100
AcDbEntity
  8
0-4
  6
Continuous
 62
     7
370
    13
100
AcDbLine
 10
-424.1634688550857
 20
248.9559070291993
 30
0.0
 11
259.1696857717091
 21
248.9559070291993
 31
0.0
  0
LINE
  5
E6
330
1F
100
AcDbEntity
  8
0-4
  6
Continuous
 62
     7
370
    13
100
AcDbLine
 10
-424.1634688550857
 20
-139.3773878134948
 30
0.0
 11
-424.1634688550857
 21
251.9558674388277
 31
0.0
  0
LINE
  5
E7
330
1F
100
AcDbEntity
  8
0-4
  6
Continuous
 62
     7
370
    13
100
AcDbLine
 10
259.1696857717091
 20
-139.3772640935835
 30
0.0
 11
259.1696857717091
 21
251.9558674388277
 31
0.0
  0
LINE
  5
E8
330
1F
100
AcDbEntity
  8
0-4
  6
Continuous
 62
     7
370
    13
100
AcDbLine
 10
-424.1634688550857
 20
248.9559070291993
 30
0.0
 11
-399.3772981018131
 21
252.2190196902004
 31
0.0
  0
LINE
  5
E9
330
1F
100
AcDbEntity
  8
0-4
  6
Continuous
 62
     7
370
    13
100
AcDbLine
 10
-424.1634688550857
 20
248.9559070291993
 30
0.0
 11
-399.3772981018131
 21
245.6927943681985
 31
0.0
  0
LINE
  5
EA
330
1F
100
AcDbEntity
  8
0-4
  6
Continuous
 62
     7
370
    13
100
AcDbLine
 10
259.1696857717091
 20
248.9559070291993
 30
0.0
 11
234.3836387383473
 21
252.2190196902004
 31
0.0
  0
LINE
  5
EB
330
1F
100
AcDbEntity
  8
0-4
  6
Continuous
 62
     7
370
    13
100
AcDbLine
 10
259.1696857717091
 20
248.9559070291993
 30
0.0
 11
234.3836387383473
 21
245.6927943681985
 31
0.0
  0
LINE
  5
EC
330
1F
100
AcDbEntity
  8
0-4
  6
Continuous
 62
     7
370
    13
100
AcDbLine
 10
-239.16347710308
 20
-524.2319261897617
 30
0.0
 11
74.16981773961425
 21
-524.2319261897617
 31
0.0
  0
LINE
  5
ED
330
1F
100
AcDbEntity
  8
0-4
  6
Continuous
 62
     7
370
    13
100
AcDbLine
 10
-239.16347710308
 20
-405.5657258096942
 30
0.0
 11
-239.16347710308
 21
-527.2320103193015
 31
0.0
  0
LINE
  5
EE
330
1F
100
AcDbEntity
  8
0-4
  6
Continuous
 62
     7
370
    13
100
AcDbLine
 10
74.16981773961425
 20
-405.5657258096942
 30
0.0
 11
74.16981773961425
 21
-527.2320103193015
 31
0.0
  0
LINE
  5
EF
330
1F
100
AcDbEntity
  8
0-4
  6
Continuous
 62
     7
370
    13
100
AcDbLine
 10
-239.16347710308
 20
-524.2319261897617
 30
0.0
 11
-214.3773063498071
 21
-520.968813528761
 31
0.0
  0
LINE
  5
F0
330
1F
100
AcDbEntity
  8
0-4
  6
Continuous
 62
     7
370
    13
100
AcDbLine
 10
-239.16347710308
 20
-524.2319261897617
 30
0.0
 11
-214.3773063498071
 21
-527.4951625706739
 31
0.0
  0
LINE
  5
F1
330
1F
100
AcDbEntity
  8
0-4
  6
Continuous
 62
     7
370
    13
100
AcDbLine
 10
74.16981773961425
 20
-524.2319261897617
 30
0.0
 11
49.38377070625279
 21
-520.968813528761
 31
0.0
  0
LINE
  5
F2
330
1F
100
AcDbEntity
  8
0-4
  6
Continuous
 62
     7
370
    13
100
AcDbLine
 10
74.16981773961425
 20
-524.2319261897617
 30
0.0
 11
49.38377070625279
 21
-527.4951625706739
 31
0.0
  0
LINE
  5
F3
330
1F
100
AcDbEntity
  8
0-4
  6
Continuous
 62
     7
370
    13
100
AcDbLine
 10
-249.1636338149675
 20
-604.2319426857499
 30
0.0
 11
84.16935585194551
 21
-604.2319426857499
 31
0.0
  0
LINE
  5
F4
330
1F
100
AcDbEntity
  8
0-4
  6
Continuous
 62
     7
370
    13
100
AcDbLine
 10
-249.1636338149675
 20
-265.5655113618479
 30
0.0
 11
-249.1636338149675
 21
-607.2320268152896
 31
0.0
  0
LINE
  5
F5
330
1F
100
AcDbEntity
  8
0-4
  6
Continuous
 62
     7
370
    13
100
AcDbLine
 10
84.16935585194551
 20
-265.5655113618479
 30
0.0
 11
84.16935585194551
 21
-607.2320268152896
 31
0.0
  0
LINE
  5
F6
330
1F
100
AcDbEntity
  8
0-4
  6
Continuous
 62
     7
370
    13
100
AcDbLine
 10
-249.1636338149675
 20
-604.2319426857499
 30
0.0
 11
-224.3774630616949
 21
-600.9688300247491
 31
0.0
  0
LINE
  5
F7
330
1F
100
AcDbEntity
  8
0-4
  6
Continuous
 62
     7
370
    13
100
AcDbLine
 10
-249.1636338149675
 20
-604.2319426857499
 30
0.0
 11
-224.3774630616949
 21
-607.4951790666621
 31
0.0
  0
LINE
  5
F8
330
1F
100
AcDbEntity
  8
0-4
  6
Continuous
 62
     7
370
    13
100
AcDbLine
 10
84.16935585194551
 20
-604.2319426857499
 30
0.0
 11
59.38330881858406
 21
-600.9688300247491
 31
0.0
  0
LINE
  5
F9
330
1F
100
AcDbEntity
  8
0-4
  6
Continuous
 62
     7
370
    13
100
AcDbLine
 10
84.16935585194551
 20
-604.2319426857499
 30
0.0
 11
59.38330881858406
 21
-607.4951790666621
 31
0.0
  0
LINE
  5
FA
330
1F
100
AcDbEntity
  8
0-4
  6
Continuous
 62
     7
370
    13
100
AcDbLine
 10
-315.8302317483503
 20
-684.2319591817381
 30
0.0
 11
150.8365723848846
 21
-684.2319591817381
 31
0.0
  0
LINE
  5
FB
330
1F
100
AcDbEntity
  8
0-4
  6
Continuous
 62
     7
370
    13
100
AcDbLine
 10
-315.8302317483503
 20
-449.2319261897617
 30
0.0
 11
-315.8302317483503
 21
-687.2320433112777
 31
0.0
  0
LINE
  5
FC
330
1F
100
AcDbEntity
  8
0-4
  6
Continuous
 62
     7
370
    13
100
AcDbLine
 10
150.8365723848846
 20
-449.2319261897617
 30
0.0
 11
150.8365723848846
 21
-687.2320433112777
 31
0.0
  0
LINE
  5
FD
330
1F
100
AcDbEntity
  8
0-4
  6
Continuous
 62
     7
370
    13
100
AcDbLine
 10
-315.8302317483503
 20
-684.2319591817381
 30
0.0
 11
-291.0440609950774
 21
-680.9688465207373
 31
0.0
  0
LINE
  5
FE
330
1F
100
AcDbEntity
  8
0-4
  6
Continuous
 62
     7
370
    13
100
AcDbLine
 10
-315.8302317483503
 20
-684.2319591817381
 30
0.0
 11
-291.0440609950774
 21
-687.4951955626502
 31
0.0
  0
LINE
  5
FF
330
1F
100
AcDbEntity
  8
0-4
  6
Continuous
 62
     7
370
    13
100
AcDbLine
 10
150.8365723848846
 20
-684.2319591817381
 30
0.0
 11
126.0505253515231
 21
-680.9688465207373
 31
0.0
  0
LINE
  5
100
330
1F
100
AcDbEntity
  8
0-4
  6
Continuous
 62
     7
370
    13
100
AcDbLine
 10
150.8365723848846
 20
-684.2319591817381
 30
0.0
 11
126.0505253515231
 21
-687.4951955626502
 31
0.0
  0
LINE
  5
101
330
1F
100
AcDbEntity
  8
0-4
  6
Continuous
 62
     7
370
    13
100
AcDbLine
 10
-557.4969121616738
 20
-164.3773465735244
 30
0.0
 11
-557.4969121616738
 21
68.95605549309309
 31
0.0
  0
LINE
  5
102
330
1F
100
AcDbEntity
  8
0-4
  6
Continuous
 62
     7
370
    13
100
AcDbLine
 10
-371.3815854091399
 20
-164.3773465735244
 30
0.0
 11
-560.4968725713022
 21
-164.3773465735244
 31
0.0
  0
LINE
  5
103
330
1F
100
AcDbEntity
  8
0-4
  6
Continuous
 62
     7
370
    13
100
AcDbLine
 10
-318.1270919019607
 20
68.95605549309309
 30
0.0
 11
-560.4968725713022
 21
68.95605549309309
 31
0.0
  0
LINE
  5
104
330
1F
100
AcDbEntity
  8
0-4
  6
Continuous
 62
     7
370
    13
100
AcDbLine
 10
-557.4969121616738
 20
-164.3773465735244
 30
0.0
 11
-560.7600248226745
 21
-139.5911758202516
 31
0.0
  0
LINE
  5
105
330
1F
100
AcDbEntity
  8
0-4
  6
Continuous
 62
     7
370
    13
100
AcDbLine
 10
-557.4969121616738
 20
-164.3773465735244
 30
0.0
 11
-554.2337995006731
 21
-139.5911758202516
 31
0.0
  0
LINE
  5
106
330
1F
100
AcDbEntity
  8
0-4
  6
Continuous
 62
     7
370
    13
100
AcDbLine
 10
-557.4969121616738
 20
68.95605549309309
 30
0.0
 11
-560.7600248226745
 21
44.16988473982016
 31
0.0
  0
LINE
  5
107
330
1F
100
AcDbEntity
  8
0-4
  6
Continuous
 62
     7
370
    13
100
AcDbLine
 10
-557.4969121616738
 20
68.95605549309309
 30
0.0
 11
-554.2337995006731
 21
44.16988473982016
 31
0.0
  0
LINE
  5
108
330
1F
100
AcDbEntity
  8
0-3
  6
Continuous
 62
     7
370
    13
100
AcDbLine
 10
-332.8746290509261
 20
-365.3320106492213
 30
0.0
 11
-286.9178782327253
 21
-357.2289750574771
 31
0.0
  0
LINE
  5
109
330
1F
100
AcDbEntity
  8
0-3
  6
Continuous
 62
     7
370
    13
100
AcDbLine
 10
-330.5593346305292
 20
-378.4628997169999
 30
0.0
 11
-284.6025838123282
 21
-370.3593692456105
 31
0.0
  0
LINE
  5
10A
330
1F
100
AcDbEntity
  8
0-3
  6
Continuous
 62
     7
370
    13
100
AcDbLine
 10
118.7921255943439
 20
-365.3320106492213
 30
0.0
 11
164.7491238523676
 21
-357.2289750574771
 31
0.0
  0
LINE
  5
10B
330
1F
100
AcDbEntity
  8
0-3
  6
Continuous
 62
     7
370
    13
100
AcDbLine
 10
121.1076674545637
 20
-378.4628997169999
 30
0.0
 11
167.0641708329421
 21
-370.3593692456105
 31
0.0
  0
LINE
  5
10C
330
1F
100
AcDbEntity
  8
0-3
  6
Continuous
 62
     4
370
    13
100
AcDbLine
 10
-315.8302317483503
 20
-240.5655526018184
 30
0.0
 11
-315.8302317483503
 21
-362.3267302834062
 31
0.0
  0
LINE
  5
10D
330
1F
100
AcDbEntity
  8
0-3
  6
Continuous
 62
     4
370
    13
100
AcDbLine
 10
-315.8302317483503
 20
-375.8657094786659
 30
0.0
 11
-315.8302317483503
 21
-424.2319674297322
 31
0.0
  0
LINE
  5
10E
330
1F
100
AcDbEntity
  8
0-3
  6
Continuous
 62
     4
370
    13
100
AcDbLine
 10
-300.8304297002084
 20
-240.5655526018184
 30
0.0
 11
-300.8304297002084
 21
-359.6820315991262
 31
0.0
  0
LINE
  5
10F
330
1F
100
AcDbEntity
  8
0-3
  6
Continuous
 62
     4
370
    13
100
AcDbLine
 10
-300.8304297002084
 20
-373.2208252145189
 30
0.0
 11
-300.8304297002084
 21
-424.2319674297322
 31
0.0
  0
LINE
  5
110
330
1F
100
AcDbEntity
  8
0-3
  6
Continuous
 62
     4
370
    13
100
AcDbLine
 10
135.8362754570973
 20
-240.5655526018184
 30
0.0
 11
135.8362754570973
 21
-362.3268540033175
 31
0.0
  0
LINE
  5
111
330
1F
100
AcDbEntity
  8
0-3
  6
Continuous
 62
     4
370
    13
100
AcDbLine
 10
135.8362754570973
 20
-375.8657713386215
 30
0.0
 11
135.8362754570973
 21
-424.2319674297322
 31
0.0
  0
LINE
  5
112
330
1F
100
AcDbEntity
  8
0-3
  6
Continuous
 62
     4
370
    13
100
AcDbLine
 10
150.8365723848846
 20
-240.5655526018184
 30
0.0
 11
150.8365723848846
 21
-359.6820315991262
 31
0.0
  0
LINE
  5
113
330
1F
100
AcDbEntity
  8
0-3
  6
Continuous
 62
     4
370
    13
100
AcDbLine
 10
150.8365723848846
 20
-373.2207633545633
 30
0.0
 11
150.8365723848846
 21
-424.2319674297322
 31
0.0
  0
ARC
  5
114
330
1F
100
AcDbEntity
  8
0-0
  6
Continuous
 62
     3
370
    13
100
AcDbCircle
 10
-428.1805306556561
 20
-215.0648993606866
 30
0.0
 40
36.66666133983716
100
AcDbArc
 50
74.99996948242188
 51
121.7902069091797
  0
ARC
  5
115
330
1F
100
AcDbEntity
  8
0-0
  6
Continuous
 62
     3
370
    13
100
AcDbCircle
 10
-349.5854774725902
 20
-189.537027739065
 30
0.0
 40
5.000000064437454
100
AcDbArc
 50
254.9999084472656
 51
318.4355773925781
  0
ARC
  5
116
330
1F
100
AcDbEntity
  8
0-0
  6
Continuous
 62
     3
370
    13
100
AcDbCircle
 10
-366.1535531165936
 20
-185.0974624413453
 30
0.0
 40
5.000000064437454
100
AcDbArc
 50
191.5648956298828
 51
254.9999084472656
  0
ARC
  5
117
330
1F
100
AcDbEntity
  8
0-0
  6
Continuous
 62
     3
370
    13
100
AcDbCircle
 10
-386.6240022033756
 20
-172.2793373093775
 30
0.0
 40
5.416692108721347
100
AcDbArc
 50
187.620590209961
 51
322.37890625
  0
ARC
  5
118
330
1F
100
AcDbEntity
  8
0-0
  6
Continuous
 62
     3
370
    13
100
AcDbCircle
 10
-375.5265735980123
 20
-180.860550358364
 30
0.0
 40
3.333333376291636
100
AcDbArc
 50
11.56642150878907
 51
75.00077819824219
  0
ARC
  5
119
330
1F
100
AcDbEntity
  8
0-0
  6
Continuous
 62
     3
370
    13
100
AcDbCircle
 10
-339.3493868898199
 20
-190.554252849918
 30
0.0
 40
3.333333376291636
100
AcDbArc
 50
75.00021362304686
 51
138.4349670410156
  0
ARC
  5
11A
330
1F
100
AcDbEntity
  8
0-0
  6
Continuous
 62
     3
370
    13
100
AcDbCircle
 10
-405.9424951958798
 20
-167.1028962198504
 30
0.0
 40
5.416692108721347
100
AcDbArc
 50
187.6192932128907
 51
322.3796997070313
  0
ARC
  5
11B
330
1F
100
AcDbEntity
  8
0-0
  6
Continuous
 62
     3
370
    13
100
AcDbCircle
 10
-325.4484650940006
 20
-188.6712357996646
 30
0.0
 40
5.416692108721347
100
AcDbArc
 50
187.620590209961
 51
322.3807373046876
  0
ARC
  5
11C
330
1F
100
AcDbEntity
  8
0-0
  6
Continuous
 62
     3
370
    13
100
AcDbCircle
 10
-389.789994733992
 20
-194.2933160097576
 30
0.0
 40
6.666666752583272
100
AcDbArc
 50
11.56620788574219
 51
75.00050354003906
  0
ARC
  5
11D
330
1F
100
AcDbEntity
  8
0-0
  6
JWW_DASHED1
 62
     3
370
    13
100
AcDbCircle
 10
-333.7136974894821
 20
-209.3188517994534
 30
0.0
 40
6.666666752583272
100
AcDbArc
 50
74.999755859375
 51
138.4350738525391
  0
ARC
  5
11E
330
1F
100
AcDbEntity
  8
0-0
  6
JWW_DASHED1
 62
     3
370
    13
100
AcDbCircle
 10
-345.07638158471
 20
-204.5487068986934
 30
0.0
 40
5.000000064437454
100
AcDbArc
 50
255.0012817382812
 51
318.4365081787109
  0
ARC
  5
11F
330
1F
100
AcDbEntity
  8
0-0
  6
JWW_DASHED1
 62
     3
370
    13
100
AcDbCircle
 10
-332.0716868264753
 20
-213.2095955705684
 30
0.0
 40
10.00000012887491
100
AcDbArc
 50
7.000076293945317
 51
74.99990844726564
  0
ARC
  5
120
330
1F
100
AcDbEntity
  8
0-0
  6
Continuous
 62
     3
370
    13
100
AcDbCircle
 10
263.1866238523676
 20
-215.0648993606866
 30
0.0
 40
36.66666133983716
100
AcDbArc
 50
58.20979309082032
 51
105.0000305175781
  0
ARC
  5
121
330
1F
100
AcDbEntity
  8
0-0
  6
Continuous
 62
     3
370
    13
100
AcDbCircle
 10
184.5918181091244
 20
-189.537027739065
 30
0.0
 40
5.000000064437454
100
AcDbArc
 50
221.5644226074219
 51
285.0000915527344
  0
ARC
  5
122
330
1F
100
AcDbEntity
  8
0-0
  6
Continuous
 62
     3
370
    13
100
AcDbCircle
 10
201.1598937531278
 20
-185.0974624413453
 30
0.0
 40
5.000000064437454
100
AcDbArc
 50
285.0000915527344
 51
348.4351043701172
  0
ARC
  5
123
330
1F
100
AcDbEntity
  8
0-0
  6
Continuous
 62
     3
370
    13
100
AcDbCircle
 10
221.6300954000874
 20
-172.2793373093775
 30
0.0
 40
5.416692108721347
100
AcDbArc
 50
217.62109375
 51
352.3794097900391
  0
ARC
  5
124
330
1F
100
AcDbEntity
  8
0-0
  6
Continuous
 62
     3
370
    13
100
AcDbCircle
 10
210.5324193549015
 20
-180.860550358364
 30
0.0
 40
3.333333376291636
100
AcDbArc
 50
104.9992218017578
 51
168.433578491211
  0
ARC
  5
125
330
1F
100
AcDbEntity
  8
0-0
  6
Continuous
 62
     3
370
    13
100
AcDbCircle
 10
174.3552326467091
 20
-190.554252849918
 30
0.0
 40
3.333333376291636
100
AcDbArc
 50
41.56501770019532
 51
104.9997711181641
  0
ARC
  5
126
330
1F
100
AcDbEntity
  8
0-0
  6
Continuous
 62
     3
370
    13
100
AcDbCircle
 10
240.9487121125028
 20
-167.1028962198504
 30
0.0
 40
5.416692108721347
100
AcDbArc
 50
217.6203002929688
 51
352.3807067871094
  0
ARC
  5
127
330
1F
100
AcDbEntity
  8
0-0
  6
Continuous
 62
     3
370
    13
100
AcDbCircle
 10
160.4545582907124
 20
-188.6712357996646
 30
0.0
 40
5.416692108721347
100
AcDbArc
 50
217.6192626953125
 51
352.3794097900391
  0
ARC
  5
128
330
1F
100
AcDbEntity
  8
0-0
  6
Continuous
 62
     3
370
    13
100
AcDbCircle
 10
224.7963353705265
 20
-194.2933160097576
 30
0.0
 40
6.666666752583272
100
AcDbArc
 50
104.9994812011719
 51
168.4337921142578
  0
ARC
  5
129
330
1F
100
AcDbEntity
  8
0-0
  6
Continuous
 62
     3
370
    13
100
AcDbCircle
 10
168.719543246371
 20
-209.3188517994534
 30
0.0
 40
6.666666752583272
100
AcDbArc
 50
41.56492614746094
 51
105.000244140625
  0
ARC
  5
12A
330
1F
100
AcDbEntity
  8
0-0
  6
Continuous
 62
     3
370
    13
100
AcDbCircle
 10
180.0824747814218
 20
-204.5487068986934
 30
0.0
 40
5.000000064437454
100
AcDbArc
 50
221.5634918212891
 51
284.9987182617188
  0
ARC
  5
12B
330
1F
100
AcDbEntity
  8
0-0
  6
Continuous
 62
     3
370
    13
100
AcDbCircle
 10
167.0775325833642
 20
-213.2095955705684
 30
0.0
 40
10.00000012887491
100
AcDbArc
 50
105.0000915527344
 51
172.9999237060547
  0
ARC
  5
12C
330
1F
100
AcDbEntity
  8
0-0
  6
Continuous
 62
     3
370
    13
100
AcDbCircle
 10
144.7965663143609
 20
-230.5655196098419
 30
0.0
 40
10.00000012887491
100
AcDbArc
 50
270.0
 51
352.9999237060547
  0
ARC
  5
12D
330
1F
100
AcDbEntity
  8
0-0
  6
Continuous
 62
     3
370
    13
100
AcDbCircle
 10
212.5703337341244
 20
-195.8437739383892
 30
0.0
 40
5.000000064437454
100
AcDbArc
 50
285.0000915527344
 51
348.4337158203125
  0
ARC
  5
12E
330
1F
100
AcDbEntity
  8
0-0
  6
Continuous
 62
     3
370
    13
100
AcDbCircle
 10
154.9396195238205
 20
-202.6582666537608
 30
0.0
 40
10.00000012887491
100
AcDbArc
 50
104.9995880126953
 51
173.0002746582031
  0
ARC
  5
12F
330
1F
100
AcDbEntity
  8
0-0
  6
Continuous
 62
     3
370
    13
100
AcDbCircle
 10
99.6882866479757
 20
-257.2321092952305
 30
0.0
 40
16.66666688145818
100
AcDbArc
 50
90.0
 51
175.9144134521484
  0
ARC
  5
130
330
1F
100
AcDbEntity
  8
0-0
  6
Continuous
 62
     3
370
    13
100
AcDbCircle
 10
134.4130015973002
 20
-205.725530695146
 30
0.0
 40
10.00000012887491
100
AcDbArc
 50
274.0000152587891
 51
352.9999084472656
  0
ARC
  5
131
330
1F
100
AcDbEntity
  8
0-0
  6
Continuous
 62
     3
370
    13
100
AcDbCircle
 10
-264.6821934512641
 20
-257.2321092952305
 30
0.0
 40
16.66666688145818
100
AcDbArc
 50
4.085586547851563
 51
90.00000000000001
  0
ARC
  5
132
330
1F
100
AcDbEntity
  8
0-0
  6
Continuous
 62
     3
370
    13
100
AcDbCircle
 10
-294.1635348390386
 20
-198.8989134284652
 30
0.0
 40
8.33333344072909
100
AcDbArc
 50
270.0
 51
336.4222106933594
  0
ARC
  5
133
330
1F
100
AcDbEntity
  8
0-0
  6
JWW_DASHED1
 62
     3
370
    13
100
AcDbCircle
 10
-319.9337737669313
 20
-202.6582666537608
 30
0.0
 40
10.00000012887491
100
AcDbArc
 50
6.999725341796887
 51
11.83265686035157
  0
ARC
  5
134
330
1F
100
AcDbEntity
  8
0-0
  6
Continuous
 62
     3
370
    13
100
AcDbCircle
 10
-248.5723763587811
 20
-205.5656845697237
 30
0.0
 40
3.333333376291636
100
AcDbArc
 50
11.11933898925782
 51
90.00000000000001
  0
ARC
  5
135
330
1F
100
AcDbEntity
  8
0-0
  6
JWW_DASHED1
 62
     3
370
    13
100
AcDbCircle
 10
-299.4070321204998
 20
-205.725530695146
 30
0.0
 40
10.00000012887491
100
AcDbArc
 50
187.0000915527344
 51
265.9999847412109
  0
ARC
  5
136
330
1F
100
AcDbEntity
  8
0-0
  6
Continuous
 62
     3
370
    13
100
AcDbCircle
 10
-319.9337737669313
 20
-202.6582666537608
 30
0.0
 40
10.00000012887491
100
AcDbArc
 50
11.83267211914062
 51
74.99952697753905
  0
ARC
  5
137
330
1F
100
AcDbEntity
  8
0-0
  6
Continuous
 62
     3
370
    13
100
AcDbCircle
 10
-301.9900564289878
 20
-198.8989134284652
 30
0.0
 40
8.33333344072909
100
AcDbArc
 50
191.8328552246094
 51
270.0
  0
ARC
  5
138
330
1F
100
AcDbEntity
  8
0-0
  6
Continuous
 62
     3
370
    13
100
AcDbCircle
 10
-451.2210134602378
 20
-160.5655361058301
 30
0.0
 40
3.333333376291636
100
AcDbArc
 50
90.0
 51
172.8746795654297
  0
ARC
  5
139
330
1F
100
AcDbEntity
  8
0-0
  6
Continuous
 62
     3
370
    13
100
AcDbCircle
 10
-377.564364257324
 20
-195.8435264985667
 30
0.0
 40
5.000000064437454
100
AcDbArc
 50
191.561996459961
 51
255.0001983642579
  0
ARC
  5
13A
330
1F
100
AcDbEntity
  8
0-0
  6
Continuous
 62
     3
370
    13
100
AcDbCircle
 10
-381.9269757702043
 20
-204.8372217318858
 30
0.0
 40
5.000000064437454
100
AcDbArc
 50
9.57385253906251
 51
65.77804565429689
  0
ARC
  5
13B
330
1F
100
AcDbEntity
  8
0-0
  6
Continuous
 62
     3
370
    13
100
AcDbCircle
 10
81.14069242289133
 20
-236.1824035836595
 30
0.0
 40
16.66666688145818
100
AcDbArc
 50
93.99993896484376
 51
175.9146270751953
  0
ARC
  5
13C
330
1F
100
AcDbEntity
  8
0-0
  6
Continuous
 62
     3
370
    13
100
AcDbCircle
 10
-246.1348466660021
 20
-236.1824035836595
 30
0.0
 40
16.66666688145818
100
AcDbArc
 50
4.085784912109379
 51
76.867431640625
  0
ARC
  5
13D
330
1F
100
AcDbEntity
  8
0-0
  6
Continuous
 62
     3
370
    13
100
AcDbCircle
 10
178.6448494119117
 20
-215.2866054417676
 30
0.0
 40
5.000000064437454
100
AcDbArc
 50
105.000473022461
 51
171.7400360107422
  0
ARC
  5
13E
330
1F
100
AcDbEntity
  8
0-0
  6
Continuous
 62
     3
370
    13
100
AcDbCircle
 10
151.4368613945973
 20
-243.8988144525362
 30
0.0
 40
3.333333376291636
100
AcDbArc
 50
11.30953979492188
 51
90.0
  0
ARC
  5
13F
330
1F
100
AcDbEntity
  8
0-0
  6
Continuous
 62
     3
370
    13
100
AcDbCircle
 10
-366.6030275544102
 20
-225.5655031138538
 30
0.0
 40
5.000000064437454
100
AcDbArc
 50
189.5725860595703
 51
270.0
  0
ARC
  5
140
330
1F
100
AcDbEntity
  8
0-0
  6
Continuous
 62
     3
370
    13
100
AcDbCircle
 10
-323.9372263772566
 20
-235.5655361058301
 30
0.0
 40
5.000000064437454
100
AcDbArc
 50
17.72677612304688
 51
90.0
  0
ARC
  5
141
330
1F
100
AcDbEntity
  8
0-0
  6
Continuous
 62
     3
370
    13
100
AcDbCircle
 10
-309.7904731176493
 20
-230.5655196098419
 30
0.0
 40
10.00000012887491
100
AcDbArc
 50
200.3329315185547
 51
270.0
  0
ARC
  5
142
330
1F
100
AcDbEntity
  8
0-0
  6
Continuous
 62
     3
370
    13
100
AcDbCircle
 10
-236.0598394077675
 20
-377.2322577591241
 30
0.0
 40
3.333333376291636
100
AcDbArc
 50
184.0838317871094
 51
270.0
  0
ARC
  5
143
330
1F
100
AcDbEntity
  8
0-0
  6
Continuous
 62
     3
370
    13
100
AcDbCircle
 10
71.06593260447909
 20
-377.2322577591241
 30
0.0
 40
3.333333376291636
100
AcDbArc
 50
270.0
 51
355.9161682128906
  0
ARC
  5
144
330
1F
100
AcDbEntity
  8
0-1
  6
Continuous
 62
     2
370
    13
100
AcDbCircle
 10
-348.3840334137852
 20
-165.7023868237356
 30
0.0
 40
6.666666752583272
100
AcDbArc
 50
190.6148834228516
 51
255.000503540039
  0
ARC
  5
145
330
1F
100
AcDbEntity
  8
0-1
  6
JWW_DASHED1
 62
     2
370
    13
100
AcDbCircle
 10
183.3902503304083
 20
-165.7023868237356
 30
0.0
 40
6.666666752583272
100
AcDbArc
 50
284.9994964599609
 51
349.3851165771484
  0
ARC
  5
146
330
1F
100
AcDbEntity
  8
0-1
  6
Continuous
 62
     2
370
    13
100
AcDbCircle
 10
-229.929146642248
 20
-187.7106744081951
 30
0.0
 40
5.000000064437454
100
AcDbArc
 50
11.31021118164062
 51
90.00000000000001
  0
ARC
  5
147
330
1F
100
AcDbEntity
  8
0-1
  6
Continuous
 62
     2
370
    13
100
AcDbCircle
 10
215.6979730922325
 20
-153.5946614225531
 30
0.0
 40
10.00000012887491
100
AcDbArc
 50
188.7071380615234
 51
285.0002746582031
  0
ARC
  5
148
330
1F
100
AcDbEntity
  8
0-1
  6
Continuous
 62
     2
370
    13
100
AcDbCircle
 10
151.6917244119117
 20
-169.3773630695125
 30
0.0
 40
5.000000064437454
100
AcDbArc
 50
90.0
 51
169.911865234375
  0
ARC
  5
149
330
1F
100
AcDbEntity
  8
0-1
  6
Continuous
 62
     2
370
    13
100
AcDbCircle
 10
186.2714396251718
 20
-159.3773300775362
 30
0.0
 40
5.000000064437454
100
AcDbArc
 50
270.0
 51
349.3843536376953
  0
ARC
  5
14A
330
1F
100
AcDbEntity
  8
0-1
  6
Continuous
 62
     2
370
    13
100
AcDbCircle
 10
138.3487794161346
 20
-177.7710167329417
 30
0.0
 40
6.666666752583272
100
AcDbArc
 50
284.9994964599609
 51
349.9125671386719
  0
ARC
  5
14B
330
1F
100
AcDbEntity
  8
0-1
  6
Continuous
 62
     2
370
    13
100
AcDbCircle
 10
103.350890902621
 20
-191.0441836987356
 30
0.0
 40
3.333333376291636
100
AcDbArc
 50
90.0
 51
164.0540161132812
  0
ARC
  5
14C
330
1F
100
AcDbEntity
  8
0-2
  6
Continuous
 62
     4
370
    13
100
AcDbCircle
 10
182.307453666557
 20
-141.877396061489
 30
0.0
 40
0.833333344072909
100
AcDbArc
 50
90.0
 51
150.6708221435547
  0
ARC
  5
14D
330
1F
100
AcDbEntity
  8
0-2
  6
Continuous
 62
     4
370
    13
100
AcDbCircle
 10
159.6409761538879
 20
-141.877396061489
 30
0.0
 40
0.833333344072909
100
AcDbArc
 50
29.32917785644531
 51
90.0
  0
ARC
  5
14E
330
1F
100
AcDbEntity
  8
0-2
  6
Continuous
 62
     6
370
    13
100
AcDbCircle
 10
145.0746886750028
 20
-154.3773135815481
 30
0.0
 40
10.00000012887491
100
AcDbArc
 50
185.3368835449219
 51
270.0
  0
ARC
  5
14F
330
1F
100
AcDbEntity
  8
0-2
  6
Continuous
 62
     6
370
    13
100
AcDbCircle
 10
-310.0685954782912
 20
-154.3773135815481
 30
0.0
 40
10.00000012887491
100
AcDbArc
 50
270.0
 51
354.6630249023438
  0
ARC
  5
150
330
1F
100
AcDbEntity
  8
0-2
  6
Continuous
 62
     6
370
    13
100
AcDbCircle
 10
-323.4635028368214
 20
-157.7108228720886
 30
0.0
 40
6.666666752583272
100
AcDbArc
 50
270.0
 51
354.8082733154297
  0
ARC
  5
151
330
1F
100
AcDbEntity
  8
0-2
  6
Continuous
 62
     6
370
    13
100
AcDbCircle
 10
-346.3816266491105
 20
-161.0440847228065
 30
0.0
 40
3.333333376291636
100
AcDbArc
 50
190.3048858642578
 51
270.0
  0
ARC
  5
152
330
1F
100
AcDbEntity
  8
0-2
  6
Continuous
 62
     6
370
    13
100
AcDbCircle
 10
181.3879672856447
 20
-161.0440847228065
 30
0.0
 40
3.333333376291636
100
AcDbArc
 50
270.0
 51
349.6962738037109
  0
ARC
  5
153
330
1F
100
AcDbEntity
  8
0-2
  6
Continuous
 62
     6
370
    13
100
AcDbCircle
 10
-327.7833072603858
 20
-131.5737544071392
 30
0.0
 40
13.33333350516654
100
AcDbArc
 50
286.2024993896484
 51
354.8074035644531
  0
ARC
  5
154
330
1F
100
AcDbEntity
  8
0-2
  6
Continuous
 62
     6
370
    13
100
AcDbCircle
 10
-293.1271331419313
 20
65.62266992246393
 30
0.0
 40
3.333333376291636
100
AcDbArc
 50
90.0
 51
174.8078460693359
  0
ARC
  5
155
330
1F
100
AcDbEntity
  8
0-2
  6
Continuous
 62
     6
370
    13
100
AcDbCircle
 10
128.1334737784655
 20
65.62266992246393
 30
0.0
 40
3.333333376291636
100
AcDbArc
 50
5.19224548339844
 51
90.0
  0
ARC
  5
156
330
1F
100
AcDbEntity
  8
0-2
  6
Continuous
 62
     6
370
    13
100
AcDbCircle
 10
123.4697280014387
 20
23.15086156625611
 30
0.0
 40
5.000000064437454
100
AcDbArc
 50
185.3371124267578
 51
259.0214233398438
  0
ARC
  5
157
330
1F
100
AcDbEntity
  8
0-2
  6
Continuous
 62
     6
370
    13
100
AcDbCircle
 10
-288.4641296843722
 20
23.15086156625611
 30
0.0
 40
5.000000064437454
100
AcDbArc
 50
280.9779205322266
 51
354.6628265380859
  0
ARC
  5
158
330
1F
100
AcDbEntity
  8
0-2
  6
Continuous
 62
     4
370
    13
100
AcDbCircle
 10
170.9742149102223
 20
-145.4486950215818
 30
0.0
 40
17.73805038349049
100
AcDbArc
 50
20.01594543457032
 51
84.83395385742188
  0
ARC
  5
159
330
1F
100
AcDbEntity
  8
0-2
  6
Continuous
 62
     4
370
    13
100
AcDbCircle
 10
170.9742149102223
 20
-145.4486950215818
 30
0.0
 40
17.73805038349049
100
AcDbArc
 50
95.1637573242188
 51
159.9840545654297
  0
ELLIPSE
  5
15A
330
1F
100
AcDbEntity
  8
0-2
  6
Continuous
 62
     6
370
    13
100
AcDbEllipse
 10
-313.0457914242371
 20
47.41951193048735
 30
0.0
 11
1.583877164330265
 21
17.42811015842861
 31
0.0
210
0.0
220
0.0
230
1.0
 40
0.7428
 41
0.0
 42
1.475408288134874
  0
ELLIPSE
  5
15B
330
1F
100
AcDbEntity
  8
0-2
  6
Continuous
 62
     6
370
    13
100
AcDbEllipse
 10
-313.0457914242371
 20
47.41951193048735
 30
0.0
 11
1.583877164330265
 21
17.42811015842861
 31
0.0
210
0.0
220
0.0
230
1.0
 40
0.7428
 41
1.666184365454919
 42
3.141592653589793
  0
TEXT
  5
15C
330
1F
100
AcDbEntity
  8
0-4
  6
Continuous
 62
     2
370
    13
100
AcDbText
 10
-573.1369451536501
 20
-68.96058368026011
 30
0.0
 40
30.48
  1
70
 50
90.0
 41
1.0625
  7
ＭＳ ゴシック
100
AcDbText
  0
TEXT
  5
15D
330
1F
100
AcDbEntity
  8
0-4
  6
Continuous
 62
     2
370
    13
100
AcDbText
 10
-137.4970152615998
 20
264.5959400211759
 30
0.0
 40
30.48
  1
φ205
 41
1.1
  7
ＭＳ ゴシック
100
AcDbText
  0
TEXT
  5
15E
330
1F
100
AcDbEntity
  8
0-4
  6
Continuous
 62
     2
370
    13
100
AcDbText
 10
-137.4971389815111
 20
184.5959235251876
 30
0.0
 40
30.48
  1
φ118
 41
1.1
  7
ＭＳ ゴシック
100
AcDbText
  0
TEXT
  5
15F
330
1F
100
AcDbEntity
  8
0-4
  6
Continuous
 62
     2
370
    13
100
AcDbText
 10
-126.2467678217772
 20
-508.5920169176968
 30
0.0
 40
30.48
  1
φ94
 41
1.09375
  7
ＭＳ ゴシック
100
AcDbText
  0
TEXT
  5
160
330
1F
100
AcDbEntity
  8
0-4
  6
Continuous
 62
     2
370
    13
100
AcDbText
 10
-137.4972627014223
 20
-588.5920334136849
 30
0.0
 40
30.48
  1
φ100
 41
1.1
  7
ＭＳ ゴシック
100
AcDbText
  0
TEXT
  5
161
330
1F
100
AcDbEntity
  8
0-4
  6
Continuous
 62
     2
370
    13
100
AcDbText
 10
-137.4968915416885
 20
-668.592049909673
 30
0.0
 40
30.48
  1
φ140
 41
1.1
  7
ＭＳ ゴシック
100
AcDbText
  0
LINE
  5
162
330
1F
100
AcDbEntity
  8
0-1
  6
Continuous
 62
     2
370
    13
100
AcDbLine
 10
179.4101807833222
 20
873.5615417161189
 30
0.0
 11
189.0896967250451
 21
876.1550409770987
 31
0.0
  0
LINE
  5
163
330
1F
100
AcDbEntity
  8
0-1
  6
Continuous
 62
     2
370
    13
100
AcDbLine
 10
176.1456247233559
 20
867.510813253281
 30
0.0
 11
193.8745230552816
 21
872.2609980083487
 31
0.0
  0
LINE
  5
164
330
1F
100
AcDbEntity
  8
0-1
  6
Continuous
 62
     2
370
    13
100
AcDbLine
 10
125.6695505046059
 20
966.6431242752403
 30
0.0
 11
132.7555671853493
 21
973.7291409559839
 31
0.0
  0
LINE
  5
165
330
1F
100
AcDbEntity
  8
0-1
  6
Continuous
 62
     2
370
    13
100
AcDbLine
 10
118.7969919108559
 20
966.841406053112
 30
0.0
 11
131.7753755679503
 21
979.8197897102068
 31
0.0
  0
LINE
  5
166
330
1F
100
AcDbEntity
  8
0-1
  6
Continuous
 62
     2
370
    13
100
AcDbLine
 10
176.1456247233559
 20
867.510813253281
 30
0.0
 11
179.4101807833222
 21
873.5615417161189
 31
0.0
  0
LINE
  5
167
330
1F
100
AcDbEntity
  8
0-1
  6
Continuous
 62
     2
370
    13
100
AcDbLine
 10
193.8745230552816
 20
872.2609980083487
 30
0.0
 11
189.0896967250451
 21
876.1550409770987
 31
0.0
  0
LINE
  5
168
330
1F
100
AcDbEntity
  8
0-1
  6
Continuous
 62
     2
370
    13
100
AcDbLine
 10
132.7555671853493
 20
973.7291409559839
 30
0.0
 11
131.7753755679503
 21
979.8197897102068
 31
0.0
  0
LINE
  5
169
330
1F
100
AcDbEntity
  8
0-1
  6
Continuous
 62
     2
370
    13
100
AcDbLine
 10
125.6695505046059
 20
966.6431242752403
 30
0.0
 11
118.7969919108559
 21
966.841406053112
 31
0.0
  0
LINE
  5
16A
330
1F
100
AcDbEntity
  8
0-1
  6
Continuous
 62
     2
370
    13
100
AcDbLine
 10
99.74247596913301
 20
992.5701988107132
 30
0.0
 11
106.8284926498761
 21
999.6565454112203
 31
0.0
  0
LINE
  5
16B
330
1F
100
AcDbEntity
  8
0-1
  6
Continuous
 62
     2
370
    13
100
AcDbLine
 10
99.94075774700451
 20
985.6979701367268
 30
0.0
 11
112.9188114843358
 21
998.676023874058
 31
0.0
  0
LINE
  5
16C
330
1F
100
AcDbEntity
  8
0-1
  6
Continuous
 62
     2
370
    13
100
AcDbLine
 10
6.660893410011504
 20
1046.311159009193
 30
0.0
 11
9.254392670990992
 21
1055.99100487068
 31
0.0
  0
LINE
  5
16D
330
1F
100
AcDbEntity
  8
0-1
  6
Continuous
 62
     2
370
    13
100
AcDbLine
 10
0.6098350274100994
 20
1043.046273029463
 30
0.0
 11
5.360349702240992
 21
1060.774841441626
 31
0.0
  0
LINE
  5
16E
330
1F
100
AcDbEntity
  8
0-1
  6
Continuous
 62
     2
370
    13
100
AcDbLine
 10
99.94075774700451
 20
985.6979701367268
 30
0.0
 11
99.74247596913301
 21
992.5701988107132
 31
0.0
  0
LINE
  5
16F
330
1F
100
AcDbEntity
  8
0-1
  6
Continuous
 62
     2
370
    13
100
AcDbLine
 10
112.9188114843358
 20
998.676023874058
 30
0.0
 11
106.8284926498761
 21
999.6565454112203
 31
0.0
  0
LINE
  5
170
330
1F
100
AcDbEntity
  8
0-1
  6
Continuous
 62
     2
370
    13
100
AcDbLine
 10
9.254392670990992
 20
1055.99100487068
 30
0.0
 11
5.360349702240992
 21
1060.774841441626
 31
0.0
  0
LINE
  5
171
330
1F
100
AcDbEntity
  8
0-1
  6
Continuous
 62
     2
370
    13
100
AcDbLine
 10
6.660893410011504
 20
1046.311159009193
 30
0.0
 11
0.6098350274100994
 21
1043.046273029463
 31
0.0
  0
LINE
  5
172
330
1F
100
AcDbEntity
  8
0-1
  6
Continuous
 62
     2
370
    13
100
AcDbLine
 10
-28.75632312292774
 20
1055.800971086896
 30
0.0
 11
-26.16282386194825
 21
1065.480487028619
 31
0.0
  0
LINE
  5
173
330
1F
100
AcDbEntity
  8
0-1
  6
Continuous
 62
     2
370
    13
100
AcDbLine
 10
-25.14832058914408
 20
1049.948194482166
 30
0.0
 11
-20.39780591431319
 21
1067.677092814092
 31
0.0
  0
LINE
  5
174
330
1F
100
AcDbEntity
  8
0-1
  6
Continuous
 62
     2
370
    13
100
AcDbLine
 10
-136.2372537605968
 20
1055.800971086896
 30
0.0
 11
-138.8310829413399
 21
1065.480487028619
 31
0.0
  0
LINE
  5
175
330
1F
100
AcDbEntity
  8
0-1
  6
Continuous
 62
     2
370
    13
100
AcDbLine
 10
-139.8455862141441
 20
1049.948194482166
 30
0.0
 11
-144.5961008889753
 21
1067.676762894328
 31
0.0
  0
LINE
  5
176
330
1F
100
AcDbEntity
  8
0-1
  6
Continuous
 62
     2
370
    13
100
AcDbLine
 10
-25.14832058914408
 20
1049.948194482166
 30
0.0
 11
-28.75632312292774
 21
1055.800971086896
 31
0.0
  0
LINE
  5
177
330
1F
100
AcDbEntity
  8
0-1
  6
Continuous
 62
     2
370
    13
100
AcDbLine
 10
-20.39780591431319
 20
1067.677092814092
 30
0.0
 11
-26.16282386194825
 21
1065.480487028619
 31
0.0
  0
LINE
  5
178
330
1F
100
AcDbEntity
  8
0-1
  6
Continuous
 62
     2
370
    13
100
AcDbLine
 10
-138.8310829413399
 20
1065.480487028619
 30
0.0
 11
-144.5961008889753
 21
1067.676762894328
 31
0.0
  0
LINE
  5
179
330
1F
100
AcDbEntity
  8
0-1
  6
Continuous
 62
     2
370
    13
100
AcDbLine
 10
-136.2372537605968
 20
1055.800971086896
 30
0.0
 11
-139.8455862141441
 21
1049.948194482166
 31
0.0
  0
LINE
  5
17A
330
1F
100
AcDbEntity
  8
0-1
  6
Continuous
 62
     2
370
    13
100
AcDbLine
 10
-171.6548002132996
 20
1046.311159009193
 30
0.0
 11
-174.2486293940427
 21
1055.99100487068
 31
0.0
  0
LINE
  5
17B
330
1F
100
AcDbEntity
  8
0-1
  6
Continuous
 62
     2
370
    13
100
AcDbLine
 10
-165.6040717504618
 20
1043.046273029463
 30
0.0
 11
-170.3542565055291
 21
1060.775501281153
 31
0.0
  0
LINE
  5
17C
330
1F
100
AcDbEntity
  8
0-1
  6
Continuous
 62
     2
370
    13
100
AcDbLine
 10
-264.7363827724211
 20
992.5705287304768
 30
0.0
 11
-271.8223994531642
 21
999.6565454112203
 31
0.0
  0
LINE
  5
17D
330
1F
100
AcDbEntity
  8
0-1
  6
Continuous
 62
     2
370
    13
100
AcDbLine
 10
-264.9346645502926
 20
985.6979701367268
 30
0.0
 11
-277.9127182876238
 21
998.676023874058
 31
0.0
  0
LINE
  5
17E
330
1F
100
AcDbEntity
  8
0-1
  6
Continuous
 62
     2
370
    13
100
AcDbLine
 10
-165.6040717504618
 20
1043.046273029463
 30
0.0
 11
-171.6548002132996
 21
1046.311159009193
 31
0.0
  0
LINE
  5
17F
330
1F
100
AcDbEntity
  8
0-1
  6
Continuous
 62
     2
370
    13
100
AcDbLine
 10
-170.3542565055291
 20
1060.775501281153
 30
0.0
 11
-174.2486293940427
 21
1055.99100487068
 31
0.0
  0
LINE
  5
180
330
1F
100
AcDbEntity
  8
0-1
  6
Continuous
 62
     2
370
    13
100
AcDbLine
 10
-271.8223994531642
 20
999.6565454112203
 30
0.0
 11
-277.9127182876238
 21
998.676023874058
 31
0.0
  0
LINE
  5
181
330
1F
100
AcDbEntity
  8
0-1
  6
Continuous
 62
     2
370
    13
100
AcDbLine
 10
-264.7363827724211
 20
992.5705287304768
 30
0.0
 11
-264.9346645502926
 21
985.6979701367268
 31
0.0
  0
LINE
  5
182
330
1F
100
AcDbEntity
  8
0-1
  6
Continuous
 62
     2
370
    13
100
AcDbLine
 10
-290.663457307894
 20
966.6434541950039
 30
0.0
 11
-297.7494739886374
 21
973.7291409559839
 31
0.0
  0
LINE
  5
183
330
1F
100
AcDbEntity
  8
0-1
  6
Continuous
 62
     2
370
    13
100
AcDbLine
 10
-283.7912286339076
 20
966.841406053112
 30
0.0
 11
-296.7692823712384
 21
979.8197897102068
 31
0.0
  0
LINE
  5
184
330
1F
100
AcDbEntity
  8
0-1
  6
Continuous
 62
     2
370
    13
100
AcDbLine
 10
-344.4040875866103
 20
873.5618716358824
 30
0.0
 11
-354.0839334480967
 21
876.1550409770987
 31
0.0
  0
LINE
  5
185
330
1F
100
AcDbEntity
  8
0-1
  6
Continuous
 62
     2
370
    13
100
AcDbLine
 10
-341.1398614464076
 20
867.510813253281
 30
0.0
 11
-358.8684298585696
 21
872.2609980083487
 31
0.0
  0
LINE
  5
186
330
1F
100
AcDbEntity
  8
0-1
  6
Continuous
 62
     2
370
    13
100
AcDbLine
 10
-283.7912286339076
 20
966.841406053112
 30
0.0
 11
-290.663457307894
 21
966.6434541950039
 31
0.0
  0
LINE
  5
187
330
1F
100
AcDbEntity
  8
0-1
  6
Continuous
 62
     2
370
    13
100
AcDbLine
 10
-296.7692823712384
 20
979.8197897102068
 30
0.0
 11
-297.7494739886374
 21
973.7291409559839
 31
0.0
  0
LINE
  5
188
330
1F
100
AcDbEntity
  8
0-1
  6
Continuous
 62
     2
370
    13
100
AcDbLine
 10
-354.0839334480967
 20
876.1550409770987
 30
0.0
 11
-358.8684298585696
 21
872.2609980083487
 31
0.0
  0
LINE
  5
189
330
1F
100
AcDbEntity
  8
0-1
  6
Continuous
 62
     2
370
    13
100
AcDbLine
 10
-344.4040875866103
 20
873.5618716358824
 30
0.0
 11
-341.1398614464076
 21
867.510813253281
 31
0.0
  0
LINE
  5
18A
330
1F
100
AcDbEntity
  8
0-1
  6
Continuous
 62
     2
370
    13
100
AcDbLine
 10
188.8999928610251
 20
838.1443251831797
 30
0.0
 11
198.5798387225115
 21
840.7381543639231
 31
0.0
  0
LINE
  5
18B
330
1F
100
AcDbEntity
  8
0-1
  6
Continuous
 62
     2
370
    13
100
AcDbLine
 10
183.0475461760587
 20
841.7523277169632
 30
0.0
 11
200.7761145882209
 21
846.502512472031
 31
0.0
  0
LINE
  5
18C
330
1F
100
AcDbEntity
  8
0-1
  6
Continuous
 62
     2
370
    13
100
AcDbLine
 10
198.5798387225115
 20
840.7381543639231
 30
0.0
 11
200.7761145882209
 21
846.502512472031
 31
0.0
  0
LINE
  5
18D
330
1F
100
AcDbEntity
  8
0-1
  6
Continuous
 62
     2
370
    13
100
AcDbLine
 10
188.8999928610251
 20
838.1443251831797
 30
0.0
 11
183.0475461760587
 21
841.7523277169632
 31
0.0
  0
LINE
  5
18E
330
1F
100
AcDbEntity
  8
0-1
  6
Continuous
 62
     2
370
    13
100
AcDbLine
 10
-353.8938996643132
 20
838.1443251831797
 30
0.0
 11
-363.5737455257996
 21
840.7381543639231
 31
0.0
  0
LINE
  5
18F
330
1F
100
AcDbEntity
  8
0-1
  6
Continuous
 62
     2
370
    13
100
AcDbLine
 10
-348.0414529793467
 20
841.7523277169632
 30
0.0
 11
-365.770021391509
 21
846.502512472031
 31
0.0
  0
LINE
  5
190
330
1F
100
AcDbEntity
  8
0-1
  6
Continuous
 62
     2
370
    13
100
AcDbLine
 10
-363.5737455257996
 20
840.7381543639231
 30
0.0
 11
-365.770021391509
 21
846.502512472031
 31
0.0
  0
LINE
  5
191
330
1F
100
AcDbEntity
  8
0-1
  6
Continuous
 62
     2
370
    13
100
AcDbLine
 10
-353.8938996643132
 20
838.1443251831797
 30
0.0
 11
-348.0414529793467
 21
841.7523277169632
 31
0.0
  0
LINE
  5
192
330
1F
100
AcDbEntity
  8
0-1
  6
Continuous
 62
     2
370
    13
100
AcDbLine
 10
83.93041146322088
 20
1019.330980588585
 30
0.0
 11
80.57017867183578
 21
1013.510866040443
 31
0.0
  0
LINE
  5
193
330
1F
100
AcDbEntity
  8
0-1
  6
Continuous
 62
     2
370
    13
100
AcDbLine
 10
37.74164457132883
 20
1045.997075394328
 30
0.0
 11
34.38207161947087
 21
1040.177620685713
 31
0.0
  0
LINE
  5
194
330
1F
100
AcDbEntity
  8
0-1
  6
Continuous
 62
     2
370
    13
100
AcDbLine
 10
35.38040882386252
 20
1047.360303857166
 30
0.0
 11
30.34517339311947
 21
1038.638874908687
 31
0.0
  0
LINE
  5
195
330
1F
100
AcDbEntity
  8
0-1
  6
Continuous
 62
     2
370
    13
100
AcDbLine
 10
86.29164721068719
 20
1017.967752125747
 30
0.0
 11
81.2557519404167
 21
1009.245333417977
 31
0.0
  0
LINE
  5
196
330
1F
100
AcDbEntity
  8
0-1
  6
Continuous
 62
     2
370
    13
100
AcDbLine
 10
-369.163576079009
 20
813.7972363951731
 30
0.0
 11
-359.0917855384683
 21
813.7972363951731
 31
0.0
  0
LINE
  5
197
330
1F
100
AcDbEntity
  8
0-1
  6
Continuous
 62
     2
370
    13
100
AcDbLine
 10
-362.4427805764753
 20
811.0704495497339
 30
0.0
 11
-369.163576079009
 21
811.0704495497339
 31
0.0
  0
LINE
  5
198
330
1F
100
AcDbEntity
  8
0-0
  6
JWW_CENTER1
 62
     3
370
    13
100
AcDbLine
 10
-554.5718847783334
 20
784.4036949044632
 30
0.0
 11
393.3816229285923
 21
784.4036949044632
 31
0.0
  0
ARC
  5
199
330
1F
100
AcDbEntity
  8
0-1
  6
Continuous
 62
     2
370
    13
100
AcDbCircle
 10
-82.49695340164408
 20
784.4036949044632
 30
0.0
 40
276.6666721653294
100
AcDbArc
 50
18.79946899414062
 51
41.20048522949219
  0
ARC
  5
19A
330
1F
100
AcDbEntity
  8
0-1
  6
Continuous
 62
     2
370
    13
100
AcDbCircle
 10
-82.49695340164408
 20
784.4036949044632
 30
0.0
 40
286.6666639173353
100
AcDbArc
 50
18.666748046875
 51
41.33323669433594
  0
ARC
  5
19B
330
1F
100
AcDbEntity
  8
0-1
  6
Continuous
 62
     2
370
    13
100
AcDbCircle
 10
-82.49695340164408
 20
784.4036949044632
 30
0.0
 40
289.9999876280089
100
AcDbArc
 50
17.63522338867188
 51
42.36474609375
  0
ARC
  5
19C
330
1F
100
AcDbEntity
  8
0-1
  6
Continuous
 62
     2
370
    13
100
AcDbCircle
 10
-82.49695340164408
 20
784.4036949044632
 30
0.0
 40
271.6666144293707
100
AcDbArc
 50
17.81321716308594
 51
42.186767578125
  0
ARC
  5
19D
330
1F
100
AcDbEntity
  8
0-1
  6
Continuous
 62
     2
370
    13
100
AcDbCircle
 10
-82.49695340164408
 20
784.4036949044632
 30
0.0
 40
271.6666144293707
100
AcDbArc
 50
47.81321716308593
 51
72.186767578125
  0
ARC
  5
19E
330
1F
100
AcDbEntity
  8
0-1
  6
Continuous
 62
     2
370
    13
100
AcDbCircle
 10
-82.49695340164408
 20
784.4036949044632
 30
0.0
 40
276.6666721653294
100
AcDbArc
 50
78.79946899414062
 51
101.2004852294922
  0
ARC
  5
19F
330
1F
100
AcDbEntity
  8
0-1
  6
Continuous
 62
     2
370
    13
100
AcDbCircle
 10
-82.49695340164408
 20
784.4036949044632
 30
0.0
 40
286.6666639173353
100
AcDbArc
 50
78.666748046875
 51
101.3332366943359
  0
ARC
  5
1A0
330
1F
100
AcDbEntity
  8
0-1
  6
Continuous
 62
     2
370
    13
100
AcDbCircle
 10
-82.49695340164408
 20
784.4036949044632
 30
0.0
 40
289.9999876280089
100
AcDbArc
 50
77.63522338867188
 51
102.36474609375
  0
ARC
  5
1A1
330
1F
100
AcDbEntity
  8
0-1
  6
Continuous
 62
     2
370
    13
100
AcDbCircle
 10
-82.49695340164408
 20
784.4036949044632
 30
0.0
 40
276.6666721653294
100
AcDbArc
 50
108.7994689941406
 51
131.2004852294922
  0
ARC
  5
1A2
330
1F
100
AcDbEntity
  8
0-1
  6
Continuous
 62
     2
370
    13
100
AcDbCircle
 10
-82.49695340164408
 20
784.4036949044632
 30
0.0
 40
286.6666639173353
100
AcDbArc
 50
108.666748046875
 51
131.3332366943359
  0
ARC
  5
1A3
330
1F
100
AcDbEntity
  8
0-1
  6
Continuous
 62
     2
370
    13
100
AcDbCircle
 10
-82.49695340164408
 20
784.4036949044632
 30
0.0
 40
289.9999876280089
100
AcDbArc
 50
107.6352233886719
 51
132.36474609375
  0
ARC
  5
1A4
330
1F
100
AcDbEntity
  8
0-1
  6
Continuous
 62
     2
370
    13
100
AcDbCircle
 10
-82.49695340164408
 20
784.4036949044632
 30
0.0
 40
271.6666144293707
100
AcDbArc
 50
107.8132171630859
 51
132.186767578125
  0
ARC
  5
1A5
330
1F
100
AcDbEntity
  8
0-1
  6
Continuous
 62
     2
370
    13
100
AcDbCircle
 10
-82.49695340164408
 20
784.4036949044632
 30
0.0
 40
276.6666721653294
100
AcDbArc
 50
138.7994689941406
 51
161.2004852294922
  0
ARC
  5
1A6
330
1F
100
AcDbEntity
  8
0-1
  6
Continuous
 62
     2
370
    13
100
AcDbCircle
 10
-82.49695340164408
 20
784.4036949044632
 30
0.0
 40
286.6666639173353
100
AcDbArc
 50
138.666748046875
 51
161.3332366943359
  0
ARC
  5
1A7
330
1F
100
AcDbEntity
  8
0-1
  6
Continuous
 62
     2
370
    13
100
AcDbCircle
 10
-82.49695340164408
 20
784.4036949044632
 30
0.0
 40
289.9999876280089
100
AcDbArc
 50
137.6352233886719
 51
162.36474609375
  0
ARC
  5
1A8
330
1F
100
AcDbEntity
  8
0-1
  6
Continuous
 62
     2
370
    13
100
AcDbCircle
 10
-82.49695340164408
 20
784.4036949044632
 30
0.0
 40
271.6666144293707
100
AcDbArc
 50
137.8132171630859
 51
162.186767578125
  0
ARC
  5
1A9
330
1F
100
AcDbEntity
  8
0-1
  6
Continuous
 62
     2
370
    13
100
AcDbCircle
 10
-82.49695340164408
 20
784.4036949044632
 30
0.0
 40
271.6666144293707
100
AcDbArc
 50
7.226165771484361
 51
12.18676757812499
  0
ARC
  5
1AA
330
1F
100
AcDbEntity
  8
0-1
  6
Continuous
 62
     2
370
    13
100
AcDbCircle
 10
-82.49695340164408
 20
784.4036949044632
 30
0.0
 40
276.6666721653294
100
AcDbArc
 50
0.0
 51
11.20048522949217
  0
ARC
  5
1AB
330
1F
100
AcDbEntity
  8
0-1
  6
Continuous
 62
     2
370
    13
100
AcDbCircle
 10
-82.49695340164408
 20
784.4036949044632
 30
0.0
 40
286.6666639173353
100
AcDbArc
 50
0.0
 51
11.33323669433592
  0
ARC
  5
1AC
330
1F
100
AcDbEntity
  8
0-1
  6
Continuous
 62
     2
370
    13
100
AcDbCircle
 10
-82.49695340164408
 20
784.4036949044632
 30
0.0
 40
289.9999876280089
100
AcDbArc
 50
0.0
 51
12.36474609374998
  0
ARC
  5
1AD
330
1F
100
AcDbEntity
  8
0-1
  6
Continuous
 62
     2
370
    13
100
AcDbCircle
 10
-82.49695340164408
 20
784.4036949044632
 30
0.0
 40
271.6666144293707
100
AcDbArc
 50
167.813232421875
 51
172.7738342285157
  0
ARC
  5
1AE
330
1F
100
AcDbEntity
  8
0-1
  6
Continuous
 62
     2
370
    13
100
AcDbCircle
 10
-82.49695340164408
 20
784.4036949044632
 30
0.0
 40
272.9182062922297
100
AcDbArc
 50
173.5303955078126
 51
180.0000000000001
  0
ARC
  5
1AF
330
1F
100
AcDbEntity
  8
0-1
  6
Continuous
 62
     2
370
    13
100
AcDbCircle
 10
-82.49695340164408
 20
784.4036949044632
 30
0.0
 40
271.6666144293707
100
AcDbArc
 50
94.3283233642578
 51
102.186767578125
  0
ARC
  5
1B0
330
1F
100
AcDbEntity
  8
0-1
  6
Continuous
 62
     2
370
    13
100
AcDbCircle
 10
-82.49695340164408
 20
784.4036949044632
 30
0.0
 40
271.6666144293707
100
AcDbArc
 50
77.81321716308594
 51
85.67167663574219
  0
ARC
  5
1B1
330
1F
100
AcDbEntity
  8
0-1
  6
Continuous
 62
     2
370
    13
100
AcDbCircle
 10
-82.49695340164408
 20
784.4036949044632
 30
0.0
 40
272.9182062922297
100
AcDbArc
 50
87.12954711914061
 51
92.87045288085938
  0
ARC
  5
1B2
330
1F
100
AcDbEntity
  8
0-1
  6
Continuous
 62
     2
370
    13
100
AcDbCircle
 10
-345.3921972783332
 20
817.7371382110512
 30
0.0
 40
6.666666752583272
100
AcDbArc
 50
172.7738342285156
 51
214.6581573486328
  0
ARC
  5
1B3
330
1F
100
AcDbEntity
  8
0-1
  6
Continuous
 62
     2
370
    13
100
AcDbCircle
 10
-347.0530133678603
 20
814.4039588402741
 30
0.0
 40
6.666666752583272
100
AcDbArc
 50
173.5299377441407
 51
229.9106903076172
  0
ARC
  5
1B4
330
1F
100
AcDbEntity
  8
0-1
  6
Continuous
 62
     2
370
    13
100
AcDbCircle
 10
-95.83033072427912
 20
1050.321003814937
 30
0.0
 40
6.666666752583272
100
AcDbArc
 50
36.49244689941406
 51
92.8704833984375
  0
ARC
  5
1B5
330
1F
100
AcDbEntity
  8
0-1
  6
Continuous
 62
     2
370
    13
100
AcDbCircle
 10
-102.4970193855968
 20
1048.64798069416
 30
0.0
 40
6.666666752583272
100
AcDbArc
 50
52.44360351562501
 51
94.3284912109375
  0
ARC
  5
1B6
330
1F
100
AcDbEntity
  8
0-1
  6
Continuous
 62
     2
370
    13
100
AcDbCircle
 10
-69.16390599877253
 20
1050.321003814937
 30
0.0
 40
6.666666752583272
100
AcDbArc
 50
87.1295166015625
 51
143.5081634521484
  0
ARC
  5
1B7
330
1F
100
AcDbEntity
  8
0-1
  6
Continuous
 62
     2
370
    13
100
AcDbCircle
 10
-62.49688741769127
 20
1048.64798069416
 30
0.0
 40
6.666666752583272
100
AcDbArc
 50
85.67150878906251
 51
127.5565490722656
  0
ARC
  5
1B8
330
1F
100
AcDbEntity
  8
0-1
  6
Continuous
 62
     2
370
    13
100
AcDbCircle
 10
180.3979605552816
 20
817.7371382110512
 30
0.0
 40
6.666666752583272
100
AcDbArc
 50
325.3418426513672
 51
7.226165771484379
  0
ARC
  5
1B9
330
1F
100
AcDbEntity
  8
0-1
  6
Continuous
 62
     2
370
    13
100
AcDbCircle
 10
182.0591065645722
 20
814.4039588402741
 30
0.0
 40
6.666666752583272
100
AcDbArc
 50
310.0889282226562
 51
6.470062255859399
  0
ARC
  5
1BA
330
1F
100
AcDbEntity
  8
0-1
  6
Continuous
 62
     2
370
    13
100
AcDbCircle
 10
-82.49695340164408
 20
784.4036949044632
 30
0.0
 40
272.9182062922297
100
AcDbArc
 50
0.0
 51
6.4696044921875
  0
ARC
  5
1BB
330
1F
100
AcDbEntity
  8
0-1
  6
Continuous
 62
     2
370
    13
100
AcDbCircle
 10
-362.4427805764753
 20
809.4040248242268
 30
0.0
 40
1.666666688145818
100
AcDbArc
 50
354.8963317871094
 51
89.99999999999999
  0
ARC
  5
1BC
330
1F
100
AcDbEntity
  8
0-1
  6
Continuous
 62
     2
370
    13
100
AcDbCircle
 10
-82.49695340164408
 20
784.4036949044632
 30
0.0
 40
279.3933352908573
100
AcDbArc
 50
174.8968353271484
 51
180.0
  0
ARC
  5
1BD
330
1F
100
AcDbEntity
  8
0-1
  6
Continuous
 62
     2
370
    13
100
AcDbCircle
 10
-82.49695340164408
 20
784.4036949044632
 30
0.0
 40
279.3933352908573
100
AcDbArc
 50
54.89685058593751
 51
65.1030731201172
  0
ARC
  5
1BE
330
1F
100
AcDbEntity
  8
0-1
  6
Continuous
 62
     2
370
    13
100
AcDbCircle
 10
82.6991509057882
 20
1008.411956095342
 30
0.0
 40
1.666666688145818
100
AcDbArc
 50
149.9994506835938
 51
233.5928802490234
  0
ARC
  5
1BF
330
1F
100
AcDbEntity
  8
0-1
  6
Continuous
 62
     2
370
    13
100
AcDbCircle
 10
79.12644978670033
 20
1014.344243363078
 30
0.0
 40
1.666666688145818
100
AcDbArc
 50
234.8972625732422
 51
330.0004577636719
  0
ARC
  5
1C0
330
1F
100
AcDbEntity
  8
0-1
  6
Continuous
 62
     2
370
    13
100
AcDbCircle
 10
28.90177442774796
 20
1039.472252231322
 30
0.0
 40
1.666666688145818
100
AcDbArc
 50
246.4067993164063
 51
330.000228881836
  0
ARC
  5
1C1
330
1F
100
AcDbEntity
  8
0-1
  6
Continuous
 62
     2
370
    13
100
AcDbCircle
 10
35.82547058484238
 20
1039.344243363078
 30
0.0
 40
1.666666688145818
100
AcDbArc
 50
149.9992218017578
 51
245.1024169921875
  0
ARC
  5
1C2
330
1F
100
AcDbEntity
  8
0-1
  6
Continuous
 62
     2
370
    13
100
AcDbCircle
 10
-82.49695340164408
 20
784.4036949044632
 30
0.0
 40
289.9999876280089
100
AcDbArc
 50
47.63522338867188
 51
51.30465698242187
  0
ARC
  5
1C3
330
1F
100
AcDbEntity
  8
0-1
  6
Continuous
 62
     2
370
    13
100
AcDbCircle
 10
-82.49695340164408
 20
784.4036949044632
 30
0.0
 40
289.9999876280089
100
AcDbArc
 50
68.695556640625
 51
72.36474609375
  0
ARC
  5
1C4
330
1F
100
AcDbEntity
  8
0-1
  6
Continuous
 62
     2
370
    13
100
AcDbCircle
 10
-82.49695340164408
 20
784.4036949044632
 30
0.0
 40
276.6666721653294
100
AcDbArc
 50
48.79946899414062
 51
53.59286499023438
  0
ARC
  5
1C5
330
1F
100
AcDbEntity
  8
0-1
  6
Continuous
 62
     2
370
    13
100
AcDbCircle
 10
-82.49695340164408
 20
784.4036949044632
 30
0.0
 40
276.6666721653294
100
AcDbArc
 50
66.40715026855469
 51
71.20048522949217
  0
ARC
  5
1C6
330
1F
100
AcDbEntity
  8
0-1
  6
Continuous
 62
     2
370
    13
100
AcDbCircle
 10
-82.49695340164408
 20
784.4036949044632
 30
0.0
 40
286.6666639173353
100
AcDbArc
 50
48.66674804687499
 51
53.52032470703124
  0
ARC
  5
1C7
330
1F
100
AcDbEntity
  8
0-1
  6
Continuous
 62
     2
370
    13
100
AcDbCircle
 10
-82.49695340164408
 20
784.4036949044632
 30
0.0
 40
286.6666639173353
100
AcDbArc
 50
66.47966003417969
 51
71.33323669433594
  0
ARC
  5
1C8
330
1F
100
AcDbEntity
  8
0-1
  6
Continuous
 62
     2
370
    13
100
AcDbCircle
 10
33.23461068197087
 20
1050.310116462741
 30
0.0
 40
3.333333376291636
100
AcDbArc
 50
246.4801330566407
 51
303.6038665771485
  0
ARC
  5
1C9
330
1F
100
AcDbEntity
  8
0-1
  6
Continuous
 62
     2
370
    13
100
AcDbCircle
 10
89.91878509075451
 20
1017.583725521017
 30
0.0
 40
3.333333376291636
100
AcDbArc
 50
176.3768920898438
 51
233.5197601318359
  0
ARC
  5
1CA
330
1F
100
AcDbEntity
  8
0-1
  6
Continuous
 62
     2
370
    13
100
AcDbCircle
 10
-359.0917855384683
 20
815.4636611206797
 30
0.0
 40
1.666666688145818
100
AcDbArc
 50
270.0
 51
353.5924987792969
  0
ARC
  5
1CB
330
1F
100
AcDbEntity
  8
0-1
  6
Continuous
 62
     2
370
    13
100
AcDbCircle
 10
-82.49695340164408
 20
784.4036949044632
 30
0.0
 40
276.6666721653294
100
AcDbArc
 50
168.7995147705078
 51
173.5928497314453
  0
ARC
  5
1CC
330
1F
100
AcDbEntity
  8
0-1
  6
Continuous
 62
     2
370
    13
100
AcDbCircle
 10
-82.49695340164408
 20
784.4036949044632
 30
0.0
 40
289.9999876280089
100
AcDbArc
 50
167.63525390625
 51
171.3045501708985
  0
ARC
  5
1CD
330
1F
100
AcDbEntity
  8
0-1
  6
Continuous
 62
     2
370
    13
100
AcDbCircle
 10
-82.49695340164408
 20
784.4036949044632
 30
0.0
 40
286.6666639173353
100
AcDbArc
 50
168.6667633056641
 51
173.5203247070313
  0
ARC
  5
1CE
330
1F
100
AcDbEntity
  8
0-1
  6
Continuous
 62
     2
370
    13
100
AcDbCircle
 10
-370.6445858974211
 20
817.1304157659497
 30
0.0
 40
3.333333376291636
100
AcDbArc
 50
296.3774108886719
 51
353.5197601318359
  0
LINE
  5
1CF
330
1F
100
AcDbEntity
  8
0-2
  6
JWW_CENTER1
 62
     4
370
    13
100
AcDbLine
 10
170.9742149102223
 20
809.0785177375506
 30
0.0
 11
170.9742149102223
 21
784.4036949044632
 31
0.0
  0
LINE
  5
1D0
330
1F
100
AcDbEntity
  8
0-2
  6
Continuous
 62
     4
370
    13
100
AcDbLine
 10
169.3074602649523
 20
797.4563929882893
 30
0.0
 11
172.6409695554926
 21
797.4563929882893
 31
0.0
  0
LINE
  5
1D1
330
1F
100
AcDbEntity
  8
0-2
  6
Continuous
 62
     4
370
    13
100
AcDbLine
 10
169.3074602649523
 20
797.4563929882893
 30
0.0
 11
169.3074602649523
 21
784.4036949044632
 31
0.0
  0
LINE
  5
1D2
330
1F
100
AcDbEntity
  8
0-2
  6
Continuous
 62
     4
370
    13
100
AcDbLine
 10
172.6409695554926
 20
797.4563929882893
 30
0.0
 11
172.6409695554926
 21
784.4036949044632
 31
0.0
  0
LINE
  5
1D3
330
1F
100
AcDbEntity
  8
0-2
  6
JWW_CENTER1
 62
     4
370
    13
100
AcDbLine
 10
-335.9679979935992
 20
809.0785177375506
 30
0.0
 11
-335.9679979935992
 21
784.4036949044632
 31
0.0
  0
LINE
  5
1D4
330
1F
100
AcDbEntity
  8
0-2
  6
Continuous
 62
     4
370
    13
100
AcDbLine
 10
-334.3012433483292
 20
797.4563929882893
 30
0.0
 11
-337.6347526388695
 21
797.4563929882893
 31
0.0
  0
LINE
  5
1D5
330
1F
100
AcDbEntity
  8
0-2
  6
Continuous
 62
     4
370
    13
100
AcDbLine
 10
-334.3012433483292
 20
797.4563929882893
 30
0.0
 11
-334.3012433483292
 21
784.4036949044632
 31
0.0
  0
LINE
  5
1D6
330
1F
100
AcDbEntity
  8
0-2
  6
Continuous
 62
     4
370
    13
100
AcDbLine
 10
-337.6347526388695
 20
797.4563929882893
 30
0.0
 11
-337.6347526388695
 21
784.4036949044632
 31
0.0
  0
LINE
  5
1D7
330
1F
100
AcDbEntity
  8
0-2
  6
Continuous
 62
     6
370
    13
100
AcDbLine
 10
148.4428395407124
 20
817.737303170933
 30
0.0
 11
182.0778295111515
 21
817.737303170933
 31
0.0
  0
LINE
  5
1D8
330
1F
100
AcDbEntity
  8
0-2
  6
Continuous
 62
     6
370
    13
100
AcDbLine
 10
147.937072543246
 20
821.0703175818285
 30
0.0
 11
185.0015784554083
 21
821.0703175818285
 31
0.0
  0
LINE
  5
1D9
330
1F
100
AcDbEntity
  8
0-2
  6
Continuous
 62
     6
370
    13
100
AcDbLine
 10
182.0778295111515
 20
817.737303170933
 30
0.0
 11
185.0015784554083
 21
821.0703175818285
 31
0.0
  0
LINE
  5
1DA
330
1F
100
AcDbEntity
  8
0-2
  6
Continuous
 62
     6
370
    13
100
AcDbLine
 10
-313.4369937838232
 20
817.737303170933
 30
0.0
 11
-347.0719837542622
 21
817.737303170933
 31
0.0
  0
LINE
  5
1DB
330
1F
100
AcDbEntity
  8
0-2
  6
Continuous
 62
     6
370
    13
100
AcDbLine
 10
-312.9311030664456
 20
821.0703175818285
 30
0.0
 11
-349.9956089786078
 21
821.0703175818285
 31
0.0
  0
LINE
  5
1DC
330
1F
100
AcDbEntity
  8
0-2
  6
Continuous
 62
     6
370
    13
100
AcDbLine
 10
-307.7920253901365
 20
845.1209734623183
 30
0.0
 11
-298.2637364200141
 21
842.5530429830108
 31
0.0
  0
LINE
  5
1DD
330
1F
100
AcDbEntity
  8
0-2
  6
Continuous
 62
     6
370
    13
100
AcDbLine
 10
-314.9714918438948
 20
804.4036371685047
 30
0.0
 11
-305.1397179313104
 21
803.5577641348266
 31
0.0
  0
LINE
  5
1DE
330
1F
100
AcDbEntity
  8
0-2
  6
Continuous
 62
     6
370
    13
100
AcDbLine
 10
-273.438593894676
 20
918.514594133771
 30
0.0
 11
-265.363147843156
 21
912.8427785193285
 31
0.0
  0
LINE
  5
1DF
330
1F
100
AcDbEntity
  8
0-2
  6
Continuous
 62
     6
370
    13
100
AcDbLine
 10
-294.1113250364625
 20
882.708567159531
 30
0.0
 11
-285.1616740915724
 21
878.5510832596153
 31
0.0
  0
LINE
  5
1E0
330
1F
100
AcDbEntity
  8
0-2
  6
Continuous
 62
     6
370
    13
100
AcDbLine
 10
-216.0547009074509
 20
975.7325787199195
 30
0.0
 11
-210.4061446363357
 21
967.6408016401052
 31
0.0
  0
LINE
  5
1E1
330
1F
100
AcDbEntity
  8
0-2
  6
Continuous
 62
     6
370
    13
100
AcDbLine
 10
-247.7271219246594
 20
949.1565520096153
 30
0.0
 11
-240.7390501737092
 21
942.1886466042101
 31
0.0
  0
LINE
  5
1E2
330
1F
100
AcDbEntity
  8
0-2
  6
Continuous
 62
     6
370
    13
100
AcDbLine
 10
-142.5618568671214
 20
1009.87383056747
 30
0.0
 11
-140.0213922081264
 21
1000.337994682757
 31
0.0
  0
LINE
  5
1E3
330
1F
100
AcDbEntity
  8
0-2
  6
Continuous
 62
     6
370
    13
100
AcDbLine
 10
-181.4137443380883
 20
995.7326447038722
 30
0.0
 11
-177.2304029767074
 21
986.7951183102912
 31
0.0
  0
LINE
  5
1E4
330
1F
100
AcDbEntity
  8
0-2
  6
Continuous
 62
     6
370
    13
100
AcDbLine
 10
16.41996125471138
 20
995.7326447038722
 30
0.0
 11
12.2364961734192
 21
986.7951183102912
 31
0.0
  0
LINE
  5
1E5
330
1F
100
AcDbEntity
  8
0-2
  6
Continuous
 62
     6
370
    13
100
AcDbLine
 10
-22.432049936167
 20
1009.87383056747
 30
0.0
 11
-24.97226715533913
 21
1000.337994682757
 31
0.0
  0
LINE
  5
1E6
330
1F
100
AcDbEntity
  8
0-2
  6
Continuous
 62
     6
370
    13
100
AcDbLine
 10
82.73321512137102
 20
949.1565520096153
 30
0.0
 11
75.74501965050956
 21
942.1886466042101
 31
0.0
  0
LINE
  5
1E7
330
1F
100
AcDbEntity
  8
0-2
  6
Continuous
 62
     6
370
    13
100
AcDbLine
 10
51.0609178240739
 20
975.7325787199195
 30
0.0
 11
45.41236155295906
 21
967.6408016401052
 31
0.0
  0
LINE
  5
1E8
330
1F
100
AcDbEntity
  8
0-2
  6
Continuous
 62
     6
370
    13
100
AcDbLine
 10
129.1172945132629
 20
882.708567159531
 30
0.0
 11
120.1673961285502
 21
878.5510832596153
 31
0.0
  0
LINE
  5
1E9
330
1F
100
AcDbEntity
  8
0-2
  6
Continuous
 62
     6
370
    13
100
AcDbLine
 10
108.4446870913879
 20
918.514594133771
 30
0.0
 11
100.3692410398676
 21
912.8427785193285
 31
0.0
  0
LINE
  5
1EA
330
1F
100
AcDbEntity
  8
0-2
  6
Continuous
 62
     6
370
    13
100
AcDbLine
 10
149.9774613206955
 20
804.4036371685047
 30
0.0
 11
140.1456874081109
 21
803.5577641348266
 31
0.0
  0
LINE
  5
1EB
330
1F
100
AcDbEntity
  8
0-2
  6
Continuous
 62
     6
370
    13
100
AcDbLine
 10
142.7982423067596
 20
845.1209734623183
 30
0.0
 11
133.2698296167257
 21
842.5530429830108
 31
0.0
  0
LINE
  5
1EC
330
1F
100
AcDbEntity
  8
0-2
  6
Continuous
 62
     6
370
    13
100
AcDbLine
 10
170.8361434891921
 20
801.070375317787
 30
0.0
 11
180.0829696610671
 21
801.070375317787
 31
0.0
  0
LINE
  5
1ED
330
1F
100
AcDbEntity
  8
0-2
  6
Continuous
 62
     6
370
    13
100
AcDbLine
 10
-335.8301740123917
 20
801.070375317787
 30
0.0
 11
-345.076752744444
 21
801.070375317787
 31
0.0
  0
LINE
  5
1EE
330
1F
100
AcDbEntity
  8
0-2
  6
Continuous
 62
     6
370
    13
100
AcDbLine
 10
-349.9956089786078
 20
821.0703175818285
 30
0.0
 11
-347.0719837542622
 21
817.737303170933
 31
0.0
  0
LINE
  5
1EF
330
1F
100
AcDbEntity
  8
0-2
  6
Continuous
 62
     6
370
    13
100
AcDbLine
 10
180.9742479021989
 20
797.7368660272464
 30
0.0
 11
183.6480826255939
 21
797.7368660272464
 31
0.0
  0
LINE
  5
1F0
330
1F
100
AcDbEntity
  8
0-2
  6
Continuous
 62
     6
370
    13
100
AcDbLine
 10
-345.968154705487
 20
797.7368660272464
 30
0.0
 11
-348.6421131487935
 21
797.7368660272464
 31
0.0
  0
LINE
  5
1F1
330
1F
100
AcDbEntity
  8
0-2
  6
Continuous
 62
     6
370
    13
100
AcDbLine
 10
-61.82422225985789
 20
1016.819466388838
 30
0.0
 11
-62.69855087313914
 21
1006.989671994835
 31
0.0
  0
LINE
  5
1F2
330
1F
100
AcDbEntity
  8
0-2
  6
Continuous
 62
     6
370
    13
100
AcDbLine
 10
-103.1696845434305
 20
1016.819466388838
 30
0.0
 11
-102.2953559301493
 21
1006.99016687448
 31
0.0
  0
LINE
  5
1F3
330
1F
100
AcDbEntity
  8
0-2
  6
Continuous
 62
     6
370
    13
100
AcDbLine
 10
-92.49698639362038
 20
976.0780047123183
 30
0.0
 11
-90.83035546826153
 21
974.411250067048
 31
0.0
  0
LINE
  5
1F4
330
1F
100
AcDbEntity
  8
0-2
  6
Continuous
 62
     6
370
    13
100
AcDbLine
 10
-72.49692040966778
 20
976.0780047123183
 30
0.0
 11
-74.16355133502663
 21
974.411250067048
 31
0.0
  0
LINE
  5
1F5
330
1F
100
AcDbEntity
  8
0-2
  6
Continuous
 62
     6
370
    13
100
AcDbLine
 10
-84.1635843270032
 20
1015.983614667977
 30
0.0
 11
-80.83032247628523
 21
1015.983614667977
 31
0.0
  0
LINE
  5
1F6
330
1F
100
AcDbEntity
  8
0-2
  6
Continuous
 62
     6
370
    13
100
AcDbLine
 10
-90.83035546826153
 20
974.411250067048
 30
0.0
 11
-90.83035546826153
 21
980.9011017351222
 31
0.0
  0
LINE
  5
1F7
330
1F
100
AcDbEntity
  8
0-2
  6
Continuous
 62
     6
370
    13
100
AcDbLine
 10
-92.49698639362038
 20
976.0780047123183
 30
0.0
 11
-92.49698639362038
 21
980.8234056308149
 31
0.0
  0
LINE
  5
1F8
330
1F
100
AcDbEntity
  8
0-2
  6
Continuous
 62
     6
370
    13
100
AcDbLine
 10
-74.16355133502663
 20
974.411250067048
 30
0.0
 11
-74.16355133502663
 21
980.9011017351222
 31
0.0
  0
LINE
  5
1F9
330
1F
100
AcDbEntity
  8
0-2
  6
Continuous
 62
     6
370
    13
100
AcDbLine
 10
-72.49692040966778
 20
976.0780047123183
 30
0.0
 11
-72.49692040966778
 21
980.8234056308149
 31
0.0
  0
LINE
  5
1FA
330
1F
100
AcDbEntity
  8
0-2
  6
Continuous
 62
     6
370
    13
100
AcDbLine
 10
-87.49659873789824
 20
998.0194835446662
 30
0.0
 11
-87.49659873789824
 21
999.7362210341087
 31
0.0
  0
LINE
  5
1FB
330
1F
100
AcDbEntity
  8
0-2
  6
Continuous
 62
     6
370
    13
100
AcDbLine
 10
-77.49718434547873
 20
998.0194835446662
 30
0.0
 11
-77.49718434547873
 21
999.7362210341087
 31
0.0
  0
LINE
  5
1FC
330
1F
100
AcDbEntity
  8
0-2
  6
Continuous
 62
     6
370
    13
100
AcDbLine
 10
-80.83032247628523
 20
1015.983614667977
 30
0.0
 11
-80.83032247628523
 21
1024.706858175156
 31
0.0
  0
LINE
  5
1FD
330
1F
100
AcDbEntity
  8
0-2
  6
Continuous
 62
     6
370
    13
100
AcDbLine
 10
-84.1635843270032
 20
1015.983614667977
 30
0.0
 11
-84.1635843270032
 21
1024.706858175156
 31
0.0
  0
LINE
  5
1FE
330
1F
100
AcDbEntity
  8
0-2
  6
Continuous
 62
     6
370
    13
100
AcDbLine
 10
-74.16355133502663
 20
1000.200418141372
 30
0.0
 11
-74.16355133502663
 21
1010.780944957251
 31
0.0
  0
LINE
  5
1FF
330
1F
100
AcDbEntity
  8
0-2
  6
Continuous
 62
     6
370
    13
100
AcDbLine
 10
-72.49692040966778
 20
1000.522089910798
 30
0.0
 11
-72.49692040966778
 21
1010.919016378281
 31
0.0
  0
LINE
  5
200
330
1F
100
AcDbEntity
  8
0-2
  6
Continuous
 62
     6
370
    13
100
AcDbLine
 10
-92.49698639362038
 20
1000.522089910798
 30
0.0
 11
-92.49698639362038
 21
1010.919016378281
 31
0.0
  0
LINE
  5
201
330
1F
100
AcDbEntity
  8
0-2
  6
Continuous
 62
     6
370
    13
100
AcDbLine
 10
-90.83035546826153
 20
1000.200418141372
 30
0.0
 11
-90.83035546826153
 21
1010.780944957251
 31
0.0
  0
ARC
  5
202
330
1F
100
AcDbEntity
  8
0-2
  6
Continuous
 62
     4
370
    13
100
AcDbCircle
 10
170.9742149102223
 20
784.4036949044632
 30
0.0
 40
16.66666688145818
100
AcDbArc
 50
0.0
 51
180.0
  0
ARC
  5
203
330
1F
100
AcDbEntity
  8
0-2
  6
Continuous
 62
     4
370
    13
100
AcDbCircle
 10
-335.9679979935992
 20
784.4036949044632
 30
0.0
 40
16.66666688145818
100
AcDbArc
 50
0.0
 51
180.0
  0
ARC
  5
204
330
1F
100
AcDbEntity
  8
0-2
  6
Continuous
 62
     6
370
    13
100
AcDbCircle
 10
-82.49695340164408
 20
784.4036949044632
 30
0.0
 40
196.6666711343302
100
AcDbArc
 50
0.0
 51
180.0
  0
ARC
  5
205
330
1F
100
AcDbEntity
  8
0-2
  6
Continuous
 62
     6
370
    13
100
AcDbCircle
 10
-82.49695340164408
 20
784.4036949044632
 30
0.0
 40
213.6744164131783
100
AcDbArc
 50
0.0
 51
180.0
  0
ARC
  5
206
330
1F
100
AcDbEntity
  8
0-2
  6
Continuous
 62
     6
370
    13
100
AcDbCircle
 10
-304.7111521585065
 20
808.5394700839399
 30
0.0
 40
5.000000064437453
100
AcDbArc
 50
265.0829467773438
 51
353.8010253906251
  0
ARC
  5
207
330
1F
100
AcDbEntity
  8
0-2
  6
Continuous
 62
     6
370
    13
100
AcDbCircle
 10
-299.5647750074294
 20
837.7254920433993
 30
0.0
 40
5.000000064437453
100
AcDbArc
 50
346.1986083984375
 51
74.91734313964844
  0
ARC
  5
208
330
1F
100
AcDbEntity
  8
0-2
  6
Continuous
 62
     6
370
    13
100
AcDbCircle
 10
-82.49695340164408
 20
784.4036949044632
 30
0.0
 40
218.5210511491105
100
AcDbArc
 50
166.1988372802735
 51
173.8011627197266
  0
ARC
  5
209
330
1F
100
AcDbEntity
  8
0-2
  6
Continuous
 62
     6
370
    13
100
AcDbCircle
 10
-283.055095161568
 20
883.0856654492268
 30
0.0
 40
5.000000064437453
100
AcDbArc
 50
245.0829467773438
 51
333.8010253906251
  0
ARC
  5
20A
330
1F
100
AcDbEntity
  8
0-2
  6
Continuous
 62
     6
370
    13
100
AcDbCircle
 10
-268.2369139432404
 20
908.7511136122337
 30
0.0
 40
5.000000064437453
100
AcDbArc
 50
326.1986083984375
 51
54.91734313964846
  0
ARC
  5
20B
330
1F
100
AcDbEntity
  8
0-2
  6
Continuous
 62
     6
370
    13
100
AcDbCircle
 10
-82.49695340164408
 20
784.4036949044632
 30
0.0
 40
218.5210511491105
100
AcDbArc
 50
146.1988372802735
 51
153.8011627197266
  0
ARC
  5
20C
330
1F
100
AcDbEntity
  8
0-2
  6
Continuous
 62
     6
370
    13
100
AcDbCircle
 10
-237.2088262241738
 20
945.7295104661189
 30
0.0
 40
5.000000064437453
100
AcDbArc
 50
225.0829467773438
 51
313.8010253906251
  0
ARC
  5
20D
330
1F
100
AcDbEntity
  8
0-2
  6
Continuous
 62
     6
370
    13
100
AcDbCircle
 10
-214.5060987774886
 20
964.7789126515073
 30
0.0
 40
5.000000064437453
100
AcDbArc
 50
306.1986083984376
 51
34.91734313964843
  0
ARC
  5
20E
330
1F
100
AcDbEntity
  8
0-2
  6
Continuous
 62
     6
370
    13
100
AcDbCircle
 10
-82.49695340164408
 20
784.4036949044632
 30
0.0
 40
218.5210511491105
100
AcDbArc
 50
126.1988372802735
 51
133.8011627197266
  0
ARC
  5
20F
330
1F
100
AcDbEntity
  8
0-2
  6
Continuous
 62
     6
370
    13
100
AcDbCircle
 10
-172.7017593428391
 20
988.9146878309837
 30
0.0
 40
5.000000064437453
100
AcDbArc
 50
205.0829467773438
 51
293.8010253906251
  0
ARC
  5
210
330
1F
100
AcDbEntity
  8
0-2
  6
Continuous
 62
     6
370
    13
100
AcDbCircle
 10
-144.8529021849001
 20
999.0508127254094
 30
0.0
 40
5.000000064437453
100
AcDbArc
 50
286.1986083984375
 51
14.91734313964845
  0
ARC
  5
211
330
1F
100
AcDbEntity
  8
0-2
  6
Continuous
 62
     6
370
    13
100
AcDbCircle
 10
-82.49695340164408
 20
784.4036949044632
 30
0.0
 40
218.5210511491105
100
AcDbArc
 50
106.1988372802735
 51
113.8011627197266
  0
ARC
  5
212
330
1F
100
AcDbEntity
  8
0-2
  6
Continuous
 62
     6
370
    13
100
AcDbCircle
 10
-20.14075717856571
 20
999.0508127254094
 30
0.0
 40
5.000000064437453
100
AcDbArc
 50
165.0829467773438
 51
253.8010253906251
  0
ARC
  5
213
330
1F
100
AcDbEntity
  8
0-2
  6
Continuous
 62
     6
370
    13
100
AcDbCircle
 10
7.708099979373628
 20
988.9146878309837
 30
0.0
 40
5.000000064437453
100
AcDbArc
 50
246.1986083984375
 51
334.9173431396484
  0
ARC
  5
214
330
1F
100
AcDbEntity
  8
0-2
  6
Continuous
 62
     6
370
    13
100
AcDbCircle
 10
-82.49695340164408
 20
784.4036949044632
 30
0.0
 40
218.5210511491105
100
AcDbArc
 50
66.19883728027347
 51
73.80116271972659
  0
ARC
  5
215
330
1F
100
AcDbEntity
  8
0-2
  6
Continuous
 62
     6
370
    13
100
AcDbCircle
 10
49.51194453437779
 20
964.7789126515073
 30
0.0
 40
5.000000064437453
100
AcDbArc
 50
145.0829467773438
 51
233.8010253906251
  0
ARC
  5
216
330
1F
100
AcDbEntity
  8
0-2
  6
Continuous
 62
     6
370
    13
100
AcDbCircle
 10
72.21454826115149
 20
945.7290155864735
 30
0.0
 40
5.000000064437453
100
AcDbArc
 50
226.1986083984375
 51
314.9173431396484
  0
ARC
  5
217
330
1F
100
AcDbEntity
  8
0-2
  6
Continuous
 62
     6
370
    13
100
AcDbCircle
 10
-82.49695340164408
 20
784.4036949044632
 30
0.0
 40
218.5210511491105
100
AcDbArc
 50
46.19883728027344
 51
53.80116271972656
  0
ARC
  5
218
330
1F
100
AcDbEntity
  8
0-2
  6
Continuous
 62
     6
370
    13
100
AcDbCircle
 10
103.2430071399523
 20
908.7511136122337
 30
0.0
 40
5.000000064437453
100
AcDbArc
 50
125.0829467773438
 51
213.8010253906251
  0
ARC
  5
219
330
1F
100
AcDbEntity
  8
0-2
  6
Continuous
 62
     6
370
    13
100
AcDbCircle
 10
118.0611883582799
 20
883.0856654492268
 30
0.0
 40
5.000000064437453
100
AcDbArc
 50
206.1986083984375
 51
294.9173431396484
  0
ARC
  5
21A
330
1F
100
AcDbEntity
  8
0-2
  6
Continuous
 62
     6
370
    13
100
AcDbCircle
 10
-82.49695340164408
 20
784.4036949044632
 30
0.0
 40
218.5210511491105
100
AcDbArc
 50
26.19883728027349
 51
33.80116271972661
  0
ARC
  5
21B
330
1F
100
AcDbEntity
  8
0-2
  6
Continuous
 62
     6
370
    13
100
AcDbCircle
 10
134.5708682041413
 20
837.7254920433993
 30
0.0
 40
5.000000064437453
100
AcDbArc
 50
105.0829467773438
 51
193.8010253906251
  0
ARC
  5
21C
330
1F
100
AcDbEntity
  8
0-2
  6
Continuous
 62
     6
370
    13
100
AcDbCircle
 10
139.717121635307
 20
808.5394700839399
 30
0.0
 40
5.000000064437453
100
AcDbArc
 50
186.1986083984375
 51
274.9173431396484
  0
ARC
  5
21D
330
1F
100
AcDbEntity
  8
0-2
  6
Continuous
 62
     6
370
    13
100
AcDbCircle
 10
-82.49695340164408
 20
784.4036949044632
 30
0.0
 40
218.5210511491105
100
AcDbArc
 50
6.198837280273484
 51
13.80116271972661
  0
ARC
  5
21E
330
1F
100
AcDbEntity
  8
0-2
  6
Continuous
 62
     6
370
    13
100
AcDbCircle
 10
183.6480826255939
 20
801.070375317787
 30
0.0
 40
3.333333376291636
100
AcDbArc
 50
270.0
 51
3.583343505859379
  0
ARC
  5
21F
330
1F
100
AcDbEntity
  8
0-2
  6
Continuous
 62
     6
370
    13
100
AcDbCircle
 10
180.0829696610671
 20
804.4035134485935
 30
0.0
 40
3.333333376291636
100
AcDbArc
 50
270.0
 51
0.5353240966796906
  0
ARC
  5
220
330
1F
100
AcDbEntity
  8
0-2
  6
Continuous
 62
     6
370
    13
100
AcDbCircle
 10
-82.49695340164408
 20
784.4036949044632
 30
0.0
 40
266.666639173353
100
AcDbArc
 50
4.307907104492188
 51
7.180770874023438
  0
ARC
  5
221
330
1F
100
AcDbEntity
  8
0-2
  6
Continuous
 62
     6
370
    13
100
AcDbCircle
 10
-348.6421131487935
 20
801.070375317787
 30
0.0
 40
3.333333376291636
100
AcDbArc
 50
176.4166564941406
 51
270.0
  0
ARC
  5
222
330
1F
100
AcDbEntity
  8
0-2
  6
Continuous
 62
     6
370
    13
100
AcDbCircle
 10
-345.076752744444
 20
804.4035134485935
 30
0.0
 40
3.333333376291636
100
AcDbArc
 50
179.4646759033203
 51
270.0
  0
ARC
  5
223
330
1F
100
AcDbEntity
  8
0-2
  6
Continuous
 62
     6
370
    13
100
AcDbCircle
 10
-82.49695340164408
 20
784.4036949044632
 30
0.0
 40
266.666639173353
100
AcDbArc
 50
172.8192291259766
 51
175.6920928955079
  0
ARC
  5
224
330
1F
100
AcDbEntity
  8
0-2
  6
Continuous
 62
     6
370
    13
100
AcDbCircle
 10
-82.49695340164408
 20
784.4036949044632
 30
0.0
 40
270.0000247439823
100
AcDbArc
 50
3.583328247070312
 51
176.4166717529297
  0
ARC
  5
225
330
1F
100
AcDbEntity
  8
0-2
  6
Continuous
 62
     6
370
    13
100
AcDbCircle
 10
-97.31501090006049
 20
1007.433084156997
 30
0.0
 40
5.000000064437453
100
AcDbArc
 50
185.0829467773438
 51
273.8010253906251
  0
ARC
  5
226
330
1F
100
AcDbEntity
  8
0-2
  6
Continuous
 62
     6
370
    13
100
AcDbCircle
 10
-67.67877218331648
 20
1007.433084156997
 30
0.0
 40
5.000000064437453
100
AcDbArc
 50
266.1986083984375
 51
354.9173431396484
  0
ARC
  5
227
330
1F
100
AcDbEntity
  8
0-2
  6
Continuous
 62
     6
370
    13
100
AcDbCircle
 10
-82.49695340164408
 20
998.077879342808
 30
0.0
 40
5.000000064437453
100
AcDbArc
 50
180.6703643798828
 51
359.3296356201172
  0
ARC
  5
228
330
1F
100
AcDbEntity
  8
0-2
  6
Continuous
 62
     6
370
    13
100
AcDbCircle
 10
-82.49695340164408
 20
784.4036949044632
 30
0.0
 40
218.5210511491105
100
AcDbArc
 50
86.19883728027344
 51
87.37710571289064
  0
ARC
  5
229
330
1F
100
AcDbEntity
  8
0-2
  6
Continuous
 62
     6
370
    13
100
AcDbCircle
 10
-82.49695340164408
 20
784.4036949044632
 30
0.0
 40
218.5210511491105
100
AcDbArc
 50
92.62289428710939
 51
93.80114746093753
  0
ARC
  5
22A
330
1F
100
AcDbEntity
  8
0-2
  6
Continuous
 62
     6
370
    13
100
AcDbCircle
 10
-82.49695340164408
 20
1023.388993679801
 30
0.0
 40
49.68194574923129
100
AcDbArc
 50
260.3438720703126
 51
279.6561279296875
  0
ARC
  5
22B
330
1F
100
AcDbEntity
  8
0-2
  6
Continuous
 62
     6
370
    13
100
AcDbCircle
 10
-82.49695340164408
 20
1023.388993679801
 30
0.0
 40
48.35659233299461
100
AcDbArc
 50
258.0652618408203
 51
281.9347381591797
  0
ARC
  5
22C
330
1F
100
AcDbEntity
  8
0-2
  6
Continuous
 62
     6
370
    13
100
AcDbCircle
 10
-82.49695340164408
 20
1047.833573757926
 30
0.0
 40
48.35659233299461
100
AcDbArc
 50
258.0652618408203
 51
281.9347381591797
  0
ARC
  5
22D
330
1F
100
AcDbEntity
  8
0-2
  6
Continuous
 62
     6
370
    13
100
AcDbCircle
 10
-82.49695340164408
 20
1006.957009938247
 30
0.0
 40
17.82839878185375
100
AcDbArc
 50
15.77162170410156
 51
84.63603210449219
  0
ARC
  5
22E
330
1F
100
AcDbEntity
  8
0-2
  6
Continuous
 62
     6
370
    13
100
AcDbCircle
 10
-82.49695340164408
 20
1006.957009938247
 30
0.0
 40
17.82839878185375
100
AcDbArc
 50
95.36396789550781
 51
164.2283782958985
  0
ARC
  5
22F
330
1F
100
AcDbEntity
  8
0-2
  6
Continuous
 62
     6
370
    13
100
AcDbCircle
 10
-82.49695340164408
 20
1121.358832415021
 30
0.0
 40
110.8916875478384
100
AcDbArc
 50
261.0994262695313
 51
278.9005737304688
  0
ARC
  5
230
330
1F
100
AcDbEntity
  8
0-2
  6
Continuous
 62
     6
370
    13
100
AcDbCircle
 10
-82.49695340164408
 20
784.4036949044632
 30
0.0
 40
233.3333402066617
100
AcDbArc
 50
0.0
 51
86.42913818359376
  0
ARC
  5
231
330
1F
100
AcDbEntity
  8
0-2
  6
Continuous
 62
     6
370
    13
100
AcDbCircle
 10
-82.49695340164408
 20
784.4036949044632
 30
0.0
 40
233.3333402066617
100
AcDbArc
 50
93.57086181640625
 51
180.0
  0
LINE
  5
232
330
1F
100
AcDbEntity
  8
0-0
  6
JWW_CENTER1
 62
     3
370
    13
100
AcDbLine
 10
-82.49695340164408
 20
1262.203064097876
 30
0.0
 11
-82.49695340164408
 21
770.0006076969156
 31
0.0
  0
LINE
  5
233
330
1F
100
AcDbEntity
  8
0-0
  6
Continuous
 62
     3
370
    13
100
AcDbLine
 10
-457.4969534016441
 20
-183.8986165006781
 30
0.0
 11
-402.8253004633908
 21
-183.8986165006781
 31
0.0
  0
LINE
  5
234
330
1F
100
AcDbEntity
  8
0-0
  6
Continuous
 62
     3
370
    13
100
AcDbLine
 10
292.5032940381786
 20
-183.8986165006781
 30
0.0
 11
237.8315129182777
 21
-183.8986165006781
 31
0.0
  0
LINE
  5
235
330
1F
100
AcDbEntity
  8
0-2
  6
Continuous
 62
     6
370
    13
100
AcDbLine
 10
-352.4968544257152
 20
-144.3775280293943
 30
0.0
 11
-324.0629358555336
 21
-144.3775280293943
 31
0.0
  0
LINE
  5
236
330
1F
100
AcDbEntity
  8
0-1
  6
Continuous
 62
     2
370
    13
100
AcDbLine
 10
-424.1638400148197
 20
-164.3775940133469
 30
0.0
 11
-419.1685248754618
 21
-131.0443156666408
 31
0.0
  0
LINE
  5
237
330
1F
100
AcDbEntity
  8
0-1
  6
Continuous
 62
     2
370
    13
100
AcDbLine
 10
-401.9401148247861
 20
-151.0442166907118
 30
0.0
 11
-401.9401148247861
 21
-154.3777259812523
 31
0.0
  0
LINE
  5
238
330
1F
100
AcDbEntity
  8
0-1
  6
Continuous
 62
     2
370
    13
100
AcDbLine
 10
-379.7203486719142
 20
-154.3777259812523
 30
0.0
 11
-401.9401148247861
 21
-154.3777259812523
 31
0.0
  0
LINE
  5
239
330
1F
100
AcDbEntity
  8
0-1
  6
Continuous
 62
     2
370
    13
100
AcDbLine
 10
-401.9401148247861
 20
-154.3777259812523
 30
0.0
 11
-390.8303967082319
 21
-160.7920260234822
 31
0.0
  0
LINE
  5
23A
330
1F
100
AcDbEntity
  8
0-1
  6
Continuous
 62
     2
370
    13
100
AcDbLine
 10
-379.7203486719142
 20
-154.3777259812523
 30
0.0
 11
-390.8303967082319
 21
-160.7920260234822
 31
0.0
  0
LINE
  5
23B
330
1F
100
AcDbEntity
  8
0-1
  6
Continuous
 62
     2
370
    13
100
AcDbLine
 10
-379.7203486719142
 20
-151.0442166907118
 30
0.0
 11
-379.7203486719142
 21
-154.3777259812523
 31
0.0
  0
LINE
  5
23C
330
1F
100
AcDbEntity
  8
0-1
  6
Continuous
 62
     2
370
    13
100
AcDbLine
 10
-354.9364461170155
 20
-166.9306781032962
 30
0.0
 11
-361.6625203357655
 21
-131.0443156666408
 31
0.0
  0
ARC
  5
23D
330
1F
100
AcDbEntity
  8
0-1
  6
Continuous
 62
     2
370
    13
100
AcDbCircle
 10
-348.3842396136374
 20
-165.7025517836173
 30
0.0
 40
6.666666752583272
100
AcDbArc
 50
190.6148834228516
 51
255.000503540039
  0
LINE
  5
23E
330
1F
100
AcDbEntity
  8
0-0
  6
Continuous
 62
     3
370
    13
100
AcDbLine
 10
-423.0930074482629
 20
-157.2320268152896
 30
0.0
 11
-451.2210134602378
 21
-157.2320268152896
 31
0.0
  0
LINE
  5
23F
330
1F
100
AcDbEntity
  8
0-1
  6
JWW_DASHED1
 62
     2
370
    13
100
AcDbLine
 10
-350.1093075771087
 20
-172.1417607679923
 30
0.0
 11
-422.4236929877333
 21
-152.7657529983428
 31
0.0
  0
LINE
  5
240
330
1F
100
AcDbEntity
  8
0-4
  6
Continuous
 62
     7
370
    13
100
AcDbLine
 10
467.615203708235
 20
-240.5655526018184
 30
0.0
 11
467.615203708235
 21
-157.2320268152896
 31
0.0
  0
LINE
  5
241
330
1F
100
AcDbEntity
  8
0-4
  6
Continuous
 62
     7
370
    13
100
AcDbLine
 10
467.615203708235
 20
-240.5655526018184
 30
0.0
 11
464.3519673273227
 21
-215.7793818485455
 31
0.0
  0
LINE
  5
242
330
1F
100
AcDbEntity
  8
0-4
  6
Continuous
 62
     7
370
    13
100
AcDbLine
 10
467.615203708235
 20
-240.5655526018184
 30
0.0
 11
470.8784400891472
 21
-215.7793818485455
 31
0.0
  0
LINE
  5
243
330
1F
100
AcDbEntity
  8
0-4
  6
Continuous
 62
     7
370
    13
100
AcDbLine
 10
467.615203708235
 20
-157.2320268152896
 30
0.0
 11
464.3519673273227
 21
-182.0181975685624
 31
0.0
  0
LINE
  5
244
330
1F
100
AcDbEntity
  8
0-4
  6
Continuous
 62
     7
370
    13
100
AcDbLine
 10
467.615203708235
 20
-157.2320268152896
 30
0.0
 11
470.8784400891472
 21
-182.0181975685624
 31
0.0
  0
LINE
  5
245
330
1F
100
AcDbEntity
  8
0-4
  6
Continuous
 62
     7
370
    13
100
AcDbLine
 10
547.615220204223
 20
-424.2319674297322
 30
0.0
 11
547.615220204223
 21
-157.2321505352009
 31
0.0
  0
LINE
  5
246
330
1F
100
AcDbEntity
  8
0-4
  6
Continuous
 62
     7
370
    13
100
AcDbLine
 10
547.615220204223
 20
-424.2319674297322
 30
0.0
 11
544.351983823311
 21
-399.4457966764594
 31
0.0
  0
LINE
  5
247
330
1F
100
AcDbEntity
  8
0-4
  6
Continuous
 62
     7
370
    13
100
AcDbLine
 10
547.615220204223
 20
-424.2319674297322
 30
0.0
 11
550.8784565851353
 21
-399.4457966764594
 31
0.0
  0
LINE
  5
248
330
1F
100
AcDbEntity
  8
0-4
  6
Continuous
 62
     7
370
    13
100
AcDbLine
 10
547.615220204223
 20
-157.2321505352009
 30
0.0
 11
544.351983823311
 21
-182.0183212884737
 31
0.0
  0
LINE
  5
249
330
1F
100
AcDbEntity
  8
0-4
  6
Continuous
 62
     7
370
    13
100
AcDbLine
 10
547.615220204223
 20
-157.2321505352009
 30
0.0
 11
550.8784565851353
 21
-182.0183212884737
 31
0.0
  0
LINE
  5
24A
330
1F
100
AcDbEntity
  8
0-4
  6
Continuous
 62
     7
370
    13
100
AcDbLine
 10
547.615220204223
 20
-157.2321505352009
 30
0.0
 11
547.615220204223
 21
68.95605549309309
 31
0.0
  0
LINE
  5
24B
330
1F
100
AcDbEntity
  8
0-4
  6
Continuous
 62
     7
370
    13
100
AcDbLine
 10
547.615220204223
 20
-157.2321505352009
 30
0.0
 11
544.351983823311
 21
-132.4459797819281
 31
0.0
  0
LINE
  5
24C
330
1F
100
AcDbEntity
  8
0-4
  6
Continuous
 62
     7
370
    13
100
AcDbLine
 10
547.615220204223
 20
-157.2321505352009
 30
0.0
 11
550.8784565851353
 21
-132.4459797819281
 31
0.0
  0
LINE
  5
24D
330
1F
100
AcDbEntity
  8
0-4
  6
Continuous
 62
     7
370
    13
100
AcDbLine
 10
547.615220204223
 20
68.95605549309309
 30
0.0
 11
544.351983823311
 21
44.16988473982016
 31
0.0
  0
LINE
  5
24E
330
1F
100
AcDbEntity
  8
0-4
  6
Continuous
 62
     7
370
    13
100
AcDbLine
 10
547.615220204223
 20
68.95605549309309
 30
0.0
 11
550.8784565851353
 21
44.16988473982016
 31
0.0
  0
TEXT
  5
24F
330
1F
100
AcDbEntity
  8
0-4
  6
Continuous
 62
     2
370
    13
100
AcDbText
 10
451.9751707162587
 20
-220.148789708554
 30
0.0
 40
30.48
  1
25
 50
90.0
 41
1.0625
  7
ＭＳ ゴシック
100
AcDbText
  0
TEXT
  5
250
330
1F
100
AcDbEntity
  8
0-4
  6
Continuous
 62
     2
370
    13
100
AcDbText
 10
531.9751872122467
 20
-65.38792380114266
 30
0.0
 40
30.48
  1
68
 50
90.0
 41
1.0625
  7
ＭＳ ゴシック
100
AcDbText
  0
TEXT
  5
251
330
1F
100
AcDbEntity
  8
0-4
  6
Continuous
 62
     2
370
    13
100
AcDbText
 10
531.9751872122467
 20
-329.5551980700404
 30
0.0
 40
30.48
  1
120
 50
90.0
 41
1.083333333333333
  7
ＭＳ ゴシック
100
AcDbText
  0
LINE
  5
252
330
1F
100
AcDbEntity
  8
0-4
  6
Continuous
 62
     7
370
    13
100
AcDbLine
 10
153.1335562584064
 20
68.95605549309309
 30
0.0
 11
550.8784565851353
 21
68.95605549309309
 31
0.0
  0
LINE
  5
253
330
1F
100
AcDbEntity
  8
0-4
  6
Continuous
 62
     7
370
    13
100
AcDbLine
 10
175.8366548648254
 20
-240.5655526018184
 30
0.0
 11
470.8784400891472
 21
-240.5655526018184
 31
0.0
  0
LINE
  5
254
330
1F
100
AcDbEntity
  8
0-4
  6
Continuous
 62
     7
370
    13
100
AcDbLine
 10
175.8366548648254
 20
-424.2319674297322
 30
0.0
 11
550.8784565851353
 21
-424.2319674297322
 31
0.0
  0
LINE
  5
255
330
1F
100
AcDbEntity
  8
0-4
  6
Continuous
 62
     7
370
    13
100
AcDbLine
 10
295.47925583172
 20
-157.2321505352009
 30
0.0
 11
550.8784565851353
 21
-157.2321505352009
 31
0.0
  0
LINE
  5
256
330
1F
100
AcDbEntity
  8
0-A
  6
Continuous
 62
     4
370
    13
100
AcDbLine
 10
-504.3175166406642
 20
883.6264039416255
 30
0.0
 11
-498.9899722994483
 21
877.0224000353755
 31
0.0
  0
LINE
  5
257
330
1F
100
AcDbEntity
  8
0-A
  6
Continuous
 62
     4
370
    13
100
AcDbLine
 10
-489.3213437099212
 20
874.432199972031
 30
0.0
 11
-481.7681606440427
 21
877.5842533926391
 31
0.0
  0
LINE
  5
258
330
1F
100
AcDbEntity
  8
0-A
  6
Continuous
 62
     4
370
    13
100
AcDbLine
 10
-481.7681606440427
 20
877.5842533926391
 30
0.0
 11
-504.3175166406642
 21
883.6264039416255
 31
0.0
  0
LINE
  5
259
330
1F
100
AcDbEntity
  8
0-A
  6
Continuous
 62
     4
370
    13
100
AcDbLine
 10
-498.9899722994483
 20
877.0224000353755
 30
0.0
 11
-489.3213437099212
 21
874.4318700522674
 31
0.0
  0
LINE
  5
25A
330
1F
100
AcDbEntity
  8
0-A
  6
Continuous
 62
     4
370
    13
100
AcDbLine
 10
-497.4155951879619
 20
909.3848894779433
 30
0.0
 11
-489.4995003822183
 21
912.4402764078418
 31
0.0
  0
LINE
  5
25B
330
1F
100
AcDbEntity
  8
0-A
  6
Continuous
 62
     4
370
    13
100
AcDbLine
 10
-479.8312017124548
 20
909.8490865852068
 30
0.0
 11
-474.86623919134
 21
903.3424090091933
 31
0.0
  0
LINE
  5
25C
330
1F
100
AcDbEntity
  8
0-A
  6
Continuous
 62
     4
370
    13
100
AcDbLine
 10
-474.86623919134
 20
903.3424090091933
 30
0.0
 11
-497.4155951879619
 21
909.3848894779433
 31
0.0
  0
LINE
  5
25D
330
1F
100
AcDbEntity
  8
0-A
  6
Continuous
 62
     4
370
    13
100
AcDbLine
 10
-489.4995003822183
 20
912.4402764078418
 30
0.0
 11
-479.8312017124548
 21
909.8494165049703
 31
0.0
  0
LINE
  5
25E
330
1F
100
AcDbEntity
  8
0-A
  6
Continuous
 62
     4
370
    13
100
AcDbLine
 10
-398.1932160705632
 20
1081.243393489768
 30
0.0
 11
-396.8811251710696
 21
1072.860462218653
 31
0.0
  0
LINE
  5
25F
330
1F
100
AcDbEntity
  8
0-A
  6
Continuous
 62
     4
370
    13
100
AcDbLine
 10
-389.8030265646509
 20
1065.782363612234
 30
0.0
 11
-381.6856807031642
 21
1064.736188042133
 31
0.0
  0
LINE
  5
260
330
1F
100
AcDbEntity
  8
0-A
  6
Continuous
 62
     4
370
    13
100
AcDbLine
 10
-381.6856807031642
 20
1064.736188042133
 30
0.0
 11
-398.1932160705632
 21
1081.243393489768
 31
0.0
  0
LINE
  5
261
330
1F
100
AcDbEntity
  8
0-A
  6
Continuous
 62
     4
370
    13
100
AcDbLine
 10
-396.8811251710696
 20
1072.860462218653
 30
0.0
 11
-389.8030265646509
 21
1065.782363612234
 31
0.0
  0
LINE
  5
262
330
1F
100
AcDbEntity
  8
0-A
  6
Continuous
 62
     4
370
    13
100
AcDbLine
 10
-379.3366519869482
 20
1100.099957573383
 30
0.0
 11
-370.9533907960696
 21
1098.787536754126
 31
0.0
  0
LINE
  5
263
330
1F
100
AcDbEntity
  8
0-A
  6
Continuous
 62
     4
370
    13
100
AcDbLine
 10
-363.8759520291777
 20
1091.710097987234
 30
0.0
 11
-362.8294465393132
 21
1083.592422205984
 31
0.0
  0
LINE
  5
264
330
1F
100
AcDbEntity
  8
0-A
  6
Continuous
 62
     4
370
    13
100
AcDbLine
 10
-362.8294465393132
 20
1083.592422205984
 30
0.0
 11
-379.3366519869482
 21
1100.099957573383
 31
0.0
  0
LINE
  5
265
330
1F
100
AcDbEntity
  8
0-A
  6
Continuous
 62
     4
370
    13
100
AcDbLine
 10
-370.9533907960696
 20
1098.787536754126
 30
0.0
 11
-363.8759520291777
 21
1091.710097987234
 31
0.0
  0
LINE
  5
266
330
1F
100
AcDbEntity
  8
0-A
  6
Continuous
 62
     4
370
    13
100
AcDbLine
 10
-207.4781479751239
 20
1199.322666610545
 30
0.0
 11
-210.533204985259
 21
1191.406571804801
 31
0.0
  0
LINE
  5
267
330
1F
100
AcDbEntity
  8
0-A
  6
Continuous
 62
     4
370
    13
100
AcDbLine
 10
-207.9423450823875
 20
1181.737943215275
 30
0.0
 11
-201.4359974261375
 21
1176.77298069416
 31
0.0
  0
LINE
  5
268
330
1F
100
AcDbEntity
  8
0-A
  6
Continuous
 62
     4
370
    13
100
AcDbLine
 10
-201.4359974261375
 20
1176.77298069416
 30
0.0
 11
-207.4781479751239
 21
1199.322666610545
 31
0.0
  0
LINE
  5
269
330
1F
100
AcDbEntity
  8
0-A
  6
Continuous
 62
     4
370
    13
100
AcDbLine
 10
-210.533204985259
 20
1191.406571804801
 30
0.0
 11
-207.942675002151
 21
1181.737943215275
 31
0.0
  0
LINE
  5
26A
330
1F
100
AcDbEntity
  8
0-A
  6
Continuous
 62
     4
370
    13
100
AcDbLine
 10
-181.7196624388062
 20
1206.224588063247
 30
0.0
 11
-175.1156585325562
 21
1200.896383882504
 31
0.0
  0
LINE
  5
26B
330
1F
100
AcDbEntity
  8
0-A
  6
Continuous
 62
     4
370
    13
100
AcDbLine
 10
-172.5251285494483
 20
1191.228415132504
 30
0.0
 11
-175.6778418095833
 21
1183.674902146862
 31
0.0
  0
LINE
  5
26C
330
1F
100
AcDbEntity
  8
0-A
  6
Continuous
 62
     4
370
    13
100
AcDbLine
 10
-175.6778418095833
 20
1183.674902146862
 30
0.0
 11
-181.7196624388062
 21
1206.224588063247
 31
0.0
  0
LINE
  5
26D
330
1F
100
AcDbEntity
  8
0-A
  6
Continuous
 62
     4
370
    13
100
AcDbLine
 10
-175.1156585325562
 20
1200.896383882504
 30
0.0
 11
-172.5251285494483
 21
1191.228415132504
 31
0.0
  0
LINE
  5
26E
330
1F
100
AcDbEntity
  8
0-A
  6
Continuous
 62
     4
370
    13
100
AcDbLine
 10
16.72542571575454
 20
1206.224588063247
 30
0.0
 11
10.12175172926808
 21
1200.896383882504
 31
0.0
  0
LINE
  5
26F
330
1F
100
AcDbEntity
  8
0-A
  6
Continuous
 62
     4
370
    13
100
AcDbLine
 10
7.531221746160099
 20
1191.228415132504
 30
0.0
 11
10.68360508653162
 21
1183.674902146862
 31
0.0
  0
LINE
  5
270
330
1F
100
AcDbEntity
  8
0-A
  6
Continuous
 62
     4
370
    13
100
AcDbLine
 10
10.68360508653162
 20
1183.674902146862
 30
0.0
 11
16.72542571575454
 21
1206.224588063247
 31
0.0
  0
LINE
  5
271
330
1F
100
AcDbEntity
  8
0-A
  6
Continuous
 62
     4
370
    13
100
AcDbLine
 10
10.12175172926808
 20
1200.896383882504
 30
0.0
 11
7.530891826396555
 21
1191.228415132504
 31
0.0
  0
LINE
  5
272
330
1F
100
AcDbEntity
  8
0-A
  6
Continuous
 62
     4
370
    13
100
AcDbLine
 10
42.48391125207226
 20
1199.322666610545
 30
0.0
 11
45.53929818197087
 21
1191.406571804801
 31
0.0
  0
LINE
  5
273
330
1F
100
AcDbEntity
  8
0-A
  6
Continuous
 62
     4
370
    13
100
AcDbLine
 10
42.94843827909935
 20
1181.737943215275
 30
0.0
 11
36.44176070308581
 21
1176.77298069416
 31
0.0
  0
LINE
  5
274
330
1F
100
AcDbEntity
  8
0-A
  6
Continuous
 62
     4
370
    13
100
AcDbLine
 10
36.44176070308581
 20
1176.77298069416
 30
0.0
 11
42.48391125207226
 21
1199.322666610545
 31
0.0
  0
LINE
  5
275
330
1F
100
AcDbEntity
  8
0-A
  6
Continuous
 62
     4
370
    13
100
AcDbLine
 10
45.53929818197087
 20
1191.406571804801
 30
0.0
 11
42.94876819886252
 21
1181.737943215275
 31
0.0
  0
LINE
  5
276
330
1F
100
AcDbEntity
  8
0-A
  6
Continuous
 62
     4
370
    13
100
AcDbLine
 10
214.3427451836601
 20
1100.099957573383
 30
0.0
 11
205.9594839927816
 21
1098.787536754126
 31
0.0
  0
LINE
  5
277
330
1F
100
AcDbEntity
  8
0-A
  6
Continuous
 62
     4
370
    13
100
AcDbLine
 10
198.8817153061261
 20
1091.710097987234
 30
0.0
 11
197.8352098162615
 21
1083.592752125747
 31
0.0
  0
LINE
  5
278
330
1F
100
AcDbEntity
  8
0-A
  6
Continuous
 62
     4
370
    13
100
AcDbLine
 10
197.8352098162615
 20
1083.592752125747
 30
0.0
 11
214.3427451836601
 21
1100.099957573383
 31
0.0
  0
LINE
  5
279
330
1F
100
AcDbEntity
  8
0-A
  6
Continuous
 62
     4
370
    13
100
AcDbLine
 10
205.9594839927816
 20
1098.787536754126
 30
0.0
 11
198.8817153061261
 21
1091.710097987234
 31
0.0
  0
LINE
  5
27A
330
1F
100
AcDbEntity
  8
0-A
  6
Continuous
 62
     4
370
    13
100
AcDbLine
 10
233.1989793475115
 20
1081.243393489768
 30
0.0
 11
231.8868884480181
 21
1072.860462218653
 31
0.0
  0
LINE
  5
27B
330
1F
100
AcDbEntity
  8
0-A
  6
Continuous
 62
     4
370
    13
100
AcDbLine
 10
224.8091197613625
 20
1065.782363612234
 30
0.0
 11
216.6914439801125
 21
1064.736188042133
 31
0.0
  0
LINE
  5
27C
330
1F
100
AcDbEntity
  8
0-A
  6
Continuous
 62
     4
370
    13
100
AcDbLine
 10
216.6914439801125
 20
1064.736188042133
 30
0.0
 11
233.1989793475115
 21
1081.243393489768
 31
0.0
  0
LINE
  5
27D
330
1F
100
AcDbEntity
  8
0-A
  6
Continuous
 62
     4
370
    13
100
AcDbLine
 10
231.8868884480181
 20
1072.860462218653
 30
0.0
 11
224.8091197613625
 21
1065.782363612234
 31
0.0
  0
LINE
  5
27E
330
1F
100
AcDbEntity
  8
0-A
  6
Continuous
 62
     4
370
    13
100
AcDbLine
 10
332.4216883846736
 20
909.3848894779433
 30
0.0
 11
324.5055935789303
 21
912.4402764078418
 31
0.0
  0
LINE
  5
27F
330
1F
100
AcDbEntity
  8
0-A
  6
Continuous
 62
     4
370
    13
100
AcDbLine
 10
314.8372949091667
 20
909.8490865852068
 30
0.0
 11
309.8720024682881
 21
903.3424090091933
 31
0.0
  0
LINE
  5
280
330
1F
100
AcDbEntity
  8
0-A
  6
Continuous
 62
     4
370
    13
100
AcDbLine
 10
309.8720024682881
 20
903.3424090091933
 30
0.0
 11
332.4216883846736
 21
909.3848894779433
 31
0.0
  0
LINE
  5
281
330
1F
100
AcDbEntity
  8
0-A
  6
Continuous
 62
     4
370
    13
100
AcDbLine
 10
324.5055935789303
 20
912.4402764078418
 30
0.0
 11
314.8372949091667
 21
909.8494165049703
 31
0.0
  0
LINE
  5
282
330
1F
100
AcDbEntity
  8
0-A
  6
Continuous
 62
     4
370
    13
100
AcDbLine
 10
339.3236098373761
 20
883.6264039416255
 30
0.0
 11
333.9957355763966
 21
877.0224000353755
 31
0.0
  0
LINE
  5
283
330
1F
100
AcDbEntity
  8
0-A
  6
Continuous
 62
     4
370
    13
100
AcDbLine
 10
324.327436906633
 20
874.432199972031
 30
0.0
 11
316.773923920991
 21
877.5842533926391
 31
0.0
  0
LINE
  5
284
330
1F
100
AcDbEntity
  8
0-A
  6
Continuous
 62
     4
370
    13
100
AcDbLine
 10
316.773923920991
 20
877.5842533926391
 30
0.0
 11
339.3236098373761
 21
883.6264039416255
 31
0.0
  0
LINE
  5
285
330
1F
100
AcDbEntity
  8
0-A
  6
Continuous
 62
     4
370
    13
100
AcDbLine
 10
333.9957355763966
 20
877.0224000353755
 30
0.0
 11
324.327436906633
 21
874.4318700522674
 31
0.0
  0
LINE
  5
286
330
1F
100
AcDbEntity
  8
0-A
  6
Continuous
 62
     4
370
    13
100
AcDbLine
 10
-369.1642359185361
 20
872.845285909531
 30
0.0
 11
-369.1632461592454
 21
802.7379960024361
 31
0.0
  0
LINE
  5
287
330
1F
100
AcDbEntity
  8
0-A
  6
Continuous
 62
     4
370
    13
100
AcDbLine
 10
-372.4974152893132
 20
873.3467639500716
 30
0.0
 11
-372.4970853695496
 21
826.0709114374026
 31
0.0
  0
LINE
  5
288
330
1F
100
AcDbEntity
  8
0-A
  6
Continuous
 62
     4
370
    13
100
AcDbLine
 10
-15.7555049219142
 20
1076.885483333518
 30
0.0
 11
44.95863939818719
 21
1041.831178540443
 31
0.0
  0
LINE
  5
289
330
1F
100
AcDbEntity
  8
0-A
  6
Continuous
 62
     4
370
    13
100
AcDbLine
 10
29.3049363787615
 20
1054.718174423045
 30
0.0
 11
43.73826619295036
 21
1046.384401196693
 31
0.0
  0
LINE
  5
28A
330
1F
100
AcDbEntity
  8
0-A
  6
Continuous
 62
     4
370
    13
100
AcDbLine
 10
-14.52457428424546
 20
1080.023350204295
 30
0.0
 11
26.41813844801808
 21
1056.384599148551
 31
0.0
  0
LINE
  5
28B
330
1F
100
AcDbEntity
  8
0-A
  6
Continuous
 62
     4
370
    13
100
AcDbLine
 10
139.5304695290993
 20
991.079951238923
 30
0.0
 11
98.58775679683578
 21
1014.717382615612
 31
0.0
  0
LINE
  5
28C
330
1F
100
AcDbEntity
  8
0-A
  6
Continuous
 62
     4
370
    13
100
AcDbLine
 10
-374.1635100950561
 20
824.4041567921324
 30
0.0
 11
-421.3723888957319
 21
824.4041567921324
 31
0.0
  0
LINE
  5
28D
330
1F
100
AcDbEntity
  8
0-A
  6
Continuous
 62
     4
370
    13
100
AcDbLine
 10
-374.1635100950561
 20
827.7376660826731
 30
0.0
 11
-421.3723888957319
 21
827.7376660826731
 31
0.0
  0
LINE
  5
28E
330
1F
100
AcDbEntity
  8
0-A
  6
Continuous
 62
     4
370
    13
100
AcDbLine
 10
-350.8018916406642
 20
981.176089858011
 30
0.0
 11
-355.7533274514753
 21
987.2423245497339
 31
0.0
  0
LINE
  5
28F
330
1F
100
AcDbEntity
  8
0-A
  6
Continuous
 62
     4
370
    13
100
AcDbLine
 10
-389.7654157116103
 20
927.1639356139231
 30
0.0
 11
-359.7651517757996
 21
979.1259684475375
 31
0.0
  0
LINE
  5
290
330
1F
100
AcDbEntity
  8
0-A
  6
Continuous
 62
     4
370
    13
100
AcDbLine
 10
-387.059083891509
 20
918.3761927929768
 30
0.0
 11
-394.7887740308669
 21
919.631537493146
 31
0.0
  0
LINE
  5
291
330
1F
100
AcDbEntity
  8
0-A
  6
Continuous
 62
     4
370
    13
100
AcDbLine
 10
-383.6381458636374
 20
920.0000578689903
 30
0.0
 11
-350.4973756989413
 21
977.4014778436526
 31
0.0
  0
LINE
  5
292
330
1F
100
AcDbEntity
  8
0-A
  6
Continuous
 62
     4
370
    13
100
AcDbLine
 10
190.7594206481872
 20
987.2423245497339
 30
0.0
 11
185.8076549176125
 21
981.1757599382474
 31
0.0
  0
LINE
  5
293
330
1F
100
AcDbEntity
  8
0-A
  6
Continuous
 62
     4
370
    13
100
AcDbLine
 10
224.7715089083222
 20
927.1639356139231
 30
0.0
 11
194.7712449725115
 21
979.125638527774
 31
0.0
  0
LINE
  5
294
330
1F
100
AcDbEntity
  8
0-A
  6
Continuous
 62
     4
370
    13
100
AcDbLine
 10
218.6442390603493
 20
919.9997279492268
 30
0.0
 11
185.5034688956532
 21
977.4014778436526
 31
0.0
  0
LINE
  5
295
330
1F
100
AcDbEntity
  8
0-A
  6
Continuous
 62
     4
370
    13
100
AcDbLine
 10
229.7948672275788
 20
919.631537493146
 30
0.0
 11
222.0655070079844
 21
918.3765227127403
 31
0.0
  0
LINE
  5
296
330
1F
100
AcDbEntity
  8
0-A
  6
Continuous
 62
     4
370
    13
100
AcDbLine
 10
-52.49701938559685
 20
1121.886539076761
 30
0.0
 11
-112.4972173374548
 21
1121.885879237234
 31
0.0
  0
LINE
  5
297
330
1F
100
AcDbEntity
  8
0-A
  6
Continuous
 62
     4
370
    13
100
AcDbLine
 10
-49.35618323694825
 20
1112.99784080818
 30
0.0
 11
-115.6380534861034
 21
1112.99784080818
 31
0.0
  0
LINE
  5
298
330
1F
100
AcDbEntity
  8
0-A
  6
Continuous
 62
     4
370
    13
100
AcDbLine
 10
-121.5320700612725
 20
1122.47049705818
 30
0.0
 11
-118.754475572252
 21
1115.148917666288
 31
0.0
  0
LINE
  5
299
330
1F
100
AcDbEntity
  8
0-A
  6
Continuous
 62
     4
370
    13
100
AcDbLine
 10
97.97740523433578
 20
1016.994158903619
 30
0.0
 11
117.713865327241
 21
1051.178465280309
 31
0.0
  0
LINE
  5
29A
330
1F
100
AcDbEntity
  8
0-A
  6
Continuous
 62
     4
370
    13
100
AcDbLine
 10
28.69491473602466
 20
1056.994620791288
 30
0.0
 11
48.43104490916669
 21
1091.178927167977
 31
0.0
  0
LINE
  5
29B
330
1F
100
AcDbEntity
  8
0-A
  6
Continuous
 62
     4
370
    13
100
AcDbLine
 10
25.80811680528162
 20
1058.661375436559
 30
0.0
 11
45.54424697842364
 21
1092.845681813247
 31
0.0
  0
LINE
  5
29C
330
1F
100
AcDbEntity
  8
0-A
  6
Continuous
 62
     4
370
    13
100
AcDbLine
 10
246.8150979074774
 20
924.4948847270987
 30
0.0
 11
282.4866825780858
 21
945.0901259644297
 31
0.0
  0
LINE
  5
29D
330
1F
100
AcDbEntity
  8
0-A
  6
Continuous
 62
     4
370
    13
100
AcDbLine
 10
229.3250614843358
 20
925.9438923284497
 30
0.0
 11
277.4867485620381
 21
953.7505197566595
 31
0.0
  0
LINE
  5
29E
330
1F
100
AcDbEntity
  8
0-A
  6
Continuous
 62
     4
370
    13
100
AcDbLine
 10
195.9912882579844
 20
983.679521023551
 30
0.0
 11
244.1533052554503
 21
1011.485488612234
 31
0.0
  0
LINE
  5
29F
330
1F
100
AcDbEntity
  8
0-A
  6
Continuous
 62
     4
370
    13
100
AcDbLine
 10
203.4817865687951
 20
999.5509710868959
 30
0.0
 11
239.1530413196396
 21
1020.145882404463
 31
0.0
  0
LINE
  5
2A0
330
1F
100
AcDbEntity
  8
0-A
  6
Continuous
 62
     4
370
    13
100
AcDbLine
 10
-43.46183674201558
 20
1122.470167138416
 30
0.0
 11
-46.23976115079964
 21
1115.148917666288
 31
0.0
  0
LINE
  5
2A1
330
1F
100
AcDbEntity
  8
0-A
  6
Continuous
 62
     4
370
    13
100
AcDbLine
 10
-39.1636420629618
 20
1139.642160909531
 30
0.0
 11
-39.1636420629618
 21
1180.831983544666
 31
0.0
  0
LINE
  5
2A2
330
1F
100
AcDbEntity
  8
0-A
  6
Continuous
 62
     4
370
    13
100
AcDbLine
 10
-49.16351009505622
 20
1125.219718447538
 30
0.0
 11
-49.16351009505622
 21
1180.831983544666
 31
0.0
  0
LINE
  5
2A3
330
1F
100
AcDbEntity
  8
0-A
  6
Continuous
 62
     4
370
    13
100
AcDbLine
 10
-115.8303967082319
 20
1125.219718447538
 30
0.0
 11
-115.8303967082319
 21
1180.831983544666
 31
0.0
  0
LINE
  5
2A4
330
1F
100
AcDbEntity
  8
0-A
  6
Continuous
 62
     4
370
    13
100
AcDbLine
 10
-125.8302647403264
 20
1139.642160909531
 30
0.0
 11
-125.8305946600899
 21
1180.831983544666
 31
0.0
  0
LINE
  5
2A5
330
1F
100
AcDbEntity
  8
0-A
  6
Continuous
 62
     4
370
    13
100
AcDbLine
 10
-368.4756933720832
 20
999.5509710868959
 30
0.0
 11
-404.1472780426913
 21
1020.145882404463
 31
0.0
  0
LINE
  5
2A6
330
1F
100
AcDbEntity
  8
0-A
  6
Continuous
 62
     4
370
    13
100
AcDbLine
 10
-360.9851950612725
 20
983.679521023551
 30
0.0
 11
-409.1475419785021
 21
1011.485488612234
 31
0.0
  0
LINE
  5
2A7
330
1F
100
AcDbEntity
  8
0-A
  6
Continuous
 62
     4
370
    13
100
AcDbLine
 10
-394.3189682876238
 20
925.9438923284497
 30
0.0
 11
-442.8851369953941
 21
953.9837730294632
 31
0.0
  0
LINE
  5
2A8
330
1F
100
AcDbEntity
  8
0-A
  6
Continuous
 62
     4
370
    13
100
AcDbLine
 10
-411.8093346305292
 20
924.4948847270987
 30
0.0
 11
-447.4809193011375
 21
945.0901259644297
 31
0.0
  0
LINE
  5
2A9
330
1F
100
AcDbEntity
  8
0-A
  6
Continuous
 62
     4
370
    13
100
AcDbLine
 10
-370.8300008045155
 20
801.0709114374026
 30
0.0
 11
-375.4528365308669
 21
801.0709114374026
 31
0.0
  0
LINE
  5
2AA
330
1F
100
AcDbEntity
  8
0-A
  6
Continuous
 62
     4
370
    13
100
AcDbLine
 10
-374.1635100950561
 20
804.4044207279433
 30
0.0
 11
-377.3772585114413
 21
804.4047506477068
 31
0.0
  0
LINE
  5
2AB
330
1F
100
AcDbEntity
  8
0-A
  6
Continuous
 62
     4
370
    13
100
AcDbLine
 10
80.65727748940316
 20
1026.994026935713
 30
0.0
 11
82.26431665747742
 21
1029.777230060713
 31
0.0
  0
LINE
  5
2AC
330
1F
100
AcDbEntity
  8
0-A
  6
Continuous
 62
     4
370
    13
100
AcDbLine
 10
76.10372491338961
 20
1025.773983650241
 30
0.0
 11
78.41481285680175
 21
1029.777230060713
 31
0.0
  0
LINE
  5
2AD
330
1F
100
AcDbEntity
  8
0-A
  6
Continuous
 62
     4
370
    13
100
AcDbLine
 10
47.23541568619378
 20
1042.44120018318
 30
0.0
 11
49.54683354936947
 21
1046.444446593653
 31
0.0
  0
LINE
  5
2AE
330
1F
100
AcDbEntity
  8
0-A
  6
Continuous
 62
     4
370
    13
100
AcDbLine
 10
46.01504248095733
 20
1046.994752759193
 30
0.0
 11
47.62208164903163
 21
1049.777955884193
 31
0.0
  0
LINE
  5
2AF
330
1F
100
AcDbEntity
  8
0-A
  6
Continuous
 62
     4
370
    13
100
AcDbLine
 10
100.8645330848424
 20
1015.327734178112
 30
0.0
 11
120.6006632579844
 21
1049.512040554801
 31
0.0
  0
LINE
  5
2B0
330
1F
100
AcDbEntity
  8
0-A
  6
Continuous
 62
     2
370
    13
100
AcDbLine
 10
-415.8303967082319
 20
784.4043547439903
 30
0.0
 11
-403.3211589548535
 21
806.0711753732132
 31
0.0
  0
LINE
  5
2B1
330
1F
100
AcDbEntity
  8
0-A
  6
Continuous
 62
     2
370
    13
100
AcDbLine
 10
-365.8303967082319
 20
784.4046846637539
 30
0.0
 11
-378.3396344616103
 21
806.0711753732132
 31
0.0
  0
LINE
  5
2B2
330
1F
100
AcDbEntity
  8
0-A
  6
Continuous
 62
     2
370
    13
100
AcDbLine
 10
-403.3211589548535
 20
806.0711753732132
 30
0.0
 11
-378.3396344616103
 21
806.0711753732132
 31
0.0
  0
LINE
  5
2B3
330
1F
100
AcDbEntity
  8
0-A
  6
Continuous
 62
     2
370
    13
100
AcDbLine
 10
84.17026313129514
 20
1073.078539182336
 30
0.0
 11
96.67950088467364
 21
1051.412048472876
 31
0.0
  0
LINE
  5
2B4
330
1F
100
AcDbEntity
  8
0-A
  6
Continuous
 62
     2
370
    13
100
AcDbLine
 10
59.17026313129517
 20
1029.777230060713
 30
0.0
 11
84.18873863805175
 21
1029.777230060713
 31
0.0
  0
LINE
  5
2B5
330
1F
100
AcDbEntity
  8
0-A
  6
Continuous
 62
     2
370
    13
100
AcDbLine
 10
96.67950088467364
 20
1051.412048472876
 30
0.0
 11
84.18873863805175
 21
1029.777230060713
 31
0.0
  0
LINE
  5
2B6
330
1F
100
AcDbEntity
  8
0-A
  6
Continuous
 62
     2
370
    13
100
AcDbLine
 10
84.16894345224097
 20
1073.079199021862
 30
0.0
 11
59.15046794548442
 21
1073.079528941626
 31
0.0
  0
LINE
  5
2B7
330
1F
100
AcDbEntity
  8
0-A
  6
Continuous
 62
     2
370
    13
100
AcDbLine
 10
59.168943452241
 20
1029.778219820004
 30
0.0
 11
46.65970569886252
 21
1051.444710529463
 31
0.0
  0
LINE
  5
2B8
330
1F
100
AcDbEntity
  8
0-A
  6
Continuous
 62
     2
370
    13
100
AcDbLine
 10
59.15046794548442
 20
1073.079528941626
 30
0.0
 11
46.65970569886252
 21
1051.444710529463
 31
0.0
  0
LINE
  5
2B9
330
1F
100
AcDbEntity
  8
0-A
  6
Continuous
 62
     2
370
    13
100
AcDbLine
 10
63.01778741338961
 20
1044.508807341119
 30
0.0
 11
81.98784389565316
 21
1055.461153730477
 31
0.0
  0
LINE
  5
2BA
330
1F
100
AcDbEntity
  8
0-A
  6
Continuous
 62
     2
370
    13
100
AcDbLine
 10
61.35103276811947
 20
1047.395275352099
 30
0.0
 11
80.32108925038301
 21
1058.34795166122
 31
0.0
  0
LINE
  5
2BB
330
1F
100
AcDbEntity
  8
0-A
  6
JWW_CENTER1
 62
     2
370
    13
100
AcDbLine
 10
92.38427548349097
 20
1039.468623113923
 30
0.0
 11
50.95493110004517
 21
1063.387805968653
 31
0.0
  0
LINE
  5
2BC
330
1F
100
AcDbEntity
  8
0-A
  6
Continuous
 62
     2
370
    13
100
AcDbLine
 10
-387.4968874176913
 20
784.4036949044632
 30
0.0
 11
-399.4818826668467
 21
791.323432024396
 31
0.0
  0
LINE
  5
2BD
330
1F
100
AcDbEntity
  8
0-A
  6
Continuous
 62
     2
370
    13
100
AcDbLine
 10
-394.163576079009
 20
784.4036949044632
 30
0.0
 11
-401.1483073923534
 21
788.4366340936526
 31
0.0
  0
LINE
  5
2BE
330
1F
100
AcDbEntity
  8
0-A
  6
Continuous
 62
     4
370
    13
100
AcDbLine
 10
137.428220795991
 20
988.4452120075039
 30
0.0
 11
76.71374655612607
 21
1023.497207362234
 31
0.0
  0
LINE
  5
2BF
330
1F
100
AcDbEntity
  8
0-A
  6
Continuous
 62
     4
370
    13
100
AcDbLine
 10
95.70095886609238
 20
1016.384137260882
 30
0.0
 11
81.26729913213961
 21
1024.717250647707
 31
0.0
  0
LINE
  5
2C0
330
1F
100
AcDbEntity
  8
0-A
  6
Continuous
 62
     4
370
    13
100
AcDbLine
 10
-372.4967554497861
 20
822.7377320666255
 30
0.0
 11
-372.4967554497861
 21
806.0711753732132
 31
0.0
  0
LINE
  5
2C1
330
1F
100
AcDbEntity
  8
0-A
  6
JWW_CENTER1
 62
     2
370
    13
100
AcDbLine
 10
55.44876819886252
 20
1023.331257721187
 30
0.0
 11
88.32230335511252
 21
1080.270460107166
 31
0.0
  0
LINE
  5
2C2
330
1F
100
AcDbEntity
  8
0-A
  6
JWW_CENTER1
 62
     2
370
    13
100
AcDbLine
 10
-390.8303967082319
 20
784.4036949044632
 30
0.0
 11
-390.8303967082319
 21
814.131445115612
 31
0.0
  0
ARC
  5
2C3
330
1F
100
AcDbEntity
  8
0-A
  6
Continuous
 62
     4
370
    13
100
AcDbCircle
 10
200.1482772782545
 20
1005.324566948382
 30
0.0
 40
6.666666752583272
100
AcDbArc
 50
218.0118713378907
 51
300.0
  0
ARC
  5
2C4
330
1F
100
AcDbEntity
  8
0-A
  6
Continuous
 62
     4
370
    13
100
AcDbCircle
 10
185.5948566701466
 20
991.458369207673
 30
0.0
 40
6.666666752583272
100
AcDbArc
 50
320.7768249511719
 51
37.6792449951172
  0
ARC
  5
2C5
330
1F
100
AcDbEntity
  8
0-A
  6
Continuous
 62
     4
370
    13
100
AcDbCircle
 10
-132.4972833214076
 20
1139.642160909531
 30
0.0
 40
6.666666752583272
100
AcDbArc
 50
278.0118713378906
 51
0.0
  0
ARC
  5
2C6
330
1F
100
AcDbEntity
  8
0-A
  6
Continuous
 62
     4
370
    13
100
AcDbCircle
 10
-127.7652441533333
 20
1120.105302273551
 30
0.0
 40
6.666666752583272
100
AcDbArc
 50
20.77682495117189
 51
97.67924499511722
  0
ARC
  5
2C7
330
1F
100
AcDbEntity
  8
0-A
  6
Continuous
 62
     4
370
    13
100
AcDbCircle
 10
-32.49662348188053
 20
1139.642160909531
 30
0.0
 40
6.666666752583272
100
AcDbArc
 50
180.0
 51
261.9881286621094
  0
ARC
  5
2C8
330
1F
100
AcDbEntity
  8
0-A
  6
Continuous
 62
     4
370
    13
100
AcDbCircle
 10
-37.22866264995483
 20
1120.105302273551
 30
0.0
 40
6.666666752583272
100
AcDbArc
 50
82.32075500488281
 51
159.2231750488281
  0
ARC
  5
2C9
330
1F
100
AcDbEntity
  8
0-A
  6
Continuous
 62
     4
370
    13
100
AcDbCircle
 10
-415.1425140013063
 20
918.721288865612
 30
0.0
 40
6.666666752583272
100
AcDbArc
 50
338.0118713378906
 51
60.00000000000001
  0
ARC
  5
2CA
330
1F
100
AcDbEntity
  8
0-A
  6
Continuous
 62
     4
370
    13
100
AcDbCircle
 10
-395.8570542251238
 20
913.0509578901053
 30
0.0
 40
6.666666752583272
100
AcDbArc
 50
80.77682495117188
 51
157.6792449951172
  0
ARC
  5
2CB
330
1F
100
AcDbEntity
  8
0-A
  6
Continuous
 62
     4
370
    13
100
AcDbCircle
 10
-365.1421840815426
 20
1005.324566948382
 30
0.0
 40
6.666666752583272
100
AcDbArc
 50
240.0
 51
321.9881286621094
  0
ARC
  5
2CC
330
1F
100
AcDbEntity
  8
0-A
  6
Continuous
 62
     4
370
    13
100
AcDbCircle
 10
-350.5887634734347
 20
991.4580392879094
 30
0.0
 40
6.666666752583272
100
AcDbArc
 50
142.3207550048828
 51
219.2231750488282
  0
ARC
  5
2CD
330
1F
100
AcDbEntity
  8
0-A
  6
Continuous
 62
     4
370
    13
100
AcDbCircle
 10
-374.1635100950561
 20
822.7377320666255
 30
0.0
 40
1.666666688145818
100
AcDbArc
 50
0.0
 51
90.0
  0
ARC
  5
2CE
330
1F
100
AcDbEntity
  8
0-A
  6
Continuous
 62
     4
370
    13
100
AcDbCircle
 10
-82.49695340164408
 20
784.4036949044632
 30
0.0
 40
426.6666721653294
100
AcDbArc
 50
167.4627075195312
 51
180.0
  0
ARC
  5
2CF
330
1F
100
AcDbEntity
  8
0-A
  6
Continuous
 62
     4
370
    13
100
AcDbCircle
 10
-82.49695340164408
 20
784.4036949044632
 30
0.0
 40
416.666639173353
100
AcDbArc
 50
167.5218505859375
 51
180.0
  0
ARC
  5
2D0
330
1F
100
AcDbEntity
  8
0-A
  6
Continuous
 62
     4
370
    13
100
AcDbCircle
 10
-82.49695340164408
 20
784.4036949044632
 30
0.0
 40
416.666639173353
100
AcDbArc
 50
0.0
 51
12.4781494140625
  0
ARC
  5
2D1
330
1F
100
AcDbEntity
  8
0-A
  6
Continuous
 62
     4
370
    13
100
AcDbCircle
 10
-82.49695340164408
 20
784.4036949044632
 30
0.0
 40
426.6666721653294
100
AcDbArc
 50
0.0
 51
12.53729248046875
  0
ARC
  5
2D2
330
1F
100
AcDbEntity
  8
0-A
  6
Continuous
 62
     4
370
    13
100
AcDbCircle
 10
-82.49695340164408
 20
784.4036949044632
 30
0.0
 40
416.666639173353
100
AcDbArc
 50
17.52182006835938
 51
42.47814941406251
  0
ARC
  5
2D3
330
1F
100
AcDbEntity
  8
0-A
  6
Continuous
 62
     4
370
    13
100
AcDbCircle
 10
-82.49695340164408
 20
784.4036949044632
 30
0.0
 40
426.6666721653294
100
AcDbArc
 50
17.46270751953124
 51
42.53729248046874
  0
ARC
  5
2D4
330
1F
100
AcDbEntity
  8
0-A
  6
Continuous
 62
     4
370
    13
100
AcDbCircle
 10
-82.49695340164408
 20
784.4036949044632
 30
0.0
 40
426.6666721653294
100
AcDbArc
 50
137.4627075195312
 51
162.5372924804688
  0
ARC
  5
2D5
330
1F
100
AcDbEntity
  8
0-A
  6
Continuous
 62
     4
370
    13
100
AcDbCircle
 10
-82.49695340164408
 20
784.4036949044632
 30
0.0
 40
416.666639173353
100
AcDbArc
 50
137.5218505859375
 51
162.4781494140625
  0
ARC
  5
2D6
330
1F
100
AcDbEntity
  8
0-A
  6
Continuous
 62
     4
370
    13
100
AcDbCircle
 10
-82.49695340164408
 20
784.4036949044632
 30
0.0
 40
409.9999505120355
100
AcDbArc
 50
106.8636322021484
 51
133.1363830566406
  0
ARC
  5
2D7
330
1F
100
AcDbEntity
  8
0-A
  6
Continuous
 62
     4
370
    13
100
AcDbCircle
 10
-82.49695340164408
 20
784.4036949044632
 30
0.0
 40
426.6666721653294
100
AcDbArc
 50
107.4627075195312
 51
132.5372924804687
  0
ARC
  5
2D8
330
1F
100
AcDbEntity
  8
0-A
  6
Continuous
 62
     4
370
    13
100
AcDbCircle
 10
-82.49695340164408
 20
784.4036949044632
 30
0.0
 40
416.666639173353
100
AcDbArc
 50
107.5218505859375
 51
132.4781494140625
  0
ARC
  5
2D9
330
1F
100
AcDbEntity
  8
0-A
  6
Continuous
 62
     4
370
    13
100
AcDbCircle
 10
-82.49695340164408
 20
784.4036949044632
 30
0.0
 40
426.6666721653294
100
AcDbArc
 50
77.46270751953125
 51
102.5373077392578
  0
ARC
  5
2DA
330
1F
100
AcDbEntity
  8
0-A
  6
Continuous
 62
     4
370
    13
100
AcDbCircle
 10
-82.49695340164408
 20
784.4036949044632
 30
0.0
 40
416.666639173353
100
AcDbArc
 50
77.52185058593753
 51
102.4781646728516
  0
ARC
  5
2DB
330
1F
100
AcDbEntity
  8
0-A
  6
Continuous
 62
     4
370
    13
100
AcDbCircle
 10
-82.49695340164408
 20
784.4036949044632
 30
0.0
 40
426.6666721653294
100
AcDbArc
 50
47.46270751953126
 51
72.53729248046876
  0
ARC
  5
2DC
330
1F
100
AcDbEntity
  8
0-A
  6
Continuous
 62
     4
370
    13
100
AcDbCircle
 10
-82.49695340164408
 20
784.4036949044632
 30
0.0
 40
416.666639173353
100
AcDbArc
 50
47.52185058593751
 51
72.47814941406251
  0
ARC
  5
2DD
330
1F
100
AcDbEntity
  8
0-A
  6
Continuous
 62
     4
370
    13
100
AcDbCircle
 10
-82.49695340164408
 20
784.4036949044632
 30
0.0
 40
409.9999505120355
100
AcDbArc
 50
0.0
 51
13.13636779785156
  0
ARC
  5
2DE
330
1F
100
AcDbEntity
  8
0-A
  6
Continuous
 62
     4
370
    13
100
AcDbCircle
 10
250.1486071980181
 20
918.7216187853755
 30
0.0
 40
6.666666752583272
100
AcDbArc
 50
119.9999847412109
 51
201.9881134033203
  0
ARC
  5
2DF
330
1F
100
AcDbEntity
  8
0-A
  6
Continuous
 62
     4
370
    13
100
AcDbCircle
 10
230.8631474218358
 20
913.0509578901053
 30
0.0
 40
6.666666752583272
100
AcDbArc
 50
22.32073974609376
 51
99.22315979003908
  0
ARC
  5
2E0
330
1F
100
AcDbEntity
  8
0-A
  6
Continuous
 62
     4
370
    13
100
AcDbCircle
 10
-82.49695340164408
 20
784.4036949044632
 30
0.0
 40
352.0733395138302
100
AcDbArc
 50
0.0
 51
21.98817443847656
  0
ARC
  5
2E1
330
1F
100
AcDbEntity
  8
0-A
  6
Continuous
 62
     4
370
    13
100
AcDbCircle
 10
-82.49695340164408
 20
784.4036949044632
 30
0.0
 40
345.4066714724979
100
AcDbArc
 50
0.0
 51
22.32017517089844
  0
ARC
  5
2E2
330
1F
100
AcDbEntity
  8
0-A
  6
Continuous
 62
     4
370
    13
100
AcDbCircle
 10
-82.49695340164408
 20
784.4036949044632
 30
0.0
 40
352.0733395138302
100
AcDbArc
 50
98.01181030273438
 51
141.9881744384766
  0
ARC
  5
2E3
330
1F
100
AcDbEntity
  8
0-A
  6
Continuous
 62
     4
370
    13
100
AcDbCircle
 10
-82.49695340164408
 20
784.4036949044632
 30
0.0
 40
345.4066714724979
100
AcDbArc
 50
97.46566772460943
 51
142.3201751708985
  0
ARC
  5
2E4
330
1F
100
AcDbEntity
  8
0-A
  6
Continuous
 62
     4
370
    13
100
AcDbCircle
 10
-82.49695340164408
 20
784.4036949044632
 30
0.0
 40
409.9999505120355
100
AcDbArc
 50
166.8636322021484
 51
180.0
  0
ARC
  5
2E5
330
1F
100
AcDbEntity
  8
0-A
  6
Continuous
 62
     4
370
    13
100
AcDbCircle
 10
-82.49695340164408
 20
784.4036949044632
 30
0.0
 40
352.0733395138302
100
AcDbArc
 50
158.0118408203125
 51
180.0
  0
ARC
  5
2E6
330
1F
100
AcDbEntity
  8
0-A
  6
Continuous
 62
     4
370
    13
100
AcDbCircle
 10
-82.49695340164408
 20
784.4036949044632
 30
0.0
 40
352.0733395138302
100
AcDbArc
 50
38.01182556152344
 51
81.98817443847656
  0
ARC
  5
2E7
330
1F
100
AcDbEntity
  8
0-A
  6
Continuous
 62
     4
370
    13
100
AcDbCircle
 10
-82.49695340164408
 20
784.4036949044632
 30
0.0
 40
409.9999505120355
100
AcDbArc
 50
46.86363220214844
 51
73.13638305664062
  0
ARC
  5
2E8
330
1F
100
AcDbEntity
  8
0-A
  6
Continuous
 62
     4
370
    13
100
AcDbCircle
 10
82.10034653501151
 20
1026.160649613078
 30
0.0
 40
1.666666688145818
100
AcDbArc
 50
150.0
 51
240.0056762695312
  0
ARC
  5
2E9
330
1F
100
AcDbEntity
  8
0-A
  6
Continuous
 62
     4
370
    13
100
AcDbCircle
 10
96.53433618872742
 20
1017.827536226254
 30
0.0
 40
1.666666688145818
100
AcDbArc
 50
239.9995422363281
 51
330.0
  0
ARC
  5
2EA
330
1F
100
AcDbEntity
  8
0-A
  6
Continuous
 62
     4
370
    13
100
AcDbCircle
 10
77.54679395899797
 20
1024.940606327606
 30
0.0
 40
1.666666688145818
100
AcDbArc
 50
150.0
 51
240.0056762695312
  0
ARC
  5
2EB
330
1F
100
AcDbEntity
  8
0-A
  6
Continuous
 62
     4
370
    13
100
AcDbCircle
 10
44.57164351558581
 20
1047.828130081828
 30
0.0
 40
1.666666688145818
100
AcDbArc
 50
239.9943237304688
 51
330.0000000000001
  0
ARC
  5
2EC
330
1F
100
AcDbEntity
  8
0-A
  6
Continuous
 62
     4
370
    13
100
AcDbCircle
 10
30.13831370139656
 20
1056.161243468653
 30
0.0
 40
1.666666688145818
100
AcDbArc
 50
150.0
 51
240.0
  0
ARC
  5
2ED
330
1F
100
AcDbEntity
  8
0-A
  6
Continuous
 62
     4
370
    13
100
AcDbCircle
 10
45.79201672082226
 20
1043.274247586051
 30
0.0
 40
1.666666688145818
100
AcDbArc
 50
239.9943237304688
 51
330.0000000000001
  0
ARC
  5
2EE
330
1F
100
AcDbEntity
  8
0-A
  6
Continuous
 62
     4
370
    13
100
AcDbCircle
 10
-374.1635100950561
 20
806.0711753732132
 30
0.0
 40
1.666666688145818
100
AcDbArc
 50
270.0
 51
0.0056762695312475
  0
ARC
  5
2EF
330
1F
100
AcDbEntity
  8
0-A
  6
Continuous
 62
     4
370
    13
100
AcDbCircle
 10
-370.8300008045155
 20
802.7376660826731
 30
0.0
 40
1.666666688145818
100
AcDbArc
 50
270.0
 51
0.0056762695312475
  0
ARC
  5
2F0
330
1F
100
AcDbEntity
  8
0-A
  6
Continuous
 62
     4
370
    13
100
AcDbCircle
 10
-374.1635100950561
 20
826.0709114374026
 30
0.0
 40
1.666666688145818
100
AcDbArc
 50
0.0
 51
90.0
  0
ARC
  5
2F1
330
1F
100
AcDbEntity
  8
0-A
  6
Continuous
 62
     4
370
    13
100
AcDbCircle
 10
-82.49695340164408
 20
784.4036949044632
 30
0.0
 40
299.9999793800147
100
AcDbArc
 50
77.14573669433595
 51
162.8541717529297
  0
ARC
  5
2F2
330
1F
100
AcDbEntity
  8
0-A
  6
Continuous
 62
     4
370
    13
100
AcDbCircle
 10
-82.49695340164408
 20
784.4036949044632
 30
0.0
 40
303.3333030906883
100
AcDbArc
 50
77.05093383789064
 51
162.9492340087891
  0
ARC
  5
2F3
330
1F
100
AcDbEntity
  8
0-A
  6
Continuous
 62
     4
370
    13
100
AcDbCircle
 10
27.25151577065315
 20
1057.827998113923
 30
0.0
 40
1.666666688145818
100
AcDbArc
 50
150.0003204345703
 51
239.9994506835938
  0
ARC
  5
2F4
330
1F
100
AcDbEntity
  8
0-A
  6
Continuous
 62
     4
370
    13
100
AcDbCircle
 10
99.42113411947088
 20
1016.161111500747
 30
0.0
 40
1.666666688145818
100
AcDbArc
 50
240.0000915527343
 51
329.9992218017578
  0
ARC
  5
2F5
330
1F
100
AcDbEntity
  8
0-A
  6
Continuous
 62
     4
370
    13
100
AcDbCircle
 10
-82.49695340164408
 20
784.4036949044632
 30
0.0
 40
303.3333030906883
100
AcDbArc
 50
0.0
 51
42.94917297363281
  0
ARC
  5
2F6
330
1F
100
AcDbEntity
  8
0-A
  6
Continuous
 62
     4
370
    13
100
AcDbCircle
 10
-421.3723888957319
 20
831.0708454534497
 30
0.0
 40
3.333333376291636
100
AcDbArc
 50
172.1590881347656
 51
269.9998931884766
  0
ARC
  5
2F7
330
1F
100
AcDbEntity
  8
0-A
  6
Continuous
 62
     4
370
    13
100
AcDbCircle
 10
-421.3723888957319
 20
831.0708454534497
 30
0.0
 40
6.666666752583272
100
AcDbArc
 50
220.7394256591797
 51
269.9998931884766
  0
ARC
  5
2F8
330
1F
100
AcDbEntity
  8
0-A
  6
Continuous
 62
     4
370
    13
100
AcDbCircle
 10
-82.49695340164408
 20
784.4043547439903
 30
0.0
 40
346.5200063344594
100
AcDbArc
 50
172.9857025146484
 51
180.0000915527344
  0
ARC
  5
2F9
330
1F
100
AcDbEntity
  8
0-A
  6
Continuous
 62
     4
370
    13
100
AcDbCircle
 10
-82.49695340164408
 20
784.4036949044632
 30
0.0
 40
345.4066714724979
100
AcDbArc
 50
157.6798248291016
 51
172.1590118408203
  0
ARC
  5
2FA
330
1F
100
AcDbEntity
  8
0-A
  6
Continuous
 62
     4
370
    13
100
AcDbCircle
 10
-362.6519497065426
 20
980.792723092808
 30
0.0
 40
3.333333376291636
100
AcDbArc
 50
330.0003204345703
 51
60.00032043457032
  0
ARC
  5
2FB
330
1F
100
AcDbEntity
  8
0-A
  6
Continuous
 62
     4
370
    13
100
AcDbCircle
 10
-353.3838437099211
 20
979.068232488923
 30
0.0
 40
3.333333376291636
100
AcDbArc
 50
330.0003204345703
 51
39.22409057617189
  0
ARC
  5
2FC
330
1F
100
AcDbEntity
  8
0-A
  6
Continuous
 62
     4
370
    13
100
AcDbCircle
 10
-392.6522136423534
 20
928.8306902591933
 30
0.0
 40
3.333333376291636
100
AcDbArc
 50
240.0008239746094
 51
330.0003204345703
  0
ARC
  5
2FD
330
1F
100
AcDbEntity
  8
0-A
  6
Continuous
 62
     4
370
    13
100
AcDbCircle
 10
-386.5249437943805
 20
921.6664825944974
 30
0.0
 40
3.333333376291636
100
AcDbArc
 50
260.7769927978516
 51
330.0008239746094
  0
ARC
  5
2FE
330
1F
100
AcDbEntity
  8
0-A
  6
Continuous
 62
     4
370
    13
100
AcDbCircle
 10
227.6583068390653
 20
928.8306902591933
 30
0.0
 40
3.333333376291636
100
AcDbArc
 50
210.0003204345703
 51
300.0003204345703
  0
ARC
  5
2FF
330
1F
100
AcDbEntity
  8
0-A
  6
Continuous
 62
     4
370
    13
100
AcDbCircle
 10
221.5310369910924
 20
921.6664825944974
 30
0.0
 40
3.333333376291636
100
AcDbArc
 50
210.0003204345703
 51
279.2240905761719
  0
ARC
  5
300
330
1F
100
AcDbEntity
  8
0-A
  6
Continuous
 62
     4
370
    13
100
AcDbCircle
 10
197.6580429032545
 20
980.7923931730445
 30
0.0
 40
3.333333376291636
100
AcDbArc
 50
120.0008239746094
 51
210.0003204345703
  0
ARC
  5
301
330
1F
100
AcDbEntity
  8
0-A
  6
Continuous
 62
     4
370
    13
100
AcDbCircle
 10
188.389936906633
 20
979.0679025691594
 30
0.0
 40
3.333333376291636
100
AcDbArc
 50
140.7769927978516
 51
210.0008239746094
  0
ARC
  5
302
330
1F
100
AcDbEntity
  8
0-A
  6
Continuous
 62
     4
370
    13
100
AcDbCircle
 10
-52.49701938559685
 20
1125.219718447538
 30
0.0
 40
3.333333376291636
100
AcDbArc
 50
270.0003204345703
 51
0.0003204345703111
  0
ARC
  5
303
330
1F
100
AcDbEntity
  8
0-A
  6
Continuous
 62
     4
370
    13
100
AcDbCircle
 10
-49.35618323694825
 20
1116.33135009872
 30
0.0
 40
3.333333376291636
100
AcDbArc
 50
270.0003204345703
 51
339.2240905761719
  0
ARC
  5
304
330
1F
100
AcDbEntity
  8
0-A
  6
Continuous
 62
     4
370
    13
100
AcDbCircle
 10
-112.4972173374548
 20
1125.219718447538
 30
0.0
 40
3.333333376291636
100
AcDbArc
 50
180.0008239746094
 51
270.0003204345703
  0
ARC
  5
305
330
1F
100
AcDbEntity
  8
0-A
  6
Continuous
 62
     4
370
    13
100
AcDbCircle
 10
-115.6380534861034
 20
1116.33135009872
 30
0.0
 40
3.333333376291636
100
AcDbArc
 50
200.7769927978516
 51
270.0008239746094
  0
ARC
  5
306
330
1F
100
AcDbEntity
  8
0-A
  6
Continuous
 62
     4
370
    13
100
AcDbCircle
 10
-82.49695340164408
 20
784.4036949044632
 30
0.0
 40
345.4066714724979
100
AcDbArc
 50
37.67985534667968
 51
50.85043334960937
  0
ARC
  5
307
330
1F
100
AcDbEntity
  8
0-A
  6
Continuous
 62
     4
370
    13
100
AcDbCircle
 10
129.2610570502139
 20
1044.511776618991
 30
0.0
 40
10.00000012887491
100
AcDbArc
 50
50.85054016113282
 51
150.0000305175781
  0
ARC
  5
308
330
1F
100
AcDbEntity
  8
0-A
  6
Continuous
 62
     4
370
    13
100
AcDbCircle
 10
-82.49662348188053
 20
784.4036949044632
 30
0.0
 40
346.5200063344594
100
AcDbArc
 50
52.08865356445312
 51
60.00009155273438
  0
ARC
  5
309
330
1F
100
AcDbEntity
  8
0-A
  6
Continuous
 62
     4
370
    13
100
AcDbCircle
 10
129.2610570502139
 20
1044.511776618991
 30
0.0
 40
13.33333350516654
100
AcDbArc
 50
85.01358032226562
 51
150.0000305175781
  0
ARC
  5
30A
330
1F
100
AcDbEntity
  8
0-A
  6
Continuous
 62
     4
370
    13
100
AcDbCircle
 10
36.88418310595733
 20
1097.845615829295
 30
0.0
 40
10.00000012887491
100
AcDbArc
 50
330.0002288818359
 51
69.14971923828126
  0
ARC
  5
30B
330
1F
100
AcDbEntity
  8
0-A
  6
Continuous
 62
     4
370
    13
100
AcDbCircle
 10
36.88418310595733
 20
1097.845615829295
 30
0.0
 40
13.33333350516654
100
AcDbArc
 50
330.0000762939453
 51
34.98652648925781
  0
ARC
  5
30C
330
1F
100
AcDbEntity
  8
0-A
  6
Continuous
 62
     4
370
    13
100
AcDbCircle
 10
-82.49728332140762
 20
784.4040248242268
 30
0.0
 40
346.5200063344594
100
AcDbArc
 50
59.99990844726563
 51
67.91140747070312
  0
ARC
  5
30D
330
1F
100
AcDbEntity
  8
0-A
  6
Continuous
 62
     4
370
    13
100
AcDbCircle
 10
-82.49695340164408
 20
784.4036949044632
 30
0.0
 40
409.9999505120355
100
AcDbArc
 50
16.86361694335937
 51
22.33772277832031
  0
ARC
  5
30E
330
1F
100
AcDbEntity
  8
0-A
  6
Continuous
 62
     4
370
    13
100
AcDbCircle
 10
287.4869465138965
 20
936.4300620919632
 30
0.0
 40
10.00000012887491
100
AcDbArc
 50
22.3377685546875
 51
119.9999694824219
  0
ARC
  5
30F
330
1F
100
AcDbEntity
  8
0-A
  6
Continuous
 62
     4
370
    13
100
AcDbCircle
 10
287.4869465138965
 20
936.4300620919632
 30
0.0
 40
20.00000025774981
100
AcDbArc
 50
75.26042175292972
 51
120.0001678466797
  0
ARC
  5
310
330
1F
100
AcDbEntity
  8
0-A
  6
Continuous
 62
     4
370
    13
100
AcDbCircle
 10
234.1531073035924
 20
1028.806276196693
 30
0.0
 40
10.00000012887491
100
AcDbArc
 50
300.0002288818359
 51
37.66242980957032
  0
ARC
  5
311
330
1F
100
AcDbEntity
  8
0-A
  6
Continuous
 62
     4
370
    13
100
AcDbCircle
 10
234.1531073035924
 20
1028.806276196693
 30
0.0
 40
20.00000025774981
100
AcDbArc
 50
299.9998931884766
 51
344.7396392822266
  0
ARC
  5
312
330
1F
100
AcDbEntity
  8
0-A
  6
Continuous
 62
     4
370
    13
100
AcDbCircle
 10
-82.49695340164408
 20
784.4036949044632
 30
0.0
 40
412.3666299355996
100
AcDbArc
 50
24.55532836914063
 51
35.44468688964844
  0
ARC
  5
313
330
1F
100
AcDbEntity
  8
0-A
  6
Continuous
 62
     4
370
    13
100
AcDbCircle
 10
-82.49695340164408
 20
784.4036949044632
 30
0.0
 40
409.9999505120355
100
AcDbArc
 50
37.66229248046876
 51
43.13638305664064
  0
ARC
  5
314
330
1F
100
AcDbEntity
  8
0-A
  6
Continuous
 62
     4
370
    13
100
AcDbCircle
 10
-29.16377403086699
 20
1180.831983544666
 30
0.0
 40
10.00000012887491
100
AcDbArc
 50
82.33776855468749
 51
179.9999694824218
  0
ARC
  5
315
330
1F
100
AcDbEntity
  8
0-A
  6
Continuous
 62
     4
370
    13
100
AcDbCircle
 10
-29.16377403086699
 20
1180.831983544666
 30
0.0
 40
20.00000025774981
100
AcDbArc
 50
135.2604217529297
 51
180.0001678466797
  0
ARC
  5
316
330
1F
100
AcDbEntity
  8
0-A
  6
Continuous
 62
     4
370
    13
100
AcDbCircle
 10
-135.8307926119483
 20
1180.831983544666
 30
0.0
 40
10.00000012887491
100
AcDbArc
 50
0.0002288818359456
 51
97.66242980957033
  0
ARC
  5
317
330
1F
100
AcDbEntity
  8
0-A
  6
Continuous
 62
     4
370
    13
100
AcDbCircle
 10
-135.8307926119483
 20
1180.831983544666
 30
0.0
 40
20.00000025774981
100
AcDbArc
 50
359.9998931884766
 51
44.73963928222656
  0
ARC
  5
318
330
1F
100
AcDbEntity
  8
0-A
  6
Continuous
 62
     4
370
    13
100
AcDbCircle
 10
-399.1476739464076
 20
1028.80594627693
 30
0.0
 40
10.00000012887491
100
AcDbArc
 50
142.3377685546875
 51
239.9999694824219
  0
ARC
  5
319
330
1F
100
AcDbEntity
  8
0-A
  6
Continuous
 62
     4
370
    13
100
AcDbCircle
 10
-399.1476739464076
 20
1028.80594627693
 30
0.0
 40
20.00000025774981
100
AcDbArc
 50
195.2604217529297
 51
240.0001678466797
  0
ARC
  5
31A
330
1F
100
AcDbEntity
  8
0-A
  6
Continuous
 62
     4
370
    13
100
AcDbCircle
 10
-452.4811832369483
 20
936.4294022524366
 30
0.0
 40
10.00000012887491
100
AcDbArc
 50
60.00022888183593
 51
157.6624298095703
  0
ARC
  5
31B
330
1F
100
AcDbEntity
  8
0-A
  6
Continuous
 62
     4
370
    13
100
AcDbCircle
 10
-452.4811832369483
 20
936.4294022524366
 30
0.0
 40
20.00000025774981
100
AcDbArc
 50
59.99989318847656
 51
104.7396392822266
  0
ARC
  5
31C
330
1F
100
AcDbEntity
  8
0-A
  6
Continuous
 62
     4
370
    13
100
AcDbCircle
 10
-82.49695340164408
 20
784.4036949044632
 30
0.0
 40
345.4066714724979
100
AcDbArc
 50
69.14958190917969
 51
82.32015991210938
  0
ARC
  5
31D
330
1F
100
AcDbEntity
  8
0-A
  6
Continuous
 62
     4
370
    13
100
AcDbCircle
 10
-82.49695340164408
 20
784.4036949044632
 30
0.0
 40
409.9999505120355
100
AcDbArc
 50
76.86363220214847
 51
82.33773803710939
  0
ARC
  5
31E
330
1F
100
AcDbEntity
  8
0-A
  6
Continuous
 62
     4
370
    13
100
AcDbCircle
 10
-82.49695340164408
 20
784.4036949044632
 30
0.0
 40
412.3666299355996
100
AcDbArc
 50
84.55529785156251
 51
95.44476318359376
  0
ARC
  5
31F
330
1F
100
AcDbEntity
  8
0-A
  6
Continuous
 62
     4
370
    13
100
AcDbCircle
 10
-82.49695340164408
 20
784.4036949044632
 30
0.0
 40
409.9999505120355
100
AcDbArc
 50
97.66232299804688
 51
103.1363830566406
  0
ARC
  5
320
330
1F
100
AcDbEntity
  8
0-A
  6
Continuous
 62
     4
370
    13
100
AcDbCircle
 10
-82.49695340164408
 20
784.4036949044632
 30
0.0
 40
409.9999505120355
100
AcDbArc
 50
136.8636169433594
 51
142.3377838134766
  0
ARC
  5
321
330
1F
100
AcDbEntity
  8
0-A
  6
Continuous
 62
     4
370
    13
100
AcDbCircle
 10
-82.49695340164408
 20
784.4036949044632
 30
0.0
 40
412.3666299355996
100
AcDbArc
 50
144.5553741455078
 51
155.4447326660157
  0
ARC
  5
322
330
1F
100
AcDbEntity
  8
0-A
  6
Continuous
 62
     4
370
    13
100
AcDbCircle
 10
-82.49695340164408
 20
784.4036949044632
 30
0.0
 40
409.9999505120355
100
AcDbArc
 50
157.6623382568359
 51
163.1363830566407
  0
ARC
  5
323
330
1F
100
AcDbEntity
  8
0-A
  6
Continuous
 62
     4
370
    13
100
AcDbCircle
 10
-82.49695340164408
 20
784.4036949044632
 30
0.0
 40
433.3333195866766
100
AcDbArc
 50
0.0
 51
180.0
  0
ARC
  5
324
330
1F
100
AcDbEntity
  8
0-A
  6
Continuous
 62
     4
370
    13
100
AcDbCircle
 10
-82.49695340164408
 20
784.4036949044632
 30
0.0
 40
299.9999793800147
100
AcDbArc
 50
0.0
 51
42.85441589355469
  0
ARC
  5
325
330
1F
100
AcDbEntity
  8
0-A
  6
Continuous
 62
     2
370
    13
100
AcDbCircle
 10
-390.8115912817117
 20
784.4043547439903
 30
0.0
 40
21.66667113433013
100
AcDbArc
 50
0.0
 51
180.0015258789063
  0
ARC
  5
326
330
1F
100
AcDbEntity
  8
0-A
  6
Continuous
 62
     2
370
    13
100
AcDbCircle
 10
-390.8303967082319
 20
784.4046846637539
 30
0.0
 40
13.33333350516654
100
AcDbArc
 50
359.9971618652344
 51
180.0
  0
ARC
  5
327
330
1F
100
AcDbEntity
  8
0-A
  6
Continuous
 62
     2
370
    13
100
AcDbCircle
 10
-390.8303967082319
 20
784.4046846637539
 30
0.0
 40
11.07833192155168
100
AcDbArc
 50
0.0
 51
180.00341796875
  0
ARC
  5
328
330
1F
100
AcDbEntity
  8
0-A
  6
Continuous
 62
     2
370
    13
100
AcDbCircle
 10
71.66069545815316
 20
1051.411718553112
 30
0.0
 40
21.66667113433013
100
AcDbArc
 50
240.0
 51
60.00152587890627
  0
ARC
  5
329
330
1F
100
AcDbEntity
  8
0-A
  6
Continuous
 62
     2
370
    13
100
AcDbCircle
 10
71.67026313129517
 20
1051.428214541288
 30
0.0
 40
13.33333350516654
100
AcDbArc
 50
239.9971618652345
 51
60.00000000000004
  0
ARC
  5
32A
330
1F
100
AcDbEntity
  8
0-A
  6
Continuous
 62
     2
370
    13
100
AcDbCircle
 10
71.67026313129517
 20
1051.428214541288
 30
0.0
 40
11.07833192155168
100
AcDbArc
 50
240.0
 51
60.00341796875002
  0
ARC
  5
32B
330
1F
100
AcDbEntity
  8
0-A
  6
Continuous
 62
     2
370
    13
100
AcDbCircle
 10
71.67026313129517
 20
1051.428214541288
 30
0.0
 40
11.07833192155168
100
AcDbArc
 50
239.9967498779297
 51
239.9998931884766
  0
ARC
  5
32C
330
1F
100
AcDbEntity
  8
0-A
  6
Continuous
 62
     2
370
    13
100
AcDbCircle
 10
71.65970569886252
 20
1051.412378392639
 30
0.0
 40
21.66667113433013
100
AcDbArc
 50
59.99847412109375
 51
240.0
  0
ARC
  5
32D
330
1F
100
AcDbEntity
  8
0-A
  6
Continuous
 62
     2
370
    13
100
AcDbCircle
 10
71.668943452241
 20
1051.428544461051
 30
0.0
 40
13.33333350516654
100
AcDbArc
 50
60.00000000000001
 51
240.0028381347657
  0
ARC
  5
32E
330
1F
100
AcDbEntity
  8
0-A
  6
Continuous
 62
     2
370
    13
100
AcDbCircle
 10
71.668943452241
 20
1051.428544461051
 30
0.0
 40
11.07833192155168
100
AcDbArc
 50
59.99658203125
 51
316.1802673339844
  0
LINE
  5
32F
330
1F
100
AcDbEntity
  8
0-A
  6
Continuous
 62
     4
370
    13
100
AcDbLine
 10
347.5033105341666
 20
-97.71120227981655
 30
0.0
 11
350.8364899049437
 21
-84.37765999729969
 31
0.0
  0
LINE
  5
330
330
1F
100
AcDbEntity
  8
0-A
  6
Continuous
 62
     4
370
    13
100
AcDbLine
 10
281.4368778905857
 20
-84.37765999729969
 30
0.0
 11
350.8364899049437
 21
-84.37765999729969
 31
0.0
  0
LINE
  5
331
330
1F
100
AcDbEntity
  8
0-A
  6
Continuous
 62
     4
370
    13
100
AcDbLine
 10
271.6313325992003
 20
-92.41648495507
 30
0.0
 11
263.9056014970045
 21
-131.0443156666408
 31
0.0
  0
LINE
  5
332
330
1F
100
AcDbEntity
  8
0-A
  6
Continuous
 62
     4
370
    13
100
AcDbLine
 10
220.8365558888966
 20
-117.7109383440058
 30
0.0
 11
217.5030465983559
 21
-131.0443156666408
 31
0.0
  0
LINE
  5
333
330
1F
100
AcDbEntity
  8
0-A
  6
Continuous
 62
     4
370
    13
100
AcDbLine
 10
-372.4970853695496
 20
-112.7110043279584
 30
0.0
 11
-369.1639059987725
 21
-131.0443156666408
 31
0.0
  0
LINE
  5
334
330
1F
100
AcDbEntity
  8
0-A
  6
Continuous
 62
     4
370
    13
100
AcDbLine
 10
-410.8301327724212
 20
-112.7110043279584
 30
0.0
 11
-407.4972833214076
 21
-131.0443156666408
 31
0.0
  0
LINE
  5
335
330
1F
100
AcDbEntity
  8
0-A
  6
Continuous
 62
     4
370
    13
100
AcDbLine
 10
-515.8303967082319
 20
-84.37765999729969
 30
0.0
 11
-512.4968874176913
 21
-97.71120227981655
 31
0.0
  0
LINE
  5
336
330
1F
100
AcDbEntity
  8
0-A
  6
Continuous
 62
     4
370
    13
100
AcDbLine
 10
-424.3683902681983
 20
-112.7110043279584
 30
0.0
 11
-372.4970853695496
 21
-112.7110043279584
 31
0.0
  0
LINE
  5
337
330
1F
100
AcDbEntity
  8
0-A
  6
Continuous
 62
     4
370
    13
100
AcDbLine
 10
-434.1742654793468
 20
-104.6721793701882
 30
0.0
 11
-436.6252394024889
 21
-92.41648495507
 31
0.0
  0
LINE
  5
338
330
1F
100
AcDbEntity
  8
0-A
  6
JWW_DASHED1
 62
     4
370
    13
100
AcDbLine
 10
-433.1742786761374
 20
-109.6721133862355
 30
0.0
 11
-434.1742654793468
 21
-104.6721793701882
 31
0.0
  0
LINE
  5
339
330
1F
100
AcDbEntity
  8
0-A
  6
JWW_DASHED1
 62
     4
370
    13
100
AcDbLine
 10
-423.3684034649889
 20
-117.7109383440058
 30
0.0
 11
-371.5878265013062
 21
-117.7109383440058
 31
0.0
  0
LINE
  5
33A
330
1F
100
AcDbEntity
  8
0-A
  6
JWW_DASHED1
 62
     4
370
    13
100
AcDbLine
 10
-483.4893520502926
 20
-84.37765999729969
 30
0.0
 11
-515.8303967082319
 21
-84.37765999729969
 31
0.0
  0
LINE
  5
33B
330
1F
100
AcDbEntity
  8
0-A
  6
Continuous
 62
     4
370
    13
100
AcDbLine
 10
344.5346925020722
 20
-33.96460045338074
 30
0.0
 11
350.8364899049437
 21
-84.37765999729969
 31
0.0
  0
LINE
  5
33C
330
1F
100
AcDbEntity
  8
0-A
  6
Continuous
 62
     4
370
    13
100
AcDbLine
 10
333.7944845206531
 20
-33.95123870295834
 30
0.0
 11
330.1333649049437
 21
-62.32417340523895
 31
0.0
  0
LINE
  5
33D
330
1F
100
AcDbEntity
  8
0-A
  6
Continuous
 62
     4
370
    13
100
AcDbLine
 10
-506.2211536761374
 20
-31.0444806265226
 30
0.0
 11
-404.163774030867
 21
-31.0444806265226
 31
0.0
  0
LINE
  5
33E
330
1F
100
AcDbEntity
  8
0-A
  6
Continuous
 62
     4
370
    13
100
AcDbLine
 10
-434.2989751499548
 20
-131.0443156666408
 30
0.0
 11
-419.1685248754618
 21
-131.0443156666408
 31
0.0
  0
LINE
  5
33F
330
1F
100
AcDbEntity
  8
0-A
  6
Continuous
 62
     4
370
    13
100
AcDbLine
 10
188.9237470839979
 20
-131.0443156666408
 30
0.0
 11
269.3050683466666
 21
-131.0443156666408
 31
0.0
  0
LINE
  5
340
330
1F
100
AcDbEntity
  8
0-A
  6
Continuous
 62
     4
370
    13
100
AcDbLine
 10
-404.163774030867
 20
-84.37765999729969
 30
0.0
 11
-483.4893520502926
 21
-84.37765999729969
 31
0.0
  0
LINE
  5
341
330
1F
100
AcDbEntity
  8
0-A
  6
Continuous
 62
     2
370
    13
100
AcDbLine
 10
-415.8303967082319
 20
-93.44995861427613
 30
0.0
 11
-415.8303967082319
 21
-112.7110043279584
 31
0.0
  0
LINE
  5
342
330
1F
100
AcDbEntity
  8
0-A
  6
Continuous
 62
     2
370
    13
100
AcDbLine
 10
-365.8303967082319
 20
-93.44995861427613
 30
0.0
 11
-365.8303967082319
 21
-112.7110043279584
 31
0.0
  0
LINE
  5
343
330
1F
100
AcDbEntity
  8
0-A
  6
Continuous
 62
     2
370
    13
100
AcDbLine
 10
-403.3211589548534
 20
-93.44995861427613
 30
0.0
 11
-403.3211589548534
 21
-112.7110043279584
 31
0.0
  0
LINE
  5
344
330
1F
100
AcDbEntity
  8
0-A
  6
Continuous
 62
     2
370
    13
100
AcDbLine
 10
-378.3396344616103
 20
-93.44995861427613
 30
0.0
 11
-378.3396344616103
 21
-112.7110043279584
 31
0.0
  0
LINE
  5
345
330
1F
100
AcDbEntity
  8
0-A
  6
Continuous
 62
     2
370
    13
100
AcDbLine
 10
-409.5757778315426
 20
-91.04434865861727
 30
0.0
 11
-372.0846856651576
 21
-91.04434865861727
 31
0.0
  0
LINE
  5
346
330
1F
100
AcDbEntity
  8
0-A
  6
JWW_CENTER1
 62
     2
370
    13
100
AcDbLine
 10
-390.8303967082319
 20
-163.6583689288876
 30
0.0
 11
-390.8303967082319
 21
19.60793570582531
 31
0.0
  0
LINE
  5
347
330
1F
100
AcDbEntity
  8
0-A
  6
Continuous
 62
     2
370
    13
100
AcDbLine
 10
-377.4970193855968
 20
13.3990107163828
 30
0.0
 11
-377.4970193855968
 21
-91.04434865861727
 31
0.0
  0
LINE
  5
348
330
1F
100
AcDbEntity
  8
0-A
  6
Continuous
 62
     2
370
    13
100
AcDbLine
 10
-379.7203486719142
 20
15.62234000270031
 30
0.0
 11
-377.4970193855968
 21
13.3990107163828
 31
0.0
  0
LINE
  5
349
330
1F
100
AcDbEntity
  8
0-A
  6
Continuous
 62
     2
370
    13
100
AcDbLine
 10
-401.9401148247861
 20
15.62234000270031
 30
0.0
 11
-379.7203486719142
 21
15.62234000270031
 31
0.0
  0
LINE
  5
34A
330
1F
100
AcDbEntity
  8
0-A
  6
Continuous
 62
     2
370
    13
100
AcDbLine
 10
-404.163774030867
 20
13.3990107163828
 30
0.0
 11
-404.163774030867
 21
-91.04434865861727
 31
0.0
  0
LINE
  5
34B
330
1F
100
AcDbEntity
  8
0-A
  6
Continuous
 62
     2
370
    13
100
AcDbLine
 10
-401.9401148247861
 20
15.62234000270031
 30
0.0
 11
-404.163774030867
 21
13.3990107163828
 31
0.0
  0
LINE
  5
34C
330
1F
100
AcDbEntity
  8
0-A
  6
Continuous
 62
     2
370
    13
100
AcDbLine
 10
-401.9401148247861
 20
15.62234000270031
 30
0.0
 11
-401.9401148247861
 21
-91.04434865861727
 31
0.0
  0
LINE
  5
34D
330
1F
100
AcDbEntity
  8
0-A
  6
Continuous
 62
     2
370
    13
100
AcDbLine
 10
-379.7203486719142
 20
15.62234000270031
 30
0.0
 11
-379.7203486719142
 21
-91.04434865861727
 31
0.0
  0
LINE
  5
34E
330
1F
100
AcDbEntity
  8
0-A
  6
Continuous
 62
     2
370
    13
100
AcDbLine
 10
-377.4970193855968
 20
13.3990107163828
 30
0.0
 11
-404.163774030867
 21
13.3990107163828
 31
0.0
  0
LINE
  5
34F
330
1F
100
AcDbEntity
  8
0-A
  6
Continuous
 62
     2
370
    13
100
AcDbLine
 10
-404.163774030867
 20
-148.8208874043943
 30
0.0
 11
-404.163774030867
 21
-112.7110043279584
 31
0.0
  0
LINE
  5
350
330
1F
100
AcDbEntity
  8
0-A
  6
Continuous
 62
     2
370
    13
100
AcDbLine
 10
-404.163774030867
 20
-148.8208874043943
 30
0.0
 11
-401.9401148247861
 21
-151.0442166907118
 31
0.0
  0
LINE
  5
351
330
1F
100
AcDbEntity
  8
0-A
  6
Continuous
 62
     2
370
    13
100
AcDbLine
 10
-379.7203486719142
 20
-151.0442166907118
 30
0.0
 11
-401.9401148247861
 21
-151.0442166907118
 31
0.0
  0
LINE
  5
352
330
1F
100
AcDbEntity
  8
0-A
  6
Continuous
 62
     2
370
    13
100
AcDbLine
 10
-377.4970193855968
 20
-148.8208874043943
 30
0.0
 11
-377.4970193855968
 21
-112.7110043279584
 31
0.0
  0
LINE
  5
353
330
1F
100
AcDbEntity
  8
0-A
  6
Continuous
 62
     2
370
    13
100
AcDbLine
 10
-379.7203486719142
 20
-151.0442166907118
 30
0.0
 11
-377.4970193855968
 21
-148.8208874043943
 31
0.0
  0
LINE
  5
354
330
1F
100
AcDbEntity
  8
0-A
  6
Continuous
 62
     2
370
    13
100
AcDbLine
 10
-404.163774030867
 20
-148.8208874043943
 30
0.0
 11
-377.4970193855968
 21
-148.8208874043943
 31
0.0
  0
LINE
  5
355
330
1F
100
AcDbEntity
  8
0-A
  6
Continuous
 62
     2
370
    13
100
AcDbLine
 10
-372.4967554497861
 20
-112.7110043279584
 30
0.0
 11
-365.8303967082319
 21
-112.7110043279584
 31
0.0
  0
LINE
  5
356
330
1F
100
AcDbEntity
  8
0-A
  6
Continuous
 62
     4
370
    13
100
AcDbLine
 10
-509.5289292251239
 20
-33.96460045338074
 30
0.0
 11
-515.8300667884683
 21
-84.37765999729969
 31
0.0
  0
LINE
  5
357
330
1F
100
AcDbEntity
  8
0-A
  6
Continuous
 62
     4
370
    13
100
AcDbLine
 10
-498.7887212437048
 20
-33.95123870295834
 30
0.0
 11
-493.4070700612725
 21
-75.65755072787404
 31
0.0
  0
LINE
  5
358
330
1F
100
AcDbEntity
  8
0-A
  6
Continuous
 62
     2
370
    13
100
AcDbLine
 10
-379.7203486719142
 20
-151.0442166907118
 30
0.0
 11
-379.7203486719142
 21
-112.7110043279584
 31
0.0
  0
LINE
  5
359
330
1F
100
AcDbEntity
  8
0-A
  6
Continuous
 62
     2
370
    13
100
AcDbLine
 10
-401.9401148247861
 20
-151.0442166907118
 30
0.0
 11
-401.9401148247861
 21
-112.7110043279584
 31
0.0
  0
LINE
  5
35A
330
1F
100
AcDbEntity
  8
0-A
  6
Continuous
 62
     4
370
    13
100
AcDbLine
 10
279.1109435578153
 20
-123.0054907088707
 30
0.0
 11
282.5619042841666
 21
-105.7500272375869
 31
0.0
  0
LINE
  5
35B
330
1F
100
AcDbEntity
  8
0-A
  6
Continuous
 62
     4
370
    13
100
AcDbLine
 10
-361.6625203357655
 20
-131.0443156666408
 30
0.0
 11
-379.7203486719142
 21
-131.0443156666408
 31
0.0
  0
LINE
  5
35C
330
1F
100
AcDbEntity
  8
0-A
  6
Continuous
 62
     4
370
    13
100
AcDbLine
 10
-401.9401148247861
 20
-131.0443156666408
 30
0.0
 11
-419.1685248754618
 21
-131.0443156666408
 31
0.0
  0
ARC
  5
35D
330
1F
100
AcDbEntity
  8
0-A
  6
Continuous
 62
     4
370
    13
100
AcDbCircle
 10
292.3677794953153
 20
-107.7110703119111
 30
0.0
 40
10.00000012887491
100
AcDbArc
 50
90.0
 51
168.6901550292969
  0
ARC
  5
35E
330
1F
100
AcDbEntity
  8
0-A
  6
Continuous
 62
     4
370
    13
100
AcDbCircle
 10
269.3050683466666
 20
-121.0444476345462
 30
0.0
 40
10.00000012887491
100
AcDbArc
 50
270.0
 51
348.6901550292969
  0
ARC
  5
35F
330
1F
100
AcDbEntity
  8
0-A
  6
Continuous
 62
     4
370
    13
100
AcDbCircle
 10
-457.362016218367
 20
-107.7110703119111
 30
0.0
 40
10.00000012887491
100
AcDbArc
 50
11.30984497070312
 51
90.0
  0
ARC
  5
360
330
1F
100
AcDbEntity
  8
0-A
  6
Continuous
 62
     4
370
    13
100
AcDbCircle
 10
-434.2989751499548
 20
-121.0444476345462
 30
0.0
 40
10.00000012887491
100
AcDbArc
 50
191.3098449707032
 51
270.0000000000001
  0
ARC
  5
361
330
1F
100
AcDbEntity
  8
0-A
  6
Continuous
 62
     4
370
    13
100
AcDbCircle
 10
320.2156468939638
 20
-61.04457960245178
 30
0.0
 40
10.00000012887491
100
AcDbArc
 50
270.0
 51
352.6479187011719
  0
ARC
  5
362
330
1F
100
AcDbEntity
  8
0-A
  6
Continuous
 62
     4
370
    13
100
AcDbCircle
 10
281.4368778905857
 20
-94.3778579491579
 30
0.0
 40
10.00000012887491
100
AcDbArc
 50
90.0
 51
168.6902008056641
  0
ARC
  5
363
330
1F
100
AcDbEntity
  8
0-A
  6
Continuous
 62
     4
370
    13
100
AcDbCircle
 10
244.7768536084909
 20
-107.7110703119111
 30
0.0
 40
10.00000012887491
100
AcDbArc
 50
270.0
 51
348.6902008056641
  0
ARC
  5
364
330
1F
100
AcDbEntity
  8
0-A
  6
Continuous
 62
     4
370
    13
100
AcDbCircle
 10
-483.4893520502926
 20
-74.37795692508686
 30
0.0
 40
10.00000012887491
100
AcDbArc
 50
187.3520355224609
 51
270.0
  0
ARC
  5
365
330
1F
100
AcDbEntity
  8
0-A
  6
Continuous
 62
     4
370
    13
100
AcDbCircle
 10
-446.4311146136374
 20
-94.3778579491579
 30
0.0
 40
10.00000012887491
100
AcDbArc
 50
11.30973815917969
 51
90.00000000000001
  0
ARC
  5
366
330
1F
100
AcDbEntity
  8
0-A
  6
Continuous
 62
     4
370
    13
100
AcDbCircle
 10
-424.3683902681983
 20
-102.711136295864
 30
0.0
 40
10.00000012887491
100
AcDbArc
 50
191.3097381591797
 51
270.0
  0
ARC
  5
367
330
1F
100
AcDbEntity
  8
0-A
  6
JWW_DASHED1
 62
     4
370
    13
100
AcDbCircle
 10
-423.3684034649889
 20
-107.7110703119111
 30
0.0
 40
10.00000012887491
100
AcDbArc
 50
191.3097381591797
 51
270.0
  0
ARC
  5
368
330
1F
100
AcDbEntity
  8
0-A
  6
Continuous
 62
     4
370
    13
100
AcDbCircle
 10
-502.0945172741103
 20
-34.37798991706323
 30
0.0
 40
3.333333376291636
100
AcDbArc
 50
7.3507080078125
 51
90.00000000000001
  0
ARC
  5
369
330
1F
100
AcDbEntity
  8
0-A
  6
Continuous
 62
     4
370
    13
100
AcDbCircle
 10
-506.2211536761374
 20
-34.37798991706323
 30
0.0
 40
3.333333376291636
100
AcDbArc
 50
90.0
 51
172.875732421875
  0
ARC
  5
36A
330
1F
100
AcDbEntity
  8
0-A
  6
Continuous
 62
     4
370
    13
100
AcDbCircle
 10
341.2269169530857
 20
-34.37798991706323
 30
0.0
 40
3.333333376291636
100
AcDbArc
 50
7.124267578125002
 51
90.00000000000001
  0
ARC
  5
36B
330
1F
100
AcDbEntity
  8
0-A
  6
Continuous
 62
     4
370
    13
100
AcDbCircle
 10
337.1002805510586
 20
-34.37798991706323
 30
0.0
 40
3.333333376291636
100
AcDbArc
 50
90.0
 51
172.6491546630859
  0
ARC
  5
36C
330
1F
100
AcDbEntity
  8
0-A
  6
Continuous
 62
     2
370
    13
100
AcDbCircle
 10
-409.5757778315426
 20
-100.378108688178
 30
0.0
 40
9.333910813202728
100
AcDbArc
 50
47.92556762695312
 51
132.0746307373047
  0
ARC
  5
36D
330
1F
100
AcDbEntity
  8
0-A
  6
Continuous
 62
     2
370
    13
100
AcDbCircle
 10
-390.8303967082319
 20
-124.6757095116579
 30
0.0
 40
33.63136600803685
100
AcDbArc
 50
68.19786071777345
 51
111.8021392822266
  0
ARC
  5
36E
330
1F
100
AcDbEntity
  8
0-A
  6
Continuous
 62
     2
370
    13
100
AcDbCircle
 10
-372.0846856651576
 20
-100.3782736480598
 30
0.0
 40
9.333964296289393
100
AcDbArc
 50
47.92572021484376
 51
132.0742797851562
  0
ARC
  5
36F
330
1F
100
AcDbEntity
  8
0-A
  6
Continuous
 62
     4
370
    13
100
AcDbCircle
 10
292.3677794953153
 20
-107.7110703119111
 30
0.0
 40
10.00000012887491
100
AcDbArc
 50
90.0
 51
168.6901550292969
  0
LINE
  5
370
330
1F
100
AcDbEntity
  8
0-A
  6
Continuous
 62
     4
370
    13
100
AcDbLine
 10
-377.4970193855968
 20
-31.0444806265226
 30
0.0
 11
-305.2591697350151
 21
-31.0444806265226
 31
0.0
  0
LINE
  5
371
330
1F
100
AcDbEntity
  8
0-A
  6
Continuous
 62
     4
370
    13
100
AcDbLine
 10
-313.1352514222683
 20
-117.7109383440058
 30
0.0
 11
-371.5878265013062
 21
-117.7109383440058
 31
0.0
  0
LINE
  5
372
330
1F
100
AcDbEntity
  8
0-A
  6
Continuous
 62
     4
370
    13
100
AcDbLine
 10
-365.8350155849212
 20
-131.0443156666408
 30
0.0
 11
-314.3469632162632
 21
-131.0443156666408
 31
0.0
  0
LINE
  5
373
330
1F
100
AcDbEntity
  8
0-A
  6
Continuous
 62
     4
370
    13
100
AcDbLine
 10
140.2650026719313
 20
-31.0444806265226
 30
0.0
 11
341.2269169530857
 21
-31.0444806265226
 31
0.0
  0
LINE
  5
374
330
1F
100
AcDbEntity
  8
0-A
  6
Continuous
 62
     4
370
    13
100
AcDbLine
 10
244.7768536084909
 20
-117.7109383440058
 30
0.0
 11
148.1406725666946
 21
-117.7109383440058
 31
0.0
  0
LINE
  5
375
330
1F
100
AcDbEntity
  8
0-A
  6
Continuous
 62
     4
370
    13
100
AcDbLine
 10
270.5065649332068
 20
-71.04444763454623
 30
0.0
 11
320.2156468939638
 21
-71.04444763454623
 31
0.0
  0
ARC
  5
376
330
1F
100
AcDbEntity
  8
0-A
  6
Continuous
 62
     4
370
    13
100
AcDbCircle
 10
270.5065649332068
 20
-81.04444763454623
 30
0.0
 40
10.0
100
AcDbArc
 50
90.0
 51
168.6895921646241
  0
LINE
  5
377
330
1F
100
AcDbEntity
  8
0-A
  6
Continuous
 62
     4
370
    13
100
AcDbLine
 10
-310.1059869285189
 20
-84.37765999729969
 30
0.0
 11
-377.4970193855968
 21
-84.37765999729969
 31
0.0
  0
LINE
  5
378
330
1F
100
AcDbEntity
  8
0-A
  6
Continuous
 62
     4
370
    13
100
AcDbLine
 10
256.9091811958104
 20
-84.37765999729969
 30
0.0
 11
145.1115664547927
 21
-84.37765999729969
 31
0.0
  0
LINE
  5
379
330
1F
100
AcDbEntity
  8
0-A
  6
Continuous
 62
     4
370
    13
100
AcDbLine
 10
260.1777780243303
 20
-81.69807423275786
 30
0.0
 11
260.7007744476472
 21
-79.08320492817165
 31
0.0
  0
ARC
  5
37A
330
1F
100
AcDbEntity
  8
0-A
  6
Continuous
 62
     4
370
    13
100
AcDbCircle
 10
256.9091811958104
 20
-81.04432666396634
 30
0.0
 40
3.333333333333333
100
AcDbArc
 50
270.0
 51
348.6895921646241
  0
LINE
  5
37B
330
1F
100
AcDbEntity
  8
0-A
  6
Continuous
 62
     4
370
    13
100
AcDbLine
 10
254.5826650537393
 20
-109.672208878595
 30
0.0
 11
260.1777780243303
 21
-81.69807423275786
 31
0.0
  0
LINE
  5
37C
330
1F
100
AcDbEntity
  8
0-A
  6
Continuous
 62
     4
370
    13
100
AcDbLine
 10
-449.1639982188591
 20
-97.71120227981655
 30
0.0
 11
-512.4968874176913
 21
-97.71120227981655
 31
0.0
  0
LINE
  5
37D
330
1F
100
AcDbEntity
  8
0-A
  6
Continuous
 62
     4
370
    13
100
AcDbLine
 10
-444.1048503611034
 20
-123.0054907088707
 30
0.0
 11
-449.1639982188591
 21
-97.71120227981655
 31
0.0
  0
LINE
  5
37E
330
1F
100
AcDbEntity
  8
0-A
  6
Continuous
 62
     4
370
    13
100
AcDbLine
 10
279.1106136380517
 20
-123.0054907088707
 30
0.0
 11
284.1697614958074
 21
-97.71120227981655
 31
0.0
  0
LINE
  5
37F
330
1F
100
AcDbEntity
  8
0-A
  6
Continuous
 62
     4
370
    13
100
AcDbLine
 10
284.1697614958074
 20
-97.71120227981655
 30
0.0
 11
347.5033105341666
 21
-97.71120227981655
 31
0.0
  0
LINE
  5
380
330
1F
100
AcDbEntity
  8
0-4
  6
Continuous
 62
     7
370
    13
100
AcDbLine
 10
-515.8303967082319
 20
251.4917222998724
 30
0.0
 11
-515.8303967082319
 21
-72.49239955315083
 31
0.0
  0
LINE
  5
381
330
1F
100
AcDbEntity
  8
0-4
  6
Continuous
 62
     7
370
    13
100
AcDbLine
 10
-449.1639982188591
 20
338.5531374863398
 30
0.0
 11
284.1697614958075
 21
338.5531374863398
 31
0.0
  0
LINE
  5
382
330
1F
100
AcDbEntity
  8
0-4
  6
Continuous
 62
     7
370
    13
100
AcDbLine
 10
-449.1639982188591
 20
338.5531374863398
 30
0.0
 11
-424.3778766845139
 21
341.8162922918411
 31
0.0
  0
LINE
  5
383
330
1F
100
AcDbEntity
  8
0-4
  6
Continuous
 62
     7
370
    13
100
AcDbLine
 10
-449.1639982188591
 20
338.5531374863398
 30
0.0
 11
-424.3778766845139
 21
335.2899826808385
 31
0.0
  0
LINE
  5
384
330
1F
100
AcDbEntity
  8
0-4
  6
Continuous
 62
     7
370
    13
100
AcDbLine
 10
284.1697614958075
 20
338.5531374863398
 30
0.0
 11
259.3836399614622
 21
341.8162922918411
 31
0.0
  0
LINE
  5
385
330
1F
100
AcDbEntity
  8
0-4
  6
Continuous
 62
     7
370
    13
100
AcDbLine
 10
284.1697614958075
 20
338.5531374863398
 30
0.0
 11
259.3836399614622
 21
335.2899826808385
 31
0.0
  0
LINE
  5
386
330
1F
100
AcDbEntity
  8
0-4
  6
Continuous
 62
     7
370
    13
100
AcDbLine
 10
-449.1639982188591
 20
341.5531374863398
 30
0.0
 11
-449.1639982188591
 21
-92.83178081240393
 31
0.0
  0
LINE
  5
387
330
1F
100
AcDbEntity
  8
0-4
  6
Continuous
 62
     7
370
    13
100
AcDbLine
 10
284.1697614958075
 20
341.5531374863398
 30
0.0
 11
284.1697614958075
 21
-92.83178081240393
 31
0.0
  0
LINE
  5
388
330
1F
100
AcDbEntity
  8
0-4
  6
Continuous
 62
     7
370
    13
100
AcDbLine
 10
-515.8303967082319
 20
420.5570054786427
 30
0.0
 11
350.8364899049437
 21
420.5570054786427
 31
0.0
  0
LINE
  5
389
330
1F
100
AcDbEntity
  8
0-4
  6
Continuous
 62
     7
370
    13
100
AcDbLine
 10
-515.8303967082319
 20
420.5570054786427
 30
0.0
 11
-491.0442751738867
 21
423.820160284144
 31
0.0
  0
LINE
  5
38A
330
1F
100
AcDbEntity
  8
0-4
  6
Continuous
 62
     7
370
    13
100
AcDbLine
 10
-515.8303967082319
 20
420.5570054786427
 30
0.0
 11
-491.0442751738867
 21
417.2938506731415
 31
0.0
  0
LINE
  5
38B
330
1F
100
AcDbEntity
  8
0-4
  6
Continuous
 62
     7
370
    13
100
AcDbLine
 10
350.8364899049437
 20
420.5570054786427
 30
0.0
 11
326.0503683705985
 21
423.820160284144
 31
0.0
  0
LINE
  5
38C
330
1F
100
AcDbEntity
  8
0-4
  6
Continuous
 62
     7
370
    13
100
AcDbLine
 10
350.8364899049437
 20
420.5570054786427
 30
0.0
 11
326.0503683705985
 21
417.2938506731415
 31
0.0
  0
LINE
  5
38D
330
1F
100
AcDbEntity
  8
0-4
  6
Continuous
 62
     7
370
    13
100
AcDbLine
 10
350.8364899049437
 20
423.5570054786427
 30
0.0
 11
350.8364899049437
 21
-72.49239955315083
 31
0.0
  0
TEXT
  5
38E
330
1F
100
AcDbEntity
  8
0-4
  6
Continuous
 62
     2
370
   211
100
AcDbText
 10
-137.4969534016441
 20
436.1970054786427
 30
0.0
 40
30.48
  1
φ260
 41
1.1
  7
ＭＳ ゴシック
100
AcDbText
  0
TEXT
  5
38F
330
1F
100
AcDbEntity
  8
0-4
  6
Continuous
 62
     2
370
   211
100
AcDbText
 10
-137.4971183615258
 20
354.1931374863398
 30
0.0
 40
30.48
  1
φ220
 41
1.1
  7
ＭＳ ゴシック
100
AcDbText
  0
LINE
  5
390
330
1F
100
AcDbEntity
  8
0-4
  6
Continuous
 62
     7
370
    13
100
AcDbLine
 10
-515.8303967082319
 20
423.5570054786427
 30
0.0
 11
-515.8303967082319
 21
345.7875716131667
 31
0.0
  0
LINE
  5
391
330
1F
100
AcDbEntity
  8
0-4
  6
Continuous
 62
     7
370
    13
100
AcDbLine
 10
467.615203708235
 20
-131.0443156666408
 30
0.0
 11
467.615203708235
 21
-31.0446565407716
 31
0.0
  0
LINE
  5
392
330
1F
100
AcDbEntity
  8
0-4
  6
Continuous
 62
     7
370
    13
100
AcDbLine
 10
467.615203708235
 20
-131.0443156666408
 30
0.0
 11
464.3520489027337
 21
-106.2581941322956
 31
0.0
  0
LINE
  5
393
330
1F
100
AcDbEntity
  8
0-4
  6
Continuous
 62
     7
370
    13
100
AcDbLine
 10
467.615203708235
 20
-131.0443156666408
 30
0.0
 11
470.8783585137363
 21
-106.2581941322956
 31
0.0
  0
LINE
  5
394
330
1F
100
AcDbEntity
  8
0-4
  6
Continuous
 62
     7
370
    13
100
AcDbLine
 10
467.615203708235
 20
-31.0446565407716
 30
0.0
 11
464.3520489027337
 21
-55.83077807511685
 31
0.0
  0
LINE
  5
395
330
1F
100
AcDbEntity
  8
0-4
  6
Continuous
 62
     7
370
    13
100
AcDbLine
 10
467.615203708235
 20
-31.0446565407716
 30
0.0
 11
470.8783585137363
 21
-55.83077807511685
 31
0.0
  0
TEXT
  5
396
330
1F
100
AcDbEntity
  8
0-4
  6
Continuous
 62
     2
370
   211
100
AcDbText
 10
451.975203708235
 20
-102.2944861037062
 30
0.0
 40
30.48
  1
30
 50
90.0
 41
1.0625
  7
ＭＳ ゴシック
100
AcDbText
  0
LINE
  5
397
330
1F
100
AcDbEntity
  8
0-4
  6
Continuous
 62
     7
370
    13
100
AcDbLine
 10
470.615203708235
 20
-131.0443156666408
 30
0.0
 11
290.272508659681
 21
-131.0443156666408
 31
0.0
  0
LINE
  5
398
330
1F
100
AcDbEntity
  8
0-4
  6
Continuous
 62
     7
370
    13
100
AcDbLine
 10
470.615203708235
 20
-31.0446565407716
 30
0.0
 11
347.54672755211
 21
-31.04465654077159
 31
0.0
  0
LINE
  5
399
330
1F
100
AcDbEntity
  8
0-5
  6
Continuous
 62
     7
370
    13
100
AcDbLine
 10
-320.8105767784389
 20
60.86860861017485
 30
0.0
 11
-336.0296105094355
 21
80.70239503331678
 31
0.0
  0
LINE
  5
39A
330
1F
100
AcDbEntity
  8
0-5
  6
Continuous
 62
     7
370
    13
100
AcDbLine
 10
-320.8105767784389
 20
60.86860861017485
 30
0.0
 11
-330.3777138007152
 21
83.96563141422902
 31
0.0
  0
LINE
  5
39B
330
1F
100
AcDbEntity
  8
0-5
  6
Continuous
 62
     7
370
    13
100
AcDbLine
 10
-276.9085662474001
 20
-88.89879795654807
 30
0.0
 11
-292.1275999783967
 21
-69.06501153340614
 31
0.0
  0
LINE
  5
39C
330
1F
100
AcDbEntity
  8
0-5
  6
Continuous
 62
     7
370
    13
100
AcDbLine
 10
-276.9085662474001
 20
-88.89879795654807
 30
0.0
 11
-286.4757032696761
 21
-65.80177515249403
 31
0.0
  0
LINE
  5
39D
330
1F
100
AcDbEntity
  8
0-5
  6
Continuous
 62
     7
370
    13
100
AcDbLine
 10
-395.8302482443383
 20
-317.2320598072659
 30
0.0
 11
-405.3973852666147
 21
-340.3289588914088
 31
0.0
  0
LINE
  5
39E
330
1F
100
AcDbEntity
  8
0-5
  6
Continuous
 62
     7
370
    13
100
AcDbLine
 10
-395.8302482443383
 20
-317.2320598072659
 30
0.0
 11
-411.049281975335
 21
-337.0659699503192
 31
0.0
  0
LINE
  5
39F
330
1F
100
AcDbEntity
  8
0-5
  6
Continuous
 62
     7
370
    13
100
AcDbLine
 10
-457.4969534016441
 20
-183.8986165006781
 30
0.0
 11
-467.0640904239204
 21
-206.9956393047322
 31
0.0
  0
LINE
  5
3A0
330
1F
100
AcDbEntity
  8
0-5
  6
Continuous
 62
     7
370
    13
100
AcDbLine
 10
-457.4969534016441
 20
-183.8986165006781
 30
0.0
 11
-472.7159871326407
 21
-203.7324029238201
 31
0.0
  0
LINE
  5
3A1
330
1F
100
AcDbEntity
  8
0-5
  6
Continuous
 62
     7
370
    13
100
AcDbLine
 10
-315.8302317483503
 20
-424.2319674297322
 30
0.0
 11
-325.3973687706264
 21
-447.3288665138749
 31
0.0
  0
LINE
  5
3A2
330
1F
100
AcDbEntity
  8
0-5
  6
Continuous
 62
     7
370
    13
100
AcDbLine
 10
-315.8302317483503
 20
-424.2319674297322
 30
0.0
 11
-331.049265479347
 21
-444.0658775727854
 31
0.0
  0
LINE
  5
3A3
330
1F
100
AcDbEntity
  8
0-5
  6
Continuous
 62
     7
370
    13
100
AcDbLine
 10
-320.8105767784389
 20
60.86860861017485
 30
0.0
 11
-521.778973764292
 21
408.9559400211759
 31
0.0
  0
LINE
  5
3A4
330
1F
100
AcDbEntity
  8
0-5
  6
Continuous
 62
     7
370
    13
100
AcDbLine
 10
-276.9085662474001
 20
-88.89879795654807
 30
0.0
 11
-495.0630198342878
 21
288.9559152771936
 31
0.0
  0
LINE
  5
3A5
330
1F
100
AcDbEntity
  8
0-5
  6
Continuous
 62
     7
370
    13
100
AcDbLine
 10
-315.8302317483503
 20
-424.2319674297322
 30
0.0
 11
-392.6178607469777
 21
-557.2321092952304
 31
0.0
  0
LINE
  5
3A6
330
1F
100
AcDbEntity
  8
0-5
  6
Continuous
 62
     7
370
    13
100
AcDbLine
 10
-395.8302482443383
 20
-317.2320598072659
 30
0.0
 11
-465.1122851029743
 21
-437.2320845512482
 31
0.0
  0
LINE
  5
3A7
330
1F
100
AcDbEntity
  8
0-5
  6
Continuous
 62
     7
370
    13
100
AcDbLine
 10
-457.4969534016441
 20
-183.8986165006781
 30
0.0
 11
-534.4770905822818
 21
-317.2320598072659
 31
0.0
  0
LINE
  5
3A8
330
1F
100
AcDbEntity
  8
0-5
  6
Continuous
 62
     7
370
    13
100
AcDbLine
 10
-534.4770905822818
 20
-317.2320598072659
 30
0.0
 11
-824.77138725933
 21
-317.2320598072659
 31
0.0
  0
LINE
  5
3A9
330
1F
100
AcDbEntity
  8
0-5
  6
Continuous
 62
     7
370
    13
100
AcDbLine
 10
-521.778973764292
 20
408.9559400211759
 30
0.0
 11
-919.3713430500817
 21
408.9559400211759
 31
0.0
  0
LINE
  5
3AA
330
1F
100
AcDbEntity
  8
0-5
  6
Continuous
 62
     7
370
    13
100
AcDbLine
 10
-495.0630198342878
 20
288.9559152771936
 30
0.0
 11
-853.4487966633629
 21
288.9559152771936
 31
0.0
  0
LINE
  5
3AB
330
1F
100
AcDbEntity
  8
0-5
  6
Continuous
 62
     7
370
    13
100
AcDbLine
 10
-465.1122851029743
 20
-437.2320845512482
 30
0.0
 11
-801.5392623121171
 21
-437.2320845512482
 31
0.0
  0
TEXT
  5
3AC
330
1F
100
AcDbEntity
  8
0-5
  6
Continuous
 62
     7
370
    13
100
AcDbText
 10
-733.3253942998176
 20
-470.2213640724686
 30
0.0
 40
22.86
  1
りん酸塩被膜
 41
1.138888888888889
  7
ＭＳ ゴシック
100
AcDbText
  0
TEXT
  5
3AD
330
1F
100
AcDbEntity
  8
0-5
  6
Continuous
 62
     7
370
    13
100
AcDbText
 10
-793.9516727389014
 20
372.3181603152004
 30
0.0
 40
22.86
  1
Ｍ６×１２
 41
1.133333333333333
  7
ＭＳ ゴシック
100
AcDbText
  0
TEXT
  5
3AE
330
1F
100
AcDbEntity
  8
0-5
  6
Continuous
 62
     7
370
    13
100
AcDbText
 10
-763.1138662434411
 20
256.2357265630889
 30
0.0
 40
22.86
  1
Ｍ８×４０
 41
1.133333333333333
  7
ＭＳ ゴシック
100
AcDbText
  0
TEXT
  5
3AF
330
1F
100
AcDbEntity
  8
0-5
  6
Continuous
 62
     7
370
    13
100
AcDbText
 10
-905.8871016675859
 20
426.3840090007999
 30
0.0
 40
22.86
  1
丸小ネジ：ＳＵＳ３０４
 41
1.151515151515152
  7
ＭＳ ゴシック
100
AcDbText
  0
TEXT
  5
3B0
330
1F
100
AcDbEntity
  8
0-5
  6
Continuous
 62
     7
370
    13
100
AcDbText
 10
-847.4559155070602
 20
303.9408871680298
 30
0.0
 40
22.86
  1
ボルト：ＳＵＳ３０４
 41
1.15
  7
ＭＳ ゴシック
100
AcDbText
  0
TEXT
  5
3B1
330
1F
100
AcDbEntity
  8
0-5
  6
Continuous
 62
     7
370
    13
100
AcDbText
 10
-822.2049207989731
 20
-304.3289228641704
 30
0.0
 40
22.86
  1
本体：ＳＣＳ１３
 41
1.145833333333333
  7
ＭＳ ゴシック
100
AcDbText
  0
TEXT
  5
3B2
330
1F
100
AcDbEntity
  8
0-5
  6
Continuous
 62
     7
370
    13
100
AcDbText
 10
-739.6674501618321
 20
-349.240982751206
 30
0.0
 40
22.86
  1
酸洗・
 41
1.111111111111111
  7
ＭＳ ゴシック
100
AcDbText
  0
TEXT
  5
3B3
330
1F
100
AcDbEntity
  8
0-5
  6
Continuous
 62
     7
370
    13
100
AcDbText
 10
-790.4347651758208
 20
-424.1801125548378
 30
0.0
 40
22.86
  1
アンカー：ＳＷＲＭ
 41
1.148148148148148
  7
ＭＳ ゴシック
100
AcDbText
  0
LINE
  5
3B4
330
1F
100
AcDbEntity
  8
0-5
  6
Continuous
 62
     7
370
    13
100
AcDbLine
 10
204.1697517556617
 20
-144.3772805895716
 30
0.0
 11
359.1874693618557
 21
281.5303981488395
 31
0.0
  0
LINE
  5
3B5
330
1F
100
AcDbEntity
  8
0-5
  6
Continuous
 62
     7
370
    13
100
AcDbLine
 10
204.1697517556617
 20
-144.3772805895716
 30
0.0
 11
209.5807421041142
 21
-119.9698804115733
 31
0.0
  0
LINE
  5
3B6
330
1F
100
AcDbEntity
  8
0-5
  6
Continuous
 62
     7
370
    13
100
AcDbLine
 10
204.1697517556617
 20
-144.3772805895716
 30
0.0
 11
215.7134670865375
 21
-122.2020097601161
 31
0.0
  0
LINE
  5
3B7
330
1F
100
AcDbEntity
  8
0-5
  6
Continuous
 62
     7
370
    13
100
AcDbLine
 10
172.5713914785586
 20
-127.7826977834748
 30
0.0
 11
374.3862071164425
 21
426.6989510930086
 31
0.0
  0
LINE
  5
3B8
330
1F
100
AcDbEntity
  8
0-5
  6
Continuous
 62
     7
370
    13
100
AcDbLine
 10
172.5713914785586
 20
-127.7826977834748
 30
0.0
 11
177.9823818270112
 21
-103.3752976054764
 31
0.0
  0
LINE
  5
3B9
330
1F
100
AcDbEntity
  8
0-5
  6
Continuous
 62
     7
370
    13
100
AcDbLine
 10
172.5713914785586
 20
-127.7826977834748
 30
0.0
 11
184.1151068094345
 21
-105.6074269540192
 31
0.0
  0
LINE
  5
3BA
330
1F
100
AcDbEntity
  8
0-5
  6
Continuous
 62
     7
370
    13
100
AcDbLine
 10
114.1694548278744
 20
68.95593177318162
 30
0.0
 11
119.580445176327
 21
93.36333195117994
 31
0.0
  0
LINE
  5
3BB
330
1F
100
AcDbEntity
  8
0-5
  6
Continuous
 62
     7
370
    13
100
AcDbLine
 10
114.1694548278744
 20
68.95593177318162
 30
0.0
 11
125.7131701587502
 21
91.13120260263716
 31
0.0
  0
TEXT
  5
3BC
330
1F
100
AcDbEntity
  8
0-5
  6
Continuous
 62
     7
370
    13
100
AcDbText
 10
372.872661845047
 20
439.7749247522146
 30
0.0
 40
22.86
  1
丸小ネジ：ＳＵＳ３０４
  7
ＭＳ ゴシック
100
AcDbText
  0
TEXT
  5
3BD
330
1F
100
AcDbEntity
  8
0-5
  6
Continuous
 62
     7
370
    13
100
AcDbText
 10
450.1157144713798
 20
393.5186480287138
 30
0.0
 40
22.86
  1
Ｍ６×１２
 41
1.133333333333333
  7
ＭＳ ゴシック
100
AcDbText
  0
LINE
  5
3BE
330
1F
100
AcDbEntity
  8
0-5
  6
Continuous
 62
     7
370
    13
100
AcDbLine
 10
374.3862071164425
 20
426.6989510930086
 30
0.0
 11
695.018662144081
 21
426.6989510930086
 31
0.0
  0
LINE
  5
3BF
330
1F
100
AcDbEntity
  8
0-5
  6
Continuous
 62
     7
370
    13
100
AcDbLine
 10
337.1002805510586
 20
-31.0446565407716
 30
0.0
 11
412.3049021774488
 21
175.5783432163639
 31
0.0
  0
LINE
  5
3C0
330
1F
100
AcDbEntity
  8
0-5
  6
Continuous
 62
     7
370
    13
100
AcDbLine
 10
337.1002805510586
 20
-31.0446565407716
 30
0.0
 11
342.5112708995113
 21
-6.637256362773263
 31
0.0
  0
LINE
  5
3C1
330
1F
100
AcDbEntity
  8
0-5
  6
Continuous
 62
     7
370
    13
100
AcDbLine
 10
337.1002805510586
 20
-31.0446565407716
 30
0.0
 11
348.6439958819345
 21
-8.869385711316058
 31
0.0
  0
TEXT
  5
3C2
330
1F
100
AcDbEntity
  8
0-5
  6
Continuous
 62
     7
370
    13
100
AcDbText
 10
403.2476973776179
 20
188.775067509016
 30
0.0
 40
22.86
  1
断熱材押え：ＳＣＳ１３
 41
0.9999999999999998
  7
ＭＳ ゴシック
100
AcDbText
  0
LINE
  5
3C3
330
1F
100
AcDbEntity
  8
0-5
  6
Continuous
 62
     7
370
    13
100
AcDbLine
 10
412.3049021774488
 20
175.5783432163639
 30
0.0
 11
735.7271448698048
 21
175.5783432163639
 31
0.0
  0
TEXT
  5
3C4
330
1F
100
AcDbEntity
  8
0-5
  6
Continuous
 62
     7
370
    13
100
AcDbText
 10
524.2721379348908
 20
138.2979622910048
 30
0.0
 40
22.86
  1
酸洗・
 41
1.111111111111111
  7
ＭＳ ゴシック
100
AcDbText
  0
TEXT
  5
3C5
330
1F
100
AcDbEntity
  8
0-5
  6
Continuous
 62
     7
370
    13
100
AcDbText
 10
444.7581955518046
 20
517.8298528930819
 30
0.0
 40
22.86
  1
酸洗・
 41
1.111111111111111
  7
ＭＳ ゴシック
100
AcDbText
  0
TEXT
  5
3C6
330
1F
100
AcDbEntity
  8
0-5
  6
Continuous
 62
     7
370
    13
100
AcDbText
 10
308.9608949553096
 20
569.7557182726215
 30
0.0
 40
22.86
  1
ストレーナー：ＳＣＳ１３
 41
1.152777777777778
  7
ＭＳ ゴシック
100
AcDbText
  0
LINE
  5
3C7
330
1F
100
AcDbEntity
  8
0-5
  6
Continuous
 62
     7
370
    13
100
AcDbLine
 10
114.1694548278744
 20
68.95593177318162
 30
0.0
 11
291.2455579701555
 21
555.4685266816166
 31
0.0
  0
LINE
  5
3C8
330
1F
100
AcDbEntity
  8
0-5
  6
Continuous
 62
     7
370
    13
100
AcDbLine
 10
291.2455579701555
 20
555.4685266816166
 30
0.0
 11
723.6171433057111
 21
555.4685266816166
 31
0.0
  0
LINE
  5
3C9
330
1F
100
AcDbEntity
  8
0-5
  6
Continuous
 62
     7
370
    13
100
AcDbLine
 10
-404.163774030867
 20
-91.04434865861727
 30
0.0
 11
-419.3828077618636
 21
-71.21056223547534
 31
0.0
  0
LINE
  5
3CA
330
1F
100
AcDbEntity
  8
0-5
  6
Continuous
 62
     7
370
    13
100
AcDbLine
 10
-404.163774030867
 20
-91.04434865861727
 30
0.0
 11
-413.7309110531433
 21
-67.94732585456309
 31
0.0
  0
TEXT
  5
3CB
330
1F
100
AcDbEntity
  8
0-5
  6
Continuous
 62
     7
370
    13
100
AcDbText
 10
-906.3095721654199
 20
170.1551599054086
 30
0.0
 40
22.86
  1
ボルト：ＳＵＳ３０４
 41
1.15
  7
ＭＳ ゴシック
100
AcDbText
  0
LINE
  5
3CC
330
1F
100
AcDbEntity
  8
0-5
  6
Continuous
 62
     7
370
    13
100
AcDbLine
 10
-546.31586140862
 20
155.1701880145724
 30
0.0
 11
-912.3024533217226
 21
155.1701880145724
 31
0.0
  0
LINE
  5
3CD
330
1F
100
AcDbEntity
  8
0-5
  6
Continuous
 62
     7
370
    13
100
AcDbLine
 10
-404.163774030867
 20
-91.04434865861727
 30
0.0
 11
-546.31586140862
 21
155.1701880145724
 31
0.0
  0
TEXT
  5
3CE
330
1F
100
AcDbEntity
  8
0-5
  6
Continuous
 62
     7
370
    13
100
AcDbText
 10
-821.9675229018007
 20
122.4499993004677
 30
0.0
 40
22.86
  1
Ｍ８×５０
 41
1.133333333333333
  7
ＭＳ ゴシック
100
AcDbText
  0
TEXT
  5
3CF
330
1F
100
AcDbEntity
  8
0-5
  6
Continuous
 62
     7
370
    13
100
AcDbText
 10
368.3479472836251
 20
294.7271224414916
 30
0.0
 40
22.86
  1
防水層押え：ＳＣＳ１３
 41
1.151515151515152
  7
ＭＳ ゴシック
100
AcDbText
  0
TEXT
  5
3D0
330
1F
100
AcDbEntity
  8
0-5
  6
Continuous
 62
     7
370
    13
100
AcDbText
 10
489.7572985294021
 20
244.2500172234804
 30
0.0
 40
22.86
  1
酸洗・
 41
1.111111111111111
  7
ＭＳ ゴシック
100
AcDbText
  0
LINE
  5
3D1
330
1F
100
AcDbEntity
  8
0-5
  6
Continuous
 62
     7
370
    13
100
AcDbLine
 10
359.1874693618557
 20
281.5303981488395
 30
0.0
 11
746.6336924404031
 21
281.5303981488395
 31
0.0
  0
LINE
  5
3D2
330
1F
100
AcDbEntity
  8
0-4
  6
Continuous
 62
     7
370
    13
100
AcDbLine
 10
-457.4969534016441
 20
-769.703968521204
 30
0.0
 11
292.5032940381786
 21
-769.703968521204
 31
0.0
  0
LINE
  5
3D3
330
1F
100
AcDbEntity
  8
0-4
  6
Continuous
 62
     7
370
    13
100
AcDbLine
 10
-457.4969534016441
 20
-769.703968521204
 30
0.0
 11
-432.7108318672988
 21
-766.4408137157027
 31
0.0
  0
LINE
  5
3D4
330
1F
100
AcDbEntity
  8
0-4
  6
Continuous
 62
     7
370
    13
100
AcDbLine
 10
-457.4969534016441
 20
-769.703968521204
 30
0.0
 11
-432.7108318672988
 21
-772.9671233267054
 31
0.0
  0
LINE
  5
3D5
330
1F
100
AcDbEntity
  8
0-4
  6
Continuous
 62
     7
370
    13
100
AcDbLine
 10
292.5032940381786
 20
-769.703968521204
 30
0.0
 11
267.7171725038334
 21
-766.4408137157027
 31
0.0
  0
LINE
  5
3D6
330
1F
100
AcDbEntity
  8
0-4
  6
Continuous
 62
     7
370
    13
100
AcDbLine
 10
292.5032940381786
 20
-769.703968521204
 30
0.0
 11
267.7171725038334
 21
-772.9671233267054
 31
0.0
  0
TEXT
  5
3D7
330
1F
100
AcDbEntity
  8
0-4
  6
Continuous
 62
     2
370
   211
100
AcDbText
 10
-137.4968296817327
 20
-754.0639685212041
 30
0.0
 40
30.48
  1
φ225
 41
1.1
  7
ＭＳ ゴシック
100
AcDbText
  0
LINE
  5
3D8
330
1F
100
AcDbEntity
  8
0-4
  6
Continuous
 62
     7
370
    13
100
AcDbLine
 10
292.5032940381786
 20
-772.7039685212039
 30
0.0
 11
292.5032940381786
 21
-194.3188407206475
 31
0.0
  0
TEXT
  5
3D9
330
1F
100
AcDbEntity
  8
F-4
  6
Continuous
 62
     6
370
    13
100
AcDbText
 10
-71.94086563704452
 20
-1125.860357507741
 30
0.0
 40
30.48
  1
ステンレス鋳鋼製　たて引き用　打込型　外断熱用
 41
0.7978260869565217
  7
ＭＳ ゴシック
100
AcDbText
  0
TEXT
  5
3DA
330
1F
100
AcDbEntity
  8
F-4
  6
Continuous
 62
     6
370
    13
100
AcDbText
 10
-144.5871607155047
 20
-1172.667197362892
 30
0.0
 40
30.48
  1
差し込み式　ルーフドレイン　ＥＳＳＢＷ－１－１００　Ｃ＝１２０
 41
0.7499999999999999
  7
ＭＳ ゴシック
100
AcDbText
  0
TEXT
  5
3DB
330
1F
100
AcDbEntity
  8
0-5
  6
Continuous
 62
     7
370
    13
100
AcDbText
 10
-645.8753317800226
 20
-543.4153008070548
 30
0.0
 40
22.86
  1
スペーサー
 41
1.133333333333333
  7
ＭＳ ゴシック
100
AcDbText
  0
TEXT
  5
3DC
330
1F
100
AcDbEntity
  8
0-5
  6
Continuous
 62
     7
370
    13
100
AcDbText
 10
-738.6901977635662
 20
-594.0277441898063
 30
0.0
 40
22.86
  1
硬質ポリ塩化ビニル管
 41
1.15
  7
ＭＳ ゴシック
100
AcDbText
  0
LINE
  5
3DD
330
1F
100
AcDbEntity
  8
0-5
  6
Continuous
 62
     7
370
    13
100
AcDbLine
 10
-392.6178607469777
 20
-557.2321092952304
 30
0.0
 11
-743.1249536558119
 21
-557.2321092952304
 31
0.0
  0
LINE
  5
3DE
330
1F
100
AcDbEntity
  8
0-4
  6
Continuous
 62
     7
370
    13
100
AcDbLine
 10
-457.4969534016441
 20
-772.7039685212039
 30
0.0
 11
-457.4969534016441
 21
-612.7468701718473
 31
0.0
  0
LINE
  5
3DF
330
1F
100
AcDbEntity
  8
0-4
  6
Continuous
 62
     7
370
    13
100
AcDbLine
 10
-457.4969534016441
 20
-508.7588996035976
 30
0.0
 11
-457.4969534016441
 21
-194.3188407206475
 31
0.0
  0
LINE
  5
3E0
330
1F
100
AcDbEntity
  8
0-0
  6
Continuous
 62
     3
370
    13
100
AcDbLine
 10
64.51637549107005
 20
-219.5564270211595
 30
0.0
 11
-229.5106021822608
 21
-219.5564270211595
 31
0.0
  0
LINE
  5
3E1
330
1F
100
AcDbEntity
  8
0-1
  6
Continuous
 62
     3
370
    13
100
AcDbLine
 10
-254.4969517520454
 20
-225.5655031138538
 30
0.0
 11
-277.1635529846256
 21
-225.5655031138538
 31
0.0
  0
LINE
  5
3E2
330
1F
100
AcDbEntity
  8
0-1
  6
Continuous
 62
     4
370
    13
100
AcDbLine
 10
-252.2420326483714
 20
-219.9773221594619
 30
0.0
 11
-279.4184720882996
 21
-219.9773221594619
 31
0.0
  0
LINE
  5
3E3
330
1F
100
AcDbEntity
  8
0-1
  6
Continuous
 62
     4
370
    13
100
AcDbLine
 10
-279.4184720882996
 20
-219.9773221594619
 30
0.0
 11
-277.1635529846256
 21
-222.2319938233133
 31
0.0
  0
LINE
  5
3E4
330
1F
100
AcDbEntity
  8
0-1
  6
Continuous
 62
     4
370
    13
100
AcDbLine
 10
-277.1635529846256
 20
-222.2319938233133
 30
0.0
 11
-254.4969517520454
 21
-222.2319938233133
 31
0.0
  0
LINE
  5
3E5
330
1F
100
AcDbEntity
  8
0-1
  6
Continuous
 62
     4
370
    13
100
AcDbLine
 10
-254.4969517520454
 20
-222.2319938233133
 30
0.0
 11
-252.2420326483714
 21
-219.9773221594619
 31
0.0
  0
LINE
  5
3E6
330
1F
100
AcDbEntity
  8
0-1
  6
Continuous
 62
     4
370
    13
100
AcDbLine
 10
-290.8302729883206
 20
-163.4499421182879
 30
0.0
 11
-290.8302729883206
 21
-182.7109053520294
 31
0.0
  0
LINE
  5
3E7
330
1F
100
AcDbEntity
  8
0-1
  6
Continuous
 62
     4
370
    13
100
AcDbLine
 10
-240.8301080284389
 20
-163.4499421182879
 30
0.0
 11
-240.8301080284389
 21
-182.7109053520294
 31
0.0
  0
LINE
  5
3E8
330
1F
100
AcDbEntity
  8
0-1
  6
Continuous
 62
     4
370
    13
100
AcDbLine
 10
-290.8302729883206
 20
-182.7109053520294
 30
0.0
 11
-240.8301080284389
 21
-182.7109053520294
 31
0.0
  0
LINE
  5
3E9
330
1F
100
AcDbEntity
  8
0-1
  6
Continuous
 62
     4
370
    13
100
AcDbLine
 10
-284.5754891517498
 20
-161.0440847228065
 30
0.0
 11
-247.08489186501
 21
-161.0440847228065
 31
0.0
  0
LINE
  5
3EA
330
1F
100
AcDbEntity
  8
0-1
  6
Continuous
 62
     4
370
    13
100
AcDbLine
 10
-277.1635529846256
 20
-182.7109053520294
 30
0.0
 11
-277.1635529846256
 21
-222.2319938233133
 31
0.0
  0
LINE
  5
3EB
330
1F
100
AcDbEntity
  8
0-1
  6
Continuous
 62
     4
370
    13
100
AcDbLine
 10
-279.4184720882996
 20
-182.7109053520294
 30
0.0
 11
-279.4184720882996
 21
-219.9773221594619
 31
0.0
  0
LINE
  5
3EC
330
1F
100
AcDbEntity
  8
0-1
  6
Continuous
 62
     4
370
    13
100
AcDbLine
 10
-254.4969517520454
 20
-182.7109053520294
 30
0.0
 11
-254.4969517520454
 21
-222.2319938233133
 31
0.0
  0
LINE
  5
3ED
330
1F
100
AcDbEntity
  8
0-1
  6
Continuous
 62
     4
370
    13
100
AcDbLine
 10
-252.2420326483714
 20
-182.7109053520294
 30
0.0
 11
-252.2420326483714
 21
-219.9773221594619
 31
0.0
  0
LINE
  5
3EE
330
1F
100
AcDbEntity
  8
0-1
  6
Continuous
 62
     4
370
    13
100
AcDbLine
 10
-252.4968956656855
 20
-91.15371706022202
 30
0.0
 11
-279.163485351074
 21
-91.15371706022202
 31
0.0
  0
LINE
  5
3EF
330
1F
100
AcDbEntity
  8
0-1
  6
Continuous
 62
     4
370
    13
100
AcDbLine
 10
-279.163485351074
 20
-91.15371706022202
 30
0.0
 11
-276.9085662474001
 21
-88.89879795654807
 31
0.0
  0
LINE
  5
3F0
330
1F
100
AcDbEntity
  8
0-1
  6
Continuous
 62
     4
370
    13
100
AcDbLine
 10
-276.9085662474001
 20
-88.89879795654807
 30
0.0
 11
-254.7518147693594
 21
-88.89879795654807
 31
0.0
  0
LINE
  5
3F1
330
1F
100
AcDbEntity
  8
0-1
  6
Continuous
 62
     4
370
    13
100
AcDbLine
 10
-254.7518147693594
 20
-88.89879795654807
 30
0.0
 11
-252.4968956656855
 21
-91.15371706022202
 31
0.0
  0
LINE
  5
3F2
330
1F
100
AcDbEntity
  8
0-1
  6
Continuous
 62
     4
370
    13
100
AcDbLine
 10
-276.9085662474001
 20
-161.0440847228065
 30
0.0
 11
-276.9085662474001
 21
-88.89879795654807
 31
0.0
  0
LINE
  5
3F3
330
1F
100
AcDbEntity
  8
0-1
  6
Continuous
 62
     4
370
    13
100
AcDbLine
 10
-279.163485351074
 20
-161.0440847228065
 30
0.0
 11
-279.163485351074
 21
-91.15371706022202
 31
0.0
  0
LINE
  5
3F4
330
1F
100
AcDbEntity
  8
0-1
  6
Continuous
 62
     4
370
    13
100
AcDbLine
 10
-254.7518147693594
 20
-161.0440847228065
 30
0.0
 11
-254.7518147693594
 21
-88.89879795654807
 31
0.0
  0
LINE
  5
3F5
330
1F
100
AcDbEntity
  8
0-1
  6
Continuous
 62
     4
370
    13
100
AcDbLine
 10
-252.4968956656855
 20
-161.0440847228065
 30
0.0
 11
-252.4968956656855
 21
-91.15371706022202
 31
0.0
  0
LINE
  5
3F6
330
1F
100
AcDbEntity
  8
0-1
  6
Continuous
 62
     3
370
    13
100
AcDbLine
 10
-254.4969517520454
 20
-222.2319938233133
 30
0.0
 11
-254.4969517520454
 21
-225.5655031138538
 31
0.0
  0
LINE
  5
3F7
330
1F
100
AcDbEntity
  8
0-1
  6
Continuous
 62
     3
370
    13
100
AcDbLine
 10
-277.1635529846256
 20
-222.2319938233133
 30
0.0
 11
-277.1635529846256
 21
-225.5655031138538
 31
0.0
  0
LINE
  5
3F8
330
1F
100
AcDbEntity
  8
0-1
  6
Continuous
 62
     4
370
    13
100
AcDbLine
 10
-253.3395519816696
 20
-163.4496946784652
 30
0.0
 11
-253.3395519816696
 21
-182.7109053520294
 31
0.0
  0
LINE
  5
3F9
330
1F
100
AcDbEntity
  8
0-1
  6
Continuous
 62
     4
370
    13
100
AcDbLine
 10
-278.3208290350902
 20
-163.4499421182879
 30
0.0
 11
-278.3208290350902
 21
-182.7109053520294
 31
0.0
  0
LINE
  5
3FA
330
1F
100
AcDbEntity
  8
0-1
  6
JWW_CENTER1
 62
     4
370
    13
100
AcDbLine
 10
-265.8301905083798
 20
-83.56213958186473
 30
0.0
 11
-265.8301905083798
 21
-232.2320268152896
 31
0.0
  0
ARC
  5
3FB
330
1F
100
AcDbEntity
  8
0-1
  6
Continuous
 62
     4
370
    13
100
AcDbCircle
 10
-284.5754891517498
 20
-170.3782571520716
 30
0.0
 40
9.333911457577267
100
AcDbArc
 50
47.92556762695313
 51
132.0746307373047
  0
ARC
  5
3FC
330
1F
100
AcDbEntity
  8
0-1
  6
Continuous
 62
     4
370
    13
100
AcDbCircle
 10
-265.8301905083798
 20
-194.6756105357288
 30
0.0
 40
33.63136729678592
100
AcDbArc
 50
68.19786071777344
 51
111.8021392822266
  0
ARC
  5
3FD
330
1F
100
AcDbEntity
  8
0-1
  6
Continuous
 62
     4
370
    13
100
AcDbCircle
 10
-247.08489186501
 20
-170.3782571520716
 30
0.0
 40
9.33396558503847
100
AcDbArc
 50
47.92572021484374
 51
132.0742797851562
  0
LINE
  5
3FE
330
1F
100
AcDbEntity
  8
0-0
  6
Continuous
 62
     4
370
    13
100
AcDbLine
 10
-360.9969072128771
 20
-213.8987154766072
 30
0.0
 11
-363.9968676225055
 21
-216.8989233260582
 31
0.0
  0
LINE
  5
3FF
330
1F
100
AcDbEntity
  8
0-0
  6
Continuous
 62
     4
370
    13
100
AcDbLine
 10
-343.9969253584641
 20
-213.8987154766072
 30
0.0
 11
-360.9969072128771
 21
-213.8987154766072
 31
0.0
  0
LINE
  5
400
330
1F
100
AcDbEntity
  8
0-0
  6
Continuous
 62
     4
370
    13
100
AcDbLine
 10
-343.9969253584641
 20
-213.8987154766072
 30
0.0
 11
-340.9969649488357
 21
-216.8989233260582
 31
0.0
  0
LINE
  5
401
330
1F
100
AcDbEntity
  8
0-0
  6
JWW_CENTER1
 62
     4
370
    13
100
AcDbLine
 10
-352.4968544257152
 20
-290.5654701218775
 30
0.0
 11
-352.4968544257152
 21
-203.790056402494
 31
0.0
  0
LINE
  5
402
330
1F
100
AcDbEntity
  8
0-0
  6
Continuous
 62
     4
370
    13
100
AcDbLine
 10
-363.9968676225055
 20
-216.8989233260582
 30
0.0
 11
-340.9969649488357
 21
-216.8989233260582
 31
0.0
  0
LINE
  5
403
330
1F
100
AcDbEntity
  8
0-0
  6
Continuous
 62
     4
370
    13
100
AcDbLine
 10
-343.9969253584641
 20
-213.8987154766072
 30
0.0
 11
-343.9969253584641
 21
-247.2320763032542
 31
0.0
  0
LINE
  5
404
330
1F
100
AcDbEntity
  8
0-0
  6
Continuous
 62
     4
370
    13
100
AcDbLine
 10
-360.9969072128771
 20
-247.2320763032542
 30
0.0
 11
-360.9969072128771
 21
-213.8987154766072
 31
0.0
  0
LINE
  5
405
330
1F
100
AcDbEntity
  8
0-0
  6
Continuous
 62
     4
370
    13
100
AcDbLine
 10
-363.9968676225055
 20
-247.2320763032542
 30
0.0
 11
-363.9968676225055
 21
-216.8989233260582
 31
0.0
  0
LINE
  5
406
330
1F
100
AcDbEntity
  8
0-0
  6
Continuous
 62
     4
370
    13
100
AcDbLine
 10
-342.4969451536501
 20
-290.5654701218775
 30
0.0
 11
-342.4969451536501
 21
-247.2320763032542
 31
0.0
  0
LINE
  5
407
330
1F
100
AcDbEntity
  8
0-0
  6
Continuous
 62
     4
370
    13
100
AcDbLine
 10
-340.9969649488357
 20
-216.8989233260582
 30
0.0
 11
-340.9969649488357
 21
-247.2320763032542
 31
0.0
  0
LINE
  5
408
330
1F
100
AcDbEntity
  8
0-0
  6
Continuous
 62
     4
370
    13
100
AcDbLine
 10
-363.9968676225055
 20
-247.2320763032542
 30
0.0
 11
-340.9969649488357
 21
-247.2320763032542
 31
0.0
  0
LINE
  5
409
330
1F
100
AcDbEntity
  8
0-0
  6
Continuous
 62
     4
370
    13
100
AcDbLine
 10
-362.4968874176915
 20
-290.5654701218775
 30
0.0
 11
-362.4968874176915
 21
-247.2320763032542
 31
0.0
  0
LINE
  5
40A
330
1F
100
AcDbEntity
  8
0-0
  6
Continuous
 62
     4
370
    13
100
AcDbLine
 10
-369.1635348390386
 20
-297.2319938233133
 30
0.0
 11
-395.8302482443383
 21
-297.2319938233133
 31
0.0
  0
LINE
  5
40B
330
1F
100
AcDbEntity
  8
0-0
  6
Continuous
 62
     4
370
    13
100
AcDbLine
 10
-395.8302482443383
 20
-317.2320598072659
 30
0.0
 11
-395.8302482443383
 21
-297.2319938233133
 31
0.0
  0
LINE
  5
40C
330
1F
100
AcDbEntity
  8
0-0
  6
Continuous
 62
     4
370
    13
100
AcDbLine
 10
-369.1635348390386
 20
-317.2320598072659
 30
0.0
 11
-395.8302482443383
 21
-317.2320598072659
 31
0.0
  0
LINE
  5
40D
330
1F
100
AcDbEntity
  8
0-0
  6
JWW_CENTER1
 62
     4
370
    13
100
AcDbLine
 10
-401.7110267889964
 20
-307.2322742551123
 30
0.0
 11
-369.1635348390386
 21
-307.2322742551123
 31
0.0
  0
ARC
  5
40E
330
1F
100
AcDbEntity
  8
0-0
  6
Continuous
 62
     4
370
    13
100
AcDbCircle
 10
-369.1635348390386
 20
-290.5654701218775
 30
0.0
 40
6.666666752583272
100
AcDbArc
 50
270.0
 51
0.0
  0
ARC
  5
40F
330
1F
100
AcDbEntity
  8
0-0
  6
JWW_CENTER1
 62
     4
370
    13
100
AcDbCircle
 10
-369.1635348390386
 20
-290.5654701218775
 30
0.0
 40
6.666666752583272
100
AcDbArc
 50
270.0
 51
0.0
  0
ARC
  5
410
330
1F
100
AcDbEntity
  8
0-0
  6
JWW_CENTER1
 62
     4
370
    13
100
AcDbCircle
 10
-369.1635348390386
 20
-290.5654701218775
 30
0.0
 40
16.66666688145818
100
AcDbArc
 50
270.0
 51
0.0
  0
ARC
  5
411
330
1F
100
AcDbEntity
  8
0-0
  6
Continuous
 62
     4
370
    13
100
AcDbCircle
 10
-369.1635348390386
 20
-290.5654701218775
 30
0.0
 40
26.66666701033309
100
AcDbArc
 50
270.0
 51
0.0
  0
ENDSEC
  0
SECTION
  2
OBJECTS
  0
DICTIONARY
  5
C
330
0
100
AcDbDictionary
281
     1
  3
ACAD_GROUP
350
D
  3
ACAD_LAYOUT
350
1A
  3
ACAD_MLEADERSTYLE
350
413
  3
ACAD_MLINESTYLE
350
17
  3
ACAD_PLOTSETTINGS
350
19
  3
ACAD_PLOTSTYLENAME
350
E
  3
ACAD_TABLESTYLE
350
412
  3
ACAD_VISUALSTYLE
350
2A
  0
DICTIONARY
  5
D
102
{ACAD_REACTORS
330
C
102
}
330
C
100
AcDbDictionary
281
     1
  0
DICTIONARY
  5
1A
102
{ACAD_REACTORS
330
C
102
}
330
C
100
AcDbDictionary
281
     1
  3
Layout1
350
1E
  3
Layout2
350
26
  3
Model
350
22
  0
DICTIONARY
  5
413
102
{ACAD_REACTORS
330
C
102
}
330
C
100
AcDbDictionary
281
     1
  0
DICTIONARY
  5
17
102
{ACAD_REACTORS
330
C
102
}
330
C
100
AcDbDictionary
281
     1
  3
Standard
350
18
  0
DICTIONARY
  5
19
102
{ACAD_REACTORS
330
C
102
}
330
C
100
AcDbDictionary
281
     1
  0
ACDBDICTIONARYWDFLT
  5
E
102
{ACAD_REACTORS
330
C
102
}
330
C
100
AcDbDictionary
281
     1
  3
Normal
350
F
100
AcDbDictionaryWithDefault
340
F
  0
DICTIONARY
  5
412
102
{ACAD_REACTORS
330
C
102
}
330
C
100
AcDbDictionary
281
     1
  0
DICTIONARY
  5
2A
102
{ACAD_REACTORS
330
C
102
}
330
C
100
AcDbDictionary
281
     1
  3
2dWireframe
350
2F
  3
3D Hidden
350
31
  3
3dWireframe
350
30
  3
Basic
350
32
  3
Brighten
350
36
  3
ColorChange
350
3A
  3
Conceptual
350
34
  3
Dim
350
35
  3
Facepattern
350
39
  3
Flat
350
2B
  3
FlatWithEdges
350
2C
  3
Gouraud
350
2D
  3
GouraudWithEdges
350
2E
  3
Linepattern
350
38
  3
Realistic
350
33
  3
Thicken
350
37
  0
LAYOUT
  5
1E
102
{ACAD_REACTORS
330
1A
102
}
330
1A
100
AcDbPlotSettings
  1

  2
none_device
  4

  6

 40
0.0
 41
0.0
 42
0.0
 43
0.0
 44
0.0
 45
0.0
 46
0.0
 47
0.0
 48
0.0
 49
0.0
140
0.0
141
0.0
142
1.0
143
1.0
 70
   688
 72
     0
 73
     0
 74
     5
  7

 75
    16
 76
     0
 77
     5
 78
   300
147
1.0
148
0.0
149
0.0
100
AcDbLayout
  1
Layout1
 70
     1
 71
     1
 10
0.0
 20
0.0
 11
420.0
 21
297.0
 12
0.0
 22
0.0
 32
0.0
 14
1.000000000000000E+20
 24
1.000000000000000E+20
 34
1.000000000000000E+20
 15
-1.000000000000000E+20
 25
-1.000000000000000E+20
 35
-1.000000000000000E+20
146
0.0
 13
0.0
 23
0.0
 33
0.0
 16
1.0
 26
0.0
 36
0.0
 17
0.0
 27
1.0
 37
0.0
 76
     0
330
1B
  0
LAYOUT
  5
26
102
{ACAD_REACTORS
330
1A
102
}
330
1A
100
AcDbPlotSettings
  1

  2
none_device
  4

  6

 40
0.0
 41
0.0
 42
0.0
 43
0.0
 44
0.0
 45
0.0
 46
0.0
 47
0.0
 48
0.0
 49
0.0
140
0.0
141
0.0
142
1.0
143
1.0
 70
   688
 72
     0
 73
     0
 74
     5
  7

 75
    16
 76
     0
 77
     5
 78
   300
147
1.0
148
0.0
149
0.0
100
AcDbLayout
  1
Layout2
 70
     1
 71
     2
 10
0.0
 20
0.0
 11
0.0
 21
0.0
 12
0.0
 22
0.0
 32
0.0
 14
0.0
 24
0.0
 34
0.0
 15
0.0
 25
0.0
 35
0.0
146
0.0
 13
0.0
 23
0.0
 33
0.0
 16
1.0
 26
0.0
 36
0.0
 17
0.0
 27
1.0
 37
0.0
 76
     0
330
23
  0
LAYOUT
  5
22
102
{ACAD_REACTORS
330
1A
102
}
330
1A
100
AcDbPlotSettings
  1

  2
none_device
  4

  6

 40
0.0
 41
0.0
 42
0.0
 43
0.0
 44
0.0
 45
0.0
 46
0.0
 47
0.0
 48
0.0
 49
0.0
140
0.0
141
0.0
142
1.0
143
1.0
 70
  1712
 72
     0
 73
     0
 74
     0
  7

 75
     0
 76
     0
 77
     5
 78
   300
147
1.0
148
0.0
149
0.0
100
AcDbLayout
  1
Model
 70
     1
 71
     0
 10
-2100.0
 20
-1485.0
 11
2100.0
 21
1485.0
 12
0.0
 22
0.0
 32
0.0
 14
-2100.0
 24
-1485.0
 34
0.0
 15
2100.0
 25
1485.0
 35
0.0
146
0.0
 13
0.0
 23
0.0
 33
0.0
 16
1.0
 26
0.0
 36
0.0
 17
0.0
 27
1.0
 37
0.0
 76
     0
330
1F
331
29
  0
MLINESTYLE
  5
18
102
{ACAD_REACTORS
330
17
102
}
330
17
100
AcDbMlineStyle
  2
Standard
 70
     0
  3

 62
   256
 51
90.0
 52
90.0
 71
     2
 49
0.5
 62
   256
  6
BYLAYER
 49
-0.5
 62
   256
  6
BYLAYER
  0
ACDBPLACEHOLDER
  5
F
102
{ACAD_REACTORS
330
E
102
}
330
E
  0
VISUALSTYLE
  5
2F
102
{ACAD_REACTORS
330
2A
102
}
330
2A
100
AcDbVisualStyle
  2
2dWireframe
 70
     4
 71
     0
 72
     2
 73
     0
 90
        0
 40
-0.6
 41
-30.0
 62
     5
 63
     7
421
 16777215
 74
     1
 91
        4
 64
     7
 65
   257
 75
     1
175
     1
 42
1.0
 92
        0
 66
   257
 43
1.0
 76
     1
 77
     6
 78
     2
 67
     7
 79
     5
170
     0
171
     0
290
     0
174
     0
 93
        1
 44
0.0
173
     0
291
     0
 45
0.0
1001
ACAD
1000
AcDbSavedByObjectVersion
1070
     0
  0
VISUALSTYLE
  5
31
102
{ACAD_REACTORS
330
2A
102
}
330
2A
100
AcDbVisualStyle
  2
3D Hidden
 70
     6
 71
     1
 72
     2
 73
     2
 90
        0
 40
-0.6
 41
-30.0
 62
     5
 63
     7
421
 16777215
 74
     2
 91
        2
 64
     7
 65
   257
 75
     2
175
     1
 42
40.0
 92
        0
 66
   257
 43
1.0
 76
     1
 77
     6
 78
     2
 67
     7
 79
     3
170
     0
171
     0
290
     0
174
     0
 93
        1
 44
0.0
173
     0
291
     0
 45
0.0
1001
ACAD
1000
AcDbSavedByObjectVersion
1070
     0
  0
VISUALSTYLE
  5
30
102
{ACAD_REACTORS
330
2A
102
}
330
2A
100
AcDbVisualStyle
  2
3dWireframe
 70
     5
 71
     0
 72
     2
 73
     0
 90
        0
 40
-0.6
 41
-30.0
 62
     5
 63
     7
421
 16777215
 74
     1
 91
        4
 64
     7
 65
   257
 75
     1
175
     1
 42
1.0
 92
        0
 66
   257
 43
1.0
 76
     1
 77
     6
 78
     2
 67
     7
 79
     5
170
     0
171
     0
290
     0
174
     0
 93
        1
 44
0.0
173
     0
291
     0
 45
0.0
1001
ACAD
1000
AcDbSavedByObjectVersion
1070
     0
  0
VISUALSTYLE
  5
32
102
{ACAD_REACTORS
330
2A
102
}
330
2A
100
AcDbVisualStyle
  2
Basic
 70
     7
 71
     1
 72
     0
 73
     1
 90
        0
 40
-0.6
 41
-30.0
 62
     5
 63
     7
421
 16777215
 74
     0
 91
        4
 64
     7
 65
   257
 75
     1
175
     1
 42
1.0
 92
        8
 66
     7
 43
1.0
 76
     1
 77
     6
 78
     2
 67
     7
 79
     5
170
     0
171
     0
290
     0
174
     0
 93
        1
 44
0.0
173
     0
291
     1
 45
0.0
1001
ACAD
1000
AcDbSavedByObjectVersion
1070
     0
  0
VISUALSTYLE
  5
36
102
{ACAD_REACTORS
330
2A
102
}
330
2A
100
AcDbVisualStyle
  2
Brighten
 70
    12
 71
     2
 72
     2
 73
     0
 90
        0
 40
-0.6
 41
-30.0
 62
     5
 63
     7
421
 16777215
 74
     1
 91
        4
 64
     7
 65
   257
 75
     1
175
     1
 42
1.0
 92
        8
 66
     7
 43
1.0
 76
     1
 77
     6
 78
     2
 67
     7
 79
     5
170
     0
171
     0
290
     0
174
     0
 93
        1
 44
50.0
173
     0
291
     1
 45
0.0
1001
ACAD
1000
AcDbSavedByObjectVersion
1070
     0
  0
VISUALSTYLE
  5
3A
102
{ACAD_REACTORS
330
2A
102
}
330
2A
100
AcDbVisualStyle
  2
ColorChange
 70
    16
 71
     2
 72
     2
 73
     3
 90
        0
 40
-0.6
 41
-30.0
 62
     5
 63
     8
421
  8421504
 74
     1
 91
        4
 64
     7
 65
   257
 75
     1
175
     1
 42
1.0
 92
        8
 66
     8
424
  8421504
 43
1.0
 76
     1
 77
     6
 78
     2
 67
     7
 79
     5
170
     0
171
     0
290
     0
174
     0
 93
        1
 44
0.0
173
     0
291
     1
 45
0.0
1001
ACAD
1000
AcDbSavedByObjectVersion
1070
     0
  0
VISUALSTYLE
  5
34
102
{ACAD_REACTORS
330
2A
102
}
330
2A
100
AcDbVisualStyle
  2
Conceptual
 70
     9
 71
     3
 72
     2
 73
     0
 90
        0
 40
-0.6
 41
-30.0
 62
     5
 63
     7
421
 16777215
 74
     2
 91
        2
 64
     7
 65
   257
 75
     1
175
     1
 42
40.0
 92
        8
 66
     7
 43
1.0
 76
     1
 77
     6
 78
     2
 67
     7
 79
     3
170
     0
171
     0
290
     0
174
     0
 93
        1
 44
0.0
173
     0
291
     0
 45
0.0
1001
ACAD
1000
AcDbSavedByObjectVersion
1070
     0
  0
VISUALSTYLE
  5
35
102
{ACAD_REACTORS
330
2A
102
}
330
2A
100
AcDbVisualStyle
  2
Dim
 70
    11
 71
     2
 72
     2
 73
     0
 90
        0
 40
-0.6
 41
-30.0
 62
     5
 63
     7
421
 16777215
 74
     1
 91
        4
 64
     7
 65
   257
 75
     1
175
     1
 42
1.0
 92
        8
 66
     7
 43
1.0
 76
     1
 77
     6
 78
     2
 67
     7
 79
     5
170
     0
171
     0
290
     0
174
     0
 93
        1
 44
-50.0
173
     0
291
     1
 45
0.0
1001
ACAD
1000
AcDbSavedByObjectVersion
1070
     0
  0
VISUALSTYLE
  5
39
102
{ACAD_REACTORS
330
2A
102
}
330
2A
100
AcDbVisualStyle
  2
Facepattern
 70
    15
 71
     2
 72
     2
 73
     0
 90
        0
 40
-0.6
 41
-30.0
 62
     5
 63
     7
421
 16777215
 74
     1
 91
        4
 64
     7
 65
   257
 75
     1
175
     1
 42
1.0
 92
        8
 66
     7
 43
1.0
 76
     1
 77
     6
 78
     2
 67
     7
 79
     5
170
     0
171
     0
290
     0
174
     0
 93
        1
 44
0.0
173
     0
291
     1
 45
0.0
1001
ACAD
1000
AcDbSavedByObjectVersion
1070
     0
  0
VISUALSTYLE
  5
2B
102
{ACAD_REACTORS
330
2A
102
}
330
2A
100
AcDbVisualStyle
  2
Flat
 70
     0
 71
     2
 72
     1
 73
     1
 90
        2
 40
-0.6
 41
30.0
 62
     5
 63
     7
421
 16777215
 74
     0
 91
        4
 64
     7
 65
   257
 75
     1
175
     1
 42
1.0
 92
        8
 66
     7
 43
1.0
 76
     1
 77
     6
 78
     2
 67
     7
 79
     5
170
     0
171
     0
290
     0
174
     0
 93
       13
 44
0.0
173
     0
291
     1
 45
0.0
1001
ACAD
1000
AcDbSavedByObjectVersion
1070
     0
  0
VISUALSTYLE
  5
2C
102
{ACAD_REACTORS
330
2A
102
}
330
2A
100
AcDbVisualStyle
  2
FlatWithEdges
 70
     1
 71
     2
 72
     1
 73
     1
 90
        2
 40
-0.6
 41
30.0
 62
     5
 63
     7
421
 16777215
 74
     1
 91
        4
 64
     7
 65
   257
 75
     1
175
     1
 42
1.0
 92
        0
 66
   257
 43
1.0
 76
     1
 77
     6
 78
     2
 67
     7
 79
     5
170
     0
171
     0
290
     0
174
     0
 93
       13
 44
0.0
173
     0
291
     1
 45
0.0
1001
ACAD
1000
AcDbSavedByObjectVersion
1070
     0
  0
VISUALSTYLE
  5
2D
102
{ACAD_REACTORS
330
2A
102
}
330
2A
100
AcDbVisualStyle
  2
Gouraud
 70
     2
 71
     2
 72
     2
 73
     1
 90
        2
 40
-0.6
 41
30.0
 62
     5
 63
     7
421
 16777215
 74
     0
 91
        4
 64
     7
 65
   257
 75
     1
175
     1
 42
1.0
 92
        0
 66
     7
 43
1.0
 76
     1
 77
     6
 78
     2
 67
     7
 79
     5
170
     0
171
     0
290
     0
174
     0
 93
       13
 44
0.0
173
     0
291
     1
 45
0.0
1001
ACAD
1000
AcDbSavedByObjectVersion
1070
     0
  0
VISUALSTYLE
  5
2E
102
{ACAD_REACTORS
330
2A
102
}
330
2A
100
AcDbVisualStyle
  2
GouraudWithEdges
 70
     3
 71
     2
 72
     2
 73
     1
 90
        2
 40
-0.6
 41
30.0
 62
     5
 63
     7
421
 16777215
 74
     1
 91
        4
 64
     7
 65
   257
 75
     1
175
     1
 42
1.0
 92
        0
 66
   257
 43
1.0
 76
     1
 77
     6
 78
     2
 67
     7
 79
     5
170
     0
171
     0
290
     0
174
     0
 93
       13
 44
0.0
173
     0
291
     1
 45
0.0
1001
ACAD
1000
AcDbSavedByObjectVersion
1070
     0
  0
VISUALSTYLE
  5
38
102
{ACAD_REACTORS
330
2A
102
}
330
2A
100
AcDbVisualStyle
  2
Linepattern
 70
    14
 71
     2
 72
     2
 73
     0
 90
        0
 40
-0.6
 41
-30.0
 62
     5
 63
     7
421
 16777215
 74
     1
 91
        4
 64
     7
 65
   257
 75
     7
175
     7
 42
1.0
 92
        8
 66
     7
 43
1.0
 76
     1
 77
     6
 78
     2
 67
     7
 79
     5
170
     0
171
     0
290
     0
174
     0
 93
        1
 44
0.0
173
     0
291
     1
 45
0.0
1001
ACAD
1000
AcDbSavedByObjectVersion
1070
     0
  0
VISUALSTYLE
  5
33
102
{ACAD_REACTORS
330
2A
102
}
330
2A
100
AcDbVisualStyle
  2
Realistic
 70
     8
 71
     2
 72
     2
 73
     0
 90
        0
 40
-0.6
 41
-30.0
 62
     5
 63
     7
421
 16777215
 74
     1
 91
        0
 64
     7
 65
   257
 75
     1
175
     1
 42
1.0
 92
        8
 66
     8
424
  7895160
 43
1.0
 76
     1
 77
     6
 78
     2
 67
     7
 79
     5
170
     0
171
     0
290
     0
174
     0
 93
       13
 44
0.0
173
     0
291
     0
 45
0.0
1001
ACAD
1000
AcDbSavedByObjectVersion
1070
     0
  0
VISUALSTYLE
  5
37
102
{ACAD_REACTORS
330
2A
102
}
330
2A
100
AcDbVisualStyle
  2
Thicken
 70
    13
 71
     2
 72
     2
 73
     0
 90
        0
 40
-0.6
 41
-30.0
 62
     5
 63
     7
421
 16777215
 74
     1
 91
        4
 64
     7
 65
   257
 75
     1
175
     1
 42
1.0
 92
       12
 66
     7
 43
1.0
 76
     1
 77
     6
 78
     2
 67
     7
 79
     5
170
     0
171
     0
290
     0
174
     0
 93
        1
 44
0.0
173
     0
291
     1
 45
0.0
1001
ACAD
1000
AcDbSavedByObjectVersion
1070
     0
  0
ENDSEC
  0
EOF
