  0
SECTION
  2
HEADER
  9
$ACADVER
  1
AC1018
  9
$ACADMAINTVER
 70
     0
  9
$DWGCODEPAGE
  3
ANSI_932
  9
$INSBASE
 10
0.0
 20
0.0
 30
0.0
  9
$EXTMIN
 10
-2100.0
 20
-1485.0
 30
0.0
  9
$EXTMAX
 10
2100.0
 20
1485.0
 30
0.0
  9
$LIMMIN
 10
-2100.0
 20
-1485.0
  9
$LIMMAX
 10
2100.0
 20
1485.0
  9
$ORTHOMODE
 70
     0
  9
$REGENMODE
 70
     1
  9
$FILLMODE
 70
     1
  9
$QTEXTMODE
 70
     0
  9
$MIRRTEXT
 70
     1
  9
$LTSCALE
 40
10.0
  9
$ATTMODE
 70
     1
  9
$TEXTSIZE
 40
2.5
  9
$TRACEWID
 40
1.0
  9
$TEXTSTYLE
  7
Standard
  9
$CLAYER
  8
0
  9
$CELTYPE
  6
ByLayer
  9
$CECOLOR
 62
   256
  9
$CELTSCALE
 40
1.0
  9
$DISPSILH
 70
     0
  9
$DIMSCALE
 40
1.0
  9
$DIMASZ
 40
2.5
  9
$DIMEXO
 40
0.625
  9
$DIMDLI
 40
3.75
  9
$DIMRND
 40
0.0
  9
$DIMDLE
 40
0.0
  9
$DIMEXE
 40
1.25
  9
$DIMTP
 40
0.0
  9
$DIMTM
 40
0.0
  9
$DIMTXT
 40
2.5
  9
$DIMCEN
 40
2.5
  9
$DIMTSZ
 40
0.0
  9
$DIMTOL
 70
     0
  9
$DIMLIM
 70
     0
  9
$DIMTIH
 70
     0
  9
$DIMTOH
 70
     0
  9
$DIMSE1
 70
     0
  9
$DIMSE2
 70
     0
  9
$DIMTAD
 70
     1
  9
$DIMZIN
 70
     8
  9
$DIMBLK
  1

  9
$DIMASO
 70
     1
  9
$DIMSHO
 70
     1
  9
$DIMPOST
  1

  9
$DIMAPOST
  1

  9
$DIMALT
 70
     0
  9
$DIMALTD
 70
     3
  9
$DIMALTF
 40
0.03937007874016
  9
$DIMLFAC
 40
1.0
  9
$DIMTOFL
 70
     1
  9
$DIMTVP
 40
0.0
  9
$DIMTIX
 70
     0
  9
$DIMSOXD
 70
     0
  9
$DIMSAH
 70
     0
  9
$DIMBLK1
  1

  9
$DIMBLK2
  1

  9
$DIMSTYLE
  2
ISO-25
  9
$DIMCLRD
 70
     0
  9
$DIMCLRE
 70
     0
  9
$DIMCLRT
 70
     0
  9
$DIMTFAC
 40
1.0
  9
$DIMGAP
 40
0.625
  9
$DIMJUST
 70
     0
  9
$DIMSD1
 70
     0
  9
$DIMSD2
 70
     0
  9
$DIMTOLJ
 70
     0
  9
$DIMTZIN
 70
     8
  9
$DIMALTZ
 70
     0
  9
$DIMALTTZ
 70
     0
  9
$DIMUPT
 70
     0
  9
$DIMDEC
 70
     2
  9
$DIMTDEC
 70
     2
  9
$DIMALTU
 70
     2
  9
$DIMALTTD
 70
     3
  9
$DIMTXSTY
  7
Standard
  9
$DIMAUNIT
 70
     0
  9
$DIMADEC
 70
     0
  9
$DIMALTRND
 40
0.0
  9
$DIMAZIN
 70
     0
  9
$DIMDSEP
 70
    44
  9
$DIMATFIT
 70
     3
  9
$DIMFRAC
 70
     0
  9
$DIMLDRBLK
  1

  9
$DIMLUNIT
 70
     2
  9
$DIMLWD
 70
    -2
  9
$DIMLWE
 70
    -2
  9
$DIMTMOVE
 70
     0
  9
$LUNITS
 70
     2
  9
$LUPREC
 70
     4
  9
$SKETCHINC
 40
1.0
  9
$FILLETRAD
 40
10.0
  9
$AUNITS
 70
     0
  9
$AUPREC
 70
     0
  9
$MENU
  1
.
  9
$ELEVATION
 40
0.0
  9
$PELEVATION
 40
0.0
  9
$THICKNESS
 40
0.0
  9
$LIMCHECK
 70
     0
  9
$CHAMFERA
 40
10.0
  9
$CHAMFERB
 40
10.0
  9
$CHAMFERC
 40
20.0
  9
$CHAMFERD
 40
0.0
  9
$SKPOLY
 70
     0
  9
$TDCREATE
 40
2456498.822312836
  9
$TDUCREATE
 40
2456498.447312836
  9
$TDUPDATE
 40
2456498.822312847
  9
$TDUUPDATE
 40
2456498.447312847
  9
$TDINDWG
 40
0.0000000116
  9
$TDUSRTIMER
 40
0.0000000116
  9
$USRTIMER
 70
     1
  9
$ANGBASE
 50
0.0
  9
$ANGDIR
 70
     0
  9
$PDMODE
 70
     0
  9
$PDSIZE
 40
0.0
  9
$PLINEWID
 40
0.0
  9
$SPLFRAME
 70
     0
  9
$SPLINETYPE
 70
     6
  9
$SPLINESEGS
 70
     8
  9
$HANDSEED
  5
42C
  9
$SURFTAB1
 70
     6
  9
$SURFTAB2
 70
     6
  9
$SURFTYPE
 70
     6
  9
$SURFU
 70
     6
  9
$SURFV
 70
     6
  9
$UCSBASE
  2

  9
$UCSNAME
  2

  9
$UCSORG
 10
0.0
 20
0.0
 30
0.0
  9
$UCSXDIR
 10
1.0
 20
0.0
 30
0.0
  9
$UCSYDIR
 10
0.0
 20
1.0
 30
0.0
  9
$UCSORTHOREF
  2

  9
$UCSORTHOVIEW
 70
     0
  9
$UCSORGTOP
 10
0.0
 20
0.0
 30
0.0
  9
$UCSORGBOTTOM
 10
0.0
 20
0.0
 30
0.0
  9
$UCSORGLEFT
 10
0.0
 20
0.0
 30
0.0
  9
$UCSORGRIGHT
 10
0.0
 20
0.0
 30
0.0
  9
$UCSORGFRONT
 10
0.0
 20
0.0
 30
0.0
  9
$UCSORGBACK
 10
0.0
 20
0.0
 30
0.0
  9
$PUCSBASE
  2

  9
$PUCSNAME
  2

  9
$PUCSORG
 10
0.0
 20
0.0
 30
0.0
  9
$PUCSXDIR
 10
1.0
 20
0.0
 30
0.0
  9
$PUCSYDIR
 10
0.0
 20
1.0
 30
0.0
  9
$PUCSORTHOREF
  2

  9
$PUCSORTHOVIEW
 70
     0
  9
$PUCSORGTOP
 10
0.0
 20
0.0
 30
0.0
  9
$PUCSORGBOTTOM
 10
0.0
 20
0.0
 30
0.0
  9
$PUCSORGLEFT
 10
0.0
 20
0.0
 30
0.0
  9
$PUCSORGRIGHT
 10
0.0
 20
0.0
 30
0.0
  9
$PUCSORGFRONT
 10
0.0
 20
0.0
 30
0.0
  9
$PUCSORGBACK
 10
0.0
 20
0.0
 30
0.0
  9
$USERI1
 70
     0
  9
$USERI2
 70
     0
  9
$USERI3
 70
     0
  9
$USERI4
 70
     0
  9
$USERI5
 70
     0
  9
$USERR1
 40
0.0
  9
$USERR2
 40
0.0
  9
$USERR3
 40
0.0
  9
$USERR4
 40
0.0
  9
$USERR5
 40
0.0
  9
$WORLDVIEW
 70
     1
  9
$SHADEDGE
 70
     3
  9
$SHADEDIF
 70
    70
  9
$TILEMODE
 70
     1
  9
$MAXACTVP
 70
    64
  9
$PINSBASE
 10
0.0
 20
0.0
 30
0.0
  9
$PLIMCHECK
 70
     0
  9
$PEXTMIN
 10
1.000000000000000E+20
 20
1.000000000000000E+20
 30
1.000000000000000E+20
  9
$PEXTMAX
 10
-1.000000000000000E+20
 20
-1.000000000000000E+20
 30
-1.000000000000000E+20
  9
$PLIMMIN
 10
0.0
 20
0.0
  9
$PLIMMAX
 10
420.0
 20
297.0
  9
$UNITMODE
 70
     0
  9
$VISRETAIN
 70
     1
  9
$PLINEGEN
 70
     0
  9
$PSLTSCALE
 70
     1
  9
$TREEDEPTH
 70
  3020
  9
$CMLSTYLE
  2
Standard
  9
$CMLJUST
 70
     0
  9
$CMLSCALE
 40
20.0
  9
$PROXYGRAPHICS
 70
     1
  9
$MEASUREMENT
 70
     1
  9
$CELWEIGHT
370
    -1
  9
$ENDCAPS
280
     0
  9
$JOINSTYLE
280
     0
  9
$LWDISPLAY
290
     0
  9
$INSUNITS
 70
     4
  9
$HYPERLINKBASE
  1

  9
$STYLESHEET
  1

  9
$XEDIT
290
     1
  9
$CEPSNTYPE
380
     0
  9
$PSTYLEMODE
290
     1
  9
$FINGERPRINTGUID
  2
{64658E3E-64A7-48C2-85CE-D4C0D969A435}
  9
$VERSIONGUID
  2
{FAEB1C32-E019-11D5-929B-00C0DF256EC4}
  9
$EXTNAMES
290
     1
  9
$PSVPSCALE
 40
0.0
  9
$OLESTARTUP
290
     0
  9
$SORTENTS
280
   127
  9
$INDEXCTL
280
     0
  9
$HIDETEXT
280
     1
  9
$XCLIPFRAME
290
     0
  9
$HALOGAP
280
     0
  9
$OBSCOLOR
 70
   257
  9
$OBSLTYPE
280
     0
  9
$INTERSECTIONDISPLAY
280
     0
  9
$INTERSECTIONCOLOR
 70
   257
  9
$DIMASSOC
280
     2
  9
$PROJECTNAME
  1

  0
ENDSEC
  0
SECTION
  2
CLASSES
  0
CLASS
  1
ACDBDICTIONARYWDFLT
  2
AcDbDictionaryWithDefault
  3
ObjectDBX Classes
 90
        0
 91
        4
280
     0
281
     0
  0
CLASS
  1
VISUALSTYLE
  2
AcDbVisualStyle
  3
ObjectDBX Classes
 90
     4095
 91
        4
280
     0
281
     0
  0
ENDSEC
  0
SECTION
  2
TABLES
  0
TABLE
  2
VPORT
  5
8
330
0
100
AcDbSymbolTable
 70
     1
  0
VPORT
  5
29
330
8
100
AcDbSymbolTableRecord
100
AcDbViewportTableRecord
  2
*Active
 70
     0
 10
0.0
 20
0.0
 11
1.0
 21
1.0
 12
0.0
 22
0.0
 13
0.0
 23
0.0
 14
10.0
 24
10.0
 15
10.0
 25
10.0
 16
0.0
 26
0.0
 36
1.0
 17
0.0
 27
0.0
 37
0.0
 40
3267.0
 41
1.414141414141414
 42
50.0
 43
0.0
 44
0.0
 50
0.0
 51
0.0
 71
     0
 72
 10000
 73
     1
 74
     3
 75
     0
 76
     0
 77
     0
 78
     0
281
     0
 65
     1
110
0.0
120
0.0
130
0.0
111
1.0
121
0.0
131
0.0
112
0.0
122
1.0
132
0.0
 79
     0
146
0.0
  0
ENDTAB
  0
TABLE
  2
LTYPE
  5
5
330
0
100
AcDbSymbolTable
 70
     3
  0
LTYPE
  5
14
330
5
100
AcDbSymbolTableRecord
100
AcDbLinetypeTableRecord
  2
ByBlock
 70
     0
  3

 72
    65
 73
     0
 40
0.0
  0
LTYPE
  5
15
330
5
100
AcDbSymbolTableRecord
100
AcDbLinetypeTableRecord
  2
ByLayer
 70
     0
  3

 72
    65
 73
     0
 40
0.0
  0
LTYPE
  5
16
330
5
100
AcDbSymbolTableRecord
100
AcDbLinetypeTableRecord
  2
Continuous
 70
     0
  3
Solid line
 72
    65
 73
     0
 40
0.0
  0
LTYPE
  5
3C
330
5
100
AcDbSymbolTableRecord
100
AcDbLinetypeTableRecord
  2
JWW_DASHED1
 70
     0
  3
-  --  --  --  --  --  --  --  -
 72
    65
 73
     2
 40
1.693333333333333
 49
0.8466666666666667
 74
     0
 49
-0.8466666666666667
 74
     0
  0
LTYPE
  5
3D
330
5
100
AcDbSymbolTableRecord
100
AcDbLinetypeTableRecord
  2
JWW_CENTER1
 70
     0
  3
-----  --  ----------  --  -----
 72
    65
 73
     4
 40
6.773333333333333
 49
4.233333333333333
 74
     0
 49
-0.8466666666666667
 74
     0
 49
0.8466666666666667
 74
     0
 49
-0.8466666666666667
 74
     0
  0
ENDTAB
  0
TABLE
  2
LAYER
  5
2
330
0
100
AcDbSymbolTable
 70
     9
  0
LAYER
  5
10
330
2
100
AcDbSymbolTableRecord
100
AcDbLayerTableRecord
  2
0
 70
     0
 62
     7
  6
Continuous
370
    -3
390
F
  0
LAYER
  5
3E
330
2
100
AcDbSymbolTableRecord
100
AcDbLayerTableRecord
  2
F-4
 70
     0
 62
     7
  6
Continuous
370
    -3
390
F
  0
LAYER
  5
3F
330
2
100
AcDbSymbolTableRecord
100
AcDbLayerTableRecord
  2
0-1
 70
     0
 62
     7
  6
Continuous
370
    -3
390
F
  0
LAYER
  5
40
330
2
100
AcDbSymbolTableRecord
100
AcDbLayerTableRecord
  2
0-2
 70
     0
 62
     7
  6
Continuous
370
    -3
390
F
  0
LAYER
  5
41
330
2
100
AcDbSymbolTableRecord
100
AcDbLayerTableRecord
  2
0-3
 70
     0
 62
     7
  6
Continuous
370
    -3
390
F
  0
LAYER
  5
42
330
2
100
AcDbSymbolTableRecord
100
AcDbLayerTableRecord
  2
0-0
 70
     0
 62
     7
  6
Continuous
370
    -3
390
F
  0
LAYER
  5
43
330
2
100
AcDbSymbolTableRecord
100
AcDbLayerTableRecord
  2
0-4
 70
     0
 62
     7
  6
Continuous
370
    -3
390
F
  0
LAYER
  5
44
330
2
100
AcDbSymbolTableRecord
100
AcDbLayerTableRecord
  2
0-A
 70
     0
 62
     7
  6
Continuous
370
    -3
390
F
  0
LAYER
  5
45
330
2
100
AcDbSymbolTableRecord
100
AcDbLayerTableRecord
  2
0-5
 70
     0
 62
     7
  6
Continuous
370
    -3
390
F
  0
ENDTAB
  0
TABLE
  2
STYLE
  5
3
330
0
100
AcDbSymbolTable
 70
     2
  0
STYLE
  5
11
330
3
100
AcDbSymbolTableRecord
100
AcDbTextStyleTableRecord
  2
Standard
 70
     0
 40
0.0
 41
1.0
 50
0.0
 71
     0
 42
2.5
  3
txt
  4

1001
ACAD
1000

1071
        0
  0
STYLE
  5
3B
330
3
100
AcDbSymbolTableRecord
100
AcDbTextStyleTableRecord
  2
ＭＳ ゴシック
 70
     0
 40
1.0
 41
1.0
 50
0.0
 71
     0
 42
10.0
  3

  4

1001
ACAD
1000
MS Gothic
1071
    32817
  0
ENDTAB
  0
TABLE
  2
VIEW
  5
6
330
0
100
AcDbSymbolTable
 70
     0
  0
ENDTAB
  0
TABLE
  2
UCS
  5
7
330
0
100
AcDbSymbolTable
 70
     0
  0
ENDTAB
  0
TABLE
  2
APPID
  5
9
330
0
100
AcDbSymbolTable
 70
     1
  0
APPID
  5
12
330
9
100
AcDbSymbolTableRecord
100
AcDbRegAppTableRecord
  2
ACAD
 70
     0
  0
ENDTAB
  0
TABLE
  2
DIMSTYLE
  5
A
330
0
100
AcDbSymbolTable
 70
     1
100
AcDbDimStyleTable
  0
DIMSTYLE
105
27
330
A
100
AcDbSymbolTableRecord
100
AcDbDimStyleTableRecord
  2
ISO-25
 70
     0
 41
2.5
 42
0.625
 43
3.75
 44
1.25
 73
     0
 74
     0
 77
     1
 78
     8
140
2.5
141
2.5
143
0.03937007874016
147
0.625
171
     3
172
     1
271
     2
272
     2
274
     3
278
    44
283
     0
284
     8
340
11
  0
ENDTAB
  0
TABLE
  2
BLOCK_RECORD
  5
1
330
0
100
AcDbSymbolTable
 70
     1
  0
BLOCK_RECORD
  5
1F
330
1
100
AcDbSymbolTableRecord
100
AcDbBlockTableRecord
  2
*Model_Space
340
22
  0
BLOCK_RECORD
  5
1B
330
1
100
AcDbSymbolTableRecord
100
AcDbBlockTableRecord
  2
*Paper_Space
340
1E
  0
BLOCK_RECORD
  5
23
330
1
100
AcDbSymbolTableRecord
100
AcDbBlockTableRecord
  2
*Paper_Space0
340
26
  0
ENDTAB
  0
ENDSEC
  0
SECTION
  2
BLOCKS
  0
BLOCK
  5
20
330
1F
100
AcDbEntity
  8
0
100
AcDbBlockBegin
  2
*Model_Space
 70
     0
 10
0.0
 20
0.0
 30
0.0
  3
*Model_Space
  1

  0
ENDBLK
  5
21
330
1F
100
AcDbEntity
  8
0
100
AcDbBlockEnd
  0
BLOCK
  5
1C
330
1B
100
AcDbEntity
 67
     1
  8
0
100
AcDbBlockBegin
  2
*Paper_Space
 70
     0
 10
0.0
 20
0.0
 30
0.0
  3
*Paper_Space
  1

  0
ENDBLK
  5
1D
330
1B
100
AcDbEntity
 67
     1
  8
0
100
AcDbBlockEnd
  0
BLOCK
  5
24
330
23
100
AcDbEntity
  8
0
100
AcDbBlockBegin
  2
*Paper_Space0
 70
     0
 10
0.0
 20
0.0
 30
0.0
  3
*Paper_Space0
  1

  0
ENDBLK
  5
25
330
23
100
AcDbEntity
  8
0
100
AcDbBlockEnd
  0
ENDSEC
  0
SECTION
  2
ENTITIES
  0
TEXT
  5
46
330
1F
100
AcDbEntity
  8
F-4
  6
Continuous
 62
     6
370
    13
100
AcDbText
 10
-133.1905312960641
 20
-1122.619535253905
 30
0.0
 40
30.48
  1
ステンレス鋳鋼製　たて引き用　打込型　外断熱用
 41
0.7978260869565217
  7
ＭＳ ゴシック
100
AcDbText
  0
TEXT
  5
47
330
1F
100
AcDbEntity
  8
F-4
  6
Continuous
 62
     6
370
    13
100
AcDbText
 10
-205.8368263745241
 20
-1169.426375109055
 30
0.0
 40
30.48
  1
差し込み式　ルーフドレイン　ＥＳＳＢＷ－１－１２５　Ｃ＝１２０
 41
0.7499999999999999
  7
ＭＳ ゴシック
100
AcDbText
  0
LINE
  5
48
330
1F
100
AcDbEntity
  8
0-1
  6
Continuous
 62
     2
370
    13
100
AcDbLine
 10
-526.9601365332147
 20
-132.0628400397051
 30
0.0
 11
-525.2935056078556
 21
-125.3960688984466
 31
0.0
  0
LINE
  5
49
330
1F
100
AcDbEntity
  8
0-1
  6
Continuous
 62
     2
370
    13
100
AcDbLine
 10
256.3732242934325
 20
-132.0628400397051
 30
0.0
 11
254.7064696481621
 21
-125.3960688984466
 31
0.0
  0
LINE
  5
4A
330
1F
100
AcDbEntity
  8
0-1
  6
Continuous
 62
     2
370
    13
100
AcDbLine
 10
236.1766910903075
 20
-125.3960688984466
 30
0.0
 11
254.7064696481621
 21
-125.3960688984466
 31
0.0
  0
LINE
  5
4B
330
1F
100
AcDbEntity
  8
0-1
  6
Continuous
 62
     2
370
    13
100
AcDbLine
 10
-381.9601530292027
 20
-150.3963988182102
 30
0.0
 11
-378.626891178485
 21
-167.0629555116223
 31
0.0
  0
LINE
  5
4C
330
1F
100
AcDbEntity
  8
0-1
  6
Continuous
 62
     2
370
    13
100
AcDbLine
 10
-341.9600210612975
 20
-150.3963988182102
 30
0.0
 11
-345.2934066319267
 21
-167.0629555116223
 31
0.0
  0
LINE
  5
4D
330
1F
100
AcDbEntity
  8
0-1
  6
Continuous
 62
     2
370
    13
100
AcDbLine
 10
215.4897321587194
 20
-130.9392158051189
 30
0.0
 11
236.1766910903075
 21
-125.3960688984466
 31
0.0
  0
LINE
  5
4E
330
1F
100
AcDbEntity
  8
0-1
  6
Continuous
 62
     2
370
    13
100
AcDbLine
 10
188.0397479948681
 20
-152.098042478472
 30
0.0
 11
194.7065191361267
 21
-150.3117743988689
 31
0.0
  0
LINE
  5
4F
330
1F
100
AcDbEntity
  8
0-1
  6
Continuous
 62
     2
370
    13
100
AcDbLine
 10
188.0397479948681
 20
-152.098042478472
 30
0.0
 11
184.7064861441501
 21
-151.26590235495
 31
0.0
  0
LINE
  5
50
330
1F
100
AcDbEntity
  8
0-1
  6
Continuous
 62
     2
370
    13
100
AcDbLine
 10
125.7502368039897
 20
-167.0629555116223
 30
0.0
 11
184.7064861441501
 21
-151.26590235495
 31
0.0
  0
LINE
  5
51
330
1F
100
AcDbEntity
  8
0-1
  6
Continuous
 62
     2
370
    13
100
AcDbLine
 10
194.7065191361267
 20
-150.3117743988689
 30
0.0
 11
198.0402758664897
 21
-147.6928713160987
 31
0.0
  0
LINE
  5
52
330
1F
100
AcDbEntity
  8
0-1
  6
Continuous
 62
     2
370
    13
100
AcDbLine
 10
198.0402758664897
 20
-147.6928713160987
 30
0.0
 11
256.3732242934325
 21
-132.0628400397051
 31
0.0
  0
LINE
  5
53
330
1F
100
AcDbEntity
  8
0-1
  6
Continuous
 62
     2
370
    13
100
AcDbLine
 10
-458.6266602346504
 20
-152.098042478472
 30
0.0
 11
-465.293431375909
 21
-150.3117743988689
 31
0.0
  0
LINE
  5
54
330
1F
100
AcDbEntity
  8
0-1
  6
Continuous
 62
     2
370
    13
100
AcDbLine
 10
-465.293431375909
 20
-150.3117743988689
 30
0.0
 11
-468.6268169465382
 21
-147.6931187559212
 31
0.0
  0
LINE
  5
55
330
1F
100
AcDbEntity
  8
0-1
  6
Continuous
 62
     2
370
    13
100
AcDbLine
 10
-468.6268169465382
 20
-147.6931187559212
 30
0.0
 11
-526.9601365332147
 21
-132.0628400397051
 31
0.0
  0
LINE
  5
56
330
1F
100
AcDbEntity
  8
0-1
  6
Continuous
 62
     2
370
    13
100
AcDbLine
 10
-458.6266602346504
 20
-152.098042478472
 30
0.0
 11
-455.2933983839324
 21
-151.26590235495
 31
0.0
  0
LINE
  5
57
330
1F
100
AcDbEntity
  8
0-1
  6
Continuous
 62
     2
370
    13
100
AcDbLine
 10
-396.337149043772
 20
-167.0629555116223
 30
0.0
 11
-455.2933983839324
 21
-151.26590235495
 31
0.0
  0
LINE
  5
58
330
1F
100
AcDbEntity
  8
0-1
  6
Continuous
 62
     2
370
    13
100
AcDbLine
 10
203.0167855793278
 20
-122.7939917236155
 30
0.0
 11
201.3732902773851
 21
-112.0627740557524
 31
0.0
  0
LINE
  5
59
330
1F
100
AcDbEntity
  8
0-1
  6
JWW_DASHED1
 62
     2
370
    13
100
AcDbLine
 10
188.3893804642517
 20
-127.9840420033875
 30
0.0
 11
187.1462427953327
 21
-134.6156766898318
 31
0.0
  0
LINE
  5
5A
330
1F
100
AcDbEntity
  8
0-1
  6
Continuous
 62
     2
370
    13
100
AcDbLine
 10
142.1159066730778
 20
-146.6241787221375
 30
0.0
 11
143.9729425419543
 21
-136.1869195635649
 31
0.0
  0
LINE
  5
5B
330
1F
100
AcDbEntity
  8
0-1
  6
Continuous
 62
     2
370
    13
100
AcDbLine
 10
137.2777158210929
 20
-151.8961315832017
 30
0.0
 11
124.2143778248937
 21
-155.3961678743757
 31
0.0
  0
LINE
  5
5C
330
1F
100
AcDbEntity
  8
0-1
  6
JWW_DASHED1
 62
     2
370
    13
100
AcDbLine
 10
137.2777158210929
 20
-151.8961315832017
 30
0.0
 11
215.4897321587194
 21
-130.9392158051189
 31
0.0
  0
LINE
  5
5D
330
1F
100
AcDbEntity
  8
0-1
  6
Continuous
 62
     2
370
    13
100
AcDbLine
 10
-321.1561468135145
 20
-154.4158112970953
 30
0.0
 11
-318.6266932266266
 21
-167.0629555116223
 31
0.0
  0
LINE
  5
5E
330
1F
100
AcDbEntity
  8
0-1
  6
Continuous
 62
     2
370
    13
100
AcDbLine
 10
84.01604655905746
 20
-157.8139023813436
 30
0.0
 11
81.37338925331423
 21
-167.0629555116223
 31
0.0
  0
LINE
  5
5F
330
1F
100
AcDbEntity
  8
0-1
  6
Continuous
 62
     2
370
    13
100
AcDbLine
 10
-320.9600507540762
 20
-155.3961678743757
 30
0.0
 11
124.2143778248937
 21
-155.3961678743757
 31
0.0
  0
LINE
  5
60
330
1F
100
AcDbEntity
  8
0-1
  6
Continuous
 62
     2
370
    13
100
AcDbLine
 10
-326.0590431791184
 20
-150.3963988182102
 30
0.0
 11
-413.4617168488819
 21
-150.3963988182102
 31
0.0
  0
LINE
  5
61
330
1F
100
AcDbEntity
  8
0-2
  6
Continuous
 62
     6
370
    13
100
AcDbLine
 10
-452.457738016534
 20
-129.3256607217153
 30
0.0
 11
-455.2933983839324
 21
-112.0627740557524
 31
0.0
  0
LINE
  5
62
330
1F
100
AcDbEntity
  8
0-2
  6
Continuous
 62
     6
370
    13
100
AcDbLine
 10
184.7064861441501
 20
-112.0627740557524
 30
0.0
 11
181.9608938721908
 21
-128.7812931119178
 31
0.0
  0
LINE
  5
63
330
1F
100
AcDbEntity
  8
0-2
  6
Continuous
 62
     6
370
    13
100
AcDbLine
 10
184.7064861441501
 20
-112.0627740557524
 30
0.0
 11
181.3732242934325
 21
-108.7295122050345
 31
0.0
  0
LINE
  5
64
330
1F
100
AcDbEntity
  8
0-2
  6
Continuous
 62
     6
370
    13
100
AcDbLine
 10
149.7071129917009
 20
-132.0628400397051
 30
0.0
 11
154.7838358327062
 21
-112.0627740557524
 31
0.0
  0
LINE
  5
65
330
1F
100
AcDbEntity
  8
0-2
  6
Continuous
 62
     6
370
    13
100
AcDbLine
 10
151.5094646597751
 20
-108.8121571057945
 30
0.0
 11
154.7838358327062
 21
-112.0627740557524
 31
0.0
  0
LINE
  5
66
330
1F
100
AcDbEntity
  8
0-2
  6
Continuous
 62
     6
370
    13
100
AcDbLine
 10
181.3732242934325
 20
-108.7295122050345
 30
0.0
 11
146.0346111441501
 21
-108.7295122050345
 31
0.0
  0
LINE
  5
67
330
1F
100
AcDbEntity
  8
0-2
  6
Continuous
 62
     6
370
    13
100
AcDbLine
 10
129.1582254811437
 20
-123.0733512833706
 30
0.0
 11
106.3732242934325
 21
101.2704383070009
 31
0.0
  0
LINE
  5
68
330
1F
100
AcDbEntity
  8
0-2
  6
Continuous
 62
     6
370
    13
100
AcDbLine
 10
-392.2813629109595
 20
101.2704383070009
 30
0.0
 11
121.6946981109999
 21
101.2704383070009
 31
0.0
  0
LINE
  5
69
330
1F
100
AcDbEntity
  8
0-2
  6
Continuous
 62
     6
370
    13
100
AcDbLine
 10
125.0108866139562
 20
98.27394205488943
 30
0.0
 11
146.0346111441501
 21
-108.7295122050345
 31
0.0
  0
LINE
  5
6A
330
1F
100
AcDbEntity
  8
0-2
  6
Continuous
 62
     6
370
    13
100
AcDbLine
 10
-385.7526631907317
 20
50.60713462245715
 30
0.0
 11
-400.7100293092915
 21
47.93701149640142
 31
0.0
  0
LINE
  5
6B
330
1F
100
AcDbEntity
  8
0-2
  6
JWW_DASHED1
 62
     6
370
    13
100
AcDbLine
 10
115.1657509509494
 20
50.60713462245715
 30
0.0
 11
130.1232407894205
 21
47.93701149640142
 31
0.0
  0
LINE
  5
6C
330
1F
100
AcDbEntity
  8
0-1
  6
Continuous
 62
     2
370
    13
100
AcDbLine
 10
-375.5483686251699
 20
-167.0629555116223
 30
0.0
 11
-396.337149043772
 21
-167.0629555116223
 31
0.0
  0
LINE
  5
6D
330
1F
100
AcDbEntity
  8
0-2
  6
Continuous
 62
     6
370
    13
100
AcDbLine
 10
-389.2957540110442
 20
-132.0628400397051
 30
0.0
 11
-449.1781706073277
 21
-132.0628400397051
 31
0.0
  0
LINE
  5
6E
330
1F
100
AcDbEntity
  8
0-2
  6
Continuous
 62
     6
370
    13
100
AcDbLine
 10
-399.7448902811033
 20
-123.0733512833706
 30
0.0
 11
-380.187246700022
 21
69.49471116384231
 31
0.0
  0
LINE
  5
6F
330
1F
100
AcDbEntity
  8
0-2
  6
Continuous
 62
     6
370
    13
100
AcDbLine
 10
-378.7524668884723
 20
83.62228783719516
 30
0.0
 11
-376.9600128133033
 21
101.2704383070009
 31
0.0
  0
LINE
  5
70
330
1F
100
AcDbEntity
  8
0-2
  6
Continuous
 62
     6
370
    13
100
AcDbLine
 10
-395.597675133827
 20
98.27394205488943
 30
0.0
 11
-396.8928988854105
 21
85.52114103609725
 31
0.0
  0
LINE
  5
71
330
1F
100
AcDbEntity
  8
0-2
  6
Continuous
 62
     6
370
    13
100
AcDbLine
 10
-398.3278024168717
 20
71.3935643627444
 30
0.0
 11
-418.6869035834681
 21
-129.0663437875936
 31
0.0
  0
LINE
  5
72
330
1F
100
AcDbEntity
  8
0-2
  6
Continuous
 62
     6
370
    13
100
AcDbLine
 10
-390.2676976343548
 20
101.2704383070009
 30
0.0
 11
-391.9201007699124
 21
85.00052764927304
 31
0.0
  0
LINE
  5
73
330
1F
100
AcDbEntity
  8
0-1
  6
Continuous
 62
     2
370
    13
100
AcDbLine
 10
175.1016145489223
 20
-148.7296441729399
 30
0.0
 11
175.1016145489223
 21
-153.8392765103553
 31
0.0
  0
LINE
  5
74
330
1F
100
AcDbEntity
  8
0-1
  6
Continuous
 62
     2
370
    13
100
AcDbLine
 10
178.0018567100285
 20
-145.8298968914787
 30
0.0
 11
178.0018567100285
 21
-153.0623154672811
 31
0.0
  0
LINE
  5
75
330
1F
100
AcDbEntity
  8
0-1
  6
Continuous
 62
     2
370
    13
100
AcDbLine
 10
160.9017854473598
 20
-148.7296441729399
 30
0.0
 11
160.9017854473598
 21
-157.6441586630159
 31
0.0
  0
LINE
  5
76
330
1F
100
AcDbEntity
  8
0-1
  6
Continuous
 62
     2
370
    13
100
AcDbLine
 10
158.0015432862533
 20
-145.8298968914787
 30
0.0
 11
158.0015432862533
 21
-158.4213671459128
 31
0.0
  0
LINE
  5
77
330
1F
100
AcDbEntity
  8
0-3
  6
Continuous
 62
     4
370
    13
100
AcDbLine
 10
139.7065851200793
 20
-208.251046067999
 30
0.0
 11
121.373273781397
 21
-208.251046067999
 31
0.0
  0
LINE
  5
78
330
1F
100
AcDbEntity
  8
0-3
  6
Continuous
 62
     4
370
    13
100
AcDbLine
 10
139.7065851200793
 20
-391.4389122789365
 30
0.0
 11
-410.2933736399504
 21
-391.4389122789365
 31
0.0
  0
LINE
  5
79
330
1F
100
AcDbEntity
  8
0-3
  6
Continuous
 62
     4
370
    13
100
AcDbLine
 10
-391.9600623012678
 20
-208.251046067999
 30
0.0
 11
-410.2933736399504
 21
-208.251046067999
 31
0.0
  0
LINE
  5
7A
330
1F
100
AcDbEntity
  8
0-1
  6
Continuous
 62
     2
370
    13
100
AcDbLine
 10
183.4752255867179
 20
-132.0628400397051
 30
0.0
 11
175.1016145489223
 21
-132.0628400397051
 31
0.0
  0
LINE
  5
7B
330
1F
100
AcDbEntity
  8
0-1
  6
Continuous
 62
     2
370
    13
100
AcDbLine
 10
160.9017854473598
 20
-132.0628400397051
 30
0.0
 11
148.8955103734577
 21
-132.0628400397051
 31
0.0
  0
LINE
  5
7C
330
1F
100
AcDbEntity
  8
0-2
  6
Continuous
 62
     6
370
    13
100
AcDbLine
 10
178.5917532471908
 20
-132.0628400397051
 30
0.0
 11
178.0018567100285
 21
-132.0628400397051
 31
0.0
  0
LINE
  5
7D
330
1F
100
AcDbEntity
  8
0-2
  6
Continuous
 62
     6
370
    13
100
AcDbLine
 10
158.0015432862533
 20
-132.0628400397051
 30
0.0
 11
-333.6465379004022
 21
-132.0628400397051
 31
0.0
  0
LINE
  5
7E
330
1F
100
AcDbEntity
  8
0-2
  6
Continuous
 62
     6
370
    13
100
AcDbLine
 10
184.7064861441501
 20
-112.0627740557524
 30
0.0
 11
176.9744865664476
 21
-112.0627740557524
 31
0.0
  0
LINE
  5
7F
330
1F
100
AcDbEntity
  8
0-2
  6
Continuous
 62
     6
370
    13
100
AcDbLine
 10
159.0289134298345
 20
-112.0627740557524
 30
0.0
 11
154.7838358327062
 21
-112.0627740557524
 31
0.0
  0
LINE
  5
80
330
1F
100
AcDbEntity
  8
0-0
  6
Continuous
 62
     3
370
    13
100
AcDbLine
 10
-470.2440836272814
 20
-157.6124863657186
 30
0.0
 11
-453.6758842633665
 21
-162.0520516634382
 31
0.0
  0
LINE
  5
81
330
1F
100
AcDbEntity
  8
0-0
  6
Continuous
 62
     3
370
    13
100
AcDbLine
 10
-504.4485563495152
 20
-138.0949280359044
 30
0.0
 11
-494.7892479933074
 21
-140.6831485806678
 31
0.0
  0
LINE
  5
82
330
1F
100
AcDbEntity
  8
0-0
  6
Continuous
 62
     3
370
    13
100
AcDbLine
 10
-477.4604186146124
 20
-145.3263568524162
 30
0.0
 11
-485.1300633570111
 21
-143.2713691254314
 31
0.0
  0
LINE
  5
83
330
1F
100
AcDbEntity
  8
0-0
  6
Continuous
 62
     3
370
    13
100
AcDbLine
 10
-475.0577779368254
 20
-147.877708863607
 30
0.0
 11
-473.8489106833413
 21
-153.785334629021
 31
0.0
  0
LINE
  5
84
330
1F
100
AcDbEntity
  8
0-0
  6
Continuous
 62
     3
370
    13
100
AcDbLine
 10
-444.6400005402882
 20
-156.0278817415632
 30
0.0
 11
-448.6404838727415
 21
-160.5396994674922
 31
0.0
  0
LINE
  5
85
330
1F
100
AcDbEntity
  8
0-0
  6
Continuous
 62
     3
370
    13
100
AcDbLine
 10
-433.6135871640212
 20
-157.0750470709551
 30
0.0
 11
-441.2832319064199
 21
-155.0198119041477
 31
0.0
  0
LINE
  5
86
330
1F
100
AcDbEntity
  8
0-0
  6
JWW_DASHED1
 62
     3
370
    13
100
AcDbLine
 10
-444.1317591445954
 20
-175.5513786271206
 30
0.0
 11
-441.498009672467
 21
-172.5813584360311
 31
0.0
  0
LINE
  5
87
330
1F
100
AcDbEntity
  8
0-0
  6
JWW_DASHED1
 62
     3
370
    13
100
AcDbLine
 10
-424.207286026458
 20
-173.3984047303723
 30
0.0
 11
-434.7844724047306
 21
-170.5649713213774
 31
0.0
  0
LINE
  5
88
330
1F
100
AcDbEntity
  8
0-0
  6
Continuous
 62
     3
370
    13
100
AcDbLine
 10
199.6572951074103
 20
-157.6124863657186
 30
0.0
 11
183.0889720235845
 21
-162.0520516634382
 31
0.0
  0
LINE
  5
89
330
1F
100
AcDbEntity
  8
0-0
  6
Continuous
 62
     3
370
    13
100
AcDbLine
 10
233.8613966699103
 20
-138.0949280359044
 30
0.0
 11
224.2023357535254
 21
-140.6831485806678
 31
0.0
  0
LINE
  5
8A
330
1F
100
AcDbEntity
  8
0-0
  6
Continuous
 62
     3
370
    13
100
AcDbLine
 10
206.8736300947416
 20
-145.3263568524162
 30
0.0
 11
214.5432748371403
 21
-143.2713691254314
 31
0.0
  0
LINE
  5
8B
330
1F
100
AcDbEntity
  8
0-0
  6
Continuous
 62
     3
370
    13
100
AcDbLine
 10
204.4709894169543
 20
-147.877708863607
 30
0.0
 11
203.261998443559
 21
-153.785334629021
 31
0.0
  0
LINE
  5
8C
330
1F
100
AcDbEntity
  8
0-0
  6
Continuous
 62
     3
370
    13
100
AcDbLine
 10
174.0529645805944
 20
-156.0278817415632
 30
0.0
 11
178.0538190727819
 21
-160.5396994674922
 31
0.0
  0
LINE
  5
8D
330
1F
100
AcDbEntity
  8
0-0
  6
Continuous
 62
     3
370
    13
100
AcDbLine
 10
163.0267986441501
 20
-157.0750470709551
 30
0.0
 11
170.6964433865489
 21
-155.0198119041477
 31
0.0
  0
LINE
  5
8E
330
1F
100
AcDbEntity
  8
0-0
  6
Continuous
 62
     3
370
    13
100
AcDbLine
 10
283.039813978821
 20
-124.9175202814703
 30
0.0
 11
243.5209524659408
 21
-135.5067074911409
 31
0.0
  0
LINE
  5
8F
330
1F
100
AcDbEntity
  8
0-0
  6
Continuous
 62
     3
370
    13
100
AcDbLine
 10
220.2742285691926
 20
-155.5391880918587
 30
0.0
 11
244.1707294401806
 21
-149.1361878015294
 31
0.0
  0
LINE
  5
90
330
1F
100
AcDbEntity
  8
0-0
  6
Continuous
 62
     3
370
    13
100
AcDbLine
 10
214.6724384245556
 20
-164.5316461260649
 30
0.0
 11
215.4682048941504
 21
-160.6421395540632
 31
0.0
  0
LINE
  5
91
330
1F
100
AcDbEntity
  8
0-0
  6
Continuous
 62
     3
370
    13
100
AcDbLine
 10
173.5449706247246
 20
-175.5513786271206
 30
0.0
 11
170.9112211525963
 21
-172.5813584360311
 31
0.0
  0
LINE
  5
92
330
1F
100
AcDbEntity
  8
0-0
  6
Continuous
 62
     3
370
    13
100
AcDbLine
 10
-553.6266024986918
 20
-124.9175202814703
 30
0.0
 11
-514.107864705723
 21
-135.5067074911409
 31
0.0
  0
LINE
  5
93
330
1F
100
AcDbEntity
  8
0-0
  6
Continuous
 62
     3
370
    13
100
AcDbLine
 10
-423.9545262476361
 20
-159.663020175896
 30
0.0
 11
-412.0685069275348
 21
-162.8480655728553
 31
0.0
  0
LINE
  5
94
330
1F
100
AcDbEntity
  8
0-0
  6
Continuous
 62
     3
370
    13
100
AcDbLine
 10
-485.2593506643379
 20
-164.5311512464195
 30
0.0
 11
-486.0549934140212
 21
-160.6421395540632
 31
0.0
  0
LINE
  5
95
330
1F
100
AcDbEntity
  8
0-0
  6
JWW_DASHED1
 62
     3
370
    13
100
AcDbLine
 10
-395.0259654236285
 20
-183.9373616560479
 30
0.0
 11
-365.3694366414283
 21
-186.0109073697303
 31
0.0
  0
LINE
  5
96
330
1F
100
AcDbEntity
  8
0-0
  6
Continuous
 62
     3
370
    13
100
AcDbLine
 10
156.2828262782296
 20
-224.9176027614112
 30
0.0
 11
146.2830407260759
 21
-224.9176027614112
 31
0.0
  0
LINE
  5
97
330
1F
100
AcDbEntity
  8
0-0
  6
Continuous
 62
     3
370
    13
100
AcDbLine
 10
-404.7794246323488
 20
-208.251046067999
 30
0.0
 11
-367.4787374094817
 21
-208.251046067999
 31
0.0
  0
LINE
  5
98
330
1F
100
AcDbEntity
  8
0-0
  6
Continuous
 62
     3
370
    13
100
AcDbLine
 10
-557.3250855276192
 20
-127.8375576283875
 30
0.0
 11
-560.2933736399505
 21
-148.2510955559636
 31
0.0
  0
LINE
  5
99
330
1F
100
AcDbEntity
  8
0-0
  6
Continuous
 62
     3
370
    13
100
AcDbLine
 10
-560.2933736399505
 20
-148.2510955559636
 30
0.0
 11
-556.9601117892324
 21
-151.5843574066814
 31
0.0
  0
LINE
  5
9A
330
1F
100
AcDbEntity
  8
0-0
  6
Continuous
 62
     3
370
    13
100
AcDbLine
 10
-490.8610170890634
 20
-155.5391880918587
 30
0.0
 11
-514.7573942401402
 21
-149.1361878015294
 31
0.0
  0
LINE
  5
9B
330
1F
100
AcDbEntity
  8
0-0
  6
Continuous
 62
     3
370
    13
100
AcDbLine
 10
286.7382970077484
 20
-127.8375576283875
 30
0.0
 11
289.7065851200794
 21
-148.2510955559636
 31
0.0
  0
LINE
  5
9C
330
1F
100
AcDbEntity
  8
0-0
  6
Continuous
 62
     3
370
    13
100
AcDbLine
 10
289.7065851200794
 20
-148.2510955559636
 30
0.0
 11
286.3730758295387
 21
-151.5843574066814
 31
0.0
  0
LINE
  5
9D
330
1F
100
AcDbEntity
  8
0-0
  6
Continuous
 62
     3
370
    13
100
AcDbLine
 10
144.118189717841
 20
-199.4696542025007
 30
0.0
 11
146.2830407260759
 21
-181.8393193999246
 31
0.0
  0
LINE
  5
9E
330
1F
100
AcDbEntity
  8
0-0
  6
Continuous
 62
     3
370
    13
100
AcDbLine
 10
141.4819658474864
 20
-162.8480655728553
 30
0.0
 11
153.3677377277653
 21
-159.663020175896
 31
0.0
  0
LINE
  5
9F
330
1F
100
AcDbEntity
  8
0-0
  6
Continuous
 62
     3
370
    13
100
AcDbLine
 10
133.6670739292009
 20
-175.1802188931678
 30
0.0
 11
134.1448802267095
 21
-171.2887328025852
 31
0.0
  0
LINE
  5
A0
330
1F
100
AcDbEntity
  8
0-0
  6
Continuous
 62
     3
370
    13
100
AcDbLine
 10
-335.0171070779783
 20
-172.9485591328216
 30
0.0
 11
-332.3070224205668
 21
-202.6804333410142
 31
0.0
  0
LINE
  5
A1
330
1F
100
AcDbEntity
  8
0-0
  6
Continuous
 62
     3
370
    13
100
AcDbLine
 10
63.26104167624496
 20
-345.1550460152118
 30
0.0
 11
71.27091617476682
 21
-233.0177927951949
 31
0.0
  0
LINE
  5
A2
330
1F
100
AcDbEntity
  8
0-0
  6
Continuous
 62
     3
370
    13
100
AcDbLine
 10
59.93619277949652
 20
-348.2510130760227
 30
0.0
 11
-330.5229812993676
 21
-348.2510130760227
 31
0.0
  0
LINE
  5
A3
330
1F
100
AcDbEntity
  8
0-0
  6
Continuous
 62
     3
370
    13
100
AcDbLine
 10
-322.076622953717
 20
-229.2391392637337
 30
0.0
 11
-306.9600293092915
 21
-348.2510130760227
 31
0.0
  0
LINE
  5
A4
330
1F
100
AcDbEntity
  8
0-0
  6
Continuous
 62
     3
370
    13
100
AcDbLine
 10
-333.8478301961158
 20
-345.1550460152118
 30
0.0
 11
-341.8577046946379
 21
-233.0177927951949
 31
0.0
  0
LINE
  5
A5
330
1F
100
AcDbEntity
  8
0-0
  6
Continuous
 62
     3
370
    13
100
AcDbLine
 10
-471.1504556975939
 20
-173.6084811397895
 30
0.0
 11
-464.707493875909
 21
-194.7108915335818
 31
0.0
  0
LINE
  5
A6
330
1F
100
AcDbEntity
  8
0-0
  6
JWW_DASHED1
 62
     3
370
    13
100
AcDbLine
 10
-449.1669120953978
 20
-177.0637308230665
 30
0.0
 11
-474.7935122062509
 21
-170.1972757449415
 31
0.0
  0
LINE
  5
A7
330
1F
100
AcDbEntity
  8
0-0
  6
Continuous
 62
     3
370
    13
100
AcDbLine
 10
-481.6548947680118
 20
-168.3587978627625
 30
0.0
 11
-474.7935122062509
 21
-170.1972757449415
 31
0.0
  0
LINE
  5
A8
330
1F
100
AcDbEntity
  8
0-0
  6
JWW_DASHED1
 62
     3
370
    13
100
AcDbLine
 10
-414.4418259863397
 20
-201.6132253859888
 30
0.0
 11
-416.8697055260355
 21
-181.8393193999246
 31
0.0
  0
LINE
  5
A9
330
1F
100
AcDbEntity
  8
0-0
  6
JWW_DASHED1
 62
     3
370
    13
100
AcDbLine
 10
-404.2537387291605
 20
-175.1802188931678
 30
0.0
 11
-404.7315450266692
 21
-171.2887328025852
 31
0.0
  0
LINE
  5
AA
330
1F
100
AcDbEntity
  8
0-0
  6
Continuous
 62
     3
370
    13
100
AcDbLine
 10
-397.306865708679
 20
-174.917685241352
 30
0.0
 11
-396.2644017359173
 21
-174.917685241352
 31
0.0
  0
LINE
  5
AB
330
1F
100
AcDbEntity
  8
0-0
  6
Continuous
 62
     3
370
    13
100
AcDbLine
 10
140.216806034353
 20
-208.251046067999
 30
0.0
 11
97.86995478857594
 21
-208.251046067999
 31
0.0
  0
LINE
  5
AC
330
1F
100
AcDbEntity
  8
0-0
  6
Continuous
 62
     3
370
    13
100
AcDbLine
 10
143.4854860913632
 20
-210.9305719073149
 30
0.0
 11
146.2830407260759
 21
-224.9176027614112
 31
0.0
  0
LINE
  5
AD
330
1F
100
AcDbEntity
  8
0-0
  6
Continuous
 62
     3
370
    13
100
AcDbLine
 10
153.6203737866757
 20
-173.3986521701949
 30
0.0
 11
164.1979313246825
 21
-170.5649713213774
 31
0.0
  0
LINE
  5
AE
330
1F
100
AcDbEntity
  8
0-0
  6
Continuous
 62
     3
370
    13
100
AcDbLine
 10
166.1051974775541
 20
-180.4063953870445
 30
0.0
 11
211.0682299680522
 21
-168.3590453025852
 31
0.0
  0
LINE
  5
AF
330
1F
100
AcDbEntity
  8
0-0
  6
Continuous
 62
     3
370
    13
100
AcDbLine
 10
289.7065851200794
 20
-148.2510955559636
 30
0.0
 11
286.3730758295387
 21
-168.8870818840886
 31
0.0
  0
LINE
  5
B0
330
1F
100
AcDbEntity
  8
0-0
  6
Continuous
 62
     3
370
    13
100
AcDbLine
 10
170.1721184023851
 20
-200.0221873264449
 30
0.0
 11
286.3730758295387
 21
-168.8870818840886
 31
0.0
  0
LINE
  5
B1
330
1F
100
AcDbEntity
  8
0-0
  6
Continuous
 62
     3
370
    13
100
AcDbLine
 10
162.4566972927989
 20
-184.4812343862
 30
0.0
 11
156.2828262782296
 21
-224.9176027614112
 31
0.0
  0
LINE
  5
B2
330
1F
100
AcDbEntity
  8
0-0
  6
Continuous
 62
     3
370
    13
100
AcDbLine
 10
-455.2933983839324
 20
-171.5841759508115
 30
0.0
 11
-438.2934165295197
 21
-171.5841759508115
 31
0.0
  0
LINE
  5
B3
330
1F
100
AcDbEntity
  8
0-0
  6
Continuous
 62
     3
370
    13
100
AcDbLine
 10
-459.9254718636624
 20
-198.2510130760227
 30
0.0
 11
-455.2933983839324
 21
-198.2510130760227
 31
0.0
  0
LINE
  5
B4
330
1F
100
AcDbEntity
  8
0-0
  6
Continuous
 62
     3
370
    13
100
AcDbLine
 10
-438.2934165295197
 20
-198.2510130760227
 30
0.0
 11
-418.9216002552374
 21
-198.2510130760227
 31
0.0
  0
LINE
  5
B5
330
1F
100
AcDbEntity
  8
0-0
  6
Continuous
 62
     3
370
    13
100
AcDbLine
 10
-338.3367597384512
 20
-169.9176687453638
 30
0.0
 11
-350.6268482889158
 21
-169.9176687453638
 31
0.0
  0
LINE
  5
B6
330
1F
100
AcDbEntity
  8
0-0
  6
Continuous
 62
     3
370
    13
100
AcDbLine
 10
-373.293449521496
 20
-169.9176687453638
 30
0.0
 11
-388.6268004505499
 21
-169.9176687453638
 31
0.0
  0
LINE
  5
B7
330
1F
100
AcDbEntity
  8
0-0
  6
Continuous
 62
     3
370
    13
100
AcDbLine
 10
-350.6268482889158
 20
-196.584505870575
 30
0.0
 11
-373.293449521496
 21
-196.584505870575
 31
0.0
  0
LINE
  5
B8
330
1F
100
AcDbEntity
  8
0-1
  6
Continuous
 62
     2
370
    13
100
AcDbLine
 10
125.7502368039897
 20
-167.0629555116223
 30
0.0
 11
-348.3719291852415
 21
-167.0629555116223
 31
0.0
  0
LINE
  5
B9
330
1F
100
AcDbEntity
  8
0-0
  6
JWW_CENTER1
 62
     3
370
    13
100
AcDbLine
 10
-135.2933323999798
 20
119.868510255903
 30
0.0
 11
-135.2933323999798
 21
-414.1773947799922
 31
0.0
  0
LINE
  5
BA
330
1F
100
AcDbEntity
  8
0-0
  6
Continuous
 62
     3
370
    13
100
AcDbLine
 10
-556.9601117892324
 20
-151.5843574066814
 30
0.0
 11
-505.6206787893379
 21
-151.5843574066814
 31
0.0
  0
LINE
  5
BB
330
1F
100
AcDbEntity
  8
0-0
  6
Continuous
 62
     3
370
    13
100
AcDbLine
 10
286.3730758295387
 20
-151.5843574066814
 30
0.0
 11
235.0340139893783
 21
-151.5843574066814
 31
0.0
  0
LINE
  5
BC
330
1F
100
AcDbEntity
  8
0-4
  6
Continuous
 62
     7
370
    13
100
AcDbLine
 10
-376.9600128133033
 20
201.2703970670306
 30
0.0
 11
106.3732242934325
 21
201.2703970670306
 31
0.0
  0
LINE
  5
BD
330
1F
100
AcDbEntity
  8
0-4
  6
Continuous
 62
     7
370
    13
100
AcDbLine
 10
-376.9600128133033
 20
126.2703970670306
 30
0.0
 11
-376.9600128133033
 21
204.270357476659
 31
0.0
  0
LINE
  5
BE
330
1F
100
AcDbEntity
  8
0-4
  6
Continuous
 62
     7
370
    13
100
AcDbLine
 10
106.3732242934325
 20
126.2703970670306
 30
0.0
 11
106.3732242934325
 21
204.270357476659
 31
0.0
  0
LINE
  5
BF
330
1F
100
AcDbEntity
  8
0-4
  6
Continuous
 62
     7
370
    13
100
AcDbLine
 10
-376.9600128133033
 20
201.2703970670306
 30
0.0
 11
-352.1738420600306
 21
204.5335097280314
 31
0.0
  0
LINE
  5
C0
330
1F
100
AcDbEntity
  8
0-4
  6
Continuous
 62
     7
370
    13
100
AcDbLine
 10
-376.9600128133033
 20
201.2703970670306
 30
0.0
 11
-352.1738420600306
 21
198.0072844060298
 31
0.0
  0
LINE
  5
C1
330
1F
100
AcDbEntity
  8
0-4
  6
Continuous
 62
     7
370
    13
100
AcDbLine
 10
106.3732242934325
 20
201.2703970670306
 30
0.0
 11
81.587177260071
 21
204.5335097280314
 31
0.0
  0
LINE
  5
C2
330
1F
100
AcDbEntity
  8
0-4
  6
Continuous
 62
     7
370
    13
100
AcDbLine
 10
106.3732242934325
 20
201.2703970670306
 30
0.0
 11
81.587177260071
 21
198.0072844060298
 31
0.0
  0
LINE
  5
C3
330
1F
100
AcDbEntity
  8
0-4
  6
Continuous
 62
     7
370
    13
100
AcDbLine
 10
-526.9601365332147
 20
281.2704135630189
 30
0.0
 11
256.3732242934325
 21
281.2704135630189
 31
0.0
  0
LINE
  5
C4
330
1F
100
AcDbEntity
  8
0-4
  6
Continuous
 62
     7
370
    13
100
AcDbLine
 10
-526.9601365332147
 20
-107.0628812796755
 30
0.0
 11
-526.9601365332147
 21
284.2703739726472
 31
0.0
  0
LINE
  5
C5
330
1F
100
AcDbEntity
  8
0-4
  6
Continuous
 62
     7
370
    13
100
AcDbLine
 10
256.3732242934325
 20
-107.0628812796755
 30
0.0
 11
256.3732242934325
 21
284.2703739726472
 31
0.0
  0
LINE
  5
C6
330
1F
100
AcDbEntity
  8
0-4
  6
Continuous
 62
     7
370
    13
100
AcDbLine
 10
-526.9601365332147
 20
281.2704135630189
 30
0.0
 11
-502.1739657799418
 21
284.5335262240196
 31
0.0
  0
LINE
  5
C7
330
1F
100
AcDbEntity
  8
0-4
  6
Continuous
 62
     7
370
    13
100
AcDbLine
 10
-526.9601365332147
 20
281.2704135630189
 30
0.0
 11
-502.1739657799418
 21
278.0073009020178
 31
0.0
  0
LINE
  5
C8
330
1F
100
AcDbEntity
  8
0-4
  6
Continuous
 62
     7
370
    13
100
AcDbLine
 10
256.3732242934325
 20
281.2704135630189
 30
0.0
 11
231.587177260071
 21
284.5335262240196
 31
0.0
  0
LINE
  5
C9
330
1F
100
AcDbEntity
  8
0-4
  6
Continuous
 62
     7
370
    13
100
AcDbLine
 10
256.3732242934325
 20
281.2704135630189
 30
0.0
 11
231.587177260071
 21
278.0073009020178
 31
0.0
  0
LINE
  5
CA
330
1F
100
AcDbEntity
  8
0-4
  6
Continuous
 62
     7
370
    13
100
AcDbLine
 10
-333.6267427145913
 20
-491.4389947588774
 30
0.0
 11
63.03983047480902
 21
-491.4389947588774
 31
0.0
  0
LINE
  5
CB
330
1F
100
AcDbEntity
  8
0-4
  6
Continuous
 62
     7
370
    13
100
AcDbLine
 10
-333.6267427145913
 20
-373.2510955559636
 30
0.0
 11
-333.6267427145913
 21
-494.4389551685057
 31
0.0
  0
LINE
  5
CC
330
1F
100
AcDbEntity
  8
0-4
  6
Continuous
 62
     7
370
    13
100
AcDbLine
 10
63.03983047480902
 20
-373.2510955559636
 30
0.0
 11
63.03983047480902
 21
-494.4389551685057
 31
0.0
  0
LINE
  5
CD
330
1F
100
AcDbEntity
  8
0-4
  6
Continuous
 62
     7
370
    13
100
AcDbLine
 10
-333.6267427145913
 20
-491.4389947588774
 30
0.0
 11
-308.8405719613186
 21
-488.1757583779653
 31
0.0
  0
LINE
  5
CE
330
1F
100
AcDbEntity
  8
0-4
  6
Continuous
 62
     7
370
    13
100
AcDbLine
 10
-333.6267427145913
 20
-491.4389947588774
 30
0.0
 11
-308.8405719613186
 21
-494.7021074198783
 31
0.0
  0
LINE
  5
CF
330
1F
100
AcDbEntity
  8
0-4
  6
Continuous
 62
     7
370
    13
100
AcDbLine
 10
63.03983047480902
 20
-491.4389947588774
 30
0.0
 11
38.25378344144756
 21
-488.1757583779653
 31
0.0
  0
LINE
  5
D0
330
1F
100
AcDbEntity
  8
0-4
  6
Continuous
 62
     7
370
    13
100
AcDbLine
 10
63.03983047480902
 20
-491.4389947588774
 30
0.0
 11
38.25378344144756
 21
-494.7021074198783
 31
0.0
  0
LINE
  5
D1
330
1F
100
AcDbEntity
  8
0-4
  6
Continuous
 62
     7
370
    13
100
AcDbLine
 10
-343.6267757065676
 20
-571.4390112548655
 30
0.0
 11
73.0398634667853
 21
-571.4390112548655
 31
0.0
  0
LINE
  5
D2
330
1F
100
AcDbEntity
  8
0-4
  6
Continuous
 62
     7
370
    13
100
AcDbLine
 10
-343.6267757065676
 20
-233.2510048280285
 30
0.0
 11
-343.6267757065676
 21
-574.4389716644939
 31
0.0
  0
LINE
  5
D3
330
1F
100
AcDbEntity
  8
0-4
  6
Continuous
 62
     7
370
    13
100
AcDbLine
 10
73.0398634667853
 20
-233.2510048280285
 30
0.0
 11
73.0398634667853
 21
-574.4389716644939
 31
0.0
  0
LINE
  5
D4
330
1F
100
AcDbEntity
  8
0-4
  6
Continuous
 62
     7
370
    13
100
AcDbLine
 10
-343.6267757065676
 20
-571.4390112548655
 30
0.0
 11
-318.8406049532949
 21
-568.1757748739534
 31
0.0
  0
LINE
  5
D5
330
1F
100
AcDbEntity
  8
0-4
  6
Continuous
 62
     7
370
    13
100
AcDbLine
 10
-343.6267757065676
 20
-571.4390112548655
 30
0.0
 11
-318.8406049532949
 21
-574.7021239158664
 31
0.0
  0
LINE
  5
D6
330
1F
100
AcDbEntity
  8
0-4
  6
Continuous
 62
     7
370
    13
100
AcDbLine
 10
73.0398634667853
 20
-571.4390112548655
 30
0.0
 11
48.25381643342386
 21
-568.1757748739534
 31
0.0
  0
LINE
  5
D7
330
1F
100
AcDbEntity
  8
0-4
  6
Continuous
 62
     7
370
    13
100
AcDbLine
 10
73.0398634667853
 20
-571.4390112548655
 30
0.0
 11
48.25381643342386
 21
-574.7021239158664
 31
0.0
  0
LINE
  5
D8
330
1F
100
AcDbEntity
  8
0-4
  6
Continuous
 62
     7
370
    13
100
AcDbLine
 10
-660.2933323999798
 20
-132.0629637596164
 30
0.0
 11
-660.2933323999798
 21
101.2704383070009
 31
0.0
  0
LINE
  5
D9
330
1F
100
AcDbEntity
  8
0-4
  6
Continuous
 62
     7
370
    13
100
AcDbLine
 10
-474.1781293673574
 20
-132.0629637596164
 30
0.0
 11
-663.2932928096081
 21
-132.0629637596164
 31
0.0
  0
LINE
  5
DA
330
1F
100
AcDbEntity
  8
0-4
  6
Continuous
 62
     7
370
    13
100
AcDbLine
 10
-417.2813216709892
 20
101.2704383070009
 30
0.0
 11
-663.2932928096081
 21
101.2704383070009
 31
0.0
  0
LINE
  5
DB
330
1F
100
AcDbEntity
  8
0-4
  6
Continuous
 62
     7
370
    13
100
AcDbLine
 10
-660.2933323999798
 20
-132.0629637596164
 30
0.0
 11
-663.5564450609806
 21
-107.2767930063436
 31
0.0
  0
LINE
  5
DC
330
1F
100
AcDbEntity
  8
0-4
  6
Continuous
 62
     7
370
    13
100
AcDbLine
 10
-660.2933323999798
 20
-132.0629637596164
 30
0.0
 11
-657.030219738979
 21
-107.2767930063436
 31
0.0
  0
LINE
  5
DD
330
1F
100
AcDbEntity
  8
0-4
  6
Continuous
 62
     7
370
    13
100
AcDbLine
 10
-660.2933323999798
 20
101.2704383070009
 30
0.0
 11
-663.5564450609806
 21
76.48426755372824
 31
0.0
  0
LINE
  5
DE
330
1F
100
AcDbEntity
  8
0-4
  6
Continuous
 62
     7
370
    13
100
AcDbLine
 10
-660.2933323999798
 20
101.2704383070009
 30
0.0
 11
-657.030219738979
 21
76.48426755372824
 31
0.0
  0
LINE
  5
DF
330
1F
100
AcDbEntity
  8
0-1
  6
Continuous
 62
     2
370
    13
100
AcDbLine
 10
188.3893804642517
 20
-127.9840420033875
 30
0.0
 11
191.3735047252314
 21
-112.0627740557524
 31
0.0
  0
LINE
  5
E0
330
1F
100
AcDbEntity
  8
0-1
  6
Continuous
 62
     2
370
    13
100
AcDbLine
 10
191.3735047252314
 20
-112.0627740557524
 30
0.0
 11
201.3732902773851
 21
-112.0627740557524
 31
0.0
  0
LINE
  5
E1
330
1F
100
AcDbEntity
  8
0-0
  6
Continuous
 62
     3
370
    13
100
AcDbLine
 10
283.4307688985846
 20
-124.9177677212928
 30
0.0
 11
203.5866394908564
 21
-124.9177677212928
 31
0.0
  0
LINE
  5
E2
330
1F
100
AcDbEntity
  8
0-4
  6
Continuous
 62
     7
370
    13
100
AcDbLine
 10
-410.2933736399504
 20
-651.4390277508538
 30
0.0
 11
139.7065851200793
 21
-651.4390277508538
 31
0.0
  0
LINE
  5
E3
330
1F
100
AcDbEntity
  8
0-4
  6
Continuous
 62
     7
370
    13
100
AcDbLine
 10
-410.2933736399504
 20
-416.4389947588774
 30
0.0
 11
-410.2933736399504
 21
-654.4389881604822
 31
0.0
  0
LINE
  5
E4
330
1F
100
AcDbEntity
  8
0-4
  6
Continuous
 62
     7
370
    13
100
AcDbLine
 10
139.7065851200793
 20
-416.4389947588774
 30
0.0
 11
139.7065851200793
 21
-654.4389881604822
 31
0.0
  0
LINE
  5
E5
330
1F
100
AcDbEntity
  8
0-4
  6
Continuous
 62
     7
370
    13
100
AcDbLine
 10
-410.2933736399504
 20
-651.4390277508538
 30
0.0
 11
-385.5072028866775
 21
-648.1757913699415
 31
0.0
  0
LINE
  5
E6
330
1F
100
AcDbEntity
  8
0-4
  6
Continuous
 62
     7
370
    13
100
AcDbLine
 10
-410.2933736399504
 20
-651.4390277508538
 30
0.0
 11
-385.5072028866775
 21
-654.7021404118545
 31
0.0
  0
LINE
  5
E7
330
1F
100
AcDbEntity
  8
0-4
  6
Continuous
 62
     7
370
    13
100
AcDbLine
 10
139.7065851200793
 20
-651.4390277508538
 30
0.0
 11
114.9205380867179
 21
-648.1757913699415
 31
0.0
  0
LINE
  5
E8
330
1F
100
AcDbEntity
  8
0-4
  6
Continuous
 62
     7
370
    13
100
AcDbLine
 10
139.7065851200793
 20
-651.4390277508538
 30
0.0
 11
114.9205380867179
 21
-654.7021404118545
 31
0.0
  0
LINE
  5
E9
330
1F
100
AcDbEntity
  8
0-3
  6
Continuous
 62
     7
370
    13
100
AcDbLine
 10
107.6621383295387
 20
-332.5390792183368
 30
0.0
 11
153.6191365875624
 21
-324.4359199066814
 31
0.0
  0
LINE
  5
EA
330
1F
100
AcDbEntity
  8
0-3
  6
Continuous
 62
     7
370
    13
100
AcDbLine
 10
-427.3378946624376
 20
-346.0784295733305
 30
0.0
 11
-379.0658494238397
 21
-337.5664378147262
 31
0.0
  0
LINE
  5
EB
330
1F
100
AcDbEntity
  8
0-3
  6
Continuous
 62
     7
370
    13
100
AcDbLine
 10
-427.3378946624376
 20
-332.5390792183368
 30
0.0
 11
-379.0658494238397
 21
-324.0277060592891
 31
0.0
  0
LINE
  5
EC
330
1F
100
AcDbEntity
  8
0-3
  6
Continuous
 62
     4
370
    13
100
AcDbLine
 10
-410.2933736399504
 20
-208.251046067999
 30
0.0
 11
-410.2933736399504
 21
-329.5337988525217
 31
0.0
  0
LINE
  5
ED
330
1F
100
AcDbEntity
  8
0-3
  6
Continuous
 62
     4
370
    13
100
AcDbLine
 10
-410.2933736399504
 20
-343.0729017676929
 30
0.0
 11
-410.2933736399504
 21
-391.4389122789365
 31
0.0
  0
LINE
  5
EE
330
1F
100
AcDbEntity
  8
0-3
  6
Continuous
 62
     4
370
    13
100
AcDbLine
 10
-391.9600623012678
 20
-208.251046067999
 30
0.0
 11
-391.9600623012678
 21
-326.3012450096164
 31
0.0
  0
LINE
  5
EF
330
1F
100
AcDbEntity
  8
0-3
  6
Continuous
 62
     4
370
    13
100
AcDbLine
 10
-391.9600623012678
 20
-339.8401004849648
 30
0.0
 11
-391.9600623012678
 21
-391.4389122789365
 31
0.0
  0
LINE
  5
F0
330
1F
100
AcDbEntity
  8
0-3
  6
Continuous
 62
     7
370
    13
100
AcDbLine
 10
107.6621383295387
 20
-346.0784295733305
 30
0.0
 11
153.6191365875624
 21
-337.9746516621185
 31
0.0
  0
LINE
  5
F1
330
1F
100
AcDbEntity
  8
0-3
  6
Continuous
 62
     4
370
    13
100
AcDbLine
 10
139.7065851200793
 20
-208.251046067999
 30
0.0
 11
139.7065851200793
 21
-326.8889764483305
 31
0.0
  0
LINE
  5
F2
330
1F
100
AcDbEntity
  8
0-3
  6
Continuous
 62
     4
370
    13
100
AcDbLine
 10
139.7065851200793
 20
-340.4278937836345
 30
0.0
 11
139.7065851200793
 21
-391.4389122789365
 31
0.0
  0
LINE
  5
F3
330
1F
100
AcDbEntity
  8
0-3
  6
Continuous
 62
     4
370
    13
100
AcDbLine
 10
121.373273781397
 20
-208.251046067999
 30
0.0
 11
121.373273781397
 21
-330.121530291236
 31
0.0
  0
LINE
  5
F4
330
1F
100
AcDbEntity
  8
0-3
  6
Continuous
 62
     4
370
    13
100
AcDbLine
 10
121.373273781397
 20
-343.6606950663627
 30
0.0
 11
121.373273781397
 21
-391.4389122789365
 31
0.0
  0
ARC
  5
F5
330
1F
100
AcDbEntity
  8
0-1
  6
JWW_DASHED1
 62
     2
370
    13
100
AcDbCircle
 10
180.5937888521317
 20
-133.3878802899162
 30
0.0
 40
6.666666752583272
100
AcDbArc
 50
284.9994964599609
 51
349.3851165771484
  0
ARC
  5
F6
330
1F
100
AcDbEntity
  8
0-1
  6
Continuous
 62
     2
370
    13
100
AcDbCircle
 10
-326.0590431791184
 20
-155.3961678743757
 30
0.0
 40
5.000000064437454
100
AcDbArc
 50
11.31021118164062
 51
90.00000000000001
  0
ARC
  5
F7
330
1F
100
AcDbEntity
  8
0-1
  6
Continuous
 62
     2
370
    13
100
AcDbCircle
 10
212.9015116139562
 20
-121.2801548887337
 30
0.0
 40
10.00000012887491
100
AcDbArc
 50
188.7071380615235
 51
285.0002746582031
  0
ARC
  5
F8
330
1F
100
AcDbEntity
  8
0-1
  6
Continuous
 62
     2
370
    13
100
AcDbCircle
 10
148.8955103734577
 20
-137.0628565356932
 30
0.0
 40
5.000000064437454
100
AcDbArc
 50
90.0
 51
169.911865234375
  0
ARC
  5
F9
330
1F
100
AcDbEntity
  8
0-1
  6
Continuous
 62
     2
370
    13
100
AcDbCircle
 10
183.4752255867179
 20
-127.0628235437169
 30
0.0
 40
5.000000064437454
100
AcDbArc
 50
270.0
 51
349.3843536376953
  0
ARC
  5
FA
330
1F
100
AcDbEntity
  8
0-1
  6
Continuous
 62
     2
370
    13
100
AcDbCircle
 10
135.552317937858
 20
-145.4565101991223
 30
0.0
 40
6.666666752583272
100
AcDbArc
 50
284.9994964599609
 51
349.9125671386719
  0
ARC
  5
FB
330
1F
100
AcDbEntity
  8
0-1
  6
Continuous
 62
     2
370
    13
100
AcDbCircle
 10
87.22113458165015
 20
-158.7296771649162
 30
0.0
 40
3.333333376291636
100
AcDbArc
 50
90.0
 51
164.0540161132812
  0
ARC
  5
FC
330
1F
100
AcDbEntity
  8
0-2
  6
Continuous
 62
     6
370
    13
100
AcDbCircle
 10
-449.1781706073277
 20
-128.7295781889871
 30
0.0
 40
3.333333376291636
100
AcDbArc
 50
190.3048858642578
 51
270.0
  0
ARC
  5
FD
330
1F
100
AcDbEntity
  8
0-2
  6
Continuous
 62
     6
370
    13
100
AcDbCircle
 10
178.5917532471908
 20
-128.7295781889871
 30
0.0
 40
3.333333376291636
100
AcDbArc
 50
270.0
 51
349.6962738037109
  0
ARC
  5
FE
330
1F
100
AcDbEntity
  8
0-2
  6
Continuous
 62
     6
370
    13
100
AcDbCircle
 10
139.1070384298345
 20
-122.0628070477287
 30
0.0
 40
10.00000012887491
100
AcDbArc
 50
185.7992401123047
 51
270.0000000000001
  0
ARC
  5
FF
330
1F
100
AcDbEntity
  8
0-2
  6
Continuous
 62
     6
370
    13
100
AcDbCircle
 10
-409.6937032297942
 20
-122.0628070477287
 30
0.0
 40
10.00000012887491
100
AcDbArc
 50
270.0
 51
354.2007598876953
  0
ARC
  5
100
330
1F
100
AcDbEntity
  8
0-2
  6
Continuous
 62
     6
370
    13
100
AcDbCircle
 10
-422.0032158063353
 20
-128.7295781889871
 30
0.0
 40
3.333333376291636
100
AcDbArc
 50
270.0
 51
354.2015228271484
  0
ARC
  5
101
330
1F
100
AcDbEntity
  8
0-2
  6
Continuous
 62
     6
370
    13
100
AcDbCircle
 10
-429.0077423054908
 20
-98.72947921305808
 30
0.0
 40
13.33333350516654
100
AcDbArc
 50
270.0
 51
354.2009735107422
  0
ARC
  5
102
330
1F
100
AcDbEntity
  8
0-2
  6
Continuous
 62
     6
370
    13
100
AcDbCircle
 10
-392.2813629109595
 20
97.9371764562832
 30
0.0
 40
3.333333376291636
100
AcDbArc
 50
90.0
 51
174.2015228271484
  0
ARC
  5
103
330
1F
100
AcDbEntity
  8
0-2
  6
Continuous
 62
     6
370
    13
100
AcDbCircle
 10
121.6946981109999
 20
97.9371764562832
 30
0.0
 40
3.333333376291636
100
AcDbArc
 50
5.798583984374999
 51
89.99999999999999
  0
ARC
  5
104
330
1F
100
AcDbEntity
  8
0-2
  6
Continuous
 62
     6
370
    13
100
AcDbCircle
 10
-386.631322000909
 20
55.52945501413788
 30
0.0
 40
5.000000064437454
100
AcDbArc
 50
280.1220397949219
 51
354.2021484375
  0
ARC
  5
105
330
1F
100
AcDbEntity
  8
0-2
  6
JWW_DASHED1
 62
     6
370
    13
100
AcDbCircle
 10
116.0446572009494
 20
55.52945501413788
 30
0.0
 40
5.000000064437454
100
AcDbArc
 50
185.7978515625
 51
259.8779602050781
  0
ARC
  5
106
330
1F
100
AcDbEntity
  8
0-0
  6
Continuous
 62
     3
370
    13
100
AcDbCircle
 10
-452.3818977108962
 20
-157.2225212052456
 30
0.0
 40
5.000000064437454
100
AcDbArc
 50
254.9999084472656
 51
318.4355773925781
  0
ARC
  5
107
330
1F
100
AcDbEntity
  8
0-0
  6
Continuous
 62
     3
370
    13
100
AcDbCircle
 10
-468.9499733548996
 20
-152.7829559075261
 30
0.0
 40
5.000000064437454
100
AcDbArc
 50
191.5648956298828
 51
254.9999084472656
  0
ARC
  5
108
330
1F
100
AcDbEntity
  8
0-0
  6
Continuous
 62
     3
370
    13
100
AcDbCircle
 10
-489.4204224416816
 20
-139.9648307755581
 30
0.0
 40
5.416692108721347
100
AcDbArc
 50
187.620590209961
 51
322.37890625
  0
ARC
  5
109
330
1F
100
AcDbEntity
  8
0-0
  6
Continuous
 62
     3
370
    13
100
AcDbCircle
 10
-478.3231175562298
 20
-148.5460438245445
 30
0.0
 40
3.333333376291636
100
AcDbArc
 50
11.56642150878906
 51
75.00077819824219
  0
ARC
  5
10A
330
1F
100
AcDbEntity
  8
0-0
  6
Continuous
 62
     3
370
    13
100
AcDbCircle
 10
-442.1459308480374
 20
-158.2397463160987
 30
0.0
 40
3.333333376291636
100
AcDbArc
 50
75.00022888183594
 51
138.4349822998047
  0
ARC
  5
10B
330
1F
100
AcDbEntity
  8
0-0
  6
Continuous
 62
     3
370
    13
100
AcDbCircle
 10
-508.7390391540973
 20
-134.7883896860311
 30
0.0
 40
5.416692108721347
100
AcDbArc
 50
187.6192932128906
 51
322.3796997070312
  0
ARC
  5
10C
330
1F
100
AcDbEntity
  8
0-0
  6
Continuous
 62
     3
370
    13
100
AcDbCircle
 10
-428.2448853323066
 20
-156.3567292658453
 30
0.0
 40
5.416692108721347
100
AcDbArc
 50
187.620590209961
 51
322.3807373046876
  0
ARC
  5
10D
330
1F
100
AcDbEntity
  8
0-0
  6
Continuous
 62
     3
370
    13
100
AcDbCircle
 10
-492.5865386922095
 20
-161.9788094759382
 30
0.0
 40
6.666666752583272
100
AcDbArc
 50
11.56620788574219
 51
75.00050354003906
  0
ARC
  5
10E
330
1F
100
AcDbEntity
  8
0-0
  6
JWW_DASHED1
 62
     3
370
    13
100
AcDbCircle
 10
-436.5102414476993
 20
-177.0043452656341
 30
0.0
 40
6.666666752583272
100
AcDbArc
 50
74.999755859375
 51
138.4350738525391
  0
ARC
  5
10F
330
1F
100
AcDbEntity
  8
0-0
  6
JWW_DASHED1
 62
     3
370
    13
100
AcDbCircle
 10
-447.8728018230163
 20
-172.234200364874
 30
0.0
 40
5.000000064437454
100
AcDbArc
 50
255.0012817382812
 51
318.4365081787109
  0
ARC
  5
110
330
1F
100
AcDbEntity
  8
0-0
  6
Continuous
 62
     3
370
    13
100
AcDbCircle
 10
181.7951091910251
 20
-157.2225212052456
 30
0.0
 40
5.000000064437454
100
AcDbArc
 50
221.5644226074219
 51
285.0000915527344
  0
ARC
  5
111
330
1F
100
AcDbEntity
  8
0-0
  6
Continuous
 62
     3
370
    13
100
AcDbCircle
 10
198.3631848350285
 20
-152.7829559075261
 30
0.0
 40
5.000000064437454
100
AcDbArc
 50
285.0000915527344
 51
348.4351043701172
  0
ARC
  5
112
330
1F
100
AcDbEntity
  8
0-0
  6
Continuous
 62
     3
370
    13
100
AcDbCircle
 10
218.8338813616335
 20
-139.9648307755581
 30
0.0
 40
5.416692108721347
100
AcDbArc
 50
217.62109375
 51
352.3794097900391
  0
ARC
  5
113
330
1F
100
AcDbEntity
  8
0-0
  6
Continuous
 62
     3
370
    13
100
AcDbCircle
 10
207.7362053164476
 20
-148.5460438245445
 30
0.0
 40
3.333333376291636
100
AcDbArc
 50
104.9992218017578
 51
168.4335784912109
  0
ARC
  5
114
330
1F
100
AcDbEntity
  8
0-0
  6
Continuous
 62
     3
370
    13
100
AcDbCircle
 10
171.5590186082551
 20
-158.2397463160987
 30
0.0
 40
3.333333376291636
100
AcDbArc
 50
41.56501770019532
 51
104.9997711181641
  0
ARC
  5
115
330
1F
100
AcDbEntity
  8
0-0
  6
Continuous
 62
     3
370
    13
100
AcDbCircle
 10
238.1522506342262
 20
-134.7883896860311
 30
0.0
 40
5.416692108721347
100
AcDbArc
 50
217.6203002929688
 51
352.3807067871094
  0
ARC
  5
116
330
1F
100
AcDbEntity
  8
0-0
  6
Continuous
 62
     3
370
    13
100
AcDbCircle
 10
157.6580968124358
 20
-156.3567292658453
 30
0.0
 40
5.416692108721347
100
AcDbArc
 50
217.6192626953125
 51
352.3794097900391
  0
ARC
  5
117
330
1F
100
AcDbEntity
  8
0-0
  6
Continuous
 62
     3
370
    13
100
AcDbCircle
 10
221.9996264524272
 20
-161.9788094759382
 30
0.0
 40
6.666666752583272
100
AcDbArc
 50
104.9994964599609
 51
168.4337921142578
  0
ARC
  5
118
330
1F
100
AcDbEntity
  8
0-0
  6
Continuous
 62
     3
370
    13
100
AcDbCircle
 10
165.9233292079171
 20
-177.0043452656341
 30
0.0
 40
6.666666752583272
100
AcDbArc
 50
41.56492614746094
 51
105.000244140625
  0
ARC
  5
119
330
1F
100
AcDbEntity
  8
0-0
  6
Continuous
 62
     3
370
    13
100
AcDbCircle
 10
177.2860133031452
 20
-172.234200364874
 30
0.0
 40
5.000000064437454
100
AcDbArc
 50
221.5634918212891
 51
284.9987182617188
  0
ARC
  5
11A
330
1F
100
AcDbEntity
  8
0-0
  6
Continuous
 62
     3
370
    13
100
AcDbCircle
 10
209.7741196956705
 20
-163.5292674045699
 30
0.0
 40
5.000000064437454
100
AcDbArc
 50
285.0000915527344
 51
348.4337158203125
  0
ARC
  5
11B
330
1F
100
AcDbEntity
  8
0-0
  6
Continuous
 62
     3
370
    13
100
AcDbCircle
 10
-396.2644017359173
 20
-166.584406894646
 30
0.0
 40
8.33333344072909
100
AcDbArc
 50
270.0
 51
336.4222106933594
  0
ARC
  5
11C
330
1F
100
AcDbEntity
  8
0-0
  6
Continuous
 62
     3
370
    13
100
AcDbCircle
 10
-480.3607844956301
 20
-163.5290199647473
 30
0.0
 40
5.000000064437454
100
AcDbArc
 50
191.5619964599609
 51
255.0001983642578
  0
ARC
  5
11D
330
1F
100
AcDbEntity
  8
0-0
  6
Continuous
 62
     3
370
    13
100
AcDbCircle
 10
-524.2474537576658
 20
-184.5534868144095
 30
0.0
 40
36.66666907233162
100
AcDbArc
 50
74.99990844726562
 51
115.9521484375
  0
ARC
  5
11E
330
1F
100
AcDbEntity
  8
0-0
  6
Continuous
 62
     3
370
    13
100
AcDbCircle
 10
283.4307688985846
 20
-128.2510295720108
 30
0.0
 40
3.333333376291636
100
AcDbArc
 50
7.125320434570312
 51
90.0
  0
ARC
  5
11F
330
1F
100
AcDbEntity
  8
0-0
  6
Continuous
 62
     3
370
    13
100
AcDbCircle
 10
253.6605415178835
 20
-184.5534868144095
 30
0.0
 40
36.66666907233162
100
AcDbArc
 50
64.0478515625
 51
105.0000915527344
  0
ARC
  5
120
330
1F
100
AcDbEntity
  8
0-0
  6
Continuous
 62
     3
370
    13
100
AcDbCircle
 10
156.2083468916166
 20
-183.0579605264028
 30
0.0
 40
10.00000012887491
100
AcDbArc
 50
104.9975433349609
 51
173.000244140625
  0
ARC
  5
121
330
1F
100
AcDbEntity
  8
0-0
  6
Continuous
 62
     3
370
    13
100
AcDbCircle
 10
134.192636112478
 20
-198.2510130760227
 30
0.0
 40
10.00000012887491
100
AcDbArc
 50
270.0
 51
353.0003204345703
  0
ARC
  5
122
330
1F
100
AcDbEntity
  8
0-0
  6
Continuous
 62
     3
370
    13
100
AcDbCircle
 10
144.0701863922499
 20
-172.5073739290632
 30
0.0
 40
10.00000012887491
100
AcDbArc
 50
105.0015869140625
 51
173.000244140625
  0
ARC
  5
123
330
1F
100
AcDbEntity
  8
0-0
  6
Continuous
 62
     3
370
    13
100
AcDbCircle
 10
123.7417677636603
 20
-173.9615777666899
 30
0.0
 40
10.00000012887491
100
AcDbArc
 50
274.0
 51
353.000244140625
  0
ARC
  5
124
330
1F
100
AcDbEntity
  8
0-0
  6
Continuous
 62
     3
370
    13
100
AcDbCircle
 10
-338.3367597384512
 20
-173.2509305960818
 30
0.0
 40
3.333333376291636
100
AcDbArc
 50
5.206314086914062
 51
90.0
  0
ARC
  5
125
330
1F
100
AcDbEntity
  8
0-0
  6
Continuous
 62
     3
370
    13
100
AcDbCircle
 10
97.86995478857594
 20
-234.9178831932102
 30
0.0
 40
26.66666701033309
100
AcDbArc
 50
90.0
 51
175.9142150878906
  0
ARC
  5
126
330
1F
100
AcDbEntity
  8
0-0
  6
Continuous
 62
     3
370
    13
100
AcDbCircle
 10
98.03796642814521
 20
-232.5642356003047
 30
0.0
 40
46.66666340183568
100
AcDbArc
 50
94.00006103515625
 51
175.9143676757812
  0
ARC
  5
127
330
1F
100
AcDbEntity
  8
0-0
  6
Continuous
 62
     3
370
    13
100
AcDbCircle
 10
59.93619277949652
 20
-344.9177512253047
 30
0.0
 40
3.333333376291636
100
AcDbArc
 50
270.0
 51
355.9161682128906
  0
ARC
  5
128
330
1F
100
AcDbEntity
  8
0-0
  6
Continuous
 62
     3
370
    13
100
AcDbCircle
 10
-368.4566195885355
 20
-234.9178831932102
 30
0.0
 40
26.66666701033309
100
AcDbArc
 50
4.085784912109376
 51
90.00000000000001
  0
ARC
  5
129
330
1F
100
AcDbEntity
  8
0-0
  6
Continuous
 62
     3
370
    13
100
AcDbCircle
 10
-330.5229812993676
 20
-344.9177512253047
 30
0.0
 40
3.333333376291636
100
AcDbArc
 50
184.0838317871093
 51
270.0
  0
ARC
  5
12A
330
1F
100
AcDbEntity
  8
0-0
  6
Continuous
 62
     3
370
    13
100
AcDbCircle
 10
-368.6247549480163
 20
-232.5642356003047
 30
0.0
 40
46.66666340183568
100
AcDbArc
 50
4.08563232421875
 51
39.44905090332031
  0
ARC
  5
12B
330
1F
100
AcDbEntity
  8
0-0
  6
JWW_DASHED1
 62
     3
370
    13
100
AcDbCircle
 10
-368.6247549480163
 20
-232.5642356003047
 30
0.0
 40
46.66666340183568
100
AcDbArc
 50
39.4490966796875
 51
86.00001525878906
  0
ARC
  5
12C
330
1F
100
AcDbEntity
  8
0-0
  6
Continuous
 62
     3
370
    13
100
AcDbCircle
 10
-459.9254718636624
 20
-193.2509965800345
 30
0.0
 40
5.000000064437454
100
AcDbArc
 50
196.9777221679688
 51
270.0
  0
ARC
  5
12D
330
1F
100
AcDbEntity
  8
0-0
  6
Continuous
 62
     3
370
    13
100
AcDbCircle
 10
-475.9324777098405
 20
-175.0686235331595
 30
0.0
 40
5.000000064437454
100
AcDbArc
 50
16.97900390625
 51
75.00051879882812
  0
ARC
  5
12E
330
1F
100
AcDbEntity
  8
0-0
  6
JWW_DASHED1
 62
     3
370
    13
100
AcDbCircle
 10
-426.7950116915762
 20
-183.0579605264028
 30
0.0
 40
10.00000012887491
100
AcDbArc
 50
6.999755859375001
 51
75.00245666503906
  0
ARC
  5
12F
330
1F
100
AcDbEntity
  8
0-0
  6
Continuous
 62
     3
370
    13
100
AcDbCircle
 10
-414.656974912121
 20
-172.5073739290632
 30
0.0
 40
10.00000012887491
100
AcDbArc
 50
6.999755859375001
 51
74.9984130859375
  0
ARC
  5
130
330
1F
100
AcDbEntity
  8
0-0
  6
JWW_DASHED1
 62
     3
370
    13
100
AcDbCircle
 10
-394.3284325636199
 20
-173.9615777666899
 30
0.0
 40
10.00000012887491
100
AcDbArc
 50
186.999755859375
 51
266.0
  0
ARC
  5
131
330
1F
100
AcDbEntity
  8
0-0
  6
Continuous
 62
     3
370
    13
100
AcDbCircle
 10
-404.7794246323488
 20
-198.2510130760227
 30
0.0
 40
10.00000012887491
100
AcDbArc
 50
199.4709014892578
 51
270.0
  0
ARC
  5
132
330
1F
100
AcDbEntity
  8
0-0
  6
Continuous
 62
     3
370
    13
100
AcDbCircle
 10
-418.9216002552374
 20
-203.2510295720108
 30
0.0
 40
5.000000064437454
100
AcDbArc
 50
19.47021484375
 51
90.00000000000001
  0
ARC
  5
133
330
1F
100
AcDbEntity
  8
0-0
  6
Continuous
 62
     3
370
    13
100
AcDbCircle
 10
-397.306865708679
 20
-166.584406894646
 30
0.0
 40
8.33333344072909
100
AcDbArc
 50
198.8489990234375
 51
270.0
  0
ARC
  5
134
330
1F
100
AcDbEntity
  8
0-0
  6
Continuous
 62
     3
370
    13
100
AcDbCircle
 10
140.216806034353
 20
-211.5843079187169
 30
0.0
 40
3.333333376291636
100
AcDbArc
 50
11.3099365234375
 51
90.0
  0
ARC
  5
135
330
1F
100
AcDbEntity
  8
0-0
  6
Continuous
 62
     3
370
    13
100
AcDbCircle
 10
167.3993077499358
 20
-185.2359258452371
 30
0.0
 40
5.000000064437454
100
AcDbArc
 50
104.9991760253906
 51
171.3195953369141
  0
ARC
  5
136
330
1F
100
AcDbEntity
  8
0-0
  6
Continuous
 62
     3
370
    13
100
AcDbCircle
 10
174.4857368303835
 20
-216.1208696269095
 30
0.0
 40
16.66666688145818
100
AcDbArc
 50
104.9994506835938
 51
171.319320678711
  0
ARC
  5
137
330
1F
100
AcDbEntity
  8
0-0
  6
Continuous
 62
     3
370
    13
100
AcDbCircle
 10
-554.0174336985442
 20
-128.2510295720108
 30
0.0
 40
3.333333376291636
100
AcDbArc
 50
90.0
 51
172.8746795654297
  0
TEXT
  5
138
330
1F
100
AcDbEntity
  8
0-4
  6
Continuous
 62
     2
370
    13
100
AcDbText
 10
-675.933365391956
 20
-36.6462008663521
 30
0.0
 40
30.48
  1
70
 50
90.0
 41
1.0625
  7
ＭＳ ゴシック
100
AcDbText
  0
TEXT
  5
139
330
1F
100
AcDbEntity
  8
0-4
  6
Continuous
 62
     2
370
    13
100
AcDbText
 10
-190.2935179798469
 20
296.9104465549951
 30
0.0
 40
30.48
  1
φ235
 41
1.1
  7
ＭＳ ゴシック
100
AcDbText
  0
TEXT
  5
13A
330
1F
100
AcDbEntity
  8
0-4
  6
Continuous
 62
     2
370
    13
100
AcDbText
 10
-190.2935179798469
 20
216.9104300590069
 30
0.0
 40
30.48
  1
φ145
 41
1.1
  7
ＭＳ ゴシック
100
AcDbText
  0
TEXT
  5
13B
330
1F
100
AcDbEntity
  8
0-4
  6
Continuous
 62
     2
370
    13
100
AcDbText
 10
-190.2935179798469
 20
-475.7989617669011
 30
0.0
 40
30.48
  1
φ119
 41
1.1
  7
ＭＳ ゴシック
100
AcDbText
  0
TEXT
  5
13C
330
1F
100
AcDbEntity
  8
0-4
  6
Continuous
 62
     2
370
    13
100
AcDbText
 10
-190.2935179798469
 20
-555.7989782628892
 30
0.0
 40
30.48
  1
φ125
 41
1.1
  7
ＭＳ ゴシック
100
AcDbText
  0
TEXT
  5
13D
330
1F
100
AcDbEntity
  8
0-4
  6
Continuous
 62
     2
370
    13
100
AcDbText
 10
-190.2935179798469
 20
-635.7989947588774
 30
0.0
 40
30.48
  1
φ165
 41
1.1
  7
ＭＳ ゴシック
100
AcDbText
  0
LINE
  5
13E
330
1F
100
AcDbEntity
  8
0-1
  6
Continuous
 62
     2
370
    13
100
AcDbLine
 10
175.0001642216418
 20
886.3346823948792
 30
0.0
 11
184.6740715273852
 21
888.9265320570415
 31
0.0
  0
LINE
  5
13F
330
1F
100
AcDbEntity
  8
0-1
  6
Continuous
 62
     2
370
    13
100
AcDbLine
 10
171.6946981110001
 20
880.2724067403182
 30
0.0
 11
189.4179878069459
 21
885.0216017360952
 31
0.0
  0
LINE
  5
140
330
1F
100
AcDbEntity
  8
0-1
  6
Continuous
 62
     2
370
    13
100
AcDbLine
 10
108.2943470763716
 20
1001.872583577312
 30
0.0
 11
115.3767346397161
 21
1008.954641220893
 31
0.0
  0
LINE
  5
141
330
1F
100
AcDbEntity
  8
0-1
  6
Continuous
 62
     2
370
    13
100
AcDbLine
 10
101.3920957039053
 20
1002.041172576467
 30
0.0
 11
114.3658604843109
 21
1015.015267276636
 31
0.0
  0
LINE
  5
142
330
1F
100
AcDbEntity
  8
0-1
  6
Continuous
 62
     2
370
    13
100
AcDbLine
 10
171.6946981110001
 20
880.2724067403182
 30
0.0
 11
175.0001642216418
 21
886.3346823948792
 31
0.0
  0
LINE
  5
143
330
1F
100
AcDbEntity
  8
0-1
  6
Continuous
 62
     2
370
    13
100
AcDbLine
 10
189.4179878069459
 20
885.0216017360952
 30
0.0
 11
184.6740715273852
 21
888.9265320570415
 31
0.0
  0
LINE
  5
144
330
1F
100
AcDbEntity
  8
0-1
  6
Continuous
 62
     2
370
    13
100
AcDbLine
 10
115.3767346397161
 20
1008.954641220893
 30
0.0
 11
114.3658604843109
 21
1015.015267276636
 31
0.0
  0
LINE
  5
145
330
1F
100
AcDbEntity
  8
0-1
  6
Continuous
 62
     2
370
    13
100
AcDbLine
 10
108.2943470763716
 20
1001.872583577312
 30
0.0
 11
101.3920957039053
 21
1002.041172576467
 31
0.0
  0
LINE
  5
146
330
1F
100
AcDbEntity
  8
0-1
  6
Continuous
 62
     2
370
    13
100
AcDbLine
 10
82.36694262113517
 20
1027.799658112785
 30
0.0
 11
89.44933018447962
 21
1034.881385836602
 31
0.0
  0
LINE
  5
147
330
1F
100
AcDbEntity
  8
0-1
  6
Continuous
 62
     2
370
    13
100
AcDbLine
 10
82.5358615400539
 20
1020.897076820555
 30
0.0
 11
95.51028615998658
 21
1033.87084160096
 31
0.0
  0
LINE
  5
148
330
1F
100
AcDbEntity
  8
0-1
  6
Continuous
 62
     2
370
    13
100
AcDbLine
 10
-33.17029872177044
 20
1094.505475258055
 30
0.0
 11
-30.57844905960827
 21
1104.179382563798
 31
0.0
  0
LINE
  5
149
330
1F
100
AcDbEntity
  8
0-1
  6
Continuous
 62
     2
370
    13
100
AcDbLine
 10
-39.23224445656764
 20
1091.200009147413
 30
0.0
 11
-34.4833793805541
 21
1108.922968923595
 31
0.0
  0
LINE
  5
14A
330
1F
100
AcDbEntity
  8
0-1
  6
Continuous
 62
     2
370
    13
100
AcDbLine
 10
82.5358615400539
 20
1020.897076820555
 30
0.0
 11
82.36694262113517
 21
1027.799658112785
 31
0.0
  0
LINE
  5
14B
330
1F
100
AcDbEntity
  8
0-1
  6
Continuous
 62
     2
370
    13
100
AcDbLine
 10
95.51028615998658
 20
1033.87084160096
 30
0.0
 11
89.44933018447962
 21
1034.881385836602
 31
0.0
  0
LINE
  5
14C
330
1F
100
AcDbEntity
  8
0-1
  6
Continuous
 62
     2
370
    13
100
AcDbLine
 10
-30.57844905960827
 20
1104.179382563798
 30
0.0
 11
-34.4833793805541
 21
1108.922968923595
 31
0.0
  0
LINE
  5
14D
330
1F
100
AcDbEntity
  8
0-1
  6
Continuous
 62
     2
370
    13
100
AcDbLine
 10
-33.17029872177044
 20
1094.505475258055
 30
0.0
 11
-39.23224445656764
 21
1091.200009147413
 31
0.0
  0
LINE
  5
14E
330
1F
100
AcDbEntity
  8
0-1
  6
Continuous
 62
     2
370
    13
100
AcDbLine
 10
-68.58751525470967
 20
1103.995617255521
 30
0.0
 11
-65.99533567278398
 21
1113.669194641501
 31
0.0
  0
LINE
  5
14F
330
1F
100
AcDbEntity
  8
0-1
  6
Continuous
 62
     2
370
    13
100
AcDbLine
 10
-64.99007015335827
 20
1098.102590439643
 30
0.0
 11
-60.24153499710827
 21
1115.824230536771
 31
0.0
  0
LINE
  5
150
330
1F
100
AcDbEntity
  8
0-1
  6
Continuous
 62
     2
370
    13
100
AcDbLine
 10
-201.9991495452499
 20
1103.995617255521
 30
0.0
 11
-204.5913291271756
 21
1113.669194641501
 31
0.0
  0
LINE
  5
151
330
1F
100
AcDbEntity
  8
0-1
  6
Continuous
 62
     2
370
    13
100
AcDbLine
 10
-205.5959348070742
 20
1098.102590439643
 30
0.0
 11
-210.3451298028513
 21
1115.824890376298
 31
0.0
  0
LINE
  5
152
330
1F
100
AcDbEntity
  8
0-1
  6
Continuous
 62
     2
370
    13
100
AcDbLine
 10
-64.99007015335827
 20
1098.102590439643
 30
0.0
 11
-68.58751525470967
 21
1103.995617255521
 31
0.0
  0
LINE
  5
153
330
1F
100
AcDbEntity
  8
0-1
  6
Continuous
 62
     2
370
    13
100
AcDbLine
 10
-60.24153499710827
 20
1115.824230536771
 30
0.0
 11
-65.99533567278398
 21
1113.669194641501
 31
0.0
  0
LINE
  5
154
330
1F
100
AcDbEntity
  8
0-1
  6
Continuous
 62
     2
370
    13
100
AcDbLine
 10
-204.5913291271756
 20
1113.669194641501
 30
0.0
 11
-210.3451298028513
 21
1115.824890376298
 31
0.0
  0
LINE
  5
155
330
1F
100
AcDbEntity
  8
0-1
  6
Continuous
 62
     2
370
    13
100
AcDbLine
 10
-201.9991495452499
 20
1103.995617255521
 30
0.0
 11
-205.5959348070742
 21
1098.102590439643
 31
0.0
  0
LINE
  5
156
330
1F
100
AcDbEntity
  8
0-1
  6
Continuous
 62
     2
370
    13
100
AcDbLine
 10
-237.4163660781892
 20
1094.505475258055
 30
0.0
 11
-240.0082157403513
 21
1104.179382563798
 31
0.0
  0
LINE
  5
157
330
1F
100
AcDbEntity
  8
0-1
  6
Continuous
 62
     2
370
    13
100
AcDbLine
 10
-231.3540904236284
 20
1091.200009147413
 30
0.0
 11
-236.1026255798784
 21
1108.923298843359
 31
0.0
  0
LINE
  5
158
330
1F
100
AcDbEntity
  8
0-1
  6
Continuous
 62
     2
370
    13
100
AcDbLine
 10
-352.9539373408582
 20
1027.799658112785
 30
0.0
 11
-360.0359949844391
 21
1034.881385836602
 31
0.0
  0
LINE
  5
159
330
1F
100
AcDbEntity
  8
0-1
  6
Continuous
 62
     2
370
    13
100
AcDbLine
 10
-353.1221964202498
 20
1020.897076820555
 30
0.0
 11
-366.0966210401825
 21
1033.87084160096
 31
0.0
  0
LINE
  5
15A
330
1F
100
AcDbEntity
  8
0-1
  6
Continuous
 62
     2
370
    13
100
AcDbLine
 10
-231.3540904236284
 20
1091.200009147413
 30
0.0
 11
-237.4163660781892
 21
1094.505475258055
 31
0.0
  0
LINE
  5
15B
330
1F
100
AcDbEntity
  8
0-1
  6
Continuous
 62
     2
370
    13
100
AcDbLine
 10
-236.1026255798784
 20
1108.923298843359
 30
0.0
 11
-240.0082157403513
 21
1104.179382563798
 31
0.0
  0
LINE
  5
15C
330
1F
100
AcDbEntity
  8
0-1
  6
Continuous
 62
     2
370
    13
100
AcDbLine
 10
-360.0359949844391
 20
1034.881385836602
 30
0.0
 11
-366.0966210401825
 21
1033.87084160096
 31
0.0
  0
LINE
  5
15D
330
1F
100
AcDbEntity
  8
0-1
  6
Continuous
 62
     2
370
    13
100
AcDbLine
 10
-352.9539373408582
 20
1027.799658112785
 30
0.0
 11
-353.1221964202498
 21
1020.897076820555
 31
0.0
  0
LINE
  5
15E
330
1F
100
AcDbEntity
  8
0-1
  6
Continuous
 62
     2
370
    13
100
AcDbLine
 10
-378.8810118763311
 20
1001.872583577312
 30
0.0
 11
-385.963069519912
 21
1008.954311301129
 31
0.0
  0
LINE
  5
15F
330
1F
100
AcDbEntity
  8
0-1
  6
Continuous
 62
     2
370
    13
100
AcDbLine
 10
-371.9785955439832
 20
1002.041172576467
 30
0.0
 11
-384.9525252842703
 21
1015.015267276636
 31
0.0
  0
LINE
  5
160
330
1F
100
AcDbEntity
  8
0-1
  6
Continuous
 62
     2
370
    13
100
AcDbLine
 10
-445.5868290216013
 20
886.3346823948792
 30
0.0
 11
-455.2609012872263
 21
888.9265320570415
 31
0.0
  0
LINE
  5
161
330
1F
100
AcDbEntity
  8
0-1
  6
Continuous
 62
     2
370
    13
100
AcDbLine
 10
-442.2813629109596
 20
880.2730665798452
 30
0.0
 11
-460.0046526069053
 21
885.0216017360952
 31
0.0
  0
LINE
  5
162
330
1F
100
AcDbEntity
  8
0-1
  6
Continuous
 62
     2
370
    13
100
AcDbLine
 10
-371.9785955439832
 20
1002.041172576467
 30
0.0
 11
-378.8810118763311
 21
1001.872583577312
 31
0.0
  0
LINE
  5
163
330
1F
100
AcDbEntity
  8
0-1
  6
Continuous
 62
     2
370
    13
100
AcDbLine
 10
-384.9525252842703
 20
1015.015267276636
 30
0.0
 11
-385.963069519912
 21
1008.954311301129
 31
0.0
  0
LINE
  5
164
330
1F
100
AcDbEntity
  8
0-1
  6
Continuous
 62
     2
370
    13
100
AcDbLine
 10
-455.2609012872263
 20
888.9265320570415
 30
0.0
 11
-460.0046526069053
 21
885.0216017360952
 31
0.0
  0
LINE
  5
165
330
1F
100
AcDbEntity
  8
0-1
  6
Continuous
 62
     2
370
    13
100
AcDbLine
 10
-445.5868290216013
 20
886.3346823948792
 30
0.0
 11
-442.2813629109596
 21
880.2730665798452
 31
0.0
  0
LINE
  5
166
330
1F
100
AcDbEntity
  8
0-1
  6
Continuous
 62
     2
370
    13
100
AcDbLine
 10
184.4903062191081
 20
850.9177957817036
 30
0.0
 11
194.1642135248515
 21
853.5103052833925
 31
0.0
  0
LINE
  5
167
330
1F
100
AcDbEntity
  8
0-1
  6
Continuous
 62
     2
370
    13
100
AcDbLine
 10
178.5969494834661
 20
854.514581043528
 30
0.0
 11
196.3195793398852
 21
859.2634461195415
 31
0.0
  0
LINE
  5
168
330
1F
100
AcDbEntity
  8
0-1
  6
Continuous
 62
     2
370
    13
100
AcDbLine
 10
194.1642135248515
 20
853.5103052833925
 30
0.0
 11
196.3195793398852
 21
859.2634461195415
 31
0.0
  0
LINE
  5
169
330
1F
100
AcDbEntity
  8
0-1
  6
Continuous
 62
     2
370
    13
100
AcDbLine
 10
184.4903062191081
 20
850.9177957817036
 30
0.0
 11
178.5969494834661
 21
854.514581043528
 31
0.0
  0
LINE
  5
16A
330
1F
100
AcDbEntity
  8
0-1
  6
Continuous
 62
     2
370
    13
100
AcDbLine
 10
-455.0769710190676
 20
850.9177957817036
 30
0.0
 11
-464.750878324811
 21
853.5103052833925
 31
0.0
  0
LINE
  5
16B
330
1F
100
AcDbEntity
  8
0-1
  6
Continuous
 62
     2
370
    13
100
AcDbLine
 10
-449.183284363662
 20
854.514581043528
 30
0.0
 11
-466.9062441398447
 21
859.2634461195415
 31
0.0
  0
LINE
  5
16C
330
1F
100
AcDbEntity
  8
0-1
  6
Continuous
 62
     2
370
    13
100
AcDbLine
 10
-464.750878324811
 20
853.5103052833925
 30
0.0
 11
-466.9062441398447
 21
859.2634461195415
 31
0.0
  0
LINE
  5
16D
330
1F
100
AcDbEntity
  8
0-1
  6
Continuous
 62
     2
370
    13
100
AcDbLine
 10
-455.0769710190676
 20
850.9177957817036
 30
0.0
 11
-449.183284363662
 21
854.514581043528
 31
0.0
  0
LINE
  5
16E
330
1F
100
AcDbEntity
  8
0-0
  6
JWW_CENTER1
 62
     3
370
    13
100
AcDbLine
 10
-636.0224550773446
 20
784.2119786364332
 30
0.0
 11
384.9940936979932
 21
784.2119786364332
 31
0.0
  0
LINE
  5
16F
330
1F
100
AcDbEntity
  8
0-1
  6
Continuous
 62
     4
370
    13
100
AcDbLine
 10
-358.6265777547096
 20
784.2119786364332
 30
0.0
 11
-370.6114080439832
 21
791.1313858366021
 31
0.0
  0
LINE
  5
170
330
1F
100
AcDbEntity
  8
0-1
  6
Continuous
 62
     4
370
    13
100
AcDbLine
 10
-365.2929364962634
 20
784.2119786364332
 30
0.0
 11
-372.2779977293717
 21
788.2449178256223
 31
0.0
  0
LINE
  5
171
330
1F
100
AcDbEntity
  8
0-1
  6
Continuous
 62
     4
370
    13
100
AcDbLine
 10
-336.9597571254867
 20
784.2119786364332
 30
0.0
 11
-336.9505193721082
 21
784.2278147850817
 31
0.0
  0
LINE
  5
172
330
1F
100
AcDbEntity
  8
0-1
  6
Continuous
 62
     4
370
    13
100
AcDbLine
 10
-32.2781956812298
 20
976.4779995401494
 30
0.0
 11
-13.3084691187298
 21
987.4303459295073
 31
0.0
  0
LINE
  5
173
330
1F
100
AcDbEntity
  8
0-1
  6
Continuous
 62
     4
370
    13
100
AcDbLine
 10
-30.61144103595968
 20
973.5915315291696
 30
0.0
 11
-11.64204439322322
 21
984.543877918528
 31
0.0
  0
LINE
  5
174
330
1F
100
AcDbEntity
  8
0-1
  6
JWW_CENTER1
 62
     4
370
    13
100
AcDbLine
 10
-49.37018390969264
 20
996.3365299455551
 30
0.0
 11
5.449943835239637
 21
964.6856774328859
 31
0.0
  0
LINE
  5
175
330
1F
100
AcDbEntity
  8
0-2
  6
JWW_CENTER1
 62
     6
370
    13
100
AcDbLine
 10
-438.6268416905203
 20
806.1113926989332
 30
0.0
 11
-438.6268416905203
 21
778.187313834913
 31
0.0
  0
LINE
  5
176
330
1F
100
AcDbEntity
  8
0-2
  6
Continuous
 62
     6
370
    13
100
AcDbLine
 10
-450.2007569143377
 20
817.5450920232573
 30
0.0
 11
-453.1857059747263
 21
820.878601313798
 31
0.0
  0
LINE
  5
177
330
1F
100
AcDbEntity
  8
0-2
  6
Continuous
 62
     6
370
    13
100
AcDbLine
 10
-455.0154409831724
 20
797.5453559590682
 30
0.0
 11
-451.521095807919
 21
800.8785353298452
 31
0.0
  0
LINE
  5
178
330
1F
100
AcDbEntity
  8
0-2
  6
Continuous
 62
     6
370
    13
100
AcDbLine
 10
-453.1857059747263
 20
820.878601313798
 30
0.0
 11
-414.5631539793717
 21
820.878601313798
 31
0.0
  0
LINE
  5
179
330
1F
100
AcDbEntity
  8
0-2
  6
Continuous
 62
     6
370
    13
100
AcDbLine
 10
-450.2007569143377
 20
817.5450920232573
 30
0.0
 11
-414.9806674400982
 21
817.5450920232573
 31
0.0
  0
LINE
  5
17A
330
1F
100
AcDbEntity
  8
0-2
  6
Continuous
 62
     6
370
    13
100
AcDbLine
 10
-409.4639141145068
 20
848.7614402073792
 30
0.0
 11
-400.1265249675474
 21
845.7274980621088
 31
0.0
  0
LINE
  5
17B
330
1F
100
AcDbEntity
  8
0-2
  6
Continuous
 62
     6
370
    13
100
AcDbLine
 10
-415.9918715152669
 20
807.545223991163
 30
0.0
 11
-406.1739542327498
 21
807.545223991163
 31
0.0
  0
LINE
  5
17C
330
1F
100
AcDbEntity
  8
0-2
  6
Continuous
 62
     6
370
    13
100
AcDbLine
 10
-376.0981386710947
 20
930.3255238222438
 30
0.0
 11
-368.1553203645068
 21
924.5545673188657
 31
0.0
  0
LINE
  5
17D
330
1F
100
AcDbEntity
  8
0-2
  6
Continuous
 62
     6
370
    13
100
AcDbLine
 10
-395.0431212513311
 20
893.1438963940344
 30
0.0
 11
-385.7057321043717
 21
890.110284168528
 31
0.0
  0
LINE
  5
17E
330
1F
100
AcDbEntity
  8
0-2
  6
Continuous
 62
     6
370
    13
100
AcDbLine
 10
-319.1607508438141
 20
997.5869258492709
 30
0.0
 11
-313.3899593003176
 21
989.6444374624467
 31
0.0
  0
LINE
  5
17F
330
1F
100
AcDbEntity
  8
0-2
  6
Continuous
 62
     6
370
    13
100
AcDbLine
 10
-348.6682796128176
 20
968.0795620401494
 30
0.0
 11
-340.7254613062297
 21
962.3086055367709
 31
0.0
  0
LINE
  5
180
330
1F
100
AcDbEntity
  8
0-2
  6
Continuous
 62
     6
370
    13
100
AcDbLine
 10
-244.2250851976992
 20
1043.961767487785
 30
0.0
 11
-241.1913080123111
 21
1034.624378340825
 31
0.0
  0
LINE
  5
181
330
1F
100
AcDbEntity
  8
0-2
  6
Continuous
 62
     6
370
    13
100
AcDbLine
 10
-281.4068775857905
 20
1025.017114827312
 30
0.0
 11
-275.635921082412
 21
1017.07396660096
 31
0.0
  0
LINE
  5
182
330
1F
100
AcDbEntity
  8
0-2
  6
Continuous
 62
     6
370
    13
100
AcDbLine
 10
-158.6265777547097
 20
1064.910352791839
 30
0.0
 11
-158.6265777547097
 21
1055.092600469204
 31
0.0
  0
LINE
  5
183
330
1F
100
AcDbEntity
  8
0-2
  6
Continuous
 62
     6
370
    13
100
AcDbLine
 10
-199.8427939709256
 20
1058.38256035096
 30
0.0
 11
-196.8086868657739
 21
1049.045171204001
 31
0.0
  0
LINE
  5
184
330
1F
100
AcDbEntity
  8
0-2
  6
Continuous
 62
     6
370
    13
100
AcDbLine
 10
-70.74387082903398
 20
1058.38256035096
 30
0.0
 11
-73.7778129743041
 21
1049.045171204001
 31
0.0
  0
LINE
  5
185
330
1F
100
AcDbEntity
  8
0-2
  6
Continuous
 62
     6
370
    13
100
AcDbLine
 10
-111.9600870452499
 20
1064.910352791839
 30
0.0
 11
-111.9600870452499
 21
1055.092600469204
 31
0.0
  0
LINE
  5
186
330
1F
100
AcDbEntity
  8
0-2
  6
Continuous
 62
     6
370
    13
100
AcDbLine
 10
10.81988286606741
 20
1025.016784907548
 30
0.0
 11
5.049091322570902
 21
1017.07396660096
 31
0.0
  0
LINE
  5
187
330
1F
100
AcDbEntity
  8
0-2
  6
Continuous
 62
     6
370
    13
100
AcDbLine
 10
-26.36174456214196
 20
1043.961767487785
 30
0.0
 11
-29.39535678764853
 21
1034.624378340825
 31
0.0
  0
LINE
  5
188
330
1F
100
AcDbEntity
  8
0-2
  6
Continuous
 62
     6
370
    13
100
AcDbLine
 10
78.08128489309453
 20
968.0795620401494
 30
0.0
 11
70.13879650627021
 21
962.3086055367709
 31
0.0
  0
LINE
  5
189
330
1F
100
AcDbEntity
  8
0-2
  6
Continuous
 62
     6
370
    13
100
AcDbLine
 10
48.57392108397299
 20
997.5869258492709
 30
0.0
 11
42.80329450035804
 21
989.6437776229196
 31
0.0
  0
LINE
  5
18A
330
1F
100
AcDbEntity
  8
0-2
  6
Continuous
 62
     6
370
    13
100
AcDbLine
 10
124.4564564513716
 20
893.1438963940344
 30
0.0
 11
115.1190673044123
 21
890.110284168528
 31
0.0
  0
LINE
  5
18B
330
1F
100
AcDbEntity
  8
0-2
  6
Continuous
 62
     6
370
    13
100
AcDbLine
 10
105.5114738711352
 20
930.3255238222438
 30
0.0
 11
97.5683256447838
 21
924.5545673188657
 31
0.0
  0
LINE
  5
18C
330
1F
100
AcDbEntity
  8
0-2
  6
Continuous
 62
     6
370
    13
100
AcDbLine
 10
145.4047118356623
 20
807.545223991163
 30
0.0
 11
135.5872894327904
 21
807.545223991163
 31
0.0
  0
LINE
  5
18D
330
1F
100
AcDbEntity
  8
0-2
  6
Continuous
 62
     6
370
    13
100
AcDbLine
 10
138.8772493145473
 20
848.7614402073792
 30
0.0
 11
129.539860167588
 21
845.7274980621088
 31
0.0
  0
LINE
  5
18E
330
1F
100
AcDbEntity
  8
0-2
  6
Continuous
 62
     6
370
    13
100
AcDbLine
 10
-143.6266107466861
 20
1019.211846668528
 30
0.0
 11
-126.959889093392
 21
1019.211846668528
 31
0.0
  0
LINE
  5
18F
330
1F
100
AcDbEntity
  8
0-2
  6
Continuous
 62
     6
370
    13
100
AcDbLine
 10
-145.2933653919562
 20
1020.878601313798
 30
0.0
 11
-125.2932994080034
 21
1020.878601313798
 31
0.0
  0
LINE
  5
190
330
1F
100
AcDbEntity
  8
0-2
  6
Continuous
 62
     6
370
    13
100
AcDbLine
 10
-145.2933653919562
 20
1020.878601313798
 30
0.0
 11
-143.6266107466861
 21
1019.211846668528
 31
0.0
  0
LINE
  5
191
330
1F
100
AcDbEntity
  8
0-2
  6
Continuous
 62
     6
370
    13
100
AcDbLine
 10
-125.2932994080034
 20
1020.878601313798
 30
0.0
 11
-126.959889093392
 21
1019.211846668528
 31
0.0
  0
LINE
  5
192
330
1F
100
AcDbEntity
  8
0-2
  6
Continuous
 62
     6
370
    13
100
AcDbLine
 10
-136.9597571254864
 20
1061.568265587447
 30
0.0
 11
-133.6265777547097
 21
1061.568265587447
 31
0.0
  0
LINE
  5
193
330
1F
100
AcDbEntity
  8
0-2
  6
Continuous
 62
     6
370
    13
100
AcDbLine
 10
-152.793266416027
 20
1058.234756296906
 30
0.0
 11
-117.793068464169
 21
1058.234756296906
 31
0.0
  0
LINE
  5
194
330
1F
100
AcDbEntity
  8
0-2
  6
Continuous
 62
     6
370
    13
100
AcDbLine
 10
-126.959889093392
 20
1019.211846668528
 30
0.0
 11
-126.959889093392
 21
1025.735020232717
 31
0.0
  0
LINE
  5
195
330
1F
100
AcDbEntity
  8
0-2
  6
Continuous
 62
     6
370
    13
100
AcDbLine
 10
-125.2932994080034
 20
1020.878601313798
 30
0.0
 11
-125.2932994080034
 21
1025.671675638122
 31
0.0
  0
LINE
  5
196
330
1F
100
AcDbEntity
  8
0-2
  6
Continuous
 62
     6
370
    13
100
AcDbLine
 10
-143.6266107466861
 20
1019.211846668528
 30
0.0
 11
-143.6266107466861
 21
1025.735020232717
 31
0.0
  0
LINE
  5
197
330
1F
100
AcDbEntity
  8
0-2
  6
Continuous
 62
     6
370
    13
100
AcDbLine
 10
-145.2933653919562
 20
1020.878601313798
 30
0.0
 11
-145.2933653919562
 21
1025.671675638122
 31
0.0
  0
LINE
  5
198
330
1F
100
AcDbEntity
  8
0-2
  6
Continuous
 62
     6
370
    13
100
AcDbLine
 10
-145.2933653919562
 20
1044.114850258055
 30
0.0
 11
-145.2933653919562
 21
1058.234756296906
 31
0.0
  0
LINE
  5
199
330
1F
100
AcDbEntity
  8
0-2
  6
Continuous
 62
     6
370
    13
100
AcDbLine
 10
-143.6266107466861
 20
1044.17357597596
 30
0.0
 11
-143.6266107466861
 21
1058.234756296906
 31
0.0
  0
LINE
  5
19A
330
1F
100
AcDbEntity
  8
0-2
  6
Continuous
 62
     6
370
    13
100
AcDbLine
 10
-126.959889093392
 20
1044.17357597596
 30
0.0
 11
-126.959889093392
 21
1058.234756296906
 31
0.0
  0
LINE
  5
19B
330
1F
100
AcDbEntity
  8
0-2
  6
Continuous
 62
     6
370
    13
100
AcDbLine
 10
-125.2932994080034
 20
1044.114850258055
 30
0.0
 11
-125.2932994080034
 21
1058.234756296906
 31
0.0
  0
LINE
  5
19C
330
1F
100
AcDbEntity
  8
0-2
  6
Continuous
 62
     6
370
    13
100
AcDbLine
 10
-136.9597571254864
 20
1061.568265587447
 30
0.0
 11
-136.9597571254864
 21
1071.174869261433
 31
0.0
  0
LINE
  5
19D
330
1F
100
AcDbEntity
  8
0-2
  6
Continuous
 62
     6
370
    13
100
AcDbLine
 10
-133.6265777547097
 20
1061.568265587447
 30
0.0
 11
-133.6265777547097
 21
1071.174869261433
 31
0.0
  0
LINE
  5
19E
330
1F
100
AcDbEntity
  8
0-2
  6
JWW_CENTER1
 62
     6
370
    13
100
AcDbLine
 10
168.0398469707973
 20
806.1113926989332
 30
0.0
 11
168.0398469707973
 21
778.187313834913
 31
0.0
  0
LINE
  5
19F
330
1F
100
AcDbEntity
  8
0-2
  6
Continuous
 62
     6
370
    13
100
AcDbLine
 10
179.6137621946147
 20
817.5450920232573
 30
0.0
 11
182.5988762148852
 21
820.878601313798
 31
0.0
  0
LINE
  5
1A0
330
1F
100
AcDbEntity
  8
0-2
  6
Continuous
 62
     6
370
    13
100
AcDbLine
 10
184.4282813035674
 20
797.5453559590682
 30
0.0
 11
180.9344310079595
 21
800.8785353298452
 31
0.0
  0
LINE
  5
1A1
330
1F
100
AcDbEntity
  8
0-2
  6
Continuous
 62
     6
370
    13
100
AcDbLine
 10
182.5988762148852
 20
820.878601313798
 30
0.0
 11
143.9764891794123
 21
820.878601313798
 31
0.0
  0
LINE
  5
1A2
330
1F
100
AcDbEntity
  8
0-2
  6
Continuous
 62
     6
370
    13
100
AcDbLine
 10
179.6137621946147
 20
817.5450920232573
 30
0.0
 11
144.3935077604932
 21
817.5450920232573
 31
0.0
  0
LINE
  5
1A3
330
1F
100
AcDbEntity
  8
0-2
  6
Continuous
 62
     6
370
    13
100
AcDbLine
 10
-451.9602190131554
 20
784.2119786364332
 30
0.0
 11
-451.9602190131554
 21
786.2119522428521
 31
0.0
  0
LINE
  5
1A4
330
1F
100
AcDbEntity
  8
0-2
  6
Continuous
 62
     6
370
    13
100
AcDbLine
 10
-425.2936293277669
 20
786.2119522428521
 30
0.0
 11
-451.9602190131554
 21
786.2119522428521
 31
0.0
  0
LINE
  5
1A5
330
1F
100
AcDbEntity
  8
0-2
  6
Continuous
 62
     6
370
    13
100
AcDbLine
 10
-425.2936293277669
 20
784.2119786364332
 30
0.0
 11
-425.2936293277669
 21
786.2119522428521
 31
0.0
  0
LINE
  5
1A6
330
1F
100
AcDbEntity
  8
0-2
  6
Continuous
 62
     6
370
    13
100
AcDbLine
 10
181.3735542131959
 20
784.2119786364332
 30
0.0
 11
181.3735542131959
 21
786.2119522428521
 31
0.0
  0
LINE
  5
1A7
330
1F
100
AcDbEntity
  8
0-2
  6
Continuous
 62
     6
370
    13
100
AcDbLine
 10
154.7067995679258
 20
786.2119522428521
 30
0.0
 11
181.3735542131959
 21
786.2119522428521
 31
0.0
  0
LINE
  5
1A8
330
1F
100
AcDbEntity
  8
0-2
  6
Continuous
 62
     6
370
    13
100
AcDbLine
 10
154.7067995679258
 20
784.2119786364332
 30
0.0
 11
154.7067995679258
 21
786.2119522428521
 31
0.0
  0
LINE
  5
1A9
330
1F
100
AcDbEntity
  8
0-2
  6
Continuous
 62
     6
370
    13
100
AcDbLine
 10
180.9344310079595
 20
800.8785353298452
 30
0.0
 11
173.3762991456282
 21
800.8785353298452
 31
0.0
  0
LINE
  5
1AA
330
1F
100
AcDbEntity
  8
0-2
  6
Continuous
 62
     6
370
    13
100
AcDbLine
 10
184.4282813035674
 20
797.5453559590682
 30
0.0
 11
179.3745703660674
 21
797.5453559590682
 31
0.0
  0
LINE
  5
1AB
330
1F
100
AcDbEntity
  8
0-2
  6
Continuous
 62
     6
370
    13
100
AcDbLine
 10
-451.521095807919
 20
800.8785353298452
 30
0.0
 11
-443.9629639455877
 21
800.8785353298452
 31
0.0
  0
LINE
  5
1AC
330
1F
100
AcDbEntity
  8
0-2
  6
Continuous
 62
     6
370
    13
100
AcDbLine
 10
-455.0154409831724
 20
797.5453559590682
 30
0.0
 11
-449.9612351660269
 21
797.5453559590682
 31
0.0
  0
LINE
  5
1AD
330
1F
100
AcDbEntity
  8
0-1
  6
Continuous
 62
     2
370
    13
100
AcDbLine
 10
-361.9597571254867
 20
827.5456198948792
 30
0.0
 11
-373.0432466208412
 21
827.5456198948792
 31
0.0
  0
LINE
  5
1AE
330
1F
100
AcDbEntity
  8
0-1
  6
Continuous
 62
     2
370
    13
100
AcDbLine
 10
-361.9597571254867
 20
824.2121106043386
 30
0.0
 11
-373.6267097226148
 21
824.2121106043386
 31
0.0
  0
LINE
  5
1AF
330
1F
100
AcDbEntity
  8
0-1
  6
Continuous
 62
     2
370
    13
100
AcDbLine
 10
-59.48783329736138
 20
1002.177759358562
 30
0.0
 11
-53.94633598950689
 21
1011.77611503846
 31
0.0
  0
LINE
  5
1B0
330
1F
100
AcDbEntity
  8
0-1
  6
Continuous
 62
     2
370
    13
100
AcDbLine
 10
-56.60120032649992
 20
1000.511004713292
 30
0.0
 11
-50.76772402793607
 21
1010.614797470893
 31
0.0
  0
LINE
  5
1B1
330
1F
100
AcDbEntity
  8
0-1
  6
Continuous
 62
     2
370
    13
100
AcDbLine
 10
15.56742826302678
 20
958.8441181001157
 30
0.0
 11
21.10942045052678
 21
968.442803699778
 31
0.0
  0
LINE
  5
1B2
330
1F
100
AcDbEntity
  8
0-1
  6
Continuous
 62
     2
370
    13
100
AcDbLine
 10
12.68096025204729
 20
960.5108727453859
 30
0.0
 11
18.51427159072957
 21
970.6146655029874
 31
0.0
  0
LINE
  5
1B3
330
1F
100
AcDbEntity
  8
0-1
  6
Continuous
 62
     4
370
    13
100
AcDbLine
 10
-336.9505193721082
 20
784.2278147850817
 30
0.0
 11
-349.4412816187297
 21
805.8626331972438
 31
0.0
  0
LINE
  5
1B4
330
1F
100
AcDbEntity
  8
0-1
  6
Continuous
 62
     4
370
    13
100
AcDbLine
 10
-374.4597571254867
 20
805.8626331972438
 30
0.0
 11
-349.4412816187297
 21
805.8626331972438
 31
0.0
  0
LINE
  5
1B5
330
1F
100
AcDbEntity
  8
0-1
  6
Continuous
 62
     4
370
    13
100
AcDbLine
 10
-46.95995507734473
 20
980.5109387293386
 30
0.0
 11
-34.45071732396626
 21
1002.177429438798
 31
0.0
  0
LINE
  5
1B6
330
1F
100
AcDbEntity
  8
0-1
  6
Continuous
 62
     4
370
    13
100
AcDbLine
 10
-46.95995507734473
 20
980.5109387293386
 30
0.0
 11
-34.45071732396626
 21
958.8444480198792
 31
0.0
  0
LINE
  5
1B7
330
1F
100
AcDbEntity
  8
0-1
  6
Continuous
 62
     4
370
    13
100
AcDbLine
 10
-34.45071732396626
 20
958.8444480198792
 30
0.0
 11
-9.469192830723223
 21
958.8444480198792
 31
0.0
  0
LINE
  5
1B8
330
1F
100
AcDbEntity
  8
0-1
  6
Continuous
 62
     4
370
    13
100
AcDbLine
 10
3.039879962773675
 20
980.5109387293386
 30
0.0
 11
-9.469192830723223
 21
958.8444480198792
 31
0.0
  0
LINE
  5
1B9
330
1F
100
AcDbEntity
  8
0-1
  6
Continuous
 62
     4
370
    13
100
AcDbLine
 10
3.039879962773675
 20
980.5109387293386
 30
0.0
 11
1.253199483466023
 21
983.6055861110952
 31
0.0
  0
LINE
  5
1BA
330
1F
100
AcDbEntity
  8
0-1
  6
Continuous
 62
     4
370
    13
100
AcDbLine
 10
-34.45071732396626
 20
1002.177429438798
 30
0.0
 11
-30.91991601484473
 21
1002.177429438798
 31
0.0
  0
LINE
  5
1BB
330
1F
100
AcDbEntity
  8
0-1
  6
Continuous
 62
     4
370
    13
100
AcDbLine
 10
-374.4597571254867
 20
805.8626331972438
 30
0.0
 11
-376.2466025646755
 21
802.7679858154874
 31
0.0
  0
LINE
  5
1BC
330
1F
100
AcDbEntity
  8
0-1
  6
JWW_CENTER1
 62
     4
370
    13
100
AcDbLine
 10
-9.512412319743344
 20
1002.071195274947
 30
0.0
 11
-39.46929180665201
 21
950.1840542276494
 31
0.0
  0
LINE
  5
1BD
330
1F
100
AcDbEntity
  8
0-1
  6
JWW_CENTER1
 62
     4
370
    13
100
AcDbLine
 10
-361.9599220853682
 20
774.3975255114332
 30
0.0
 11
-361.9597571254867
 21
815.8625012293386
 31
0.0
  0
ARC
  5
1BE
330
1F
100
AcDbEntity
  8
0-1
  6
Continuous
 62
     2
370
    13
100
AcDbCircle
 10
-135.2933323999798
 20
784.2119786364332
 30
0.0
 40
326.6667134052998
100
AcDbArc
 50
18.21725463867189
 51
41.7827606201172
  0
ARC
  5
1BF
330
1F
100
AcDbEntity
  8
0-1
  6
Continuous
 62
     2
370
    13
100
AcDbCircle
 10
-135.2933323999798
 20
784.2119786364332
 30
0.0
 40
336.6667051573057
100
AcDbArc
 50
18.12159729003907
 51
41.87843322753907
  0
ARC
  5
1C0
330
1F
100
AcDbEntity
  8
0-1
  6
Continuous
 62
     2
370
    13
100
AcDbCircle
 10
-135.2933323999798
 20
784.2119786364332
 30
0.0
 40
340.0000082479941
100
AcDbArc
 50
17.24745178222658
 51
42.75251770019533
  0
ARC
  5
1C1
330
1F
100
AcDbEntity
  8
0-1
  6
Continuous
 62
     2
370
    13
100
AcDbCircle
 10
-135.2933323999798
 20
784.2119786364332
 30
0.0
 40
321.6666762893265
100
AcDbArc
 50
17.37562561035158
 51
42.62434387207033
  0
ARC
  5
1C2
330
1F
100
AcDbEntity
  8
0-1
  6
Continuous
 62
     2
370
    13
100
AcDbCircle
 10
-135.2933323999798
 20
784.2119786364332
 30
0.0
 40
326.6667134052998
100
AcDbArc
 50
48.21725463867188
 51
71.78276062011719
  0
ARC
  5
1C3
330
1F
100
AcDbEntity
  8
0-1
  6
Continuous
 62
     2
370
    13
100
AcDbCircle
 10
-135.2933323999798
 20
784.2119786364332
 30
0.0
 40
321.6666762893265
100
AcDbArc
 50
47.37562561035156
 51
72.6243438720703
  0
ARC
  5
1C4
330
1F
100
AcDbEntity
  8
0-1
  6
Continuous
 62
     2
370
    13
100
AcDbCircle
 10
-135.2933323999798
 20
784.2119786364332
 30
0.0
 40
326.6667134052998
100
AcDbArc
 50
78.21725463867189
 51
101.7827606201172
  0
ARC
  5
1C5
330
1F
100
AcDbEntity
  8
0-1
  6
Continuous
 62
     2
370
    13
100
AcDbCircle
 10
-135.2933323999798
 20
784.2119786364332
 30
0.0
 40
336.6667051573057
100
AcDbArc
 50
78.12159729003906
 51
101.8784332275391
  0
ARC
  5
1C6
330
1F
100
AcDbEntity
  8
0-1
  6
Continuous
 62
     2
370
    13
100
AcDbCircle
 10
-135.2933323999798
 20
784.2119786364332
 30
0.0
 40
340.0000082479941
100
AcDbArc
 50
77.24745178222656
 51
102.7525177001953
  0
ARC
  5
1C7
330
1F
100
AcDbEntity
  8
0-1
  6
Continuous
 62
     2
370
    13
100
AcDbCircle
 10
-135.2933323999798
 20
784.2119786364332
 30
0.0
 40
326.6667134052998
100
AcDbArc
 50
108.2172546386718
 51
131.7827606201171
  0
ARC
  5
1C8
330
1F
100
AcDbEntity
  8
0-1
  6
Continuous
 62
     2
370
    13
100
AcDbCircle
 10
-135.2933323999798
 20
784.2119786364332
 30
0.0
 40
336.6667051573057
100
AcDbArc
 50
108.1215972900391
 51
131.8784332275391
  0
ARC
  5
1C9
330
1F
100
AcDbEntity
  8
0-1
  6
Continuous
 62
     2
370
    13
100
AcDbCircle
 10
-135.2933323999798
 20
784.2119786364332
 30
0.0
 40
340.0000082479941
100
AcDbArc
 50
107.2474517822266
 51
132.7525177001953
  0
ARC
  5
1CA
330
1F
100
AcDbEntity
  8
0-1
  6
Continuous
 62
     2
370
    13
100
AcDbCircle
 10
-135.2933323999798
 20
784.2119786364332
 30
0.0
 40
321.6666762893265
100
AcDbArc
 50
107.3756256103516
 51
132.6243438720703
  0
ARC
  5
1CB
330
1F
100
AcDbEntity
  8
0-1
  6
Continuous
 62
     2
370
    13
100
AcDbCircle
 10
-135.2933323999798
 20
784.2119786364332
 30
0.0
 40
326.6667134052998
100
AcDbArc
 50
138.2172546386719
 51
161.7827606201172
  0
ARC
  5
1CC
330
1F
100
AcDbEntity
  8
0-1
  6
Continuous
 62
     2
370
    13
100
AcDbCircle
 10
-135.2933323999798
 20
784.2119786364332
 30
0.0
 40
336.6667051573057
100
AcDbArc
 50
138.1215972900391
 51
161.8784332275391
  0
ARC
  5
1CD
330
1F
100
AcDbEntity
  8
0-1
  6
Continuous
 62
     2
370
    13
100
AcDbCircle
 10
-135.2933323999798
 20
784.2119786364332
 30
0.0
 40
340.0000082479941
100
AcDbArc
 50
137.2474517822266
 51
162.7525177001953
  0
ARC
  5
1CE
330
1F
100
AcDbEntity
  8
0-1
  6
Continuous
 62
     2
370
    13
100
AcDbCircle
 10
-135.2933323999798
 20
784.2119786364332
 30
0.0
 40
321.6666762893265
100
AcDbArc
 50
137.3756256103516
 51
162.6243438720703
  0
ARC
  5
1CF
330
1F
100
AcDbEntity
  8
0-1
  6
Continuous
 62
     2
370
    13
100
AcDbCircle
 10
-135.2933323999798
 20
784.2119786364332
 30
0.0
 40
321.6666762893265
100
AcDbArc
 50
6.074417114257828
 51
12.62434387207033
  0
ARC
  5
1D0
330
1F
100
AcDbEntity
  8
0-1
  6
Continuous
 62
     2
370
    13
100
AcDbCircle
 10
-135.2933323999798
 20
784.2119786364332
 30
0.0
 40
323.0568138328758
100
AcDbArc
 50
0.0
 51
5.440963745117188
  0
ARC
  5
1D1
330
1F
100
AcDbEntity
  8
0-1
  6
Continuous
 62
     2
370
    13
100
AcDbCircle
 10
-135.2933323999798
 20
784.2119786364332
 30
0.0
 40
326.6667134052998
100
AcDbArc
 50
0.0
 51
11.78276062011719
  0
ARC
  5
1D2
330
1F
100
AcDbEntity
  8
0-1
  6
Continuous
 62
     2
370
    13
100
AcDbCircle
 10
-135.2933323999798
 20
784.2119786364332
 30
0.0
 40
336.6667051573057
100
AcDbArc
 50
0.0
 51
11.87843322753906
  0
ARC
  5
1D3
330
1F
100
AcDbEntity
  8
0-1
  6
Continuous
 62
     2
370
    13
100
AcDbCircle
 10
-135.2933323999798
 20
784.2119786364332
 30
0.0
 40
340.0000082479941
100
AcDbArc
 50
0.0
 51
12.75251770019531
  0
ARC
  5
1D4
330
1F
100
AcDbEntity
  8
0-1
  6
Continuous
 62
     2
370
    13
100
AcDbCircle
 10
-135.2933323999798
 20
784.2119786364332
 30
0.0
 40
321.6666762893265
100
AcDbArc
 50
167.3756561279297
 51
173.9255828857422
  0
ARC
  5
1D5
330
1F
100
AcDbEntity
  8
0-1
  6
Continuous
 62
     2
370
    13
100
AcDbCircle
 10
-135.2933323999798
 20
784.2119786364332
 30
0.0
 40
323.0568138328758
100
AcDbArc
 50
174.5590362548828
 51
180.0
  0
ARC
  5
1D6
330
1F
100
AcDbEntity
  8
0-1
  6
Continuous
 62
     2
370
    13
100
AcDbCircle
 10
-135.2933323999798
 20
784.2119786364332
 30
0.0
 40
326.6667134052998
100
AcDbArc
 50
168.2172241210937
 51
179.9999847412109
  0
ARC
  5
1D7
330
1F
100
AcDbEntity
  8
0-1
  6
Continuous
 62
     2
370
    13
100
AcDbCircle
 10
-135.2933323999798
 20
784.2119786364332
 30
0.0
 40
321.6666762893265
100
AcDbArc
 50
93.64027404785156
 51
102.6243438720703
  0
ARC
  5
1D8
330
1F
100
AcDbEntity
  8
0-1
  6
Continuous
 62
     2
370
    13
100
AcDbCircle
 10
-135.2933323999798
 20
784.2119786364332
 30
0.0
 40
321.6666762893265
100
AcDbArc
 50
77.37562561035155
 51
86.35972595214842
  0
ARC
  5
1D9
330
1F
100
AcDbEntity
  8
0-1
  6
Continuous
 62
     2
370
    13
100
AcDbCircle
 10
-135.2933323999798
 20
784.2119786364332
 30
0.0
 40
323.0568138328758
100
AcDbArc
 50
87.58473205566406
 51
92.41526794433594
  0
ARC
  5
1DA
330
1F
100
AcDbEntity
  8
0-1
  6
Continuous
 62
     2
370
    13
100
AcDbCircle
 10
177.9380997157296
 20
817.5450920232573
 30
0.0
 40
6.666666752583272
100
AcDbArc
 50
324.2645721435547
 51
6.074234008789071
  0
ARC
  5
1DB
330
1F
100
AcDbEntity
  8
0-1
  6
Continuous
 62
     2
370
    13
100
AcDbCircle
 10
179.6714981532296
 20
814.2122425722438
 30
0.0
 40
6.666666752583272
100
AcDbArc
 50
307.7201690673828
 51
5.441635131835945
  0
ARC
  5
1DC
330
1F
100
AcDbEntity
  8
0-1
  6
Continuous
 62
     2
370
    13
100
AcDbCircle
 10
-115.293266416027
 20
1098.576355220048
 30
0.0
 40
6.666666752583272
100
AcDbArc
 50
86.35946655273438
 51
128.1675720214844
  0
ARC
  5
1DD
330
1F
100
AcDbEntity
  8
0-1
  6
Continuous
 62
     2
370
    13
100
AcDbCircle
 10
-121.9599550773447
 20
1100.320641009744
 30
0.0
 40
6.666666752583272
100
AcDbArc
 50
87.58457946777342
 51
145.3054962158203
  0
ARC
  5
1DE
330
1F
100
AcDbEntity
  8
0-1
  6
Continuous
 62
     2
370
    13
100
AcDbCircle
 10
-148.6270396423784
 20
1100.320641009744
 30
0.0
 40
6.666666752583272
100
AcDbArc
 50
34.6945037841797
 51
92.41542053222658
  0
ARC
  5
1DF
330
1F
100
AcDbEntity
  8
0-1
  6
Continuous
 62
     2
370
    13
100
AcDbCircle
 10
-155.2933983839326
 20
1098.576355220048
 30
0.0
 40
6.666666752583272
100
AcDbArc
 50
51.83242797851562
 51
93.64053344726562
  0
ARC
  5
1E0
330
1F
100
AcDbEntity
  8
0-1
  6
Continuous
 62
     2
370
    13
100
AcDbCircle
 10
-448.5247645156891
 20
817.5450920232573
 30
0.0
 40
6.666666752583272
100
AcDbArc
 50
173.925765991211
 51
215.7354278564453
  0
ARC
  5
1E1
330
1F
100
AcDbEntity
  8
0-1
  6
Continuous
 62
     2
370
    13
100
AcDbCircle
 10
-450.2579979933075
 20
814.2122425722438
 30
0.0
 40
6.666666752583272
100
AcDbArc
 50
174.5583648681641
 51
232.2798309326172
  0
ARC
  5
1E2
330
1F
100
AcDbEntity
  8
0-1
  6
Continuous
 62
     2
370
    13
100
AcDbCircle
 10
-135.2933323999798
 20
784.2119786364332
 30
0.0
 40
336.6667051573057
100
AcDbArc
 50
168.121566772461
 51
179.0262603759766
  0
ARC
  5
1E3
330
1F
100
AcDbEntity
  8
0-1
  6
Continuous
 62
     2
370
    13
100
AcDbCircle
 10
-135.2933323999798
 20
784.2119786364332
 30
0.0
 40
340.0000082479941
100
AcDbArc
 50
167.2474822998047
 51
178.102783203125
  0
ARC
  5
1E4
330
1F
100
AcDbEntity
  8
0-1
  6
Continuous
 62
     2
370
    13
100
AcDbCircle
 10
-135.2933323999798
 20
784.2119786364332
 30
0.0
 40
336.6667051573057
100
AcDbArc
 50
48.12159729003907
 51
59.02626037597658
  0
ARC
  5
1E5
330
1F
100
AcDbEntity
  8
0-1
  6
Continuous
 62
     2
370
    13
100
AcDbCircle
 10
-135.2933323999798
 20
784.2119786364332
 30
0.0
 40
336.6667051573057
100
AcDbArc
 50
60.97373962402345
 51
71.87843322753908
  0
ARC
  5
1E6
330
1F
100
AcDbEntity
  8
0-1
  6
Continuous
 62
     2
370
    13
100
AcDbCircle
 10
-135.2933323999798
 20
784.2119786364332
 30
0.0
 40
340.0000082479941
100
AcDbArc
 50
47.24745178222657
 51
58.10278320312501
  0
ARC
  5
1E7
330
1F
100
AcDbEntity
  8
0-1
  6
Continuous
 62
     2
370
    13
100
AcDbCircle
 10
-135.2933323999798
 20
784.2119786364332
 30
0.0
 40
340.0000082479941
100
AcDbArc
 50
61.89723205566407
 51
72.75251770019531
  0
ARC
  5
1E8
330
1F
100
AcDbEntity
  8
0-1
  6
Continuous
 62
     2
370
    13
100
AcDbCircle
 10
-21.96028499710827
 20
980.5109387293386
 30
0.0
 40
40.00000051549962
100
AcDbArc
 50
149.9999694824219
 51
329.9999237060547
  0
ARC
  5
1E9
330
1F
100
AcDbEntity
  8
0-1
  6
Continuous
 62
     2
370
    13
100
AcDbCircle
 10
6.320767051033744
 20
939.2775666854196
 30
0.0
 40
6.666666752583272
100
AcDbArc
 50
47.59628295898438
 51
124.4453277587891
  0
ARC
  5
1EA
330
1F
100
AcDbEntity
  8
0-1
  6
Continuous
 62
     2
370
    13
100
AcDbCircle
 10
-71.80951166518258
 20
984.3861762715682
 30
0.0
 40
6.666666752583272
100
AcDbArc
 50
355.5552215576172
 51
72.40367126464842
  0
ARC
  5
1EB
330
1F
100
AcDbEntity
  8
0-1
  6
Continuous
 62
     2
370
    13
100
AcDbCircle
 10
-21.96028499710827
 20
980.5109387293386
 30
0.0
 40
43.33333195866765
100
AcDbArc
 50
175.5545654296875
 51
304.4453887939453
  0
ARC
  5
1EC
330
1F
100
AcDbEntity
  8
0-1
  6
Continuous
 62
     2
370
    13
100
AcDbCircle
 10
9.138611751202479
 20
945.7169406296765
 30
0.0
 40
3.333333376291636
100
AcDbArc
 50
48.19471740722657
 51
131.7901000976562
  0
ARC
  5
1ED
330
1F
100
AcDbEntity
  8
0-1
  6
Continuous
 62
     2
370
    13
100
AcDbCircle
 10
-21.96028499710827
 20
980.5109387293386
 30
0.0
 40
43.33333195866765
100
AcDbArc
 50
311.7901306152344
 51
329.9999084472657
  0
ARC
  5
1EE
330
1F
100
AcDbEntity
  8
0-1
  6
Continuous
 62
     2
370
    13
100
AcDbCircle
 10
-67.6419652124798
 20
990.0462797344061
 30
0.0
 40
3.333333376291636
100
AcDbArc
 50
348.2079467773439
 51
71.80613708496098
  0
ARC
  5
1EF
330
1F
100
AcDbEntity
  8
0-1
  6
Continuous
 62
     2
370
    13
100
AcDbCircle
 10
-21.96028499710827
 20
980.5109387293386
 30
0.0
 40
43.33333195866765
100
AcDbArc
 50
149.9999084472656
 51
168.2099304199219
  0
ARC
  5
1F0
330
1F
100
AcDbEntity
  8
0-1
  6
Continuous
 62
     2
370
    13
100
AcDbCircle
 10
-340.3912525857905
 20
829.3205882225817
 30
0.0
 40
6.666666752583272
100
AcDbArc
 50
167.5962829589844
 51
244.4453277587891
  0
ARC
  5
1F1
330
1F
100
AcDbEntity
  8
0-1
  6
Continuous
 62
     2
370
    13
100
AcDbCircle
 10
-347.376643738662
 20
828.541317741163
 30
0.0
 40
3.333333376291636
100
AcDbArc
 50
168.1947174072266
 51
251.7901000976562
  0
ARC
  5
1F2
330
1F
100
AcDbEntity
  8
0-1
  6
Continuous
 62
     2
370
    13
100
AcDbCircle
 10
-361.9597571254867
 20
784.2119786364332
 30
0.0
 40
43.33333195866765
100
AcDbArc
 50
71.79013061523438
 51
89.99990844726562
  0
ARC
  5
1F3
330
1F
100
AcDbEntity
  8
0-1
  6
Continuous
 62
     2
370
    13
100
AcDbCircle
 10
-135.2933323999798
 20
784.2119786364332
 30
0.0
 40
220.000004123997
100
AcDbArc
 50
71.80592346191406
 51
168.1940460205078
  0
ARC
  5
1F4
330
1F
100
AcDbEntity
  8
0-1
  6
Continuous
 62
     2
370
    13
100
AcDbCircle
 10
-135.2933323999798
 20
784.2119786364332
 30
0.0
 40
216.6666597933383
100
AcDbArc
 50
72.40396118164062
 51
167.5960083007812
  0
ARC
  5
1F5
330
1F
100
AcDbEntity
  8
0-1
  6
Continuous
 62
     2
370
    13
100
AcDbCircle
 10
-135.2933323999798
 20
784.2119786364332
 30
0.0
 40
216.6666597933383
100
AcDbArc
 50
0.0
 51
47.59597778320312
  0
ARC
  5
1F6
330
1F
100
AcDbEntity
  8
0-1
  6
Continuous
 62
     2
370
    13
100
AcDbCircle
 10
-135.2933323999798
 20
784.2119786364332
 30
0.0
 40
220.000004123997
100
AcDbArc
 50
0.0
 51
48.19403076171876
  0
ARC
  5
1F7
330
1F
100
AcDbEntity
  8
0-1
  6
Continuous
 62
     2
370
    13
100
AcDbCircle
 10
-361.9597571254867
 20
784.2119786364332
 30
0.0
 40
40.00000051549962
100
AcDbArc
 50
0.0
 51
89.99992370605469
  0
ARC
  5
1F8
330
1F
100
AcDbEntity
  8
0-1
  6
Continuous
 62
     2
370
    13
100
AcDbCircle
 10
-361.9597571254867
 20
784.2119786364332
 30
0.0
 40
43.33333195866765
100
AcDbArc
 50
0.0
 51
64.44538879394533
  0
ARC
  5
1F9
330
1F
100
AcDbEntity
  8
0-1
  6
Continuous
 62
     4
370
    13
100
AcDbCircle
 10
-361.9597571254867
 20
784.2119786364332
 30
0.0
 40
13.33333350516654
100
AcDbArc
 50
0.0
 51
180.0
  0
ARC
  5
1FA
330
1F
100
AcDbEntity
  8
0-1
  6
Continuous
 62
     4
370
    13
100
AcDbCircle
 10
-361.9597571254867
 20
784.2119786364332
 30
0.0
 40
11.07833321030076
100
AcDbArc
 50
0.0
 51
180.0
  0
CIRCLE
  5
1FB
330
1F
100
AcDbEntity
  8
0-1
  6
Continuous
 62
     4
370
    13
100
AcDbCircle
 10
-21.96028499710827
 20
980.5109387293386
 30
0.0
 40
13.33333350516654
  0
CIRCLE
  5
1FC
330
1F
100
AcDbEntity
  8
0-1
  6
Continuous
 62
     4
370
    13
100
AcDbCircle
 10
-21.96028499710827
 20
980.5109387293386
 30
0.0
 40
11.07833321030076
  0
ARC
  5
1FD
330
1F
100
AcDbEntity
  8
0-2
  6
Continuous
 62
     6
370
    13
100
AcDbCircle
 10
-438.6268416905203
 20
784.2119786364332
 30
0.0
 40
17.49999974225018
100
AcDbArc
 50
0.0
 51
180.0
  0
ARC
  5
1FE
330
1F
100
AcDbEntity
  8
0-2
  6
Continuous
 62
     6
370
    13
100
AcDbCircle
 10
-135.2933323999798
 20
784.2119786364332
 30
0.0
 40
316.6666804133235
100
AcDbArc
 50
173.9576721191407
 51
176.9830627441407
  0
ARC
  5
1FF
330
1F
100
AcDbEntity
  8
0-2
  6
Continuous
 62
     6
370
    13
100
AcDbCircle
 10
-402.1865439709255
 20
839.3871000469061
 30
0.0
 40
6.666666752583272
100
AcDbArc
 50
348.3188934326172
 51
72.00048828125001
  0
ARC
  5
200
330
1F
100
AcDbEntity
  8
0-2
  6
Continuous
 62
     6
370
    13
100
AcDbCircle
 10
-406.1739542327498
 20
814.2122425722438
 30
0.0
 40
6.666666752583272
100
AcDbArc
 50
270.0
 51
353.6797637939453
  0
ARC
  5
201
330
1F
100
AcDbEntity
  8
0-2
  6
Continuous
 62
     6
370
    13
100
AcDbCircle
 10
-135.2933323999798
 20
784.2119786364332
 30
0.0
 40
265.8701303842905
100
AcDbArc
 50
168.3197479248047
 51
173.6802520751953
  0
ARC
  5
202
330
1F
100
AcDbEntity
  8
0-2
  6
Continuous
 62
     6
370
    13
100
AcDbCircle
 10
-372.0739423556384
 20
919.1610390249467
 30
0.0
 40
6.666666752583272
100
AcDbArc
 50
330.3188934326171
 51
54.00048828124996
  0
ARC
  5
203
330
1F
100
AcDbEntity
  8
0-2
  6
Continuous
 62
     6
370
    13
100
AcDbCircle
 10
-383.6455481411117
 20
896.4506821837302
 30
0.0
 40
6.666666752583272
100
AcDbArc
 50
252.0
 51
335.6797637939453
  0
ARC
  5
204
330
1F
100
AcDbEntity
  8
0-2
  6
Continuous
 62
     6
370
    13
100
AcDbCircle
 10
-135.2933323999798
 20
784.2119786364332
 30
0.0
 40
265.8701303842905
100
AcDbArc
 50
150.3197479248047
 51
155.6802520751953
  0
ARC
  5
205
330
1F
100
AcDbEntity
  8
0-2
  6
Continuous
 62
     6
370
    13
100
AcDbCircle
 10
-318.7834875942368
 20
985.7256505114332
 30
0.0
 40
6.666666752583272
100
AcDbArc
 50
312.3188934326172
 51
36.00048828125001
  0
ARC
  5
206
330
1F
100
AcDbEntity
  8
0-2
  6
Continuous
 62
     6
370
    13
100
AcDbCircle
 10
-336.8066743552162
 20
967.7021338306901
 30
0.0
 40
6.666666752583272
100
AcDbArc
 50
234.0
 51
317.6797637939453
  0
ARC
  5
207
330
1F
100
AcDbEntity
  8
0-2
  6
Continuous
 62
     6
370
    13
100
AcDbCircle
 10
-135.2933323999798
 20
784.2119786364332
 30
0.0
 40
265.8701303842905
100
AcDbArc
 50
132.3197479248047
 51
137.6802520751953
  0
ARC
  5
208
330
1F
100
AcDbEntity
  8
0-2
  6
Continuous
 62
     6
370
    13
100
AcDbCircle
 10
-247.5317060275134
 20
1032.564359337447
 30
0.0
 40
6.666666752583272
100
AcDbArc
 50
294.3188934326172
 51
18.00048828125001
  0
ARC
  5
209
330
1F
100
AcDbEntity
  8
0-2
  6
Continuous
 62
     6
370
    13
100
AcDbCircle
 10
-270.2423927884933
 20
1020.992753551974
 30
0.0
 40
6.666666752583272
100
AcDbArc
 50
216.0
 51
299.6797637939453
  0
ARC
  5
20A
330
1F
100
AcDbEntity
  8
0-2
  6
Continuous
 62
     6
370
    13
100
AcDbCircle
 10
-135.2933323999798
 20
784.2119786364332
 30
0.0
 40
265.8701303842905
100
AcDbArc
 50
114.3197479248047
 51
119.6802520751953
  0
ARC
  5
20B
330
1F
100
AcDbEntity
  8
0-2
  6
Continuous
 62
     6
370
    13
100
AcDbCircle
 10
-165.293266416027
 20
1055.092600469204
 30
0.0
 40
6.666666752583272
100
AcDbArc
 50
276.3188934326172
 51
0.0004882812500088
  0
ARC
  5
20C
330
1F
100
AcDbEntity
  8
0-2
  6
Continuous
 62
     6
370
    13
100
AcDbCircle
 10
-190.4682888505711
 20
1051.105190207379
 30
0.0
 40
6.666666752583272
100
AcDbArc
 50
198.0
 51
281.6797637939454
  0
ARC
  5
20D
330
1F
100
AcDbEntity
  8
0-2
  6
Continuous
 62
     6
370
    13
100
AcDbCircle
 10
-135.2933323999798
 20
784.2119786364332
 30
0.0
 40
265.8701303842905
100
AcDbArc
 50
96.31974792480469
 51
101.6802520751953
  0
ARC
  5
20E
330
1F
100
AcDbEntity
  8
0-2
  6
Continuous
 62
     6
370
    13
100
AcDbCircle
 10
-80.11821098950689
 20
1051.105190207379
 30
0.0
 40
6.666666752583272
100
AcDbArc
 50
258.3188934326172
 51
342.00048828125
  0
ARC
  5
20F
330
1F
100
AcDbEntity
  8
0-2
  6
Continuous
 62
     6
370
    13
100
AcDbCircle
 10
-105.2932334240506
 20
1055.092600469204
 30
0.0
 40
6.666666752583272
100
AcDbArc
 50
180.0
 51
263.6797637939453
  0
ARC
  5
210
330
1F
100
AcDbEntity
  8
0-2
  6
Continuous
 62
     6
370
    13
100
AcDbCircle
 10
-135.2933323999798
 20
784.2119786364332
 30
0.0
 40
265.8701303842905
100
AcDbArc
 50
78.3197479248047
 51
83.68025207519533
  0
ARC
  5
211
330
1F
100
AcDbEntity
  8
0-2
  6
Continuous
 62
     6
370
    13
100
AcDbCircle
 10
-0.3442720114662556
 20
1020.992753551974
 30
0.0
 40
6.666666752583272
100
AcDbArc
 50
240.3188934326172
 51
324.00048828125
  0
ARC
  5
212
330
1F
100
AcDbEntity
  8
0-2
  6
Continuous
 62
     6
370
    13
100
AcDbCircle
 10
-23.05495877244613
 20
1032.564359337447
 30
0.0
 40
6.666666752583272
100
AcDbArc
 50
162.0
 51
245.6797637939453
  0
ARC
  5
213
330
1F
100
AcDbEntity
  8
0-2
  6
Continuous
 62
     6
370
    13
100
AcDbCircle
 10
-135.2933323999798
 20
784.2119786364332
 30
0.0
 40
265.8701303842905
100
AcDbArc
 50
60.31974792480469
 51
65.68025207519531
  0
ARC
  5
214
330
1F
100
AcDbEntity
  8
0-2
  6
Continuous
 62
     6
370
    13
100
AcDbCircle
 10
66.22000955525667
 20
967.7021338306901
 30
0.0
 40
6.666666752583272
100
AcDbArc
 50
222.3188934326172
 51
306.00048828125
  0
ARC
  5
215
330
1F
100
AcDbEntity
  8
0-2
  6
Continuous
 62
     6
370
    13
100
AcDbCircle
 10
48.19649287451362
 20
985.7256505114332
 30
0.0
 40
6.666666752583272
100
AcDbArc
 50
144.0
 51
227.6797637939453
  0
ARC
  5
216
330
1F
100
AcDbEntity
  8
0-2
  6
Continuous
 62
     6
370
    13
100
AcDbCircle
 10
-135.2933323999798
 20
784.2119786364332
 30
0.0
 40
265.8701303842905
100
AcDbArc
 50
42.31974792480469
 51
47.68025207519531
  0
ARC
  5
217
330
1F
100
AcDbEntity
  8
0-2
  6
Continuous
 62
     6
370
    13
100
AcDbCircle
 10
113.0587183812703
 20
896.4506821837302
 30
0.0
 40
6.666666752583272
100
AcDbArc
 50
204.3188934326172
 51
288.00048828125
  0
ARC
  5
218
330
1F
100
AcDbEntity
  8
0-2
  6
Continuous
 62
     6
370
    13
100
AcDbCircle
 10
101.4871125957973
 20
919.1610390249467
 30
0.0
 40
6.666666752583272
100
AcDbArc
 50
126.0
 51
209.6797637939453
  0
ARC
  5
219
330
1F
100
AcDbEntity
  8
0-2
  6
Continuous
 62
     6
370
    13
100
AcDbCircle
 10
-135.2933323999798
 20
784.2119786364332
 30
0.0
 40
265.8701303842905
100
AcDbArc
 50
24.31974792480469
 51
29.68025207519531
  0
ARC
  5
21A
330
1F
100
AcDbEntity
  8
0-2
  6
Continuous
 62
     6
370
    13
100
AcDbCircle
 10
135.5872894327904
 20
814.2115827327171
 30
0.0
 40
6.666666752583272
100
AcDbArc
 50
186.3188934326172
 51
270.00048828125
  0
ARC
  5
21B
330
1F
100
AcDbEntity
  8
0-2
  6
Continuous
 62
     6
370
    13
100
AcDbCircle
 10
131.5998791709661
 20
839.3867701271425
 30
0.0
 40
6.666666752583272
100
AcDbArc
 50
108.0
 51
191.6797637939453
  0
ARC
  5
21C
330
1F
100
AcDbEntity
  8
0-2
  6
Continuous
 62
     6
370
    13
100
AcDbCircle
 10
-135.2933323999798
 20
784.2119786364332
 30
0.0
 40
265.8701303842905
100
AcDbArc
 50
6.319747924804688
 51
11.68025207519531
  0
ARC
  5
21D
330
1F
100
AcDbEntity
  8
0-2
  6
Continuous
 62
     6
370
    13
100
AcDbCircle
 10
-135.2933323999798
 20
784.2119786364332
 30
0.0
 40
260.0950086438978
100
AcDbArc
 50
0.0
 51
180.0
  0
ARC
  5
21E
330
1F
100
AcDbEntity
  8
0-2
  6
Continuous
 62
     6
370
    13
100
AcDbCircle
 10
-135.2933323999798
 20
784.2119786364332
 30
0.0
 40
241.6666597933383
100
AcDbArc
 50
0.0
 51
180.0
  0
ARC
  5
21F
330
1F
100
AcDbEntity
  8
0-2
  6
Continuous
 62
     6
370
    13
100
AcDbCircle
 10
-135.2933323999798
 20
784.2119786364332
 30
0.0
 40
281.6666680413323
100
AcDbArc
 50
0.0
 51
87.04763793945312
  0
ARC
  5
220
330
1F
100
AcDbEntity
  8
0-2
  6
Continuous
 62
     6
370
    13
100
AcDbCircle
 10
-135.2933323999798
 20
784.2119786364332
 30
0.0
 40
281.6666680413323
100
AcDbArc
 50
92.95236206054689
 51
180.0
  0
ELLIPSE
  5
221
330
1F
100
AcDbEntity
  8
0-2
  6
Continuous
 62
     6
370
    13
100
AcDbEllipse
 10
-135.2933323999798
 20
1058.234756296906
 30
0.0
 11
17.50005773595861
 21
0.0
 31
0.0
210
0.0
220
0.0
230
1.0
 40
0.7428
 41
1.666170250701142
 42
3.141592653589793
  0
ELLIPSE
  5
222
330
1F
100
AcDbEntity
  8
0-2
  6
Continuous
 62
     6
370
    13
100
AcDbEllipse
 10
-135.2933323999798
 20
1058.234756296906
 30
0.0
 11
17.50005773595861
 21
0.0
 31
0.0
210
0.0
220
0.0
230
1.0
 40
0.7428
 41
0.0
 42
1.475408288134874
  0
ARC
  5
223
330
1F
100
AcDbEntity
  8
0-2
  6
Continuous
 62
     6
370
    13
100
AcDbCircle
 10
168.0398469707973
 20
784.2119786364332
 30
0.0
 40
17.49999974225018
100
AcDbArc
 50
0.0
 51
180.0
  0
ARC
  5
224
330
1F
100
AcDbEntity
  8
0-2
  6
Continuous
 62
     6
370
    13
100
AcDbCircle
 10
-135.2933323999798
 20
784.2119786364332
 30
0.0
 40
316.6666804133235
100
AcDbArc
 50
3.016937255859375
 51
6.042327880859375
  0
ARC
  5
225
330
1F
100
AcDbEntity
  8
0-2
  6
Continuous
 62
     6
370
    13
100
AcDbCircle
 10
-135.2933323999798
 20
784.2119786364332
 30
0.0
 40
320.000004123997
100
AcDbArc
 50
2.388015747070312
 51
177.6119842529297
  0
ARC
  5
226
330
1F
100
AcDbEntity
  8
0-0
  6
Continuous
 62
     3
370
    13
100
AcDbCircle
 10
-135.2933323999798
 20
784.2119786364332
 30
0.0
 40
195.9183976456926
100
AcDbArc
 50
0.0
 51
51.69084167480468
  0
ARC
  5
227
330
1F
100
AcDbEntity
  8
0-0
  6
Continuous
 62
     3
370
    13
100
AcDbCircle
 10
-135.2933323999798
 20
784.2119786364332
 30
0.0
 40
184.9659687763936
100
AcDbArc
 50
0.0
 51
56.70228576660156
  0
ARC
  5
228
330
1F
100
AcDbEntity
  8
0-0
  6
Continuous
 62
     3
370
    13
100
AcDbCircle
 10
-135.2933323999798
 20
784.2119786364332
 30
0.0
 40
195.9183976456926
100
AcDbArc
 50
68.30920410156251
 51
171.6908264160157
  0
ARC
  5
229
330
1F
100
AcDbEntity
  8
0-0
  6
Continuous
 62
     3
370
    13
100
AcDbCircle
 10
-135.2933323999798
 20
784.2119786364332
 30
0.0
 40
184.9659687763936
100
AcDbArc
 50
63.2977294921875
 51
176.7023162841797
  0
ARC
  5
22A
330
1F
100
AcDbEntity
  8
0-1
  6
Continuous
 62
     4
370
    13
100
AcDbCircle
 10
-21.94395396881417
 20
980.5017009759603
 30
0.0
 40
21.66667113433013
100
AcDbArc
 50
108.1267395019531
 51
11.86398315429688
  0
ARC
  5
22B
330
1F
100
AcDbEntity
  8
0-1
  6
Continuous
 62
     4
370
    13
100
AcDbCircle
 10
-361.9597571254867
 20
784.2304541431901
 30
0.0
 40
21.66667113433013
100
AcDbArc
 50
359.950927734375
 51
131.8642120361328
  0
LINE
  5
22C
330
1F
100
AcDbEntity
  8
0-0
  6
JWW_CENTER1
 62
     3
370
    13
100
AcDbLine
 10
-135.2933323999798
 20
1305.700487085014
 30
0.0
 11
-135.2933323999798
 21
768.2115299455551
 31
0.0
  0
LINE
  5
22D
330
1F
100
AcDbEntity
  8
0-1
  6
Continuous
 62
     2
370
    13
100
AcDbLine
 10
-493.6267757065676
 20
-125.396481298151
 30
0.0
 11
-503.6266437386621
 21
-119.6230503965463
 31
0.0
  0
LINE
  5
22E
330
1F
100
AcDbEntity
  8
0-1
  6
Continuous
 62
     2
370
    13
100
AcDbLine
 10
-493.6267757065676
 20
-125.396481298151
 30
0.0
 11
-483.6269076744732
 21
-119.6230503965463
 31
0.0
  0
LINE
  5
22F
330
1F
100
AcDbEntity
  8
0-1
  6
Continuous
 62
     2
370
    13
100
AcDbLine
 10
-483.6269076744732
 20
-119.6230503965463
 30
0.0
 11
-503.6266437386621
 21
-119.6230503965463
 31
0.0
  0
LINE
  5
230
330
1F
100
AcDbEntity
  8
0-1
  6
Continuous
 62
     2
370
    13
100
AcDbLine
 10
-503.6266437386621
 20
-118.7297926368335
 30
0.0
 11
-503.6266437386621
 21
-119.6230503965463
 31
0.0
  0
LINE
  5
231
330
1F
100
AcDbEntity
  8
0-1
  6
Continuous
 62
     2
370
    13
100
AcDbLine
 10
-483.6269076744732
 20
-118.7297926368335
 30
0.0
 11
-483.6269076744732
 21
-119.6230503965463
 31
0.0
  0
LINE
  5
232
330
1F
100
AcDbEntity
  8
0-1
  6
Continuous
 62
     2
370
    13
100
AcDbLine
 10
-526.9598890933919
 20
-132.0633349193503
 30
0.0
 11
-518.6269406664496
 21
-98.72972665288086
 31
0.0
  0
LINE
  5
233
330
1F
100
AcDbEntity
  8
0-1
  6
Continuous
 62
     2
370
    13
100
AcDbLine
 10
-518.6269406664496
 20
-98.72972665288086
 30
0.0
 11
-506.9598231094392
 21
-98.72972665288086
 31
0.0
  0
LINE
  5
234
330
1F
100
AcDbEntity
  8
0-1
  6
Continuous
 62
     2
370
    13
100
AcDbLine
 10
-480.2932334240506
 20
-98.72972665288086
 30
0.0
 11
-465.2937612956725
 21
-98.72972665288086
 31
0.0
  0
LINE
  5
235
330
1F
100
AcDbEntity
  8
0-2
  6
Continuous
 62
     6
370
    13
100
AcDbLine
 10
-428.9756331513582
 20
-112.0627740557524
 30
0.0
 11
-455.2933983839324
 21
-112.0627740557524
 31
0.0
  0
LINE
  5
236
330
1F
100
AcDbEntity
  8
0-0
  6
Continuous
 62
     3
370
    13
100
AcDbLine
 10
-554.0174336985442
 20
-124.9177677212928
 30
0.0
 11
-525.1735945384589
 21
-124.9177677212928
 31
0.0
  0
LINE
  5
237
330
1F
100
AcDbEntity
  8
0-1
  6
JWW_DASHED1
 62
     2
370
    13
100
AcDbLine
 10
-452.9058515353262
 20
-139.8272542341729
 30
0.0
 11
-524.1300477047835
 21
-120.7433531468567
 31
0.0
  0
LINE
  5
238
330
1F
100
AcDbEntity
  8
0-1
  6
Continuous
 62
     2
370
    13
100
AcDbLine
 10
-459.6944884348474
 20
-131.9593294519203
 30
0.0
 11
-465.2937612956725
 21
-98.72972665288086
 31
0.0
  0
LINE
  5
239
330
1F
100
AcDbEntity
  8
0-1
  6
Continuous
 62
     2
370
    13
100
AcDbLine
 10
-452.4217186430435
 20
-139.9569787312901
 30
0.0
 11
-413.4617168488819
 21
-150.3963988182102
 31
0.0
  0
ARC
  5
23A
330
1F
100
AcDbEntity
  8
0-1
  6
Continuous
 62
     2
370
    13
100
AcDbCircle
 10
-449.833500649047
 20
-130.2977278485585
 30
0.0
 40
10.0
100
AcDbArc
 50
189.5646371668797
 51
254.999836623416
  0
LINE
  5
23B
330
1F
100
AcDbEntity
  8
0-4
  6
Continuous
 62
     7
370
    13
100
AcDbLine
 10
451.5319761173211
 20
-208.251046067999
 30
0.0
 11
451.5319761173211
 21
-124.9177677212928
 31
0.0
  0
LINE
  5
23C
330
1F
100
AcDbEntity
  8
0-4
  6
Continuous
 62
     7
370
    13
100
AcDbLine
 10
451.5319761173211
 20
-208.251046067999
 30
0.0
 11
448.2687397364089
 21
-183.4649990346375
 31
0.0
  0
LINE
  5
23D
330
1F
100
AcDbEntity
  8
0-4
  6
Continuous
 62
     7
370
    13
100
AcDbLine
 10
451.5319761173211
 20
-208.251046067999
 30
0.0
 11
454.7952124982334
 21
-183.4649990346375
 31
0.0
  0
LINE
  5
23E
330
1F
100
AcDbEntity
  8
0-4
  6
Continuous
 62
     7
370
    13
100
AcDbLine
 10
451.5319761173211
 20
-124.9177677212928
 30
0.0
 11
448.2687397364089
 21
-149.7039384745658
 31
0.0
  0
LINE
  5
23F
330
1F
100
AcDbEntity
  8
0-4
  6
Continuous
 62
     7
370
    13
100
AcDbLine
 10
451.5319761173211
 20
-124.9177677212928
 30
0.0
 11
454.7952124982334
 21
-149.7039384745658
 31
0.0
  0
LINE
  5
240
330
1F
100
AcDbEntity
  8
0-4
  6
Continuous
 62
     7
370
    13
100
AcDbLine
 10
531.5319926133094
 20
-391.4389122789365
 30
0.0
 11
531.5319926133094
 21
101.2705620269124
 31
0.0
  0
LINE
  5
241
330
1F
100
AcDbEntity
  8
0-4
  6
Continuous
 62
     7
370
    13
100
AcDbLine
 10
531.5319926133094
 20
-391.4389122789365
 30
0.0
 11
528.2687562323972
 21
-366.652865245575
 31
0.0
  0
LINE
  5
242
330
1F
100
AcDbEntity
  8
0-4
  6
Continuous
 62
     7
370
    13
100
AcDbLine
 10
531.5319926133094
 20
-391.4389122789365
 30
0.0
 11
534.7952289942214
 21
-366.652865245575
 31
0.0
  0
LINE
  5
243
330
1F
100
AcDbEntity
  8
0-4
  6
Continuous
 62
     7
370
    13
100
AcDbLine
 10
534.7952289942214
 20
-100.1315969680201
 30
0.0
 11
528.2687562323972
 21
-149.7039384745658
 31
0.0
  0
LINE
  5
244
330
1F
100
AcDbEntity
  8
0-4
  6
Continuous
 62
     7
370
    13
100
AcDbLine
 10
528.2687562323972
 20
-100.1315969680201
 30
0.0
 11
534.7952289942214
 21
-149.7039384745658
 31
0.0
  0
LINE
  5
245
330
1F
100
AcDbEntity
  8
0-4
  6
Continuous
 62
     7
370
    13
100
AcDbLine
 10
531.5319926133094
 20
101.2705620269124
 30
0.0
 11
528.2687562323972
 21
76.48439127363943
 31
0.0
  0
LINE
  5
246
330
1F
100
AcDbEntity
  8
0-4
  6
Continuous
 62
     7
370
    13
100
AcDbLine
 10
531.5319926133094
 20
101.2705620269124
 30
0.0
 11
534.7952289942214
 21
76.48439127363943
 31
0.0
  0
TEXT
  5
247
330
1F
100
AcDbEntity
  8
0-4
  6
Continuous
 62
     2
370
    13
100
AcDbText
 10
435.8919431253448
 20
-187.8344068946459
 30
0.0
 40
30.48
  1
25
 50
90.0
 41
1.0625
  7
ＭＳ ゴシック
100
AcDbText
  0
TEXT
  5
248
330
1F
100
AcDbEntity
  8
0-4
  6
Continuous
 62
     2
370
    13
100
AcDbText
 10
515.8919596213328
 20
-33.07366470714598
 30
0.0
 40
30.48
  1
68
 50
90.0
 41
1.0625
  7
ＭＳ ゴシック
100
AcDbText
  0
TEXT
  5
249
330
1F
100
AcDbEntity
  8
0-4
  6
Continuous
 62
     2
370
    13
100
AcDbText
 10
515.8919596213328
 20
-297.3898049593367
 30
0.0
 40
30.48
  1
120
 50
90.0
 41
1.083333333333333
  7
ＭＳ ゴシック
100
AcDbText
  0
LINE
  5
24A
330
1F
100
AcDbEntity
  8
0-4
  6
Continuous
 62
     7
370
    13
100
AcDbLine
 10
146.6947805909408
 20
101.2705620269124
 30
0.0
 11
534.7952289942214
 21
101.2705620269124
 31
0.0
  0
LINE
  5
24B
330
1F
100
AcDbEntity
  8
0-4
  6
Continuous
 62
     7
370
    13
100
AcDbLine
 10
308.4308513785255
 20
-124.9177677212928
 30
0.0
 11
534.7952289942214
 21
-124.9177677212928
 31
0.0
  0
LINE
  5
24C
330
1F
100
AcDbEntity
  8
0-4
  6
Continuous
 62
     7
370
    13
100
AcDbLine
 10
164.7066676000202
 20
-208.251046067999
 30
0.0
 11
454.7952124982334
 21
-208.251046067999
 31
0.0
  0
LINE
  5
24D
330
1F
100
AcDbEntity
  8
0-4
  6
Continuous
 62
     7
370
    13
100
AcDbLine
 10
164.7066676000202
 20
-391.4389122789365
 30
0.0
 11
534.7952289942214
 21
-391.4389122789365
 31
0.0
  0
LINE
  5
24E
330
1F
100
AcDbEntity
  8
0-A
  6
Continuous
 62
     2
370
    13
100
AcDbLine
 10
-506.126445786804
 20
805.8626331972438
 30
0.0
 11
-518.626445786804
 21
784.2119786364332
 31
0.0
  0
LINE
  5
24F
330
1F
100
AcDbEntity
  8
0-A
  6
Continuous
 62
     2
370
    13
100
AcDbLine
 10
-468.6175379531891
 20
784.2278147850817
 30
0.0
 11
-481.108300199811
 21
805.8626331972438
 31
0.0
  0
LINE
  5
250
330
1F
100
AcDbEntity
  8
0-A
  6
Continuous
 62
     2
370
    13
100
AcDbLine
 10
-506.126445786804
 20
805.8626331972438
 30
0.0
 11
-481.108300199811
 21
805.8626331972438
 31
0.0
  0
LINE
  5
251
330
1F
100
AcDbEntity
  8
0-A
  6
Continuous
 62
     2
370
    13
100
AcDbLine
 10
68.87388413295945
 20
1094.537807394879
 30
0.0
 11
56.3735542131959
 21
1116.188132035927
 31
0.0
  0
LINE
  5
252
330
1F
100
AcDbEntity
  8
0-A
  6
Continuous
 62
     2
370
    13
100
AcDbLine
 10
31.38246204681082
 20
1072.870656845893
 30
0.0
 11
56.36398654005387
 21
1072.870656845893
 31
0.0
  0
LINE
  5
253
330
1F
100
AcDbEntity
  8
0-A
  6
Continuous
 62
     2
370
    13
100
AcDbLine
 10
68.87388413295945
 20
1094.537807394879
 30
0.0
 11
56.36398654005387
 21
1072.870656845893
 31
0.0
  0
LINE
  5
254
330
1F
100
AcDbEntity
  8
0-A
  6
Continuous
 62
     2
370
    13
100
AcDbLine
 10
31.37322429343236
 20
1116.188132035927
 30
0.0
 11
56.3735542131959
 21
1116.188132035927
 31
0.0
  0
LINE
  5
255
330
1F
100
AcDbEntity
  8
0-A
  6
Continuous
 62
     2
370
    13
100
AcDbLine
 10
31.35474878667576
 20
1072.887152834068
 30
0.0
 11
18.86431645981741
 21
1094.521311406704
 31
0.0
  0
LINE
  5
256
330
1F
100
AcDbEntity
  8
0-A
  6
Continuous
 62
     2
370
    13
100
AcDbLine
 10
31.37322429343236
 20
1116.188132035927
 30
0.0
 11
18.86431645981741
 21
1094.521311406704
 31
0.0
  0
LINE
  5
257
330
1F
100
AcDbEntity
  8
0-A
  6
Continuous
 62
     2
370
    13
100
AcDbLine
 10
35.22173833481741
 20
1087.618070274947
 30
0.0
 11
54.19146489731741
 21
1098.570746584068
 31
0.0
  0
LINE
  5
258
330
1F
100
AcDbEntity
  8
0-A
  6
Continuous
 62
     2
370
    13
100
AcDbLine
 10
33.55498368954727
 20
1090.50486820569
 30
0.0
 11
52.52537009157436
 21
1101.456884675285
 31
0.0
  0
LINE
  5
259
330
1F
100
AcDbEntity
  8
0-A
  6
JWW_CENTER1
 62
     2
370
    13
100
AcDbLine
 10
23.91670771826362
 20
1106.059595296062
 30
0.0
 11
63.82974086860148
 21
1083.015689573933
 31
0.0
  0
LINE
  5
25A
330
1F
100
AcDbEntity
  8
0-A
  6
Continuous
 62
     2
370
    13
100
AcDbLine
 10
-490.2931014561453
 20
784.2119786364332
 30
0.0
 11
-502.2782616651824
 21
791.1313858366021
 31
0.0
  0
LINE
  5
25B
330
1F
100
AcDbEntity
  8
0-A
  6
Continuous
 62
     2
370
    13
100
AcDbLine
 10
-496.9596251575811
 20
784.2119786364332
 30
0.0
 11
-503.9450163104526
 21
788.2445879058588
 31
0.0
  0
LINE
  5
25C
330
1F
100
AcDbEntity
  8
0-A
  6
JWW_CENTER1
 62
     2
370
    13
100
AcDbLine
 10
-493.626445786804
 20
784.2119786364332
 30
0.0
 11
-493.626445786804
 21
807.255554438798
 31
0.0
  0
LINE
  5
25D
330
1F
100
AcDbEntity
  8
0-A
  6
Continuous
 62
     4
370
    13
100
AcDbLine
 10
-32.31283725639854
 20
1239.374563095893
 30
0.0
 11
-29.72296711281764
 21
1249.040552327312
 31
0.0
  0
LINE
  5
25E
330
1F
100
AcDbEntity
  8
0-A
  6
Continuous
 62
     4
370
    13
100
AcDbLine
 10
-29.1654027124798
 20
1231.801914763967
 30
0.0
 11
-23.12391200302043
 21
1254.349621161771
 31
0.0
  0
LINE
  5
25F
330
1F
100
AcDbEntity
  8
0-A
  6
Continuous
 62
     4
370
    13
100
AcDbLine
 10
3.104709196303865
 20
1229.884091178663
 30
0.0
 11
5.694249420121587
 21
1239.550740249609
 31
0.0
  0
LINE
  5
260
330
1F
100
AcDbEntity
  8
0-A
  6
Continuous
 62
     4
370
    13
100
AcDbLine
 10
-3.407247095925623
 20
1224.899663391501
 30
0.0
 11
2.634243613533744
 21
1247.447369789305
 31
0.0
  0
LINE
  5
261
330
1F
100
AcDbEntity
  8
0-A
  6
Continuous
 62
     4
370
    13
100
AcDbLine
 10
5.694249420121587
 20
1239.550740249609
 30
0.0
 11
2.634243613533744
 21
1247.447369789305
 31
0.0
  0
LINE
  5
262
330
1F
100
AcDbEntity
  8
0-A
  6
Continuous
 62
     4
370
    13
100
AcDbLine
 10
3.104709196303865
 20
1229.884091178663
 30
0.0
 11
-3.407247095925623
 21
1224.899663391501
 31
0.0
  0
LINE
  5
263
330
1F
100
AcDbEntity
  8
0-A
  6
Continuous
 62
     4
370
    13
100
AcDbLine
 10
-29.72296711281764
 20
1249.040552327312
 30
0.0
 11
-23.12391200302043
 21
1254.349621161771
 31
0.0
  0
LINE
  5
264
330
1F
100
AcDbEntity
  8
0-A
  6
Continuous
 62
     4
370
    13
100
AcDbLine
 10
-32.31283725639854
 20
1239.374563095893
 30
0.0
 11
-29.1654027124798
 21
1231.801914763967
 31
0.0
  0
LINE
  5
265
330
1F
100
AcDbEntity
  8
0-A
  6
Continuous
 62
     4
370
    13
100
AcDbLine
 10
-273.6910440764999
 20
1229.884091178663
 30
0.0
 11
-276.2809142200812
 21
1239.550740249609
 31
0.0
  0
LINE
  5
266
330
1F
100
AcDbEntity
  8
0-A
  6
Continuous
 62
     4
370
    13
100
AcDbLine
 10
-267.1790877842704
 20
1224.899663391501
 30
0.0
 11
-273.2209084134933
 21
1247.447369789305
 31
0.0
  0
LINE
  5
267
330
1F
100
AcDbEntity
  8
0-A
  6
Continuous
 62
     4
370
    13
100
AcDbLine
 10
-238.2734976237975
 20
1239.374563095893
 30
0.0
 11
-240.8633677673784
 21
1249.040552327312
 31
0.0
  0
LINE
  5
268
330
1F
100
AcDbEntity
  8
0-A
  6
Continuous
 62
     4
370
    13
100
AcDbLine
 10
-241.4209321677162
 20
1231.801914763967
 30
0.0
 11
-247.4624228771756
 21
1254.348961322244
 31
0.0
  0
LINE
  5
269
330
1F
100
AcDbEntity
  8
0-A
  6
Continuous
 62
     4
370
    13
100
AcDbLine
 10
-240.8633677673784
 20
1249.040552327312
 30
0.0
 11
-247.4624228771756
 21
1254.348961322244
 31
0.0
  0
LINE
  5
26A
330
1F
100
AcDbEntity
  8
0-A
  6
Continuous
 62
     4
370
    13
100
AcDbLine
 10
-238.2734976237975
 20
1239.374563095893
 30
0.0
 11
-241.4209321677162
 21
1231.801914763967
 31
0.0
  0
LINE
  5
26B
330
1F
100
AcDbEntity
  8
0-A
  6
Continuous
 62
     4
370
    13
100
AcDbLine
 10
-276.2809142200812
 20
1239.550740249609
 30
0.0
 11
-273.2209084134933
 21
1247.447369789305
 31
0.0
  0
LINE
  5
26C
330
1F
100
AcDbEntity
  8
0-A
  6
Continuous
 62
     4
370
    13
100
AcDbLine
 10
-273.6910440764999
 20
1229.884091178663
 30
0.0
 11
-267.1787578645068
 21
1224.899663391501
 31
0.0
  0
LINE
  5
26D
330
1F
100
AcDbEntity
  8
0-A
  6
Continuous
 62
     4
370
    13
100
AcDbLine
 10
-477.9856096381553
 20
1100.976521499609
 30
0.0
 11
-485.0617287259932
 21
1108.053300426974
 31
0.0
  0
LINE
  5
26E
330
1F
100
AcDbEntity
  8
0-A
  6
Continuous
 62
     4
370
    13
100
AcDbLine
 10
-469.8539122669561
 20
1099.915829459913
 30
0.0
 11
-486.3596330756553
 21
1116.422045148257
 31
0.0
  0
LINE
  5
26F
330
1F
100
AcDbEntity
  8
0-A
  6
Continuous
 62
     4
370
    13
100
AcDbLine
 10
-452.058205182919
 20
1126.904255874609
 30
0.0
 11
-459.1344892306384
 21
1133.980374962447
 31
0.0
  0
LINE
  5
270
330
1F
100
AcDbEntity
  8
0-A
  6
Continuous
 62
     4
370
    13
100
AcDbLine
 10
-450.9978430629867
 20
1118.772393543528
 30
0.0
 11
-467.503398911804
 21
1135.277949392345
 31
0.0
  0
LINE
  5
271
330
1F
100
AcDbEntity
  8
0-A
  6
Continuous
 62
     4
370
    13
100
AcDbLine
 10
-459.1344892306384
 20
1133.980374962447
 30
0.0
 11
-467.503398911804
 21
1135.277949392345
 31
0.0
  0
LINE
  5
272
330
1F
100
AcDbEntity
  8
0-A
  6
Continuous
 62
     4
370
    13
100
AcDbLine
 10
-452.058205182919
 20
1126.904255874609
 30
0.0
 11
-450.9978430629867
 21
1118.772393543528
 31
0.0
  0
LINE
  5
273
330
1F
100
AcDbEntity
  8
0-A
  6
Continuous
 62
     4
370
    13
100
AcDbLine
 10
-485.0617287259932
 20
1108.053300426974
 30
0.0
 11
-486.3596330756553
 21
1116.422045148257
 31
0.0
  0
LINE
  5
274
330
1F
100
AcDbEntity
  8
0-A
  6
Continuous
 62
     4
370
    13
100
AcDbLine
 10
-477.9856096381553
 20
1100.976521499609
 30
0.0
 11
-469.8539122669561
 21
1099.915829459913
 31
0.0
  0
LINE
  5
275
330
1F
100
AcDbEntity
  8
0-A
  6
Continuous
 62
     4
370
    13
100
AcDbLine
 10
-590.4555869396755
 20
887.1918139404874
 30
0.0
 11
-600.1222360106217
 21
889.7823439235952
 31
0.0
  0
LINE
  5
276
330
1F
100
AcDbEntity
  8
0-A
  6
Continuous
 62
     4
370
    13
100
AcDbLine
 10
-582.8834334873953
 20
890.3395784041696
 30
0.0
 11
-605.430645005554
 21
896.3810691136292
 31
0.0
  0
LINE
  5
277
330
1F
100
AcDbEntity
  8
0-A
  6
Continuous
 62
     4
370
    13
100
AcDbLine
 10
-580.9656099020912
 20
922.6096903129536
 30
0.0
 11
-590.6324239329189
 21
925.1995604565344
 31
0.0
  0
LINE
  5
278
330
1F
100
AcDbEntity
  8
0-A
  6
Continuous
 62
     4
370
    13
100
AcDbLine
 10
-575.9816769945745
 20
916.0974041009603
 30
0.0
 11
-598.5288885127331
 21
922.1392247301832
 31
0.0
  0
LINE
  5
279
330
1F
100
AcDbEntity
  8
0-A
  6
Continuous
 62
     4
370
    13
100
AcDbLine
 10
-590.6324239329189
 20
925.1995604565344
 30
0.0
 11
-598.5288885127331
 21
922.1392247301832
 31
0.0
  0
LINE
  5
27A
330
1F
100
AcDbEntity
  8
0-A
  6
Continuous
 62
     4
370
    13
100
AcDbLine
 10
-580.9656099020912
 20
922.6096903129536
 30
0.0
 11
-575.9816769945745
 21
916.0974041009603
 31
0.0
  0
LINE
  5
27B
330
1F
100
AcDbEntity
  8
0-A
  6
Continuous
 62
     4
370
    13
100
AcDbLine
 10
-600.1222360106217
 20
889.7823439235952
 30
0.0
 11
-605.430645005554
 21
896.3810691136292
 31
0.0
  0
LINE
  5
27C
330
1F
100
AcDbEntity
  8
0-A
  6
Continuous
 62
     4
370
    13
100
AcDbLine
 10
-590.4555869396755
 20
887.1918139404874
 30
0.0
 11
-582.8834334873953
 21
890.3395784041696
 31
0.0
  0
LINE
  5
27D
330
1F
100
AcDbEntity
  8
0-A
  6
Continuous
 62
     4
370
    13
100
AcDbLine
 10
181.4715403829595
 20
1126.904255874609
 30
0.0
 11
188.5479893905609
 21
1133.980374962447
 31
0.0
  0
LINE
  5
27E
330
1F
100
AcDbEntity
  8
0-A
  6
Continuous
 62
     4
370
    13
100
AcDbLine
 10
180.4111782630268
 20
1118.772393543528
 30
0.0
 11
196.916404192081
 21
1135.277949392345
 31
0.0
  0
LINE
  5
27F
330
1F
100
AcDbEntity
  8
0-A
  6
Continuous
 62
     4
370
    13
100
AcDbLine
 10
207.3989448381959
 20
1100.976521499609
 30
0.0
 11
214.4750639260338
 21
1108.053300426974
 31
0.0
  0
LINE
  5
280
330
1F
100
AcDbEntity
  8
0-A
  6
Continuous
 62
     4
370
    13
100
AcDbLine
 10
199.2670825071147
 20
1099.915829459913
 30
0.0
 11
215.7726383559324
 21
1116.422045148257
 31
0.0
  0
LINE
  5
281
330
1F
100
AcDbEntity
  8
0-A
  6
Continuous
 62
     4
370
    13
100
AcDbLine
 10
214.4750639260338
 20
1108.053300426974
 30
0.0
 11
215.7726383559324
 21
1116.422045148257
 31
0.0
  0
LINE
  5
282
330
1F
100
AcDbEntity
  8
0-A
  6
Continuous
 62
     4
370
    13
100
AcDbLine
 10
207.3989448381959
 20
1100.976521499609
 30
0.0
 11
199.2674124268782
 21
1099.915829459913
 31
0.0
  0
LINE
  5
283
330
1F
100
AcDbEntity
  8
0-A
  6
Continuous
 62
     4
370
    13
100
AcDbLine
 10
188.5479893905609
 20
1133.980374962447
 30
0.0
 11
196.916404192081
 21
1135.277949392345
 31
0.0
  0
LINE
  5
284
330
1F
100
AcDbEntity
  8
0-A
  6
Continuous
 62
     4
370
    13
100
AcDbLine
 10
181.4715403829595
 20
1126.904255874609
 30
0.0
 11
180.4111782630268
 21
1118.772393543528
 31
0.0
  0
LINE
  5
285
330
1F
100
AcDbEntity
  8
0-A
  6
Continuous
 62
     4
370
    13
100
AcDbLine
 10
310.3791100620136
 20
922.6096903129536
 30
0.0
 11
320.0454292131959
 21
925.1995604565344
 31
0.0
  0
LINE
  5
286
330
1F
100
AcDbEntity
  8
0-A
  6
Continuous
 62
     4
370
    13
100
AcDbLine
 10
305.3950121946147
 20
916.0974041009603
 30
0.0
 11
327.9423886726553
 21
922.1392247301832
 31
0.0
  0
LINE
  5
287
330
1F
100
AcDbEntity
  8
0-A
  6
Continuous
 62
     4
370
    13
100
AcDbLine
 10
319.8689221397161
 20
887.1918139404874
 30
0.0
 11
329.5352412908987
 21
889.7823439235952
 31
0.0
  0
LINE
  5
288
330
1F
100
AcDbEntity
  8
0-A
  6
Continuous
 62
     4
370
    13
100
AcDbLine
 10
312.2966037275539
 20
890.3395784041696
 30
0.0
 11
334.843650285831
 21
896.3810691136292
 31
0.0
  0
LINE
  5
289
330
1F
100
AcDbEntity
  8
0-A
  6
Continuous
 62
     4
370
    13
100
AcDbLine
 10
329.5352412908987
 20
889.7823439235952
 30
0.0
 11
334.843650285831
 21
896.3810691136292
 31
0.0
  0
LINE
  5
28A
330
1F
100
AcDbEntity
  8
0-A
  6
Continuous
 62
     4
370
    13
100
AcDbLine
 10
319.8689221397161
 20
887.1918139404874
 30
0.0
 11
312.2966037275539
 21
890.3395784041696
 31
0.0
  0
LINE
  5
28B
330
1F
100
AcDbEntity
  8
0-A
  6
Continuous
 62
     4
370
    13
100
AcDbLine
 10
320.0454292131959
 20
925.1995604565344
 30
0.0
 11
327.9423886726553
 21
922.1392247301832
 31
0.0
  0
LINE
  5
28C
330
1F
100
AcDbEntity
  8
0-A
  6
Continuous
 62
     4
370
    13
100
AcDbLine
 10
310.3791100620136
 20
922.6096903129536
 30
0.0
 11
305.3950121946147
 21
916.0974041009603
 31
0.0
  0
LINE
  5
28D
330
1F
100
AcDbEntity
  8
0-A
  6
Continuous
 62
     4
370
    13
100
AcDbLine
 10
6.062769795966023
 20
1099.047480642345
 30
0.0
 11
17.60963159917576
 21
1092.380462061264
 31
0.0
  0
LINE
  5
28E
330
1F
100
AcDbEntity
  8
0-A
  6
Continuous
 62
     4
370
    13
100
AcDbLine
 10
-475.2934643678853
 20
805.8787992656561
 30
0.0
 11
-475.2934643678853
 21
867.2778570148115
 31
0.0
  0
LINE
  5
28F
330
1F
100
AcDbEntity
  8
0-A
  6
Continuous
 62
     4
370
    13
100
AcDbLine
 10
-478.626643738662
 20
819.211846668528
 30
0.0
 11
-478.626643738662
 21
805.8787992656561
 31
0.0
  0
LINE
  5
290
330
1F
100
AcDbEntity
  8
0-A
  6
Continuous
 62
     4
370
    13
100
AcDbLine
 10
-478.626643738662
 20
867.6783796077171
 30
0.0
 11
-478.626643738662
 21
822.5453559590682
 31
0.0
  0
LINE
  5
291
330
1F
100
AcDbEntity
  8
0-A
  6
Continuous
 62
     4
370
    13
100
AcDbLine
 10
53.47059021404032
 20
1067.827173421062
 30
0.0
 11
106.6417789809324
 21
1037.129459105183
 31
0.0
  0
LINE
  5
292
330
1F
100
AcDbEntity
  8
0-A
  6
Continuous
 62
     4
370
    13
100
AcDbLine
 10
66.68453658228376
 20
1064.047282690487
 30
0.0
 11
55.13734485931082
 21
1070.713641432041
 31
0.0
  0
LINE
  5
293
330
1F
100
AcDbEntity
  8
0-A
  6
Continuous
 62
     4
370
    13
100
AcDbLine
 10
108.659568254581
 20
1039.812366622075
 30
0.0
 11
69.57067467350008
 21
1062.380198125454
 31
0.0
  0
LINE
  5
294
330
1F
100
AcDbEntity
  8
0-A
  6
Continuous
 62
     4
370
    13
100
AcDbLine
 10
-35.91457131467563
 20
1123.281736871231
 30
0.0
 11
3.175971865222991
 21
1100.713245528325
 31
0.0
  0
LINE
  5
295
330
1F
100
AcDbEntity
  8
0-A
  6
Continuous
 62
     4
370
    13
100
AcDbLine
 10
15.94287695390527
 20
1089.493664130521
 30
0.0
 11
-37.2299614118041
 21
1120.193028045217
 31
0.0
  0
LINE
  5
296
330
1F
100
AcDbEntity
  8
0-A
  6
Continuous
 62
     4
370
    13
100
AcDbLine
 10
269.2480131447838
 20
979.3548998779874
 30
0.0
 11
235.374821105088
 21
959.7985759759603
 31
0.0
  0
LINE
  5
297
330
1F
100
AcDbEntity
  8
0-A
  6
Continuous
 62
     4
370
    13
100
AcDbLine
 10
235.976264833973
 20
1036.98363456971
 30
0.0
 11
202.1027428745136
 21
1017.42698074792
 31
0.0
  0
LINE
  5
298
330
1F
100
AcDbEntity
  8
0-A
  6
Continuous
 62
     4
370
    13
100
AcDbLine
 10
219.957340636338
 20
962.4438726398115
 30
0.0
 11
264.247749208973
 21
988.0149637504536
 31
0.0
  0
LINE
  5
299
330
1F
100
AcDbEntity
  8
0-A
  6
Continuous
 62
     4
370
    13
100
AcDbLine
 10
213.4796959995136
 20
952.2843234421765
 30
0.0
 11
223.4228178322838
 21
955.5241355198792
 31
0.0
  0
LINE
  5
29A
330
1F
100
AcDbEntity
  8
0-A
  6
Continuous
 62
     4
370
    13
100
AcDbLine
 10
183.989158098331
 20
998.0761968585615
 30
0.0
 11
209.5595893694459
 21
953.7864481254536
 31
0.0
  0
LINE
  5
29B
330
1F
100
AcDbEntity
  8
0-A
  6
Continuous
 62
     4
370
    13
100
AcDbLine
 10
184.6480078660674
 20
1002.221638687109
 30
0.0
 11
192.4252064513716
 21
1009.212968395724
 31
0.0
  0
LINE
  5
29C
330
1F
100
AcDbEntity
  8
0-A
  6
Continuous
 62
     4
370
    13
100
AcDbLine
 10
195.4654170721487
 20
998.1992569303521
 30
0.0
 11
215.404117980088
 21
963.6635860055209
 31
0.0
  0
LINE
  5
29D
330
1F
100
AcDbEntity
  8
0-A
  6
Continuous
 62
     4
370
    13
100
AcDbLine
 10
196.6857902773852
 20
1002.752149666839
 30
0.0
 11
240.9758689302567
 21
1028.323570697244
 31
0.0
  0
LINE
  5
29E
330
1F
100
AcDbEntity
  8
0-A
  6
Continuous
 62
     4
370
    13
100
AcDbLine
 10
-102.020924249642
 20
1232.126555811264
 30
0.0
 11
-102.020924249642
 21
1193.012588328156
 31
0.0
  0
LINE
  5
29F
330
1F
100
AcDbEntity
  8
0-A
  6
Continuous
 62
     4
370
    13
100
AcDbLine
 10
-104.2960509388312
 20
1180.524795359406
 30
0.0
 11
-106.461644266534
 21
1170.293653573089
 31
0.0
  0
LINE
  5
2A0
330
1F
100
AcDbEntity
  8
0-A
  6
Continuous
 62
     4
370
    13
100
AcDbLine
 10
-112.0207922817364
 20
1232.126555811264
 30
0.0
 11
-112.0207922817364
 21
1180.983713750454
 31
0.0
  0
LINE
  5
2A1
330
1F
100
AcDbEntity
  8
0-A
  6
Continuous
 62
     4
370
    13
100
AcDbLine
 10
-115.3546314920406
 20
1177.650534379677
 30
0.0
 11
-155.232033307919
 21
1177.650534379677
 31
0.0
  0
LINE
  5
2A2
330
1F
100
AcDbEntity
  8
0-A
  6
Continuous
 62
     4
370
    13
100
AcDbLine
 10
-166.2906138611284
 20
1180.524795359406
 30
0.0
 11
-164.1250205334256
 21
1170.293653573089
 31
0.0
  0
LINE
  5
2A3
330
1F
100
AcDbEntity
  8
0-A
  6
Continuous
 62
     4
370
    13
100
AcDbLine
 10
-160.8637636710947
 20
1167.650666347582
 30
0.0
 11
-109.7225712091013
 21
1167.650666347582
 31
0.0
  0
LINE
  5
2A4
330
1F
100
AcDbEntity
  8
0-A
  6
Continuous
 62
     4
370
    13
100
AcDbLine
 10
-158.5652126786961
 20
1232.126555811264
 30
0.0
 11
-158.5652126786961
 21
1180.984043670217
 31
0.0
  0
LINE
  5
2A5
330
1F
100
AcDbEntity
  8
0-A
  6
Continuous
 62
     4
370
    13
100
AcDbLine
 10
-168.5654106305541
 20
1232.126555811264
 30
0.0
 11
-168.5654106305541
 21
1193.012588328156
 31
0.0
  0
LINE
  5
2A6
330
1F
100
AcDbEntity
  8
0-A
  6
Continuous
 62
     4
370
    13
100
AcDbLine
 10
-463.0118712513311
 20
1009.212308556197
 30
0.0
 11
-455.2340128264998
 21
1002.221638687109
 31
0.0
  0
LINE
  5
2A7
330
1F
100
AcDbEntity
  8
0-A
  6
Continuous
 62
     4
370
    13
100
AcDbLine
 10
-466.0520818721082
 20
998.1992569303521
 30
0.0
 11
-485.9907827800474
 21
963.6635860055209
 31
0.0
  0
LINE
  5
2A8
330
1F
100
AcDbEntity
  8
0-A
  6
Continuous
 62
     4
370
    13
100
AcDbLine
 10
-494.0091527124797
 20
955.5241355198792
 30
0.0
 11
-484.065700959946
 21
952.2833336828859
 31
0.0
  0
LINE
  5
2A9
330
1F
100
AcDbEntity
  8
0-A
  6
Continuous
 62
     4
370
    13
100
AcDbLine
 10
-480.1462541694053
 20
953.7864481254536
 30
0.0
 11
-454.5758228982905
 21
998.0761968585615
 31
0.0
  0
LINE
  5
2AA
330
1F
100
AcDbEntity
  8
0-A
  6
Continuous
 62
     4
370
    13
100
AcDbLine
 10
-511.5625337302162
 20
1028.323570697244
 30
0.0
 11
-467.2719601976995
 21
1002.752149666839
 31
0.0
  0
LINE
  5
2AB
330
1F
100
AcDbEntity
  8
0-A
  6
Continuous
 62
     4
370
    13
100
AcDbLine
 10
-506.5627646740505
 20
1036.98363456971
 30
0.0
 11
-472.6892427145912
 21
1017.42698074792
 31
0.0
  0
LINE
  5
2AC
330
1F
100
AcDbEntity
  8
0-A
  6
Continuous
 62
     4
370
    13
100
AcDbLine
 10
-534.834743928696
 20
988.0149637504536
 30
0.0
 11
-490.544335356061
 21
962.4438726398115
 31
0.0
  0
LINE
  5
2AD
330
1F
100
AcDbEntity
  8
0-A
  6
Continuous
 62
     4
370
    13
100
AcDbLine
 10
-539.8350078645068
 20
979.3548998779874
 30
0.0
 11
-505.961815824811
 21
959.7985759759603
 31
0.0
  0
LINE
  5
2AE
330
1F
100
AcDbEntity
  8
0-A
  6
Continuous
 62
     4
370
    13
100
AcDbLine
 10
-480.2932334240505
 20
824.2114507648115
 30
0.0
 11
-522.5152100393376
 21
824.2114507648115
 31
0.0
  0
LINE
  5
2AF
330
1F
100
AcDbEntity
  8
0-A
  6
Continuous
 62
     4
370
    13
100
AcDbLine
 10
-480.2932334240505
 20
820.878601313798
 30
0.0
 11
-522.5152100393376
 21
820.878601313798
 31
0.0
  0
LINE
  5
2B0
330
1F
100
AcDbEntity
  8
0-A
  6
Continuous
 62
     4
370
    13
100
AcDbLine
 10
71.84745096150667
 20
1062.990549687954
 30
0.0
 11
92.95835678920949
 21
1099.55588699792
 31
0.0
  0
LINE
  5
2B1
330
1F
100
AcDbEntity
  8
0-A
  6
Continuous
 62
     4
370
    13
100
AcDbLine
 10
68.96065303076362
 20
1064.657304333224
 30
0.0
 11
90.07221869799316
 21
1101.221981803663
 31
0.0
  0
LINE
  5
2B2
330
1F
100
AcDbEntity
  8
0-A
  6
Continuous
 62
     4
370
    13
100
AcDbLine
 10
23.67652613042576
 20
1139.555359126298
 30
0.0
 11
2.565950222486535
 21
1102.990681655859
 31
0.0
  0
LINE
  5
2B3
330
1F
100
AcDbEntity
  8
0-A
  6
Continuous
 62
     4
370
    13
100
AcDbLine
 10
5.452418233466023
 20
1101.324256930352
 30
0.0
 11
26.56365398093236
 21
1137.888934400791
 31
0.0
  0
LINE
  5
2B4
330
1F
100
AcDbEntity
  8
0-A
  6
JWW_CENTER1
 62
     2
370
    13
100
AcDbLine
 10
58.21153721572955
 20
1119.371527834068
 30
0.0
 11
30.19640049697955
 21
1070.847588856028
 31
0.0
  0
ARC
  5
2B5
330
1F
100
AcDbEntity
  8
0-A
  6
Continuous
 62
     2
370
    13
100
AcDbCircle
 10
-493.6267757065676
 20
784.2307840629536
 30
0.0
 40
21.66667113433013
100
AcDbArc
 50
359.950927734375
 51
180.049072265625
  0
ARC
  5
2B6
330
1F
100
AcDbEntity
  8
0-A
  6
Continuous
 62
     2
370
    13
100
AcDbCircle
 10
-493.6267757065676
 20
784.2119786364332
 30
0.0
 40
13.33333350516654
100
AcDbArc
 50
0.0
 51
180.0
  0
ARC
  5
2B7
330
1F
100
AcDbEntity
  8
0-A
  6
Continuous
 62
     2
370
    13
100
AcDbCircle
 10
-493.6267757065676
 20
784.2119786364332
 30
0.0
 40
11.07833321030076
100
AcDbArc
 50
0.0
 51
180.0
  0
ARC
  5
2B8
330
1F
100
AcDbEntity
  8
0-A
  6
Continuous
 62
     2
370
    13
100
AcDbCircle
 10
43.88972028160804
 20
1094.528569641501
 30
0.0
 40
21.66667113433013
100
AcDbArc
 50
239.950927734375
 51
60.04907226562499
  0
CIRCLE
  5
2B9
330
1F
100
AcDbEntity
  8
0-A
  6
Continuous
 62
     2
370
    13
100
AcDbCircle
 10
43.87322429343236
 20
1094.537807394879
 30
0.0
 40
13.33333350516654
  0
CIRCLE
  5
2BA
330
1F
100
AcDbEntity
  8
0-A
  6
Continuous
 62
     2
370
    13
100
AcDbCircle
 10
43.87322429343236
 20
1094.537807394879
 30
0.0
 40
11.07833321030076
  0
ARC
  5
2BB
330
1F
100
AcDbEntity
  8
0-A
  6
Continuous
 62
     2
370
    13
100
AcDbCircle
 10
43.85738814478373
 20
1094.547045148257
 30
0.0
 40
21.66667113433013
100
AcDbArc
 50
59.950927734375
 51
240.049072265625
  0
ARC
  5
2BC
330
1F
100
AcDbEntity
  8
0-A
  6
Continuous
 62
     4
370
    13
100
AcDbCircle
 10
-135.2933323999798
 20
784.2119786364332
 30
0.0
 40
476.6666721653294
100
AcDbArc
 50
0.0
 51
12.79576110839844
  0
ARC
  5
2BD
330
1F
100
AcDbEntity
  8
0-A
  6
Continuous
 62
     4
370
    13
100
AcDbCircle
 10
-135.2933323999798
 20
784.2119786364332
 30
0.0
 40
466.6666804133235
100
AcDbArc
 50
0.0
 51
12.74850463867188
  0
ARC
  5
2BE
330
1F
100
AcDbEntity
  8
0-A
  6
Continuous
 62
     4
370
    13
100
AcDbCircle
 10
-135.2933323999798
 20
784.2119786364332
 30
0.0
 40
476.6666721653294
100
AcDbArc
 50
17.2042236328125
 51
42.79577636718751
  0
ARC
  5
2BF
330
1F
100
AcDbEntity
  8
0-A
  6
Continuous
 62
     4
370
    13
100
AcDbCircle
 10
-135.2933323999798
 20
784.2119786364332
 30
0.0
 40
476.6666721653294
100
AcDbArc
 50
47.20423889160156
 51
72.7957763671875
  0
ARC
  5
2C0
330
1F
100
AcDbEntity
  8
0-A
  6
Continuous
 62
     4
370
    13
100
AcDbCircle
 10
-135.2933323999798
 20
784.2119786364332
 30
0.0
 40
466.6666804133235
100
AcDbArc
 50
17.25149536132813
 51
42.74850463867188
  0
ARC
  5
2C1
330
1F
100
AcDbEntity
  8
0-A
  6
Continuous
 62
     4
370
    13
100
AcDbCircle
 10
-135.2933323999798
 20
784.2119786364332
 30
0.0
 40
466.6666804133235
100
AcDbArc
 50
47.25149536132813
 51
72.74850463867189
  0
ARC
  5
2C2
330
1F
100
AcDbEntity
  8
0-A
  6
Continuous
 62
     4
370
    13
100
AcDbCircle
 10
-135.2933323999798
 20
784.2119786364332
 30
0.0
 40
459.9999917520058
100
AcDbArc
 50
46.66096496582031
 51
73.33901977539061
  0
ARC
  5
2C3
330
1F
100
AcDbEntity
  8
0-A
  6
Continuous
 62
     4
370
    13
100
AcDbCircle
 10
-135.2933323999798
 20
784.2119786364332
 30
0.0
 40
466.6666804133235
100
AcDbArc
 50
77.25149536132812
 51
102.7485046386719
  0
ARC
  5
2C4
330
1F
100
AcDbEntity
  8
0-A
  6
Continuous
 62
     4
370
    13
100
AcDbCircle
 10
-135.2933323999798
 20
784.2119786364332
 30
0.0
 40
476.6666721653294
100
AcDbArc
 50
77.20423889160156
 51
102.7957611083984
  0
ARC
  5
2C5
330
1F
100
AcDbEntity
  8
0-A
  6
Continuous
 62
     4
370
    13
100
AcDbCircle
 10
-135.2933323999798
 20
784.2119786364332
 30
0.0
 40
459.9999917520058
100
AcDbArc
 50
106.6609649658203
 51
133.3390197753906
  0
ARC
  5
2C6
330
1F
100
AcDbEntity
  8
0-A
  6
Continuous
 62
     4
370
    13
100
AcDbCircle
 10
-135.2933323999798
 20
784.2119786364332
 30
0.0
 40
466.6666804133235
100
AcDbArc
 50
107.2514801025391
 51
132.7485046386719
  0
ARC
  5
2C7
330
1F
100
AcDbEntity
  8
0-A
  6
Continuous
 62
     4
370
    13
100
AcDbCircle
 10
-135.2933323999798
 20
784.2119786364332
 30
0.0
 40
476.6666721653294
100
AcDbArc
 50
107.2042236328125
 51
132.7957763671875
  0
ARC
  5
2C8
330
1F
100
AcDbEntity
  8
0-A
  6
Continuous
 62
     4
370
    13
100
AcDbCircle
 10
-135.2933323999798
 20
784.2119786364332
 30
0.0
 40
459.9999917520058
100
AcDbArc
 50
166.6609802246094
 51
180.0
  0
ARC
  5
2C9
330
1F
100
AcDbEntity
  8
0-A
  6
Continuous
 62
     4
370
    13
100
AcDbCircle
 10
-135.2933323999798
 20
784.2119786364332
 30
0.0
 40
466.6666804133235
100
AcDbArc
 50
137.2514953613282
 51
162.7485046386719
  0
ARC
  5
2CA
330
1F
100
AcDbEntity
  8
0-A
  6
Continuous
 62
     4
370
    13
100
AcDbCircle
 10
-135.2933323999798
 20
784.2119786364332
 30
0.0
 40
466.6666804133235
100
AcDbArc
 50
167.2514953613281
 51
180.0
  0
ARC
  5
2CB
330
1F
100
AcDbEntity
  8
0-A
  6
Continuous
 62
     4
370
    13
100
AcDbCircle
 10
-135.2933323999798
 20
784.2119786364332
 30
0.0
 40
476.6666721653294
100
AcDbArc
 50
137.2042388916016
 51
162.7957763671875
  0
ARC
  5
2CC
330
1F
100
AcDbEntity
  8
0-A
  6
Continuous
 62
     4
370
    13
100
AcDbCircle
 10
-135.2933323999798
 20
784.2119786364332
 30
0.0
 40
476.6666721653294
100
AcDbArc
 50
167.2042388916016
 51
180.0
  0
ARC
  5
2CD
330
1F
100
AcDbEntity
  8
0-A
  6
Continuous
 62
     4
370
    13
100
AcDbCircle
 10
-480.2932334240505
 20
819.211846668528
 30
0.0
 40
1.666666688145818
100
AcDbArc
 50
0.0
 51
90.0
  0
ARC
  5
2CE
330
1F
100
AcDbEntity
  8
0-A
  6
Continuous
 62
     4
370
    13
100
AcDbCircle
 10
200.4359882292432
 20
1020.313448758899
 30
0.0
 40
3.333333376291636
100
AcDbArc
 50
215.1165618896484
 51
300.0
  0
ARC
  5
2CF
330
1F
100
AcDbEntity
  8
0-A
  6
Continuous
 62
     4
370
    13
100
AcDbCircle
 10
190.1969283686015
 20
1011.691655579001
 30
0.0
 40
3.333333376291636
100
AcDbArc
 50
311.9502105712891
 51
34.94871520996094
  0
ARC
  5
2D0
330
1F
100
AcDbEntity
  8
0-A
  6
Continuous
 62
     4
370
    13
100
AcDbCircle
 10
237.0419056701216
 20
956.9111182056901
 30
0.0
 40
3.333333376291636
100
AcDbArc
 50
120.0
 51
204.8834381103516
  0
ARC
  5
2D1
330
1F
100
AcDbEntity
  8
0-A
  6
Continuous
 62
     4
370
    13
100
AcDbCircle
 10
224.455466692081
 20
952.3545963518051
 30
0.0
 40
3.333333376291636
100
AcDbArc
 50
25.05128479003908
 51
108.049789428711
  0
ARC
  5
2D2
330
1F
100
AcDbEntity
  8
0-A
  6
Continuous
 62
     4
370
    13
100
AcDbCircle
 10
-171.8985900013311
 20
1193.012588328156
 30
0.0
 40
3.333333376291636
100
AcDbArc
 50
275.1165618896484
 51
0.0
  0
ARC
  5
2D3
330
1F
100
AcDbEntity
  8
0-A
  6
Continuous
 62
     4
370
    13
100
AcDbCircle
 10
-169.5512108839326
 20
1179.834603214136
 30
0.0
 40
3.333333376291636
100
AcDbArc
 50
11.95021057128907
 51
94.94871520996094
  0
ARC
  5
2D4
330
1F
100
AcDbEntity
  8
0-A
  6
Continuous
 62
     4
370
    13
100
AcDbCircle
 10
-98.68774487886486
 20
1193.012588328156
 30
0.0
 40
3.333333376291636
100
AcDbArc
 50
180.0
 51
264.8834381103516
  0
ARC
  5
2D5
330
1F
100
AcDbEntity
  8
0-A
  6
Continuous
 62
     4
370
    13
100
AcDbCircle
 10
-101.0347940764999
 20
1179.834603214136
 30
0.0
 40
3.333333376291636
100
AcDbArc
 50
85.05128479003906
 51
168.0497894287109
  0
ARC
  5
2D6
330
1F
100
AcDbEntity
  8
0-A
  6
Continuous
 62
     4
370
    13
100
AcDbCircle
 10
-507.6282405503176
 20
956.9111182056901
 30
0.0
 40
3.333333376291636
100
AcDbArc
 50
335.1165618896484
 51
60.00000000000001
  0
ARC
  5
2D7
330
1F
100
AcDbEntity
  8
0-A
  6
Continuous
 62
     4
370
    13
100
AcDbCircle
 10
-495.0419665321589
 20
952.3545963518051
 30
0.0
 40
3.333333376291636
100
AcDbArc
 50
71.95021057128906
 51
154.9487152099609
  0
ARC
  5
2D8
330
1F
100
AcDbEntity
  8
0-A
  6
Continuous
 62
     4
370
    13
100
AcDbCircle
 10
-471.0226530292026
 20
1020.313448758899
 30
0.0
 40
3.333333376291636
100
AcDbArc
 50
240.0
 51
324.8834381103516
  0
ARC
  5
2D9
330
1F
100
AcDbEntity
  8
0-A
  6
Continuous
 62
     4
370
    13
100
AcDbCircle
 10
-460.783593168561
 20
1011.691655579001
 30
0.0
 40
3.333333376291636
100
AcDbArc
 50
145.0512847900391
 51
228.049789428711
  0
ARC
  5
2DA
330
1F
100
AcDbEntity
  8
0-A
  6
Continuous
 62
     4
370
    13
100
AcDbCircle
 10
-135.2933323999798
 20
784.2119786364332
 30
0.0
 40
459.9999917520058
100
AcDbArc
 50
0.0
 51
13.33901977539062
  0
ARC
  5
2DB
330
1F
100
AcDbEntity
  8
0-A
  6
Continuous
 62
     4
370
    13
100
AcDbCircle
 10
-135.2933323999798
 20
784.2119786364332
 30
0.0
 40
407.1033374683277
100
AcDbArc
 50
0.0
 51
24.88316345214843
  0
ARC
  5
2DC
330
1F
100
AcDbEntity
  8
0-A
  6
Continuous
 62
     4
370
    13
100
AcDbCircle
 10
-135.2933323999798
 20
784.2119786364332
 30
0.0
 40
400.4366488070102
100
AcDbArc
 50
0.0
 51
25.05091857910156
  0
ARC
  5
2DD
330
1F
100
AcDbEntity
  8
0-A
  6
Continuous
 62
     4
370
    13
100
AcDbCircle
 10
-135.2933323999798
 20
784.2119786364332
 30
0.0
 40
407.1033374683277
100
AcDbArc
 50
35.1168212890625
 51
84.88316345214844
  0
ARC
  5
2DE
330
1F
100
AcDbEntity
  8
0-A
  6
Continuous
 62
     4
370
    13
100
AcDbCircle
 10
-135.2933323999798
 20
784.2119786364332
 30
0.0
 40
400.4366488070102
100
AcDbArc
 50
94.94908142089851
 51
145.0509185791016
  0
ARC
  5
2DF
330
1F
100
AcDbEntity
  8
0-A
  6
Continuous
 62
     4
370
    13
100
AcDbCircle
 10
-135.2933323999798
 20
784.2119786364332
 30
0.0
 40
407.1033374683277
100
AcDbArc
 50
95.11683654785162
 51
144.8831634521485
  0
ARC
  5
2E0
330
1F
100
AcDbEntity
  8
0-A
  6
Continuous
 62
     4
370
    13
100
AcDbCircle
 10
-135.2933323999798
 20
784.2119786364332
 30
0.0
 40
407.1033374683277
100
AcDbArc
 50
155.1168365478516
 51
180.0
  0
ARC
  5
2E1
330
1F
100
AcDbEntity
  8
0-A
  6
Continuous
 62
     4
370
    13
100
AcDbCircle
 10
6.895817198837921
 20
1100.490549687954
 30
0.0
 40
1.666666688145818
100
AcDbArc
 50
150.0
 51
240.0
  0
ARC
  5
2E2
330
1F
100
AcDbEntity
  8
0-A
  6
Continuous
 62
     4
370
    13
100
AcDbCircle
 10
-480.2932334240505
 20
822.5453559590682
 30
0.0
 40
1.666666688145818
100
AcDbArc
 50
0.0
 51
90.0
  0
ARC
  5
2E3
330
1F
100
AcDbEntity
  8
0-A
  6
Continuous
 62
     4
370
    13
100
AcDbCircle
 10
-135.2933323999798
 20
784.2119786364332
 30
0.0
 40
353.3333030906883
100
AcDbArc
 50
0.0
 51
46.33567810058594
  0
ARC
  5
2E4
330
1F
100
AcDbEntity
  8
0-A
  6
Continuous
 62
     4
370
    13
100
AcDbCircle
 10
67.51758398515527
 20
1065.490681655859
 30
0.0
 40
1.666666688145818
100
AcDbArc
 50
239.9995422363281
 51
329.9995422363281
  0
ARC
  5
2E5
330
1F
100
AcDbEntity
  8
0-A
  6
Continuous
 62
     4
370
    13
100
AcDbCircle
 10
70.40438191589871
 20
1063.824256930352
 30
0.0
 40
1.666666688145818
100
AcDbArc
 50
239.9989624023437
 51
330.0004577636719
  0
ARC
  5
2E6
330
1F
100
AcDbEntity
  8
0-A
  6
Continuous
 62
     4
370
    13
100
AcDbCircle
 10
4.009349187858042
 20
1102.156644493697
 30
0.0
 40
1.666666688145818
100
AcDbArc
 50
149.9990844726562
 51
240.0005798339844
  0
ARC
  5
2E7
330
1F
100
AcDbEntity
  8
0-A
  6
Continuous
 62
     4
370
    13
100
AcDbCircle
 10
-135.2933323999798
 20
784.2119786364332
 30
0.0
 40
353.3333030906883
100
AcDbArc
 50
73.66459655761722
 51
166.3361053466797
  0
ARC
  5
2E8
330
1F
100
AcDbEntity
  8
0-A
  6
Continuous
 62
     4
370
    13
100
AcDbCircle
 10
-135.2933323999798
 20
784.2119786364332
 30
0.0
 40
350.0
100
AcDbArc
 50
73.72901916503906
 51
166.2708587646484
  0
ARC
  5
2E9
330
1F
100
AcDbEntity
  8
0-A
  6
Continuous
 62
     4
370
    13
100
AcDbCircle
 10
-135.2933323999798
 20
784.2119786364332
 30
0.0
 40
459.9999917520058
100
AcDbArc
 50
16.66098022460938
 51
24.48190307617188
  0
ARC
  5
2EA
330
1F
100
AcDbEntity
  8
0-A
  6
Continuous
 62
     4
370
    13
100
AcDbCircle
 10
274.247947160831
 20
970.6945060857573
 30
0.0
 40
10.00000012887491
100
AcDbArc
 50
24.48187255859376
 51
119.9999694824219
  0
ARC
  5
2EB
330
1F
100
AcDbEntity
  8
0-A
  6
Continuous
 62
     4
370
    13
100
AcDbCircle
 10
274.247947160831
 20
970.6945060857573
 30
0.0
 40
20.00000025774981
100
AcDbArc
 50
78.55116271972656
 51
119.9999694824219
  0
ARC
  5
2EC
330
1F
100
AcDbEntity
  8
0-A
  6
Continuous
 62
     4
370
    13
100
AcDbCircle
 10
230.9763308179258
 20
1045.643368522413
 30
0.0
 40
10.00000012887491
100
AcDbArc
 50
300.0000610351562
 51
35.51815795898439
  0
ARC
  5
2ED
330
1F
100
AcDbEntity
  8
0-A
  6
Continuous
 62
     4
370
    13
100
AcDbCircle
 10
230.9763308179258
 20
1045.643368522413
 30
0.0
 40
20.00000025774981
100
AcDbArc
 50
300.0000915527344
 51
341.4488983154297
  0
ARC
  5
2EE
330
1F
100
AcDbEntity
  8
0-A
  6
Continuous
 62
     4
370
    13
100
AcDbCircle
 10
-135.2933323999798
 20
784.2119786364332
 30
0.0
 40
462.0199667440878
100
AcDbArc
 50
26.49063110351564
 51
33.50938415527345
  0
ARC
  5
2EF
330
1F
100
AcDbEntity
  8
0-A
  6
Continuous
 62
     4
370
    13
100
AcDbCircle
 10
-135.2933323999798
 20
784.2119786364332
 30
0.0
 40
459.9999917520058
100
AcDbArc
 50
35.51809692382812
 51
43.33901977539062
  0
ARC
  5
2F0
330
1F
100
AcDbEntity
  8
0-A
  6
Continuous
 62
     4
370
    13
100
AcDbCircle
 10
218.2905859910674
 20
965.3303406507915
 30
0.0
 40
3.333333376291636
100
AcDbArc
 50
210.0005493164063
 51
300.0005493164064
  0
ARC
  5
2F1
330
1F
100
AcDbEntity
  8
0-A
  6
Continuous
 62
     4
370
    13
100
AcDbCircle
 10
212.4463873001893
 20
955.4532027707238
 30
0.0
 40
3.333333376291636
100
AcDbArc
 50
209.9996795654297
 51
288.0500640869141
  0
ARC
  5
2F2
330
1F
100
AcDbEntity
  8
0-A
  6
Continuous
 62
     4
370
    13
100
AcDbCircle
 10
186.8756261093109
 20
999.7429515038317
 30
0.0
 40
3.333333376291636
100
AcDbArc
 50
131.9502563476562
 51
210.0005493164062
  0
ARC
  5
2F3
330
1F
100
AcDbEntity
  8
0-A
  6
Continuous
 62
     4
370
    13
100
AcDbCircle
 10
198.3525449226553
 20
999.8653517360952
 30
0.0
 40
3.333333376291636
100
AcDbArc
 50
120.0005493164063
 51
209.9996795654297
  0
ARC
  5
2F4
330
1F
100
AcDbEntity
  8
0-A
  6
Continuous
 62
     4
370
    13
100
AcDbCircle
 10
-92.02105621754752
 20
1232.126555811264
 30
0.0
 40
10.00000012887491
100
AcDbArc
 50
84.48187255859374
 51
179.9999694824218
  0
ARC
  5
2F5
330
1F
100
AcDbEntity
  8
0-A
  6
Continuous
 62
     4
370
    13
100
AcDbCircle
 10
-92.02105621754752
 20
1232.126555811264
 30
0.0
 40
20.00000025774981
100
AcDbArc
 50
138.5511627197266
 51
179.9999694824219
  0
ARC
  5
2F6
330
1F
100
AcDbEntity
  8
0-A
  6
Continuous
 62
     4
370
    13
100
AcDbCircle
 10
-178.5652786626489
 20
1232.126555811264
 30
0.0
 40
10.00000012887491
100
AcDbArc
 50
0.0000610351562479
 51
95.51815795898439
  0
ARC
  5
2F7
330
1F
100
AcDbEntity
  8
0-A
  6
Continuous
 62
     4
370
    13
100
AcDbCircle
 10
-178.5652786626489
 20
1232.126555811264
 30
0.0
 40
20.00000025774981
100
AcDbArc
 50
0.0000915527343782
 51
41.44889831542969
  0
ARC
  5
2F8
330
1F
100
AcDbEntity
  8
0-A
  6
Continuous
 62
     4
370
    13
100
AcDbCircle
 10
-115.3546314920406
 20
1180.983713750454
 30
0.0
 40
3.333333376291636
100
AcDbArc
 50
270.0005493164062
 51
0.000549316406244
  0
ARC
  5
2F9
330
1F
100
AcDbEntity
  8
0-A
  6
Continuous
 62
     4
370
    13
100
AcDbCircle
 10
-109.7225712091013
 20
1170.984175638122
 30
0.0
 40
3.333333376291636
100
AcDbArc
 50
269.9996795654297
 51
348.0500640869141
  0
ARC
  5
2FA
330
1F
100
AcDbEntity
  8
0-A
  6
Continuous
 62
     4
370
    13
100
AcDbCircle
 10
-160.8637636710947
 20
1170.983515798595
 30
0.0
 40
3.333333376291636
100
AcDbArc
 50
191.9502563476563
 51
270.0005493164062
  0
ARC
  5
2FB
330
1F
100
AcDbEntity
  8
0-A
  6
Continuous
 62
     4
370
    13
100
AcDbCircle
 10
-155.232033307919
 20
1180.984043670217
 30
0.0
 40
3.333333376291636
100
AcDbArc
 50
180.0005493164063
 51
269.9996795654297
  0
ARC
  5
2FC
330
1F
100
AcDbEntity
  8
0-A
  6
Continuous
 62
     4
370
    13
100
AcDbCircle
 10
-501.5626656981217
 20
1045.643368522413
 30
0.0
 40
10.00000012887491
100
AcDbArc
 50
144.4818725585938
 51
239.9999694824219
  0
ARC
  5
2FD
330
1F
100
AcDbEntity
  8
0-A
  6
Continuous
 62
     4
370
    13
100
AcDbCircle
 10
-501.5626656981217
 20
1045.643368522413
 30
0.0
 40
20.00000025774981
100
AcDbArc
 50
198.5511627197266
 51
239.9999694824219
  0
ARC
  5
2FE
330
1F
100
AcDbEntity
  8
0-A
  6
Continuous
 62
     4
370
    13
100
AcDbCircle
 10
-544.8346119607904
 20
970.6945060857573
 30
0.0
 40
10.00000012887491
100
AcDbArc
 50
60.00006103515624
 51
155.5181579589844
  0
ARC
  5
2FF
330
1F
100
AcDbEntity
  8
0-A
  6
Continuous
 62
     4
370
    13
100
AcDbCircle
 10
-544.8346119607904
 20
970.6945060857573
 30
0.0
 40
20.00000025774981
100
AcDbArc
 50
60.00009155273439
 51
101.4488983154297
  0
ARC
  5
300
330
1F
100
AcDbEntity
  8
0-A
  6
Continuous
 62
     4
370
    13
100
AcDbCircle
 10
-468.9387148429697
 20
999.8653517360952
 30
0.0
 40
3.333333376291636
100
AcDbArc
 50
330.0005493164062
 51
60.00054931640625
  0
ARC
  5
301
330
1F
100
AcDbEntity
  8
0-A
  6
Continuous
 62
     4
370
    13
100
AcDbCircle
 10
-457.4624558691519
 20
999.7422916643051
 30
0.0
 40
3.333333376291636
100
AcDbArc
 50
329.9996795654297
 51
48.05006408691406
  0
ARC
  5
302
330
1F
100
AcDbEntity
  8
0-A
  6
Continuous
 62
     4
370
    13
100
AcDbCircle
 10
-483.0330521001488
 20
955.4532027707238
 30
0.0
 40
3.333333376291636
100
AcDbArc
 50
251.9502563476562
 51
330.0005493164062
  0
ARC
  5
303
330
1F
100
AcDbEntity
  8
0-A
  6
Continuous
 62
     4
370
    13
100
AcDbCircle
 10
-488.8775807107905
 20
965.3303406507915
 30
0.0
 40
3.333333376291636
100
AcDbArc
 50
240.0005493164062
 51
329.9996795654297
  0
ARC
  5
304
330
1F
100
AcDbEntity
  8
0-A
  6
Continuous
 62
     4
370
    13
100
AcDbCircle
 10
-135.2933323999798
 20
784.2119786364332
 30
0.0
 40
459.9999917520058
100
AcDbArc
 50
76.66098022460939
 51
84.4819030761719
  0
ARC
  5
305
330
1F
100
AcDbEntity
  8
0-A
  6
Continuous
 62
     4
370
    13
100
AcDbCircle
 10
-135.2933323999798
 20
784.2119786364332
 30
0.0
 40
462.0199667440878
100
AcDbArc
 50
86.49061584472655
 51
93.50938415527342
  0
ARC
  5
306
330
1F
100
AcDbEntity
  8
0-A
  6
Continuous
 62
     4
370
    13
100
AcDbCircle
 10
-135.2933323999798
 20
784.2119786364332
 30
0.0
 40
459.9999917520058
100
AcDbArc
 50
95.51809692382818
 51
103.3390045166016
  0
ARC
  5
307
330
1F
100
AcDbEntity
  8
0-A
  6
Continuous
 62
     4
370
    13
100
AcDbCircle
 10
-135.2933323999798
 20
784.2119786364332
 30
0.0
 40
459.9999917520058
100
AcDbArc
 50
136.6609649658203
 51
144.4819030761719
  0
ARC
  5
308
330
1F
100
AcDbEntity
  8
0-A
  6
Continuous
 62
     4
370
    13
100
AcDbCircle
 10
-135.2933323999798
 20
784.2119786364332
 30
0.0
 40
462.0199667440878
100
AcDbArc
 50
146.4906311035156
 51
153.5093841552734
  0
ARC
  5
309
330
1F
100
AcDbEntity
  8
0-A
  6
Continuous
 62
     4
370
    13
100
AcDbCircle
 10
-135.2933323999798
 20
784.2119786364332
 30
0.0
 40
459.9999917520058
100
AcDbArc
 50
155.5181121826172
 51
163.3390197753907
  0
ARC
  5
30A
330
1F
100
AcDbEntity
  8
0-A
  6
Continuous
 62
     4
370
    13
100
AcDbCircle
 10
-135.2933323999798
 20
784.2119786364332
 30
0.0
 40
400.4366488070102
100
AcDbArc
 50
154.9490814208985
 51
172.6423950195313
  0
ARC
  5
30B
330
1F
100
AcDbEntity
  8
0-A
  6
Continuous
 62
     4
370
    13
100
AcDbCircle
 10
-522.5152100393376
 20
834.2119786364332
 30
0.0
 40
10.00000012887491
100
AcDbArc
 50
172.6422424316407
 51
270.0000000000001
  0
ARC
  5
30C
330
1F
100
AcDbEntity
  8
0-A
  6
Continuous
 62
     4
370
    13
100
AcDbCircle
 10
-135.2933323999798
 20
784.2119786364332
 30
0.0
 40
401.4366356102196
100
AcDbArc
 50
173.7329254150391
 51
180.0
  0
ARC
  5
30D
330
1F
100
AcDbEntity
  8
0-A
  6
Continuous
 62
     4
370
    13
100
AcDbCircle
 10
-522.5152100393376
 20
834.2119786364332
 30
0.0
 40
13.33333350516654
100
AcDbArc
 50
207.6030883789062
 51
270.0
  0
ARC
  5
30E
330
1F
100
AcDbEntity
  8
0-A
  6
Continuous
 62
     4
370
    13
100
AcDbCircle
 10
-135.2933323999798
 20
784.2119786364332
 30
0.0
 40
400.4366488070102
100
AcDbArc
 50
34.94909667968751
 51
52.64241027832033
  0
ARC
  5
30F
330
1F
100
AcDbEntity
  8
0-A
  6
Continuous
 62
     4
370
    13
100
AcDbCircle
 10
101.618750581439
 20
1094.555293142345
 30
0.0
 40
10.00000012887491
100
AcDbArc
 50
52.64233398437501
 51
149.9998931884766
  0
ARC
  5
310
330
1F
100
AcDbEntity
  8
0-A
  6
Continuous
 62
     4
370
    13
100
AcDbCircle
 10
101.618750581439
 20
1094.555293142345
 30
0.0
 40
13.33333350516654
100
AcDbArc
 50
87.60324096679688
 51
149.9998931884766
  0
ARC
  5
311
330
1F
100
AcDbEntity
  8
0-A
  6
Continuous
 62
     4
370
    13
100
AcDbCircle
 10
15.01646225795945
 20
1144.555623062109
 30
0.0
 40
10.00000012887491
100
AcDbArc
 50
330.0003662109375
 51
67.35792541503906
  0
ARC
  5
312
330
1F
100
AcDbEntity
  8
0-A
  6
Continuous
 62
     4
370
    13
100
AcDbCircle
 10
15.01646225795945
 20
1144.555623062109
 30
0.0
 40
13.33333350516654
100
AcDbArc
 50
330.0003204345703
 51
32.39697265625
  0
ARC
  5
313
330
1F
100
AcDbEntity
  8
0-A
  6
Continuous
 62
     4
370
    13
100
AcDbCircle
 10
-135.2933323999798
 20
784.2119786364332
 30
0.0
 40
400.4366488070102
100
AcDbArc
 50
67.35757446289064
 51
85.05091857910158
  0
ARC
  5
314
330
1F
100
AcDbEntity
  8
0-A
  6
Continuous
 62
     4
370
    13
100
AcDbCircle
 10
-135.2933323999798
 20
784.2119786364332
 30
0.0
 40
401.4366356102196
100
AcDbArc
 50
53.73294067382813
 51
66.26710510253906
  0
ARC
  5
315
330
1F
100
AcDbEntity
  8
0-A
  6
Continuous
 62
     4
370
    13
100
AcDbCircle
 10
-135.2933323999798
 20
784.2119786364332
 30
0.0
 40
483.3333195866766
100
AcDbArc
 50
0.0
 51
180.0
  0
ARC
  5
316
330
1F
100
AcDbEntity
  8
0-A
  6
Continuous
 62
     4
370
    13
100
AcDbCircle
 10
-135.2933323999798
 20
784.2119786364332
 30
0.0
 40
350.0
100
AcDbArc
 50
0.0
 51
46.27137756347657
  0
ARC
  5
317
330
1F
100
AcDbEntity
  8
0-A
  6
Continuous
 62
     4
370
    13
100
AcDbCircle
 10
55.9707221819459
 20
1072.157040397413
 30
0.0
 40
1.666666688145818
100
AcDbArc
 50
154.6474761962891
 51
240.0
  0
ARC
  5
318
330
1F
100
AcDbEntity
  8
0-A
  6
Continuous
 62
     4
370
    13
100
AcDbCircle
 10
55.9707221819459
 20
1072.157040397413
 30
0.0
 40
5.000000064437453
100
AcDbArc
 50
171.7942810058594
 51
240.0
  0
ARC
  5
319
330
1F
100
AcDbEntity
  8
0-A
  6
Continuous
 62
     4
370
    13
100
AcDbCircle
 10
18.44300892181083
 20
1093.823861026636
 30
0.0
 40
5.000000064437453
100
AcDbArc
 50
240.0
 51
308.2052154541016
  0
ARC
  5
31A
330
1F
100
AcDbEntity
  8
0-A
  6
Continuous
 62
     4
370
    13
100
AcDbCircle
 10
18.44300892181083
 20
1093.823861026636
 30
0.0
 40
1.666666688145818
100
AcDbArc
 50
240.0
 51
325.3516998291016
  0
ARC
  5
31B
330
1F
100
AcDbEntity
  8
0-A
  6
Continuous
 62
     4
370
    13
100
AcDbCircle
 10
-480.2932334240505
 20
805.8787992656561
 30
0.0
 40
1.666666688145818
100
AcDbArc
 50
274.6493072509766
 51
0.0
  0
ARC
  5
31C
330
1F
100
AcDbEntity
  8
0-A
  6
Continuous
 62
     4
370
    13
100
AcDbCircle
 10
-480.2932334240505
 20
805.8787992656561
 30
0.0
 40
5.000000064437453
100
AcDbArc
 50
291.7949066162109
 51
0.0
  0
LINE
  5
31D
330
1F
100
AcDbEntity
  8
0-A
  6
Continuous
 62
     2
370
    13
100
AcDbLine
 10
-480.2932334240506
 20
-116.4749560131003
 30
0.0
 11
-506.9598231094392
 21
-116.4749560131003
 31
0.0
  0
LINE
  5
31E
330
1F
100
AcDbEntity
  8
0-A
  6
Continuous
 62
     2
370
    13
100
AcDbLine
 10
-506.9598231094392
 20
-116.4749560131003
 30
0.0
 11
-504.7051514455877
 21
-118.7297926368335
 31
0.0
  0
LINE
  5
31F
330
1F
100
AcDbEntity
  8
0-A
  6
Continuous
 62
     2
370
    13
100
AcDbLine
 10
-482.5482350076655
 20
-118.7297926368335
 30
0.0
 11
-480.2932334240506
 21
-116.4749560131003
 31
0.0
  0
LINE
  5
320
330
1F
100
AcDbEntity
  8
0-A
  6
Continuous
 62
     2
370
    13
100
AcDbLine
 10
-518.6269406664496
 20
-61.1355345603975
 30
0.0
 11
-518.6269406664496
 21
-80.39641531419818
 31
0.0
  0
LINE
  5
321
330
1F
100
AcDbEntity
  8
0-A
  6
Continuous
 62
     2
370
    13
100
AcDbLine
 10
-468.626445786804
 20
-61.1355345603975
 30
0.0
 11
-468.626445786804
 21
-80.39641531419818
 31
0.0
  0
LINE
  5
322
330
1F
100
AcDbEntity
  8
0-A
  6
Continuous
 62
     2
370
    13
100
AcDbLine
 10
-518.6269406664496
 20
-80.39641531419818
 30
0.0
 11
-468.626445786804
 21
-80.39641531419818
 31
0.0
  0
LINE
  5
323
330
1F
100
AcDbEntity
  8
0-A
  6
Continuous
 62
     2
370
    13
100
AcDbLine
 10
-506.1175379531892
 20
-61.1355345603975
 30
0.0
 11
-506.1175379531892
 21
-80.39641531419818
 31
0.0
  0
LINE
  5
324
330
1F
100
AcDbEntity
  8
0-A
  6
Continuous
 62
     2
370
    13
100
AcDbLine
 10
-481.1360134599461
 20
-61.1355345603975
 30
0.0
 11
-481.1360134599461
 21
-80.39641531419818
 31
0.0
  0
LINE
  5
325
330
1F
100
AcDbEntity
  8
0-A
  6
Continuous
 62
     2
370
    13
100
AcDbLine
 10
-512.3721568298783
 20
-58.73008956462041
 30
0.0
 11
-474.8812296233748
 21
-58.73008956462041
 31
0.0
  0
LINE
  5
326
330
1F
100
AcDbEntity
  8
0-A
  6
Continuous
 62
     2
370
    13
100
AcDbLine
 10
-504.7051514455877
 20
-80.39641531419818
 30
0.0
 11
-504.7051514455877
 21
-118.7297926368335
 31
0.0
  0
LINE
  5
327
330
1F
100
AcDbEntity
  8
0-A
  6
Continuous
 62
     2
370
    13
100
AcDbLine
 10
-506.9598231094392
 20
-80.39641531419818
 30
0.0
 11
-506.9598231094392
 21
-116.4749560131003
 31
0.0
  0
LINE
  5
328
330
1F
100
AcDbEntity
  8
0-A
  6
Continuous
 62
     2
370
    13
100
AcDbLine
 10
-482.5482350076655
 20
-80.39641531419818
 30
0.0
 11
-482.5482350076655
 21
-118.7297926368335
 31
0.0
  0
LINE
  5
329
330
1F
100
AcDbEntity
  8
0-A
  6
Continuous
 62
     2
370
    13
100
AcDbLine
 10
-480.2932334240506
 20
-80.39641531419818
 30
0.0
 11
-480.2932334240506
 21
-116.4749560131003
 31
0.0
  0
LINE
  5
32A
330
1F
100
AcDbEntity
  8
0-A
  6
Continuous
 62
     2
370
    13
100
AcDbLine
 10
-480.2932334240506
 20
45.68176247296392
 30
0.0
 11
-506.9598231094392
 21
45.68176247296392
 31
0.0
  0
LINE
  5
32B
330
1F
100
AcDbEntity
  8
0-A
  6
Continuous
 62
     2
370
    13
100
AcDbLine
 10
-506.9598231094392
 20
45.68176247296392
 30
0.0
 11
-504.7051514455877
 21
47.93676405657891
 31
0.0
  0
LINE
  5
32C
330
1F
100
AcDbEntity
  8
0-A
  6
Continuous
 62
     2
370
    13
100
AcDbLine
 10
-504.7051514455877
 20
47.93676405657891
 30
0.0
 11
-482.5482350076655
 21
47.93676405657891
 31
0.0
  0
LINE
  5
32D
330
1F
100
AcDbEntity
  8
0-A
  6
Continuous
 62
     2
370
    13
100
AcDbLine
 10
-482.5482350076655
 20
47.93676405657891
 30
0.0
 11
-480.2932334240506
 21
45.68176247296392
 31
0.0
  0
LINE
  5
32E
330
1F
100
AcDbEntity
  8
0-A
  6
Continuous
 62
     2
370
    13
100
AcDbLine
 10
-504.7051514455877
 20
-58.73008956462041
 30
0.0
 11
-504.7051514455877
 21
47.93676405657891
 31
0.0
  0
LINE
  5
32F
330
1F
100
AcDbEntity
  8
0-A
  6
Continuous
 62
     2
370
    13
100
AcDbLine
 10
-506.9598231094392
 20
-58.73008956462041
 30
0.0
 11
-506.9598231094392
 21
45.68176247296392
 31
0.0
  0
LINE
  5
330
330
1F
100
AcDbEntity
  8
0-A
  6
Continuous
 62
     2
370
    13
100
AcDbLine
 10
-482.5482350076655
 20
-58.73008956462041
 30
0.0
 11
-482.5482350076655
 21
47.93676405657891
 31
0.0
  0
LINE
  5
331
330
1F
100
AcDbEntity
  8
0-A
  6
Continuous
 62
     2
370
    13
100
AcDbLine
 10
-480.2932334240506
 20
-58.73008956462041
 30
0.0
 11
-480.2932334240506
 21
45.68176247296392
 31
0.0
  0
LINE
  5
332
330
1F
100
AcDbEntity
  8
0-A
  6
JWW_CENTER1
 62
     2
370
    13
100
AcDbLine
 10
-493.6267757065676
 20
-127.338718945955
 30
0.0
 11
-493.6267757065676
 21
53.375656317981
 31
0.0
  0
LINE
  5
333
330
1F
100
AcDbEntity
  8
0-A
  6
Continuous
 62
     4
370
    13
100
AcDbLine
 10
348.039451067081
 20
-52.06323594342109
 30
0.0
 11
344.7062716963039
 21
-65.39661326605653
 31
0.0
  0
LINE
  5
334
330
1F
100
AcDbEntity
  8
0-A
  6
Continuous
 62
     4
370
    13
100
AcDbLine
 10
278.6408288120136
 20
-52.06323594342109
 30
0.0
 11
348.039451067081
 21
-52.06323594342109
 31
0.0
  0
LINE
  5
335
330
1F
100
AcDbEntity
  8
0-A
  6
Continuous
 62
     4
370
    13
100
AcDbLine
 10
262.7169215062702
 20
-90.69106665499231
 30
0.0
 11
268.8352835206281
 21
-60.10206090119162
 31
0.0
  0
LINE
  5
336
330
1F
100
AcDbEntity
  8
0-A
  6
Continuous
 62
     4
370
    13
100
AcDbLine
 10
218.0405068103244
 20
-85.39667925000896
 30
0.0
 11
214.7069975197838
 21
-98.72972665288086
 31
0.0
  0
LINE
  5
337
330
1F
100
AcDbEntity
  8
0-A
  6
Continuous
 62
     4
370
    13
100
AcDbLine
 10
-475.2934643678853
 20
-80.39641531419818
 30
0.0
 11
-471.9599550773447
 21
-98.72972665288086
 31
0.0
  0
LINE
  5
338
330
1F
100
AcDbEntity
  8
0-A
  6
Continuous
 62
     4
370
    13
100
AcDbLine
 10
-513.6266767306383
 20
-80.39641531419818
 30
0.0
 11
-510.2934973598617
 21
-98.72972665288086
 31
0.0
  0
LINE
  5
339
330
1F
100
AcDbEntity
  8
0-A
  6
Continuous
 62
     4
370
    13
100
AcDbLine
 10
-618.6267757065675
 20
-52.06323594342109
 30
0.0
 11
-615.293431375909
 21
-65.39661326605653
 31
0.0
  0
LINE
  5
33A
330
1F
100
AcDbEntity
  8
0-A
  6
Continuous
 62
     4
370
    13
100
AcDbLine
 10
-536.9706444776825
 20
-72.35792027619162
 30
0.0
 11
-539.4216184008246
 21
-60.10206090119162
 31
0.0
  0
LINE
  5
33B
330
1F
100
AcDbEntity
  8
0-A
  6
JWW_DASHED1
 62
     4
370
    13
100
AcDbLine
 10
-586.2855660887467
 20
-52.06323594342109
 30
0.0
 11
-618.6267757065675
 21
-52.06323594342109
 31
0.0
  0
LINE
  5
33C
330
1F
100
AcDbEntity
  8
0-A
  6
JWW_DASHED1
 62
     4
370
    13
100
AcDbLine
 10
-526.1647824633246
 20
-85.39667925000896
 30
0.0
 11
-474.3845354194054
 21
-85.39667925000896
 31
0.0
  0
LINE
  5
33D
330
1F
100
AcDbEntity
  8
0-A
  6
JWW_DASHED1
 62
     4
370
    13
100
AcDbLine
 10
-535.9704927145913
 20
-77.35752437247527
 30
0.0
 11
-536.9706444776825
 21
-72.35792027619162
 31
0.0
  0
LINE
  5
33E
330
1F
100
AcDbEntity
  8
0-A
  6
Continuous
 62
     4
370
    13
100
AcDbLine
 10
-601.5847703222769
 20
-1.636814649080165
 30
0.0
 11
-596.2034490596081
 21
-43.34312667399541
 31
0.0
  0
LINE
  5
33F
330
1F
100
AcDbEntity
  8
0-A
  6
Continuous
 62
     4
370
    13
100
AcDbLine
 10
341.7379835839729
 20
-1.650011439620442
 30
0.0
 11
348.039451067081
 21
-52.06323594342109
 31
0.0
  0
LINE
  5
340
330
1F
100
AcDbEntity
  8
0-A
  6
Continuous
 62
     4
370
    13
100
AcDbLine
 10
330.9981055223175
 20
-1.636814649080165
 30
0.0
 11
327.3369859066081
 21
-30.00941943159681
 31
0.0
  0
LINE
  5
341
330
1F
100
AcDbEntity
  8
0-A
  6
Continuous
 62
     4
370
    13
100
AcDbLine
 10
-527.1646043066519
 20
-80.39641531419818
 30
0.0
 11
-518.6269406664496
 21
-80.39641531419818
 31
0.0
  0
LINE
  5
342
330
1F
100
AcDbEntity
  8
0-A
  6
Continuous
 62
     4
370
    13
100
AcDbLine
 10
-518.6269406664496
 20
-98.72972665288086
 30
0.0
 11
-537.0955191081725
 21
-98.72972665288086
 31
0.0
  0
LINE
  5
343
330
1F
100
AcDbEntity
  8
0-A
  6
Continuous
 62
     4
370
    13
100
AcDbLine
 10
-609.0173677145913
 20
1.270108387237556
 30
0.0
 11
-506.9598231094392
 21
1.270108387237556
 31
0.0
  0
LINE
  5
344
330
1F
100
AcDbEntity
  8
0-A
  6
Continuous
 62
     4
370
    13
100
AcDbLine
 10
-506.9598231094392
 20
-52.06323594342109
 30
0.0
 11
-586.2855660887467
 21
-52.06323594342109
 31
0.0
  0
LINE
  5
345
330
1F
100
AcDbEntity
  8
0-A
  6
Continuous
 62
     4
370
    13
100
AcDbLine
 10
-612.3249783036961
 20
-1.650011439620442
 30
0.0
 11
-618.6267757065675
 21
-52.06323594342109
 31
0.0
  0
LINE
  5
346
330
1F
100
AcDbEntity
  8
0-A
  6
Continuous
 62
     4
370
    13
100
AcDbLine
 10
135.1626826971487
 20
1.270108387237556
 30
0.0
 11
338.43053795475
 21
1.270108387237556
 31
0.0
  0
LINE
  5
347
330
1F
100
AcDbEntity
  8
0-A
  6
Continuous
 62
     4
370
    13
100
AcDbLine
 10
241.9804746101552
 20
-85.39667925000896
 30
0.0
 11
143.9952946059324
 21
-85.39667925000896
 31
0.0
  0
LINE
  5
348
330
1F
100
AcDbEntity
  8
0-A
  6
Continuous
 62
     4
370
    13
100
AcDbLine
 10
152.7163936346487
 20
-98.72972665288086
 30
0.0
 11
145.353904192081
 21
-98.72972665288086
 31
0.0
  0
LINE
  5
349
330
1F
100
AcDbEntity
  8
0-A
  6
Continuous
 62
     4
370
    13
100
AcDbLine
 10
266.508689348331
 20
-98.72972665288086
 30
0.0
 11
183.3626404674188
 21
-98.72972665288086
 31
0.0
  0
LINE
  5
34A
330
1F
100
AcDbEntity
  8
0-A
  6
Continuous
 62
     4
370
    13
100
AcDbLine
 10
-480.2932334240506
 20
1.270108387237556
 30
0.0
 11
-405.7496774168717
 21
1.270108387237556
 31
0.0
  0
LINE
  5
34B
330
1F
100
AcDbEntity
  8
0-A
  6
Continuous
 62
     4
370
    13
100
AcDbLine
 10
-411.1849405608748
 20
-52.06323594342109
 30
0.0
 11
-480.2932334240506
 21
-52.06323594342109
 31
0.0
  0
LINE
  5
34C
330
1F
100
AcDbEntity
  8
0-A
  6
Continuous
 62
     4
370
    13
100
AcDbLine
 10
-414.5821243657738
 20
-85.39667925000896
 30
0.0
 11
-474.3845354194054
 21
-85.39667925000896
 31
0.0
  0
LINE
  5
34D
330
1F
100
AcDbEntity
  8
0-A
  6
Continuous
 62
     4
370
    13
100
AcDbLine
 10
-415.940898911804
 20
-98.72972665288086
 30
0.0
 11
-465.2937612956725
 21
-98.72972665288086
 31
0.0
  0
ARC
  5
34E
330
1F
100
AcDbEntity
  8
0-A
  6
Continuous
 62
     2
370
    13
100
AcDbCircle
 10
-512.3721568298783
 20
-68.06368463429959
 30
0.0
 40
9.333912101951805
100
AcDbArc
 50
47.92556762695312
 51
132.0746307373047
  0
ARC
  5
34F
330
1F
100
AcDbEntity
  8
0-A
  6
Continuous
 62
     2
370
    13
100
AcDbCircle
 10
-493.6267757065676
 20
-92.36128545777945
 30
0.0
 40
33.63136343053869
100
AcDbArc
 50
68.19786071777345
 51
111.8021392822266
  0
ARC
  5
350
330
1F
100
AcDbEntity
  8
0-A
  6
Continuous
 62
     2
370
    13
100
AcDbCircle
 10
-474.8812296233748
 20
-68.06368463429959
 30
0.0
 40
9.33396558503847
100
AcDbArc
 50
47.92572021484376
 51
132.0742797851562
  0
ARC
  5
351
330
1F
100
AcDbEntity
  8
0-A
  6
Continuous
 62
     4
370
    13
100
AcDbCircle
 10
289.5710705772161
 20
-75.3963163382694
 30
0.0
 40
10.00000012887491
100
AcDbArc
 50
90.0
 51
168.6901550292969
  0
ARC
  5
352
330
1F
100
AcDbEntity
  8
0-A
  6
Continuous
 62
     4
370
    13
100
AcDbCircle
 10
266.508689348331
 20
-88.72985862078605
 30
0.0
 40
10.00000012887491
100
AcDbArc
 50
270.0
 51
348.6901550292969
  0
ARC
  5
353
330
1F
100
AcDbEntity
  8
0-A
  6
Continuous
 62
     4
370
    13
100
AcDbCircle
 10
-560.1579003370575
 20
-75.3963163382694
 30
0.0
 40
10.00000012887491
100
AcDbArc
 50
11.30984497070312
 51
90.0
  0
ARC
  5
354
330
1F
100
AcDbEntity
  8
0-A
  6
Continuous
 62
     4
370
    13
100
AcDbCircle
 10
-537.0955191081725
 20
-88.72985862078605
 30
0.0
 40
10.00000012887491
100
AcDbArc
 50
191.3098449707032
 51
270.0000000000001
  0
ARC
  5
355
330
1F
100
AcDbEntity
  8
0-A
  6
Continuous
 62
     4
370
    13
100
AcDbCircle
 10
278.6408288120136
 20
-62.06343389527945
 30
0.0
 40
10.00000012887491
100
AcDbArc
 50
90.0
 51
168.6902008056641
  0
ARC
  5
356
330
1F
100
AcDbEntity
  8
0-A
  6
Continuous
 62
     4
370
    13
100
AcDbCircle
 10
317.4195978153917
 20
-28.72999058869162
 30
0.0
 40
10.00000012887491
100
AcDbArc
 50
270.0
 51
352.6479187011719
  0
ARC
  5
357
330
1F
100
AcDbEntity
  8
0-A
  6
Continuous
 62
     4
370
    13
100
AcDbCircle
 10
252.9113762148851
 20
-88.72985862078605
 30
0.0
 40
10.00000012887491
100
AcDbArc
 50
270.0
 51
348.6895446777344
  0
ARC
  5
358
330
1F
100
AcDbEntity
  8
0-A
  6
Continuous
 62
     4
370
    13
100
AcDbCircle
 10
241.9804746101552
 20
-75.3963163382694
 30
0.0
 40
10.00000012887491
100
AcDbArc
 50
270.0
 51
348.6895446777344
  0
ARC
  5
359
330
1F
100
AcDbEntity
  8
0-A
  6
Continuous
 62
     4
370
    13
100
AcDbCircle
 10
-586.2855660887467
 20
-42.06353287120827
 30
0.0
 40
10.00000012887491
100
AcDbArc
 50
187.3520355224609
 51
270.0
  0
ARC
  5
35A
330
1F
100
AcDbEntity
  8
0-A
  6
Continuous
 62
     4
370
    13
100
AcDbCircle
 10
-549.2273286520913
 20
-62.06343389527945
 30
0.0
 40
10.00000012887491
100
AcDbArc
 50
11.30973815917969
 51
90.00000000000001
  0
ARC
  5
35B
330
1F
100
AcDbEntity
  8
0-A
  6
Continuous
 62
     4
370
    13
100
AcDbCircle
 10
-527.1646043066519
 20
-70.39654728210377
 30
0.0
 40
10.00000012887491
100
AcDbArc
 50
191.3097381591797
 51
270.0
  0
ARC
  5
35C
330
1F
100
AcDbEntity
  8
0-A
  6
JWW_DASHED1
 62
     4
370
    13
100
AcDbCircle
 10
-526.1647824633246
 20
-75.3963163382694
 30
0.0
 40
10.00000012887491
100
AcDbArc
 50
191.3097381591797
 51
270.0
  0
ARC
  5
35D
330
1F
100
AcDbEntity
  8
0-A
  6
Continuous
 62
     4
370
    13
100
AcDbCircle
 10
-604.8907313125642
 20
-2.063400903303076
 30
0.0
 40
3.333333376291636
100
AcDbArc
 50
7.3507080078125
 51
90.00000000000001
  0
ARC
  5
35E
330
1F
100
AcDbEntity
  8
0-A
  6
Continuous
 62
     4
370
    13
100
AcDbCircle
 10
-609.0173677145913
 20
-2.063400903303076
 30
0.0
 40
3.333333376291636
100
AcDbArc
 50
90.0
 51
172.875732421875
  0
ARC
  5
35F
330
1F
100
AcDbEntity
  8
0-A
  6
Continuous
 62
     4
370
    13
100
AcDbCircle
 10
338.43053795475
 20
-2.063400903303076
 30
0.0
 40
3.333333376291636
100
AcDbArc
 50
7.124267578125002
 51
90.00000000000001
  0
ARC
  5
360
330
1F
100
AcDbEntity
  8
0-A
  6
Continuous
 62
     4
370
    13
100
AcDbCircle
 10
334.30456139225
 20
-2.063400903303076
 30
0.0
 40
3.333333376291636
100
AcDbArc
 50
90.0
 51
172.6491546630859
  0
LINE
  5
361
330
1F
100
AcDbEntity
  8
0-A
  6
Continuous
 62
     2
370
    13
100
AcDbLine
 10
-504.7051514455877
 20
-118.7297926368335
 30
0.0
 11
-482.5482350076655
 21
-118.7297926368335
 31
0.0
  0
LINE
  5
362
330
1F
100
AcDbEntity
  8
0-A
  6
Continuous
 62
     4
370
    13
100
AcDbLine
 10
267.7104828615992
 20
-38.72985862078604
 30
0.0
 11
317.4195978153917
 21
-38.72985862078604
 31
0.0
  0
ARC
  5
363
330
1F
100
AcDbEntity
  8
0-A
  6
Continuous
 62
     4
370
    13
100
AcDbCircle
 10
267.7104828615992
 20
-48.72985862078604
 30
0.0
 40
10.0
100
AcDbArc
 50
90.0
 51
168.689770429754
  0
LINE
  5
364
330
1F
100
AcDbEntity
  8
0-A
  6
Continuous
 62
     4
370
    13
100
AcDbLine
 10
254.113074592399
 20
-52.06323594342109
 30
0.0
 11
140.2794599244022
 21
-52.06323594342109
 31
0.0
  0
LINE
  5
365
330
1F
100
AcDbEntity
  8
0-A
  6
Continuous
 62
     4
370
    13
100
AcDbLine
 10
257.3816734549167
 20
-49.3836400092468
 30
0.0
 11
257.9046862740461
 21
-46.76864642330887
 31
0.0
  0
ARC
  5
366
330
1F
100
AcDbEntity
  8
0-A
  6
Continuous
 62
     4
370
    13
100
AcDbCircle
 10
254.113074592399
 20
-48.72990261008776
 30
0.0
 40
3.333333333333333
100
AcDbArc
 50
270.0
 51
348.689770429754
  0
LINE
  5
367
330
1F
100
AcDbEntity
  8
0-A
  6
Continuous
 62
     4
370
    13
100
AcDbLine
 10
251.7862635966005
 20
-77.35756719698333
 30
0.0
 11
257.9046862740461
 21
-46.76864642330887
 31
0.0
  0
LINE
  5
368
330
1F
100
AcDbEntity
  8
0-A
  6
Continuous
 62
     4
370
    13
100
AcDbLine
 10
-560.0808221619699
 20
-65.39661326605653
 30
0.0
 11
-615.293431375909
 21
-65.39661326605653
 31
0.0
  0
LINE
  5
369
330
1F
100
AcDbEntity
  8
0-A
  6
Continuous
 62
     4
370
    13
100
AcDbLine
 10
-546.9010643995575
 20
-90.69106665499231
 30
0.0
 11
-550.3687305166828
 21
-73.35373052480604
 31
0.0
  0
LINE
  5
36A
330
1F
100
AcDbEntity
  8
0-A
  6
Continuous
 62
     4
370
    13
100
AcDbLine
 10
276.3142346397161
 20
-90.69106665499231
 30
0.0
 11
279.7819007568389
 21
-73.3537305248171
 31
0.0
  0
LINE
  5
36B
330
1F
100
AcDbEntity
  8
0-A
  6
Continuous
 62
     4
370
    13
100
AcDbLine
 10
289.4939924021284
 20
-65.39661326605653
 30
0.0
 11
344.7062716963039
 21
-65.39661326605653
 31
0.0
  0
LINE
  5
36C
330
1F
100
AcDbEntity
  8
0-4
  6
Continuous
 62
     7
370
    13
100
AcDbLine
 10
-560.2933736399505
 20
-718.7571729939491
 30
0.0
 11
289.7065851200793
 21
-718.7571729939491
 31
0.0
  0
LINE
  5
36D
330
1F
100
AcDbEntity
  8
0-4
  6
Continuous
 62
     7
370
    13
100
AcDbLine
 10
-560.2933736399505
 20
-718.7571729939491
 30
0.0
 11
-535.5072521056052
 21
-715.4940181884477
 31
0.0
  0
LINE
  5
36E
330
1F
100
AcDbEntity
  8
0-4
  6
Continuous
 62
     7
370
    13
100
AcDbLine
 10
-560.2933736399505
 20
-718.7571729939491
 30
0.0
 11
-535.5072521056052
 21
-722.0203277994505
 31
0.0
  0
LINE
  5
36F
330
1F
100
AcDbEntity
  8
0-4
  6
Continuous
 62
     7
370
    13
100
AcDbLine
 10
289.7065851200793
 20
-718.7571729939491
 30
0.0
 11
264.9204635857341
 21
-715.4940181884477
 31
0.0
  0
LINE
  5
370
330
1F
100
AcDbEntity
  8
0-4
  6
Continuous
 62
     7
370
    13
100
AcDbLine
 10
289.7065851200793
 20
-718.7571729939491
 30
0.0
 11
264.9204635857341
 21
-722.0203277994505
 31
0.0
  0
TEXT
  5
371
330
1F
100
AcDbEntity
  8
0-4
  6
Continuous
 62
     2
370
   211
100
AcDbText
 10
-190.2933942599356
 20
-703.1171729939491
 30
0.0
 40
30.48
  1
φ255
 41
1.1
  7
ＭＳ ゴシック
100
AcDbText
  0
LINE
  5
372
330
1F
100
AcDbEntity
  8
0-4
  6
Continuous
 62
     7
370
    13
100
AcDbLine
 10
-560.2933736399505
 20
-452.7009696723633
 30
0.0
 11
-560.2933736399505
 21
-423.4773275114903
 31
0.0
  0
LINE
  5
373
330
1F
100
AcDbEntity
  8
0-4
  6
Continuous
 62
     7
370
    13
100
AcDbLine
 10
-560.2933736399505
 20
-329.3122583264551
 30
0.0
 11
-560.2933736399505
 21
-161.0737136358506
 31
0.0
  0
LINE
  5
374
330
1F
100
AcDbEntity
  8
0-4
  6
Continuous
 62
     7
370
    13
100
AcDbLine
 10
289.7065851200793
 20
-721.7571731131584
 30
0.0
 11
289.7065851200793
 21
-174.0869554846839
 31
0.0
  0
LINE
  5
375
330
1F
100
AcDbEntity
  8
0-4
  6
Continuous
 62
     7
370
    13
100
AcDbLine
 10
-551.9602452511821
 20
353.3232277678572
 30
0.0
 11
281.3734154913403
 21
353.3232277678572
 31
0.0
  0
LINE
  5
376
330
1F
100
AcDbEntity
  8
0-4
  6
Continuous
 62
     7
370
    13
100
AcDbLine
 10
-551.9602452511821
 20
353.3232277678572
 30
0.0
 11
-527.1741237168368
 21
356.5863825733585
 31
0.0
  0
LINE
  5
377
330
1F
100
AcDbEntity
  8
0-4
  6
Continuous
 62
     7
370
    13
100
AcDbLine
 10
-551.9602452511821
 20
353.3232277678572
 30
0.0
 11
-527.1741237168368
 21
350.0600729623559
 31
0.0
  0
LINE
  5
378
330
1F
100
AcDbEntity
  8
0-4
  6
Continuous
 62
     7
370
    13
100
AcDbLine
 10
281.3734154913403
 20
353.3232277678572
 30
0.0
 11
256.5872939569951
 21
356.5863825733585
 31
0.0
  0
LINE
  5
379
330
1F
100
AcDbEntity
  8
0-4
  6
Continuous
 62
     7
370
    13
100
AcDbLine
 10
281.3734154913403
 20
353.3232277678572
 30
0.0
 11
256.5872939569951
 21
350.0600729623559
 31
0.0
  0
LINE
  5
37A
330
1F
100
AcDbEntity
  8
0-4
  6
Continuous
 62
     7
370
    13
100
AcDbLine
 10
-551.9602452511821
 20
356.3232278870665
 30
0.0
 11
-551.9602452511821
 21
-54.76114357399084
 31
0.0
  0
LINE
  5
37B
330
1F
100
AcDbEntity
  8
0-4
  6
Continuous
 62
     7
370
    13
100
AcDbLine
 10
281.3734154913403
 20
356.3232278870665
 30
0.0
 11
281.3734154913403
 21
-54.76114357399084
 31
0.0
  0
LINE
  5
37C
330
1F
100
AcDbEntity
  8
0-4
  6
Continuous
 62
     7
370
    13
100
AcDbLine
 10
-618.6267757065675
 20
438.7273308543498
 30
0.0
 11
348.039451067081
 21
438.7273308543498
 31
0.0
  0
LINE
  5
37D
330
1F
100
AcDbEntity
  8
0-4
  6
Continuous
 62
     7
370
    13
100
AcDbLine
 10
-618.6267757065675
 20
438.7273308543498
 30
0.0
 11
-593.8406541722223
 21
441.9904856598511
 31
0.0
  0
LINE
  5
37E
330
1F
100
AcDbEntity
  8
0-4
  6
Continuous
 62
     7
370
    13
100
AcDbLine
 10
-618.6267757065675
 20
438.7273308543498
 30
0.0
 11
-593.8406541722223
 21
435.4641760488485
 31
0.0
  0
LINE
  5
37F
330
1F
100
AcDbEntity
  8
0-4
  6
Continuous
 62
     7
370
    13
100
AcDbLine
 10
348.039451067081
 20
438.7273308543498
 30
0.0
 11
323.2533295327357
 21
441.9904856598511
 31
0.0
  0
LINE
  5
380
330
1F
100
AcDbEntity
  8
0-4
  6
Continuous
 62
     7
370
    13
100
AcDbLine
 10
348.039451067081
 20
438.7273308543498
 30
0.0
 11
323.2533295327357
 21
435.4641760488485
 31
0.0
  0
TEXT
  5
381
330
1F
100
AcDbEntity
  8
0-4
  6
Continuous
 62
     2
370
   211
100
AcDbText
 10
-190.2934148799208
 20
368.9632277678572
 30
0.0
 40
30.48
  1
φ250
 41
1.1
  7
ＭＳ ゴシック
100
AcDbText
  0
TEXT
  5
382
330
1F
100
AcDbEntity
  8
0-4
  6
Continuous
 62
     2
370
   211
100
AcDbText
 10
-190.2936623197433
 20
454.3673308543498
 30
0.0
 40
30.48
  1
φ290
 41
1.1
  7
ＭＳ ゴシック
100
AcDbText
  0
LINE
  5
383
330
1F
100
AcDbEntity
  8
0-4
  6
Continuous
 62
     7
370
    13
100
AcDbLine
 10
348.039451067081
 20
243.2805215775812
 30
0.0
 11
348.039451067081
 21
-25.89488348007471
 31
0.0
  0
LINE
  5
384
330
1F
100
AcDbEntity
  8
0-4
  6
Continuous
 62
     7
370
    13
100
AcDbLine
 10
348.039451067081
 20
441.7273309735591
 30
0.0
 11
348.039451067081
 21
419.3035793348323
 31
0.0
  0
LINE
  5
385
330
1F
100
AcDbEntity
  8
0-4
  6
Continuous
 62
     7
370
    13
100
AcDbLine
 10
348.039451067081
 20
355.1964163244754
 30
0.0
 11
348.039451067081
 21
316.0801812673085
 31
0.0
  0
LINE
  5
386
330
1F
100
AcDbEntity
  8
0-4
  6
Continuous
 62
     7
370
    13
100
AcDbLine
 10
-618.6267757065675
 20
441.7273309735591
 30
0.0
 11
-618.6267757065675
 21
400.7518078983236
 31
0.0
  0
LINE
  5
387
330
1F
100
AcDbEntity
  8
0-4
  6
Continuous
 62
     7
370
    13
100
AcDbLine
 10
-618.6267757065675
 20
317.0719426334111
 30
0.0
 11
-618.6267757065675
 21
-25.89488348007471
 31
0.0
  0
LINE
  5
388
330
1F
100
AcDbEntity
  8
0-4
  6
Continuous
 62
     7
370
    13
100
AcDbLine
 10
451.5319761173211
 20
-98.72972665288087
 30
0.0
 11
451.5319761173211
 21
1.270108387237556
 31
0.0
  0
LINE
  5
389
330
1F
100
AcDbEntity
  8
0-4
  6
Continuous
 62
     7
370
    13
100
AcDbLine
 10
451.5319761173211
 20
-98.72972665288087
 30
0.0
 11
448.2688213118198
 21
-73.94360511853561
 31
0.0
  0
LINE
  5
38A
330
1F
100
AcDbEntity
  8
0-4
  6
Continuous
 62
     7
370
    13
100
AcDbLine
 10
451.5319761173211
 20
-98.72972665288087
 30
0.0
 11
454.7951309228224
 21
-73.94360511853561
 31
0.0
  0
LINE
  5
38B
330
1F
100
AcDbEntity
  8
0-4
  6
Continuous
 62
     7
370
    13
100
AcDbLine
 10
451.5319761173211
 20
1.270108387237556
 30
0.0
 11
448.2688213118198
 21
-23.5160131471077
 31
0.0
  0
LINE
  5
38C
330
1F
100
AcDbEntity
  8
0-4
  6
Continuous
 62
     7
370
    13
100
AcDbLine
 10
451.5319761173211
 20
1.270108387237556
 30
0.0
 11
454.7951309228224
 21
-23.5160131471077
 31
0.0
  0
LINE
  5
38D
330
1F
100
AcDbEntity
  8
0-4
  6
Continuous
 62
     7
370
    13
100
AcDbLine
 10
454.5319762365304
 20
1.270108387237556
 30
0.0
 11
355.9110678971082
 21
1.270108387237562
 31
0.0
  0
TEXT
  5
38E
330
1F
100
AcDbEntity
  8
0-4
  6
Continuous
 62
     2
370
   211
100
AcDbText
 10
435.8919761173211
 20
-69.97980913282166
 30
0.0
 40
30.48
  1
30
 50
90.0
 41
1.0625
  7
ＭＳ ゴシック
100
AcDbText
  0
LINE
  5
38F
330
1F
100
AcDbEntity
  8
0-4
  6
Continuous
 62
     7
370
    13
100
AcDbLine
 10
454.5319762365304
 20
-98.72972665288087
 30
0.0
 11
277.5746213190332
 21
-98.72972665288087
 31
0.0
  0
LINE
  5
390
330
1F
100
AcDbEntity
  8
0-5
  6
Continuous
 62
     7
370
    13
100
AcDbLine
 10
180.0306158158142
 20
-96.52738851151668
 30
0.0
 11
183.2938521967262
 21
-71.74121775824389
 31
0.0
  0
LINE
  5
391
330
1F
100
AcDbEntity
  8
0-5
  6
Continuous
 62
     7
370
    13
100
AcDbLine
 10
180.0306158158142
 20
-96.52738851151668
 30
0.0
 11
189.5976291181791
 21
-73.43036570746264
 31
0.0
  0
LINE
  5
392
330
1F
100
AcDbEntity
  8
0-5
  6
Continuous
 62
     7
370
    13
100
AcDbLine
 10
121.6946981109999
 20
101.2704383070009
 30
0.0
 11
124.9579344919121
 21
126.0566090602738
 31
0.0
  0
LINE
  5
393
330
1F
100
AcDbEntity
  8
0-5
  6
Continuous
 62
     7
370
    13
100
AcDbLine
 10
121.6946981109999
 20
101.2704383070009
 30
0.0
 11
131.2617114133647
 21
124.3674611110551
 31
0.0
  0
LINE
  5
394
330
1F
100
AcDbEntity
  8
0-5
  6
Continuous
 62
     7
370
    13
100
AcDbLine
 10
-420.6545450530626
 20
91.96967025379152
 30
0.0
 11
-435.8735787840592
 21
111.8034566769335
 31
0.0
  0
LINE
  5
395
330
1F
100
AcDbEntity
  8
0-5
  6
Continuous
 62
     7
370
    13
100
AcDbLine
 10
-420.6545450530626
 20
91.96967025379152
 30
0.0
 11
-430.2216820753387
 21
115.0666930578457
 31
0.0
  0
LINE
  5
396
330
1F
100
AcDbEntity
  8
0-5
  6
Continuous
 62
     7
370
    13
100
AcDbLine
 10
-373.0384627842705
 20
-56.58429142272865
 30
0.0
 11
-388.2574965152671
 21
-36.75050499958687
 31
0.0
  0
LINE
  5
397
330
1F
100
AcDbEntity
  8
0-5
  6
Continuous
 62
     7
370
    13
100
AcDbLine
 10
-373.0384627842705
 20
-56.58429142272865
 30
0.0
 11
-382.6055998065465
 21
-33.48726861867462
 31
0.0
  0
LINE
  5
398
330
1F
100
AcDbEntity
  8
0-5
  6
Continuous
 62
     7
370
    13
100
AcDbLine
 10
-483.4600919940465
 20
-284.4390046564703
 30
0.0
 11
-493.0272290163228
 21
-307.5359656005686
 31
0.0
  0
LINE
  5
399
330
1F
100
AcDbEntity
  8
0-5
  6
Continuous
 62
     7
370
    13
100
AcDbLine
 10
-483.4600919940465
 20
-284.4390046564703
 30
0.0
 11
-498.6791257250431
 21
-304.2728529395679
 31
0.0
  0
LINE
  5
39A
330
1F
100
AcDbEntity
  8
0-5
  6
Continuous
 62
     7
370
    13
100
AcDbLine
 10
-556.9601117892324
 20
-151.5843574066814
 30
0.0
 11
-566.5272488115085
 21
-174.6813802107354
 31
0.0
  0
LINE
  5
39B
330
1F
100
AcDbEntity
  8
0-5
  6
Continuous
 62
     7
370
    13
100
AcDbLine
 10
-556.9601117892324
 20
-151.5843574066814
 30
0.0
 11
-572.179145520229
 21
-171.4181438298233
 31
0.0
  0
LINE
  5
39C
330
1F
100
AcDbEntity
  8
0-5
  6
Continuous
 62
     7
370
    13
100
AcDbLine
 10
-410.2933736399504
 20
-391.4389122789365
 30
0.0
 11
-419.8605106622264
 21
-414.5358732230349
 31
0.0
  0
LINE
  5
39D
330
1F
100
AcDbEntity
  8
0-5
  6
Continuous
 62
     7
370
    13
100
AcDbLine
 10
-410.2933736399504
 20
-391.4389122789365
 30
0.0
 11
-425.512407370947
 21
-411.272760562034
 31
0.0
  0
LINE
  5
39E
330
1F
100
AcDbEntity
  8
0-5
  6
Continuous
 62
     7
370
    13
100
AcDbLine
 10
121.6946981109999
 20
101.2704383070009
 30
0.0
 11
236.912824562647
 21
531.2704960429597
 31
0.0
  0
LINE
  5
39F
330
1F
100
AcDbEntity
  8
0-5
  6
Continuous
 62
     7
370
    13
100
AcDbLine
 10
-410.2933736399504
 20
-391.4389122789365
 30
0.0
 11
-487.0810026385777
 21
-524.4390541444347
 31
0.0
  0
LINE
  5
3A0
330
1F
100
AcDbEntity
  8
0-5
  6
Continuous
 62
     7
370
    13
100
AcDbLine
 10
-483.4600919940465
 20
-284.4390046564703
 30
0.0
 11
-552.7421288526824
 21
-404.4390294004525
 31
0.0
  0
LINE
  5
3A1
330
1F
100
AcDbEntity
  8
0-5
  6
Continuous
 62
     7
370
    13
100
AcDbLine
 10
-556.9601117892324
 20
-151.5843574066814
 30
0.0
 11
-633.6637349680755
 21
-284.4390046564703
 31
0.0
  0
LINE
  5
3A2
330
1F
100
AcDbEntity
  8
0-5
  6
Continuous
 62
     7
370
    13
100
AcDbLine
 10
236.912824562647
 20
531.2704960429597
 30
0.0
 11
657.2230151243023
 21
531.2704960429597
 31
0.0
  0
LINE
  5
3A3
330
1F
100
AcDbEntity
  8
0-5
  6
Continuous
 62
     7
370
    13
100
AcDbLine
 10
-633.6637349680755
 20
-284.4390046564703
 30
0.0
 11
-925.4337627473194
 21
-284.4390046564703
 31
0.0
  0
LINE
  5
3A4
330
1F
100
AcDbEntity
  8
0-5
  6
Continuous
 62
     7
370
    13
100
AcDbLine
 10
-552.7421288526824
 20
-404.4390294004525
 30
0.0
 11
-886.2705959794773
 21
-404.4390294004525
 31
0.0
  0
TEXT
  5
3A5
330
1F
100
AcDbEntity
  8
0-5
  6
Continuous
 62
     7
370
    13
100
AcDbText
 10
-829.7016171801214
 20
-437.5678649816392
 30
0.0
 40
22.86
  1
りん酸塩被膜
 41
1.138888888888889
  7
ＭＳ ゴシック
100
AcDbText
  0
TEXT
  5
3A6
330
1F
100
AcDbEntity
  8
0-5
  6
Continuous
 62
     7
370
    13
100
AcDbText
 10
395.6375939487323
 20
494.8716194857384
 30
0.0
 40
22.86
  1
酸洗・
 41
1.111111111111111
  7
ＭＳ ゴシック
100
AcDbText
  0
TEXT
  5
3A7
330
1F
100
AcDbEntity
  8
0-5
  6
Continuous
 62
     7
370
    13
100
AcDbText
 10
-916.7307886856111
 20
-263.509662186559
 30
0.0
 40
22.86
  1
本体：ＳＣＳ１３
 41
1.145833333333333
  7
ＭＳ ゴシック
100
AcDbText
  0
TEXT
  5
3A8
330
1F
100
AcDbEntity
  8
0-5
  6
Continuous
 62
     7
370
    13
100
AcDbText
 10
-834.0531433889474
 20
-322.2543504783664
 30
0.0
 40
22.86
  1
酸洗・
 41
1.111111111111111
  7
ＭＳ ゴシック
100
AcDbText
  0
TEXT
  5
3A9
330
1F
100
AcDbEntity
  8
0-5
  6
Continuous
 62
     7
370
    13
100
AcDbText
 10
242.2230728602608
 20
546.4876902073389
 30
0.0
 40
22.86
  1
ストレーナー：ＳＣＳ１３
 41
1.152777777777778
  7
ＭＳ ゴシック
100
AcDbText
  0
TEXT
  5
3AA
330
1F
100
AcDbEntity
  8
0-5
  6
Continuous
 62
     7
370
    13
100
AcDbText
 10
-868.8647963199546
 20
-385.350391771124
 30
0.0
 40
22.86
  1
アンカー：ＳＷＲＭ
 41
1.148148148148148
  7
ＭＳ ゴシック
100
AcDbText
  0
LINE
  5
3AB
330
1F
100
AcDbEntity
  8
0-5
  6
Continuous
 62
     7
370
    13
100
AcDbLine
 10
201.3732902773851
 20
-112.0627740557524
 30
0.0
 11
300.3699016071155
 21
257.3976092039505
 31
0.0
  0
LINE
  5
3AC
330
1F
100
AcDbEntity
  8
0-5
  6
Continuous
 62
     7
370
    13
100
AcDbLine
 10
201.3732902773851
 20
-112.0627740557524
 30
0.0
 11
204.6364450828864
 21
-87.2766525214071
 31
0.0
  0
LINE
  5
3AD
330
1F
100
AcDbEntity
  8
0-5
  6
Continuous
 62
     7
370
    13
100
AcDbLine
 10
201.3732902773851
 20
-112.0627740557524
 30
0.0
 11
210.9403760865123
 21
-88.96578574297017
 31
0.0
  0
LINE
  5
3AE
330
1F
100
AcDbEntity
  8
0-5
  6
Continuous
 62
     7
370
    13
100
AcDbLine
 10
300.3699016071155
 20
257.3976092039505
 30
0.0
 11
685.1319117870092
 21
257.3976092039505
 31
0.0
  0
TEXT
  5
3AF
330
1F
100
AcDbEntity
  8
0-5
  6
Continuous
 62
     7
370
    13
100
AcDbText
 10
399.8000017534707
 20
342.310246252238
 30
0.0
 40
22.86
  1
Ｍ６×１２
 41
1.133333333333333
  7
ＭＳ ゴシック
100
AcDbText
  0
LINE
  5
3B0
330
1F
100
AcDbEntity
  8
0-5
  6
Continuous
 62
     7
370
    13
100
AcDbLine
 10
306.3344486486881
 20
374.8452262591005
 30
0.0
 11
695.2069907737407
 21
374.8452262591005
 31
0.0
  0
LINE
  5
3B1
330
1F
100
AcDbEntity
  8
0-5
  6
Continuous
 62
     7
370
    13
100
AcDbLine
 10
180.0306158158142
 20
-96.52738851151668
 30
0.0
 11
306.3344486486881
 21
374.8452262591005
 31
0.0
  0
LINE
  5
3B2
330
1F
100
AcDbEntity
  8
0-5
  6
Continuous
 62
     7
370
    13
100
AcDbLine
 10
-506.9598231094392
 20
-58.73008956462041
 30
0.0
 11
-522.1788568404359
 21
-38.89630314147862
 31
0.0
  0
LINE
  5
3B3
330
1F
100
AcDbEntity
  8
0-5
  6
Continuous
 62
     7
370
    13
100
AcDbLine
 10
-506.9598231094392
 20
-58.73008956462041
 30
0.0
 11
-516.5269601317152
 21
-35.63306676056637
 31
0.0
  0
LINE
  5
3B4
330
1F
100
AcDbEntity
  8
0-5
  6
Continuous
 62
     7
370
    13
100
AcDbLine
 10
-506.9598231094392
 20
-58.73008956462041
 30
0.0
 11
-637.6680755739891
 21
167.6632439837647
 31
0.0
  0
TEXT
  5
3B5
330
1F
100
AcDbEntity
  8
0-5
  6
Continuous
 62
     7
370
    13
100
AcDbText
 10
-984.834543651059
 20
185.223074668942
 30
0.0
 40
22.86
  1
ボルト：ＳＵＳ３０４
 41
1.15
  7
ＭＳ ゴシック
100
AcDbText
  0
TEXT
  5
3B6
330
1F
100
AcDbEntity
  8
0-5
  6
Continuous
 62
     7
370
    13
100
AcDbText
 10
-913.6311659042922
 20
132.7024876756988
 30
0.0
 40
22.86
  1
Ｍ８×５０
 41
1.133333333333333
  7
ＭＳ ゴシック
100
AcDbText
  0
LINE
  5
3B7
330
1F
100
AcDbEntity
  8
0-5
  6
Continuous
 62
     7
370
    13
100
AcDbLine
 10
-637.6680755739891
 20
167.6632439837647
 30
0.0
 11
-981.120988416688
 21
167.6632439837647
 31
0.0
  0
LINE
  5
3B8
330
1F
100
AcDbEntity
  8
0-5
  6
Continuous
 62
     7
370
    13
100
AcDbLine
 10
334.30456139225
 20
1.269932472988557
 30
0.0
 11
337.5677161977513
 21
26.05605400733381
 31
0.0
  0
LINE
  5
3B9
330
1F
100
AcDbEntity
  8
0-5
  6
Continuous
 62
     7
370
    13
100
AcDbLine
 10
334.30456139225
 20
1.269932472988557
 30
0.0
 11
343.8716472013772
 21
24.36692078577074
 31
0.0
  0
LINE
  5
3BA
330
1F
100
AcDbEntity
  8
0-5
  6
Continuous
 62
     7
370
    13
100
AcDbLine
 10
334.30456139225
 20
1.269932472988557
 30
0.0
 11
376.7330589476734
 21
159.6152410386408
 31
0.0
  0
TEXT
  5
3BB
330
1F
100
AcDbEntity
  8
0-5
  6
Continuous
 62
     7
370
    13
100
AcDbText
 10
495.8771236836851
 20
124.9337205704187
 30
0.0
 40
22.86
  1
酸洗・
 41
1.111111111111111
  7
ＭＳ ゴシック
100
AcDbText
  0
LINE
  5
3BC
330
1F
100
AcDbEntity
  8
0-5
  6
Continuous
 62
     7
370
    13
100
AcDbLine
 10
376.7330589476734
 20
159.6152410386408
 30
0.0
 11
709.8896596029134
 21
159.6152410386408
 31
0.0
  0
TEXT
  5
3BD
330
1F
100
AcDbEntity
  8
0-5
  6
Continuous
 62
     7
370
    13
100
AcDbText
 10
-926.067277563085
 20
478.8769102332648
 30
0.0
 40
22.86
  1
Ｍ６×１２
 41
1.133333333333333
  7
ＭＳ ゴシック
100
AcDbText
  0
LINE
  5
3BE
330
1F
100
AcDbEntity
  8
0-5
  6
Continuous
 62
     7
370
    13
100
AcDbLine
 10
-420.6545450530626
 20
91.96967025379152
 30
0.0
 11
-664.0385672077223
 21
513.5230468068502
 31
0.0
  0
TEXT
  5
3BF
330
1F
100
AcDbEntity
  8
0-5
  6
Continuous
 62
     7
370
    13
100
AcDbText
 10
-1001.774371572809
 20
530.1296155753257
 30
0.0
 40
22.86
  1
丸小ネジ：ＳＵＳ３０４
  7
ＭＳ ゴシック
100
AcDbText
  0
LINE
  5
3C0
330
1F
100
AcDbEntity
  8
0-5
  6
Continuous
 62
     7
370
    13
100
AcDbLine
 10
-664.0385672077223
 20
513.5230468068502
 30
0.0
 11
-1002.140159411851
 21
513.5230468068502
 31
0.0
  0
TEXT
  5
3C1
330
1F
100
AcDbEntity
  8
0-5
  6
Continuous
 62
     7
370
    13
100
AcDbText
 10
-878.6126093652365
 20
311.8716240980714
 30
0.0
 40
22.86
  1
Ｍ８×４０
 41
1.133333333333333
  7
ＭＳ ゴシック
100
AcDbText
  0
LINE
  5
3C2
330
1F
100
AcDbEntity
  8
0-5
  6
Continuous
 62
     7
370
    13
100
AcDbLine
 10
-605.9511875688382
 20
346.8323804061373
 30
0.0
 11
-953.0866985575893
 21
346.8323804061373
 31
0.0
  0
LINE
  5
3C3
330
1F
100
AcDbEntity
  8
0-5
  6
Continuous
 62
     7
370
    13
100
AcDbLine
 10
-373.0384627842705
 20
-56.58429142272865
 30
0.0
 11
-605.9511875688382
 21
346.8323804061373
 31
0.0
  0
TEXT
  5
3C4
330
1F
100
AcDbEntity
  8
0-5
  6
Continuous
 62
     7
370
    13
100
AcDbText
 10
445.7147215085863
 20
222.7160887357283
 30
0.0
 40
22.86
  1
酸洗・
 41
1.111111111111111
  7
ＭＳ ゴシック
100
AcDbText
  0
TEXT
  5
3C5
330
1F
100
AcDbEntity
  8
0-5
  6
Continuous
 62
     7
370
    13
100
AcDbText
 10
-832.4876739654457
 20
-561.7101944207068
 30
0.0
 40
22.86
  1
硬質ポリ塩化ビニル管
 41
1.15
  7
ＭＳ ゴシック
100
AcDbText
  0
LINE
  5
3C6
330
1F
100
AcDbEntity
  8
0-5
  6
Continuous
 62
     7
370
    13
100
AcDbLine
 10
-487.0810026385777
 20
-524.4390541444347
 30
0.0
 11
-830.3989715810949
 21
-524.4390541444347
 31
0.0
  0
TEXT
  5
3C7
330
1F
100
AcDbEntity
  8
0-5
  6
Continuous
 62
     7
370
    13
100
AcDbText
 10
-739.9661998074542
 20
-509.9890105933939
 30
0.0
 40
22.86
  1
スペーサー
 41
1.133333333333333
  7
ＭＳ ゴシック
100
AcDbText
  0
LINE
  5
3C8
330
1F
100
AcDbEntity
  8
0-4
  6
Continuous
 62
     7
370
    13
100
AcDbLine
 10
-560.2933736399505
 20
-721.7571731131584
 30
0.0
 11
-560.2933736399505
 21
-576.324543348744
 31
0.0
  0
TEXT
  5
3C9
330
1F
100
AcDbEntity
  8
0-5
  6
Continuous
 62
     7
370
    13
100
AcDbText
 10
314.665832934753
 20
386.0982513770761
 30
0.0
 40
22.86
  1
丸小ネジ：ＳＵＳ３０４
 41
1.151515151515152
  7
ＭＳ ゴシック
100
AcDbText
  0
TEXT
  5
3CA
330
1F
100
AcDbEntity
  8
0-5
  6
Continuous
 62
     7
370
    13
100
AcDbText
 10
380.3638332017568
 20
171.6262499700082
 30
0.0
 40
22.86
  1
断熱材押え：ＳＣＳ１３
 41
0.9999999999999998
  7
ＭＳ ゴシック
100
AcDbText
  0
TEXT
  5
3CB
330
1F
100
AcDbEntity
  8
0-5
  6
Continuous
 62
     7
370
    13
100
AcDbText
 10
302.391832854228
 20
267.2342505972554
 30
0.0
 40
22.86
  1
防水層押え：ＳＣＳ１３
 41
1.151515151515152
  7
ＭＳ ゴシック
100
AcDbText
  0
TEXT
  5
3CC
330
1F
100
AcDbEntity
  8
0-5
  6
Continuous
 62
     7
370
    13
100
AcDbText
 10
-952.7390853293282
 20
359.8060098620528
 30
0.0
 40
22.86
  1
ボルト：ＳＵＳ３０４
 41
1.15
  7
ＭＳ ゴシック
100
AcDbText
  0
LINE
  5
3CD
330
1F
100
AcDbEntity
  8
0-0
  6
Continuous
 62
     3
370
    13
100
AcDbLine
 10
56.64178182689471
 20
-188.6782214107142
 30
0.0
 11
-322.076622953717
 21
-188.6782214107142
 31
0.0
  0
LINE
  5
3CE
330
1F
100
AcDbEntity
  8
0-0
  6
Continuous
 62
     3
370
    13
100
AcDbLine
 10
52.13649045638266
 20
-224.1480620829672
 30
0.0
 11
36.37324078942047
 21
-348.2510130760227
 31
0.0
  0
LINE
  5
3CF
330
1F
100
AcDbEntity
  8
0-0
  6
Continuous
 62
     3
370
    13
100
AcDbLine
 10
94.78260826347267
 20
-186.0111575966991
 30
0.0
 11
124.4393006236689
 21
-183.9373616560479
 31
0.0
  0
LINE
  5
3D0
330
1F
100
AcDbEntity
  8
0-0
  6
Continuous
 62
     4
370
    13
100
AcDbLine
 10
-455.2933983839324
 20
-181.1056603258115
 30
0.0
 11
-458.2933587935608
 21
-184.1058681752625
 31
0.0
  0
LINE
  5
3D1
330
1F
100
AcDbEntity
  8
0-0
  6
Continuous
 62
     4
370
    13
100
AcDbLine
 10
-438.2934165295197
 20
-181.1056603258115
 30
0.0
 11
-455.2933983839324
 21
-181.1056603258115
 31
0.0
  0
LINE
  5
3D2
330
1F
100
AcDbEntity
  8
0-0
  6
Continuous
 62
     4
370
    13
100
AcDbLine
 10
-438.2934165295197
 20
-181.1056603258115
 30
0.0
 11
-435.2934561198913
 21
-184.1058681752625
 31
0.0
  0
LINE
  5
3D3
330
1F
100
AcDbEntity
  8
0-0
  6
JWW_CENTER1
 62
     4
370
    13
100
AcDbLine
 10
-446.7933455967705
 20
-257.7724149710818
 30
0.0
 11
-446.7933455967705
 21
-170.9970012516983
 31
0.0
  0
LINE
  5
3D4
330
1F
100
AcDbEntity
  8
0-0
  6
Continuous
 62
     4
370
    13
100
AcDbLine
 10
-458.2933587935608
 20
-184.1058681752625
 30
0.0
 11
-435.2934561198913
 21
-184.1058681752625
 31
0.0
  0
LINE
  5
3D5
330
1F
100
AcDbEntity
  8
0-0
  6
Continuous
 62
     4
370
    13
100
AcDbLine
 10
-458.2933587935608
 20
-214.4390211524585
 30
0.0
 11
-458.2933587935608
 21
-184.1058681752625
 31
0.0
  0
LINE
  5
3D6
330
1F
100
AcDbEntity
  8
0-0
  6
Continuous
 62
     4
370
    13
100
AcDbLine
 10
-436.7934363247053
 20
-257.7724149710818
 30
0.0
 11
-436.7934363247053
 21
-214.4390211524585
 31
0.0
  0
LINE
  5
3D7
330
1F
100
AcDbEntity
  8
0-0
  6
Continuous
 62
     4
370
    13
100
AcDbLine
 10
-435.2934561198913
 20
-184.1058681752625
 30
0.0
 11
-435.2934561198913
 21
-214.4390211524585
 31
0.0
  0
LINE
  5
3D8
330
1F
100
AcDbEntity
  8
0-0
  6
Continuous
 62
     4
370
    13
100
AcDbLine
 10
-458.2933587935608
 20
-214.4390211524585
 30
0.0
 11
-435.2934561198913
 21
-214.4390211524585
 31
0.0
  0
LINE
  5
3D9
330
1F
100
AcDbEntity
  8
0-0
  6
Continuous
 62
     4
370
    13
100
AcDbLine
 10
-456.7933785887467
 20
-257.7724149710818
 30
0.0
 11
-456.7933785887467
 21
-214.4390211524585
 31
0.0
  0
LINE
  5
3DA
330
1F
100
AcDbEntity
  8
0-0
  6
Continuous
 62
     4
370
    13
100
AcDbLine
 10
-463.4601497300051
 20
-284.4390046564703
 30
0.0
 11
-483.4600919940465
 21
-284.4390046564703
 31
0.0
  0
LINE
  5
3DB
330
1F
100
AcDbEntity
  8
0-0
  6
Continuous
 62
     4
370
    13
100
AcDbLine
 10
-483.4600919940465
 20
-284.4390046564703
 30
0.0
 11
-483.4600919940465
 21
-264.4389386725176
 31
0.0
  0
LINE
  5
3DC
330
1F
100
AcDbEntity
  8
0-0
  6
Continuous
 62
     4
370
    13
100
AcDbLine
 10
-463.4601497300051
 20
-264.4389386725176
 30
0.0
 11
-483.4600919940465
 21
-264.4389386725176
 31
0.0
  0
LINE
  5
3DD
330
1F
100
AcDbEntity
  8
0-0
  6
JWW_CENTER1
 62
     4
370
    13
100
AcDbLine
 10
-492.5402674453767
 20
-274.4392191043165
 30
0.0
 11
-463.4601497300051
 21
-274.4392191043165
 31
0.0
  0
LINE
  5
3DE
330
1F
100
AcDbEntity
  8
0-0
  6
Continuous
 62
     4
370
    13
100
AcDbLine
 10
-438.2934165295197
 20
-171.5841759508115
 30
0.0
 11
-438.2934165295197
 21
-214.4390211524585
 31
0.0
  0
LINE
  5
3DF
330
1F
100
AcDbEntity
  8
0-0
  6
Continuous
 62
     4
370
    13
100
AcDbLine
 10
-455.2933983839324
 20
-214.4390211524585
 30
0.0
 11
-455.2933983839324
 21
-171.5841759508115
 31
0.0
  0
ARC
  5
3E0
330
1F
100
AcDbEntity
  8
0-0
  6
Continuous
 62
     4
370
    13
100
AcDbCircle
 10
-463.4601497300051
 20
-257.7724149710818
 30
0.0
 40
6.666666752583272
100
AcDbArc
 50
270.0
 51
0.0
  0
ARC
  5
3E1
330
1F
100
AcDbEntity
  8
0-0
  6
JWW_CENTER1
 62
     4
370
    13
100
AcDbCircle
 10
-463.4601497300051
 20
-257.7724149710818
 30
0.0
 40
6.666666752583272
100
AcDbArc
 50
270.0
 51
0.0
  0
ARC
  5
3E2
330
1F
100
AcDbEntity
  8
0-0
  6
JWW_CENTER1
 62
     4
370
    13
100
AcDbCircle
 10
-463.4601497300051
 20
-257.7724149710818
 30
0.0
 40
16.66666688145818
100
AcDbArc
 50
270.0
 51
0.0
  0
ARC
  5
3E3
330
1F
100
AcDbEntity
  8
0-0
  6
Continuous
 62
     4
370
    13
100
AcDbCircle
 10
-463.4601497300051
 20
-257.7724149710818
 30
0.0
 40
26.66666701033309
100
AcDbArc
 50
270.0
 51
0.0
  0
LINE
  5
3E4
330
1F
100
AcDbEntity
  8
0-1
  6
Continuous
 62
     4
370
    13
100
AcDbLine
 10
-348.3719291852415
 20
-187.6628156256426
 30
0.0
 11
-375.5483686251699
 21
-187.6628156256426
 31
0.0
  0
LINE
  5
3E5
330
1F
100
AcDbEntity
  8
0-1
  6
Continuous
 62
     4
370
    13
100
AcDbLine
 10
-375.5483686251699
 20
-187.6628156256426
 30
0.0
 11
-373.293449521496
 21
-189.9174872894939
 31
0.0
  0
LINE
  5
3E6
330
1F
100
AcDbEntity
  8
0-1
  6
Continuous
 62
     4
370
    13
100
AcDbLine
 10
-373.293449521496
 20
-189.9174872894939
 30
0.0
 11
-350.6268482889158
 21
-189.9174872894939
 31
0.0
  0
LINE
  5
3E7
330
1F
100
AcDbEntity
  8
0-1
  6
Continuous
 62
     4
370
    13
100
AcDbLine
 10
-350.6268482889158
 20
-189.9174872894939
 30
0.0
 11
-348.3719291852415
 21
-187.6628156256426
 31
0.0
  0
LINE
  5
3E8
330
1F
100
AcDbEntity
  8
0-1
  6
Continuous
 62
     4
370
    13
100
AcDbLine
 10
-386.960169525191
 20
-131.1354355844686
 30
0.0
 11
-386.960169525191
 21
-150.3963988182102
 31
0.0
  0
LINE
  5
3E9
330
1F
100
AcDbEntity
  8
0-1
  6
Continuous
 62
     4
370
    13
100
AcDbLine
 10
-336.9600045653092
 20
-131.1354355844686
 30
0.0
 11
-336.9600045653092
 21
-150.3963988182102
 31
0.0
  0
LINE
  5
3EA
330
1F
100
AcDbEntity
  8
0-1
  6
Continuous
 62
     4
370
    13
100
AcDbLine
 10
-386.960169525191
 20
-150.3963988182102
 30
0.0
 11
-336.9600045653092
 21
-150.3963988182102
 31
0.0
  0
LINE
  5
3EB
330
1F
100
AcDbEntity
  8
0-1
  6
Continuous
 62
     4
370
    13
100
AcDbLine
 10
-380.7053856886199
 20
-128.7295781889871
 30
0.0
 11
-343.2147884018801
 21
-128.7295781889871
 31
0.0
  0
LINE
  5
3EC
330
1F
100
AcDbEntity
  8
0-1
  6
Continuous
 62
     4
370
    13
100
AcDbLine
 10
-375.5483686251699
 20
-150.3963988182102
 30
0.0
 11
-375.5483686251699
 21
-187.6628156256426
 31
0.0
  0
LINE
  5
3ED
330
1F
100
AcDbEntity
  8
0-1
  6
Continuous
 62
     4
370
    13
100
AcDbLine
 10
-348.3719291852415
 20
-150.3963988182102
 30
0.0
 11
-348.3719291852415
 21
-187.6628156256426
 31
0.0
  0
LINE
  5
3EE
330
1F
100
AcDbEntity
  8
0-1
  6
Continuous
 62
     4
370
    13
100
AcDbLine
 10
-348.6267922025559
 20
-58.83921052640275
 30
0.0
 11
-375.2933818879444
 21
-58.83921052640275
 31
0.0
  0
LINE
  5
3EF
330
1F
100
AcDbEntity
  8
0-1
  6
Continuous
 62
     4
370
    13
100
AcDbLine
 10
-375.2933818879444
 20
-58.83921052640275
 30
0.0
 11
-373.0384627842705
 21
-56.58429142272865
 31
0.0
  0
LINE
  5
3F0
330
1F
100
AcDbEntity
  8
0-1
  6
Continuous
 62
     4
370
    13
100
AcDbLine
 10
-373.0384627842705
 20
-56.58429142272865
 30
0.0
 11
-350.8817113062298
 21
-56.58429142272865
 31
0.0
  0
LINE
  5
3F1
330
1F
100
AcDbEntity
  8
0-1
  6
Continuous
 62
     4
370
    13
100
AcDbLine
 10
-350.8817113062298
 20
-56.58429142272865
 30
0.0
 11
-348.6267922025559
 21
-58.83921052640275
 31
0.0
  0
LINE
  5
3F2
330
1F
100
AcDbEntity
  8
0-1
  6
Continuous
 62
     4
370
    13
100
AcDbLine
 10
-373.0384627842705
 20
-128.7295781889871
 30
0.0
 11
-373.0384627842705
 21
-56.58429142272865
 31
0.0
  0
LINE
  5
3F3
330
1F
100
AcDbEntity
  8
0-1
  6
Continuous
 62
     4
370
    13
100
AcDbLine
 10
-375.2933818879444
 20
-128.7295781889871
 30
0.0
 11
-375.2933818879444
 21
-58.83921052640275
 31
0.0
  0
LINE
  5
3F4
330
1F
100
AcDbEntity
  8
0-1
  6
Continuous
 62
     4
370
    13
100
AcDbLine
 10
-350.8817113062298
 20
-128.7295781889871
 30
0.0
 11
-350.8817113062298
 21
-56.58429142272865
 31
0.0
  0
LINE
  5
3F5
330
1F
100
AcDbEntity
  8
0-1
  6
Continuous
 62
     4
370
    13
100
AcDbLine
 10
-348.6267922025559
 20
-128.7295781889871
 30
0.0
 11
-348.6267922025559
 21
-58.83921052640275
 31
0.0
  0
LINE
  5
3F6
330
1F
100
AcDbEntity
  8
0-1
  6
Continuous
 62
     4
370
    13
100
AcDbLine
 10
-349.4694485185397
 20
-131.135188144646
 30
0.0
 11
-349.4694485185397
 21
-150.3963988182102
 31
0.0
  0
LINE
  5
3F7
330
1F
100
AcDbEntity
  8
0-1
  6
Continuous
 62
     4
370
    13
100
AcDbLine
 10
-374.4507255719603
 20
-131.1354355844686
 30
0.0
 11
-374.4507255719603
 21
-150.3963988182102
 31
0.0
  0
LINE
  5
3F8
330
1F
100
AcDbEntity
  8
0-1
  6
Continuous
 62
     4
370
    13
100
AcDbLine
 10
-373.293449521496
 20
-150.3963988182102
 30
0.0
 11
-373.293449521496
 21
-196.584505870575
 31
0.0
  0
ARC
  5
3F9
330
1F
100
AcDbEntity
  8
0-1
  6
Continuous
 62
     4
370
    13
100
AcDbCircle
 10
-380.7053856886199
 20
-138.0637506182524
 30
0.0
 40
9.333911457577267
100
AcDbArc
 50
47.92556762695313
 51
132.0746307373047
  0
ARC
  5
3FA
330
1F
100
AcDbEntity
  8
0-1
  6
Continuous
 62
     4
370
    13
100
AcDbCircle
 10
-361.9600870452501
 20
-162.3611040019095
 30
0.0
 40
33.63136729678592
100
AcDbArc
 50
68.19786071777344
 51
111.8021392822266
  0
ARC
  5
3FB
330
1F
100
AcDbEntity
  8
0-1
  6
Continuous
 62
     4
370
    13
100
AcDbCircle
 10
-343.2147884018801
 20
-138.0637506182524
 30
0.0
 40
9.33396558503847
100
AcDbArc
 50
47.92572021484374
 51
132.0742797851562
  0
LINE
  5
3FC
330
1F
100
AcDbEntity
  8
0-1
  6
JWW_CENTER1
 62
     4
370
    13
100
AcDbLine
 10
-361.9600870452501
 20
-46.58425843075236
 30
0.0
 11
-361.9600870452501
 21
-199.9175202814703
 31
0.0
  0
LINE
  5
3FD
330
1F
100
AcDbEntity
  8
0-1
  6
Continuous
 62
     4
370
    13
100
AcDbLine
 10
-350.6268482889158
 20
-150.3963988182102
 30
0.0
 11
-350.6268482889158
 21
-196.584505870575
 31
0.0
  0
LINE
  5
3FE
330
1F
100
AcDbEntity
  8
0-2
  6
Continuous
 62
     4
370
    13
100
AcDbLine
 10
-407.6607376470238
 20
97.10503633276105
 30
0.0
 11
-414.0279828829824
 21
97.21341497507538
 31
0.0
  0
LINE
  5
3FF
330
1F
100
AcDbEntity
  8
0-2
  6
Continuous
 62
     4
370
    13
100
AcDbLine
 10
-411.3041653154147
 20
62.29544952427304
 30
0.0
 11
-417.5561035940254
 21
63.50790465518529
 31
0.0
  0
LINE
  5
400
330
1F
100
AcDbEntity
  8
0-2
  6
Continuous
 62
     4
370
    13
100
AcDbLine
 10
-411.3041653154147
 20
62.29544952427304
 30
0.0
 11
-407.6607376470238
 21
97.10503633276105
 31
0.0
  0
LINE
  5
401
330
1F
100
AcDbEntity
  8
0-2
  6
Continuous
 62
     4
370
    13
100
AcDbLine
 10
-401.8111365200178
 20
88.95164673711079
 30
0.0
 11
-403.8933426274926
 21
69.0602068352949
 31
0.0
  0
LINE
  5
402
330
1F
100
AcDbEntity
  8
0-2
  6
Continuous
 62
     4
370
    13
100
AcDbLine
 10
-403.5913423239663
 20
71.94436540793006
 30
0.0
 11
-410.1642100525348
 21
69.10647808212772
 31
0.0
  0
LINE
  5
403
330
1F
100
AcDbEntity
  8
0-2
  6
Continuous
 62
     4
370
    13
100
AcDbLine
 10
-403.8933426274926
 20
69.0602068352949
 30
0.0
 11
-406.271981642484
 21
70.78708935746548
 31
0.0
  0
LINE
  5
404
330
1F
100
AcDbEntity
  8
0-2
  6
Continuous
 62
     4
370
    13
100
AcDbLine
 10
-402.1132605434553
 20
86.06748816447563
 30
0.0
 11
-407.9556859156048
 21
90.20468199893529
 31
0.0
  0
LINE
  5
405
330
1F
100
AcDbEntity
  8
0-2
  6
Continuous
 62
     4
370
    13
100
AcDbLine
 10
-401.8111365200178
 20
88.95164673711079
 30
0.0
 11
-404.4957348756978
 21
87.75478031502459
 31
0.0
  0
LINE
  5
406
330
1F
100
AcDbEntity
  8
0-2
  6
Continuous
 62
     4
370
    13
100
AcDbLine
 10
-370.4392311673996
 20
68.47451677511756
 30
0.0
 11
-373.6248951639158
 21
65.89173990645193
 31
0.0
  0
LINE
  5
407
330
1F
100
AcDbEntity
  8
0-2
  6
Continuous
 62
     4
370
    13
100
AcDbLine
 10
-368.960901947066
 20
82.59714465201782
 30
0.0
 11
-371.5429364962637
 21
85.78367468791313
 31
0.0
  0
LINE
  5
408
330
1F
100
AcDbEntity
  8
0-2
  6
Continuous
 62
     4
370
    13
100
AcDbLine
 10
-402.1132605434553
 20
86.06748816447563
 30
0.0
 11
-368.960901947066
 21
82.59714465201782
 31
0.0
  0
LINE
  5
409
330
1F
100
AcDbEntity
  8
0-2
  6
Continuous
 62
     4
370
    13
100
AcDbLine
 10
-403.5913423239663
 20
71.94436540793006
 30
0.0
 11
-370.4392311673996
 21
68.47451677511756
 31
0.0
  0
LINE
  5
40A
330
1F
100
AcDbEntity
  8
0-2
  6
Continuous
 62
     4
370
    13
100
AcDbLine
 10
-368.960901947066
 20
82.59714465201782
 30
0.0
 11
-370.4392311673996
 21
68.47451677511756
 31
0.0
  0
LINE
  5
40B
330
1F
100
AcDbEntity
  8
0-2
  6
Continuous
 62
     4
370
    13
100
AcDbLine
 10
-371.5429364962637
 20
85.78367468791313
 30
0.0
 11
-373.6248951639158
 21
65.89173990645193
 31
0.0
  0
LINE
  5
40C
330
1F
100
AcDbEntity
  8
0-2
  6
Continuous
 62
     4
370
    13
100
AcDbLine
 10
-401.8111365200178
 20
88.95164673711079
 30
0.0
 11
-371.5429364962637
 21
85.78367468791313
 31
0.0
  0
LINE
  5
40D
330
1F
100
AcDbEntity
  8
0-2
  6
Continuous
 62
     4
370
    13
100
AcDbLine
 10
-403.8933426274926
 20
69.0602068352949
 30
0.0
 11
-373.6248951639158
 21
65.89173990645193
 31
0.0
  0
LINE
  5
40E
330
1F
100
AcDbEntity
  8
0-2
  6
JWW_CENTER1
 62
     4
370
    13
100
AcDbLine
 10
-428.6595944750431
 20
81.70759848964465
 30
0.0
 11
-362.8605205598194
 21
74.8201110265957
 31
0.0
  0
LINE
  5
40F
330
1F
100
AcDbEntity
  8
0-2
  6
Continuous
 62
     4
370
    13
100
AcDbLine
 10
158.0015432862533
 20
-115.3962833462928
 30
0.0
 11
178.0018567100285
 21
-115.3962833462928
 31
0.0
  0
LINE
  5
410
330
1F
100
AcDbEntity
  8
0-2
  6
Continuous
 62
     4
370
    13
100
AcDbLine
 10
175.1016145489223
 20
-115.3962833462928
 30
0.0
 11
178.6085791551301
 21
-109.1548612601443
 31
0.0
  0
LINE
  5
411
330
1F
100
AcDbEntity
  8
0-2
  6
Continuous
 62
     4
370
    13
100
AcDbLine
 10
178.0018567100285
 20
-115.3962833462928
 30
0.0
 11
176.5320641635759
 21
-112.8508698908453
 31
0.0
  0
LINE
  5
412
330
1F
100
AcDbEntity
  8
0-2
  6
Continuous
 62
     4
370
    13
100
AcDbLine
 10
160.9017854473598
 20
-115.3962833462928
 30
0.0
 11
157.394820841152
 21
-109.1548612601443
 31
0.0
  0
LINE
  5
413
330
1F
100
AcDbEntity
  8
0-2
  6
Continuous
 62
     4
370
    13
100
AcDbLine
 10
158.0015432862533
 20
-115.3962833462928
 30
0.0
 11
159.4713358327062
 21
-112.8508698908453
 31
0.0
  0
LINE
  5
414
330
1F
100
AcDbEntity
  8
0-2
  6
Continuous
 62
     4
370
    13
100
AcDbLine
 10
175.1016145489223
 20
-148.7296441729399
 30
0.0
 11
178.0018567100285
 21
-145.8298968914787
 31
0.0
  0
LINE
  5
415
330
1F
100
AcDbEntity
  8
0-2
  6
Continuous
 62
     4
370
    13
100
AcDbLine
 10
160.9017854473598
 20
-148.7296441729399
 30
0.0
 11
158.0015432862533
 21
-145.8298968914787
 31
0.0
  0
LINE
  5
416
330
1F
100
AcDbEntity
  8
0-2
  6
Continuous
 62
     4
370
    13
100
AcDbLine
 10
160.9017854473598
 20
-115.3962833462928
 30
0.0
 11
160.9017854473598
 21
-148.7296441729399
 31
0.0
  0
LINE
  5
417
330
1F
100
AcDbEntity
  8
0-2
  6
Continuous
 62
     4
370
    13
100
AcDbLine
 10
175.1016145489223
 20
-115.3962833462928
 30
0.0
 11
175.1016145489223
 21
-148.7296441729399
 31
0.0
  0
LINE
  5
418
330
1F
100
AcDbEntity
  8
0-2
  6
Continuous
 62
     4
370
    13
100
AcDbLine
 10
160.9017854473598
 20
-148.7296441729399
 30
0.0
 11
175.1016145489223
 21
-148.7296441729399
 31
0.0
  0
LINE
  5
419
330
1F
100
AcDbEntity
  8
0-2
  6
Continuous
 62
     4
370
    13
100
AcDbLine
 10
158.0015432862533
 20
-145.8298968914787
 30
0.0
 11
178.0018567100285
 21
-145.8298968914787
 31
0.0
  0
LINE
  5
41A
330
1F
100
AcDbEntity
  8
0-2
  6
Continuous
 62
     4
370
    13
100
AcDbLine
 10
158.0015432862533
 20
-115.3962833462928
 30
0.0
 11
158.0015432862533
 21
-145.8298968914787
 31
0.0
  0
LINE
  5
41B
330
1F
100
AcDbEntity
  8
0-2
  6
Continuous
 62
     4
370
    13
100
AcDbLine
 10
178.0018567100285
 20
-115.3962833462928
 30
0.0
 11
178.0018567100285
 21
-145.8298968914787
 31
0.0
  0
LINE
  5
41C
330
1F
100
AcDbEntity
  8
0-2
  6
JWW_CENTER1
 62
     4
370
    13
100
AcDbLine
 10
168.0015762782296
 20
-88.57999256821017
 30
0.0
 11
168.0015762782296
 21
-154.3356407945615
 31
0.0
  0
LINE
  5
41D
330
1F
100
AcDbEntity
  8
0-2
  6
Continuous
 62
     4
370
    13
100
AcDbLine
 10
150.5013948223598
 20
-108.729759644857
 30
0.0
 11
151.0564023445304
 21
-102.3856500323149
 31
0.0
  0
LINE
  5
41E
330
1F
100
AcDbEntity
  8
0-2
  6
Continuous
 62
     4
370
    13
100
AcDbLine
 10
185.501510294277
 20
-108.729759644857
 30
0.0
 11
184.9465027721064
 21
-102.3856500323149
 31
0.0
  0
LINE
  5
41F
330
1F
100
AcDbEntity
  8
0-2
  6
Continuous
 62
     4
370
    13
100
AcDbLine
 10
185.501510294277
 20
-108.729759644857
 30
0.0
 11
150.5013948223598
 21
-108.729759644857
 31
0.0
  0
ARC
  5
420
330
1F
100
AcDbEntity
  8
0-2
  6
Continuous
 62
     4
370
    13
100
AcDbCircle
 10
-416.2867373039072
 20
70.0526879638845
 30
0.0
 40
6.666666752583272
100
AcDbArc
 50
180.3624267578125
 51
259.0242767333984
  0
ARC
  5
421
330
1F
100
AcDbEntity
  8
0-2
  6
Continuous
 62
     4
370
    13
100
AcDbCircle
 10
-322.9554054838059
 20
70.64307938069177
 30
0.0
 40
99.9999896900074
100
AcDbArc
 50
167.6861877441406
 51
180.3625793457031
  0
ARC
  5
422
330
1F
100
AcDbEntity
  8
0-2
  6
Continuous
 62
     4
370
    13
100
AcDbCircle
 10
-414.1413103217494
 20
90.54788103293006
 30
0.0
 40
6.666666752583272
100
AcDbArc
 50
89.02424621582031
 51
167.6860961914062
  0
ARC
  5
423
330
1F
100
AcDbEntity
  8
0-2
  6
Continuous
 62
     4
370
    13
100
AcDbCircle
 10
-409.8336304494941
 20
68.34164159036263
 30
0.0
 40
0.833333344072909
100
AcDbArc
 50
113.3555450439453
 51
174.0263671875
  0
ARC
  5
424
330
1F
100
AcDbEntity
  8
0-2
  6
Continuous
 62
     4
370
    13
100
AcDbCircle
 10
-407.4737968610228
 20
90.88538895100427
 30
0.0
 40
0.833333344072909
100
AcDbArc
 50
174.0263671875
 51
234.6971893310547
  0
ARC
  5
425
330
1F
100
AcDbEntity
  8
0-2
  6
Continuous
 62
     4
370
    13
100
AcDbCircle
 10
178.3052179325793
 20
-102.9668861756848
 30
0.0
 40
6.666666752583272
100
AcDbArc
 50
4.999984741210938
 51
83.66183471679688
  0
ARC
  5
426
330
1F
100
AcDbEntity
  8
0-2
  6
Continuous
 62
     4
370
    13
100
AcDbCircle
 10
168.0015762782296
 20
-195.7296012833706
 30
0.0
 40
99.9999896900074
100
AcDbArc
 50
83.66180419921876
 51
96.33819580078125
  0
ARC
  5
427
330
1F
100
AcDbEntity
  8
0-2
  6
Continuous
 62
     4
370
    13
100
AcDbCircle
 10
157.6976871840575
 20
-102.9668861756848
 30
0.0
 40
6.666666752583272
100
AcDbArc
 50
96.33816528320312
 51
175.0000152587891
  0
ARC
  5
428
330
1F
100
AcDbEntity
  8
0-2
  6
Continuous
 62
     4
370
    13
100
AcDbCircle
 10
179.3350624743869
 20
-109.5628895276695
 30
0.0
 40
0.833333344072909
100
AcDbArc
 50
90.0
 51
150.6708221435547
  0
ARC
  5
429
330
1F
100
AcDbEntity
  8
0-2
  6
Continuous
 62
     4
370
    13
100
AcDbCircle
 10
156.6680900820726
 20
-109.5628895276695
 30
0.0
 40
0.833333344072909
100
AcDbArc
 50
29.32917785644531
 51
90.0
  0
ENDSEC
  0
SECTION
  2
OBJECTS
  0
DICTIONARY
  5
C
330
0
100
AcDbDictionary
281
     1
  3
ACAD_GROUP
350
D
  3
ACAD_LAYOUT
350
1A
  3
ACAD_MLEADERSTYLE
350
42B
  3
ACAD_MLINESTYLE
350
17
  3
ACAD_PLOTSETTINGS
350
19
  3
ACAD_PLOTSTYLENAME
350
E
  3
ACAD_TABLESTYLE
350
42A
  3
ACAD_VISUALSTYLE
350
2A
  0
DICTIONARY
  5
D
102
{ACAD_REACTORS
330
C
102
}
330
C
100
AcDbDictionary
281
     1
  0
DICTIONARY
  5
1A
102
{ACAD_REACTORS
330
C
102
}
330
C
100
AcDbDictionary
281
     1
  3
Layout1
350
1E
  3
Layout2
350
26
  3
Model
350
22
  0
DICTIONARY
  5
42B
102
{ACAD_REACTORS
330
C
102
}
330
C
100
AcDbDictionary
281
     1
  0
DICTIONARY
  5
17
102
{ACAD_REACTORS
330
C
102
}
330
C
100
AcDbDictionary
281
     1
  3
Standard
350
18
  0
DICTIONARY
  5
19
102
{ACAD_REACTORS
330
C
102
}
330
C
100
AcDbDictionary
281
     1
  0
ACDBDICTIONARYWDFLT
  5
E
102
{ACAD_REACTORS
330
C
102
}
330
C
100
AcDbDictionary
281
     1
  3
Normal
350
F
100
AcDbDictionaryWithDefault
340
F
  0
DICTIONARY
  5
42A
102
{ACAD_REACTORS
330
C
102
}
330
C
100
AcDbDictionary
281
     1
  0
DICTIONARY
  5
2A
102
{ACAD_REACTORS
330
C
102
}
330
C
100
AcDbDictionary
281
     1
  3
2dWireframe
350
2F
  3
3D Hidden
350
31
  3
3dWireframe
350
30
  3
Basic
350
32
  3
Brighten
350
36
  3
ColorChange
350
3A
  3
Conceptual
350
34
  3
Dim
350
35
  3
Facepattern
350
39
  3
Flat
350
2B
  3
FlatWithEdges
350
2C
  3
Gouraud
350
2D
  3
GouraudWithEdges
350
2E
  3
Linepattern
350
38
  3
Realistic
350
33
  3
Thicken
350
37
  0
LAYOUT
  5
1E
102
{ACAD_REACTORS
330
1A
102
}
330
1A
100
AcDbPlotSettings
  1

  2
none_device
  4

  6

 40
0.0
 41
0.0
 42
0.0
 43
0.0
 44
0.0
 45
0.0
 46
0.0
 47
0.0
 48
0.0
 49
0.0
140
0.0
141
0.0
142
1.0
143
1.0
 70
   688
 72
     0
 73
     0
 74
     5
  7

 75
    16
 76
     0
 77
     5
 78
   300
147
1.0
148
0.0
149
0.0
100
AcDbLayout
  1
Layout1
 70
     1
 71
     1
 10
0.0
 20
0.0
 11
420.0
 21
297.0
 12
0.0
 22
0.0
 32
0.0
 14
1.000000000000000E+20
 24
1.000000000000000E+20
 34
1.000000000000000E+20
 15
-1.000000000000000E+20
 25
-1.000000000000000E+20
 35
-1.000000000000000E+20
146
0.0
 13
0.0
 23
0.0
 33
0.0
 16
1.0
 26
0.0
 36
0.0
 17
0.0
 27
1.0
 37
0.0
 76
     0
330
1B
  0
LAYOUT
  5
26
102
{ACAD_REACTORS
330
1A
102
}
330
1A
100
AcDbPlotSettings
  1

  2
none_device
  4

  6

 40
0.0
 41
0.0
 42
0.0
 43
0.0
 44
0.0
 45
0.0
 46
0.0
 47
0.0
 48
0.0
 49
0.0
140
0.0
141
0.0
142
1.0
143
1.0
 70
   688
 72
     0
 73
     0
 74
     5
  7

 75
    16
 76
     0
 77
     5
 78
   300
147
1.0
148
0.0
149
0.0
100
AcDbLayout
  1
Layout2
 70
     1
 71
     2
 10
0.0
 20
0.0
 11
0.0
 21
0.0
 12
0.0
 22
0.0
 32
0.0
 14
0.0
 24
0.0
 34
0.0
 15
0.0
 25
0.0
 35
0.0
146
0.0
 13
0.0
 23
0.0
 33
0.0
 16
1.0
 26
0.0
 36
0.0
 17
0.0
 27
1.0
 37
0.0
 76
     0
330
23
  0
LAYOUT
  5
22
102
{ACAD_REACTORS
330
1A
102
}
330
1A
100
AcDbPlotSettings
  1

  2
none_device
  4

  6

 40
0.0
 41
0.0
 42
0.0
 43
0.0
 44
0.0
 45
0.0
 46
0.0
 47
0.0
 48
0.0
 49
0.0
140
0.0
141
0.0
142
1.0
143
1.0
 70
  1712
 72
     0
 73
     0
 74
     0
  7

 75
     0
 76
     0
 77
     5
 78
   300
147
1.0
148
0.0
149
0.0
100
AcDbLayout
  1
Model
 70
     1
 71
     0
 10
-2100.0
 20
-1485.0
 11
2100.0
 21
1485.0
 12
0.0
 22
0.0
 32
0.0
 14
-2100.0
 24
-1485.0
 34
0.0
 15
2100.0
 25
1485.0
 35
0.0
146
0.0
 13
0.0
 23
0.0
 33
0.0
 16
1.0
 26
0.0
 36
0.0
 17
0.0
 27
1.0
 37
0.0
 76
     0
330
1F
331
29
  0
MLINESTYLE
  5
18
102
{ACAD_REACTORS
330
17
102
}
330
17
100
AcDbMlineStyle
  2
Standard
 70
     0
  3

 62
   256
 51
90.0
 52
90.0
 71
     2
 49
0.5
 62
   256
  6
BYLAYER
 49
-0.5
 62
   256
  6
BYLAYER
  0
ACDBPLACEHOLDER
  5
F
102
{ACAD_REACTORS
330
E
102
}
330
E
  0
VISUALSTYLE
  5
2F
102
{ACAD_REACTORS
330
2A
102
}
330
2A
100
AcDbVisualStyle
  2
2dWireframe
 70
     4
 71
     0
 72
     2
 73
     0
 90
        0
 40
-0.6
 41
-30.0
 62
     5
 63
     7
421
 16777215
 74
     1
 91
        4
 64
     7
 65
   257
 75
     1
175
     1
 42
1.0
 92
        0
 66
   257
 43
1.0
 76
     1
 77
     6
 78
     2
 67
     7
 79
     5
170
     0
171
     0
290
     0
174
     0
 93
        1
 44
0.0
173
     0
291
     0
 45
0.0
1001
ACAD
1000
AcDbSavedByObjectVersion
1070
     0
  0
VISUALSTYLE
  5
31
102
{ACAD_REACTORS
330
2A
102
}
330
2A
100
AcDbVisualStyle
  2
3D Hidden
 70
     6
 71
     1
 72
     2
 73
     2
 90
        0
 40
-0.6
 41
-30.0
 62
     5
 63
     7
421
 16777215
 74
     2
 91
        2
 64
     7
 65
   257
 75
     2
175
     1
 42
40.0
 92
        0
 66
   257
 43
1.0
 76
     1
 77
     6
 78
     2
 67
     7
 79
     3
170
     0
171
     0
290
     0
174
     0
 93
        1
 44
0.0
173
     0
291
     0
 45
0.0
1001
ACAD
1000
AcDbSavedByObjectVersion
1070
     0
  0
VISUALSTYLE
  5
30
102
{ACAD_REACTORS
330
2A
102
}
330
2A
100
AcDbVisualStyle
  2
3dWireframe
 70
     5
 71
     0
 72
     2
 73
     0
 90
        0
 40
-0.6
 41
-30.0
 62
     5
 63
     7
421
 16777215
 74
     1
 91
        4
 64
     7
 65
   257
 75
     1
175
     1
 42
1.0
 92
        0
 66
   257
 43
1.0
 76
     1
 77
     6
 78
     2
 67
     7
 79
     5
170
     0
171
     0
290
     0
174
     0
 93
        1
 44
0.0
173
     0
291
     0
 45
0.0
1001
ACAD
1000
AcDbSavedByObjectVersion
1070
     0
  0
VISUALSTYLE
  5
32
102
{ACAD_REACTORS
330
2A
102
}
330
2A
100
AcDbVisualStyle
  2
Basic
 70
     7
 71
     1
 72
     0
 73
     1
 90
        0
 40
-0.6
 41
-30.0
 62
     5
 63
     7
421
 16777215
 74
     0
 91
        4
 64
     7
 65
   257
 75
     1
175
     1
 42
1.0
 92
        8
 66
     7
 43
1.0
 76
     1
 77
     6
 78
     2
 67
     7
 79
     5
170
     0
171
     0
290
     0
174
     0
 93
        1
 44
0.0
173
     0
291
     1
 45
0.0
1001
ACAD
1000
AcDbSavedByObjectVersion
1070
     0
  0
VISUALSTYLE
  5
36
102
{ACAD_REACTORS
330
2A
102
}
330
2A
100
AcDbVisualStyle
  2
Brighten
 70
    12
 71
     2
 72
     2
 73
     0
 90
        0
 40
-0.6
 41
-30.0
 62
     5
 63
     7
421
 16777215
 74
     1
 91
        4
 64
     7
 65
   257
 75
     1
175
     1
 42
1.0
 92
        8
 66
     7
 43
1.0
 76
     1
 77
     6
 78
     2
 67
     7
 79
     5
170
     0
171
     0
290
     0
174
     0
 93
        1
 44
50.0
173
     0
291
     1
 45
0.0
1001
ACAD
1000
AcDbSavedByObjectVersion
1070
     0
  0
VISUALSTYLE
  5
3A
102
{ACAD_REACTORS
330
2A
102
}
330
2A
100
AcDbVisualStyle
  2
ColorChange
 70
    16
 71
     2
 72
     2
 73
     3
 90
        0
 40
-0.6
 41
-30.0
 62
     5
 63
     8
421
  8421504
 74
     1
 91
        4
 64
     7
 65
   257
 75
     1
175
     1
 42
1.0
 92
        8
 66
     8
424
  8421504
 43
1.0
 76
     1
 77
     6
 78
     2
 67
     7
 79
     5
170
     0
171
     0
290
     0
174
     0
 93
        1
 44
0.0
173
     0
291
     1
 45
0.0
1001
ACAD
1000
AcDbSavedByObjectVersion
1070
     0
  0
VISUALSTYLE
  5
34
102
{ACAD_REACTORS
330
2A
102
}
330
2A
100
AcDbVisualStyle
  2
Conceptual
 70
     9
 71
     3
 72
     2
 73
     0
 90
        0
 40
-0.6
 41
-30.0
 62
     5
 63
     7
421
 16777215
 74
     2
 91
        2
 64
     7
 65
   257
 75
     1
175
     1
 42
40.0
 92
        8
 66
     7
 43
1.0
 76
     1
 77
     6
 78
     2
 67
     7
 79
     3
170
     0
171
     0
290
     0
174
     0
 93
        1
 44
0.0
173
     0
291
     0
 45
0.0
1001
ACAD
1000
AcDbSavedByObjectVersion
1070
     0
  0
VISUALSTYLE
  5
35
102
{ACAD_REACTORS
330
2A
102
}
330
2A
100
AcDbVisualStyle
  2
Dim
 70
    11
 71
     2
 72
     2
 73
     0
 90
        0
 40
-0.6
 41
-30.0
 62
     5
 63
     7
421
 16777215
 74
     1
 91
        4
 64
     7
 65
   257
 75
     1
175
     1
 42
1.0
 92
        8
 66
     7
 43
1.0
 76
     1
 77
     6
 78
     2
 67
     7
 79
     5
170
     0
171
     0
290
     0
174
     0
 93
        1
 44
-50.0
173
     0
291
     1
 45
0.0
1001
ACAD
1000
AcDbSavedByObjectVersion
1070
     0
  0
VISUALSTYLE
  5
39
102
{ACAD_REACTORS
330
2A
102
}
330
2A
100
AcDbVisualStyle
  2
Facepattern
 70
    15
 71
     2
 72
     2
 73
     0
 90
        0
 40
-0.6
 41
-30.0
 62
     5
 63
     7
421
 16777215
 74
     1
 91
        4
 64
     7
 65
   257
 75
     1
175
     1
 42
1.0
 92
        8
 66
     7
 43
1.0
 76
     1
 77
     6
 78
     2
 67
     7
 79
     5
170
     0
171
     0
290
     0
174
     0
 93
        1
 44
0.0
173
     0
291
     1
 45
0.0
1001
ACAD
1000
AcDbSavedByObjectVersion
1070
     0
  0
VISUALSTYLE
  5
2B
102
{ACAD_REACTORS
330
2A
102
}
330
2A
100
AcDbVisualStyle
  2
Flat
 70
     0
 71
     2
 72
     1
 73
     1
 90
        2
 40
-0.6
 41
30.0
 62
     5
 63
     7
421
 16777215
 74
     0
 91
        4
 64
     7
 65
   257
 75
     1
175
     1
 42
1.0
 92
        8
 66
     7
 43
1.0
 76
     1
 77
     6
 78
     2
 67
     7
 79
     5
170
     0
171
     0
290
     0
174
     0
 93
       13
 44
0.0
173
     0
291
     1
 45
0.0
1001
ACAD
1000
AcDbSavedByObjectVersion
1070
     0
  0
VISUALSTYLE
  5
2C
102
{ACAD_REACTORS
330
2A
102
}
330
2A
100
AcDbVisualStyle
  2
FlatWithEdges
 70
     1
 71
     2
 72
     1
 73
     1
 90
        2
 40
-0.6
 41
30.0
 62
     5
 63
     7
421
 16777215
 74
     1
 91
        4
 64
     7
 65
   257
 75
     1
175
     1
 42
1.0
 92
        0
 66
   257
 43
1.0
 76
     1
 77
     6
 78
     2
 67
     7
 79
     5
170
     0
171
     0
290
     0
174
     0
 93
       13
 44
0.0
173
     0
291
     1
 45
0.0
1001
ACAD
1000
AcDbSavedByObjectVersion
1070
     0
  0
VISUALSTYLE
  5
2D
102
{ACAD_REACTORS
330
2A
102
}
330
2A
100
AcDbVisualStyle
  2
Gouraud
 70
     2
 71
     2
 72
     2
 73
     1
 90
        2
 40
-0.6
 41
30.0
 62
     5
 63
     7
421
 16777215
 74
     0
 91
        4
 64
     7
 65
   257
 75
     1
175
     1
 42
1.0
 92
        0
 66
     7
 43
1.0
 76
     1
 77
     6
 78
     2
 67
     7
 79
     5
170
     0
171
     0
290
     0
174
     0
 93
       13
 44
0.0
173
     0
291
     1
 45
0.0
1001
ACAD
1000
AcDbSavedByObjectVersion
1070
     0
  0
VISUALSTYLE
  5
2E
102
{ACAD_REACTORS
330
2A
102
}
330
2A
100
AcDbVisualStyle
  2
GouraudWithEdges
 70
     3
 71
     2
 72
     2
 73
     1
 90
        2
 40
-0.6
 41
30.0
 62
     5
 63
     7
421
 16777215
 74
     1
 91
        4
 64
     7
 65
   257
 75
     1
175
     1
 42
1.0
 92
        0
 66
   257
 43
1.0
 76
     1
 77
     6
 78
     2
 67
     7
 79
     5
170
     0
171
     0
290
     0
174
     0
 93
       13
 44
0.0
173
     0
291
     1
 45
0.0
1001
ACAD
1000
AcDbSavedByObjectVersion
1070
     0
  0
VISUALSTYLE
  5
38
102
{ACAD_REACTORS
330
2A
102
}
330
2A
100
AcDbVisualStyle
  2
Linepattern
 70
    14
 71
     2
 72
     2
 73
     0
 90
        0
 40
-0.6
 41
-30.0
 62
     5
 63
     7
421
 16777215
 74
     1
 91
        4
 64
     7
 65
   257
 75
     7
175
     7
 42
1.0
 92
        8
 66
     7
 43
1.0
 76
     1
 77
     6
 78
     2
 67
     7
 79
     5
170
     0
171
     0
290
     0
174
     0
 93
        1
 44
0.0
173
     0
291
     1
 45
0.0
1001
ACAD
1000
AcDbSavedByObjectVersion
1070
     0
  0
VISUALSTYLE
  5
33
102
{ACAD_REACTORS
330
2A
102
}
330
2A
100
AcDbVisualStyle
  2
Realistic
 70
     8
 71
     2
 72
     2
 73
     0
 90
        0
 40
-0.6
 41
-30.0
 62
     5
 63
     7
421
 16777215
 74
     1
 91
        0
 64
     7
 65
   257
 75
     1
175
     1
 42
1.0
 92
        8
 66
     8
424
  7895160
 43
1.0
 76
     1
 77
     6
 78
     2
 67
     7
 79
     5
170
     0
171
     0
290
     0
174
     0
 93
       13
 44
0.0
173
     0
291
     0
 45
0.0
1001
ACAD
1000
AcDbSavedByObjectVersion
1070
     0
  0
VISUALSTYLE
  5
37
102
{ACAD_REACTORS
330
2A
102
}
330
2A
100
AcDbVisualStyle
  2
Thicken
 70
    13
 71
     2
 72
     2
 73
     0
 90
        0
 40
-0.6
 41
-30.0
 62
     5
 63
     7
421
 16777215
 74
     1
 91
        4
 64
     7
 65
   257
 75
     1
175
     1
 42
1.0
 92
       12
 66
     7
 43
1.0
 76
     1
 77
     6
 78
     2
 67
     7
 79
     5
170
     0
171
     0
290
     0
174
     0
 93
        1
 44
0.0
173
     0
291
     1
 45
0.0
1001
ACAD
1000
AcDbSavedByObjectVersion
1070
     0
  0
ENDSEC
  0
EOF
