  0
SECTION
  2
HEADER
  9
$ACADVER
  1
AC1018
  9
$ACADMAINTVER
 70
     0
  9
$DWGCODEPAGE
  3
ANSI_932
  9
$INSBASE
 10
0.0
 20
0.0
 30
0.0
  9
$EXTMIN
 10
-2100.0
 20
-1485.0
 30
0.0
  9
$EXTMAX
 10
2100.0
 20
1485.0
 30
0.0
  9
$LIMMIN
 10
-2100.0
 20
-1485.0
  9
$LIMMAX
 10
2100.0
 20
1485.0
  9
$ORTHOMODE
 70
     0
  9
$REGENMODE
 70
     1
  9
$FILLMODE
 70
     1
  9
$QTEXTMODE
 70
     0
  9
$MIRRTEXT
 70
     1
  9
$LTSCALE
 40
10.0
  9
$ATTMODE
 70
     1
  9
$TEXTSIZE
 40
2.5
  9
$TRACEWID
 40
1.0
  9
$TEXTSTYLE
  7
Standard
  9
$CLAYER
  8
0
  9
$CELTYPE
  6
ByLayer
  9
$CECOLOR
 62
   256
  9
$CELTSCALE
 40
1.0
  9
$DISPSILH
 70
     0
  9
$DIMSCALE
 40
1.0
  9
$DIMASZ
 40
2.5
  9
$DIMEXO
 40
0.625
  9
$DIMDLI
 40
3.75
  9
$DIMRND
 40
0.0
  9
$DIMDLE
 40
0.0
  9
$DIMEXE
 40
1.25
  9
$DIMTP
 40
0.0
  9
$DIMTM
 40
0.0
  9
$DIMTXT
 40
2.5
  9
$DIMCEN
 40
2.5
  9
$DIMTSZ
 40
0.0
  9
$DIMTOL
 70
     0
  9
$DIMLIM
 70
     0
  9
$DIMTIH
 70
     0
  9
$DIMTOH
 70
     0
  9
$DIMSE1
 70
     0
  9
$DIMSE2
 70
     0
  9
$DIMTAD
 70
     1
  9
$DIMZIN
 70
     8
  9
$DIMBLK
  1

  9
$DIMASO
 70
     1
  9
$DIMSHO
 70
     1
  9
$DIMPOST
  1

  9
$DIMAPOST
  1

  9
$DIMALT
 70
     0
  9
$DIMALTD
 70
     3
  9
$DIMALTF
 40
0.03937007874016
  9
$DIMLFAC
 40
1.0
  9
$DIMTOFL
 70
     1
  9
$DIMTVP
 40
0.0
  9
$DIMTIX
 70
     0
  9
$DIMSOXD
 70
     0
  9
$DIMSAH
 70
     0
  9
$DIMBLK1
  1

  9
$DIMBLK2
  1

  9
$DIMSTYLE
  2
ISO-25
  9
$DIMCLRD
 70
     0
  9
$DIMCLRE
 70
     0
  9
$DIMCLRT
 70
     0
  9
$DIMTFAC
 40
1.0
  9
$DIMGAP
 40
0.625
  9
$DIMJUST
 70
     0
  9
$DIMSD1
 70
     0
  9
$DIMSD2
 70
     0
  9
$DIMTOLJ
 70
     0
  9
$DIMTZIN
 70
     8
  9
$DIMALTZ
 70
     0
  9
$DIMALTTZ
 70
     0
  9
$DIMUPT
 70
     0
  9
$DIMDEC
 70
     2
  9
$DIMTDEC
 70
     2
  9
$DIMALTU
 70
     2
  9
$DIMALTTD
 70
     3
  9
$DIMTXSTY
  7
Standard
  9
$DIMAUNIT
 70
     0
  9
$DIMADEC
 70
     0
  9
$DIMALTRND
 40
0.0
  9
$DIMAZIN
 70
     0
  9
$DIMDSEP
 70
    44
  9
$DIMATFIT
 70
     3
  9
$DIMFRAC
 70
     0
  9
$DIMLDRBLK
  1

  9
$DIMLUNIT
 70
     2
  9
$DIMLWD
 70
    -2
  9
$DIMLWE
 70
    -2
  9
$DIMTMOVE
 70
     0
  9
$LUNITS
 70
     2
  9
$LUPREC
 70
     4
  9
$SKETCHINC
 40
1.0
  9
$FILLETRAD
 40
10.0
  9
$AUNITS
 70
     0
  9
$AUPREC
 70
     0
  9
$MENU
  1
.
  9
$ELEVATION
 40
0.0
  9
$PELEVATION
 40
0.0
  9
$THICKNESS
 40
0.0
  9
$LIMCHECK
 70
     0
  9
$CHAMFERA
 40
10.0
  9
$CHAMFERB
 40
10.0
  9
$CHAMFERC
 40
20.0
  9
$CHAMFERD
 40
0.0
  9
$SKPOLY
 70
     0
  9
$TDCREATE
 40
2456498.82232728
  9
$TDUCREATE
 40
2456498.44732728
  9
$TDUPDATE
 40
2456498.822327292
  9
$TDUUPDATE
 40
2456498.447327292
  9
$TDINDWG
 40
0.0000000116
  9
$TDUSRTIMER
 40
0.0000000116
  9
$USRTIMER
 70
     1
  9
$ANGBASE
 50
0.0
  9
$ANGDIR
 70
     0
  9
$PDMODE
 70
     0
  9
$PDSIZE
 40
0.0
  9
$PLINEWID
 40
0.0
  9
$SPLFRAME
 70
     0
  9
$SPLINETYPE
 70
     6
  9
$SPLINESEGS
 70
     8
  9
$HANDSEED
  5
42C
  9
$SURFTAB1
 70
     6
  9
$SURFTAB2
 70
     6
  9
$SURFTYPE
 70
     6
  9
$SURFU
 70
     6
  9
$SURFV
 70
     6
  9
$UCSBASE
  2

  9
$UCSNAME
  2

  9
$UCSORG
 10
0.0
 20
0.0
 30
0.0
  9
$UCSXDIR
 10
1.0
 20
0.0
 30
0.0
  9
$UCSYDIR
 10
0.0
 20
1.0
 30
0.0
  9
$UCSORTHOREF
  2

  9
$UCSORTHOVIEW
 70
     0
  9
$UCSORGTOP
 10
0.0
 20
0.0
 30
0.0
  9
$UCSORGBOTTOM
 10
0.0
 20
0.0
 30
0.0
  9
$UCSORGLEFT
 10
0.0
 20
0.0
 30
0.0
  9
$UCSORGRIGHT
 10
0.0
 20
0.0
 30
0.0
  9
$UCSORGFRONT
 10
0.0
 20
0.0
 30
0.0
  9
$UCSORGBACK
 10
0.0
 20
0.0
 30
0.0
  9
$PUCSBASE
  2

  9
$PUCSNAME
  2

  9
$PUCSORG
 10
0.0
 20
0.0
 30
0.0
  9
$PUCSXDIR
 10
1.0
 20
0.0
 30
0.0
  9
$PUCSYDIR
 10
0.0
 20
1.0
 30
0.0
  9
$PUCSORTHOREF
  2

  9
$PUCSORTHOVIEW
 70
     0
  9
$PUCSORGTOP
 10
0.0
 20
0.0
 30
0.0
  9
$PUCSORGBOTTOM
 10
0.0
 20
0.0
 30
0.0
  9
$PUCSORGLEFT
 10
0.0
 20
0.0
 30
0.0
  9
$PUCSORGRIGHT
 10
0.0
 20
0.0
 30
0.0
  9
$PUCSORGFRONT
 10
0.0
 20
0.0
 30
0.0
  9
$PUCSORGBACK
 10
0.0
 20
0.0
 30
0.0
  9
$USERI1
 70
     0
  9
$USERI2
 70
     0
  9
$USERI3
 70
     0
  9
$USERI4
 70
     0
  9
$USERI5
 70
     0
  9
$USERR1
 40
0.0
  9
$USERR2
 40
0.0
  9
$USERR3
 40
0.0
  9
$USERR4
 40
0.0
  9
$USERR5
 40
0.0
  9
$WORLDVIEW
 70
     1
  9
$SHADEDGE
 70
     3
  9
$SHADEDIF
 70
    70
  9
$TILEMODE
 70
     1
  9
$MAXACTVP
 70
    64
  9
$PINSBASE
 10
0.0
 20
0.0
 30
0.0
  9
$PLIMCHECK
 70
     0
  9
$PEXTMIN
 10
1.000000000000000E+20
 20
1.000000000000000E+20
 30
1.000000000000000E+20
  9
$PEXTMAX
 10
-1.000000000000000E+20
 20
-1.000000000000000E+20
 30
-1.000000000000000E+20
  9
$PLIMMIN
 10
0.0
 20
0.0
  9
$PLIMMAX
 10
420.0
 20
297.0
  9
$UNITMODE
 70
     0
  9
$VISRETAIN
 70
     1
  9
$PLINEGEN
 70
     0
  9
$PSLTSCALE
 70
     1
  9
$TREEDEPTH
 70
  3020
  9
$CMLSTYLE
  2
Standard
  9
$CMLJUST
 70
     0
  9
$CMLSCALE
 40
20.0
  9
$PROXYGRAPHICS
 70
     1
  9
$MEASUREMENT
 70
     1
  9
$CELWEIGHT
370
    -1
  9
$ENDCAPS
280
     0
  9
$JOINSTYLE
280
     0
  9
$LWDISPLAY
290
     0
  9
$INSUNITS
 70
     4
  9
$HYPERLINKBASE
  1

  9
$STYLESHEET
  1

  9
$XEDIT
290
     1
  9
$CEPSNTYPE
380
     0
  9
$PSTYLEMODE
290
     1
  9
$FINGERPRINTGUID
  2
{59A1545D-40B1-4DE6-A94B-A32052D82DAD}
  9
$VERSIONGUID
  2
{FAEB1C32-E019-11D5-929B-00C0DF256EC4}
  9
$EXTNAMES
290
     1
  9
$PSVPSCALE
 40
0.0
  9
$OLESTARTUP
290
     0
  9
$SORTENTS
280
   127
  9
$INDEXCTL
280
     0
  9
$HIDETEXT
280
     1
  9
$XCLIPFRAME
290
     0
  9
$HALOGAP
280
     0
  9
$OBSCOLOR
 70
   257
  9
$OBSLTYPE
280
     0
  9
$INTERSECTIONDISPLAY
280
     0
  9
$INTERSECTIONCOLOR
 70
   257
  9
$DIMASSOC
280
     2
  9
$PROJECTNAME
  1

  0
ENDSEC
  0
SECTION
  2
CLASSES
  0
CLASS
  1
ACDBDICTIONARYWDFLT
  2
AcDbDictionaryWithDefault
  3
ObjectDBX Classes
 90
        0
 91
        4
280
     0
281
     0
  0
CLASS
  1
VISUALSTYLE
  2
AcDbVisualStyle
  3
ObjectDBX Classes
 90
     4095
 91
        4
280
     0
281
     0
  0
ENDSEC
  0
SECTION
  2
TABLES
  0
TABLE
  2
VPORT
  5
8
330
0
100
AcDbSymbolTable
 70
     1
  0
VPORT
  5
29
330
8
100
AcDbSymbolTableRecord
100
AcDbViewportTableRecord
  2
*Active
 70
     0
 10
0.0
 20
0.0
 11
1.0
 21
1.0
 12
0.0
 22
0.0
 13
0.0
 23
0.0
 14
10.0
 24
10.0
 15
10.0
 25
10.0
 16
0.0
 26
0.0
 36
1.0
 17
0.0
 27
0.0
 37
0.0
 40
3267.0
 41
1.414141414141414
 42
50.0
 43
0.0
 44
0.0
 50
0.0
 51
0.0
 71
     0
 72
 10000
 73
     1
 74
     3
 75
     0
 76
     0
 77
     0
 78
     0
281
     0
 65
     1
110
0.0
120
0.0
130
0.0
111
1.0
121
0.0
131
0.0
112
0.0
122
1.0
132
0.0
 79
     0
146
0.0
  0
ENDTAB
  0
TABLE
  2
LTYPE
  5
5
330
0
100
AcDbSymbolTable
 70
     3
  0
LTYPE
  5
14
330
5
100
AcDbSymbolTableRecord
100
AcDbLinetypeTableRecord
  2
ByBlock
 70
     0
  3

 72
    65
 73
     0
 40
0.0
  0
LTYPE
  5
15
330
5
100
AcDbSymbolTableRecord
100
AcDbLinetypeTableRecord
  2
ByLayer
 70
     0
  3

 72
    65
 73
     0
 40
0.0
  0
LTYPE
  5
16
330
5
100
AcDbSymbolTableRecord
100
AcDbLinetypeTableRecord
  2
Continuous
 70
     0
  3
Solid line
 72
    65
 73
     0
 40
0.0
  0
LTYPE
  5
3C
330
5
100
AcDbSymbolTableRecord
100
AcDbLinetypeTableRecord
  2
JWW_CENTER1
 70
     0
  3
-----  --  ----------  --  -----
 72
    65
 73
     4
 40
6.773333333333333
 49
4.233333333333333
 74
     0
 49
-0.8466666666666667
 74
     0
 49
0.8466666666666667
 74
     0
 49
-0.8466666666666667
 74
     0
  0
LTYPE
  5
3D
330
5
100
AcDbSymbolTableRecord
100
AcDbLinetypeTableRecord
  2
JWW_DASHED1
 70
     0
  3
-  --  --  --  --  --  --  --  -
 72
    65
 73
     2
 40
1.693333333333333
 49
0.8466666666666667
 74
     0
 49
-0.8466666666666667
 74
     0
  0
ENDTAB
  0
TABLE
  2
LAYER
  5
2
330
0
100
AcDbSymbolTable
 70
     9
  0
LAYER
  5
10
330
2
100
AcDbSymbolTableRecord
100
AcDbLayerTableRecord
  2
0
 70
     0
 62
     7
  6
Continuous
370
    -3
390
F
  0
LAYER
  5
3E
330
2
100
AcDbSymbolTableRecord
100
AcDbLayerTableRecord
  2
0-1_ピット
 70
     0
 62
     7
  6
Continuous
370
    -3
390
F
  0
LAYER
  5
3F
330
2
100
AcDbSymbolTableRecord
100
AcDbLayerTableRecord
  2
0-0_通り芯
 70
     0
 62
     7
  6
Continuous
370
    -3
390
F
  0
LAYER
  5
40
330
2
100
AcDbSymbolTableRecord
100
AcDbLayerTableRecord
  2
0-4_寸法
 70
     0
 62
     7
  6
Continuous
370
    -3
390
F
  0
LAYER
  5
41
330
2
100
AcDbSymbolTableRecord
100
AcDbLayerTableRecord
  2
0-5_文字
 70
     0
 62
     7
  6
Continuous
370
    -3
390
F
  0
LAYER
  5
42
330
2
100
AcDbSymbolTableRecord
100
AcDbLayerTableRecord
  2
0-3_受枠
 70
     0
 62
     7
  6
Continuous
370
    -3
390
F
  0
LAYER
  5
43
330
2
100
AcDbSymbolTableRecord
100
AcDbLayerTableRecord
  2
0-2_本体（蓋）
 70
     0
 62
     7
  6
Continuous
370
    -3
390
F
  0
LAYER
  5
44
330
2
100
AcDbSymbolTableRecord
100
AcDbLayerTableRecord
  2
0-A
 70
     0
 62
     7
  6
Continuous
370
    -3
390
F
  0
LAYER
  5
45
330
2
100
AcDbSymbolTableRecord
100
AcDbLayerTableRecord
  2
F-4ﾚｲﾔ
 70
     0
 62
     7
  6
Continuous
370
    -3
390
F
  0
ENDTAB
  0
TABLE
  2
STYLE
  5
3
330
0
100
AcDbSymbolTable
 70
     2
  0
STYLE
  5
11
330
3
100
AcDbSymbolTableRecord
100
AcDbTextStyleTableRecord
  2
Standard
 70
     0
 40
0.0
 41
1.0
 50
0.0
 71
     0
 42
2.5
  3
txt
  4

1001
ACAD
1000

1071
        0
  0
STYLE
  5
3B
330
3
100
AcDbSymbolTableRecord
100
AcDbTextStyleTableRecord
  2
ＭＳ ゴシック
 70
     0
 40
1.0
 41
1.0
 50
0.0
 71
     0
 42
10.0
  3

  4

1001
ACAD
1000
MS Gothic
1071
    32817
  0
ENDTAB
  0
TABLE
  2
VIEW
  5
6
330
0
100
AcDbSymbolTable
 70
     0
  0
ENDTAB
  0
TABLE
  2
UCS
  5
7
330
0
100
AcDbSymbolTable
 70
     0
  0
ENDTAB
  0
TABLE
  2
APPID
  5
9
330
0
100
AcDbSymbolTable
 70
     1
  0
APPID
  5
12
330
9
100
AcDbSymbolTableRecord
100
AcDbRegAppTableRecord
  2
ACAD
 70
     0
  0
ENDTAB
  0
TABLE
  2
DIMSTYLE
  5
A
330
0
100
AcDbSymbolTable
 70
     1
100
AcDbDimStyleTable
  0
DIMSTYLE
105
27
330
A
100
AcDbSymbolTableRecord
100
AcDbDimStyleTableRecord
  2
ISO-25
 70
     0
 41
2.5
 42
0.625
 43
3.75
 44
1.25
 73
     0
 74
     0
 77
     1
 78
     8
140
2.5
141
2.5
143
0.03937007874016
147
0.625
171
     3
172
     1
271
     2
272
     2
274
     3
278
    44
283
     0
284
     8
340
11
  0
ENDTAB
  0
TABLE
  2
BLOCK_RECORD
  5
1
330
0
100
AcDbSymbolTable
 70
     1
  0
BLOCK_RECORD
  5
1F
330
1
100
AcDbSymbolTableRecord
100
AcDbBlockTableRecord
  2
*Model_Space
340
22
  0
BLOCK_RECORD
  5
1B
330
1
100
AcDbSymbolTableRecord
100
AcDbBlockTableRecord
  2
*Paper_Space
340
1E
  0
BLOCK_RECORD
  5
23
330
1
100
AcDbSymbolTableRecord
100
AcDbBlockTableRecord
  2
*Paper_Space0
340
26
  0
ENDTAB
  0
ENDSEC
  0
SECTION
  2
BLOCKS
  0
BLOCK
  5
20
330
1F
100
AcDbEntity
  8
0
100
AcDbBlockBegin
  2
*Model_Space
 70
     0
 10
0.0
 20
0.0
 30
0.0
  3
*Model_Space
  1

  0
ENDBLK
  5
21
330
1F
100
AcDbEntity
  8
0
100
AcDbBlockEnd
  0
BLOCK
  5
1C
330
1B
100
AcDbEntity
 67
     1
  8
0
100
AcDbBlockBegin
  2
*Paper_Space
 70
     0
 10
0.0
 20
0.0
 30
0.0
  3
*Paper_Space
  1

  0
ENDBLK
  5
1D
330
1B
100
AcDbEntity
 67
     1
  8
0
100
AcDbBlockEnd
  0
BLOCK
  5
24
330
23
100
AcDbEntity
  8
0
100
AcDbBlockBegin
  2
*Paper_Space0
 70
     0
 10
0.0
 20
0.0
 30
0.0
  3
*Paper_Space0
  1

  0
ENDBLK
  5
25
330
23
100
AcDbEntity
  8
0
100
AcDbBlockEnd
  0
ENDSEC
  0
SECTION
  2
ENTITIES
  0
LINE
  5
46
330
1F
100
AcDbEntity
  8
0-1_ピット
  6
Continuous
 62
     2
370
    13
100
AcDbLine
 10
-135.7418447802318
 20
-112.2322532576686
 30
0.0
 11
-130.7465296408738
 21
-78.89901615093294
 31
0.0
  0
ARC
  5
47
330
1F
100
AcDbEntity
  8
0-1_ピット
  6
Continuous
 62
     2
370
    13
100
AcDbCircle
 10
-63.36507805989825
 20
-109.1941871153546
 30
0.0
 40
10.00000012887491
100
AcDbArc
 50
187.4526062011719
 51
255.0001983642578
  0
LINE
  5
48
330
1F
100
AcDbEntity
  8
0-1_ピット
  6
Continuous
 62
     2
370
    13
100
AcDbLine
 10
-73.28048663253341
 20
-110.491266665608
 30
0.0
 11
-77.41322655018521
 21
-78.89901615093294
 31
0.0
  0
LINE
  5
49
330
1F
100
AcDbEntity
  8
0-1_ピット
  6
Continuous
 62
     2
370
    13
100
AcDbLine
 10
-92.4084509616084
 20
-102.2322202656923
 30
0.0
 11
-92.4084509616084
 21
-98.89895841497435
 31
0.0
  0
LINE
  5
4A
330
1F
100
AcDbEntity
  8
0-1_ピット
  6
Continuous
 62
     2
370
    13
100
AcDbLine
 10
-77.41322655018521
 20
-78.89901615093294
 30
0.0
 11
-89.07506539097923
 21
-78.89901615093294
 31
0.0
  0
LINE
  5
4B
330
1F
100
AcDbEntity
  8
0-1_ピット
  6
Continuous
 62
     2
370
    13
100
AcDbLine
 10
-92.4084509616084
 20
-102.2322202656923
 30
0.0
 11
-102.4083602336735
 21
-108.0058573671491
 31
0.0
  0
LINE
  5
4C
330
1F
100
AcDbEntity
  8
0-1_ピット
  6
Continuous
 62
     2
370
    13
100
AcDbLine
 10
-112.4083932256498
 20
-102.2322202656923
 30
0.0
 11
-92.4084509616084
 21
-102.2322202656923
 31
0.0
  0
LINE
  5
4D
330
1F
100
AcDbEntity
  8
0-1_ピット
  6
Continuous
 62
     2
370
    13
100
AcDbLine
 10
-112.4083932256498
 20
-102.2322202656923
 30
0.0
 11
-112.4083932256498
 21
-98.89895841497435
 31
0.0
  0
LINE
  5
4E
330
1F
100
AcDbEntity
  8
0-1_ピット
  6
Continuous
 62
     2
370
    13
100
AcDbLine
 10
-112.4083932256498
 20
-102.2322202656923
 30
0.0
 11
-102.4083602336735
 21
-108.0058573671491
 31
0.0
  0
LINE
  5
4F
330
1F
100
AcDbEntity
  8
0-1_ピット
  6
Continuous
 62
     2
370
    13
100
AcDbLine
 10
-115.741778796279
 20
-78.89901615093294
 30
0.0
 11
-130.7465296408738
 21
-78.89901615093294
 31
0.0
  0
ARC
  5
50
330
1F
100
AcDbEntity
  8
0-0_通り芯
  6
Continuous
 62
     3
370
    13
100
AcDbCircle
 10
-28.00902040312053
 20
-241.7536386567399
 30
0.0
 40
3.333333376291636
100
AcDbArc
 50
90.0
 51
168.6900634765625
  0
ARC
  5
51
330
1F
100
AcDbEntity
  8
0-0_通り芯
  6
Continuous
 62
     3
370
    13
100
AcDbCircle
 10
-12.24153630525294
 20
-241.7536386567399
 30
0.0
 40
3.333333376291636
100
AcDbArc
 50
5.843490600585949
 51
90.00000000000001
  0
ARC
  5
52
330
1F
100
AcDbEntity
  8
0-0_通り芯
  6
Continuous
 62
     3
370
    13
100
AcDbCircle
 10
-30.54639206433251
 20
-161.1248775714357
 30
0.0
 40
6.666666752583272
100
AcDbArc
 50
5.843795776367175
 51
75.00050354003906
  0
ARC
  5
53
330
1F
100
AcDbEntity
  8
0-0_通り芯
  6
Continuous
 62
     3
370
    13
100
AcDbCircle
 10
424.0913725313177
 20
-241.7536386567399
 30
0.0
 40
3.333333376291636
100
AcDbArc
 50
90.0
 51
174.1565093994141
  0
ARC
  5
54
330
1F
100
AcDbEntity
  8
0-0_通り芯
  6
Continuous
 62
     3
370
    13
100
AcDbCircle
 10
442.3962282903972
 20
-161.1248775714357
 30
0.0
 40
6.666666752583272
100
AcDbArc
 50
104.9994964599609
 51
174.1562042236328
  0
ARC
  5
55
330
1F
100
AcDbEntity
  8
0-0_通り芯
  6
Continuous
 62
     3
370
    13
100
AcDbCircle
 10
-162.7992656654727
 20
-108.4204427899745
 30
0.0
 40
3.333333376291636
100
AcDbArc
 50
79.95382690429689
 51
172.8756713867188
  0
ARC
  5
56
330
1F
100
AcDbEntity
  8
0-0_通り芯
  6
Continuous
 62
     3
370
    13
100
AcDbCircle
 10
574.6491018915376
 20
-108.4204427899745
 30
0.0
 40
3.333333376291636
100
AcDbArc
 50
7.124267578125002
 51
100.0419769287109
  0
ARC
  5
57
330
1F
100
AcDbEntity
  8
0-0_通り芯
  6
JWW_CENTER1
 62
     3
370
    13
100
AcDbCircle
 10
-117.329228978395
 20
-231.7539768244973
 30
0.0
 40
16.66666688145818
100
AcDbArc
 50
270.0
 51
0.0
  0
ARC
  5
58
330
1F
100
AcDbEntity
  8
0-0_通り芯
  6
Continuous
 62
     3
370
    13
100
AcDbCircle
 10
-117.3287340987497
 20
-231.7539768244973
 30
0.0
 40
26.66666701033309
100
AcDbArc
 50
270.0
 51
0.0
  0
ARC
  5
59
330
1F
100
AcDbEntity
  8
0-0_通り芯
  6
Continuous
 62
     3
370
    13
100
AcDbCircle
 10
-117.3287340987497
 20
-231.7539768244973
 30
0.0
 40
6.666666752583272
100
AcDbArc
 50
270.0
 51
0.0
  0
ARC
  5
5A
330
1F
100
AcDbEntity
  8
0-0_通り芯
  6
JWW_CENTER1
 62
     3
370
    13
100
AcDbCircle
 10
455.5563152572469
 20
-154.1475694527701
 30
0.0
 40
3.333333376291636
100
AcDbArc
 50
105.0001220703125
 51
171.2803649902344
  0
ARC
  5
5B
330
1F
100
AcDbEntity
  8
0-0_通り芯
  6
Continuous
 62
     3
370
    13
100
AcDbCircle
 10
-128.684861038678
 20
-133.1033074172971
 30
0.0
 40
5.000000064437453
100
AcDbArc
 50
7.92385864257814
 51
74.99952697753908
  0
ARC
  5
5C
330
1F
100
AcDbEntity
  8
0-0_通り芯
  6
Continuous
 62
     3
370
    13
100
AcDbCircle
 10
-73.45295218891025
 20
-158.2553179483359
 30
0.0
 40
5.000000064437453
100
AcDbArc
 50
74.9998779296875
 51
165.0922546386718
  0
ARC
  5
5D
330
1F
100
AcDbEntity
  8
0-0_通り芯
  6
Continuous
 62
     3
370
    13
100
AcDbCircle
 10
-87.83873231718303
 20
-173.4204097979982
 30
0.0
 40
5.000000064437453
100
AcDbArc
 50
270.0
 51
345.0924377441406
  0
ARC
  5
5E
330
1F
100
AcDbEntity
  8
0-0_通り芯
  6
Continuous
 62
     3
370
    13
100
AcDbCircle
 10
-112.9768862181544
 20
-173.4204097979982
 30
0.0
 40
5.000000064437453
100
AcDbArc
 50
187.9238586425782
 51
270.0
  0
ARC
  5
5F
330
1F
100
AcDbEntity
  8
0-0_通り芯
  6
Continuous
 62
     3
370
    13
100
AcDbCircle
 10
-17.1284728022971
 20
-161.2691349880321
 30
0.0
 40
16.66666688145818
100
AcDbArc
 50
42.13740539550782
 51
75.00054931640626
  0
ARC
  5
60
330
1F
100
AcDbEntity
  8
0-0_通り芯
  6
Continuous
 62
     3
370
    13
100
AcDbCircle
 10
428.9783090283618
 20
-161.2691349880321
 30
0.0
 40
16.66666688145818
100
AcDbArc
 50
104.9995574951173
 51
174.1562957763672
  0
ARC
  5
61
330
1F
100
AcDbEntity
  8
0-0_通り芯
  6
JWW_DASHED1
 62
     3
370
    13
100
AcDbCircle
 10
10.51265862453988
 20
-169.4279682597802
 30
0.0
 40
10.00000012887491
100
AcDbArc
 50
185.8437957763672
 51
263.6698455810547
  0
ARC
  5
62
330
1F
100
AcDbEntity
  8
0-0_通り芯
  6
Continuous
 62
     3
370
    13
100
AcDbCircle
 10
401.337301321436
 20
-169.4279682597802
 30
0.0
 40
10.00000012887491
100
AcDbArc
 50
276.3301544189453
 51
354.1562042236328
  0
ARC
  5
63
330
1F
100
AcDbEntity
  8
0-0_通り芯
  6
Continuous
 62
     3
370
    13
100
AcDbCircle
 10
-89.14249274264762
 20
-143.6986806225336
 30
0.0
 40
5.000000064437453
100
AcDbArc
 50
191.561996459961
 51
255.0001983642579
  0
ARC
  5
64
330
1F
100
AcDbEntity
  8
0-0_通り芯
  6
Continuous
 62
     3
370
    13
100
AcDbCircle
 10
-12.24166002516441
 20
-241.7538860965624
 30
0.0
 40
3.333333376291636
100
AcDbArc
 50
5.843872070312501
 51
90.0
  0
ARC
  5
65
330
1F
100
AcDbEntity
  8
0-0_通り芯
  6
Continuous
 62
     3
370
    13
100
AcDbCircle
 10
3.610572211955514
 20
-298.4203273180573
 30
0.0
 40
6.666666752583272
100
AcDbArc
 50
185.8438720703125
 51
270.0
  0
ARC
  5
66
330
1F
100
AcDbEntity
  8
0-0_通り芯
  6
Continuous
 62
     3
370
    13
100
AcDbCircle
 10
408.2393877340206
 20
-298.4203273180573
 30
0.0
 40
6.666666752583272
100
AcDbArc
 50
270.0
 51
354.1561279296875
  0
ARC
  5
67
330
1F
100
AcDbEntity
  8
0-0_通り芯
  6
Continuous
 62
     3
370
    13
100
AcDbCircle
 10
-89.14236902273615
 20
-143.6989280623563
 30
0.0
 40
5.000000064437453
100
AcDbArc
 50
191.5662841796875
 51
239.3083190917969
  0
ARC
  5
68
330
1F
100
AcDbEntity
  8
0-0_通り芯
  6
JWW_DASHED1
 62
     3
370
    13
100
AcDbCircle
 10
-89.14236902273615
 20
-143.6989280623563
 30
0.0
 40
5.000000064437453
100
AcDbArc
 50
239.3083190917969
 51
255.0012817382812
  0
ARC
  5
69
330
1F
100
AcDbEntity
  8
0-0_通り芯
  6
Continuous
 62
     3
370
    13
100
AcDbCircle
 10
385.2354023032774
 20
-186.3063334413681
 30
0.0
 40
5.000000064437453
100
AcDbArc
 50
96.32884216308595
 51
170.5376739501953
  0
ARC
  5
6A
330
1F
100
AcDbEntity
  8
0-0_通り芯
  6
Continuous
 62
     3
370
    13
100
AcDbCircle
 10
468.5043462960982
 20
-152.4038610226603
 30
0.0
 40
5.000000064437453
100
AcDbArc
 50
221.5634918212891
 51
284.9987182617188
  0
ARC
  5
6B
330
1F
100
AcDbEntity
  8
0-0_通り芯
  6
Continuous
 62
     3
370
    13
100
AcDbCircle
 10
500.9922052488008
 20
-143.6989280623563
 30
0.0
 40
5.000000064437453
100
AcDbArc
 50
284.9987182617188
 51
348.4337158203125
  0
ARC
  5
6C
330
1F
100
AcDbEntity
  8
0-0_通り芯
  6
Continuous
 62
     3
370
    13
100
AcDbCircle
 10
457.1414147610474
 20
-157.1740059234206
 30
0.0
 40
6.666666752583272
100
AcDbArc
 50
41.56492614746094
 51
105.000244140625
  0
ARC
  5
6D
330
1F
100
AcDbEntity
  8
0-0_通り芯
  6
Continuous
 62
     3
370
    13
100
AcDbCircle
 10
513.2177120055576
 20
-142.1482226939018
 30
0.0
 40
6.666666752583272
100
AcDbArc
 50
104.9994964599609
 51
168.4337921142578
  0
ARC
  5
6E
330
1F
100
AcDbEntity
  8
0-0_通り芯
  6
Continuous
 62
     3
370
    13
100
AcDbCircle
 10
448.8764298053889
 20
-136.5261424838091
 30
0.0
 40
5.416692108721347
100
AcDbArc
 50
217.6192626953125
 51
352.3794097900391
  0
ARC
  5
6F
330
1F
100
AcDbEntity
  8
0-0_通り芯
  6
Continuous
 62
     3
370
    13
100
AcDbCircle
 10
529.3705836271793
 20
-114.9578029039948
 30
0.0
 40
5.416692108721347
100
AcDbArc
 50
217.6203002929688
 51
352.3807067871094
  0
ARC
  5
70
330
1F
100
AcDbEntity
  8
0-0_通り芯
  6
Continuous
 62
     3
370
    13
100
AcDbCircle
 10
498.9547857492232
 20
-128.715704482331
 30
0.0
 40
3.333333376291636
100
AcDbArc
 50
104.9992218017578
 51
168.4335784912109
  0
ARC
  5
71
330
1F
100
AcDbEntity
  8
0-0_通り芯
  6
Continuous
 62
     3
370
    13
100
AcDbCircle
 10
510.0519669147639
 20
-120.1342439935217
 30
0.0
 40
5.416692108721347
100
AcDbArc
 50
217.62109375
 51
352.3794097900391
  0
ARC
  5
72
330
1F
100
AcDbEntity
  8
0-0_通り芯
  6
Continuous
 62
     3
370
    13
100
AcDbCircle
 10
489.5812703881592
 20
-132.9523691254899
 30
0.0
 40
5.000000064437453
100
AcDbArc
 50
285.0000915527344
 51
348.4351043701172
  0
ARC
  5
73
330
1F
100
AcDbEntity
  8
0-0_通り芯
  6
Continuous
 62
     3
370
    13
100
AcDbCircle
 10
473.0131947441558
 20
-137.3919344232092
 30
0.0
 40
5.000000064437453
100
AcDbArc
 50
221.5644226074219
 51
285.0000915527344
  0
ARC
  5
74
330
1F
100
AcDbEntity
  8
0-0_通り芯
  6
Continuous
 62
     3
370
    13
100
AcDbCircle
 10
551.608495367044
 20
-162.919806044831
 30
0.0
 40
36.66666133983715
100
AcDbArc
 50
58.20979309082032
 51
105.0000305175781
  0
ARC
  5
75
330
1F
100
AcDbEntity
  8
0-0_通り芯
  6
JWW_DASHED1
 62
     3
370
    13
100
AcDbCircle
 10
26.61455764269874
 20
-186.3063334413681
 30
0.0
 40
5.000000064437453
100
AcDbArc
 50
9.462326049804688
 51
83.67115783691406
  0
ARC
  5
76
330
1F
100
AcDbEntity
  8
0-0_通り芯
  6
Continuous
 62
     3
370
    13
100
AcDbCircle
 10
-56.65451007003355
 20
-152.4038610226603
 30
0.0
 40
5.000000064437453
100
AcDbArc
 50
255.0012817382812
 51
318.4365081787109
  0
ARC
  5
77
330
1F
100
AcDbEntity
  8
0-0_通り芯
  6
Continuous
 62
     3
370
    13
100
AcDbCircle
 10
-45.29182597480542
 20
-157.1740059234206
 30
0.0
 40
6.666666752583272
100
AcDbArc
 50
74.999755859375
 51
138.4350738525391
  0
ARC
  5
78
330
1F
100
AcDbEntity
  8
0-0_通り芯
  6
Continuous
 62
     3
370
    13
100
AcDbCircle
 10
-101.3681232193154
 20
-142.1482226939018
 30
0.0
 40
6.666666752583272
100
AcDbArc
 50
11.56620788574219
 51
75.00050354003906
  0
ARC
  5
79
330
1F
100
AcDbEntity
  8
0-0_通り芯
  6
Continuous
 62
     3
370
    13
100
AcDbCircle
 10
-37.02659357932419
 20
-136.5261424838091
 30
0.0
 40
5.416692108721347
100
AcDbArc
 50
187.620590209961
 51
322.3807373046876
  0
ARC
  5
7A
330
1F
100
AcDbEntity
  8
0-0_通り芯
  6
Continuous
 62
     3
370
    13
100
AcDbCircle
 10
-117.5208711210259
 20
-114.9580503438175
 30
0.0
 40
5.416692108721347
100
AcDbArc
 50
187.6192932128906
 51
322.3796997070312
  0
ARC
  5
7B
330
1F
100
AcDbEntity
  8
0-0_通り芯
  6
Continuous
 62
     3
370
    13
100
AcDbCircle
 10
-50.92751537514346
 20
-138.4091595340622
 30
0.0
 40
3.333333376291636
100
AcDbArc
 50
75.00022888183594
 51
138.4349822998047
  0
ARC
  5
7C
330
1F
100
AcDbEntity
  8
0-0_通り芯
  6
Continuous
 62
     3
370
    13
100
AcDbCircle
 10
-87.1047020833359
 20
-128.715704482331
 30
0.0
 40
3.333333376291636
100
AcDbArc
 50
11.56642150878906
 51
75.00077819824219
  0
ARC
  5
7D
330
1F
100
AcDbEntity
  8
0-0_通り芯
  6
Continuous
 62
     3
370
    13
100
AcDbCircle
 10
-98.20213068869919
 20
-120.1342439935217
 30
0.0
 40
5.416692108721347
100
AcDbArc
 50
187.620590209961
 51
322.37890625
  0
ARC
  5
7E
330
1F
100
AcDbEntity
  8
0-0_通り芯
  6
Continuous
 62
     3
370
    13
100
AcDbCircle
 10
-77.73168160191688
 20
-132.9523691254899
 30
0.0
 40
5.000000064437453
100
AcDbArc
 50
191.5648956298828
 51
254.9999084472656
  0
ARC
  5
7F
330
1F
100
AcDbEntity
  8
0-0_通り芯
  6
Continuous
 62
     3
370
    13
100
AcDbCircle
 10
-61.16360595791377
 20
-137.3919344232092
 30
0.0
 40
5.000000064437453
100
AcDbArc
 50
254.9999084472656
 51
318.4355773925781
  0
ARC
  5
80
330
1F
100
AcDbEntity
  8
0-0_通り芯
  6
Continuous
 62
     3
370
    13
100
AcDbCircle
 10
-139.7586591409794
 20
-162.919806044831
 30
0.0
 40
36.66666133983715
100
AcDbArc
 50
74.99996948242188
 51
121.7902069091797
  0
LINE
  5
81
330
1F
100
AcDbEntity
  8
0-0_通り芯
  6
Continuous
 62
     3
370
    13
100
AcDbLine
 10
-31.27770046013069
 20
-241.0999026453378
 30
0.0
 11
-34.07513137493211
 21
-255.0870572193452
 31
0.0
  0
LINE
  5
82
330
1F
100
AcDbEntity
  8
0-0_通り芯
  6
Continuous
 62
     3
370
    13
100
AcDbLine
 10
-54.10823057520673
 20
-156.7069632581966
 30
0.0
 11
-44.07516436690855
 21
-255.0870572193452
 31
0.0
  0
LINE
  5
83
330
1F
100
AcDbEntity
  8
0-0_通り芯
  6
Continuous
 62
     3
370
    13
100
AcDbLine
 10
-52.91359111152417
 20
-155.7212867247296
 30
0.0
 11
-50.2797179194846
 21
-152.7510190938175
 31
0.0
  0
LINE
  5
84
330
1F
100
AcDbEntity
  8
0-0_通り芯
  6
Continuous
 62
     3
370
    13
100
AcDbLine
 10
-90.43623185529526
 20
-148.5282110807263
 30
0.0
 11
-57.94862034241532
 21
-157.2333914808529
 31
0.0
  0
LINE
  5
85
330
1F
100
AcDbEntity
  8
0-0_通り芯
  6
Continuous
 62
     3
370
    13
100
AcDbLine
 10
-44.07516436690855
 20
-255.0870572193452
 30
0.0
 11
-34.07513137493211
 21
-255.0870572193452
 31
0.0
  0
LINE
  5
86
330
1F
100
AcDbEntity
  8
0-0_通り芯
  6
Continuous
 62
     3
370
    13
100
AcDbLine
 10
-8.925595242119613
 20
-241.4143986599071
 30
0.0
 11
-3.021557354134075
 21
-299.0993021913681
 31
0.0
  0
LINE
  5
87
330
1F
100
AcDbEntity
  8
0-0_通り芯
  6
Continuous
 62
     3
370
    13
100
AcDbLine
 10
-28.82099418109775
 20
-154.6847613077109
 30
0.0
 11
-43.56618065174814
 21
-150.734384539341
 31
0.0
  0
LINE
  5
88
330
1F
100
AcDbEntity
  8
0-0_通り芯
  6
Continuous
 62
     3
370
    13
100
AcDbLine
 10
-23.91426249824292
 20
-160.4460264180362
 30
0.0
 11
-15.93358589879188
 21
-238.4203768060217
 31
0.0
  0
LINE
  5
89
330
1F
100
AcDbEntity
  8
0-0_通り芯
  6
Continuous
 62
     3
370
    13
100
AcDbLine
 10
440.6708304071623
 20
-154.6852561873563
 30
0.0
 11
455.4162643176355
 21
-150.734384539341
 31
0.0
  0
LINE
  5
8A
330
1F
100
AcDbEntity
  8
0-0_通り芯
  6
Continuous
 62
     3
370
    13
100
AcDbLine
 10
435.7640987243076
 20
-160.4460264180362
 30
0.0
 11
427.7834221248565
 21
-238.4203768060217
 31
0.0
  0
LINE
  5
8B
330
1F
100
AcDbEntity
  8
0-0_通り芯
  6
Continuous
 62
     3
370
    13
100
AcDbLine
 10
427.7834221248565
 20
-238.4203768060217
 30
0.0
 11
424.0913725313177
 21
-238.4203768060217
 31
0.0
  0
LINE
  5
8C
330
1F
100
AcDbEntity
  8
0-0_通り芯
  6
Continuous
 62
     3
370
    13
100
AcDbLine
 10
420.7754314681844
 20
-241.4143986599071
 30
0.0
 11
414.8712698602873
 21
-299.0993021913681
 31
0.0
  0
LINE
  5
8D
330
1F
100
AcDbEntity
  8
0-0_通り芯
  6
Continuous
 62
     3
370
    13
100
AcDbLine
 10
-162.21778208228
 20
-105.1381535427196
 30
0.0
 11
-122.8895729527405
 21
-115.6761207091046
 31
0.0
  0
LINE
  5
8E
330
1F
100
AcDbEntity
  8
0-0_通り芯
  6
Continuous
 62
     3
370
    13
100
AcDbLine
 10
574.0678657481675
 20
-105.1381535427196
 30
0.0
 11
534.7395328987164
 21
-115.6761207091046
 31
0.0
  0
LINE
  5
8F
330
1F
100
AcDbEntity
  8
0-0_通り芯
  6
Continuous
 62
     3
370
    13
100
AcDbLine
 10
-108.5291554062877
 20
-155.0870984593156
 30
0.0
 11
-92.79594172385544
 21
-155.0870984593156
 31
0.0
  0
LINE
  5
90
330
1F
100
AcDbEntity
  8
0-0_通り芯
  6
JWW_CENTER1
 62
     3
370
    13
100
AcDbLine
 10
-100.6625485650716
 20
-231.7539768244973
 30
0.0
 11
-100.6625485650716
 21
-151.6833162591467
 31
0.0
  0
LINE
  5
91
330
1F
100
AcDbEntity
  8
0-0_通り芯
  6
Continuous
 62
     3
370
    13
100
AcDbLine
 10
-111.2455497791763
 20
-178.4204262939863
 30
0.0
 11
-112.9768862181544
 21
-178.4204262939863
 31
0.0
  0
LINE
  5
92
330
1F
100
AcDbEntity
  8
0-0_通り芯
  6
Continuous
 62
     3
370
    13
100
AcDbLine
 10
-87.83873231718303
 20
-178.4204262939863
 30
0.0
 11
-90.07905247132157
 21
-178.4204262939863
 31
0.0
  0
LINE
  5
93
330
1F
100
AcDbEntity
  8
0-0_通り芯
  6
Continuous
 62
     3
370
    13
100
AcDbLine
 10
-90.07905247132157
 20
-188.4204592859628
 30
0.0
 11
-111.2455497791763
 21
-188.4204592859628
 31
0.0
  0
LINE
  5
94
330
1F
100
AcDbEntity
  8
0-0_通り芯
  6
Continuous
 62
     3
370
    13
100
AcDbLine
 10
-111.2455497791763
 20
-188.4204592859628
 30
0.0
 11
-111.2455497791763
 21
-157.7537574278546
 31
0.0
  0
LINE
  5
95
330
1F
100
AcDbEntity
  8
0-0_通り芯
  6
Continuous
 62
     3
370
    13
100
AcDbLine
 10
-90.07905247132157
 20
-188.4204592859628
 30
0.0
 11
-90.07905247132157
 21
-157.7537574278546
 31
0.0
  0
LINE
  5
96
330
1F
100
AcDbEntity
  8
0-0_通り芯
  6
Continuous
 62
     3
370
    13
100
AcDbLine
 10
-92.79594172385544
 20
-188.4204592859628
 30
0.0
 11
-92.79594172385544
 21
-155.0870984593156
 31
0.0
  0
LINE
  5
97
330
1F
100
AcDbEntity
  8
0-0_通り芯
  6
Continuous
 62
     3
370
    13
100
AcDbLine
 10
-108.5291554062877
 20
-188.4204592859628
 30
0.0
 11
-108.5291554062877
 21
-155.0870984593156
 31
0.0
  0
LINE
  5
98
330
1F
100
AcDbEntity
  8
0-0_通り芯
  6
Continuous
 62
     3
370
    13
100
AcDbLine
 10
-110.6620866774026
 20
-231.7539768244973
 30
0.0
 11
-110.6620866774026
 21
-188.4204592859628
 31
0.0
  0
LINE
  5
99
330
1F
100
AcDbEntity
  8
0-0_通り芯
  6
JWW_CENTER1
 62
     3
370
    13
100
AcDbLine
 10
-117.329228978395
 20
-248.4204097979982
 30
0.0
 11
-153.9956042159372
 21
-248.4204097979982
 31
0.0
  0
LINE
  5
9A
330
1F
100
AcDbEntity
  8
0-0_通り芯
  6
Continuous
 62
     3
370
    13
100
AcDbLine
 10
-117.3287340987497
 20
-258.4204427899745
 30
0.0
 11
-143.9955712239609
 21
-258.4204427899745
 31
0.0
  0
LINE
  5
9B
330
1F
100
AcDbEntity
  8
0-0_通り芯
  6
Continuous
 62
     3
370
    13
100
AcDbLine
 10
-90.66202069344982
 20
-231.7539768244973
 30
0.0
 11
-90.66202069344982
 21
-188.4204592859628
 31
0.0
  0
LINE
  5
9C
330
1F
100
AcDbEntity
  8
0-0_通り芯
  6
Continuous
 62
     3
370
    13
100
AcDbLine
 10
-117.3287340987497
 20
-238.4203768060217
 30
0.0
 11
-143.9955712239609
 21
-238.4203768060217
 31
0.0
  0
LINE
  5
9D
330
1F
100
AcDbEntity
  8
0-0_通り芯
  6
Continuous
 62
     3
370
    13
100
AcDbLine
 10
-108.5291554062877
 20
-155.0870984593156
 30
0.0
 11
-111.2455497791763
 21
-157.7537574278546
 31
0.0
  0
LINE
  5
9E
330
1F
100
AcDbEntity
  8
0-0_通り芯
  6
Continuous
 62
     3
370
    13
100
AcDbLine
 10
-90.07905247132157
 20
-157.7537574278546
 30
0.0
 11
-92.79594172385544
 21
-155.0870984593156
 31
0.0
  0
LINE
  5
9F
330
1F
100
AcDbEntity
  8
0-0_通り芯
  6
Continuous
 62
     3
370
    13
100
AcDbLine
 10
-90.07905247132157
 20
-157.7537574278546
 30
0.0
 11
-111.2455497791763
 21
-157.7537574278546
 31
0.0
  0
LINE
  5
A0
330
1F
100
AcDbEntity
  8
0-0_通り芯
  6
Continuous
 62
     3
370
    13
100
AcDbLine
 10
-143.9955712239609
 20
-238.4203768060217
 30
0.0
 11
-143.9955712239609
 21
-258.4204427899745
 31
0.0
  0
LINE
  5
A1
330
1F
100
AcDbEntity
  8
0-0_通り芯
  6
Continuous
 62
     3
370
    13
100
AcDbLine
 10
42.96649460163039
 20
-152.9940049996451
 30
0.0
 11
48.42736776727634
 21
-198.4204922779389
 31
0.0
  0
LINE
  5
A2
330
1F
100
AcDbEntity
  8
0-0_通り芯
  6
JWW_DASHED1
 62
     3
370
    13
100
AcDbLine
 10
33.26103871850123
 20
-198.4204922779389
 30
0.0
 11
31.54677562728494
 21
-185.4843383505742
 31
0.0
  0
LINE
  5
A3
330
1F
100
AcDbEntity
  8
0-0_通り芯
  6
Continuous
 62
     3
370
    13
100
AcDbLine
 10
380.3034317585139
 20
-185.4843383505742
 30
0.0
 11
378.5886737876524
 21
-198.4204922779389
 31
0.0
  0
LINE
  5
A4
330
1F
100
AcDbEntity
  8
0-0_通り芯
  6
Continuous
 62
     3
370
    13
100
AcDbLine
 10
389.2241322441558
 20
-300.1571074331332
 30
0.0
 11
387.1906717817401
 21
-235.0871149553039
 31
0.0
  0
LINE
  5
A5
330
1F
100
AcDbEntity
  8
0-0_通り芯
  6
Continuous
 62
     3
370
    13
100
AcDbLine
 10
389.2241322441558
 20
-300.1571074331332
 30
0.0
 11
22.62570398190888
 21
-300.1571074331332
 31
0.0
  0
LINE
  5
A6
330
1F
100
AcDbEntity
  8
0-0_通り芯
  6
Continuous
 62
     3
370
    13
100
AcDbLine
 10
394.3105052382435
 20
-305.0870984593156
 30
0.0
 11
389.2241322441558
 21
-300.1571074331332
 31
0.0
  0
LINE
  5
A7
330
1F
100
AcDbEntity
  8
0-0_通り芯
  6
Continuous
 62
     3
370
    13
100
AcDbLine
 10
394.3105052382435
 20
-305.0870984593156
 30
0.0
 11
392.123137206149
 21
-235.0871149553039
 31
0.0
  0
LINE
  5
A8
330
1F
100
AcDbEntity
  8
0-0_通り芯
  6
Continuous
 62
     3
370
    13
100
AcDbLine
 10
17.53908354799847
 20
-305.0870984593156
 30
0.0
 11
22.62570398190888
 21
-300.1571074331332
 31
0.0
  0
LINE
  5
A9
330
1F
100
AcDbEntity
  8
0-0_通り芯
  6
Continuous
 62
     3
370
    13
100
AcDbLine
 10
17.53908354799847
 20
-305.0870984593156
 30
0.0
 11
19.7266990199158
 21
-235.0871149553039
 31
0.0
  0
LINE
  5
AA
330
1F
100
AcDbEntity
  8
0-0_通り芯
  6
Continuous
 62
     3
370
    13
100
AcDbLine
 10
22.62570398190888
 20
-300.1571074331332
 30
0.0
 11
24.65904072441333
 21
-235.0871149553039
 31
0.0
  0
LINE
  5
AB
330
1F
100
AcDbEntity
  8
0-0_通り芯
  6
Continuous
 62
     3
370
    13
100
AcDbLine
 10
14.25827893967934
 20
-198.4204922779389
 30
0.0
 11
397.5915572863855
 21
-198.4204922779389
 31
0.0
  0
LINE
  5
AC
330
1F
100
AcDbEntity
  8
0-0_通り芯
  6
Continuous
 62
     3
370
    13
100
AcDbLine
 10
397.5915572863855
 20
-235.0871149553039
 30
0.0
 11
397.5915572863855
 21
-198.4204922779389
 31
0.0
  0
LINE
  5
AD
330
1F
100
AcDbEntity
  8
0-0_通り芯
  6
Continuous
 62
     3
370
    13
100
AcDbLine
 10
14.25827893967934
 20
-235.0871149553039
 30
0.0
 11
14.25827893967934
 21
-198.4204922779389
 31
0.0
  0
LINE
  5
AE
330
1F
100
AcDbEntity
  8
0-0_通り芯
  6
Continuous
 62
     3
370
    13
100
AcDbLine
 10
14.25827893967934
 20
-235.0871149553039
 30
0.0
 11
397.5915572863855
 21
-235.0871149553039
 31
0.0
  0
LINE
  5
AF
330
1F
100
AcDbEntity
  8
0-0_通り芯
  6
JWW_CENTER1
 62
     3
370
    13
100
AcDbLine
 10
452.2619014586826
 20
-153.6422973349492
 30
0.0
 11
439.258443899561
 21
-238.4203768060217
 31
0.0
  0
LINE
  5
B0
330
1F
100
AcDbEntity
  8
0-0_通り芯
  6
Continuous
 62
     3
370
    13
100
AcDbLine
 10
-130.268599623454
 20
-127.5027544717734
 30
0.0
 11
-99.64284905599214
 21
-135.7093436292904
 31
0.0
  0
LINE
  5
B1
330
1F
100
AcDbEntity
  8
0-0_通り芯
  6
Continuous
 62
     3
370
    13
100
AcDbLine
 10
577.9563825608786
 20
-108.0069708463513
 30
0.0
 11
580.9246706732097
 21
-131.7537706246451
 31
0.0
  0
LINE
  5
B2
330
1F
100
AcDbEntity
  8
0-0_通り芯
  6
Continuous
 62
     3
370
    13
100
AcDbLine
 10
-166.1067937746367
 20
-108.0069708463513
 30
0.0
 11
-169.0750818869675
 21
-131.7537706246451
 31
0.0
  0
LINE
  5
B3
330
1F
100
AcDbEntity
  8
0-0_通り芯
  6
Continuous
 62
     3
370
    13
100
AcDbLine
 10
-123.7326004284581
 20
-132.4141875112582
 30
0.0
 11
-117.9291468283738
 21
-174.1097771438596
 31
0.0
  0
LINE
  5
B4
330
1F
100
AcDbEntity
  8
0-0_通り芯
  6
Continuous
 62
     3
370
    13
100
AcDbLine
 10
-78.28458588559528
 20
-156.968878310456
 30
0.0
 11
-83.00697490058667
 21
-174.7068494358781
 31
0.0
  0
LINE
  5
B5
330
1F
100
AcDbEntity
  8
0-0_通り芯
  6
Continuous
 62
     3
370
    13
100
AcDbLine
 10
-12.81497809421012
 20
-145.1702052477448
 30
0.0
 11
-32.73623449465362
 21
-139.8326808336823
 31
0.0
  0
LINE
  5
B6
330
1F
100
AcDbEntity
  8
0-0_通り芯
  6
Continuous
 62
     3
370
    13
100
AcDbLine
 10
412.3983562728719
 20
-159.5721926844003
 30
0.0
 11
411.2853719506592
 21
-170.4461831299238
 31
0.0
  0
LINE
  5
B7
330
1F
100
AcDbEntity
  8
0-0_通り芯
  6
Continuous
 62
     3
370
    13
100
AcDbLine
 10
424.664938040186
 20
-145.1704526875675
 30
0.0
 11
444.5863181605407
 21
-139.8326808336823
 31
0.0
  0
LINE
  5
B8
330
1F
100
AcDbEntity
  8
0-0_通り芯
  6
Continuous
 62
     3
370
    13
100
AcDbLine
 10
402.4398931710982
 20
-179.3671310553883
 30
0.0
 11
384.6841063784461
 21
-181.3367520435639
 31
0.0
  0
LINE
  5
B9
330
1F
100
AcDbEntity
  8
0-0_通り芯
  6
Continuous
 62
     3
370
    13
100
AcDbLine
 10
33.92491976263102
 20
-176.753671648716
 30
0.0
 11
11.25819481013977
 21
-176.753671648716
 31
0.0
  0
LINE
  5
BA
330
1F
100
AcDbEntity
  8
0-0_通り芯
  6
Continuous
 62
     3
370
    13
100
AcDbLine
 10
11.25819481013977
 20
-150.0870819633275
 30
0.0
 11
11.25819481013977
 21
-176.753671648716
 31
0.0
  0
LINE
  5
BB
330
1F
100
AcDbEntity
  8
0-0_通り芯
  6
Continuous
 62
     3
370
    13
100
AcDbLine
 10
33.92491976263102
 20
-150.0870819633275
 30
0.0
 11
33.92491976263102
 21
-176.753671648716
 31
0.0
  0
LINE
  5
BC
330
1F
100
AcDbEntity
  8
0-0_通り芯
  6
Continuous
 62
     3
370
    13
100
AcDbLine
 10
408.2393877340206
 20
-305.0870984593156
 30
0.0
 11
3.748272473251859
 21
-305.0870984593156
 31
0.0
  0
LINE
  5
BD
330
1F
100
AcDbEntity
  8
0-0_通り芯
  6
Continuous
 62
     3
370
    13
100
AcDbLine
 10
454.2448841972808
 20
-137.2444602889188
 30
0.0
 11
461.9145289396792
 21
-135.1894725619341
 31
0.0
  0
LINE
  5
BE
330
1F
100
AcDbEntity
  8
0-0_通り芯
  6
Continuous
 62
     3
370
    13
100
AcDbLine
 10
465.2717924531927
 20
-136.1975423993495
 30
0.0
 11
469.2723995055576
 21
-140.7093601252785
 31
0.0
  0
LINE
  5
BF
330
1F
100
AcDbEntity
  8
0-0_通り芯
  6
Continuous
 62
     3
370
    13
100
AcDbLine
 10
490.875875540186
 20
-137.782147023505
 30
0.0
 11
474.3073050165373
 21
-142.2214648814018
 31
0.0
  0
LINE
  5
C0
330
1F
100
AcDbEntity
  8
0-0_通り芯
  6
Continuous
 62
     3
370
    13
100
AcDbLine
 10
495.68956984973
 20
-128.0473695213935
 30
0.0
 11
494.4800839966894
 21
-133.9549952868073
 31
0.0
  0
LINE
  5
C1
330
1F
100
AcDbEntity
  8
0-0_通り芯
  6
Continuous
 62
     3
370
    13
100
AcDbLine
 10
498.0917156478719
 20
-125.49577007038
 30
0.0
 11
505.7618552699157
 21
-123.4407823433951
 31
0.0
  0
LINE
  5
C2
330
1F
100
AcDbEntity
  8
0-0_通り芯
  6
Continuous
 62
     3
370
    13
100
AcDbLine
 10
464.7635510575003
 20
-155.7210392849071
 30
0.0
 11
462.1298015853719
 21
-152.7510190938175
 31
0.0
  0
LINE
  5
C3
330
1F
100
AcDbEntity
  8
0-0_通り芯
  6
Continuous
 62
     3
370
    13
100
AcDbLine
 10
469.7979616888347
 20
-157.2333914808529
 30
0.0
 11
502.2858206415373
 21
-148.5284585205488
 31
0.0
  0
LINE
  5
C4
330
1F
100
AcDbEntity
  8
0-0_通り芯
  6
Continuous
 62
     3
370
    13
100
AcDbLine
 10
505.8910188573313
 20
-144.7013067838513
 30
0.0
 11
506.6862904472808
 21
-140.8115527720268
 31
0.0
  0
LINE
  5
C5
330
1F
100
AcDbEntity
  8
0-0_通り芯
  6
Continuous
 62
     3
370
    13
100
AcDbLine
 10
511.4925615621456
 20
-135.7088487496451
 30
0.0
 11
542.1186832893414
 21
-127.5027544717734
 31
0.0
  0
LINE
  5
C6
330
1F
100
AcDbEntity
  8
0-0_通り芯
  6
Continuous
 62
     3
370
    13
100
AcDbLine
 10
525.0799771026859
 20
-118.2643412538681
 30
0.0
 11
515.4204213066557
 21
-120.8525617986315
 31
0.0
  0
LINE
  5
C7
330
1F
100
AcDbEntity
  8
0-0_通り芯
  6
Continuous
 62
     3
370
    13
100
AcDbLine
 10
580.9246706732097
 20
-131.7537706246451
 30
0.0
 11
570.9251325608786
 21
-131.7537706246451
 31
0.0
  0
LINE
  5
C8
330
1F
100
AcDbEntity
  8
0-0_通り芯
  6
JWW_DASHED1
 62
     3
370
    13
100
AcDbLine
 10
27.16585356752972
 20
-181.3367520435639
 30
0.0
 11
9.086539206782476
 21
-179.3312522811063
 31
0.0
  0
LINE
  5
C9
330
1F
100
AcDbEntity
  8
0-0_通り芯
  6
Continuous
 62
     3
370
    13
100
AcDbLine
 10
-94.04105891135544
 20
-144.7013067838513
 30
0.0
 11
-94.83670166103877
 21
-140.8115527720268
 31
0.0
  0
LINE
  5
CA
330
1F
100
AcDbEntity
  8
0-0_通り芯
  6
Continuous
 62
     3
370
    13
100
AcDbLine
 10
-42.39529541103877
 20
-137.2444602889188
 30
0.0
 11
-50.06494015343719
 21
-135.1894725619341
 31
0.0
  0
LINE
  5
CB
330
1F
100
AcDbEntity
  8
0-0_通り芯
  6
Continuous
 62
     3
370
    13
100
AcDbLine
 10
-53.42170878730542
 20
-136.1975423993495
 30
0.0
 11
-57.42243955958173
 21
-140.7093601252785
 31
0.0
  0
LINE
  5
CC
330
1F
100
AcDbEntity
  8
0-0_通り芯
  6
Continuous
 62
     3
370
    13
100
AcDbLine
 10
-83.839609903754
 20
-128.0471220815707
 30
0.0
 11
-82.63049521044735
 21
-133.9547478469846
 31
0.0
  0
LINE
  5
CD
330
1F
100
AcDbEntity
  8
0-0_通り芯
  6
Continuous
 62
     3
370
    13
100
AcDbLine
 10
-86.24212686162991
 20
-125.49577007038
 30
0.0
 11
-93.91177160402862
 21
-123.4407823433951
 31
0.0
  0
LINE
  5
CE
330
1F
100
AcDbEntity
  8
0-0_通り芯
  6
Continuous
 62
     3
370
    13
100
AcDbLine
 10
-113.2301408766213
 20
-118.2643412538681
 30
0.0
 11
-103.5708325204138
 21
-120.8525617986315
 31
0.0
  0
LINE
  5
CF
330
1F
100
AcDbEntity
  8
0-0_通り芯
  6
Continuous
 62
     3
370
    13
100
AcDbLine
 10
-79.02591559421012
 20
-137.782147023505
 30
0.0
 11
-62.45746879047275
 21
-142.2214648814018
 31
0.0
  0
LINE
  5
D0
330
1F
100
AcDbEntity
  8
0-0_通り芯
  6
Continuous
 62
     3
370
    13
100
AcDbLine
 10
-169.0750818869675
 20
-131.7537706246451
 30
0.0
 11
-159.0751726149026
 21
-131.7537706246451
 31
0.0
  0
LINE
  5
D1
330
1F
100
AcDbEntity
  8
0-4_寸法
  6
Continuous
 62
     7
370
    13
100
AcDbLine
 10
547.5915572863855
 20
-87.23241821755053
 30
0.0
 11
547.5915572863855
 21
304.1009607546835
 31
0.0
  0
LINE
  5
D2
330
1F
100
AcDbEntity
  8
0-4_寸法
  6
Continuous
 62
     7
370
    13
100
AcDbLine
 10
-135.7417210603207
 20
301.1010003450552
 30
0.0
 11
547.5915572863855
 21
301.1010003450552
 31
0.0
  0
TEXT
  5
D3
330
1F
100
AcDbEntity
  8
0-4_寸法
  6
Continuous
 62
     2
370
     0
100
AcDbText
 10
150.9247325331653
 20
236.7410168410432
 30
0.0
 40
30.48
  1
φ118
 41
1.1
  7
ＭＳ ゴシック
100
AcDbText
  0
TEXT
  5
D4
330
1F
100
AcDbEntity
  8
0-4_寸法
  6
Continuous
 62
     2
370
     0
100
AcDbText
 10
150.9248562530767
 20
316.7410333370312
 30
0.0
 40
30.48
  1
φ205
 41
1.1
  7
ＭＳ ゴシック
100
AcDbText
  0
LINE
  5
D5
330
1F
100
AcDbEntity
  8
0-4_寸法
  6
Continuous
 62
     7
370
    13
100
AcDbLine
 10
9.258262443691194
 20
221.1009838490668
 30
0.0
 11
402.5913263425508
 21
221.1009838490668
 31
0.0
  0
LINE
  5
D6
330
1F
100
AcDbEntity
  8
0-4_寸法
  6
Continuous
 62
     7
370
    13
100
AcDbLine
 10
402.5913263425508
 20
146.1009838490668
 30
0.0
 11
402.5913263425508
 21
224.1009442586953
 31
0.0
  0
LINE
  5
D7
330
1F
100
AcDbEntity
  8
0-4_寸法
  6
Continuous
 62
     7
370
    13
100
AcDbLine
 10
9.258262443691194
 20
146.1009838490668
 30
0.0
 11
9.258262443691194
 21
224.1009442586953
 31
0.0
  0
LINE
  5
D8
330
1F
100
AcDbEntity
  8
0-4_寸法
  6
Continuous
 62
     7
370
    13
100
AcDbLine
 10
-135.7417210603207
 20
-87.23241821755053
 30
0.0
 11
-135.7417210603207
 21
304.1009607546835
 31
0.0
  0
LINE
  5
D9
330
1F
100
AcDbEntity
  8
0-4_寸法
  6
Continuous
 62
     7
370
    13
100
AcDbLine
 10
-38.66093360782898
 20
121.1010250890375
 30
0.0
 11
-272.0750010566258
 21
121.1010250890375
 31
0.0
  0
LINE
  5
DA
330
1F
100
AcDbEntity
  8
0-4_寸法
  6
Continuous
 62
     7
370
    13
100
AcDbLine
 10
-269.0750406469974
 20
-112.2325006974914
 30
0.0
 11
-269.0750406469974
 21
121.1010250890375
 31
0.0
  0
TEXT
  5
DB
330
1F
100
AcDbEntity
  8
0-4_寸法
  6
Continuous
 62
     2
370
     0
100
AcDbText
 10
-284.7150736389736
 20
-16.81573780422696
 30
0.0
 40
30.48
  1
70
 50
90.0
 41
1.0625
  7
ＭＳ ゴシック
100
AcDbText
  0
LINE
  5
DC
330
1F
100
AcDbEntity
  8
0-4_寸法
  6
Continuous
 62
     7
370
    13
100
AcDbLine
 10
-87.84318623399045
 20
-112.2325006974914
 30
0.0
 11
-272.0750010566258
 21
-112.2325006974914
 31
0.0
  0
LINE
  5
DD
330
1F
100
AcDbEntity
  8
0-4_寸法
  6
Continuous
 62
     7
370
    13
100
AcDbLine
 10
22.62570398190888
 20
-538.4205005259331
 30
0.0
 11
389.2241322441558
 21
-538.4205005259331
 31
0.0
  0
TEXT
  5
DE
330
1F
100
AcDbEntity
  8
0-4_寸法
  6
Continuous
 62
     2
370
     0
100
AcDbText
 10
173.4249181130325
 20
-522.7805912538681
 30
0.0
 40
30.48
  1
Rc4
 41
1.083333333333333
  7
ＭＳ ゴシック
100
AcDbText
  0
TEXT
  5
DF
330
1F
100
AcDbEntity
  8
0-4_寸法
  6
Continuous
 62
     2
370
     0
100
AcDbText
 10
150.9248562530767
 20
-602.7806077498562
 30
0.0
 40
30.48
  1
φ140
 41
1.1
  7
ＭＳ ゴシック
100
AcDbText
  0
LINE
  5
E0
330
1F
100
AcDbEntity
  8
0-4_寸法
  6
Continuous
 62
     7
370
    13
100
AcDbLine
 10
-27.40848395358512
 20
-618.4205170219212
 30
0.0
 11
439.258443899561
 21
-618.4205170219212
 31
0.0
  0
LINE
  5
E1
330
1F
100
AcDbEntity
  8
0-4_寸法
  6
Continuous
 62
     7
370
    13
100
AcDbLine
 10
389.2241322441558
 20
-325.1571280531185
 30
0.0
 11
389.2241322441558
 21
-541.4205846554728
 31
0.0
  0
LINE
  5
E2
330
1F
100
AcDbEntity
  8
0-4_寸法
  6
Continuous
 62
     7
370
    13
100
AcDbLine
 10
439.258443899561
 20
-463.4205005259331
 30
0.0
 11
439.258443899561
 21
-621.4206011514609
 31
0.0
  0
LINE
  5
E3
330
1F
100
AcDbEntity
  8
0-4_寸法
  6
Continuous
 62
     7
370
    13
100
AcDbLine
 10
22.62570398190888
 20
-325.1571280531185
 30
0.0
 11
22.62570398190888
 21
-541.4205846554728
 31
0.0
  0
LINE
  5
E4
330
1F
100
AcDbEntity
  8
0-4_寸法
  6
Continuous
 62
     7
370
    13
100
AcDbLine
 10
-27.40848395358512
 20
-463.4205005259331
 30
0.0
 11
-27.40848395358512
 21
-621.4206011514609
 31
0.0
  0
LINE
  5
E5
330
1F
100
AcDbEntity
  8
0-4_寸法
  6
Continuous
 62
     7
370
    13
100
AcDbLine
 10
402.5913263425508
 20
221.1009838490668
 30
0.0
 11
377.8052793091894
 21
217.8378711880661
 31
0.0
  0
LINE
  5
E6
330
1F
100
AcDbEntity
  8
0-4_寸法
  6
Continuous
 62
     7
370
    13
100
AcDbLine
 10
402.5913263425508
 20
221.1009838490668
 30
0.0
 11
377.8052793091894
 21
224.3640965100677
 31
0.0
  0
LINE
  5
E7
330
1F
100
AcDbEntity
  8
0-4_寸法
  6
Continuous
 62
     7
370
    13
100
AcDbLine
 10
9.258262443691194
 20
221.1009838490668
 30
0.0
 11
34.04443319696384
 21
217.8378711880661
 31
0.0
  0
LINE
  5
E8
330
1F
100
AcDbEntity
  8
0-4_寸法
  6
Continuous
 62
     7
370
    13
100
AcDbLine
 10
9.258262443691194
 20
221.1009838490668
 30
0.0
 11
34.04443319696384
 21
224.3640965100677
 31
0.0
  0
LINE
  5
E9
330
1F
100
AcDbEntity
  8
0-4_寸法
  6
Continuous
 62
     7
370
    13
100
AcDbLine
 10
439.258443899561
 20
-618.4205170219212
 30
0.0
 11
414.4723968661995
 21
-621.6836296829222
 31
0.0
  0
LINE
  5
EA
330
1F
100
AcDbEntity
  8
0-4_寸法
  6
Continuous
 62
     7
370
    13
100
AcDbLine
 10
439.258443899561
 20
-618.4205170219212
 30
0.0
 11
414.4723968661995
 21
-615.1574043609205
 31
0.0
  0
LINE
  5
EB
330
1F
100
AcDbEntity
  8
0-4_寸法
  6
Continuous
 62
     7
370
    13
100
AcDbLine
 10
-27.40848395358512
 20
-618.4205170219212
 30
0.0
 11
-2.622313200312192
 21
-621.6836296829222
 31
0.0
  0
LINE
  5
EC
330
1F
100
AcDbEntity
  8
0-4_寸法
  6
Continuous
 62
     7
370
    13
100
AcDbLine
 10
-27.40848395358512
 20
-618.4205170219212
 30
0.0
 11
-2.622313200312192
 21
-615.1574043609205
 31
0.0
  0
LINE
  5
ED
330
1F
100
AcDbEntity
  8
0-4_寸法
  6
Continuous
 62
     7
370
    13
100
AcDbLine
 10
389.2241322441558
 20
-538.4205005259331
 30
0.0
 11
364.438085210794
 21
-541.683613186934
 31
0.0
  0
LINE
  5
EE
330
1F
100
AcDbEntity
  8
0-4_寸法
  6
Continuous
 62
     7
370
    13
100
AcDbLine
 10
389.2241322441558
 20
-538.4205005259331
 30
0.0
 11
364.438085210794
 21
-535.1573878649323
 31
0.0
  0
LINE
  5
EF
330
1F
100
AcDbEntity
  8
0-4_寸法
  6
Continuous
 62
     7
370
    13
100
AcDbLine
 10
22.62570398190888
 20
-538.4205005259331
 30
0.0
 11
47.41187473518181
 21
-541.683613186934
 31
0.0
  0
LINE
  5
F0
330
1F
100
AcDbEntity
  8
0-4_寸法
  6
Continuous
 62
     7
370
    13
100
AcDbLine
 10
22.62570398190888
 20
-538.4205005259331
 30
0.0
 11
47.41187473518181
 21
-535.1573878649323
 31
0.0
  0
LINE
  5
F1
330
1F
100
AcDbEntity
  8
0-4_寸法
  6
Continuous
 62
     7
370
    13
100
AcDbLine
 10
547.5915572863855
 20
301.1010003450552
 30
0.0
 11
522.8055102530241
 21
297.8378876840542
 31
0.0
  0
LINE
  5
F2
330
1F
100
AcDbEntity
  8
0-4_寸法
  6
Continuous
 62
     7
370
    13
100
AcDbLine
 10
547.5915572863855
 20
301.1010003450552
 30
0.0
 11
522.8055102530241
 21
304.364113006056
 31
0.0
  0
LINE
  5
F3
330
1F
100
AcDbEntity
  8
0-4_寸法
  6
Continuous
 62
     7
370
    13
100
AcDbLine
 10
-135.7417210603207
 20
301.1010003450552
 30
0.0
 11
-110.9555503070477
 21
297.8378876840542
 31
0.0
  0
LINE
  5
F4
330
1F
100
AcDbEntity
  8
0-4_寸法
  6
Continuous
 62
     7
370
    13
100
AcDbLine
 10
-135.7417210603207
 20
301.1010003450552
 30
0.0
 11
-110.9555503070477
 21
304.364113006056
 31
0.0
  0
LINE
  5
F5
330
1F
100
AcDbEntity
  8
0-4_寸法
  6
Continuous
 62
     7
370
    13
100
AcDbLine
 10
-269.0750406469974
 20
121.1010250890375
 30
0.0
 11
-265.8119279859963
 21
96.31485433576458
 31
0.0
  0
LINE
  5
F6
330
1F
100
AcDbEntity
  8
0-4_寸法
  6
Continuous
 62
     7
370
    13
100
AcDbLine
 10
-269.0750406469974
 20
121.1010250890375
 30
0.0
 11
-272.3381533079981
 21
96.31485433576458
 31
0.0
  0
LINE
  5
F7
330
1F
100
AcDbEntity
  8
0-4_寸法
  6
Continuous
 62
     7
370
    13
100
AcDbLine
 10
-269.0750406469974
 20
-112.2325006974914
 30
0.0
 11
-265.8119279859963
 21
-87.44632994421863
 31
0.0
  0
LINE
  5
F8
330
1F
100
AcDbEntity
  8
0-4_寸法
  6
Continuous
 62
     7
370
    13
100
AcDbLine
 10
-269.0750406469974
 20
-112.2325006974914
 30
0.0
 11
-272.3381533079981
 21
-87.44632994421863
 31
0.0
  0
LINE
  5
F9
330
1F
100
AcDbEntity
  8
0-5_文字
  6
Continuous
 62
     7
370
    13
100
AcDbLine
 10
-169.0750818869675
 20
-131.7537706246451
 30
0.0
 11
-242.2060451866932
 21
-258.4204427899745
 31
0.0
  0
LINE
  5
FA
330
1F
100
AcDbEntity
  8
0-5_文字
  6
Continuous
 62
     7
370
    13
100
AcDbLine
 10
-169.0750818869675
 20
-131.7537706246451
 30
0.0
 11
-184.2941156179643
 21
-151.587557047787
 31
0.0
  0
LINE
  5
FB
330
1F
100
AcDbEntity
  8
0-5_文字
  6
Continuous
 62
     7
370
    13
100
AcDbLine
 10
-169.0750818869675
 20
-131.7537706246451
 30
0.0
 11
-178.642218909244
 21
-154.8507934286992
 31
0.0
  0
TEXT
  5
FC
330
1F
100
AcDbEntity
  8
0-5_文字
  6
Continuous
 62
     7
370
     0
100
AcDbText
 10
-454.3135850080085
 20
-298.3226960759753
 30
0.0
 40
22.86
  1
酸洗・
 41
1.111111111111111
  7
ＭＳ ゴシック
100
AcDbText
  0
TEXT
  5
FD
330
1F
100
AcDbEntity
  8
0-5_文字
  6
Continuous
 62
     7
370
     0
100
AcDbText
 10
-529.9161834560662
 20
-244.3208105845268
 30
0.0
 40
22.86
  1
本体：ＳＣＳ１３
 41
1.145833333333333
  7
ＭＳ ゴシック
100
AcDbText
  0
LINE
  5
FE
330
1F
100
AcDbEntity
  8
0-5_文字
  6
Continuous
 62
     7
370
    13
100
AcDbLine
 10
-242.2060451866932
 20
-258.4204427899745
 30
0.0
 11
-536.3964055910429
 21
-258.4204427899745
 31
0.0
  0
TEXT
  5
FF
330
1F
100
AcDbEntity
  8
0-5_文字
  6
Continuous
 62
     7
370
     0
100
AcDbText
 10
-550.778457625988
 20
-386.8857387939863
 30
0.0
 40
22.86
  1
アンカー：ＳＷＲＭ
 41
1.148148148148148
  7
ＭＳ ゴシック
100
AcDbText
  0
TEXT
  5
100
330
1F
100
AcDbEntity
  8
0-5_文字
  6
Continuous
 62
     7
370
     0
100
AcDbText
 10
-473.7542019249744
 20
-432.2473349787941
 30
0.0
 40
22.86
  1
りん酸塩被膜
 41
1.138888888888889
  7
ＭＳ ゴシック
100
AcDbText
  0
LINE
  5
101
330
1F
100
AcDbEntity
  8
0-5_文字
  6
Continuous
 62
     7
370
    13
100
AcDbLine
 10
-554.295583760912
 20
-398.4204716579538
 30
0.0
 11
-224.8246348456883
 21
-398.4204716579538
 31
0.0
  0
LINE
  5
102
330
1F
100
AcDbEntity
  8
0-5_文字
  6
Continuous
 62
     7
370
    13
100
AcDbLine
 10
-143.9955712239609
 20
-258.4204427899745
 30
0.0
 11
-224.8246348456883
 21
-398.4204716579538
 31
0.0
  0
LINE
  5
103
330
1F
100
AcDbEntity
  8
0-5_文字
  6
Continuous
 62
     7
370
    13
100
AcDbLine
 10
-143.9955712239609
 20
-258.4204427899745
 30
0.0
 11
-159.2146049549575
 21
-278.2542910730722
 31
0.0
  0
LINE
  5
104
330
1F
100
AcDbEntity
  8
0-5_文字
  6
Continuous
 62
     7
370
    13
100
AcDbLine
 10
-143.9955712239609
 20
-258.4204427899745
 30
0.0
 11
-153.5627082462372
 21
-281.5174037340729
 31
0.0
  0
LINE
  5
105
330
1F
100
AcDbEntity
  8
0-5_文字
  6
Continuous
 62
     7
370
    13
100
AcDbLine
 10
-27.40848395358512
 20
-438.4205417659035
 30
0.0
 11
-42.62751768458173
 21
-458.254390049001
 31
0.0
  0
LINE
  5
106
330
1F
100
AcDbEntity
  8
0-5_文字
  6
Continuous
 62
     7
370
    13
100
AcDbLine
 10
-27.40848395358512
 20
-438.4205417659035
 30
0.0
 11
-85.14349404912991
 21
-538.4205005259331
 31
0.0
  0
LINE
  5
107
330
1F
100
AcDbEntity
  8
0-5_文字
  6
Continuous
 62
     7
370
    13
100
AcDbLine
 10
-27.40848395358512
 20
-438.4205417659035
 30
0.0
 11
-36.97562097586115
 21
-461.517502710002
 31
0.0
  0
LINE
  5
108
330
1F
100
AcDbEntity
  8
0-3_受枠
  6
Continuous
 62
     4
370
    13
100
AcDbLine
 10
439.258443899561
 20
-387.4093376907347
 30
0.0
 11
439.258443899561
 21
-438.4205417659035
 31
0.0
  0
LINE
  5
109
330
1F
100
AcDbEntity
  8
0-3_受枠
  6
Continuous
 62
     4
370
    13
100
AcDbLine
 10
424.258641851419
 20
-390.0542219548815
 30
0.0
 11
424.258641851419
 21
-438.4205417659035
 31
0.0
  0
LINE
  5
10A
330
1F
100
AcDbEntity
  8
0-3_受枠
  6
Continuous
 62
     4
370
    13
100
AcDbLine
 10
-27.40848395358512
 20
-390.0542219548815
 30
0.0
 11
-27.40848395358512
 21
-438.4205417659035
 31
0.0
  0
LINE
  5
10B
330
1F
100
AcDbEntity
  8
0-3_受枠
  6
Continuous
 62
     4
370
    13
100
AcDbLine
 10
-12.408558185532
 20
-387.4093376907347
 30
0.0
 11
-12.408558185532
 21
-438.4205417659035
 31
0.0
  0
LINE
  5
10C
330
1F
100
AcDbEntity
  8
0-3_受枠
  6
Continuous
 62
     7
370
    13
100
AcDbLine
 10
409.5292915294175
 20
-392.6513503332599
 30
0.0
 11
455.4857949077959
 21
-384.547943581782
 31
0.0
  0
LINE
  5
10D
330
1F
100
AcDbEntity
  8
0-3_受枠
  6
Continuous
 62
     7
370
    13
100
AcDbLine
 10
407.213749669198
 20
-379.5204612654812
 30
0.0
 11
453.1707479272217
 21
-371.4175493936484
 31
0.0
  0
LINE
  5
10E
330
1F
100
AcDbEntity
  8
0-3_受枠
  6
Continuous
 62
     7
370
    13
100
AcDbLine
 10
-42.13771055567548
 20
-392.6513503332599
 30
0.0
 11
3.819040262525562
 21
-384.547943581782
 31
0.0
  0
LINE
  5
10F
330
1F
100
AcDbEntity
  8
0-3_受枠
  6
Continuous
 62
     7
370
    13
100
AcDbLine
 10
-44.45300497607235
 20
-379.5204612654812
 30
0.0
 11
1.503745842128694
 21
-371.4175493936484
 31
0.0
  0
LINE
  5
110
330
1F
100
AcDbEntity
  8
0-3_受枠
  6
Continuous
 62
     4
370
    13
100
AcDbLine
 10
-27.40848395358512
 20
-438.4205417659035
 30
0.0
 11
439.258443899561
 21
-438.4205417659035
 31
0.0
  0
LINE
  5
111
330
1F
100
AcDbEntity
  8
0-3_受枠
  6
Continuous
 62
     4
370
    13
100
AcDbLine
 10
439.258443899561
 20
-238.4203768060217
 30
0.0
 11
439.258443899561
 21
-373.8704203554306
 31
0.0
  0
LINE
  5
112
330
1F
100
AcDbEntity
  8
0-3_受枠
  6
Continuous
 62
     4
370
    13
100
AcDbLine
 10
424.258641851419
 20
-238.4203768060217
 30
0.0
 11
424.258641851419
 21
-376.5151808996661
 31
0.0
  0
LINE
  5
113
330
1F
100
AcDbEntity
  8
0-3_受枠
  6
Continuous
 62
     4
370
    13
100
AcDbLine
 10
-12.408558185532
 20
-238.4203768060217
 30
0.0
 11
-12.408558185532
 21
-373.8704203554306
 31
0.0
  0
LINE
  5
114
330
1F
100
AcDbEntity
  8
0-3_受枠
  6
Continuous
 62
     4
370
    13
100
AcDbLine
 10
-27.40848395358512
 20
-238.4203768060217
 30
0.0
 11
-27.40848395358512
 21
-376.5153046195775
 31
0.0
  0
ELLIPSE
  5
115
330
1F
100
AcDbEntity
  8
0-2_本体（蓋）
  6
Continuous
 62
     6
370
    13
100
AcDbEllipse
 10
-24.62391990956064
 20
99.56460524634323
 30
0.0
 11
1.583877164330265
 21
17.42811015842861
 31
0.0
210
0.0
220
0.0
230
1.0
 40
0.7428
 41
1.666184365454919
 42
3.141592653589793
  0
ELLIPSE
  5
116
330
1F
100
AcDbEntity
  8
0-2_本体（蓋）
  6
Continuous
 62
     6
370
    13
100
AcDbEllipse
 10
-24.62391990956064
 20
99.56460524634323
 30
0.0
 11
1.583877164330265
 21
17.42811015842861
 31
0.0
210
0.0
220
0.0
230
1.0
 40
0.7428
 41
0.0
 42
1.475408288134874
  0
ARC
  5
117
330
1F
100
AcDbEntity
  8
0-2_本体（蓋）
  6
Continuous
 62
     6
370
    13
100
AcDbCircle
 10
-0.042258169695657
 20
75.29595488211157
 30
0.0
 40
5.000000064437453
100
AcDbArc
 50
280.9779205322266
 51
354.6628265380859
  0
ARC
  5
118
330
1F
100
AcDbEntity
  8
0-2_本体（蓋）
  6
Continuous
 62
     6
370
    13
100
AcDbCircle
 10
411.8915995161151
 20
75.29595488211157
 30
0.0
 40
5.000000064437453
100
AcDbArc
 50
185.3371124267578
 51
259.0214233398438
  0
ARC
  5
119
330
1F
100
AcDbEntity
  8
0-2_本体（蓋）
  6
Continuous
 62
     6
370
    13
100
AcDbCircle
 10
416.5553452931422
 20
117.7677632383195
 30
0.0
 40
3.333333376291636
100
AcDbArc
 50
5.19224548339844
 51
90.0
  0
ARC
  5
11A
330
1F
100
AcDbEntity
  8
0-2_本体（蓋）
  6
Continuous
 62
     6
370
    13
100
AcDbCircle
 10
-4.705261627254913
 20
117.7677632383195
 30
0.0
 40
3.333333376291636
100
AcDbArc
 50
90.0
 51
174.8078460693359
  0
LINE
  5
11B
330
1F
100
AcDbEntity
  8
0-2_本体（蓋）
  6
Continuous
 62
     6
370
    13
100
AcDbLine
 10
7.908354491305403
 20
106.6495496878549
 30
0.0
 11
9.258262443691194
 21
121.1010250890375
 31
0.0
  0
LINE
  5
11C
330
1F
100
AcDbEntity
  8
0-2_本体（蓋）
  6
Continuous
 62
     6
370
    13
100
AcDbLine
 10
-8.025038007639012
 20
118.0693923821116
 30
0.0
 11
-8.923739443449819
 21
108.1792226713854
 31
0.0
  0
LINE
  5
11D
330
1F
100
AcDbEntity
  8
0-2_本体（蓋）
  6
JWW_CENTER1
 62
     6
370
    13
100
AcDbLine
 10
-47.52472293426507
 20
101.6458215945272
 30
0.0
 11
27.34735067743259
 21
94.84147391188344
 31
0.0
  0
LINE
  5
11E
330
1F
100
AcDbEntity
  8
0-2_本体（蓋）
  6
Continuous
 62
     6
370
    13
100
AcDbLine
 10
-25.52917850067132
 20
89.60564726492407
 30
0.0
 11
12.64695081467934
 21
86.13629351175703
 31
0.0
  0
LINE
  5
11F
330
1F
100
AcDbEntity
  8
0-2_本体（蓋）
  6
Continuous
 62
     6
370
    13
100
AcDbLine
 10
-25.37811648895257
 20
91.26572103498333
 30
0.0
 11
14.45771543672322
 21
87.64542899000844
 31
0.0
  0
LINE
  5
120
330
1F
100
AcDbEntity
  8
0-2_本体（蓋）
  6
Continuous
 62
     6
370
    13
100
AcDbLine
 10
-23.86972333016857
 20
107.8637368975255
 30
0.0
 11
15.96610859550708
 21
104.2436922923734
 31
0.0
  0
LINE
  5
121
330
1F
100
AcDbEntity
  8
0-2_本体（蓋）
  6
Continuous
 62
     6
370
    13
100
AcDbLine
 10
-23.71890875827262
 20
109.523563227762
 30
0.0
 11
14.45709683716686
 21
106.0544569144174
 31
0.0
  0
LINE
  5
122
330
1F
100
AcDbEntity
  8
0-2_本体（蓋）
  6
Continuous
 62
     6
370
    13
100
AcDbLine
 10
14.45709683716686
 20
106.0544569144174
 30
0.0
 11
15.96610859550708
 21
104.2436922923734
 31
0.0
  0
LINE
  5
123
330
1F
100
AcDbEntity
  8
0-2_本体（蓋）
  6
Continuous
 62
     6
370
    13
100
AcDbLine
 10
12.64695081467934
 20
86.13629351175703
 30
0.0
 11
14.45771543672322
 21
87.64542899000844
 31
0.0
  0
LINE
  5
124
330
1F
100
AcDbEntity
  8
0-2_本体（蓋）
  6
Continuous
 62
     6
370
    13
100
AcDbLine
 10
12.64695081467934
 20
86.13629351175703
 30
0.0
 11
14.45709683716686
 21
106.0544569144174
 31
0.0
  0
LINE
  5
125
330
1F
100
AcDbEntity
  8
0-2_本体（蓋）
  6
Continuous
 62
     6
370
    13
100
AcDbLine
 10
14.45771543672322
 20
87.64542899000844
 30
0.0
 11
15.96610859550708
 21
104.2436922923734
 31
0.0
  0
LINE
  5
126
330
1F
100
AcDbEntity
  8
0-2_本体（蓋）
  6
Continuous
 62
     6
370
    13
100
AcDbLine
 10
-37.66152416420596
 20
99.07591159663866
 30
0.0
 11
-28.09451086184112
 21
98.20640805989896
 31
0.0
  0
LINE
  5
127
330
1F
100
AcDbEntity
  8
0-2_本体（蓋）
  6
Continuous
 62
     6
370
    13
100
AcDbLine
 10
-37.3597713005023
 20
102.3958116969344
 30
0.0
 11
-27.79275799813732
 21
101.5263081601945
 31
0.0
  0
LINE
  5
128
330
1F
100
AcDbEntity
  8
0-2_本体（蓋）
  6
Continuous
 62
     6
370
    13
100
AcDbLine
 10
-28.09451086184112
 20
98.20640805989896
 30
0.0
 11
-27.79275799813732
 21
101.5263081601945
 31
0.0
  0
LINE
  5
129
330
1F
100
AcDbEntity
  8
0-2_本体（蓋）
  6
Continuous
 62
     6
370
    13
100
AcDbLine
 10
-26.20778221424814
 20
82.1366762186824
 30
0.0
 11
-23.04005760487314
 21
116.9927817138262
 31
0.0
  0
LINE
  5
12A
330
1F
100
AcDbEntity
  8
0-2_本体（蓋）
  6
Continuous
 62
     6
370
    13
100
AcDbLine
 10
0.909890267804343
 20
70.38749112049842
 30
0.0
 11
-12.59611757108928
 21
67.7673508386151
 31
0.0
  0
LINE
  5
12B
330
1F
100
AcDbEntity
  8
0-2_本体（蓋）
  6
JWW_DASHED1
 62
     6
370
    13
100
AcDbLine
 10
410.9394510786151
 20
70.38749112049842
 30
0.0
 11
424.4462012369766
 21
67.7673508386151
 31
0.0
  0
LINE
  5
12C
330
1F
100
AcDbEntity
  8
0-2_本体（蓋）
  6
Continuous
 62
     6
370
    13
100
AcDbLine
 10
416.5553452931422
 20
121.1010250890375
 30
0.0
 11
205.9249181130325
 21
121.1010250890375
 31
0.0
  0
LINE
  5
12D
330
1F
100
AcDbEntity
  8
0-2_本体（蓋）
  6
Continuous
 62
     6
370
    13
100
AcDbLine
 10
-4.705261627254913
 20
121.1010250890375
 30
0.0
 11
205.9249181130325
 21
121.1010250890375
 31
0.0
  0
LINE
  5
12E
330
1F
100
AcDbEntity
  8
0-2_本体（蓋）
  6
Continuous
 62
     6
370
    13
100
AcDbLine
 10
423.5395817268414
 20
-103.162346558978
 30
0.0
 11
402.5913263425508
 21
121.1010250890375
 31
0.0
  0
LINE
  5
12F
330
1F
100
AcDbEntity
  8
0-2_本体（蓋）
  6
Continuous
 62
     6
370
    13
100
AcDbLine
 10
419.8749979536151
 20
118.0693923821116
 30
0.0
 11
438.6828988721118
 21
-88.89892542299819
 31
0.0
  0
LINE
  5
130
330
1F
100
AcDbEntity
  8
0-2_本体（蓋）
  6
Continuous
 62
     6
370
    13
100
AcDbLine
 10
449.3960534329224
 20
-112.2325006974914
 30
0.0
 11
205.9249181130325
 21
-112.2325006974914
 31
0.0
  0
LINE
  5
131
330
1F
100
AcDbEntity
  8
0-2_本体（蓋）
  6
Continuous
 62
     6
370
    13
100
AcDbLine
 10
-10.73388546593719
 20
88.261059268725
 30
0.0
 11
-28.40331576048939
 21
-106.1689878438175
 31
0.0
  0
LINE
  5
132
330
1F
100
AcDbEntity
  8
0-2_本体（蓋）
  6
Continuous
 62
     6
370
    13
100
AcDbLine
 10
-11.69073526006741
 20
-103.162346558978
 30
0.0
 11
6.048101904734153
 21
86.73584020200181
 31
0.0
  0
LINE
  5
133
330
1F
100
AcDbEntity
  8
0-2_本体（蓋）
  6
Continuous
 62
     6
370
    13
100
AcDbLine
 10
47.59176348623768
 20
-112.2325006974914
 30
0.0
 11
205.9249181130325
 21
-112.2325006974914
 31
0.0
  0
LINE
  5
134
330
1F
100
AcDbEntity
  8
0-2_本体（蓋）
  6
Continuous
 62
     6
370
    13
100
AcDbLine
 10
-57.95975513443381
 20
-112.2325006974914
 30
0.0
 11
-2.408401473644233
 21
-112.2325006974914
 31
0.0
  0
ARC
  5
135
330
1F
100
AcDbEntity
  8
0-2_本体（蓋）
  6
Continuous
 62
     6
370
    13
100
AcDbCircle
 10
-21.64672396361439
 20
-102.2322202656925
 30
0.0
 40
10.00000012887491
100
AcDbArc
 50
270.0
 51
354.6630249023438
  0
ARC
  5
136
330
1F
100
AcDbEntity
  8
0-2_本体（蓋）
  6
Continuous
 62
     6
370
    13
100
AcDbCircle
 10
-35.04163132214501
 20
-105.5657295562331
 30
0.0
 40
6.666666752583272
100
AcDbArc
 50
270.0
 51
354.8082733154297
  0
ARC
  5
137
330
1F
100
AcDbEntity
  8
0-2_本体（蓋）
  6
Continuous
 62
     6
370
    13
100
AcDbCircle
 10
-39.3614357457092
 20
-79.4286610912836
 30
0.0
 40
13.33333350516654
100
AcDbArc
 50
286.2024993896484
 51
354.8074035644531
  0
LINE
  5
138
330
1F
100
AcDbEntity
  8
0-2_本体（蓋）
  6
Continuous
 62
     6
370
    13
100
AcDbLine
 10
-64.07498291103877
 20
-92.23243471353882
 30
0.0
 11
-35.6410643408575
 21
-92.23243471353882
 31
0.0
  0
LINE
  5
139
330
1F
100
AcDbEntity
  8
0-2_本体（蓋）
  6
Continuous
 62
     6
370
    13
100
AcDbLine
 10
-61.23932254364007
 20
-109.4953213795014
 30
0.0
 11
-64.07498291103877
 21
-92.23243471353882
 31
0.0
  0
ARC
  5
13A
330
1F
100
AcDbEntity
  8
0-2_本体（蓋）
  6
Continuous
 62
     6
370
    13
100
AcDbCircle
 10
-57.95975513443381
 20
-108.8989914069509
 30
0.0
 40
3.333333376291636
100
AcDbArc
 50
190.3048858642578
 51
270.0
  0
LINE
  5
13B
330
1F
100
AcDbEntity
  8
0-2_本体（蓋）
  6
Continuous
 62
     6
370
    13
100
AcDbLine
 10
472.5915572863855
 20
-88.89892542299819
 30
0.0
 11
438.6828988721118
 21
-88.89892542299819
 31
0.0
  0
LINE
  5
13C
330
1F
100
AcDbEntity
  8
0-2_本体（蓋）
  6
Continuous
 62
     6
370
    13
100
AcDbLine
 10
442.6444104325003
 20
-88.89892542299819
 30
0.0
 11
446.0016739460139
 21
-92.23243471353882
 31
0.0
  0
LINE
  5
13D
330
1F
100
AcDbEntity
  8
0-2_本体（蓋）
  6
Continuous
 62
     6
370
    13
100
AcDbLine
 10
440.9251985448313
 20
-112.2325006974914
 30
0.0
 11
446.0016739460139
 21
-92.23243471353882
 31
0.0
  0
LINE
  5
13E
330
1F
100
AcDbEntity
  8
0-2_本体（蓋）
  6
Continuous
 62
     6
370
    13
100
AcDbLine
 10
450.4234235765037
 20
-92.23243471353882
 30
0.0
 11
446.0016739460139
 21
-92.23243471353882
 31
0.0
  0
ARC
  5
13F
330
1F
100
AcDbEntity
  8
0-2_本体（蓋）
  6
Continuous
 62
     6
370
    13
100
AcDbCircle
 10
433.4965601896792
 20
-102.2322202656925
 30
0.0
 40
10.00000012887491
100
AcDbArc
 50
185.3368988037109
 51
270.0
  0
LINE
  5
140
330
1F
100
AcDbEntity
  8
0-2_本体（蓋）
  6
Continuous
 62
     6
370
    13
100
AcDbLine
 10
475.9245716972808
 20
-92.23243471353882
 30
0.0
 11
468.368749273294
 21
-92.23243471353882
 31
0.0
  0
LINE
  5
141
330
1F
100
AcDbEntity
  8
0-2_本体（蓋）
  6
Continuous
 62
     6
370
    13
100
AcDbLine
 10
475.9245716972808
 20
-92.23243471353882
 30
0.0
 11
472.5915572863855
 21
-88.89892542299819
 31
0.0
  0
LINE
  5
142
330
1F
100
AcDbEntity
  8
0-2_本体（蓋）
  6
Continuous
 62
     6
370
    13
100
AcDbLine
 10
475.9245716972808
 20
-92.23243471353882
 30
0.0
 11
473.1789794253211
 21
-108.9507063298815
 31
0.0
  0
ARC
  5
143
330
1F
100
AcDbEntity
  8
0-2_本体（蓋）
  6
Continuous
 62
     6
370
    13
100
AcDbCircle
 10
469.8098388003211
 20
-108.8989914069509
 30
0.0
 40
3.333333376291636
100
AcDbArc
 50
270.0
 51
349.6962738037109
  0
ARC
  5
144
330
1F
100
AcDbEntity
  8
0-1_ピット
  6
Continuous
 62
     4
370
    13
100
AcDbCircle
 10
459.396086424899
 20
-93.30360170572632
 30
0.0
 40
17.73805038349049
100
AcDbArc
 50
95.1637573242188
 51
159.9840545654297
  0
ARC
  5
145
330
1F
100
AcDbEntity
  8
0-1_ピット
  6
Continuous
 62
     4
370
    13
100
AcDbCircle
 10
459.396086424899
 20
-93.30360170572632
 30
0.0
 40
17.73805038349049
100
AcDbArc
 50
20.01594543457032
 51
84.83395385742188
  0
ARC
  5
146
330
1F
100
AcDbEntity
  8
0-1_ピット
  6
Continuous
 62
     4
370
    13
100
AcDbCircle
 10
448.0628476685644
 20
-89.7323027456332
 30
0.0
 40
0.833333344072909
100
AcDbArc
 50
29.32917785644531
 51
90.0
  0
ARC
  5
147
330
1F
100
AcDbEntity
  8
0-1_ピット
  6
Continuous
 62
     4
370
    13
100
AcDbCircle
 10
470.7293251812334
 20
-89.7323027456332
 30
0.0
 40
0.833333344072909
100
AcDbArc
 50
90.0
 51
150.6708221435547
  0
ARC
  5
148
330
1F
100
AcDbEntity
  8
0-1_ピット
  6
JWW_DASHED1
 62
     3
370
    13
100
AcDbCircle
 10
-17.1284728022971
 20
-161.2691349880321
 30
0.0
 40
16.66666688145818
100
AcDbArc
 50
5.843673706054692
 51
42.13740539550782
  0
ARC
  5
149
330
1F
100
AcDbEntity
  8
0-1_ピット
  6
Continuous
 62
     3
370
    13
100
AcDbCircle
 10
462.7775990410308
 20
-138.4091595340622
 30
0.0
 40
3.333333376291636
100
AcDbArc
 50
41.56501770019532
 51
104.9997711181641
  0
ARC
  5
14A
330
1F
100
AcDbEntity
  8
0-1_ピット
  6
Continuous
 62
     3
370
    13
100
AcDbCircle
 10
39.66069857122477
 20
-153.4205912538681
 30
0.0
 40
3.333333376291636
100
AcDbArc
 50
7.352645874023438
 51
90.0
  0
ARC
  5
14B
330
1F
100
AcDbEntity
  8
0-1_ピット
  6
Continuous
 62
     4
370
    13
100
AcDbCircle
 10
41.33685592975539
 20
-118.2334112760388
 30
0.0
 40
9.33396558503847
100
AcDbArc
 50
47.92572021484374
 51
132.0742797851562
  0
ARC
  5
14C
330
1F
100
AcDbEntity
  8
0-1_ピット
  6
Continuous
 62
     4
370
    13
100
AcDbCircle
 10
22.59155728638561
 20
-142.5307646596957
 30
0.0
 40
33.63136729678592
100
AcDbArc
 50
68.19786071777344
 51
111.8021392822266
  0
ARC
  5
14D
330
1F
100
AcDbEntity
  8
0-1_ピット
  6
Continuous
 62
     4
370
    13
100
AcDbCircle
 10
3.846382362926875
 20
-118.2334112760388
 30
0.0
 40
9.333911457577267
100
AcDbArc
 50
47.92556762695313
 51
132.0746307373047
  0
ARC
  5
14E
330
1F
100
AcDbEntity
  8
0-1_ピット
  6
Continuous
 62
     2
370
    13
100
AcDbCircle
 10
474.6933111398482
 20
-107.2324842015031
 30
0.0
 40
5.000000064437453
100
AcDbArc
 50
270.0
 51
349.3843536376953
  0
ARC
  5
14F
330
1F
100
AcDbEntity
  8
0-1_ピット
  6
Continuous
 62
     2
370
    13
100
AcDbCircle
 10
440.1140908062334
 20
-117.2325171934796
 30
0.0
 40
5.000000064437453
100
AcDbArc
 50
90.0
 51
169.911865234375
  0
ARC
  5
150
330
1F
100
AcDbEntity
  8
0-1_ピット
  6
Continuous
 62
     2
370
    13
100
AcDbCircle
 10
504.1198446069092
 20
-101.4498155465201
 30
0.0
 40
10.00000012887491
100
AcDbArc
 50
188.7071380615234
 51
285.0002746582031
  0
ARC
  5
151
330
1F
100
AcDbEntity
  8
0-1_ピット
  6
Continuous
 62
     2
370
    13
100
AcDbCircle
 10
58.49260115251724
 20
-135.5660759719846
 30
0.0
 40
5.000000064437453
100
AcDbArc
 50
11.31021118164062
 51
90.00000000000001
  0
ARC
  5
152
330
1F
100
AcDbEntity
  8
0-1_ピット
  6
JWW_DASHED1
 62
     2
370
    13
100
AcDbCircle
 10
471.8121218450847
 20
-113.5575409477025
 30
0.0
 40
6.666666752583272
100
AcDbArc
 50
284.9994964599609
 51
349.3851165771484
  0
LINE
  5
153
330
1F
100
AcDbEntity
  8
0-1_ピット
  6
Continuous
 62
     6
370
    13
100
AcDbLine
 10
469.8098388003211
 20
-112.2325006974914
 30
0.0
 11
469.3961194168753
 21
-112.2325006974914
 31
0.0
  0
LINE
  5
154
330
1F
100
AcDbEntity
  8
0-1_ピット
  6
Continuous
 62
     4
370
    13
100
AcDbLine
 10
442.7295297314868
 20
-88.89892542299819
 30
0.0
 11
476.062643118311
 21
-88.89892542299819
 31
0.0
  0
LINE
  5
155
330
1F
100
AcDbEntity
  8
0-1_ピット
  6
Continuous
 62
     4
370
    13
100
AcDbLine
 10
476.062643118311
 20
-87.23217077772802
 30
0.0
 11
476.062643118311
 21
-88.89892542299819
 31
0.0
  0
LINE
  5
156
330
1F
100
AcDbEntity
  8
0-1_ピット
  6
Continuous
 62
     4
370
    13
100
AcDbLine
 10
442.7295297314868
 20
-87.23217077772802
 30
0.0
 11
442.7295297314868
 21
-88.89892542299819
 31
0.0
  0
LINE
  5
157
330
1F
100
AcDbEntity
  8
0-1_ピット
  6
Continuous
 62
     4
370
    13
100
AcDbLine
 10
457.7996046892571
 20
-75.63763556869063
 30
0.0
 11
457.7996046892571
 21
-84.68923172050651
 31
0.0
  0
LINE
  5
158
330
1F
100
AcDbEntity
  8
0-1_ピット
  6
Continuous
 62
     4
370
    13
100
AcDbLine
 10
460.993063040186
 20
-75.63763556869063
 30
0.0
 11
460.993063040186
 21
-84.68923172050651
 31
0.0
  0
LINE
  5
159
330
1F
100
AcDbEntity
  8
0-1_ピット
  6
JWW_CENTER1
 62
     4
370
    13
100
AcDbLine
 10
459.396086424899
 20
-68.74915834635132
 30
0.0
 11
459.396086424899
 21
-134.5048065727025
 31
0.0
  0
LINE
  5
15A
330
1F
100
AcDbEntity
  8
0-1_ピット
  6
Continuous
 62
     4
370
    13
100
AcDbLine
 10
469.3961194168753
 20
-95.56544912443385
 30
0.0
 11
469.3961194168753
 21
-125.9990626696198
 31
0.0
  0
LINE
  5
15B
330
1F
100
AcDbEntity
  8
0-1_ピット
  6
Continuous
 62
     4
370
    13
100
AcDbLine
 10
449.3960534329224
 20
-95.56544912443385
 30
0.0
 11
449.3960534329224
 21
-125.9990626696198
 31
0.0
  0
LINE
  5
15C
330
1F
100
AcDbEntity
  8
0-1_ピット
  6
Continuous
 62
     4
370
    13
100
AcDbLine
 10
449.3960534329224
 20
-125.9990626696198
 30
0.0
 11
469.3961194168753
 21
-125.9990626696198
 31
0.0
  0
LINE
  5
15D
330
1F
100
AcDbEntity
  8
0-1_ピット
  6
Continuous
 62
     4
370
    13
100
AcDbLine
 10
452.2960481542063
 20
-128.898809951081
 30
0.0
 11
466.4961246955914
 21
-128.898809951081
 31
0.0
  0
LINE
  5
15E
330
1F
100
AcDbEntity
  8
0-1_ピット
  6
Continuous
 62
     4
370
    13
100
AcDbLine
 10
466.4961246955914
 20
-95.56544912443385
 30
0.0
 11
466.4961246955914
 21
-128.898809951081
 31
0.0
  0
LINE
  5
15F
330
1F
100
AcDbEntity
  8
0-1_ピット
  6
Continuous
 62
     4
370
    13
100
AcDbLine
 10
452.2960481542063
 20
-95.56544912443385
 30
0.0
 11
452.2960481542063
 21
-128.898809951081
 31
0.0
  0
LINE
  5
160
330
1F
100
AcDbEntity
  8
0-1_ピット
  6
Continuous
 62
     4
370
    13
100
AcDbLine
 10
452.2960481542063
 20
-128.898809951081
 30
0.0
 11
449.3960534329224
 21
-125.9990626696198
 31
0.0
  0
LINE
  5
161
330
1F
100
AcDbEntity
  8
0-1_ピット
  6
Continuous
 62
     4
370
    13
100
AcDbLine
 10
466.4961246955914
 20
-128.898809951081
 30
0.0
 11
469.3961194168753
 21
-125.9990626696198
 31
0.0
  0
LINE
  5
162
330
1F
100
AcDbEntity
  8
0-1_ピット
  6
Continuous
 62
     4
370
    13
100
AcDbLine
 10
449.3960534329224
 20
-95.56544912443385
 30
0.0
 11
450.8658459793753
 21
-93.02003566898634
 31
0.0
  0
LINE
  5
163
330
1F
100
AcDbEntity
  8
0-1_ピット
  6
Continuous
 62
     4
370
    13
100
AcDbLine
 10
452.2960481542063
 20
-95.56544912443385
 30
0.0
 11
448.7893309878211
 21
-89.3240270382853
 31
0.0
  0
LINE
  5
164
330
1F
100
AcDbEntity
  8
0-1_ピット
  6
Continuous
 62
     4
370
    13
100
AcDbLine
 10
469.3961194168753
 20
-95.56544912443385
 30
0.0
 11
467.9263268704224
 21
-93.02003566898634
 31
0.0
  0
LINE
  5
165
330
1F
100
AcDbEntity
  8
0-1_ピット
  6
Continuous
 62
     4
370
    13
100
AcDbLine
 10
466.4961246955914
 20
-95.56544912443385
 30
0.0
 11
470.0028418619766
 21
-89.3240270382853
 31
0.0
  0
LINE
  5
166
330
1F
100
AcDbEntity
  8
0-1_ピット
  6
Continuous
 62
     4
370
    13
100
AcDbLine
 10
449.3960534329224
 20
-95.56544912443385
 30
0.0
 11
469.3961194168753
 21
-95.56544912443385
 31
0.0
  0
LINE
  5
167
330
1F
100
AcDbEntity
  8
0-1_ピット
  6
Continuous
 62
     4
370
    13
100
AcDbLine
 10
460.993063040186
 20
-84.68923172050651
 30
0.0
 11
457.7996046892571
 21
-84.68923172050651
 31
0.0
  0
LINE
  5
168
330
1F
100
AcDbEntity
  8
0-1_ピット
  6
Continuous
 62
     3
370
    13
100
AcDbLine
 10
9.003275706465814
 20
-150.0870819633275
 30
0.0
 11
-4.7694722612286
 21
-150.0870819633275
 31
0.0
  0
LINE
  5
169
330
1F
100
AcDbEntity
  8
0-1_ピット
  6
Continuous
 62
     3
370
    13
100
AcDbLine
 10
39.66069857122477
 20
-150.0870819633275
 30
0.0
 11
36.17971514639393
 21
-150.0870819633275
 31
0.0
  0
LINE
  5
16A
330
1F
100
AcDbEntity
  8
0-1_ピット
  6
JWW_DASHED1
 62
     3
370
    13
100
AcDbLine
 10
-0.5483963268956416
 20
-159.5721926844003
 30
0.0
 11
0.5645879953169697
 21
-170.4461831299238
 31
0.0
  0
LINE
  5
16B
330
1F
100
AcDbEntity
  8
0-1_ピット
  6
Continuous
 62
     2
370
    13
100
AcDbLine
 10
416.9685697969427
 20
-147.2326161694086
 30
0.0
 11
36.17971514639393
 21
-147.2326161694086
 31
0.0
  0
LINE
  5
16C
330
1F
100
AcDbEntity
  8
0-1_ピット
  6
Continuous
 62
     2
370
    13
100
AcDbLine
 10
449.3960534329224
 20
-112.2325006974914
 30
0.0
 11
440.1140908062334
 21
-112.2325006974914
 31
0.0
  0
LINE
  5
16D
330
1F
100
AcDbEntity
  8
0-1_ピット
  6
Continuous
 62
     2
370
    13
100
AcDbLine
 10
474.6933111398482
 20
-112.2325006974914
 30
0.0
 11
469.3961194168753
 21
-112.2325006974914
 31
0.0
  0
LINE
  5
16E
330
1F
100
AcDbEntity
  8
0-1_ピット
  6
Continuous
 62
     2
370
    13
100
AcDbLine
 10
466.4961246955914
 20
-128.8993048307263
 30
0.0
 11
466.4961246955914
 21
-133.961923601841
 31
0.0
  0
LINE
  5
16F
330
1F
100
AcDbEntity
  8
0-1_ピット
  6
Continuous
 62
     2
370
    13
100
AcDbLine
 10
469.3961194168753
 20
-125.9993101094425
 30
0.0
 11
469.3961194168753
 21
-133.184715118944
 31
0.0
  0
LINE
  5
170
330
1F
100
AcDbEntity
  8
0-1_ピット
  6
Continuous
 62
     4
370
    13
100
AcDbLine
 10
10.10091875967518
 20
-111.305096242255
 30
0.0
 11
10.10091875967518
 21
-130.5660594759966
 31
0.0
  0
LINE
  5
171
330
1F
100
AcDbEntity
  8
0-1_ピット
  6
Continuous
 62
     4
370
    13
100
AcDbLine
 10
35.08231953300708
 20
-111.3048488024323
 30
0.0
 11
35.08231953300708
 21
-130.5660594759966
 31
0.0
  0
LINE
  5
172
330
1F
100
AcDbEntity
  8
0-1_ピット
  6
Continuous
 62
     2
370
    13
100
AcDbLine
 10
9.003275706465814
 20
-147.2326161694086
 30
0.0
 11
-5.118857290789407
 21
-147.2326161694086
 31
0.0
  0
LINE
  5
173
330
1F
100
AcDbEntity
  8
0-1_ピット
  6
Continuous
 62
     4
370
    13
100
AcDbLine
 10
35.92485212907974
 20
-108.8992388467734
 30
0.0
 11
35.92485212907974
 21
-39.00911862401173
 31
0.0
  0
LINE
  5
174
330
1F
100
AcDbEntity
  8
0-1_ピット
  6
Continuous
 62
     4
370
    13
100
AcDbLine
 10
33.6699330254055
 20
-108.8992388467734
 30
0.0
 11
33.6699330254055
 21
-36.75395208051498
 31
0.0
  0
LINE
  5
175
330
1F
100
AcDbEntity
  8
0-1_ピット
  6
Continuous
 62
     4
370
    13
100
AcDbLine
 10
9.258262443691194
 20
-108.8992388467734
 30
0.0
 11
9.258262443691194
 21
-39.00911862401173
 31
0.0
  0
LINE
  5
176
330
1F
100
AcDbEntity
  8
0-1_ピット
  6
Continuous
 62
     4
370
    13
100
AcDbLine
 10
11.51318154736515
 20
-108.8992388467734
 30
0.0
 11
11.51318154736515
 21
-36.75395208051498
 31
0.0
  0
LINE
  5
177
330
1F
100
AcDbEntity
  8
0-1_ピット
  6
Continuous
 62
     4
370
    13
100
AcDbLine
 10
33.6699330254055
 20
-36.75395208051498
 30
0.0
 11
35.92485212907974
 21
-39.00911862401173
 31
0.0
  0
LINE
  5
178
330
1F
100
AcDbEntity
  8
0-1_ピット
  6
Continuous
 62
     4
370
    13
100
AcDbLine
 10
11.51318154736515
 20
-36.75395208051498
 30
0.0
 11
33.6699330254055
 21
-36.75395208051498
 31
0.0
  0
LINE
  5
179
330
1F
100
AcDbEntity
  8
0-1_ピット
  6
Continuous
 62
     4
370
    13
100
AcDbLine
 10
9.258262443691194
 20
-39.00911862401173
 30
0.0
 11
11.51318154736515
 21
-36.75395208051498
 31
0.0
  0
LINE
  5
17A
330
1F
100
AcDbEntity
  8
0-1_ピット
  6
Continuous
 62
     4
370
    13
100
AcDbLine
 10
35.92485212907974
 20
-39.00911862401173
 30
0.0
 11
9.258262443691194
 21
-39.00911862401173
 31
0.0
  0
LINE
  5
17B
330
1F
100
AcDbEntity
  8
0-1_ピット
  6
Continuous
 62
     4
370
    13
100
AcDbLine
 10
36.17971514639393
 20
-130.5660594759966
 30
0.0
 11
36.17971514639393
 21
-167.8324762834289
 31
0.0
  0
LINE
  5
17C
330
1F
100
AcDbEntity
  8
0-1_ピット
  6
Continuous
 62
     4
370
    13
100
AcDbLine
 10
33.92491976263102
 20
-130.5660594759966
 30
0.0
 11
33.92491976263102
 21
-170.0871479472802
 31
0.0
  0
LINE
  5
17D
330
1F
100
AcDbEntity
  8
0-1_ピット
  6
Continuous
 62
     4
370
    13
100
AcDbLine
 10
9.003275706465814
 20
-130.5660594759966
 30
0.0
 11
9.003275706465814
 21
-167.8324762834289
 31
0.0
  0
LINE
  5
17E
330
1F
100
AcDbEntity
  8
0-1_ピット
  6
Continuous
 62
     4
370
    13
100
AcDbLine
 10
11.25819481013977
 20
-130.5660594759966
 30
0.0
 11
11.25819481013977
 21
-170.0871479472802
 31
0.0
  0
LINE
  5
17F
330
1F
100
AcDbEntity
  8
0-1_ピット
  6
Continuous
 62
     4
370
    13
100
AcDbLine
 10
3.846382362926875
 20
-108.8992388467734
 30
0.0
 11
41.33685592975539
 21
-108.8992388467734
 31
0.0
  0
LINE
  5
180
330
1F
100
AcDbEntity
  8
0-1_ピット
  6
Continuous
 62
     4
370
    13
100
AcDbLine
 10
-2.408401473644233
 20
-130.5660594759966
 30
0.0
 11
47.59163976632635
 21
-130.5660594759966
 31
0.0
  0
LINE
  5
181
330
1F
100
AcDbEntity
  8
0-1_ピット
  6
Continuous
 62
     4
370
    13
100
AcDbLine
 10
47.59163976632635
 20
-111.305096242255
 30
0.0
 11
47.59163976632635
 21
-130.5660594759966
 31
0.0
  0
LINE
  5
182
330
1F
100
AcDbEntity
  8
0-1_ピット
  6
Continuous
 62
     4
370
    13
100
AcDbLine
 10
-2.408401473644233
 20
-111.305096242255
 30
0.0
 11
-2.408401473644233
 21
-130.5660594759966
 31
0.0
  0
LINE
  5
183
330
1F
100
AcDbEntity
  8
0-1_ピット
  6
Continuous
 62
     4
370
    13
100
AcDbLine
 10
33.92491976263102
 20
-170.0871479472802
 30
0.0
 11
36.17971514639393
 21
-167.8324762834289
 31
0.0
  0
LINE
  5
184
330
1F
100
AcDbEntity
  8
0-1_ピット
  6
Continuous
 62
     4
370
    13
100
AcDbLine
 10
11.25819481013977
 20
-170.0871479472802
 30
0.0
 11
33.92491976263102
 21
-170.0871479472802
 31
0.0
  0
LINE
  5
185
330
1F
100
AcDbEntity
  8
0-1_ピット
  6
Continuous
 62
     4
370
    13
100
AcDbLine
 10
9.003275706465814
 20
-167.8324762834289
 30
0.0
 11
11.25819481013977
 21
-170.0871479472802
 31
0.0
  0
LINE
  5
186
330
1F
100
AcDbEntity
  8
0-1_ピット
  6
Continuous
 62
     4
370
    13
100
AcDbLine
 10
36.17971514639393
 20
-167.8324762834289
 30
0.0
 11
9.003275706465814
 21
-167.8324762834289
 31
0.0
  0
LINE
  5
187
330
1F
100
AcDbEntity
  8
0-1_ピット
  6
Continuous
 62
     2
370
    13
100
AcDbLine
 10
63.59159357755956
 20
-135.5660759719846
 30
0.0
 11
415.432958257669
 21
-135.5660759719846
 31
0.0
  0
LINE
  5
188
330
1F
100
AcDbEntity
  8
0-1_ピット
  6
Continuous
 62
     2
370
    13
100
AcDbLine
 10
388.5674269548821
 20
-137.9838104789525
 30
0.0
 11
385.9247696491389
 21
-147.2326161694086
 31
0.0
  0
LINE
  5
189
330
1F
100
AcDbEntity
  8
0-1_ピット
  6
Continuous
 62
     2
370
    13
100
AcDbLine
 10
58.49260115251724
 20
-130.5660594759966
 30
0.0
 11
-22.24330137598798
 21
-130.5660594759966
 31
0.0
  0
LINE
  5
18A
330
1F
100
AcDbEntity
  8
0-1_ピット
  6
Continuous
 62
     2
370
    13
100
AcDbLine
 10
63.395497518121
 20
-134.5854719548815
 30
0.0
 11
65.92495110500863
 21
-147.2326161694086
 31
0.0
  0
LINE
  5
18B
330
1F
100
AcDbEntity
  8
0-1_ピット
  6
Continuous
 62
     2
370
    13
100
AcDbLine
 10
433.3342396660308
 20
-126.7938393799238
 30
0.0
 11
435.1910280950847
 21
-116.3568276611738
 31
0.0
  0
LINE
  5
18C
330
1F
100
AcDbEntity
  8
0-1_ピット
  6
JWW_DASHED1
 62
     2
370
    13
100
AcDbLine
 10
479.6079608970274
 20
-108.1537026611738
 30
0.0
 11
478.3648232281084
 21
-114.7853373476181
 31
0.0
  0
LINE
  5
18D
330
1F
100
AcDbEntity
  8
0-1_ピット
  6
Continuous
 62
     2
370
    13
100
AcDbLine
 10
479.6079608970274
 20
-108.1537026611738
 30
0.0
 11
482.5915902783618
 21
-92.23268215336134
 31
0.0
  0
LINE
  5
18E
330
1F
100
AcDbEntity
  8
0-1_ピット
  6
Continuous
 62
     2
370
    13
100
AcDbLine
 10
494.2351185722808
 20
-102.963652381402
 30
0.0
 11
492.5916232703381
 21
-92.23268215336134
 31
0.0
  0
LINE
  5
18F
330
1F
100
AcDbEntity
  8
0-1_ピット
  6
Continuous
 62
     2
370
    13
100
AcDbLine
 10
479.2580809878211
 20
-132.267950576081
 30
0.0
 11
475.9245716972808
 21
-131.4355630127363
 31
0.0
  0
LINE
  5
190
330
1F
100
AcDbEntity
  8
0-1_ピット
  6
Continuous
 62
     2
370
    13
100
AcDbLine
 10
479.2580809878211
 20
-132.267950576081
 30
0.0
 11
485.9250995689024
 21
-130.4814350566552
 31
0.0
  0
LINE
  5
191
330
1F
100
AcDbEntity
  8
0-1_ピット
  6
Continuous
 62
     2
370
    13
100
AcDbLine
 10
482.5915902783618
 20
-92.23268215336134
 30
0.0
 11
492.5916232703381
 21
-92.23268215336134
 31
0.0
  0
LINE
  5
192
330
1F
100
AcDbEntity
  8
0-1_ピット
  6
Continuous
 62
     2
370
    13
100
AcDbLine
 10
506.7080651516724
 20
-111.1088764629052
 30
0.0
 11
527.3950240832605
 21
-105.5659769960556
 31
0.0
  0
LINE
  5
193
330
1F
100
AcDbEntity
  8
0-1_ピット
  6
Continuous
 62
     2
370
    13
100
AcDbLine
 10
42.59162327033806
 20
-130.5660594759966
 30
0.0
 11
39.2582376997089
 21
-147.2326161694086
 31
0.0
  0
LINE
  5
194
330
1F
100
AcDbEntity
  8
0-1_ピット
  6
Continuous
 62
     2
370
    13
100
AcDbLine
 10
2.591491302432587
 20
-130.5660594759966
 30
0.0
 11
5.924876873061748
 21
-147.2326161694086
 31
0.0
  0
LINE
  5
195
330
1F
100
AcDbEntity
  8
0-1_ピット
  6
Continuous
 62
     2
370
    13
100
AcDbLine
 10
527.3950240832605
 20
-105.5659769960556
 30
0.0
 11
545.9248026411151
 21
-105.5659769960556
 31
0.0
  0
LINE
  5
196
330
1F
100
AcDbEntity
  8
0-1_ピット
  6
Continuous
 62
     2
370
    13
100
AcDbLine
 10
547.5915572863855
 20
-112.2325006974914
 30
0.0
 11
545.9248026411151
 21
-105.5659769960556
 31
0.0
  0
LINE
  5
197
330
1F
100
AcDbEntity
  8
0-1_ピット
  6
Continuous
 62
     2
370
    13
100
AcDbLine
 10
485.9250995689024
 20
-130.4814350566552
 30
0.0
 11
489.2586088594427
 21
-127.8625319738849
 31
0.0
  0
LINE
  5
198
330
1F
100
AcDbEntity
  8
0-1_ピット
  6
Continuous
 62
     2
370
    13
100
AcDbLine
 10
489.2586088594427
 20
-127.8625319738849
 30
0.0
 11
547.5915572863855
 21
-112.2325006974914
 31
0.0
  0
LINE
  5
199
330
1F
100
AcDbEntity
  8
0-1_ピット
  6
JWW_DASHED1
 62
     2
370
    13
100
AcDbLine
 10
469.3961194168753
 20
-121.1066824964779
 30
0.0
 11
506.7080651516724
 21
-111.1088764629052
 31
0.0
  0
LINE
  5
19A
330
1F
100
AcDbEntity
  8
0-1_ピット
  6
Continuous
 62
     2
370
    13
100
AcDbLine
 10
416.9685697969427
 20
-147.2326161694086
 30
0.0
 11
475.9245716972808
 21
-131.4355630127363
 31
0.0
  0
LINE
  5
19B
330
1F
100
AcDbEntity
  8
0-1_ピット
  6
Continuous
 62
     2
370
    13
100
AcDbLine
 10
452.2960481542063
 20
-128.8993048307263
 30
0.0
 11
452.2960481542063
 21
-137.7668057545014
 31
0.0
  0
LINE
  5
19C
330
1F
100
AcDbEntity
  8
0-1_ピット
  6
Continuous
 62
     2
370
    13
100
AcDbLine
 10
449.3960534329224
 20
-125.9993101094425
 30
0.0
 11
449.3960534329224
 21
-138.5437667975758
 31
0.0
  0
LINE
  5
19D
330
1F
100
AcDbEntity
  8
0-1_ピット
  6
JWW_DASHED1
 62
     2
370
    13
100
AcDbLine
 10
428.4962962538685
 20
-132.065792240988
 30
0.0
 11
449.3960534329224
 21
-126.4657341751096
 31
0.0
  0
ARC
  5
19E
330
1F
100
AcDbEntity
  8
0-1_ピット
  6
Continuous
 62
     2
370
    13
100
AcDbCircle
 10
426.770650930811
 20
-125.6261708569086
 30
0.0
 40
6.666666752583272
100
AcDbArc
 50
284.9994964599609
 51
349.9125671386719
  0
LINE
  5
19F
330
1F
100
AcDbEntity
  8
0-1_ピット
  6
Continuous
 62
     2
370
    13
100
AcDbLine
 10
428.4962962538685
 20
-132.065792240988
 30
0.0
 11
415.432958257669
 21
-135.5660759719846
 31
0.0
  0
LINE
  5
1A0
330
1F
100
AcDbEntity
  8
0-1_ピット
  6
JWW_CENTER1
 62
     4
370
    13
100
AcDbLine
 10
22.59155728638561
 20
-26.75391908853854
 30
0.0
 11
22.59155728638561
 21
-180.0871809392565
 31
0.0
  0
LINE
  5
1A1
330
1F
100
AcDbEntity
  8
0-1_ピット
  6
Continuous
 62
     2
370
    13
100
AcDbLine
 10
-61.68755978234344
 20
-119.9969148919592
 30
0.0
 11
-22.24330137598798
 21
-130.5660594759966
 31
0.0
  0
LINE
  5
1A2
330
1F
100
AcDbEntity
  8
0-1_ピット
  6
Continuous
 62
     2
370
    13
100
AcDbLine
 10
-5.118857290789407
 20
-147.2326161694086
 30
0.0
 11
-64.07510663094982
 21
-131.4355630127363
 31
0.0
  0
LINE
  5
1A3
330
1F
100
AcDbEntity
  8
0-1_ピット
  6
Continuous
 62
     2
370
    13
100
AcDbLine
 10
-67.40824476175646
 20
-132.267950576081
 30
0.0
 11
-74.07501590301507
 21
-130.4814350566552
 31
0.0
  0
LINE
  5
1A4
330
1F
100
AcDbEntity
  8
0-1_ピット
  6
Continuous
 62
     2
370
    13
100
AcDbLine
 10
-74.07501590301507
 20
-130.4814350566552
 30
0.0
 11
-77.40840147364423
 21
-127.8630268535302
 31
0.0
  0
LINE
  5
1A5
330
1F
100
AcDbEntity
  8
0-1_ピット
  6
Continuous
 62
     2
370
    13
100
AcDbLine
 10
-77.40840147364423
 20
-127.8630268535302
 30
0.0
 11
-135.7417210603207
 21
-112.2325006974914
 31
0.0
  0
LINE
  5
1A6
330
1F
100
AcDbEntity
  8
0-1_ピット
  6
JWW_DASHED1
 62
     2
370
    13
100
AcDbLine
 10
-61.68755978234344
 20
-119.9969148919592
 30
0.0
 11
-134.0017661229734
 21
-100.6208828338557
 31
0.0
  0
LINE
  5
1A7
330
1F
100
AcDbEntity
  8
0-1_ピット
  6
Continuous
 62
     2
370
    13
100
AcDbLine
 10
-67.40824476175646
 20
-132.267950576081
 30
0.0
 11
-64.07510663094982
 21
-131.4355630127363
 31
0.0
  0
ARC
  5
1A8
330
1F
100
AcDbEntity
  8
0-1_ピット
  6
Continuous
 62
     2
370
    13
100
AcDbCircle
 10
391.7727624172974
 20
-138.8993378227025
 30
0.0
 40
3.333333376291636
100
AcDbArc
 50
90.0
 51
164.0540161132812
  0
LINE
  5
1A9
330
1F
100
AcDbEntity
  8
0-3_受枠
  6
Continuous
 62
     4
370
    13
100
AcDbLine
 10
-28.00902040312053
 20
-238.4203768060217
 30
0.0
 11
-12.24166002516441
 21
-238.4203768060217
 31
0.0
  0
LINE
  5
1AA
330
1F
100
AcDbEntity
  8
0-3_受枠
  6
JWW_CENTER1
 62
     4
370
    13
100
AcDbLine
 10
427.7834221248565
 20
-238.4203768060217
 30
0.0
 11
439.258443899561
 21
-238.4203768060217
 31
0.0
  0
LINE
  5
1AB
330
1F
100
AcDbEntity
  8
0-0_通り芯
  6
Continuous
 62
     3
370
    13
100
AcDbLine
 10
-15.93358589879188
 20
-238.4203768060217
 30
0.0
 11
-12.24153630525294
 21
-238.4203768060217
 31
0.0
  0
LINE
  5
1AC
330
1F
100
AcDbEntity
  8
0-0_通り芯
  6
Continuous
 62
     3
370
    13
100
AcDbLine
 10
-12.408558185532
 20
-238.4203768060217
 30
0.0
 11
-27.40848395358512
 21
-238.4203768060217
 31
0.0
  0
LINE
  5
1AD
330
1F
100
AcDbEntity
  8
0-0_通り芯
  6
Continuous
 62
     3
370
    13
100
AcDbLine
 10
424.258641851419
 20
-238.4203768060217
 30
0.0
 11
439.258443899561
 21
-238.4203768060217
 31
0.0
  0
LINE
  5
1AE
330
1F
100
AcDbEntity
  8
0-4_寸法
  6
Continuous
 62
     7
370
    13
100
AcDbLine
 10
-160.7416699820477
 20
368.2464817923562
 30
0.0
 11
572.5918689222175
 21
368.2464817923562
 31
0.0
  0
LINE
  5
1AF
330
1F
100
AcDbEntity
  8
0-4_寸法
  6
Continuous
 62
     7
370
    13
100
AcDbLine
 10
-160.7416699820477
 20
368.2464817923562
 30
0.0
 11
-135.9555484477024
 21
371.5096365978575
 31
0.0
  0
LINE
  5
1B0
330
1F
100
AcDbEntity
  8
0-4_寸法
  6
Continuous
 62
     7
370
    13
100
AcDbLine
 10
-160.7416699820477
 20
368.2464817923562
 30
0.0
 11
-135.9555484477024
 21
364.9833269868549
 31
0.0
  0
LINE
  5
1B1
330
1F
100
AcDbEntity
  8
0-4_寸法
  6
Continuous
 62
     7
370
    13
100
AcDbLine
 10
572.5918689222175
 20
368.2464817923562
 30
0.0
 11
547.8057473878722
 21
371.5096365978575
 31
0.0
  0
LINE
  5
1B2
330
1F
100
AcDbEntity
  8
0-4_寸法
  6
Continuous
 62
     7
370
    13
100
AcDbLine
 10
572.5918689222175
 20
368.2464817923562
 30
0.0
 11
547.8057473878722
 21
364.9833269868549
 31
0.0
  0
LINE
  5
1B3
330
1F
100
AcDbEntity
  8
0-4_寸法
  6
Continuous
 62
     7
370
    13
100
AcDbLine
 10
-160.7416699820477
 20
371.2464817923562
 30
0.0
 11
-160.7416699820477
 21
-37.22900046070684
 31
0.0
  0
LINE
  5
1B4
330
1F
100
AcDbEntity
  8
0-4_寸法
  6
Continuous
 62
     7
370
    13
100
AcDbLine
 10
572.5918689222175
 20
371.2464817923562
 30
0.0
 11
572.5918689222175
 21
-37.22900046070684
 31
0.0
  0
LINE
  5
1B5
330
1F
100
AcDbEntity
  8
0-4_寸法
  6
Continuous
 62
     7
370
    13
100
AcDbLine
 10
-227.4082777537326
 20
435.3883612573527
 30
0.0
 11
639.2581139797978
 21
435.3883612573527
 31
0.0
  0
LINE
  5
1B6
330
1F
100
AcDbEntity
  8
0-4_寸法
  6
Continuous
 62
     7
370
    13
100
AcDbLine
 10
-227.4082777537326
 20
435.3883612573527
 30
0.0
 11
-202.6221562193873
 21
438.651516062854
 31
0.0
  0
LINE
  5
1B7
330
1F
100
AcDbEntity
  8
0-4_寸法
  6
Continuous
 62
     7
370
    13
100
AcDbLine
 10
-227.4082777537326
 20
435.3883612573527
 30
0.0
 11
-202.6221562193873
 21
432.1252064518515
 31
0.0
  0
LINE
  5
1B8
330
1F
100
AcDbEntity
  8
0-4_寸法
  6
Continuous
 62
     7
370
    13
100
AcDbLine
 10
639.2581139797978
 20
435.3883612573527
 30
0.0
 11
614.4719924454525
 21
438.651516062854
 31
0.0
  0
LINE
  5
1B9
330
1F
100
AcDbEntity
  8
0-4_寸法
  6
Continuous
 62
     7
370
    13
100
AcDbLine
 10
639.2581139797978
 20
435.3883612573527
 30
0.0
 11
614.4719924454525
 21
432.1252064518515
 31
0.0
  0
LINE
  5
1BA
330
1F
100
AcDbEntity
  8
0-4_寸法
  6
Continuous
 62
     7
370
    13
100
AcDbLine
 10
639.2581139797978
 20
438.3883612573527
 30
0.0
 11
639.2581139797978
 21
15.51548716402742
 31
0.0
  0
TEXT
  5
1BB
330
1F
100
AcDbEntity
  8
0-4_寸法
  6
Continuous
 62
     2
370
   211
100
AcDbText
 10
150.9250994700849
 20
379.8864817923562
 30
0.0
 40
30.48
  1
φ220
 41
1.1
  7
ＭＳ ゴシック
100
AcDbText
  0
TEXT
  5
1BC
330
1F
100
AcDbEntity
  8
0-4_寸法
  6
Continuous
 62
     2
370
   211
100
AcDbText
 10
150.9249181130326
 20
447.0283612573527
 30
0.0
 40
30.48
  1
φ260
 41
1.1
  7
ＭＳ ゴシック
100
AcDbText
  0
LINE
  5
1BD
330
1F
100
AcDbEntity
  8
0-4_寸法
  6
Continuous
 62
     7
370
    13
100
AcDbLine
 10
-169.0750818869675
 20
-700.9998188777959
 30
0.0
 11
580.9246706732097
 21
-700.9998188777959
 31
0.0
  0
LINE
  5
1BE
330
1F
100
AcDbEntity
  8
0-4_寸法
  6
Continuous
 62
     7
370
    13
100
AcDbLine
 10
-169.0750818869675
 20
-700.9998188777959
 30
0.0
 11
-144.2889603526223
 21
-697.7366640722946
 31
0.0
  0
LINE
  5
1BF
330
1F
100
AcDbEntity
  8
0-4_寸法
  6
Continuous
 62
     7
370
    13
100
AcDbLine
 10
-169.0750818869675
 20
-700.9998188777959
 30
0.0
 11
-144.2889603526223
 21
-704.2629736832973
 31
0.0
  0
LINE
  5
1C0
330
1F
100
AcDbEntity
  8
0-4_寸法
  6
Continuous
 62
     7
370
    13
100
AcDbLine
 10
580.9246706732097
 20
-700.9998188777959
 30
0.0
 11
556.1385491388644
 21
-697.7366640722946
 31
0.0
  0
LINE
  5
1C1
330
1F
100
AcDbEntity
  8
0-4_寸法
  6
Continuous
 62
     7
370
    13
100
AcDbLine
 10
580.9246706732097
 20
-700.9998188777959
 30
0.0
 11
556.1385491388644
 21
-704.2629736832973
 31
0.0
  0
LINE
  5
1C2
330
1F
100
AcDbEntity
  8
0-4_寸法
  6
Continuous
 62
     7
370
    13
100
AcDbLine
 10
580.9246706732097
 20
-703.9998188777959
 30
0.0
 11
580.9246706732097
 21
-161.3324759405287
 31
0.0
  0
TEXT
  5
1C3
330
1F
100
AcDbEntity
  8
0-4_寸法
  6
Continuous
 62
     2
370
   211
100
AcDbText
 10
150.9247943931211
 20
-689.359818877796
 30
0.0
 40
30.48
  1
φ225
 41
1.1
  7
ＭＳ ゴシック
100
AcDbText
  0
LINE
  5
1C4
330
1F
100
AcDbEntity
  8
0-4_寸法
  6
Continuous
 62
     7
370
    13
100
AcDbLine
 10
-169.0750818869675
 20
-703.9998188777959
 30
0.0
 11
-169.0750818869675
 21
-564.1007387858215
 31
0.0
  0
LINE
  5
1C5
330
1F
100
AcDbEntity
  8
0-4_寸法
  6
Continuous
 62
     7
370
    13
100
AcDbLine
 10
-169.0750818869675
 20
-480.6761062254208
 30
0.0
 11
-169.0750818869675
 21
-161.3324759405287
 31
0.0
  0
TEXT
  5
1C6
330
1F
100
AcDbEntity
  8
0-4_寸法
  6
Continuous
 62
     2
370
     0
100
AcDbText
 10
817.4959000407939
 20
-320.0237642130377
 30
0.0
 40
30.48
  1
120
 50
90.0
 41
1.083333333333333
  7
ＭＳ ゴシック
100
AcDbText
  0
TEXT
  5
1C7
330
1F
100
AcDbEntity
  8
0-4_寸法
  6
Continuous
 62
     2
370
     0
100
AcDbText
 10
816.7439404632936
 20
-13.24307792510965
 30
0.0
 40
30.48
  1
68
 50
90.0
 41
1.0625
  7
ＭＳ ゴシック
100
AcDbText
  0
TEXT
  5
1C8
330
1F
100
AcDbEntity
  8
0-4_寸法
  6
Continuous
 62
     2
370
     0
100
AcDbText
 10
736.7439239673054
 20
-193.0292651743706
 30
0.0
 40
30.48
  1
40
 50
90.0
 41
1.0625
  7
ＭＳ ゴシック
100
AcDbText
  0
LINE
  5
1C9
330
1F
100
AcDbEntity
  8
0-4_寸法
  6
Continuous
 62
     7
370
    13
100
AcDbLine
 10
832.3839734552699
 20
121.1010250890375
 30
0.0
 11
835.6472098361819
 21
96.31485433576458
 31
0.0
  0
LINE
  5
1CA
330
1F
100
AcDbEntity
  8
0-4_寸法
  6
Continuous
 62
     7
370
    13
100
AcDbLine
 10
832.3839734552699
 20
121.1010250890375
 30
0.0
 11
829.1207370743576
 21
96.31485433576458
 31
0.0
  0
LINE
  5
1CB
330
1F
100
AcDbEntity
  8
0-4_寸法
  6
Continuous
 62
     7
370
    13
100
AcDbLine
 10
832.3839734552699
 20
-105.0870572193452
 30
0.0
 11
835.6472098361819
 21
-80.3008864660724
 31
0.0
  0
LINE
  5
1CC
330
1F
100
AcDbEntity
  8
0-4_寸法
  6
Continuous
 62
     7
370
    13
100
AcDbLine
 10
832.3839734552699
 20
-105.0870572193452
 30
0.0
 11
829.1207370743576
 21
-80.3008864660724
 31
0.0
  0
LINE
  5
1CD
330
1F
100
AcDbEntity
  8
0-4_寸法
  6
Continuous
 62
     7
370
    13
100
AcDbLine
 10
832.3839734552699
 20
-105.0870572193452
 30
0.0
 11
832.3839734552699
 21
121.1010250890375
 31
0.0
  0
LINE
  5
1CE
330
1F
100
AcDbEntity
  8
0-4_寸法
  6
Continuous
 62
     7
370
    13
100
AcDbLine
 10
832.3839734552699
 20
-105.0870572193452
 30
0.0
 11
835.6472098361819
 21
-129.8732279726181
 31
0.0
  0
LINE
  5
1CF
330
1F
100
AcDbEntity
  8
0-4_寸法
  6
Continuous
 62
     7
370
    13
100
AcDbLine
 10
832.3839734552699
 20
-105.0870572193452
 30
0.0
 11
829.1207370743576
 21
-129.8732279726181
 31
0.0
  0
LINE
  5
1D0
330
1F
100
AcDbEntity
  8
0-4_寸法
  6
Continuous
 62
     7
370
    13
100
AcDbLine
 10
832.3839734552699
 20
-438.4205417659035
 30
0.0
 11
835.6472098361819
 21
-413.6343710126307
 31
0.0
  0
LINE
  5
1D1
330
1F
100
AcDbEntity
  8
0-4_寸法
  6
Continuous
 62
     7
370
    13
100
AcDbLine
 10
832.3839734552699
 20
-438.4205417659035
 30
0.0
 11
829.1207370743576
 21
-413.6343710126307
 31
0.0
  0
LINE
  5
1D2
330
1F
100
AcDbEntity
  8
0-4_寸法
  6
Continuous
 62
     7
370
    13
100
AcDbLine
 10
832.3839734552699
 20
-438.4205417659035
 30
0.0
 11
832.3839734552699
 21
-105.0870572193452
 31
0.0
  0
LINE
  5
1D3
330
1F
100
AcDbEntity
  8
0-4_寸法
  6
Continuous
 62
     7
370
    13
100
AcDbLine
 10
752.3839569592816
 20
-105.1381535427196
 30
0.0
 11
755.6471933401939
 21
-129.9243242959922
 31
0.0
  0
LINE
  5
1D4
330
1F
100
AcDbEntity
  8
0-4_寸法
  6
Continuous
 62
     7
370
    13
100
AcDbLine
 10
752.3839569592816
 20
-105.1381535427196
 30
0.0
 11
749.1207205783694
 21
-129.9243242959922
 31
0.0
  0
LINE
  5
1D5
330
1F
100
AcDbEntity
  8
0-4_寸法
  6
Continuous
 62
     7
370
    13
100
AcDbLine
 10
752.3839569592816
 20
-238.4203768060217
 30
0.0
 11
755.6471933401939
 21
-213.6343297726603
 31
0.0
  0
LINE
  5
1D6
330
1F
100
AcDbEntity
  8
0-4_寸法
  6
Continuous
 62
     7
370
    13
100
AcDbLine
 10
752.3839569592816
 20
-238.4203768060217
 30
0.0
 11
749.1207205783694
 21
-213.6343297726603
 31
0.0
  0
LINE
  5
1D7
330
1F
100
AcDbEntity
  8
0-4_寸法
  6
Continuous
 62
     7
370
    13
100
AcDbLine
 10
752.3839569592816
 20
-238.4203768060217
 30
0.0
 11
752.3839569592816
 21
-105.1381535427196
 31
0.0
  0
LINE
  5
1D8
330
1F
100
AcDbEntity
  8
0-4_寸法
  6
Continuous
 62
     7
370
    13
100
AcDbLine
 10
444.3396206573735
 20
121.1010250890375
 30
0.0
 11
835.6472098361819
 21
121.1010250890375
 31
0.0
  0
LINE
  5
1D9
330
1F
100
AcDbEntity
  8
0-4_寸法
  6
Continuous
 62
     7
370
    13
100
AcDbLine
 10
599.6491843714782
 20
-105.0870572193452
 30
0.0
 11
835.6472098361819
 21
-105.0870572193452
 31
0.0
  0
LINE
  5
1DA
330
1F
100
AcDbEntity
  8
0-4_寸法
  6
Continuous
 62
     7
370
    13
100
AcDbLine
 10
464.2585263795019
 20
-238.4203768060217
 30
0.0
 11
755.6471933401939
 21
-238.4203768060217
 31
0.0
  0
LINE
  5
1DB
330
1F
100
AcDbEntity
  8
0-4_寸法
  6
Continuous
 62
     7
370
    13
100
AcDbLine
 10
464.2585263795019
 20
-438.4205417659035
 30
0.0
 11
835.6472098361819
 21
-438.4205417659035
 31
0.0
  0
LINE
  5
1DC
330
1F
100
AcDbEntity
  8
0-4_寸法
  6
Continuous
 62
     7
370
    13
100
AcDbLine
 10
752.3839569592816
 20
-78.89901615093295
 30
0.0
 11
752.3839569592816
 21
21.10076669484776
 31
0.0
  0
LINE
  5
1DD
330
1F
100
AcDbEntity
  8
0-4_寸法
  6
Continuous
 62
     7
370
    13
100
AcDbLine
 10
752.3839569592816
 20
-78.89901615093295
 30
0.0
 11
749.1208021537802
 21
-54.1128946165877
 31
0.0
  0
LINE
  5
1DE
330
1F
100
AcDbEntity
  8
0-4_寸法
  6
Continuous
 62
     7
370
    13
100
AcDbLine
 10
752.3839569592816
 20
-78.89901615093295
 30
0.0
 11
755.647111764783
 21
-54.1128946165877
 31
0.0
  0
LINE
  5
1DF
330
1F
100
AcDbEntity
  8
0-4_寸法
  6
Continuous
 62
     7
370
    13
100
AcDbLine
 10
752.3839569592816
 20
21.10076669484776
 30
0.0
 11
749.1208021537802
 21
-3.685354839497497
 31
0.0
  0
LINE
  5
1E0
330
1F
100
AcDbEntity
  8
0-4_寸法
  6
Continuous
 62
     7
370
    13
100
AcDbLine
 10
752.3839569592816
 20
21.10076669484776
 30
0.0
 11
755.647111764783
 21
-3.685354839497497
 31
0.0
  0
LINE
  5
1E1
330
1F
100
AcDbEntity
  8
0-4_寸法
  6
Continuous
 62
     7
370
    13
100
AcDbLine
 10
755.3839569592816
 20
21.10076669484776
 30
0.0
 11
650.0416787814414
 21
21.10076669484777
 31
0.0
  0
TEXT
  5
1E2
330
1F
100
AcDbEntity
  8
0-4_寸法
  6
Continuous
 62
     2
370
   211
100
AcDbText
 10
740.7439569592817
 20
-50.14912472804259
 30
0.0
 40
30.48
  1
30
 50
90.0
 41
1.0625
  7
ＭＳ ゴシック
100
AcDbText
  0
LINE
  5
1E3
330
1F
100
AcDbEntity
  8
0-4_寸法
  6
Continuous
 62
     7
370
    13
100
AcDbLine
 10
755.3839569592816
 20
-78.89901615093295
 30
0.0
 11
576.4175961498988
 21
-78.89901615093294
 31
0.0
  0
LINE
  5
1E4
330
1F
100
AcDbEntity
  8
0-5_文字
  6
Continuous
 62
     7
370
    13
100
AcDbLine
 10
492.5916232703381
 20
-92.23268215336134
 30
0.0
 11
648.6489250742079
 21
336.5312306937863
 31
0.0
  0
LINE
  5
1E5
330
1F
100
AcDbEntity
  8
0-5_文字
  6
Continuous
 62
     7
370
    13
100
AcDbLine
 10
492.5916232703381
 20
-92.23268215336134
 30
0.0
 11
498.0026136187906
 21
-67.825281975363
 31
0.0
  0
LINE
  5
1E6
330
1F
100
AcDbEntity
  8
0-5_文字
  6
Continuous
 62
     7
370
    13
100
AcDbLine
 10
492.5916232703381
 20
-92.23268215336134
 30
0.0
 11
504.1353386012139
 21
-70.0574113239058
 31
0.0
  0
LINE
  5
1E7
330
1F
100
AcDbEntity
  8
0-5_文字
  6
Continuous
 62
     7
370
    13
100
AcDbLine
 10
460.9932629932353
 20
-75.63760446761931
 30
0.0
 11
662.0590614427948
 21
476.7861365971596
 31
0.0
  0
LINE
  5
1E8
330
1F
100
AcDbEntity
  8
0-5_文字
  6
Continuous
 62
     7
370
    13
100
AcDbLine
 10
460.9932629932353
 20
-75.63760446761931
 30
0.0
 11
466.4042533416879
 21
-51.23020428962097
 31
0.0
  0
LINE
  5
1E9
330
1F
100
AcDbEntity
  8
0-5_文字
  6
Continuous
 62
     7
370
    13
100
AcDbLine
 10
460.9932629932353
 20
-75.63760446761931
 30
0.0
 11
472.5369783241111
 21
-53.46233363816377
 31
0.0
  0
LINE
  5
1EA
330
1F
100
AcDbEntity
  8
0-5_文字
  6
Continuous
 62
     7
370
    13
100
AcDbLine
 10
622.2164385152707
 20
18.19401957277904
 30
0.0
 11
692.7513572276177
 21
211.9871160180196
 31
0.0
  0
LINE
  5
1EB
330
1F
100
AcDbEntity
  8
0-5_文字
  6
Continuous
 62
     7
370
    13
100
AcDbLine
 10
622.2164385152707
 20
18.19401957277904
 30
0.0
 11
627.6274288637234
 21
42.60141975077737
 31
0.0
  0
LINE
  5
1EC
330
1F
100
AcDbEntity
  8
0-5_文字
  6
Continuous
 62
     7
370
    13
100
AcDbLine
 10
622.2164385152707
 20
18.19401957277904
 30
0.0
 11
633.7601538461466
 21
40.36929040223458
 31
0.0
  0
LINE
  5
1ED
330
1F
100
AcDbEntity
  8
0-5_文字
  6
Continuous
 62
     7
370
    13
100
AcDbLine
 10
402.5913263425508
 20
121.1010250890375
 30
0.0
 11
408.0023166910034
 21
145.5084252670358
 31
0.0
  0
LINE
  5
1EE
330
1F
100
AcDbEntity
  8
0-5_文字
  6
Continuous
 62
     7
370
    13
100
AcDbLine
 10
402.5913263425508
 20
121.1010250890375
 30
0.0
 11
414.1350416734267
 21
143.276295918493
 31
0.0
  0
TEXT
  5
1EF
330
1F
100
AcDbEntity
  8
0-5_文字
  6
Continuous
 62
     7
370
     0
100
AcDbText
 10
780.5086580371512
 20
302.8741110912736
 30
0.0
 40
22.86
  1
酸洗・
 41
1.111111111111111
  7
ＭＳ ゴシック
100
AcDbText
  0
TEXT
  5
1F0
330
1F
100
AcDbEntity
  8
0-5_文字
  6
Continuous
 62
     7
370
     0
100
AcDbText
 10
658.2295558148119
 20
353.3384731584189
 30
0.0
 40
22.86
  1
防水層押え：ＳＣＳ１３
 41
1.151515151515152
  7
ＭＳ ゴシック
100
AcDbText
  0
LINE
  5
1F1
330
1F
100
AcDbEntity
  8
0-5_文字
  6
Continuous
 62
     7
370
    13
100
AcDbLine
 10
648.6489250742079
 20
336.5312306937863
 30
0.0
 11
1034.771345101657
 21
336.5312306937863
 31
0.0
  0
TEXT
  5
1F2
330
1F
100
AcDbEntity
  8
0-5_文字
  6
Continuous
 62
     7
370
     0
100
AcDbText
 10
693.6392797923412
 20
228.7943584826523
 30
0.0
 40
22.86
  1
防水層押え：ＳＣＳ１３
  7
ＭＳ ゴシック
100
AcDbText
  0
LINE
  5
1F3
330
1F
100
AcDbEntity
  8
0-5_文字
  6
Continuous
 62
     7
370
    13
100
AcDbLine
 10
692.7513572276177
 20
211.9871160180196
 30
0.0
 11
1019.939056680759
 21
211.9871160180196
 31
0.0
  0
TEXT
  5
1F4
330
1F
100
AcDbEntity
  8
0-5_文字
  6
Continuous
 62
     7
370
     0
100
AcDbText
 10
803.848197310507
 20
178.3299964155069
 30
0.0
 40
22.86
  1
酸洗・
 41
1.111111111111111
  7
ＭＳ ゴシック
100
AcDbText
  0
TEXT
  5
1F5
330
1F
100
AcDbEntity
  8
0-5_文字
  6
Continuous
 62
     7
370
     0
100
AcDbText
 10
659.0571148286728
 20
493.9313818595116
 30
0.0
 40
22.86
  1
丸小ネジ：ＳＵＳ３０４
 41
1.151515151515152
  7
ＭＳ ゴシック
100
AcDbText
  0
TEXT
  5
1F6
330
1F
100
AcDbEntity
  8
0-5_文字
  6
Continuous
 62
     7
370
     0
100
AcDbText
 10
754.4749498650044
 20
443.4670197923669
 30
0.0
 40
22.86
  1
Ｍ６×１２
 41
1.133333333333333
  7
ＭＳ ゴシック
100
AcDbText
  0
LINE
  5
1F7
330
1F
100
AcDbEntity
  8
0-5_文字
  6
Continuous
 62
     7
370
    13
100
AcDbLine
 10
662.0590614427948
 20
476.7861365971596
 30
0.0
 11
1034.312304126262
 21
476.7861365971596
 31
0.0
  0
TEXT
  5
1F8
330
1F
100
AcDbEntity
  8
0-5_文字
  6
Continuous
 62
     7
370
     0
100
AcDbText
 10
726.551850012012
 20
566.6165489659131
 30
0.0
 40
22.86
  1
酸洗・
 41
1.111111111111111
  7
ＭＳ ゴシック
100
AcDbText
  0
TEXT
  5
1F9
330
1F
100
AcDbEntity
  8
0-5_文字
  6
Continuous
 62
     7
370
     0
100
AcDbText
 10
594.5680919619698
 20
622.9037886592196
 30
0.0
 40
22.86
  1
ストレーナー：ＳＣＳ１３
 41
1.152777777777778
  7
ＭＳ ゴシック
100
AcDbText
  0
LINE
  5
1FA
330
1F
100
AcDbEntity
  8
0-5_文字
  6
Continuous
 62
     7
370
    13
100
AcDbLine
 10
402.5913263425508
 20
121.1010250890375
 30
0.0
 11
578.1627324643168
 21
603.4794989104862
 31
0.0
  0
LINE
  5
1FB
330
1F
100
AcDbEntity
  8
0-5_文字
  6
Continuous
 62
     7
370
    13
100
AcDbLine
 10
578.1627324643168
 20
603.4794989104862
 30
0.0
 11
1002.164882172591
 21
603.4794989104862
 31
0.0
  0
LINE
  5
1FC
330
1F
100
AcDbEntity
  8
0-5_文字
  6
Continuous
 62
     7
370
    13
100
AcDbLine
 10
11.51318154736515
 20
-36.75395208051498
 30
0.0
 11
-3.705855664669708
 21
-16.92011971410888
 31
0.0
  0
LINE
  5
1FD
330
1F
100
AcDbEntity
  8
0-5_文字
  6
Continuous
 62
     7
370
    13
100
AcDbLine
 10
11.51318154736515
 20
-36.75395208051498
 30
0.0
 11
1.946094006802995
 21
-13.65696448491671
 31
0.0
  0
LINE
  5
1FE
330
1F
100
AcDbEntity
  8
0-5_文字
  6
Continuous
 62
     7
370
    13
100
AcDbLine
 10
-115.741778796279
 20
-38.89900790293893
 30
0.0
 11
-130.9608160083138
 21
-19.06517553653283
 31
0.0
  0
LINE
  5
1FF
330
1F
100
AcDbEntity
  8
0-5_文字
  6
Continuous
 62
     7
370
    13
100
AcDbLine
 10
-115.741778796279
 20
-38.89900790293893
 30
0.0
 11
-125.3088663368411
 21
-15.80202030734066
 31
0.0
  0
TEXT
  5
200
330
1F
100
AcDbEntity
  8
0-5_文字
  6
Continuous
 62
     7
370
     0
100
AcDbText
 10
-588.4587283460995
 20
176.0439417032113
 30
0.0
 40
22.86
  1
ボルト：ＳＵＳ３０４
 41
1.15
  7
ＭＳ ゴシック
100
AcDbText
  0
LINE
  5
201
330
1F
100
AcDbEntity
  8
0-5_文字
  6
Continuous
 62
     7
370
    13
100
AcDbLine
 10
-230.1753602474338
 20
159.3057349490936
 30
0.0
 11
-595.7215943920771
 21
159.3057349490936
 31
0.0
  0
LINE
  5
202
330
1F
100
AcDbEntity
  8
0-5_文字
  6
Continuous
 62
     7
370
    13
100
AcDbLine
 10
-115.741778796279
 20
-38.89900790293893
 30
0.0
 11
-230.1753602474338
 21
159.3057349490936
 31
0.0
  0
TEXT
  5
203
330
1F
100
AcDbEntity
  8
0-5_文字
  6
Continuous
 62
     7
370
     0
100
AcDbText
 10
-519.461535963287
 20
125.2039659853059
 30
0.0
 40
22.86
  1
Ｍ８×５０
 41
1.133333333333333
  7
ＭＳ ゴシック
100
AcDbText
  0
LINE
  5
204
330
1F
100
AcDbEntity
  8
0-5_文字
  6
Continuous
 62
     7
370
    13
100
AcDbLine
 10
-23.04004274523038
 20
116.9927154047718
 30
0.0
 11
-224.0083160111719
 21
465.0800468157723
 31
0.0
  0
LINE
  5
205
330
1F
100
AcDbEntity
  8
0-5_文字
  6
Continuous
 62
     7
370
    13
100
AcDbLine
 10
-23.04004274523038
 20
116.9927154047718
 30
0.0
 11
-38.25907647622713
 21
136.8265018279135
 31
0.0
  0
LINE
  5
206
330
1F
100
AcDbEntity
  8
0-5_文字
  6
Continuous
 62
     7
370
    13
100
AcDbLine
 10
-23.04004274523038
 20
116.9927154047718
 30
0.0
 11
-32.60717976750683
 21
140.0897382088256
 31
0.0
  0
TEXT
  5
207
330
1F
100
AcDbEntity
  8
0-5_文字
  6
Continuous
 62
     7
370
     0
100
AcDbText
 10
-502.0955048872605
 20
432.6311758671869
 30
0.0
 40
22.86
  1
Ｍ６×１２
 41
1.133333333333333
  7
ＭＳ ゴシック
100
AcDbText
  0
TEXT
  5
208
330
1F
100
AcDbEntity
  8
0-5_文字
  6
Continuous
 62
     7
370
     0
100
AcDbText
 10
-604.3283465973944
 20
482.2252920781244
 30
0.0
 40
22.86
  1
丸小ネジ：ＳＵＳ３０４
 41
1.151515151515152
  7
ＭＳ ゴシック
100
AcDbText
  0
LINE
  5
209
330
1F
100
AcDbEntity
  8
0-5_文字
  6
Continuous
 62
     7
370
    13
100
AcDbLine
 10
-224.0083160111719
 20
465.0800468157723
 30
0.0
 11
-608.0294268880166
 21
465.0800468157723
 31
0.0
  0
TEXT
  5
20A
330
1F
100
AcDbEntity
  8
0-5_文字
  6
Continuous
 62
     7
370
     0
100
AcDbText
 10
-474.5215688998081
 20
282.6232493554072
 30
0.0
 40
22.86
  1
Ｍ８×４０
 41
1.133333333333333
  7
ＭＳ ゴシック
100
AcDbText
  0
TEXT
  5
20B
330
1F
100
AcDbEntity
  8
0-5_文字
  6
Continuous
 62
     7
370
     0
100
AcDbText
 10
-543.5187612826206
 20
333.4632250733126
 30
0.0
 40
22.86
  1
ボルト：ＳＵＳ３０４
 41
1.15
  7
ＭＳ ゴシック
100
AcDbText
  0
LINE
  5
20C
330
1F
100
AcDbEntity
  8
0-5_文字
  6
Continuous
 62
     7
370
    13
100
AcDbLine
 10
-192.5680324965537
 20
316.7250183191949
 30
0.0
 11
-550.7816273285982
 21
316.7250183191949
 31
0.0
  0
LINE
  5
20D
330
1F
100
AcDbEntity
  8
0-5_文字
  6
Continuous
 62
     7
370
    13
100
AcDbLine
 10
11.51318154736515
 20
-36.75395208051498
 30
0.0
 11
-192.5680324965537
 21
316.7250183191949
 31
0.0
  0
LINE
  5
20E
330
1F
100
AcDbEntity
  8
0-4_寸法
  6
Continuous
 62
     7
370
    13
100
AcDbLine
 10
-227.4082777537326
 20
282.8415907768971
 30
0.0
 11
-227.4082777537326
 21
15.51548716402742
 31
0.0
  0
LINE
  5
20F
330
1F
100
AcDbEntity
  8
0-4_寸法
  6
Continuous
 62
     7
370
    13
100
AcDbLine
 10
-227.4082777537326
 20
438.3883612573527
 30
0.0
 11
-227.4082777537326
 21
370.0290826380991
 31
0.0
  0
LINE
  5
210
330
1F
100
AcDbEntity
  8
0-1_ピット
  6
Continuous
 62
     2
370
    13
100
AcDbLine
 10
467.8322997378216
 20
923.3192116587036
 30
0.0
 11
477.5116507196627
 21
925.912875879565
 31
0.0
  0
LINE
  5
211
330
1F
100
AcDbEntity
  8
0-1_ピット
  6
Continuous
 62
     2
370
    13
100
AcDbLine
 10
464.5675787179733
 20
917.268318235984
 30
0.0
 11
482.2961471301356
 21
922.0186679509333
 31
0.0
  0
LINE
  5
212
330
1F
100
AcDbEntity
  8
0-1_ピット
  6
Continuous
 62
     2
370
    13
100
AcDbLine
 10
414.0913395393416
 20
1016.400629257943
 30
0.0
 11
421.1775211799666
 21
1023.486810898568
 31
0.0
  0
LINE
  5
213
330
1F
100
AcDbEntity
  8
0-1_ピット
  6
Continuous
 62
     2
370
    13
100
AcDbLine
 10
407.2189459054733
 20
1016.599075995697
 30
0.0
 11
420.1971646026864
 21
1029.57729469291
 31
0.0
  0
LINE
  5
214
330
1F
100
AcDbEntity
  8
0-1_ピット
  6
Continuous
 62
     2
370
    13
100
AcDbLine
 10
464.5675787179733
 20
917.268318235984
 30
0.0
 11
467.8322997378216
 21
923.3192116587036
 31
0.0
  0
LINE
  5
215
330
1F
100
AcDbEntity
  8
0-1_ピット
  6
Continuous
 62
     2
370
    13
100
AcDbLine
 10
482.2961471301356
 20
922.0186679509333
 30
0.0
 11
477.5116507196627
 21
925.912875879565
 31
0.0
  0
LINE
  5
216
330
1F
100
AcDbEntity
  8
0-1_ピット
  6
Continuous
 62
     2
370
    13
100
AcDbLine
 10
421.1775211799666
 20
1023.486810898568
 30
0.0
 11
420.1971646026864
 21
1029.57729469291
 31
0.0
  0
LINE
  5
217
330
1F
100
AcDbEntity
  8
0-1_ピット
  6
Continuous
 62
     2
370
    13
100
AcDbLine
 10
414.0913395393416
 20
1016.400629257943
 30
0.0
 11
407.2189459054733
 21
1016.599075995697
 31
0.0
  0
LINE
  5
218
330
1F
100
AcDbEntity
  8
0-1_ピット
  6
Continuous
 62
     2
370
    13
100
AcDbLine
 10
388.1641000439869
 20
1042.327868753298
 30
0.0
 11
395.2502816846119
 21
1049.414050393923
 31
0.0
  0
LINE
  5
219
330
1F
100
AcDbEntity
  8
0-1_ピット
  6
Continuous
 62
     2
370
    13
100
AcDbLine
 10
388.3625467817403
 20
1035.45547511943
 30
0.0
 11
401.3407654789534
 21
1048.433693816643
 31
0.0
  0
LINE
  5
21A
330
1F
100
AcDbEntity
  8
0-1_ピット
  6
Continuous
 62
     2
370
    13
100
AcDbLine
 10
295.0829298845697
 20
1096.068581511955
 30
0.0
 11
297.6765941054311
 21
1105.748427373441
 31
0.0
  0
LINE
  5
21B
330
1F
100
AcDbEntity
  8
0-1_ピット
  6
Continuous
 62
     2
370
    13
100
AcDbLine
 10
289.0320364618502
 20
1092.80410793193
 30
0.0
 11
293.7823861767994
 21
1110.532676344092
 31
0.0
  0
LINE
  5
21C
330
1F
100
AcDbEntity
  8
0-1_ピット
  6
Continuous
 62
     2
370
    13
100
AcDbLine
 10
388.3625467817403
 20
1035.45547511943
 30
0.0
 11
388.1641000439869
 21
1042.327868753298
 31
0.0
  0
LINE
  5
21D
330
1F
100
AcDbEntity
  8
0-1_ピット
  6
Continuous
 62
     2
370
    13
100
AcDbLine
 10
401.3407654789534
 20
1048.433693816643
 30
0.0
 11
395.2502816846119
 21
1049.414050393923
 31
0.0
  0
LINE
  5
21E
330
1F
100
AcDbEntity
  8
0-1_ピット
  6
Continuous
 62
     2
370
    13
100
AcDbLine
 10
297.6765941054311
 20
1105.748427373441
 30
0.0
 11
293.7823861767994
 21
1110.532676344092
 31
0.0
  0
LINE
  5
21F
330
1F
100
AcDbEntity
  8
0-1_ピット
  6
Continuous
 62
     2
370
    13
100
AcDbLine
 10
295.0829298845697
 20
1096.068581511955
 30
0.0
 11
289.0320364618502
 21
1092.80410793193
 31
0.0
  0
LINE
  5
220
330
1F
100
AcDbEntity
  8
0-1_ピット
  6
Continuous
 62
     2
370
    13
100
AcDbLine
 10
259.6656308716898
 20
1105.558641029481
 30
0.0
 11
262.2592950925512
 21
1115.238239451145
 31
0.0
  0
LINE
  5
221
330
1F
100
AcDbEntity
  8
0-1_ピット
  6
Continuous
 62
     2
370
    13
100
AcDbLine
 10
263.2737983653551
 20
1099.705946904691
 30
0.0
 11
268.0241480803046
 21
1117.434762756676
 31
0.0
  0
LINE
  5
222
330
1F
100
AcDbEntity
  8
0-1_ピット
  6
Continuous
 62
     2
370
    13
100
AcDbLine
 10
152.1847002340207
 20
1105.558641029481
 30
0.0
 11
149.5907885733366
 21
1115.238239451145
 31
0.0
  0
LINE
  5
223
330
1F
100
AcDbEntity
  8
0-1_ピット
  6
Continuous
 62
     2
370
    13
100
AcDbLine
 10
148.5765327403551
 20
1099.705946904691
 30
0.0
 11
143.8259355855832
 21
1117.434515316854
 31
0.0
  0
LINE
  5
224
330
1F
100
AcDbEntity
  8
0-1_ピット
  6
Continuous
 62
     2
370
    13
100
AcDbLine
 10
263.2737983653551
 20
1099.705946904691
 30
0.0
 11
259.6656308716898
 21
1105.558641029481
 31
0.0
  0
LINE
  5
225
330
1F
100
AcDbEntity
  8
0-1_ピット
  6
Continuous
 62
     2
370
    13
100
AcDbLine
 10
268.0241480803046
 20
1117.434762756676
 30
0.0
 11
262.2592950925512
 21
1115.238239451145
 31
0.0
  0
LINE
  5
226
330
1F
100
AcDbEntity
  8
0-1_ピット
  6
Continuous
 62
     2
370
    13
100
AcDbLine
 10
149.5907885733366
 20
1115.238239451145
 30
0.0
 11
143.8259355855832
 21
1117.434515316854
 31
0.0
  0
LINE
  5
227
330
1F
100
AcDbEntity
  8
0-1_ピット
  6
Continuous
 62
     2
370
    13
100
AcDbLine
 10
152.1847002340207
 20
1105.558641029481
 30
0.0
 11
148.5765327403551
 21
1099.705946904691
 31
0.0
  0
LINE
  5
228
330
1F
100
AcDbEntity
  8
0-1_ピット
  6
Continuous
 62
     2
370
    13
100
AcDbLine
 10
116.7671537813182
 20
1096.068581511955
 30
0.0
 11
114.1737370002791
 21
1105.748427373441
 31
0.0
  0
LINE
  5
229
330
1F
100
AcDbEntity
  8
0-1_ピット
  6
Continuous
 62
     2
370
    13
100
AcDbLine
 10
122.8180472040377
 20
1092.80410793193
 30
0.0
 11
118.0679449289108
 21
1110.532923783915
 31
0.0
  0
LINE
  5
22A
330
1F
100
AcDbEntity
  8
0-1_ピット
  6
Continuous
 62
     2
370
    13
100
AcDbLine
 10
23.68573618207805
 20
1042.328116193121
 30
0.0
 11
16.59955454145305
 21
1049.414050393923
 31
0.0
  0
LINE
  5
22B
330
1F
100
AcDbEntity
  8
0-1_ピット
  6
Continuous
 62
     2
370
    13
100
AcDbLine
 10
23.48728944432494
 20
1035.45547511943
 30
0.0
 11
10.50907074711191
 21
1048.433693816643
 31
0.0
  0
LINE
  5
22C
330
1F
100
AcDbEntity
  8
0-1_ピット
  6
Continuous
 62
     2
370
    13
100
AcDbLine
 10
122.8180472040377
 20
1092.80410793193
 30
0.0
 11
116.7671537813182
 21
1096.068581511955
 31
0.0
  0
LINE
  5
22D
330
1F
100
AcDbEntity
  8
0-1_ピット
  6
Continuous
 62
     2
370
    13
100
AcDbLine
 10
118.0679449289108
 20
1110.532923783915
 30
0.0
 11
114.1737370002791
 21
1105.748427373441
 31
0.0
  0
LINE
  5
22E
330
1F
100
AcDbEntity
  8
0-1_ピット
  6
Continuous
 62
     2
370
    13
100
AcDbLine
 10
16.59955454145305
 20
1049.414050393923
 30
0.0
 11
10.50907074711191
 21
1048.433693816643
 31
0.0
  0
LINE
  5
22F
330
1F
100
AcDbEntity
  8
0-1_ピット
  6
Continuous
 62
     2
370
    13
100
AcDbLine
 10
23.68573618207805
 20
1042.328116193121
 30
0.0
 11
23.48728944432494
 21
1035.45547511943
 31
0.0
  0
LINE
  5
230
330
1F
100
AcDbEntity
  8
0-1_ピット
  6
Continuous
 62
     2
370
    13
100
AcDbLine
 10
-2.241503313276638
 20
1016.400876697766
 30
0.0
 11
-9.32743751407898
 21
1023.486810898568
 31
0.0
  0
LINE
  5
231
330
1F
100
AcDbEntity
  8
0-1_ピット
  6
Continuous
 62
     2
370
    13
100
AcDbLine
 10
4.631014040503061
 20
1016.599075995697
 30
0.0
 11
-8.347328376621164
 21
1029.577542132733
 31
0.0
  0
LINE
  5
232
330
1F
100
AcDbEntity
  8
0-1_ピット
  6
Continuous
 62
     2
370
    13
100
AcDbLine
 10
-55.98209235202219
 20
923.3194590985262
 30
0.0
 11
-65.66193821350893
 21
925.912875879565
 31
0.0
  0
LINE
  5
233
330
1F
100
AcDbEntity
  8
0-1_ピット
  6
Continuous
 62
     2
370
    13
100
AcDbLine
 10
-52.71761877199694
 20
917.268318235984
 30
0.0
 11
-70.44631090407037
 21
922.0186679509333
 31
0.0
  0
LINE
  5
234
330
1F
100
AcDbEntity
  8
0-1_ピット
  6
Continuous
 62
     2
370
    13
100
AcDbLine
 10
4.631014040503061
 20
1016.599075995697
 30
0.0
 11
-2.241503313276638
 21
1016.400876697766
 31
0.0
  0
LINE
  5
235
330
1F
100
AcDbEntity
  8
0-1_ピット
  6
Continuous
 62
     2
370
    13
100
AcDbLine
 10
-8.347328376621164
 20
1029.577542132733
 30
0.0
 11
-9.32743751407898
 21
1023.486810898568
 31
0.0
  0
LINE
  5
236
330
1F
100
AcDbEntity
  8
0-1_ピット
  6
Continuous
 62
     2
370
    13
100
AcDbLine
 10
-65.66193821350893
 20
925.912875879565
 30
0.0
 11
-70.44631090407037
 21
922.0186679509333
 31
0.0
  0
LINE
  5
237
330
1F
100
AcDbEntity
  8
0-1_ピット
  6
Continuous
 62
     2
370
    13
100
AcDbLine
 10
-55.98209235202219
 20
923.3194590985262
 30
0.0
 11
-52.71761877199694
 21
917.268318235984
 31
0.0
  0
LINE
  5
238
330
1F
100
AcDbEntity
  8
0-1_ピット
  6
Continuous
 62
     2
370
    13
100
AcDbLine
 10
477.3221118155242
 20
887.9019126458236
 30
0.0
 11
487.0019576770106
 21
890.4958243065078
 31
0.0
  0
LINE
  5
239
330
1F
100
AcDbEntity
  8
0-1_ピット
  6
Continuous
 62
     2
370
    13
100
AcDbLine
 10
471.469665130558
 20
891.5100801394892
 30
0.0
 11
489.19823354272
 21
896.2604298544385
 31
0.0
  0
LINE
  5
23A
330
1F
100
AcDbEntity
  8
0-1_ピット
  6
Continuous
 62
     2
370
    13
100
AcDbLine
 10
487.0019576770106
 20
890.4958243065078
 30
0.0
 11
489.19823354272
 21
896.2604298544385
 31
0.0
  0
LINE
  5
23B
330
1F
100
AcDbEntity
  8
0-1_ピット
  6
Continuous
 62
     2
370
    13
100
AcDbLine
 10
477.3221118155242
 20
887.9019126458236
 30
0.0
 11
471.469665130558
 21
891.5100801394892
 31
0.0
  0
LINE
  5
23C
330
1F
100
AcDbEntity
  8
0-1_ピット
  6
Continuous
 62
     2
370
    13
100
AcDbLine
 10
-65.47215186954773
 20
887.9019126458236
 30
0.0
 11
-75.15199773103419
 21
890.4958243065078
 31
0.0
  0
LINE
  5
23D
330
1F
100
AcDbEntity
  8
0-1_ピット
  6
Continuous
 62
     2
370
    13
100
AcDbLine
 10
-59.61958146467012
 20
891.5100801394892
 30
0.0
 11
-77.3480261569209
 21
896.2604298544385
 31
0.0
  0
LINE
  5
23E
330
1F
100
AcDbEntity
  8
0-1_ピット
  6
Continuous
 62
     2
370
    13
100
AcDbLine
 10
-75.15199773103419
 20
890.4958243065078
 30
0.0
 11
-77.3480261569209
 21
896.2604298544385
 31
0.0
  0
LINE
  5
23F
330
1F
100
AcDbEntity
  8
0-1_ピット
  6
Continuous
 62
     2
370
    13
100
AcDbLine
 10
-65.47215186954773
 20
887.9019126458236
 30
0.0
 11
-59.61958146467012
 21
891.5100801394892
 31
0.0
  0
LINE
  5
240
330
1F
100
AcDbEntity
  8
0-1_ピット
  6
Continuous
 62
     4
370
    13
100
AcDbLine
 10
272.5916397663265
 20
992.9326941597593
 30
0.0
 11
285.1007125598231
 21
1014.59926734916
 31
0.0
  0
LINE
  5
241
330
1F
100
AcDbEntity
  8
0-1_ピット
  6
Continuous
 62
     4
370
    13
100
AcDbLine
 10
272.5916397663265
 20
992.9326941597593
 30
0.0
 11
285.1007125598231
 21
971.266120970359
 31
0.0
  0
LINE
  5
242
330
1F
100
AcDbEntity
  8
0-1_ピット
  6
Continuous
 62
     4
370
    13
100
AcDbLine
 10
285.1007125598231
 20
971.266120970359
 30
0.0
 11
310.0822370530663
 21
971.266120970359
 31
0.0
  0
LINE
  5
243
330
1F
100
AcDbEntity
  8
0-1_ピット
  6
Continuous
 62
     4
370
    13
100
AcDbLine
 10
322.5915572863856
 20
992.9326941597593
 30
0.0
 11
310.0822370530663
 21
971.266120970359
 31
0.0
  0
LINE
  5
244
330
1F
100
AcDbEntity
  8
0-1_ピット
  6
Continuous
 62
     4
370
    13
100
AcDbLine
 10
287.2734816423822
 20
988.899919930452
 30
0.0
 11
306.2432082048822
 21
999.8521013599283
 31
0.0
  0
LINE
  5
245
330
1F
100
AcDbEntity
  8
0-1_ピット
  6
Continuous
 62
     4
370
    13
100
AcDbLine
 10
288.9399888478299
 20
986.0132869595906
 30
0.0
 11
307.9097154103299
 21
996.9654683890668
 31
0.0
  0
LINE
  5
246
330
1F
100
AcDbEntity
  8
0-1_ピット
  6
JWW_CENTER1
 62
     4
370
    13
100
AcDbLine
 10
315.0963576189447
 20
1023.251495627243
 30
0.0
 11
280.0823855169598
 21
962.605974617952
 31
0.0
  0
LINE
  5
247
330
1F
100
AcDbEntity
  8
0-1_ピット
  6
Continuous
 62
     4
370
    13
100
AcDbLine
 10
47.60104247958664
 20
834.1772834756376
 30
0.0
 11
35.11028023296504
 21
855.8119369279182
 31
0.0
  0
LINE
  5
248
330
1F
100
AcDbEntity
  8
0-1_ピット
  6
Continuous
 62
     4
370
    13
100
AcDbLine
 10
10.09188720614915
 20
855.8121843677408
 30
0.0
 11
35.11028023296504
 21
855.8119369279182
 31
0.0
  0
LINE
  5
249
330
1F
100
AcDbEntity
  8
0-1_ピット
  6
Continuous
 62
     4
370
    13
100
AcDbLine
 10
25.92506657692624
 20
834.1614473269892
 30
0.0
 11
13.94007132777077
 21
841.080854527158
 31
0.0
  0
LINE
  5
24A
330
1F
100
AcDbEntity
  8
0-1_ピット
  6
Continuous
 62
     4
370
    13
100
AcDbLine
 10
19.25854287549029
 20
834.1614473269892
 30
0.0
 11
12.27356412232311
 21
838.1942215562965
 31
0.0
  0
LINE
  5
24B
330
1F
100
AcDbEntity
  8
0-1_ピット
  6
Continuous
 62
     4
370
    13
100
AcDbLine
 10
47.59188720614914
 20
834.1614473269892
 30
0.0
 11
47.60104247958664
 21
834.1772834756376
 31
0.0
  0
LINE
  5
24C
330
1F
100
AcDbEntity
  8
0-2_本体（蓋）
  6
Continuous
 62
     6
370
    13
100
AcDbLine
 10
470.5929858389617
 20
847.4947421696833
 30
0.0
 11
475.5957241729989
 21
847.4947421696833
 31
0.0
  0
LINE
  5
24D
330
1F
100
AcDbEntity
  8
0-2_本体（蓋）
  6
Continuous
 62
     6
370
    13
100
AcDbLine
 10
464.5938073391728
 20
850.8280040204012
 30
0.0
 11
472.0702015800935
 21
850.8280040204012
 31
0.0
  0
LINE
  5
24E
330
1F
100
AcDbEntity
  8
0-2_本体（蓋）
  6
Continuous
 62
     6
370
    13
100
AcDbLine
 10
436.8649584952117
 20
867.4948081536361
 30
0.0
 11
470.4999484656507
 21
867.4948081536361
 31
0.0
  0
LINE
  5
24F
330
1F
100
AcDbEntity
  8
0-2_本体（蓋）
  6
Continuous
 62
     6
370
    13
100
AcDbLine
 10
436.3589440579228
 20
870.8280700043541
 30
0.0
 11
473.4236974099075
 21
870.8280700043541
 31
0.0
  0
LINE
  5
250
330
1F
100
AcDbEntity
  8
0-2_本体（蓋）
  6
Continuous
 62
     6
370
    13
100
AcDbLine
 10
472.0702015800935
 20
850.8280040204012
 30
0.0
 11
475.5957241729989
 21
847.4947421696833
 31
0.0
  0
LINE
  5
251
330
1F
100
AcDbEntity
  8
0-2_本体（蓋）
  6
Continuous
 62
     6
370
    13
100
AcDbLine
 10
470.4999484656507
 20
867.4948081536361
 30
0.0
 11
473.4236974099075
 21
870.8280700043541
 31
0.0
  0
LINE
  5
252
330
1F
100
AcDbEntity
  8
0-2_本体（蓋）
  6
Continuous
 62
     6
370
    13
100
AcDbLine
 10
-58.74314961289642
 20
847.4947421696833
 30
0.0
 11
-63.74564050711101
 21
847.4947421696833
 31
0.0
  0
LINE
  5
253
330
1F
100
AcDbEntity
  8
0-2_本体（蓋）
  6
Continuous
 62
     6
370
    13
100
AcDbLine
 10
-52.74421855293028
 20
850.8280040204012
 30
0.0
 11
-60.22036535402819
 21
850.8280040204012
 31
0.0
  0
LINE
  5
254
330
1F
100
AcDbEntity
  8
0-2_本体（蓋）
  6
Continuous
 62
     6
370
    13
100
AcDbLine
 10
-25.01512226914642
 20
867.4948081536361
 30
0.0
 11
-58.65011223958575
 21
867.4948081536361
 31
0.0
  0
LINE
  5
255
330
1F
100
AcDbEntity
  8
0-2_本体（蓋）
  6
Continuous
 62
     6
370
    13
100
AcDbLine
 10
-24.50935527168028
 20
870.8280700043541
 30
0.0
 11
-61.57386118384252
 21
870.8280700043541
 31
0.0
  0
LINE
  5
256
330
1F
100
AcDbEntity
  8
0-2_本体（蓋）
  6
Continuous
 62
     6
370
    13
100
AcDbLine
 10
-60.22036535402819
 20
850.8280040204012
 30
0.0
 11
-63.74564050711101
 21
847.4947421696833
 31
0.0
  0
LINE
  5
257
330
1F
100
AcDbEntity
  8
0-2_本体（蓋）
  6
Continuous
 62
     6
370
    13
100
AcDbLine
 10
-58.65011223958575
 20
867.4948081536361
 30
0.0
 11
-61.57386118384252
 21
870.8280700043541
 31
0.0
  0
LINE
  5
258
330
1F
100
AcDbEntity
  8
0-2_本体（蓋）
  6
Continuous
 62
     6
370
    13
100
AcDbLine
 10
-19.37027759537116
 20
894.8787258848439
 30
0.0
 11
-9.841864905337303
 21
892.3107954055364
 31
0.0
  0
LINE
  5
259
330
1F
100
AcDbEntity
  8
0-2_本体（蓋）
  6
Continuous
 62
     6
370
    13
100
AcDbLine
 10
-26.54974404912949
 20
854.1615133109418
 30
0.0
 11
-16.71797013654512
 21
853.3155165573522
 31
0.0
  0
LINE
  5
25A
330
1F
100
AcDbEntity
  8
0-2_本体（蓋）
  6
Continuous
 62
     6
370
    13
100
AcDbLine
 10
14.98327762000045
 20
968.2723465562965
 30
0.0
 11
23.05872367152077
 21
962.6005309418541
 31
0.0
  0
LINE
  5
25B
330
1F
100
AcDbEntity
  8
0-2_本体（蓋）
  6
Continuous
 62
     6
370
    13
100
AcDbLine
 10
-5.68932980187455
 20
932.4663195820567
 30
0.0
 11
3.260321143015545
 21
928.3088356821411
 31
0.0
  0
LINE
  5
25C
330
1F
100
AcDbEntity
  8
0-2_本体（蓋）
  6
Continuous
 62
     6
370
    13
100
AcDbLine
 10
72.36704688731477
 20
1025.490578582268
 30
0.0
 11
78.01560315842961
 21
1017.398554062631
 31
0.0
  0
LINE
  5
25D
330
1F
100
AcDbEntity
  8
0-2_本体（蓋）
  6
Continuous
 62
     6
370
    13
100
AcDbLine
 10
40.69474959001738
 20
998.9143044321411
 30
0.0
 11
47.68269762105616
 21
991.9463990267359
 31
0.0
  0
LINE
  5
25E
330
1F
100
AcDbEntity
  8
0-2_本体（蓋）
  6
Continuous
 62
     6
370
    13
100
AcDbLine
 10
145.8601383674666
 20
1059.631335550173
 30
0.0
 11
148.400355586639
 21
1050.095747105283
 31
0.0
  0
LINE
  5
25F
330
1F
100
AcDbEntity
  8
0-2_本体（蓋）
  6
Continuous
 62
     6
370
    13
100
AcDbLine
 10
107.0081271765882
 20
1045.490397126398
 30
0.0
 11
111.191344818058
 21
1036.552870732817
 31
0.0
  0
LINE
  5
260
330
1F
100
AcDbEntity
  8
0-2_本体（蓋）
  6
Continuous
 62
     6
370
    13
100
AcDbLine
 10
226.5977729747301
 20
1066.577218811364
 30
0.0
 11
225.7233206415377
 21
1056.747671857183
 31
0.0
  0
LINE
  5
261
330
1F
100
AcDbEntity
  8
0-2_本体（蓋）
  6
Continuous
 62
     6
370
    13
100
AcDbLine
 10
185.2523106911575
 20
1066.577218811364
 30
0.0
 11
186.1265155845275
 21
1056.747919297006
 31
0.0
  0
LINE
  5
262
330
1F
100
AcDbEntity
  8
0-2_本体（蓋）
  6
Continuous
 62
     6
370
    13
100
AcDbLine
 10
304.8419564892994
 20
1045.490397126398
 30
0.0
 11
300.6584914080072
 21
1036.552623292994
 31
0.0
  0
LINE
  5
263
330
1F
100
AcDbEntity
  8
0-2_本体（蓋）
  6
Continuous
 62
     6
370
    13
100
AcDbLine
 10
265.989945298421
 20
1059.631335550173
 30
0.0
 11
263.4494806394262
 21
1050.095747105283
 31
0.0
  0
LINE
  5
264
330
1F
100
AcDbEntity
  8
0-2_本体（蓋）
  6
Continuous
 62
     6
370
    13
100
AcDbLine
 10
371.1553340758705
 20
998.9140569923184
 30
0.0
 11
364.1671386050091
 21
991.9463990267359
 31
0.0
  0
LINE
  5
265
330
1F
100
AcDbEntity
  8
0-2_本体（蓋）
  6
Continuous
 62
     6
370
    13
100
AcDbLine
 10
339.4830367785731
 20
1025.490331142445
 30
0.0
 11
333.8344805074582
 21
1017.398801502454
 31
0.0
  0
LINE
  5
266
330
1F
100
AcDbEntity
  8
0-2_本体（蓋）
  6
Continuous
 62
     6
370
    13
100
AcDbLine
 10
417.5394134677624
 20
932.4663195820567
 30
0.0
 11
408.5895150830494
 21
928.3088356821411
 31
0.0
  0
LINE
  5
267
330
1F
100
AcDbEntity
  8
0-2_本体（蓋）
  6
Continuous
 62
     6
370
    13
100
AcDbLine
 10
396.8668060458874
 20
968.2723465562965
 30
0.0
 11
388.7913599943671
 21
962.6005309418541
 31
0.0
  0
LINE
  5
268
330
1F
100
AcDbEntity
  8
0-2_本体（蓋）
  6
Continuous
 62
     6
370
    13
100
AcDbLine
 10
438.3995802751947
 20
854.1615133109418
 30
0.0
 11
428.5678063626103
 21
853.3155165573522
 31
0.0
  0
LINE
  5
269
330
1F
100
AcDbEntity
  8
0-2_本体（蓋）
  6
Continuous
 62
     6
370
    13
100
AcDbLine
 10
431.2201138214364
 20
894.8787258848439
 30
0.0
 11
421.6919485712252
 21
892.3107954055364
 31
0.0
  0
LINE
  5
26A
330
1F
100
AcDbEntity
  8
0-2_本体（蓋）
  6
Continuous
 62
     6
370
    13
100
AcDbLine
 10
197.5916397663265
 20
1024.161579294894
 30
0.0
 11
214.2584438995614
 21
1024.161579294894
 31
0.0
  0
LINE
  5
26B
330
1F
100
AcDbEntity
  8
0-2_本体（蓋）
  6
Continuous
 62
     6
370
    13
100
AcDbLine
 10
195.9248851210562
 20
1025.828333940165
 30
0.0
 11
215.9249511050091
 21
1025.828333940165
 31
0.0
  0
LINE
  5
26C
330
1F
100
AcDbEntity
  8
0-2_本体（蓋）
  6
Continuous
 62
     6
370
    13
100
AcDbLine
 10
195.9248851210562
 20
1025.828333940165
 30
0.0
 11
197.5916397663265
 21
1024.161579294894
 31
0.0
  0
LINE
  5
26D
330
1F
100
AcDbEntity
  8
0-2_本体（蓋）
  6
Continuous
 62
     6
370
    13
100
AcDbLine
 10
215.9249511050091
 20
1025.828333940165
 30
0.0
 11
214.2584438995614
 21
1024.161579294894
 31
0.0
  0
LINE
  5
26E
330
1F
100
AcDbEntity
  8
0-2_本体（蓋）
  6
Continuous
 62
     6
370
    13
100
AcDbLine
 10
188.4249840969854
 20
1063.167498055452
 30
0.0
 11
223.4250995689025
 21
1063.167498055452
 31
0.0
  0
LINE
  5
26F
330
1F
100
AcDbEntity
  8
0-2_本体（蓋）
  6
Continuous
 62
     6
370
    13
100
AcDbLine
 10
204.2584109075848
 20
1064.834252700722
 30
0.0
 11
207.5916727583028
 21
1064.834252700722
 31
0.0
  0
LINE
  5
270
330
1F
100
AcDbEntity
  8
0-2_本体（蓋）
  6
Continuous
 62
     6
370
    13
100
AcDbLine
 10
207.5916727583028
 20
1064.834252700722
 30
0.0
 11
207.5916727583028
 21
1076.107116140334
 31
0.0
  0
LINE
  5
271
330
1F
100
AcDbEntity
  8
0-2_本体（蓋）
  6
Continuous
 62
     6
370
    13
100
AcDbLine
 10
204.2584109075848
 20
1064.834252700722
 30
0.0
 11
204.2584109075848
 21
1076.107116140334
 31
0.0
  0
LINE
  5
272
330
1F
100
AcDbEntity
  8
0-2_本体（蓋）
  6
Continuous
 62
     6
370
    13
100
AcDbLine
 10
197.5916397663265
 20
1024.161579294894
 30
0.0
 11
197.5916397663265
 21
1030.651430962969
 31
0.0
  0
LINE
  5
273
330
1F
100
AcDbEntity
  8
0-2_本体（蓋）
  6
Continuous
 62
     6
370
    13
100
AcDbLine
 10
197.5916397663265
 20
1047.673311241685
 30
0.0
 11
197.5916397663265
 21
1063.167498055452
 31
0.0
  0
LINE
  5
274
330
1F
100
AcDbEntity
  8
0-2_本体（蓋）
  6
Continuous
 62
     6
370
    13
100
AcDbLine
 10
195.9248851210562
 20
1025.828333940165
 30
0.0
 11
195.9248851210562
 21
1030.573734858661
 31
0.0
  0
LINE
  5
275
330
1F
100
AcDbEntity
  8
0-2_本体（蓋）
  6
Continuous
 62
     6
370
    13
100
AcDbLine
 10
195.9248851210562
 20
1047.601801132943
 30
0.0
 11
195.9248851210562
 21
1063.167498055452
 31
0.0
  0
LINE
  5
276
330
1F
100
AcDbEntity
  8
0-2_本体（蓋）
  6
Continuous
 62
     6
370
    13
100
AcDbLine
 10
214.2584438995614
 20
1024.161579294894
 30
0.0
 11
214.2584438995614
 21
1030.651430962969
 31
0.0
  0
LINE
  5
277
330
1F
100
AcDbEntity
  8
0-2_本体（蓋）
  6
Continuous
 62
     6
370
    13
100
AcDbLine
 10
214.2584438995614
 20
1047.673311241685
 30
0.0
 11
214.2584438995614
 21
1063.167498055452
 31
0.0
  0
LINE
  5
278
330
1F
100
AcDbEntity
  8
0-2_本体（蓋）
  6
Continuous
 62
     6
370
    13
100
AcDbLine
 10
215.9249511050091
 20
1025.828333940165
 30
0.0
 11
215.9249511050091
 21
1030.573734858661
 31
0.0
  0
LINE
  5
279
330
1F
100
AcDbEntity
  8
0-2_本体（蓋）
  6
Continuous
 62
     6
370
    13
100
AcDbLine
 10
215.9249511050091
 20
1047.601801132943
 30
0.0
 11
215.9249511050091
 21
1063.167498055452
 31
0.0
  0
LINE
  5
27A
330
1F
100
AcDbEntity
  8
0-2_本体（蓋）
  6
Continuous
 62
     6
370
    13
100
AcDbLine
 10
-60.74196850014303
 20
834.1614473269892
 30
0.0
 11
-60.74196850014303
 21
836.1615034133489
 31
0.0
  0
LINE
  5
27B
330
1F
100
AcDbEntity
  8
0-2_本体（蓋）
  6
Continuous
 62
     6
370
    13
100
AcDbLine
 10
-60.74196850014303
 20
836.1615034133489
 30
0.0
 11
-34.07537881475449
 21
836.1615034133489
 31
0.0
  0
LINE
  5
27C
330
1F
100
AcDbEntity
  8
0-2_本体（蓋）
  6
Continuous
 62
     6
370
    13
100
AcDbLine
 10
-34.07537881475449
 20
834.1614473269892
 30
0.0
 11
-34.07537881475449
 21
836.1615034133489
 31
0.0
  0
LINE
  5
27D
330
1F
100
AcDbEntity
  8
0-2_本体（蓋）
  6
Continuous
 62
     6
370
    13
100
AcDbLine
 10
472.5918047262082
 20
834.1614473269892
 30
0.0
 11
472.5918047262082
 21
836.1615034133489
 31
0.0
  0
LINE
  5
27E
330
1F
100
AcDbEntity
  8
0-2_本体（蓋）
  6
Continuous
 62
     6
370
    13
100
AcDbLine
 10
472.5918047262082
 20
836.1615034133489
 30
0.0
 11
445.9252150408197
 21
836.1615034133489
 31
0.0
  0
LINE
  5
27F
330
1F
100
AcDbEntity
  8
0-2_本体（蓋）
  6
Continuous
 62
     6
370
    13
100
AcDbLine
 10
445.9252150408197
 20
834.1614473269892
 30
0.0
 11
445.9252150408197
 21
836.1615034133489
 31
0.0
  0
LINE
  5
280
330
1F
100
AcDbEntity
  8
0-1_ピット
  6
JWW_CENTER1
 62
     4
370
    13
100
AcDbLine
 10
270.1813284540377
 20
1008.758202896035
 30
0.0
 11
325.0016211588518
 21
977.1074328633067
 31
0.0
  0
LINE
  5
281
330
1F
100
AcDbEntity
  8
0-1_ピット
  6
Continuous
 62
     2
370
    13
100
AcDbLine
 10
22.59180472620827
 20
877.495088585435
 30
0.0
 11
14.09175193904602
 21
877.495088585435
 31
0.0
  0
LINE
  5
282
330
1F
100
AcDbEntity
  8
0-1_ピット
  6
Continuous
 62
     2
370
    13
100
AcDbLine
 10
22.59155728638561
 20
874.1615792948944
 30
0.0
 11
13.36898021712884
 21
874.1615792948944
 31
0.0
  0
LINE
  5
283
330
1F
100
AcDbEntity
  8
0-1_ピット
  6
Continuous
 62
     2
370
    13
100
AcDbLine
 10
335.1194355064025
 20
971.2658735305364
 30
0.0
 11
339.3694618999835
 21
978.6272082539317
 31
0.0
  0
LINE
  5
284
330
1F
100
AcDbEntity
  8
0-1_ピット
  6
Continuous
 62
     2
370
    13
100
AcDbLine
 10
332.2328025355411
 20
972.9326281758067
 30
0.0
 11
336.8440910701695
 21
980.9197382106463
 31
0.0
  0
LINE
  5
285
330
1F
100
AcDbEntity
  8
0-1_ピット
  6
Continuous
 62
     2
370
    13
100
AcDbLine
 10
262.9506419569936
 20
1012.932760143712
 30
0.0
 11
267.561930491622
 21
1020.919870178552
 31
0.0
  0
LINE
  5
286
330
1F
100
AcDbEntity
  8
0-1_ピット
  6
Continuous
 62
     2
370
    13
100
AcDbLine
 10
260.0637615463095
 20
1014.599514788982
 30
0.0
 11
264.3137879398908
 21
1021.960602072555
 31
0.0
  0
ARC
  5
287
330
1F
100
AcDbEntity
  8
0-1_ピット
  6
Continuous
 62
     2
370
    13
100
AcDbCircle
 10
205.9249181130325
 20
834.1614473269892
 30
0.0
 40
276.6666721653294
100
AcDbArc
 50
18.79946899414063
 51
41.20048522949219
  0
ARC
  5
288
330
1F
100
AcDbEntity
  8
0-1_ピット
  6
Continuous
 62
     2
370
    13
100
AcDbCircle
 10
205.9249181130325
 20
834.1614473269892
 30
0.0
 40
286.6666742273279
100
AcDbArc
 50
18.666748046875
 51
41.33323669433594
  0
ARC
  5
289
330
1F
100
AcDbEntity
  8
0-1_ピット
  6
Continuous
 62
     2
370
    13
100
AcDbCircle
 10
205.9249181130325
 20
834.1614473269892
 30
0.0
 40
289.9999979380015
100
AcDbArc
 50
17.63522338867188
 51
42.36474609375
  0
ARC
  5
28A
330
1F
100
AcDbEntity
  8
0-1_ピット
  6
Continuous
 62
     2
370
    13
100
AcDbCircle
 10
205.9249181130325
 20
834.1614473269892
 30
0.0
 40
271.6666556693412
100
AcDbArc
 50
17.81321716308594
 51
42.18676757812501
  0
ARC
  5
28B
330
1F
100
AcDbEntity
  8
0-1_ピット
  6
Continuous
 62
     2
370
    13
100
AcDbCircle
 10
205.9249181130325
 20
834.1614473269892
 30
0.0
 40
276.6666721653294
100
AcDbArc
 50
48.79946899414063
 51
71.20048522949219
  0
ARC
  5
28C
330
1F
100
AcDbEntity
  8
0-1_ピット
  6
Continuous
 62
     2
370
    13
100
AcDbCircle
 10
205.9249181130325
 20
834.1614473269892
 30
0.0
 40
271.6666556693412
100
AcDbArc
 50
47.81321716308594
 51
72.18676757812501
  0
ARC
  5
28D
330
1F
100
AcDbEntity
  8
0-1_ピット
  6
Continuous
 62
     2
370
    13
100
AcDbCircle
 10
205.9249181130325
 20
834.1614473269892
 30
0.0
 40
276.6666721653294
100
AcDbArc
 50
78.79946899414062
 51
101.2004852294922
  0
ARC
  5
28E
330
1F
100
AcDbEntity
  8
0-1_ピット
  6
Continuous
 62
     2
370
    13
100
AcDbCircle
 10
205.9249181130325
 20
834.1614473269892
 30
0.0
 40
286.6666742273279
100
AcDbArc
 50
78.66674804687503
 51
101.333236694336
  0
ARC
  5
28F
330
1F
100
AcDbEntity
  8
0-1_ピット
  6
Continuous
 62
     2
370
    13
100
AcDbCircle
 10
205.9249181130325
 20
834.1614473269892
 30
0.0
 40
289.9999979380015
100
AcDbArc
 50
77.63522338867188
 51
102.36474609375
  0
ARC
  5
290
330
1F
100
AcDbEntity
  8
0-1_ピット
  6
Continuous
 62
     2
370
    13
100
AcDbCircle
 10
205.9249181130325
 20
834.1614473269892
 30
0.0
 40
276.6666721653294
100
AcDbArc
 50
108.7994689941406
 51
131.2004852294922
  0
ARC
  5
291
330
1F
100
AcDbEntity
  8
0-1_ピット
  6
Continuous
 62
     2
370
    13
100
AcDbCircle
 10
205.9249181130325
 20
834.1614473269892
 30
0.0
 40
286.6666742273279
100
AcDbArc
 50
108.666748046875
 51
131.3332366943359
  0
ARC
  5
292
330
1F
100
AcDbEntity
  8
0-1_ピット
  6
Continuous
 62
     2
370
    13
100
AcDbCircle
 10
205.9249181130325
 20
834.1614473269892
 30
0.0
 40
289.9999979380015
100
AcDbArc
 50
107.6352233886719
 51
132.36474609375
  0
ARC
  5
293
330
1F
100
AcDbEntity
  8
0-1_ピット
  6
Continuous
 62
     2
370
    13
100
AcDbCircle
 10
205.9249181130325
 20
834.1614473269892
 30
0.0
 40
271.6666556693412
100
AcDbArc
 50
107.813217163086
 51
132.186767578125
  0
ARC
  5
294
330
1F
100
AcDbEntity
  8
0-1_ピット
  6
Continuous
 62
     2
370
    13
100
AcDbCircle
 10
205.9249181130325
 20
834.1614473269892
 30
0.0
 40
276.6666721653294
100
AcDbArc
 50
138.7994689941407
 51
161.2004852294922
  0
ARC
  5
295
330
1F
100
AcDbEntity
  8
0-1_ピット
  6
Continuous
 62
     2
370
    13
100
AcDbCircle
 10
205.9249181130325
 20
834.1614473269892
 30
0.0
 40
286.6666742273279
100
AcDbArc
 50
138.666748046875
 51
161.3332366943359
  0
ARC
  5
296
330
1F
100
AcDbEntity
  8
0-1_ピット
  6
Continuous
 62
     2
370
    13
100
AcDbCircle
 10
205.9249181130325
 20
834.1614473269892
 30
0.0
 40
289.9999979380015
100
AcDbArc
 50
137.6352233886719
 51
162.36474609375
  0
ARC
  5
297
330
1F
100
AcDbEntity
  8
0-1_ピット
  6
Continuous
 62
     2
370
    13
100
AcDbCircle
 10
205.9249181130325
 20
834.1614473269892
 30
0.0
 40
271.6666556693412
100
AcDbArc
 50
137.8132171630859
 51
162.186767578125
  0
ARC
  5
298
330
1F
100
AcDbEntity
  8
0-1_ピット
  6
Continuous
 62
     2
370
    13
100
AcDbCircle
 10
205.9249181130325
 20
834.1614473269892
 30
0.0
 40
271.6666556693412
100
AcDbArc
 50
7.226165771484386
 51
12.18676757812501
  0
ARC
  5
299
330
1F
100
AcDbEntity
  8
0-1_ピット
  6
Continuous
 62
     2
370
    13
100
AcDbCircle
 10
205.9249181130325
 20
834.1614473269892
 30
0.0
 40
272.9182062922297
100
AcDbArc
 50
0.0
 51
6.4696044921875
  0
ARC
  5
29A
330
1F
100
AcDbEntity
  8
0-1_ピット
  6
Continuous
 62
     2
370
    13
100
AcDbCircle
 10
205.9249181130325
 20
834.1614473269892
 30
0.0
 40
276.6666721653294
100
AcDbArc
 50
0.0
 51
11.20048522949219
  0
ARC
  5
29B
330
1F
100
AcDbEntity
  8
0-1_ピット
  6
Continuous
 62
     2
370
    13
100
AcDbCircle
 10
205.9249181130325
 20
834.1614473269892
 30
0.0
 40
286.6666742273279
100
AcDbArc
 50
0.0
 51
11.33323669433594
  0
ARC
  5
29C
330
1F
100
AcDbEntity
  8
0-1_ピット
  6
Continuous
 62
     2
370
    13
100
AcDbCircle
 10
205.9249181130325
 20
834.1614473269892
 30
0.0
 40
289.9999979380015
100
AcDbArc
 50
0.0
 51
12.36474609375
  0
ARC
  5
29D
330
1F
100
AcDbEntity
  8
0-1_ピット
  6
Continuous
 62
     2
370
    13
100
AcDbCircle
 10
205.9249181130325
 20
834.1614473269892
 30
0.0
 40
271.6666556693412
100
AcDbArc
 50
167.813232421875
 51
172.7738342285157
  0
ARC
  5
29E
330
1F
100
AcDbEntity
  8
0-1_ピット
  6
Continuous
 62
     2
370
    13
100
AcDbCircle
 10
205.9249181130325
 20
834.1614473269892
 30
0.0
 40
271.6666556693412
100
AcDbArc
 50
94.32832336425781
 51
102.186767578125
  0
ARC
  5
29F
330
1F
100
AcDbEntity
  8
0-1_ピット
  6
Continuous
 62
     2
370
    13
100
AcDbCircle
 10
205.9249181130325
 20
834.1614473269892
 30
0.0
 40
271.6666556693412
100
AcDbArc
 50
77.81321716308597
 51
85.6716766357422
  0
ARC
  5
2A0
330
1F
100
AcDbEntity
  8
0-1_ピット
  6
Continuous
 62
     2
370
    13
100
AcDbCircle
 10
205.9249181130325
 20
834.1614473269892
 30
0.0
 40
272.9182062922297
100
AcDbArc
 50
87.12954711914064
 51
92.87045288085939
  0
ARC
  5
2A1
330
1F
100
AcDbEntity
  8
0-1_ピット
  6
Continuous
 62
     2
370
    13
100
AcDbCircle
 10
470.480895599308
 20
864.1615463029182
 30
0.0
 40
6.666666752583272
100
AcDbArc
 50
310.0906219482422
 51
6.470062255859379
  0
ARC
  5
2A2
330
1F
100
AcDbEntity
  8
0-1_ピット
  6
Continuous
 62
     2
370
    13
100
AcDbCircle
 10
468.820079509781
 20
867.4948081536361
 30
0.0
 40
6.666666752583272
100
AcDbArc
 50
325.343994140625
 51
7.226165771484379
  0
ARC
  5
2A3
330
1F
100
AcDbEntity
  8
0-1_ピット
  6
Continuous
 62
     2
370
    13
100
AcDbCircle
 10
225.9249840969854
 20
1098.405650636744
 30
0.0
 40
6.666666752583272
100
AcDbArc
 50
85.67150878906249
 51
127.5557861328125
  0
ARC
  5
2A4
330
1F
100
AcDbEntity
  8
0-1_ピット
  6
Continuous
 62
     2
370
    13
100
AcDbCircle
 10
219.2584603955494
 20
1100.078838717403
 30
0.0
 40
6.666666752583272
100
AcDbArc
 50
87.1295166015625
 51
143.5076599121094
  0
ARC
  5
2A5
330
1F
100
AcDbEntity
  8
0-1_ピット
  6
Continuous
 62
     2
370
    13
100
AcDbCircle
 10
192.5916232703382
 20
1100.078838717403
 30
0.0
 40
6.666666752583272
100
AcDbArc
 50
36.49234008789062
 51
92.8704833984375
  0
ARC
  5
2A6
330
1F
100
AcDbEntity
  8
0-1_ピット
  6
Continuous
 62
     2
370
    13
100
AcDbCircle
 10
185.9250995689025
 20
1098.405650636744
 30
0.0
 40
6.666666752583272
100
AcDbArc
 50
52.44421386718751
 51
94.32849121093751
  0
ARC
  5
2A7
330
1F
100
AcDbEntity
  8
0-1_ピット
  6
Continuous
 62
     2
370
    13
100
AcDbCircle
 10
205.9249181130325
 20
834.1614473269892
 30
0.0
 40
286.6666742273279
100
AcDbArc
 50
168.6667633056641
 51
178.8652954101562
  0
ARC
  5
2A8
330
1F
100
AcDbEntity
  8
0-1_ピット
  6
Continuous
 62
     2
370
    13
100
AcDbCircle
 10
205.9249181130325
 20
834.1614473269892
 30
0.0
 40
289.9999979380015
100
AcDbArc
 50
176.7052307128907
 51
177.7916412353515
  0
ARC
  5
2A9
330
1F
100
AcDbEntity
  8
0-1_ピット
  6
Continuous
 62
     2
370
    13
100
AcDbCircle
 10
-56.97024328371569
 20
867.4948081536361
 30
0.0
 40
6.666666752583272
100
AcDbArc
 50
172.7738342285156
 51
214.656005859375
  0
ARC
  5
2AA
330
1F
100
AcDbEntity
  8
0-1_ピット
  6
Continuous
 62
     2
370
    13
100
AcDbCircle
 10
-58.63105937324278
 20
864.1615463029182
 30
0.0
 40
6.666666752583272
100
AcDbArc
 50
173.5299377441407
 51
229.9093780517579
  0
ARC
  5
2AB
330
1F
100
AcDbEntity
  8
0-1_ピット
  6
Continuous
 62
     2
370
    13
100
AcDbCircle
 10
205.9249181130325
 20
834.1614473269892
 30
0.0
 40
272.9182062922297
100
AcDbArc
 50
173.5303955078125
 51
179.1166534423828
  0
ARC
  5
2AC
330
1F
100
AcDbEntity
  8
0-1_ピット
  6
Continuous
 62
     2
370
    13
100
AcDbCircle
 10
205.9249181130325
 20
834.1614473269892
 30
0.0
 40
276.6666721653294
100
AcDbArc
 50
168.7995147705078
 51
180.0
  0
ARC
  5
2AD
330
1F
100
AcDbEntity
  8
0-1_ピット
  6
Continuous
 62
     2
370
    13
100
AcDbCircle
 10
205.9249181130325
 20
834.1614473269892
 30
0.0
 40
289.9999979380015
100
AcDbArc
 50
167.63525390625
 51
171.5787048339844
  0
ARC
  5
2AE
330
1F
100
AcDbEntity
  8
0-1_ピット
  6
Continuous
 62
     2
370
    13
100
AcDbCircle
 10
205.9249181130325
 20
834.1614473269892
 30
0.0
 40
289.9999979380015
100
AcDbArc
 50
47.63522338867188
 51
51.57884216308594
  0
ARC
  5
2AF
330
1F
100
AcDbEntity
  8
0-1_ピット
  6
Continuous
 62
     2
370
    13
100
AcDbCircle
 10
205.9249181130325
 20
834.1614473269892
 30
0.0
 40
289.9999979380015
100
AcDbArc
 50
56.70524597167969
 51
57.79164123535158
  0
ARC
  5
2B0
330
1F
100
AcDbEntity
  8
0-1_ピット
  6
Continuous
 62
     2
370
    13
100
AcDbCircle
 10
205.9249181130325
 20
834.1614473269892
 30
0.0
 40
289.9999979380015
100
AcDbArc
 50
62.20834350585937
 51
63.29476928710937
  0
ARC
  5
2B1
330
1F
100
AcDbEntity
  8
0-1_ピット
  6
Continuous
 62
     2
370
    13
100
AcDbCircle
 10
205.9249181130325
 20
834.1614473269892
 30
0.0
 40
289.9999979380015
100
AcDbArc
 50
68.42137145996095
 51
72.36474609375001
  0
ARC
  5
2B2
330
1F
100
AcDbEntity
  8
0-1_ピット
  6
Continuous
 62
     2
370
    13
100
AcDbCircle
 10
205.9249181130325
 20
834.1614473269892
 30
0.0
 40
286.6666742273279
100
AcDbArc
 50
48.66674804687501
 51
58.86529541015625
  0
ARC
  5
2B3
330
1F
100
AcDbEntity
  8
0-1_ピット
  6
Continuous
 62
     2
370
    13
100
AcDbCircle
 10
205.9249181130325
 20
834.1614473269892
 30
0.0
 40
286.6666742273279
100
AcDbArc
 50
61.13470458984375
 51
71.33323669433594
  0
ARC
  5
2B4
330
1F
100
AcDbEntity
  8
0-1_ピット
  6
Continuous
 62
     2
370
    13
100
AcDbCircle
 10
297.5917222462674
 20
992.9326941597593
 30
0.0
 40
40.00000051549962
100
AcDbArc
 50
149.9999694824219
 51
329.9999237060547
  0
ARC
  5
2B5
330
1F
100
AcDbEntity
  8
0-1_ピット
  6
Continuous
 62
     2
370
    13
100
AcDbCircle
 10
332.6358820066138
 20
957.2689450835348
 30
0.0
 40
6.666666752583272
100
AcDbArc
 50
44.1744384765625
 51
134.4988708496094
  0
ARC
  5
2B6
330
1F
100
AcDbEntity
  8
0-1_ピット
  6
Continuous
 62
     2
370
    13
100
AcDbCircle
 10
205.9249181130325
 20
834.1614473269892
 30
0.0
 40
183.3333298966691
100
AcDbArc
 50
0.0
 51
44.17364501953125
  0
ARC
  5
2B7
330
1F
100
AcDbEntity
  8
0-1_ピット
  6
Continuous
 62
     2
370
    13
100
AcDbCircle
 10
334.7079430813603
 20
964.6453736361109
 30
0.0
 40
3.333333376291636
100
AcDbArc
 50
45.37593078613281
 51
142.6873474121094
  0
ARC
  5
2B8
330
1F
100
AcDbEntity
  8
0-1_ピット
  6
Continuous
 62
     2
370
    13
100
AcDbCircle
 10
205.9249181130325
 20
834.1614473269892
 30
0.0
 40
186.6666690723316
100
AcDbArc
 50
0.0
 51
45.37590026855469
  0
ARC
  5
2B9
330
1F
100
AcDbEntity
  8
0-1_ピット
  6
Continuous
 62
     2
370
    13
100
AcDbCircle
 10
297.5917222462674
 20
992.9326941597593
 30
0.0
 40
43.33333195866765
100
AcDbArc
 50
322.6880035400392
 51
329.9999084472657
  0
ARC
  5
2BA
330
1F
100
AcDbEntity
  8
0-1_ピット
  6
Continuous
 62
     2
370
    13
100
AcDbCircle
 10
254.5362033484632
 20
1010.932704057352
 30
0.0
 40
3.333333376291636
100
AcDbArc
 50
337.311996459961
 51
74.62364196777348
  0
ARC
  5
2BB
330
1F
100
AcDbEntity
  8
0-1_ピット
  6
Continuous
 62
     2
370
    13
100
AcDbCircle
 10
297.5917222462674
 20
992.9326941597593
 30
0.0
 40
43.33333195866765
100
AcDbArc
 50
149.9999084472656
 51
157.3118591308594
  0
ARC
  5
2BC
330
1F
100
AcDbEntity
  8
0-1_ピット
  6
Continuous
 62
     2
370
    13
100
AcDbCircle
 10
249.1838325450426
 20
1005.449932467403
 30
0.0
 40
6.666666752583272
100
AcDbArc
 50
345.5018768310547
 51
75.82656860351564
  0
ARC
  5
2BD
330
1F
100
AcDbEntity
  8
0-1_ピット
  6
Continuous
 62
     2
370
    13
100
AcDbCircle
 10
297.5917222462674
 20
992.9326941597593
 30
0.0
 40
43.33333195866765
100
AcDbArc
 50
165.5021209716797
 51
314.4978637695312
  0
ARC
  5
2BE
330
1F
100
AcDbEntity
  8
0-1_ピット
  6
Continuous
 62
     2
370
    13
100
AcDbCircle
 10
35.95528722726399
 20
882.3424347108574
 30
0.0
 40
6.666666752583272
100
AcDbArc
 50
164.1744384765625
 51
254.4988708496094
  0
ARC
  5
2BF
330
1F
100
AcDbEntity
  8
0-1_ピット
  6
Continuous
 62
     2
370
    13
100
AcDbCircle
 10
28.53110278891947
 20
880.4487777482307
 30
0.0
 40
3.333333376291636
100
AcDbArc
 50
165.3759307861328
 51
262.6873474121094
  0
ARC
  5
2C0
330
1F
100
AcDbEntity
  8
0-1_ピット
  6
Continuous
 62
     2
370
    13
100
AcDbCircle
 10
22.59155728638561
 20
834.1614473269892
 30
0.0
 40
43.33333195866765
100
AcDbArc
 50
82.68800354003909
 51
89.99990844726565
  0
ARC
  5
2C1
330
1F
100
AcDbEntity
  8
0-1_ピット
  6
Continuous
 62
     2
370
    13
100
AcDbCircle
 10
205.9249181130325
 20
834.1614473269892
 30
0.0
 40
186.6666690723316
100
AcDbArc
 50
74.6240234375
 51
165.3759155273438
  0
ARC
  5
2C2
330
1F
100
AcDbEntity
  8
0-1_ピット
  6
Continuous
 62
     2
370
    13
100
AcDbCircle
 10
205.9249181130325
 20
834.1614473269892
 30
0.0
 40
183.3333298966691
100
AcDbArc
 50
75.82635498046875
 51
164.1736450195312
  0
ARC
  5
2C3
330
1F
100
AcDbEntity
  8
0-1_ピット
  6
Continuous
 62
     2
370
    13
100
AcDbCircle
 10
22.59155728638561
 20
834.1614473269892
 30
0.0
 40
40.00000051549962
100
AcDbArc
 50
0.0
 51
89.99992370605467
  0
ARC
  5
2C4
330
1F
100
AcDbEntity
  8
0-1_ピット
  6
Continuous
 62
     2
370
    13
100
AcDbCircle
 10
22.59155728638561
 20
834.1614473269892
 30
0.0
 40
43.33333195866765
100
AcDbArc
 50
0.0
 51
74.49786376953124
  0
CIRCLE
  5
2C5
330
1F
100
AcDbEntity
  8
0-1_ピット
  6
Continuous
 62
     4
370
    13
100
AcDbCircle
 10
297.5917222462674
 20
992.9326941597593
 30
0.0
 40
13.33333350516654
  0
CIRCLE
  5
2C6
330
1F
100
AcDbEntity
  8
0-1_ピット
  6
Continuous
 62
     4
370
    13
100
AcDbCircle
 10
297.5917222462674
 20
992.9326941597593
 30
0.0
 40
11.07833321030075
  0
ARC
  5
2C7
330
1F
100
AcDbEntity
  8
0-1_ピット
  6
Continuous
 62
     4
370
    13
100
AcDbCircle
 10
22.59180472620827
 20
834.1614473269892
 30
0.0
 40
13.33333350516654
100
AcDbArc
 50
0.0
 51
180.0
  0
ARC
  5
2C8
330
1F
100
AcDbEntity
  8
0-1_ピット
  6
Continuous
 62
     4
370
    13
100
AcDbCircle
 10
22.59180472620827
 20
834.1614473269892
 30
0.0
 40
11.07833321030075
100
AcDbArc
 50
0.0
 51
180.0
  0
ARC
  5
2C9
330
1F
100
AcDbEntity
  8
0-2_本体（蓋）
  6
Continuous
 62
     6
370
    13
100
AcDbCircle
 10
205.9249181130325
 20
834.1614473269892
 30
0.0
 40
266.666639173353
100
AcDbArc
 50
3.583328247070312
 51
7.180770874023438
  0
ARC
  5
2CA
330
1F
100
AcDbEntity
  8
0-2_本体（蓋）
  6
Continuous
 62
     6
370
    13
100
AcDbCircle
 10
205.9249181130325
 20
834.1614473269892
 30
0.0
 40
266.666639173353
100
AcDbArc
 50
172.8192291259766
 51
176.4166717529297
  0
ARC
  5
2CB
330
1F
100
AcDbEntity
  8
0-2_本体（蓋）
  6
Continuous
 62
     6
370
    13
100
AcDbCircle
 10
205.9249181130325
 20
834.1614473269892
 30
0.0
 40
270.0000247439823
100
AcDbArc
 50
2.83056640625
 51
177.16943359375
  0
ARC
  5
2CC
330
1F
100
AcDbEntity
  8
0-2_本体（蓋）
  6
Continuous
 62
     6
370
    13
100
AcDbCircle
 10
205.9249181130325
 20
834.1614473269892
 30
0.0
 40
213.6744164131783
100
AcDbArc
 50
0.0
 51
180.0
  0
ARC
  5
2CD
330
1F
100
AcDbEntity
  8
0-2_本体（蓋）
  6
Continuous
 62
     6
370
    13
100
AcDbCircle
 10
-16.28915692391857
 20
858.2972225064656
 30
0.0
 40
5.000000064437453
100
AcDbArc
 50
265.0829467773438
 51
353.8010253906251
  0
ARC
  5
2CE
330
1F
100
AcDbEntity
  8
0-2_本体（蓋）
  6
Continuous
 62
     6
370
    13
100
AcDbCircle
 10
-11.14290349275294
 20
887.4832444659249
 30
0.0
 40
5.000000064437453
100
AcDbArc
 50
346.1986083984375
 51
74.91734313964844
  0
ARC
  5
2CF
330
1F
100
AcDbEntity
  8
0-2_本体（蓋）
  6
Continuous
 62
     6
370
    13
100
AcDbCircle
 10
205.9249181130325
 20
834.1614473269892
 30
0.0
 40
218.5210511491105
100
AcDbArc
 50
166.1988372802735
 51
173.8011627197266
  0
ARC
  5
2D0
330
1F
100
AcDbEntity
  8
0-2_本体（蓋）
  6
Continuous
 62
     6
370
    13
100
AcDbCircle
 10
5.36677635310852
 20
932.8434178717525
 30
0.0
 40
5.000000064437453
100
AcDbArc
 50
245.0829467773438
 51
333.8010253906251
  0
ARC
  5
2D1
330
1F
100
AcDbEntity
  8
0-2_本体（蓋）
  6
Continuous
 62
     6
370
    13
100
AcDbCircle
 10
20.1849575714364
 20
958.5088660347593
 30
0.0
 40
5.000000064437453
100
AcDbArc
 50
326.1986083984375
 51
54.91734313964846
  0
ARC
  5
2D2
330
1F
100
AcDbEntity
  8
0-2_本体（蓋）
  6
Continuous
 62
     6
370
    13
100
AcDbCircle
 10
205.9249181130325
 20
834.1614473269892
 30
0.0
 40
218.5210511491105
100
AcDbArc
 50
146.1988372802735
 51
153.8011627197266
  0
ARC
  5
2D3
330
1F
100
AcDbEntity
  8
0-2_本体（蓋）
  6
Continuous
 62
     6
370
    13
100
AcDbCircle
 10
51.21292157059158
 20
995.4870154488218
 30
0.0
 40
5.000000064437453
100
AcDbArc
 50
225.0829467773438
 51
313.8010253906251
  0
ARC
  5
2D4
330
1F
100
AcDbEntity
  8
0-2_本体（蓋）
  6
Continuous
 62
     6
370
    13
100
AcDbCircle
 10
73.91577273718794
 20
1014.536665074033
 30
0.0
 40
5.000000064437453
100
AcDbArc
 50
306.1986083984376
 51
34.91734313964843
  0
ARC
  5
2D5
330
1F
100
AcDbEntity
  8
0-2_本体（蓋）
  6
Continuous
 62
     6
370
    13
100
AcDbCircle
 10
205.9249181130325
 20
834.1614473269892
 30
0.0
 40
218.5210511491105
100
AcDbArc
 50
126.1988372802735
 51
133.8011627197266
  0
ARC
  5
2D6
330
1F
100
AcDbEntity
  8
0-2_本体（蓋）
  6
Continuous
 62
     6
370
    13
100
AcDbCircle
 10
115.7199884519262
 20
1038.672440253509
 30
0.0
 40
5.000000064437453
100
AcDbArc
 50
205.0829467773438
 51
293.8010253906251
  0
ARC
  5
2D7
330
1F
100
AcDbEntity
  8
0-2_本体（蓋）
  6
Continuous
 62
     6
370
    13
100
AcDbCircle
 10
143.5690930496879
 20
1048.808565147935
 30
0.0
 40
5.000000064437453
100
AcDbArc
 50
286.1986083984375
 51
14.91734313964845
  0
ARC
  5
2D8
330
1F
100
AcDbEntity
  8
0-2_本体（蓋）
  6
Continuous
 62
     6
370
    13
100
AcDbCircle
 10
205.9249181130325
 20
834.1614473269892
 30
0.0
 40
218.5210511491105
100
AcDbArc
 50
106.1988372802735
 51
113.8011627197266
  0
ARC
  5
2D9
330
1F
100
AcDbEntity
  8
0-2_本体（蓋）
  6
Continuous
 62
     6
370
    13
100
AcDbCircle
 10
191.1069843345275
 20
1057.190836579523
 30
0.0
 40
5.000000064437453
100
AcDbArc
 50
185.0829467773438
 51
273.8010253906251
  0
ARC
  5
2DA
330
1F
100
AcDbEntity
  8
0-2_本体（蓋）
  6
Continuous
 62
     6
370
    13
100
AcDbCircle
 10
220.7430993313604
 20
1057.190836579523
 30
0.0
 40
5.000000064437453
100
AcDbArc
 50
266.1986083984375
 51
354.9173431396484
  0
ARC
  5
2DB
330
1F
100
AcDbEntity
  8
0-2_本体（蓋）
  6
Continuous
 62
     6
370
    13
100
AcDbCircle
 10
268.2809906161999
 20
1048.808565147935
 30
0.0
 40
5.000000064437453
100
AcDbArc
 50
165.0829467773438
 51
253.8010253906251
  0
ARC
  5
2DC
330
1F
100
AcDbEntity
  8
0-2_本体（蓋）
  6
Continuous
 62
     6
370
    13
100
AcDbCircle
 10
296.1300952139616
 20
1038.672440253509
 30
0.0
 40
5.000000064437453
100
AcDbArc
 50
246.1986083984375
 51
334.9173431396484
  0
ARC
  5
2DD
330
1F
100
AcDbEntity
  8
0-2_本体（蓋）
  6
Continuous
 62
     6
370
    13
100
AcDbCircle
 10
205.9249181130325
 20
834.1614473269892
 30
0.0
 40
218.5210511491105
100
AcDbArc
 50
66.19883728027347
 51
73.80116271972659
  0
ARC
  5
2DE
330
1F
100
AcDbEntity
  8
0-2_本体（蓋）
  6
Continuous
 62
     6
370
    13
100
AcDbCircle
 10
337.9340634888773
 20
1014.536665074033
 30
0.0
 40
5.000000064437453
100
AcDbArc
 50
145.0829467773438
 51
233.8010253906251
  0
ARC
  5
2DF
330
1F
100
AcDbEntity
  8
0-2_本体（蓋）
  6
Continuous
 62
     6
370
    13
100
AcDbCircle
 10
360.6366672156506
 20
995.4867680089991
 30
0.0
 40
5.000000064437453
100
AcDbArc
 50
226.1986083984375
 51
314.9173431396484
  0
ARC
  5
2E0
330
1F
100
AcDbEntity
  8
0-2_本体（蓋）
  6
Continuous
 62
     6
370
    13
100
AcDbCircle
 10
205.9249181130325
 20
834.1614473269892
 30
0.0
 40
218.5210511491105
100
AcDbArc
 50
46.19883728027344
 51
53.80116271972656
  0
ARC
  5
2E1
330
1F
100
AcDbEntity
  8
0-2_本体（蓋）
  6
Continuous
 62
     6
370
    13
100
AcDbCircle
 10
391.6651260944515
 20
958.5088660347593
 30
0.0
 40
5.000000064437453
100
AcDbArc
 50
125.0829467773438
 51
213.8010253906251
  0
ARC
  5
2E2
330
1F
100
AcDbEntity
  8
0-2_本体（蓋）
  6
Continuous
 62
     6
370
    13
100
AcDbCircle
 10
406.4833073127791
 20
932.8431704319298
 30
0.0
 40
5.000000064437453
100
AcDbArc
 50
206.1986083984375
 51
294.9173431396484
  0
ARC
  5
2E3
330
1F
100
AcDbEntity
  8
0-2_本体（蓋）
  6
Continuous
 62
     6
370
    13
100
AcDbCircle
 10
205.9249181130325
 20
834.1614473269892
 30
0.0
 40
218.5210511491105
100
AcDbArc
 50
26.19883728027349
 51
33.80116271972661
  0
ARC
  5
2E4
330
1F
100
AcDbEntity
  8
0-2_本体（蓋）
  6
Continuous
 62
     6
370
    13
100
AcDbCircle
 10
422.9929871586409
 20
887.4832444659249
 30
0.0
 40
5.000000064437453
100
AcDbArc
 50
105.0829467773438
 51
193.8010253906251
  0
ARC
  5
2E5
330
1F
100
AcDbEntity
  8
0-2_本体（蓋）
  6
Continuous
 62
     6
370
    13
100
AcDbCircle
 10
428.1392405898061
 20
858.2972225064656
 30
0.0
 40
5.000000064437453
100
AcDbArc
 50
186.1986083984375
 51
274.9173431396484
  0
ARC
  5
2E6
330
1F
100
AcDbEntity
  8
0-2_本体（蓋）
  6
Continuous
 62
     6
370
    13
100
AcDbCircle
 10
205.9249181130325
 20
834.1614473269892
 30
0.0
 40
218.5210511491105
100
AcDbArc
 50
6.198837280273484
 51
13.80116271972661
  0
ARC
  5
2E7
330
1F
100
AcDbEntity
  8
0-2_本体（蓋）
  6
Continuous
 62
     6
370
    13
100
AcDbCircle
 10
459.2580150038686
 20
834.1614473269892
 30
0.0
 40
17.49999974225018
100
AcDbArc
 50
0.0
 51
180.0
  0
ARC
  5
2E8
330
1F
100
AcDbEntity
  8
0-2_本体（蓋）
  6
Continuous
 62
     6
370
    13
100
AcDbCircle
 10
-47.4084262176261
 20
834.1614473269892
 30
0.0
 40
17.49999974225018
100
AcDbArc
 50
0.0
 51
180.0
  0
ARC
  5
2E9
330
1F
100
AcDbEntity
  8
0-2_本体（蓋）
  6
Continuous
 62
     6
370
    13
100
AcDbCircle
 10
205.9249181130325
 20
834.1614473269892
 30
0.0
 40
218.5210511491105
100
AcDbArc
 50
86.19883728027344
 51
87.37709045410158
  0
ARC
  5
2EA
330
1F
100
AcDbEntity
  8
0-2_本体（蓋）
  6
Continuous
 62
     6
370
    13
100
AcDbCircle
 10
205.9249181130325
 20
834.1614473269892
 30
0.0
 40
233.3333402066617
100
AcDbArc
 50
94.12062072753906
 51
180.0
  0
ARC
  5
2EB
330
1F
100
AcDbEntity
  8
0-2_本体（蓋）
  6
Continuous
 62
     6
370
    13
100
AcDbCircle
 10
205.9249181130325
 20
834.1614473269892
 30
0.0
 40
233.3333402066617
100
AcDbArc
 50
0.0
 51
85.87937927246095
  0
ELLIPSE
  5
2EC
330
1F
100
AcDbEntity
  8
0-2_本体（蓋）
  6
Continuous
 62
     6
370
    13
100
AcDbEllipse
 10
205.9249181130325
 20
1063.167498055452
 30
0.0
 11
17.50005773595861
 21
0.0
 31
0.0
210
0.0
220
0.0
230
1.0
 40
0.7428
 41
0.0
 42
1.475415478669818
  0
ELLIPSE
  5
2ED
330
1F
100
AcDbEntity
  8
0-2_本体（蓋）
  6
Continuous
 62
     6
370
    13
100
AcDbEllipse
 10
205.9249181130325
 20
1063.167498055452
 30
0.0
 11
17.50005773595861
 21
0.0
 31
0.0
210
0.0
220
0.0
230
1.0
 40
0.7428
 41
1.666177174919975
 42
3.141592653589793
  0
ARC
  5
2EE
330
1F
100
AcDbEntity
  8
0-2_本体（蓋）
  6
Continuous
 62
     6
370
    13
100
AcDbCircle
 10
205.9249181130325
 20
834.1614473269892
 30
0.0
 40
218.5210511491105
100
AcDbArc
 50
92.62290954589844
 51
93.8011474609375
  0
ARC
  5
2EF
330
1F
100
AcDbEntity
  8
0-1_ピット
  6
Continuous
 62
     4
370
    13
100
AcDbCircle
 10
22.59155728638561
 20
834.1800053136866
 30
0.0
 40
21.66667177870467
100
AcDbArc
 50
359.950927734375
 51
125.3516540527344
  0
ARC
  5
2F0
330
1F
100
AcDbEntity
  8
0-0_通り芯
  6
Continuous
 62
     3
370
    13
100
AcDbCircle
 10
205.9249181130325
 20
834.1614473269892
 30
0.0
 40
172.2220755912162
100
AcDbArc
 50
0.0
 51
46.46299743652344
  0
ARC
  5
2F1
330
1F
100
AcDbEntity
  8
0-0_通り芯
  6
Continuous
 62
     3
370
    13
100
AcDbCircle
 10
205.9249181130325
 20
834.1614473269892
 30
0.0
 40
175.0000824799409
100
AcDbArc
 50
0.0
 51
46.36520385742188
  0
ARC
  5
2F2
330
1F
100
AcDbEntity
  8
0-0_通り芯
  6
Continuous
 62
     3
370
    13
100
AcDbCircle
 10
205.9249181130325
 20
834.1614473269892
 30
0.0
 40
172.2220755912162
100
AcDbArc
 50
73.53697204589845
 51
166.4629821777344
  0
ARC
  5
2F3
330
1F
100
AcDbEntity
  8
0-0_通り芯
  6
Continuous
 62
     3
370
    13
100
AcDbCircle
 10
205.9249181130325
 20
834.1614473269892
 30
0.0
 40
175.0000824799409
100
AcDbArc
 50
73.63475036621094
 51
166.3652038574219
  0
ARC
  5
2F4
330
1F
100
AcDbEntity
  8
0-1_ピット
  6
Continuous
 62
     4
370
    13
100
AcDbCircle
 10
297.6075583949161
 20
992.9235388863218
 30
0.0
 40
21.66667177870467
100
AcDbArc
 50
114.6371459960937
 51
5.35174560546875
  0
ARC
  5
2F5
330
1F
100
AcDbEntity
  8
0-2_本体（蓋）
  6
Continuous
 62
     6
370
    13
100
AcDbCircle
 10
205.9249181130325
 20
834.1614473269892
 30
0.0
 40
196.666686599319
100
AcDbArc
 50
0.0
 51
180.0
  0
LINE
  5
2F6
330
1F
100
AcDbEntity
  8
0-0_通り芯
  6
JWW_CENTER1
 62
     3
370
    13
100
AcDbLine
 10
205.9249181130325
 20
175.9647188533627
 30
0.0
 11
205.9249181130325
 21
-471.1110539333445
 31
0.0
  0
LINE
  5
2F7
330
1F
100
AcDbEntity
  8
0-2_本体（蓋）
  6
JWW_CENTER1
 62
     6
370
    13
100
AcDbLine
 10
-47.4084262176261
 20
856.0608613894892
 30
0.0
 11
-47.4084262176261
 21
834.1614473269892
 31
0.0
  0
LINE
  5
2F8
330
1F
100
AcDbEntity
  8
0-1_ピット
  6
JWW_CENTER1
 62
     4
370
    13
100
AcDbLine
 10
22.59160238042584
 20
834.1614473269892
 30
0.0
 11
22.59180472620827
 21
865.8119699198944
 31
0.0
  0
LINE
  5
2F9
330
1F
100
AcDbEntity
  8
0-2_本体（蓋）
  6
JWW_CENTER1
 62
     6
370
    13
100
AcDbLine
 10
459.2580150038686
 20
856.0608613894892
 30
0.0
 11
459.2580150038686
 21
834.1614473269892
 31
0.0
  0
LINE
  5
2FA
330
1F
100
AcDbEntity
  8
0-A
  6
Continuous
 62
     2
370
    13
100
AcDbLine
 10
-91.29843591726726
 20
-98.89895841497435
 30
0.0
 11
-113.5184082699909
 21
-98.89895841497435
 31
0.0
  0
ARC
  5
2FB
330
1F
100
AcDbEntity
  8
0-A
  6
Continuous
 62
     4
370
    13
100
AcDbCircle
 10
625.5222345456763
 20
17.76743331855613
 30
0.0
 40
3.333333376291636
100
AcDbArc
 50
90.0
 51
172.6491546630859
  0
ARC
  5
2FC
330
1F
100
AcDbEntity
  8
0-A
  6
Continuous
 62
     4
370
    13
100
AcDbCircle
 10
629.6490359075851
 20
17.76743331855613
 30
0.0
 40
3.333333376291636
100
AcDbArc
 50
7.124267578125002
 51
90.00000000000001
  0
ARC
  5
2FD
330
1F
100
AcDbEntity
  8
0-A
  6
Continuous
 62
     4
370
    13
100
AcDbCircle
 10
-217.7990759616084
 20
17.76743331855613
 30
0.0
 40
3.333333376291636
100
AcDbArc
 50
90.0
 51
172.875732421875
  0
ARC
  5
2FE
330
1F
100
AcDbEntity
  8
0-A
  6
Continuous
 62
     4
370
    13
100
AcDbCircle
 10
-213.6725220395225
 20
17.76743331855613
 30
0.0
 40
3.333333376291636
100
AcDbArc
 50
7.3507080078125
 51
90.00000000000001
  0
ARC
  5
2FF
330
1F
100
AcDbEntity
  8
0-A
  6
JWW_DASHED1
 62
     4
370
    13
100
AcDbCircle
 10
-134.9463257504597
 20
-55.56581203617384
 30
0.0
 40
10.00000012887491
100
AcDbArc
 50
191.3097381591797
 51
270.0
  0
ARC
  5
300
330
1F
100
AcDbEntity
  8
0-A
  6
Continuous
 62
     4
370
    13
100
AcDbCircle
 10
-135.9463537936396
 20
-50.56579554018555
 30
0.0
 40
10.00000012887491
100
AcDbArc
 50
191.3097381591797
 51
270.0
  0
ARC
  5
301
330
1F
100
AcDbEntity
  8
0-A
  6
Continuous
 62
     4
370
    13
100
AcDbCircle
 10
-158.009078139079
 20
-42.23251719347957
 30
0.0
 40
10.00000012887491
100
AcDbArc
 50
11.30973815917969
 51
90.00000000000001
  0
ARC
  5
302
330
1F
100
AcDbEntity
  8
0-A
  6
Continuous
 62
     4
370
    13
100
AcDbCircle
 10
-195.0672743357639
 20
-22.23257492943816
 30
0.0
 40
10.00000012887491
100
AcDbArc
 50
187.3520355224609
 51
270.0
  0
ARC
  5
303
330
1F
100
AcDbEntity
  8
0-A
  6
Continuous
 62
     4
370
    13
100
AcDbCircle
 10
533.1989725629903
 20
-55.56581203617384
 30
0.0
 40
10.00000012887491
100
AcDbArc
 50
270.0
 51
348.6902008056641
  0
ARC
  5
304
330
1F
100
AcDbEntity
  8
0-A
  6
Continuous
 62
     4
370
    13
100
AcDbCircle
 10
569.8591618049666
 20
-42.23251719347957
 30
0.0
 40
10.00000012887491
100
AcDbArc
 50
90.0
 51
168.6902008056641
  0
ARC
  5
305
330
1F
100
AcDbEntity
  8
0-A
  6
Continuous
 62
     4
370
    13
100
AcDbCircle
 10
558.9282602002369
 20
-28.89909863087382
 30
0.0
 40
10.00000012887491
100
AcDbArc
 50
90.0
 51
168.6902008056641
  0
ARC
  5
306
330
1F
100
AcDbEntity
  8
0-A
  6
Continuous
 62
     4
370
    13
100
AcDbCircle
 10
608.637930808345
 20
-8.899032646921228
 30
0.0
 40
10.00000012887491
100
AcDbArc
 50
270.0
 51
352.6479187011719
  0
ARC
  5
307
330
1F
100
AcDbEntity
  8
0-A
  6
Continuous
 62
     4
370
    13
100
AcDbCircle
 10
-145.876979915367
 20
-68.89910687886783
 30
0.0
 40
10.00000012887491
100
AcDbArc
 50
191.3098449707032
 51
270.0000000000001
  0
ARC
  5
308
330
1F
100
AcDbEntity
  8
0-A
  6
Continuous
 62
     4
370
    13
100
AcDbCircle
 10
557.727187301166
 20
-68.89910687886783
 30
0.0
 40
10.00000012887491
100
AcDbArc
 50
270.0
 51
348.6901550292969
  0
ARC
  5
309
330
1F
100
AcDbEntity
  8
0-A
  6
Continuous
 62
     2
370
    13
100
AcDbCircle
 10
-83.66281415048107
 20
-48.23293289238137
 30
0.0
 40
9.33396558503847
100
AcDbArc
 50
47.92572021484376
 51
132.0742797851562
  0
ARC
  5
30A
330
1F
100
AcDbEntity
  8
0-A
  6
Continuous
 62
     2
370
    13
100
AcDbCircle
 10
-102.4083602336735
 20
-72.53053371586134
 30
0.0
 40
33.63136729678592
100
AcDbArc
 50
68.19786071777345
 51
111.8021392822266
  0
ARC
  5
30B
330
1F
100
AcDbEntity
  8
0-A
  6
Continuous
 62
     2
370
    13
100
AcDbCircle
 10
-121.1536588770436
 20
-48.23280917247018
 30
0.0
 40
9.333911457577267
100
AcDbArc
 50
47.92556762695312
 51
132.0746307373047
  0
LINE
  5
30C
330
1F
100
AcDbEntity
  8
0-A
  6
Continuous
 62
     4
370
    13
100
AcDbLine
 10
-77.41322655018521
 20
-78.89901615093294
 30
0.0
 11
-25.92421617750787
 21
-78.89901615093294
 31
0.0
  0
LINE
  5
30D
330
1F
100
AcDbEntity
  8
0-A
  6
Continuous
 62
     4
370
    13
100
AcDbLine
 10
-24.71262708597507
 20
-65.56559758832748
 30
0.0
 11
-83.1658312667183
 21
-65.56559758832748
 31
0.0
  0
LINE
  5
30E
330
1F
100
AcDbEntity
  8
0-A
  6
Continuous
 62
     4
370
    13
100
AcDbLine
 10
-21.68346877727558
 20
-32.23248420150298
 30
0.0
 11
-89.07506539097923
 21
-32.23248420150298
 31
0.0
  0
LINE
  5
30F
330
1F
100
AcDbEntity
  8
0-A
  6
Continuous
 62
     4
370
    13
100
AcDbLine
 10
-89.07506539097923
 20
21.10081888918529
 30
0.0
 11
-16.83698869123262
 21
21.10081888918529
 31
0.0
  0
LINE
  5
310
330
1F
100
AcDbEntity
  8
0-A
  6
Continuous
 62
     4
370
    13
100
AcDbLine
 10
471.1875837327539
 20
-78.89901615093294
 30
0.0
 11
557.727187301166
 21
-78.89901615093294
 31
0.0
  0
LINE
  5
311
330
1F
100
AcDbEntity
  8
0-A
  6
Continuous
 62
     4
370
    13
100
AcDbLine
 10
437.7740524035731
 20
-78.89901615093294
 30
0.0
 11
447.3284462749835
 21
-78.89901615093294
 31
0.0
  0
LINE
  5
312
330
1F
100
AcDbEntity
  8
0-A
  6
Continuous
 62
     4
370
    13
100
AcDbLine
 10
533.1989725629903
 20
-65.56559758832748
 30
0.0
 11
436.5623395921289
 21
-65.56559758832748
 31
0.0
  0
LINE
  5
313
330
1F
100
AcDbEntity
  8
0-A
  6
Continuous
 62
     4
370
    13
100
AcDbLine
 10
428.6868249172978
 20
21.10081888918529
 30
0.0
 11
629.6490359075851
 21
21.10081888918529
 31
0.0
  0
LINE
  5
314
330
1F
100
AcDbEntity
  8
0-A
  6
Continuous
 62
     4
370
    13
100
AcDbLine
 10
-221.1067277906837
 20
18.18078154226811
 30
0.0
 11
-227.4082777537326
 21
-32.23248420150298
 31
0.0
  0
LINE
  5
315
330
1F
100
AcDbEntity
  8
0-A
  6
Continuous
 62
     4
370
    13
100
AcDbLine
 10
-210.3664785692943
 20
18.19401957277904
 30
0.0
 11
-204.9850335867141
 21
-23.51220997219571
 31
0.0
  0
LINE
  5
316
330
1F
100
AcDbEntity
  8
0-A
  6
Continuous
 62
     4
370
    13
100
AcDbLine
 10
-115.741778796279
 20
-32.23248420150298
 30
0.0
 11
-195.0672743357639
 21
-32.23248420150298
 31
0.0
  0
LINE
  5
317
330
1F
100
AcDbEntity
  8
0-A
  6
Continuous
 62
     4
370
    13
100
AcDbLine
 10
-145.876979915367
 20
-78.89901615093294
 30
0.0
 11
-130.7465296408738
 21
-78.89901615093294
 31
0.0
  0
LINE
  5
318
330
1F
100
AcDbEntity
  8
0-A
  6
Continuous
 62
     4
370
    13
100
AcDbLine
 10
-217.7990759616084
 20
21.10081888918529
 30
0.0
 11
-115.741778796279
 21
21.10081888918529
 31
0.0
  0
LINE
  5
319
330
1F
100
AcDbEntity
  8
0-A
  6
Continuous
 62
     4
370
    13
100
AcDbLine
 10
622.2164385152707
 20
18.19401957277904
 30
0.0
 11
618.5553188995614
 21
-10.17879140958996
 31
0.0
  0
LINE
  5
31A
330
1F
100
AcDbEntity
  8
0-A
  6
Continuous
 62
     4
370
    13
100
AcDbLine
 10
632.9568114565716
 20
18.18078154226811
 30
0.0
 11
639.2581139797978
 21
-32.23248420150298
 31
0.0
  0
LINE
  5
31B
330
1F
100
AcDbEntity
  8
0-A
  6
JWW_DASHED1
 62
     4
370
    13
100
AcDbLine
 10
-195.0672743357639
 20
-32.23248420150298
 30
0.0
 11
-227.4082777537326
 21
-32.23248420150298
 31
0.0
  0
LINE
  5
31C
330
1F
100
AcDbEntity
  8
0-A
  6
JWW_DASHED1
 62
     4
370
    13
100
AcDbLine
 10
-134.9463257504597
 20
-65.56559758832748
 30
0.0
 11
-83.1658312667183
 21
-65.56559758832748
 31
0.0
  0
LINE
  5
31D
330
1F
100
AcDbEntity
  8
0-A
  6
JWW_DASHED1
 62
     4
370
    13
100
AcDbLine
 10
-144.7521184816675
 20
-57.52677263055716
 30
0.0
 11
-145.7521465248475
 21
-52.52687985448034
 31
0.0
  0
LINE
  5
31E
330
1F
100
AcDbEntity
  8
0-A
  6
Continuous
 62
     4
370
    13
100
AcDbLine
 10
-145.7521465248475
 20
-52.52687985448034
 30
0.0
 11
-148.2032854078712
 21
-40.2713091592733
 31
0.0
  0
LINE
  5
31F
330
1F
100
AcDbEntity
  8
0-A
  6
Continuous
 62
     4
370
    13
100
AcDbLine
 10
-135.9463537936396
 20
-60.56558109233919
 30
0.0
 11
-84.07504889499094
 21
-60.56558109233919
 31
0.0
  0
LINE
  5
320
330
1F
100
AcDbEntity
  8
0-A
  6
Continuous
 62
     4
370
    13
100
AcDbLine
 10
-227.4082777537326
 20
-32.23248420150298
 30
0.0
 11
-224.0748921831035
 21
-45.56577904419726
 31
0.0
  0
LINE
  5
321
330
1F
100
AcDbEntity
  8
0-A
  6
Continuous
 62
     4
370
    13
100
AcDbLine
 10
-122.4083024977149
 20
-60.56558109233919
 30
0.0
 11
-119.0750406469969
 21
-78.89901615093294
 31
0.0
  0
LINE
  5
322
330
1F
100
AcDbEntity
  8
0-A
  6
Continuous
 62
     4
370
    13
100
AcDbLine
 10
-84.07504889499094
 20
-60.56558109233919
 30
0.0
 11
-80.74178704427325
 21
-78.89901615093294
 31
0.0
  0
LINE
  5
323
330
1F
100
AcDbEntity
  8
0-A
  6
Continuous
 62
     4
370
    13
100
AcDbLine
 10
509.2581799637504
 20
-65.56559758832748
 30
0.0
 11
505.9251655528551
 21
-78.89901615093294
 31
0.0
  0
LINE
  5
324
330
1F
100
AcDbEntity
  8
0-A
  6
Continuous
 62
     4
370
    13
100
AcDbLine
 10
560.0531216339364
 20
-40.2713091592733
 30
0.0
 11
552.3275554916221
 21
-78.89901615093294
 31
0.0
  0
LINE
  5
325
330
1F
100
AcDbEntity
  8
0-A
  6
Continuous
 62
     4
370
    13
100
AcDbLine
 10
635.9250995689025
 20
-45.56577904419726
 30
0.0
 11
639.2581139797978
 21
-32.23248420150298
 31
0.0
  0
LINE
  5
326
330
1F
100
AcDbEntity
  8
0-A
  6
Continuous
 62
     2
370
    13
100
AcDbLine
 10
-84.07480145516857
 20
-60.56558109233919
 30
0.0
 11
-77.40827775373262
 21
-60.56558109233919
 31
0.0
  0
LINE
  5
327
330
1F
100
AcDbEntity
  8
0-A
  6
Continuous
 62
     2
370
    13
100
AcDbLine
 10
-115.741778796279
 20
-96.6757116085978
 30
0.0
 11
-89.07506539097923
 21
-96.6757116085978
 31
0.0
  0
LINE
  5
328
330
1F
100
AcDbEntity
  8
0-A
  6
Continuous
 62
     2
370
    13
100
AcDbLine
 10
-91.29843591726726
 20
-98.89895841497435
 30
0.0
 11
-91.29843591726726
 21
-60.56558109233919
 31
0.0
  0
LINE
  5
329
330
1F
100
AcDbEntity
  8
0-A
  6
Continuous
 62
     2
370
    13
100
AcDbLine
 10
-113.5184082699909
 20
-98.89895841497435
 30
0.0
 11
-113.5184082699909
 21
-60.56558109233919
 31
0.0
  0
LINE
  5
32A
330
1F
100
AcDbEntity
  8
0-A
  6
Continuous
 62
     2
370
    13
100
AcDbLine
 10
-91.29843591726726
 20
-98.89895841497435
 30
0.0
 11
-89.07506539097923
 21
-96.6757116085978
 31
0.0
  0
LINE
  5
32B
330
1F
100
AcDbEntity
  8
0-A
  6
Continuous
 62
     2
370
    13
100
AcDbLine
 10
-89.07506539097923
 20
-96.6757116085978
 30
0.0
 11
-89.07506539097923
 21
-60.56558109233919
 31
0.0
  0
LINE
  5
32C
330
1F
100
AcDbEntity
  8
0-A
  6
Continuous
 62
     2
370
    13
100
AcDbLine
 10
-115.741778796279
 20
-96.6757116085978
 30
0.0
 11
-113.5184082699909
 21
-98.89895841497435
 31
0.0
  0
LINE
  5
32D
330
1F
100
AcDbEntity
  8
0-A
  6
Continuous
 62
     2
370
    13
100
AcDbLine
 10
-115.741778796279
 20
-96.6757116085978
 30
0.0
 11
-115.741778796279
 21
-60.56558109233919
 31
0.0
  0
LINE
  5
32E
330
1F
100
AcDbEntity
  8
0-A
  6
Continuous
 62
     2
370
    13
100
AcDbLine
 10
-89.07506539097923
 20
65.54435147206107
 30
0.0
 11
-115.741778796279
 21
65.54435147206107
 31
0.0
  0
LINE
  5
32F
330
1F
100
AcDbEntity
  8
0-A
  6
Continuous
 62
     2
370
    13
100
AcDbLine
 10
-91.29843591726726
 20
67.7675982784379
 30
0.0
 11
-91.29843591726726
 21
-38.89900790293893
 31
0.0
  0
LINE
  5
330
330
1F
100
AcDbEntity
  8
0-A
  6
Continuous
 62
     2
370
    13
100
AcDbLine
 10
-113.5184082699909
 20
67.7675982784379
 30
0.0
 11
-113.5184082699909
 21
-38.89900790293893
 31
0.0
  0
LINE
  5
331
330
1F
100
AcDbEntity
  8
0-A
  6
Continuous
 62
     2
370
    13
100
AcDbLine
 10
-113.5184082699909
 20
67.7675982784379
 30
0.0
 11
-115.741778796279
 21
65.54435147206107
 31
0.0
  0
LINE
  5
332
330
1F
100
AcDbEntity
  8
0-A
  6
Continuous
 62
     2
370
    13
100
AcDbLine
 10
-115.741778796279
 20
65.54435147206107
 30
0.0
 11
-115.741778796279
 21
-38.89900790293893
 31
0.0
  0
LINE
  5
333
330
1F
100
AcDbEntity
  8
0-A
  6
Continuous
 62
     2
370
    13
100
AcDbLine
 10
-113.5184082699909
 20
67.7675982784379
 30
0.0
 11
-91.29843591726726
 21
67.7675982784379
 31
0.0
  0
LINE
  5
334
330
1F
100
AcDbEntity
  8
0-A
  6
Continuous
 62
     2
370
    13
100
AcDbLine
 10
-91.29843591726726
 20
67.7675982784379
 30
0.0
 11
-89.07506539097923
 21
65.54435147206107
 31
0.0
  0
LINE
  5
335
330
1F
100
AcDbEntity
  8
0-A
  6
Continuous
 62
     2
370
    13
100
AcDbLine
 10
-89.07506539097923
 20
65.54435147206107
 30
0.0
 11
-89.07506539097923
 21
-38.89900790293893
 31
0.0
  0
LINE
  5
336
330
1F
100
AcDbEntity
  8
0-A
  6
JWW_CENTER1
 62
     2
370
    13
100
AcDbLine
 10
-102.4083602336735
 20
-108.4538471660301
 30
0.0
 11
-102.4083602336735
 21
71.7532352215332
 31
0.0
  0
LINE
  5
337
330
1F
100
AcDbEntity
  8
0-A
  6
Continuous
 62
     2
370
    13
100
AcDbLine
 10
-121.1536588770436
 20
-38.89900790293893
 30
0.0
 11
-83.66281415048107
 21
-38.89900790293893
 31
0.0
  0
LINE
  5
338
330
1F
100
AcDbEntity
  8
0-A
  6
Continuous
 62
     2
370
    13
100
AcDbLine
 10
-89.91759798705189
 20
-41.30461785859779
 30
0.0
 11
-89.91759798705189
 21
-60.56558109233919
 31
0.0
  0
LINE
  5
339
330
1F
100
AcDbEntity
  8
0-A
  6
Continuous
 62
     2
370
    13
100
AcDbLine
 10
-114.8991224802951
 20
-41.30461785859779
 30
0.0
 11
-114.8991224802951
 21
-60.56558109233919
 31
0.0
  0
LINE
  5
33A
330
1F
100
AcDbEntity
  8
0-A
  6
Continuous
 62
     2
370
    13
100
AcDbLine
 10
-77.40827775373262
 20
-41.30461785859779
 30
0.0
 11
-77.40827775373262
 21
-60.56558109233919
 31
0.0
  0
LINE
  5
33B
330
1F
100
AcDbEntity
  8
0-A
  6
Continuous
 62
     2
370
    13
100
AcDbLine
 10
-127.4083189937032
 20
-41.30461785859779
 30
0.0
 11
-127.4083189937032
 21
-60.56558109233919
 31
0.0
  0
LINE
  5
33C
330
1F
100
AcDbEntity
  8
0-A
  6
Continuous
 62
     4
370
    13
100
AcDbLine
 10
558.9282602002369
 20
-18.89909850199892
 30
0.0
 11
608.637930808345
 21
-18.89909850199892
 31
0.0
  0
LINE
  5
33D
330
1F
100
AcDbEntity
  8
0-A
  6
Continuous
 62
     4
370
    13
100
AcDbLine
 10
545.3310805515509
 20
-32.23248420150298
 30
0.0
 11
433.5334304742419
 21
-32.23248420150298
 31
0.0
  0
LINE
  5
33E
330
1F
100
AcDbEntity
  8
0-A
  6
Continuous
 62
     4
370
    13
100
AcDbLine
 10
548.5996741596133
 20
-29.55291453834797
 30
0.0
 11
549.1227149088518
 21
-26.93789059666784
 31
0.0
  0
ARC
  5
33F
330
1F
100
AcDbEntity
  8
0-A
  6
Continuous
 62
     4
370
    13
100
AcDbCircle
 10
545.3310805515509
 20
-28.89915086816965
 30
0.0
 40
3.333333333333333
100
AcDbArc
 50
270.0
 51
348.6893099205877
  0
LINE
  5
340
330
1F
100
AcDbEntity
  8
0-A
  6
Continuous
 62
     4
370
    13
100
AcDbLine
 10
569.8591618049666
 20
-32.23251706460466
 30
0.0
 11
639.2581139797978
 21
-32.23251706460466
 31
0.0
  0
LINE
  5
341
330
1F
100
AcDbEntity
  8
0-A
  6
Continuous
 62
     4
370
    13
100
AcDbLine
 10
543.0047840082386
 20
-57.52695060285772
 30
0.0
 11
549.1224487549886
 21
-26.93796006418994
 31
0.0
  0
LINE
  5
342
330
1F
100
AcDbEntity
  8
0-A
  6
Continuous
 62
     4
370
    13
100
AcDbLine
 10
-168.939743591664
 20
-45.56577904419726
 30
0.0
 11
-224.0748921831035
 21
-45.56577904419726
 31
0.0
  0
LINE
  5
343
330
1F
100
AcDbEntity
  8
0-A
  6
Continuous
 62
     4
370
    13
100
AcDbLine
 10
-159.1339287225863
 20
-53.60465825409415
 30
0.0
 11
-155.682896366486
 21
-70.86019119316262
 31
0.0
  0
ARC
  5
344
330
1F
100
AcDbEntity
  8
0-A
  6
Continuous
 62
     4
370
    13
100
AcDbCircle
 10
-168.939743591664
 20
-55.56577904419726
 30
0.0
 40
10.0
100
AcDbArc
 50
11.30969547270258
 51
90.00000000000001
  0
LINE
  5
345
330
1F
100
AcDbEntity
  8
0-A
  6
Continuous
 62
     4
370
    13
100
AcDbLine
 10
570.9840394298276
 20
-53.60452305022322
 30
0.0
 11
567.5327325925513
 21
-70.86019119316262
 31
0.0
  0
LINE
  5
346
330
1F
100
AcDbEntity
  8
0-A
  6
Continuous
 62
     4
370
    13
100
AcDbLine
 10
580.7898272577434
 20
-45.56577904419726
 30
0.0
 11
635.9250995689025
 21
-45.56577904419726
 31
0.0
  0
ARC
  5
347
330
1F
100
AcDbEntity
  8
0-A
  6
Continuous
 62
     4
370
    13
100
AcDbCircle
 10
580.7898272577434
 20
-55.56577904419726
 30
0.0
 40
10.0
100
AcDbArc
 50
90.0
 51
168.6895145244305
  0
LINE
  5
348
330
1F
100
AcDbEntity
  8
0-A
  6
Continuous
 62
     2
370
    13
100
AcDbLine
 10
-127.4083189937032
 20
834.1621896464569
 30
0.0
 11
-114.8991224802951
 21
855.8290102756798
 31
0.0
  0
LINE
  5
349
330
1F
100
AcDbEntity
  8
0-A
  6
Continuous
 62
     2
370
    13
100
AcDbLine
 10
-77.40827775373262
 20
834.1621896464569
 30
0.0
 11
-89.91759798705189
 21
855.8290102756798
 31
0.0
  0
LINE
  5
34A
330
1F
100
AcDbEntity
  8
0-A
  6
Continuous
 62
     2
370
    13
100
AcDbLine
 10
-114.8991224802951
 20
855.8290102756798
 30
0.0
 11
-89.91759798705189
 21
855.8290102756798
 31
0.0
  0
LINE
  5
34B
330
1F
100
AcDbEntity
  8
0-A
  6
JWW_CENTER1
 62
     2
370
    13
100
AcDbLine
 10
-102.4083602336735
 20
834.1614473269892
 30
0.0
 11
-102.4083602336735
 21
858.0807126616598
 31
0.0
  0
LINE
  5
34C
330
1F
100
AcDbEntity
  8
0-A
  6
Continuous
 62
     2
370
    13
100
AcDbLine
 10
372.5922171259127
 20
1122.836126644979
 30
0.0
 11
385.1017847990546
 21
1101.169553455579
 31
0.0
  0
LINE
  5
34D
330
1F
100
AcDbEntity
  8
0-A
  6
Continuous
 62
     2
370
    13
100
AcDbLine
 10
347.5923820857945
 20
1079.534900003298
 30
0.0
 11
372.611022552433
 21
1079.534900003298
 31
0.0
  0
LINE
  5
34E
330
1F
100
AcDbEntity
  8
0-A
  6
Continuous
 62
     2
370
    13
100
AcDbLine
 10
385.1017847990546
 20
1101.169553455579
 30
0.0
 11
372.611022552433
 21
1079.534900003298
 31
0.0
  0
LINE
  5
34F
330
1F
100
AcDbEntity
  8
0-A
  6
Continuous
 62
     2
370
    13
100
AcDbLine
 10
372.5912273666221
 20
1122.836868964447
 30
0.0
 11
347.5725868999835
 21
1122.83711640427
 31
0.0
  0
LINE
  5
350
330
1F
100
AcDbEntity
  8
0-A
  6
Continuous
 62
     2
370
    13
100
AcDbLine
 10
347.5908974468585
 20
1079.535642322766
 30
0.0
 11
335.0818246533619
 21
1101.202462951989
 31
0.0
  0
LINE
  5
351
330
1F
100
AcDbEntity
  8
0-A
  6
Continuous
 62
     2
370
    13
100
AcDbLine
 10
347.5725868999835
 20
1122.83711640427
 30
0.0
 11
335.0818246533619
 21
1101.202462951989
 31
0.0
  0
LINE
  5
352
330
1F
100
AcDbEntity
  8
0-A
  6
Continuous
 62
     2
370
    13
100
AcDbLine
 10
351.4400713277707
 20
1094.266477283704
 30
0.0
 11
370.4097978902707
 21
1105.21865871318
 31
0.0
  0
LINE
  5
353
330
1F
100
AcDbEntity
  8
0-A
  6
Continuous
 62
     2
370
    13
100
AcDbLine
 10
349.7728218028551
 20
1097.152862814743
 30
0.0
 11
368.7430432450004
 21
1108.105291684042
 31
0.0
  0
LINE
  5
354
330
1F
100
AcDbEntity
  8
0-A
  6
JWW_CENTER1
 62
     2
370
    13
100
AcDbLine
 10
346.4007118999835
 20
1077.471251882521
 30
0.0
 11
374.0822997378216
 21
1125.417171434886
 31
0.0
  0
LINE
  5
355
330
1F
100
AcDbEntity
  8
0-A
  6
JWW_CENTER1
 62
     2
370
    13
100
AcDbLine
 10
380.8062294781085
 20
1089.226375536449
 30
0.0
 11
339.3768850946627
 21
1113.145640871119
 31
0.0
  0
LINE
  5
356
330
1F
100
AcDbEntity
  8
0-A
  6
Continuous
 62
     2
370
    13
100
AcDbLine
 10
-99.07497466304434
 20
834.1614473269892
 30
0.0
 11
-111.0598461922883
 21
841.080854527158
 31
0.0
  0
LINE
  5
357
330
1F
100
AcDbEntity
  8
0-A
  6
Continuous
 62
     2
370
    13
100
AcDbLine
 10
-105.74149836448
 20
834.1614473269892
 30
0.0
 11
-112.7264771176472
 21
838.1942215562965
 31
0.0
  0
LINE
  5
358
330
1F
100
AcDbEntity
  8
0-A
  6
Continuous
 62
     4
370
    13
100
AcDbLine
 10
-215.8956451259878
 20
933.3840738842104
 30
0.0
 11
-210.5677708650079
 21
926.7801524579012
 31
0.0
  0
LINE
  5
359
330
1F
100
AcDbEntity
  8
0-A
  6
Continuous
 62
     4
370
    13
100
AcDbLine
 10
-200.8993072353628
 20
924.189704954734
 30
0.0
 11
-193.3460829295139
 21
927.3420882951057
 31
0.0
  0
LINE
  5
35A
330
1F
100
AcDbEntity
  8
0-A
  6
Continuous
 62
     4
370
    13
100
AcDbLine
 10
-193.3460829295139
 20
927.3420882951057
 30
0.0
 11
-215.8956451259878
 21
933.3840738842104
 31
0.0
  0
LINE
  5
35B
330
1F
100
AcDbEntity
  8
0-A
  6
Continuous
 62
     4
370
    13
100
AcDbLine
 10
-210.5677708650079
 20
926.7801524579012
 30
0.0
 11
-200.899430955274
 21
924.1894575149114
 31
0.0
  0
LINE
  5
35C
330
1F
100
AcDbEntity
  8
0-A
  6
Continuous
 62
     4
370
    13
100
AcDbLine
 10
-208.9936824333147
 20
959.1425594205281
 30
0.0
 11
-201.0775876275714
 21
962.1976989106041
 31
0.0
  0
LINE
  5
35D
330
1F
100
AcDbEntity
  8
0-A
  6
Continuous
 62
     4
370
    13
100
AcDbLine
 10
-191.4093714377488
 20
959.6067565277916
 30
0.0
 11
-186.4442439567522
 21
953.1003263916007
 31
0.0
  0
LINE
  5
35E
330
1F
100
AcDbEntity
  8
0-A
  6
Continuous
 62
     4
370
    13
100
AcDbLine
 10
-186.4442439567522
 20
953.1003263916007
 30
0.0
 11
-208.9936824333147
 21
959.1425594205281
 31
0.0
  0
LINE
  5
35F
330
1F
100
AcDbEntity
  8
0-A
  6
Continuous
 62
     4
370
    13
100
AcDbLine
 10
-201.0775876275714
 20
962.1976989106041
 30
0.0
 11
-191.4092477178373
 21
959.6070039676142
 31
0.0
  0
LINE
  5
360
330
1F
100
AcDbEntity
  8
0-A
  6
Continuous
 62
     4
370
    13
100
AcDbLine
 10
-109.7711795960045
 20
1131.001145912293
 30
0.0
 11
-108.4591299364818
 21
1122.617884721415
 31
0.0
  0
LINE
  5
361
330
1F
100
AcDbEntity
  8
0-A
  6
Continuous
 62
     4
370
    13
100
AcDbLine
 10
-101.3811138100037
 20
1115.540363474582
 30
0.0
 11
-93.2634792687243
 21
1114.493693024835
 31
0.0
  0
LINE
  5
362
330
1F
100
AcDbEntity
  8
0-A
  6
Continuous
 62
     4
370
    13
100
AcDbLine
 10
-93.2634792687243
 20
1114.493693024835
 30
0.0
 11
-109.7711795960045
 21
1131.001145912293
 31
0.0
  0
LINE
  5
363
330
1F
100
AcDbEntity
  8
0-A
  6
Continuous
 62
     4
370
    13
100
AcDbLine
 10
-108.4591299364818
 20
1122.617884721415
 30
0.0
 11
-101.3812375299152
 21
1115.540116034759
 31
0.0
  0
LINE
  5
364
330
1F
100
AcDbEntity
  8
0-A
  6
Continuous
 62
     4
370
    13
100
AcDbLine
 10
-90.91465675236023
 20
1149.857545036027
 30
0.0
 11
-82.53151928139303
 21
1148.545371656592
 31
0.0
  0
LINE
  5
365
330
1F
100
AcDbEntity
  8
0-A
  6
Continuous
 62
     4
370
    13
100
AcDbLine
 10
-75.45399803456021
 20
1141.467602969937
 30
0.0
 11
-74.4073275848136
 21
1133.349844708746
 31
0.0
  0
LINE
  5
366
330
1F
100
AcDbEntity
  8
0-A
  6
Continuous
 62
     4
370
    13
100
AcDbLine
 10
-74.4073275848136
 20
1133.349844708746
 30
0.0
 11
-90.91465675236023
 21
1149.857545036027
 31
0.0
  0
LINE
  5
367
330
1F
100
AcDbEntity
  8
0-A
  6
Continuous
 62
     4
370
    13
100
AcDbLine
 10
-82.53151928139303
 20
1148.545371656592
 30
0.0
 11
-75.45375059473784
 21
1141.467602969937
 31
0.0
  0
LINE
  5
368
330
1F
100
AcDbEntity
  8
0-A
  6
Continuous
 62
     4
370
    13
100
AcDbLine
 10
80.94380601949366
 20
1249.080171593248
 30
0.0
 11
77.88866652941762
 21
1241.164076787504
 31
0.0
  0
LINE
  5
369
330
1F
100
AcDbEntity
  8
0-A
  6
Continuous
 62
     4
370
    13
100
AcDbLine
 10
80.47960891223012
 20
1231.495613157859
 30
0.0
 11
86.98616276833248
 21
1226.530485676862
 31
0.0
  0
LINE
  5
36A
330
1F
100
AcDbEntity
  8
0-A
  6
Continuous
 62
     4
370
    13
100
AcDbLine
 10
86.98616276833248
 20
1226.530485676862
 30
0.0
 11
80.94380601949366
 21
1249.080171593248
 31
0.0
  0
LINE
  5
36B
330
1F
100
AcDbEntity
  8
0-A
  6
Continuous
 62
     4
370
    13
100
AcDbLine
 10
77.88866652941762
 20
1241.164076787504
 30
0.0
 11
80.47923775249627
 21
1231.495613157859
 31
0.0
  0
LINE
  5
36C
330
1F
100
AcDbEntity
  8
0-A
  6
Continuous
 62
     4
370
    13
100
AcDbLine
 10
106.702538995634
 20
1255.982258005832
 30
0.0
 11
113.3062129821205
 21
1250.65413630503
 31
0.0
  0
LINE
  5
36D
330
1F
100
AcDbEntity
  8
0-A
  6
Continuous
 62
     4
370
    13
100
AcDbLine
 10
115.8966604852877
 20
1240.985920115207
 30
0.0
 11
112.7445245847387
 21
1233.432572089447
 31
0.0
  0
LINE
  5
36E
330
1F
100
AcDbEntity
  8
0-A
  6
Continuous
 62
     4
370
    13
100
AcDbLine
 10
112.7445245847387
 20
1233.432572089447
 30
0.0
 11
106.702538995634
 21
1255.982258005832
 31
0.0
  0
LINE
  5
36F
330
1F
100
AcDbEntity
  8
0-A
  6
Continuous
 62
     4
370
    13
100
AcDbLine
 10
113.3062129821205
 20
1250.65413630503
 30
0.0
 11
115.8969079251103
 21
1240.985920115207
 31
0.0
  0
LINE
  5
370
330
1F
100
AcDbEntity
  8
0-A
  6
Continuous
 62
     4
370
    13
100
AcDbLine
 10
305.1475446702538
 20
1255.982258005832
 30
0.0
 11
298.5436232439447
 21
1250.65413630503
 31
0.0
  0
LINE
  5
371
330
1F
100
AcDbEntity
  8
0-A
  6
Continuous
 62
     4
370
    13
100
AcDbLine
 10
295.9531757407775
 20
1240.985920115207
 30
0.0
 11
299.1055590811491
 21
1233.432572089447
 31
0.0
  0
LINE
  5
372
330
1F
100
AcDbEntity
  8
0-A
  6
Continuous
 62
     4
370
    13
100
AcDbLine
 10
299.1055590811491
 20
1233.432572089447
 30
0.0
 11
305.1475446702538
 21
1255.982258005832
 31
0.0
  0
LINE
  5
373
330
1F
100
AcDbEntity
  8
0-A
  6
Continuous
 62
     4
370
    13
100
AcDbLine
 10
298.5436232439447
 20
1250.65413630503
 30
0.0
 11
295.9529283009549
 21
1240.985920115207
 31
0.0
  0
LINE
  5
374
330
1F
100
AcDbEntity
  8
0-A
  6
Continuous
 62
     4
370
    13
100
AcDbLine
 10
330.9060302065716
 20
1249.080171593248
 30
0.0
 11
333.96141713647
 21
1241.164076787504
 31
0.0
  0
LINE
  5
375
330
1F
100
AcDbEntity
  8
0-A
  6
Continuous
 62
     4
370
    13
100
AcDbLine
 10
331.3702273138348
 20
1231.495613157859
 30
0.0
 11
324.8637971776442
 21
1226.530485676862
 31
0.0
  0
LINE
  5
376
330
1F
100
AcDbEntity
  8
0-A
  6
Continuous
 62
     4
370
    13
100
AcDbLine
 10
324.8637971776442
 20
1226.530485676862
 30
0.0
 11
330.9060302065716
 21
1249.080171593248
 31
0.0
  0
LINE
  5
377
330
1F
100
AcDbEntity
  8
0-A
  6
Continuous
 62
     4
370
    13
100
AcDbLine
 10
333.96141713647
 20
1241.164076787504
 30
0.0
 11
331.3707221934801
 21
1231.495613157859
 31
0.0
  0
LINE
  5
378
330
1F
100
AcDbEntity
  8
0-A
  6
Continuous
 62
     4
370
    13
100
AcDbLine
 10
502.764369258514
 20
1149.857792475849
 30
0.0
 11
494.3811080676356
 21
1148.545371656592
 31
0.0
  0
LINE
  5
379
330
1F
100
AcDbEntity
  8
0-A
  6
Continuous
 62
     4
370
    13
100
AcDbLine
 10
487.3038342606254
 20
1141.467602969937
 30
0.0
 11
486.2571638108789
 21
1133.350092148569
 31
0.0
  0
LINE
  5
37A
330
1F
100
AcDbEntity
  8
0-A
  6
Continuous
 62
     4
370
    13
100
AcDbLine
 10
486.2571638108789
 20
1133.350092148569
 30
0.0
 11
502.764369258514
 21
1149.857792475849
 31
0.0
  0
LINE
  5
37B
330
1F
100
AcDbEntity
  8
0-A
  6
Continuous
 62
     4
370
    13
100
AcDbLine
 10
494.3811080676356
 20
1148.545371656592
 30
0.0
 11
487.3038342606254
 21
1141.467602969937
 31
0.0
  0
LINE
  5
37C
330
1F
100
AcDbEntity
  8
0-A
  6
Continuous
 62
     4
370
    13
100
AcDbLine
 10
521.6207683822471
 20
1131.001145912293
 30
0.0
 11
520.3088424426356
 21
1122.617884721415
 31
0.0
  0
LINE
  5
37D
330
1F
100
AcDbEntity
  8
0-A
  6
Continuous
 62
     4
370
    13
100
AcDbLine
 10
513.2310737559801
 20
1115.540363474582
 30
0.0
 11
505.1135629346119
 21
1114.493693024835
 31
0.0
  0
LINE
  5
37E
330
1F
100
AcDbEntity
  8
0-A
  6
Continuous
 62
     4
370
    13
100
AcDbLine
 10
505.1135629346119
 20
1114.493693024835
 30
0.0
 11
521.6207683822471
 21
1131.001145912293
 31
0.0
  0
LINE
  5
37F
330
1F
100
AcDbEntity
  8
0-A
  6
Continuous
 62
     4
370
    13
100
AcDbLine
 10
520.3088424426356
 20
1122.617884721415
 30
0.0
 11
513.2310737559801
 21
1115.540116034759
 31
0.0
  0
LINE
  5
380
330
1F
100
AcDbEntity
  8
0-A
  6
Continuous
 62
     4
370
    13
100
AcDbLine
 10
620.843642379291
 20
959.1425594205281
 30
0.0
 11
612.9275475735478
 21
962.1976989106041
 31
0.0
  0
LINE
  5
381
330
1F
100
AcDbEntity
  8
0-A
  6
Continuous
 62
     4
370
    13
100
AcDbLine
 10
603.2590839439025
 20
959.6067565277916
 30
0.0
 11
598.293956462906
 21
953.1003263916007
 31
0.0
  0
LINE
  5
382
330
1F
100
AcDbEntity
  8
0-A
  6
Continuous
 62
     4
370
    13
100
AcDbLine
 10
598.293956462906
 20
953.1003263916007
 30
0.0
 11
620.843642379291
 21
959.1425594205281
 31
0.0
  0
LINE
  5
383
330
1F
100
AcDbEntity
  8
0-A
  6
Continuous
 62
     4
370
    13
100
AcDbLine
 10
612.9275475735478
 20
962.1976989106041
 30
0.0
 11
603.2590839439025
 21
959.6070039676142
 31
0.0
  0
LINE
  5
384
330
1F
100
AcDbEntity
  8
0-A
  6
Continuous
 62
     4
370
    13
100
AcDbLine
 10
627.7457287918754
 20
933.3840738842104
 30
0.0
 11
622.4178545308957
 21
926.7801524579012
 31
0.0
  0
LINE
  5
385
330
1F
100
AcDbEntity
  8
0-A
  6
Continuous
 62
     4
370
    13
100
AcDbLine
 10
612.7493909012504
 20
924.189704954734
 30
0.0
 11
605.1960428754903
 21
927.3420882951057
 31
0.0
  0
LINE
  5
386
330
1F
100
AcDbEntity
  8
0-A
  6
Continuous
 62
     4
370
    13
100
AcDbLine
 10
605.1960428754903
 20
927.3420882951057
 30
0.0
 11
627.7457287918754
 21
933.3840738842104
 31
0.0
  0
LINE
  5
387
330
1F
100
AcDbEntity
  8
0-A
  6
Continuous
 62
     4
370
    13
100
AcDbLine
 10
622.4178545308957
 20
926.7801524579012
 30
0.0
 11
612.7493909012504
 21
924.1894575149114
 31
0.0
  0
LINE
  5
388
330
1F
100
AcDbEntity
  8
0-A
  6
Continuous
 62
     4
370
    13
100
AcDbLine
 10
384.1229128607101
 20
1066.141724723526
 30
0.0
 11
369.6892531267572
 21
1074.47475563041
 31
0.0
  0
LINE
  5
389
330
1F
100
AcDbEntity
  8
0-A
  6
Continuous
 62
     4
370
    13
100
AcDbLine
 10
-80.74228192391857
 20
922.6028733721749
 30
0.0
 11
-80.74141588453912
 21
852.4955009851395
 31
0.0
  0
LINE
  5
38A
330
1F
100
AcDbEntity
  8
0-A
  6
Continuous
 62
     4
370
    13
100
AcDbLine
 10
-84.07480145516857
 20
872.4953195292694
 30
0.0
 11
-84.07480145516857
 21
855.8290102756798
 31
0.0
  0
LINE
  5
38B
330
1F
100
AcDbEntity
  8
0-A
  6
Continuous
 62
     4
370
    13
100
AcDbLine
 10
-84.07542005472507
 20
923.1044338926564
 30
0.0
 11
-84.07492517507976
 21
875.8285813799874
 31
0.0
  0
LINE
  5
38C
330
1F
100
AcDbEntity
  8
0-A
  6
Continuous
 62
     4
370
    13
100
AcDbLine
 10
272.6666140325848
 20
1126.642988316221
 30
0.0
 11
333.3804284329228
 21
1091.588683523146
 31
0.0
  0
LINE
  5
38D
330
1F
100
AcDbEntity
  8
0-A
  6
Continuous
 62
     4
370
    13
100
AcDbLine
 10
317.7268903733788
 20
1104.475596925807
 30
0.0
 11
332.1600552276864
 21
1096.142318579101
 31
0.0
  0
LINE
  5
38E
330
1F
100
AcDbEntity
  8
0-A
  6
Continuous
 62
     4
370
    13
100
AcDbLine
 10
273.897379710372
 20
1129.781020146879
 30
0.0
 11
314.8402574025174
 21
1106.142104131254
 31
0.0
  0
LINE
  5
38F
330
1F
100
AcDbEntity
  8
0-A
  6
Continuous
 62
     4
370
    13
100
AcDbLine
 10
427.9524235237166
 20
1040.837291261744
 30
0.0
 11
387.0095458315716
 21
1064.475217518079
 31
0.0
  0
LINE
  5
390
330
1F
100
AcDbEntity
  8
0-A
  6
Continuous
 62
     4
370
    13
100
AcDbLine
 10
425.8501747906085
 20
1038.202799470148
 30
0.0
 11
365.1358655106254
 21
1073.254877304818
 31
0.0
  0
LINE
  5
391
330
1F
100
AcDbEntity
  8
0-A
  6
Continuous
 62
     4
370
    13
100
AcDbLine
 10
-85.74130866061594
 20
874.1618267347171
 30
0.0
 11
-132.9502287012623
 21
874.1618267347171
 31
0.0
  0
LINE
  5
392
330
1F
100
AcDbEntity
  8
0-A
  6
Continuous
 62
     4
370
    13
100
AcDbLine
 10
-85.74167982035007
 20
877.4953360252578
 30
0.0
 11
-132.9502287012623
 21
877.4953360252578
 31
0.0
  0
LINE
  5
393
330
1F
100
AcDbEntity
  8
0-A
  6
Continuous
 62
     4
370
    13
100
AcDbLine
 10
-62.37977268616518
 20
1030.933759800595
 30
0.0
 11
-67.33153841673939
 21
1036.999994492318
 31
0.0
  0
LINE
  5
394
330
1F
100
AcDbEntity
  8
0-A
  6
Continuous
 62
     4
370
    13
100
AcDbLine
 10
-101.3433792370519
 20
976.9218529963304
 30
0.0
 11
-71.34328026112271
 21
1028.883720870063
 31
0.0
  0
LINE
  5
395
330
1F
100
AcDbEntity
  8
0-A
  6
Continuous
 62
     4
370
    13
100
AcDbLine
 10
-98.63700617698001
 20
968.1340276954434
 30
0.0
 11
-106.366778796279
 21
969.3890424758489
 31
0.0
  0
LINE
  5
396
330
1F
100
AcDbEntity
  8
0-A
  6
Continuous
 62
     4
370
    13
100
AcDbLine
 10
-95.2160269091381
 20
969.7574803717525
 30
0.0
 11
-62.07529798441257
 21
1027.159312746119
 31
0.0
  0
LINE
  5
397
330
1F
100
AcDbEntity
  8
0-A
  6
Continuous
 62
     4
370
    13
100
AcDbLine
 10
479.1813746428046
 20
1036.999994492318
 30
0.0
 11
474.2296089122301
 21
1030.933512360773
 31
0.0
  0
LINE
  5
398
330
1F
100
AcDbEntity
  8
0-A
  6
Continuous
 62
     4
370
    13
100
AcDbLine
 10
513.1934629029398
 20
976.9216055565078
 30
0.0
 11
483.1933639270106
 21
1028.883473430241
 31
0.0
  0
LINE
  5
399
330
1F
100
AcDbEntity
  8
0-A
  6
Continuous
 62
     4
370
    13
100
AcDbLine
 10
507.0658631352034
 20
969.7572329319302
 30
0.0
 11
473.925257930389
 21
1027.159065306296
 31
0.0
  0
LINE
  5
39A
330
1F
100
AcDbEntity
  8
0-A
  6
Continuous
 62
     4
370
    13
100
AcDbLine
 10
518.216491302433
 20
969.3890424758489
 30
0.0
 11
510.4874610026018
 21
968.1340276954434
 31
0.0
  0
LINE
  5
39B
330
1F
100
AcDbEntity
  8
0-A
  6
Continuous
 62
     4
370
    13
100
AcDbLine
 10
235.9252645287843
 20
1171.643879099582
 30
0.0
 11
175.9248191371036
 21
1171.643879099582
 31
0.0
  0
LINE
  5
39C
330
1F
100
AcDbEntity
  8
0-A
  6
Continuous
 62
     4
370
    13
100
AcDbLine
 10
239.0657707576695
 20
1162.755345790883
 30
0.0
 11
172.7840654683958
 21
1162.755345790883
 31
0.0
  0
LINE
  5
39D
330
1F
100
AcDbEntity
  8
0-A
  6
Continuous
 62
     4
370
    13
100
AcDbLine
 10
166.8900488932267
 20
1172.227837081001
 30
0.0
 11
169.6675609023062
 21
1164.90634016905
 31
0.0
  0
LINE
  5
39E
330
1F
100
AcDbEntity
  8
0-A
  6
Continuous
 62
     4
370
    13
100
AcDbLine
 10
386.3993592289534
 20
1066.751663886322
 30
0.0
 11
406.1361492416221
 21
1100.936217702834
 31
0.0
  0
LINE
  5
39F
330
1F
100
AcDbEntity
  8
0-A
  6
Continuous
 62
     4
370
    13
100
AcDbLine
 10
317.1169512105832
 20
1106.752290733872
 30
0.0
 11
336.8529989037843
 21
1140.936597110562
 31
0.0
  0
LINE
  5
3A0
330
1F
100
AcDbEntity
  8
0-A
  6
Continuous
 62
     4
370
    13
100
AcDbLine
 10
314.2303182397218
 20
1108.419045379143
 30
0.0
 11
333.9663659329228
 21
1142.603104316009
 31
0.0
  0
LINE
  5
3A1
330
1F
100
AcDbEntity
  8
0-A
  6
Continuous
 62
     4
370
    13
100
AcDbLine
 10
535.2368869422135
 20
974.252719629565
 30
0.0
 11
570.9088015325851
 21
994.8476309471328
 31
0.0
  0
LINE
  5
3A2
330
1F
100
AcDbEntity
  8
0-A
  6
Continuous
 62
     4
370
    13
100
AcDbLine
 10
517.7468505190716
 20
975.7017272309166
 30
0.0
 11
565.9085375967742
 21
1003.508024739362
 31
0.0
  0
LINE
  5
3A3
330
1F
100
AcDbEntity
  8
0-A
  6
Continuous
 62
     4
370
    13
100
AcDbLine
 10
484.4132422526018
 20
1033.437108486195
 30
0.0
 11
532.5754242099499
 21
1061.243405994641
 31
0.0
  0
LINE
  5
3A4
330
1F
100
AcDbEntity
  8
0-A
  6
Continuous
 62
     4
370
    13
100
AcDbLine
 10
491.9037405634127
 20
1049.308641029481
 30
0.0
 11
527.575160274139
 21
1069.903552347048
 31
0.0
  0
LINE
  5
3A5
330
1F
100
AcDbEntity
  8
0-A
  6
Continuous
 62
     4
370
    13
100
AcDbLine
 10
244.9602822124835
 20
1172.227837081001
 30
0.0
 11
242.1825227635817
 21
1164.906587608872
 31
0.0
  0
LINE
  5
3A6
330
1F
100
AcDbEntity
  8
0-A
  6
Continuous
 62
     4
370
    13
100
AcDbLine
 10
249.2585593714786
 20
1189.399665892234
 30
0.0
 11
249.2585593714786
 21
1230.589488527369
 31
0.0
  0
LINE
  5
3A7
330
1F
100
AcDbEntity
  8
0-A
  6
Continuous
 62
     4
370
    13
100
AcDbLine
 10
239.2585263795023
 20
1174.977388390123
 30
0.0
 11
239.2585263795023
 21
1230.589488527369
 31
0.0
  0
LINE
  5
3A8
330
1F
100
AcDbEntity
  8
0-A
  6
Continuous
 62
     4
370
    13
100
AcDbLine
 10
172.5915572863856
 20
1174.977388390123
 30
0.0
 11
172.5915572863856
 21
1230.589488527369
 31
0.0
  0
LINE
  5
3A9
330
1F
100
AcDbEntity
  8
0-A
  6
Continuous
 62
     4
370
    13
100
AcDbLine
 10
162.5915242944093
 20
1189.399665892234
 30
0.0
 11
162.5915242944093
 21
1230.589488527369
 31
0.0
  0
LINE
  5
3AA
330
1F
100
AcDbEntity
  8
0-A
  6
Continuous
 62
     4
370
    13
100
AcDbLine
 10
-80.0536568975248
 20
1049.308641029481
 30
0.0
 11
-115.7253240480738
 21
1069.903552347048
 31
0.0
  0
LINE
  5
3AB
330
1F
100
AcDbEntity
  8
0-A
  6
Continuous
 62
     4
370
    13
100
AcDbLine
 10
-72.5634060265368
 20
1033.437108486195
 30
0.0
 11
-120.725340544062
 21
1061.243405994641
 31
0.0
  0
LINE
  5
3AC
330
1F
100
AcDbEntity
  8
0-A
  6
Continuous
 62
     4
370
    13
100
AcDbLine
 10
-105.8968905730949
 20
975.7017272309166
 30
0.0
 11
-154.4630180408949
 21
1003.74160793193
 31
0.0
  0
LINE
  5
3AD
330
1F
100
AcDbEntity
  8
0-A
  6
Continuous
 62
     4
370
    13
100
AcDbLine
 10
-123.3871744360594
 20
974.252719629565
 30
0.0
 11
-159.0588415866084
 21
994.8476309471328
 31
0.0
  0
LINE
  5
3AE
330
1F
100
AcDbEntity
  8
0-A
  6
Continuous
 62
     4
370
    13
100
AcDbLine
 10
-82.40817052980944
 20
850.8287463398692
 30
0.0
 11
-87.03071757636778
 21
850.8284989000465
 31
0.0
  0
LINE
  5
3AF
330
1F
100
AcDbEntity
  8
0-A
  6
Continuous
 62
     4
370
    13
100
AcDbLine
 10
-85.74130866061594
 20
854.1622556304098
 30
0.0
 11
-88.95530451682376
 21
854.1622556304098
 31
0.0
  0
LINE
  5
3B0
330
1F
100
AcDbEntity
  8
0-A
  6
Continuous
 62
     4
370
    13
100
AcDbLine
 10
369.079066524139
 20
1076.751696878298
 30
0.0
 11
370.6864356119768
 21
1079.534900003298
 31
0.0
  0
LINE
  5
3B1
330
1F
100
AcDbEntity
  8
0-A
  6
Continuous
 62
     4
370
    13
100
AcDbLine
 10
364.5256789080072
 20
1075.531818552707
 30
0.0
 11
366.8367668514195
 21
1079.534900003298
 31
0.0
  0
LINE
  5
3B2
330
1F
100
AcDbEntity
  8
0-A
  6
Continuous
 62
     4
370
    13
100
AcDbLine
 10
335.6573696808114
 20
1092.198870125764
 30
0.0
 11
337.9684576242233
 21
1096.201951576356
 31
0.0
  0
LINE
  5
3B3
330
1F
100
AcDbEntity
  8
0-A
  6
Continuous
 62
     4
370
    13
100
AcDbLine
 10
334.4369964755749
 20
1096.752257741896
 30
0.0
 11
336.0438706837674
 21
1099.535460866896
 31
0.0
  0
LINE
  5
3B4
330
1F
100
AcDbEntity
  8
0-A
  6
Continuous
 62
     4
370
    13
100
AcDbLine
 10
389.2864870794601
 20
1065.085404120697
 30
0.0
 11
409.0227822124835
 21
1099.269463057563
 31
0.0
  0
ARC
  5
3B5
330
1F
100
AcDbEntity
  8
0-A
  6
Continuous
 62
     2
370
    13
100
AcDbCircle
 10
-102.3896785270647
 20
834.1621896464569
 30
0.0
 40
21.66667177870467
100
AcDbArc
 50
0.0
 51
180.0015258789063
  0
ARC
  5
3B6
330
1F
100
AcDbEntity
  8
0-A
  6
Continuous
 62
     2
370
    13
100
AcDbCircle
 10
-102.4083602336735
 20
834.1621896464569
 30
0.0
 40
13.33333350516654
100
AcDbArc
 50
359.9971618652344
 51
180.0
  0
ARC
  5
3B7
330
1F
100
AcDbEntity
  8
0-A
  6
Continuous
 62
     2
370
    13
100
AcDbCircle
 10
-102.4083602336735
 20
834.1621896464569
 30
0.0
 40
11.07833224373895
100
AcDbArc
 50
0.0
 51
180.00341796875
  0
ARC
  5
3B8
330
1F
100
AcDbEntity
  8
0-A
  6
Continuous
 62
     2
370
    13
100
AcDbCircle
 10
360.0826494527707
 20
1101.169553455579
 30
0.0
 40
21.66667177870467
100
AcDbArc
 50
240.0
 51
60.00152587890631
  0
ARC
  5
3B9
330
1F
100
AcDbEntity
  8
0-A
  6
Continuous
 62
     2
370
    13
100
AcDbCircle
 10
360.0920521660308
 20
1101.18563704405
 30
0.0
 40
13.33333350516654
100
AcDbArc
 50
239.9971618652344
 51
60.00000000000006
  0
ARC
  5
3BA
330
1F
100
AcDbEntity
  8
0-A
  6
Continuous
 62
     2
370
    13
100
AcDbCircle
 10
360.0920521660308
 20
1101.18563704405
 30
0.0
 40
11.07833224373895
100
AcDbArc
 50
240.0
 51
60.00341796875006
  0
ARC
  5
3BB
330
1F
100
AcDbEntity
  8
0-A
  6
Continuous
 62
     2
370
    13
100
AcDbCircle
 10
360.0920521660308
 20
1101.18563704405
 30
0.0
 40
11.07833224373895
100
AcDbArc
 50
239.9967498779297
 51
239.9998931884766
  0
ARC
  5
3BC
330
1F
100
AcDbEntity
  8
0-A
  6
Continuous
 62
     2
370
    13
100
AcDbCircle
 10
360.08165969348
 20
1101.170048335224
 30
0.0
 40
21.66667177870467
100
AcDbArc
 50
59.99847412109375
 51
240.0
  0
ARC
  5
3BD
330
1F
100
AcDbEntity
  8
0-A
  6
Continuous
 62
     2
370
    13
100
AcDbCircle
 10
360.0910624067402
 20
1101.186379363518
 30
0.0
 40
13.33333350516654
100
AcDbArc
 50
59.99999999999999
 51
240.0028381347656
  0
ARC
  5
3BE
330
1F
100
AcDbEntity
  8
0-A
  6
Continuous
 62
     2
370
    13
100
AcDbCircle
 10
360.0910624067402
 20
1101.186379363518
 30
0.0
 40
11.07833224373895
100
AcDbArc
 50
240.0001068115234
 51
240.0032501220703
  0
ARC
  5
3BF
330
1F
100
AcDbEntity
  8
0-A
  6
Continuous
 62
     2
370
    13
100
AcDbCircle
 10
360.0910624067402
 20
1101.186379363518
 30
0.0
 40
11.07833224373895
100
AcDbArc
 50
59.99658203125
 51
316.1802673339844
  0
ARC
  5
3C0
330
1F
100
AcDbEntity
  8
0-A
  6
Continuous
 62
     4
370
    13
100
AcDbCircle
 10
488.5702312728721
 20
1055.082154411026
 30
0.0
 40
6.666666752583272
100
AcDbArc
 50
218.0118713378907
 51
300.0
  0
ARC
  5
3C1
330
1F
100
AcDbEntity
  8
0-A
  6
Continuous
 62
     4
370
    13
100
AcDbCircle
 10
474.016810664764
 20
1041.215874190376
 30
0.0
 40
6.666666752583272
100
AcDbArc
 50
320.7768249511719
 51
37.6792449951172
  0
ARC
  5
3C2
330
1F
100
AcDbEntity
  8
0-A
  6
Continuous
 62
     4
370
    13
100
AcDbCircle
 10
155.9247531531507
 20
1189.399665892234
 30
0.0
 40
6.666666752583272
100
AcDbArc
 50
278.0118713378906
 51
0.0
  0
ARC
  5
3C3
330
1F
100
AcDbEntity
  8
0-A
  6
Continuous
 62
     4
370
    13
100
AcDbCircle
 10
160.6567923212252
 20
1169.863054696077
 30
0.0
 40
6.666666752583272
100
AcDbArc
 50
20.77682495117189
 51
97.67924499511722
  0
ARC
  5
3C4
330
1F
100
AcDbEntity
  8
0-A
  6
Continuous
 62
     4
370
    13
100
AcDbCircle
 10
255.9253305127369
 20
1189.399665892234
 30
0.0
 40
6.666666752583272
100
AcDbArc
 50
180.0
 51
261.9881286621094
  0
ARC
  5
3C5
330
1F
100
AcDbEntity
  8
0-A
  6
Continuous
 62
     4
370
    13
100
AcDbCircle
 10
251.1932913446627
 20
1169.862807256254
 30
0.0
 40
6.666666752583272
100
AcDbArc
 50
82.32075500488281
 51
159.2231750488281
  0
ARC
  5
3C6
330
1F
100
AcDbEntity
  8
0-A
  6
Continuous
 62
     4
370
    13
100
AcDbCircle
 10
-126.7206837266001
 20
968.4789588081968
 30
0.0
 40
6.666666752583272
100
AcDbArc
 50
338.0118713378906
 51
60.00000000000001
  0
ARC
  5
3C7
330
1F
100
AcDbEntity
  8
0-A
  6
Continuous
 62
     4
370
    13
100
AcDbCircle
 10
-107.4352239504175
 20
962.80862783269
 30
0.0
 40
6.666666752583272
100
AcDbArc
 50
80.77682495117188
 51
157.6792449951172
  0
ARC
  5
3C8
330
1F
100
AcDbEntity
  8
0-A
  6
Continuous
 62
     4
370
    13
100
AcDbCircle
 10
-76.72027132689564
 20
1055.081906971204
 30
0.0
 40
6.666666752583272
100
AcDbArc
 50
240.0
 51
321.9881286621094
  0
ARC
  5
3C9
330
1F
100
AcDbEntity
  8
0-A
  6
Continuous
 62
     4
370
    13
100
AcDbCircle
 10
-62.16697443869876
 20
1041.215874190376
 30
0.0
 40
6.666666752583272
100
AcDbArc
 50
142.3207550048828
 51
219.2231750488282
  0
ARC
  5
3CA
330
1F
100
AcDbEntity
  8
0-A
  6
Continuous
 62
     4
370
    13
100
AcDbCircle
 10
-85.74130866061594
 20
872.4953195292694
 30
0.0
 40
1.666666688145818
100
AcDbArc
 50
0.0
 51
90.0
  0
ARC
  5
3CB
330
1F
100
AcDbEntity
  8
0-A
  6
Continuous
 62
     4
370
    13
100
AcDbCircle
 10
205.9249181130325
 20
834.1614473269892
 30
0.0
 40
426.6666721653294
100
AcDbArc
 50
167.4627075195312
 51
180.0
  0
ARC
  5
3CC
330
1F
100
AcDbEntity
  8
0-A
  6
Continuous
 62
     4
370
    13
100
AcDbCircle
 10
205.9249181130325
 20
834.1614473269892
 30
0.0
 40
416.6666701033308
100
AcDbArc
 50
167.5218505859375
 51
180.0
  0
ARC
  5
3CD
330
1F
100
AcDbEntity
  8
0-A
  6
Continuous
 62
     4
370
    13
100
AcDbCircle
 10
205.9249181130325
 20
834.1614473269892
 30
0.0
 40
416.6666701033308
100
AcDbArc
 50
0.0
 51
12.4781494140625
  0
ARC
  5
3CE
330
1F
100
AcDbEntity
  8
0-A
  6
Continuous
 62
     4
370
    13
100
AcDbCircle
 10
205.9249181130325
 20
834.1614473269892
 30
0.0
 40
426.6666721653294
100
AcDbArc
 50
0.0
 51
12.53729248046875
  0
ARC
  5
3CF
330
1F
100
AcDbEntity
  8
0-A
  6
Continuous
 62
     4
370
    13
100
AcDbCircle
 10
205.9249181130325
 20
834.1614473269892
 30
0.0
 40
416.6666701033308
100
AcDbArc
 50
17.52182006835938
 51
42.47814941406251
  0
ARC
  5
3D0
330
1F
100
AcDbEntity
  8
0-A
  6
Continuous
 62
     4
370
    13
100
AcDbCircle
 10
205.9249181130325
 20
834.1614473269892
 30
0.0
 40
426.6666721653294
100
AcDbArc
 50
17.46270751953124
 51
42.53729248046874
  0
ARC
  5
3D1
330
1F
100
AcDbEntity
  8
0-A
  6
Continuous
 62
     4
370
    13
100
AcDbCircle
 10
205.9249181130325
 20
834.1614473269892
 30
0.0
 40
426.6666721653294
100
AcDbArc
 50
137.4627075195312
 51
162.5372924804688
  0
ARC
  5
3D2
330
1F
100
AcDbEntity
  8
0-A
  6
Continuous
 62
     4
370
    13
100
AcDbCircle
 10
205.9249181130325
 20
834.1614473269892
 30
0.0
 40
416.6666701033308
100
AcDbArc
 50
137.5218505859375
 51
162.4781494140625
  0
ARC
  5
3D3
330
1F
100
AcDbEntity
  8
0-A
  6
Continuous
 62
     4
370
    13
100
AcDbCircle
 10
205.9249181130325
 20
834.1614473269892
 30
0.0
 40
409.9999608220281
100
AcDbArc
 50
106.8636322021484
 51
133.1363830566406
  0
ARC
  5
3D4
330
1F
100
AcDbEntity
  8
0-A
  6
Continuous
 62
     4
370
    13
100
AcDbCircle
 10
205.9249181130325
 20
834.1614473269892
 30
0.0
 40
426.6666721653294
100
AcDbArc
 50
107.4627075195312
 51
132.5372924804687
  0
ARC
  5
3D5
330
1F
100
AcDbEntity
  8
0-A
  6
Continuous
 62
     4
370
    13
100
AcDbCircle
 10
205.9249181130325
 20
834.1614473269892
 30
0.0
 40
416.6666701033308
100
AcDbArc
 50
107.5218505859375
 51
132.4781494140625
  0
ARC
  5
3D6
330
1F
100
AcDbEntity
  8
0-A
  6
Continuous
 62
     4
370
    13
100
AcDbCircle
 10
205.9249181130325
 20
834.1614473269892
 30
0.0
 40
426.6666721653294
100
AcDbArc
 50
77.46270751953125
 51
102.5373077392578
  0
ARC
  5
3D7
330
1F
100
AcDbEntity
  8
0-A
  6
Continuous
 62
     4
370
    13
100
AcDbCircle
 10
205.9249181130325
 20
834.1614473269892
 30
0.0
 40
416.6666701033308
100
AcDbArc
 50
77.52185058593753
 51
102.4781646728516
  0
ARC
  5
3D8
330
1F
100
AcDbEntity
  8
0-A
  6
Continuous
 62
     4
370
    13
100
AcDbCircle
 10
205.9249181130325
 20
834.1614473269892
 30
0.0
 40
426.6666721653294
100
AcDbArc
 50
47.46270751953126
 51
72.53729248046876
  0
ARC
  5
3D9
330
1F
100
AcDbEntity
  8
0-A
  6
Continuous
 62
     4
370
    13
100
AcDbCircle
 10
205.9249181130325
 20
834.1614473269892
 30
0.0
 40
416.6666701033308
100
AcDbArc
 50
47.52185058593751
 51
72.47814941406251
  0
ARC
  5
3DA
330
1F
100
AcDbEntity
  8
0-A
  6
Continuous
 62
     4
370
    13
100
AcDbCircle
 10
205.9249181130325
 20
834.1614473269892
 30
0.0
 40
409.9999608220281
100
AcDbArc
 50
0.0
 51
13.13636779785156
  0
ARC
  5
3DB
330
1F
100
AcDbEntity
  8
0-A
  6
Continuous
 62
     4
370
    13
100
AcDbCircle
 10
538.5703962327539
 20
968.4792062480194
 30
0.0
 40
6.666666752583272
100
AcDbArc
 50
119.9999847412109
 51
201.9881134033203
  0
ARC
  5
3DC
330
1F
100
AcDbEntity
  8
0-A
  6
Continuous
 62
     4
370
    13
100
AcDbCircle
 10
519.2854313362166
 20
962.80862783269
 30
0.0
 40
6.666666752583272
100
AcDbArc
 50
22.32073974609376
 51
99.22315979003908
  0
ARC
  5
3DD
330
1F
100
AcDbEntity
  8
0-A
  6
Continuous
 62
     4
370
    13
100
AcDbCircle
 10
205.9249181130325
 20
834.1614473269892
 30
0.0
 40
352.0733395138303
100
AcDbArc
 50
0.0
 51
21.98817443847656
  0
ARC
  5
3DE
330
1F
100
AcDbEntity
  8
0-A
  6
Continuous
 62
     4
370
    13
100
AcDbCircle
 10
205.9249181130325
 20
834.1614473269892
 30
0.0
 40
345.4066611625053
100
AcDbArc
 50
0.0
 51
22.32017517089844
  0
ARC
  5
3DF
330
1F
100
AcDbEntity
  8
0-A
  6
Continuous
 62
     4
370
    13
100
AcDbCircle
 10
205.9249181130325
 20
834.1614473269892
 30
0.0
 40
352.0733395138303
100
AcDbArc
 50
98.01181030273438
 51
141.9881744384766
  0
ARC
  5
3E0
330
1F
100
AcDbEntity
  8
0-A
  6
Continuous
 62
     4
370
    13
100
AcDbCircle
 10
205.9249181130325
 20
834.1614473269892
 30
0.0
 40
345.4066611625053
100
AcDbArc
 50
97.46566772460943
 51
142.3201751708985
  0
ARC
  5
3E1
330
1F
100
AcDbEntity
  8
0-A
  6
Continuous
 62
     4
370
    13
100
AcDbCircle
 10
205.9249181130325
 20
834.1614473269892
 30
0.0
 40
409.9999608220281
100
AcDbArc
 50
166.8636322021484
 51
180.0
  0
ARC
  5
3E2
330
1F
100
AcDbEntity
  8
0-A
  6
Continuous
 62
     4
370
    13
100
AcDbCircle
 10
205.9249181130325
 20
834.1614473269892
 30
0.0
 40
352.0733395138303
100
AcDbArc
 50
158.0118408203125
 51
180.0
  0
ARC
  5
3E3
330
1F
100
AcDbEntity
  8
0-A
  6
Continuous
 62
     4
370
    13
100
AcDbCircle
 10
205.9249181130325
 20
834.1614473269892
 30
0.0
 40
352.0733395138303
100
AcDbArc
 50
38.01182556152344
 51
81.98817443847656
  0
ARC
  5
3E4
330
1F
100
AcDbEntity
  8
0-A
  6
Continuous
 62
     4
370
    13
100
AcDbCircle
 10
205.9249181130325
 20
834.1614473269892
 30
0.0
 40
409.9999608220281
100
AcDbArc
 50
46.86363220214844
 51
73.13638305664062
  0
ARC
  5
3E5
330
1F
100
AcDbEntity
  8
0-A
  6
Continuous
 62
     4
370
    13
100
AcDbCircle
 10
370.5226304493924
 20
1075.918319555663
 30
0.0
 40
1.666666688145818
100
AcDbArc
 50
150.0
 51
240.0056762695312
  0
ARC
  5
3E6
330
1F
100
AcDbEntity
  8
0-A
  6
Continuous
 62
     4
370
    13
100
AcDbCircle
 10
384.956290183345
 20
1067.585041208957
 30
0.0
 40
1.666666688145818
100
AcDbArc
 50
239.9995422363281
 51
330.0
  0
ARC
  5
3E7
330
1F
100
AcDbEntity
  8
0-A
  6
Continuous
 62
     4
370
    13
100
AcDbCircle
 10
365.9687479536153
 20
1074.698441230072
 30
0.0
 40
1.666666688145818
100
AcDbArc
 50
150.0
 51
240.0056762695312
  0
ARC
  5
3E8
330
1F
100
AcDbEntity
  8
0-A
  6
Continuous
 62
     4
370
    13
100
AcDbCircle
 10
332.9939274299666
 20
1097.585635064531
 30
0.0
 40
1.666666688145818
100
AcDbArc
 50
239.9943237304688
 51
330.0000000000001
  0
ARC
  5
3E9
330
1F
100
AcDbEntity
  8
0-A
  6
Continuous
 62
     4
370
    13
100
AcDbCircle
 10
318.560267696014
 20
1105.918913411237
 30
0.0
 40
1.666666688145818
100
AcDbArc
 50
150.0
 51
240.0
  0
ARC
  5
3EA
330
1F
100
AcDbEntity
  8
0-A
  6
Continuous
 62
     4
370
    13
100
AcDbCircle
 10
334.2143006352034
 20
1093.032000008577
 30
0.0
 40
1.666666688145818
100
AcDbArc
 50
239.9943237304688
 51
330.0000000000001
  0
ARC
  5
3EB
330
1F
100
AcDbEntity
  8
0-A
  6
Continuous
 62
     4
370
    13
100
AcDbCircle
 10
-85.74130866061594
 20
855.8287628358574
 30
0.0
 40
1.666666688145818
100
AcDbArc
 50
270.0
 51
0.0056762695312475
  0
ARC
  5
3EC
330
1F
100
AcDbEntity
  8
0-A
  6
Continuous
 62
     4
370
    13
100
AcDbCircle
 10
-82.40817052980944
 20
852.4952535453168
 30
0.0
 40
1.666666688145818
100
AcDbArc
 50
270.0
 51
0.0056762695312475
  0
ARC
  5
3ED
330
1F
100
AcDbEntity
  8
0-A
  6
Continuous
 62
     4
370
    13
100
AcDbCircle
 10
-85.74167982035007
 20
875.8285813799874
 30
0.0
 40
1.666666688145818
100
AcDbArc
 50
0.0
 51
90.0
  0
ARC
  5
3EE
330
1F
100
AcDbEntity
  8
0-A
  6
Continuous
 62
     4
370
    13
100
AcDbCircle
 10
205.9249181130325
 20
834.1614473269892
 30
0.0
 40
299.9999690700222
100
AcDbArc
 50
77.14573669433595
 51
162.8541717529297
  0
ARC
  5
3EF
330
1F
100
AcDbEntity
  8
0-A
  6
Continuous
 62
     4
370
    13
100
AcDbCircle
 10
205.9249181130325
 20
834.1614473269892
 30
0.0
 40
303.3333237106735
100
AcDbArc
 50
77.05093383789064
 51
162.9492340087891
  0
ARC
  5
3F0
330
1F
100
AcDbEntity
  8
0-A
  6
Continuous
 62
     4
370
    13
100
AcDbCircle
 10
315.6736347251525
 20
1107.585668056508
 30
0.0
 40
1.666666688145818
100
AcDbArc
 50
150.0003204345703
 51
239.9994506835938
  0
ARC
  5
3F1
330
1F
100
AcDbEntity
  8
0-A
  6
Continuous
 62
     4
370
    13
100
AcDbCircle
 10
387.8429231542067
 20
1065.918534003509
 30
0.0
 40
1.666666688145818
100
AcDbArc
 50
240.0000915527343
 51
329.9992218017578
  0
ARC
  5
3F2
330
1F
100
AcDbEntity
  8
0-A
  6
Continuous
 62
     4
370
    13
100
AcDbCircle
 10
205.9249181130325
 20
834.1614473269892
 30
0.0
 40
303.3333237106735
100
AcDbArc
 50
0.0
 51
42.94917297363281
  0
ARC
  5
3F3
330
1F
100
AcDbEntity
  8
0-A
  6
Continuous
 62
     4
370
    13
100
AcDbCircle
 10
-132.9502287012623
 20
880.8285978759757
 30
0.0
 40
3.333333376291636
100
AcDbArc
 50
172.1590881347656
 51
269.9998931884766
  0
ARC
  5
3F4
330
1F
100
AcDbEntity
  8
0-A
  6
Continuous
 62
     4
370
    13
100
AcDbCircle
 10
-132.9502287012623
 20
880.8285978759757
 30
0.0
 40
6.666666752583272
100
AcDbArc
 50
220.7394256591797
 51
269.9998931884766
  0
ARC
  5
3F5
330
1F
100
AcDbEntity
  8
0-A
  6
Continuous
 62
     4
370
    13
100
AcDbCircle
 10
205.9249181130325
 20
834.1621896464569
 30
0.0
 40
346.5200166444521
100
AcDbArc
 50
172.9857025146484
 51
180.0000915527344
  0
ARC
  5
3F6
330
1F
100
AcDbEntity
  8
0-A
  6
Continuous
 62
     4
370
    13
100
AcDbCircle
 10
205.9249181130325
 20
834.1614473269892
 30
0.0
 40
345.4066611625053
100
AcDbArc
 50
157.6798248291016
 51
172.1590118408203
  0
ARC
  5
3F7
330
1F
100
AcDbEntity
  8
0-A
  6
Continuous
 62
     4
370
    13
100
AcDbCircle
 10
-74.23003695189564
 20
1030.550228075511
 30
0.0
 40
3.333333376291636
100
AcDbArc
 50
330.0003204345703
 51
60.00032043457032
  0
ARC
  5
3F8
330
1F
100
AcDbEntity
  8
0-A
  6
Continuous
 62
     4
370
    13
100
AcDbCircle
 10
-64.96205467518521
 20
1028.826067391389
 30
0.0
 40
3.333333376291636
100
AcDbArc
 50
330.0003204345703
 51
39.22409057617189
  0
ARC
  5
3F9
330
1F
100
AcDbEntity
  8
0-A
  6
Continuous
 62
     4
370
    13
100
AcDbCircle
 10
-104.2301359278248
 20
978.5883602017781
 30
0.0
 40
3.333333376291636
100
AcDbArc
 50
240.0008239746094
 51
330.0003204345703
  0
ARC
  5
3FA
330
1F
100
AcDbEntity
  8
0-A
  6
Continuous
 62
     4
370
    13
100
AcDbCircle
 10
-98.10278359991074
 20
971.4242350170229
 30
0.0
 40
3.333333376291636
100
AcDbArc
 50
260.7769927978516
 51
330.0008239746094
  0
ARC
  5
3FB
330
1F
100
AcDbEntity
  8
0-A
  6
Continuous
 62
     4
370
    13
100
AcDbCircle
 10
516.0805907534466
 20
978.5883602017781
 30
0.0
 40
3.333333376291636
100
AcDbArc
 50
210.0003204345703
 51
300.0003204345703
  0
ARC
  5
3FC
330
1F
100
AcDbEntity
  8
0-A
  6
Continuous
 62
     4
370
    13
100
AcDbCircle
 10
509.9529909857101
 20
971.4239875772001
 30
0.0
 40
3.333333376291636
100
AcDbArc
 50
210.0003204345703
 51
279.2240905761719
  0
ARC
  5
3FD
330
1F
100
AcDbEntity
  8
0-A
  6
Continuous
 62
     4
370
    13
100
AcDbCircle
 10
486.0799968978721
 20
1030.549980635688
 30
0.0
 40
3.333333376291636
100
AcDbArc
 50
120.0008239746094
 51
210.0003204345703
  0
ARC
  5
3FE
330
1F
100
AcDbEntity
  8
0-A
  6
Continuous
 62
     4
370
    13
100
AcDbCircle
 10
476.8118909012504
 20
1028.825572511744
 30
0.0
 40
3.333333376291636
100
AcDbArc
 50
140.7769927978516
 51
210.0008239746094
  0
ARC
  5
3FF
330
1F
100
AcDbEntity
  8
0-A
  6
Continuous
 62
     4
370
    13
100
AcDbCircle
 10
235.9252645287843
 20
1174.977388390123
 30
0.0
 40
3.333333376291636
100
AcDbArc
 50
270.0003204345703
 51
0.0003204345703111
  0
ARC
  5
400
330
1F
100
AcDbEntity
  8
0-A
  6
Continuous
 62
     4
370
    13
100
AcDbCircle
 10
239.0657707576695
 20
1166.088855081423
 30
0.0
 40
3.333333376291636
100
AcDbArc
 50
270.0003204345703
 51
339.2240905761719
  0
ARC
  5
401
330
1F
100
AcDbEntity
  8
0-A
  6
Continuous
 62
     4
370
    13
100
AcDbCircle
 10
175.9248191371036
 20
1174.977388390123
 30
0.0
 40
3.333333376291636
100
AcDbArc
 50
180.0008239746094
 51
270.0003204345703
  0
ARC
  5
402
330
1F
100
AcDbEntity
  8
0-A
  6
Continuous
 62
     4
370
    13
100
AcDbCircle
 10
172.7840654683958
 20
1166.088855081423
 30
0.0
 40
3.333333376291636
100
AcDbArc
 50
200.7769927978516
 51
270.0008239746094
  0
ARC
  5
403
330
1F
100
AcDbEntity
  8
0-A
  6
Continuous
 62
     4
370
    13
100
AcDbCircle
 10
205.9249181130325
 20
834.1614473269892
 30
0.0
 40
345.4066611625053
100
AcDbArc
 50
37.67985534667968
 51
50.85043334960937
  0
ARC
  5
404
330
1F
100
AcDbEntity
  8
0-A
  6
Continuous
 62
     4
370
    13
100
AcDbCircle
 10
417.6831760047132
 20
1094.269446561575
 30
0.0
 40
10.00000012887491
100
AcDbArc
 50
50.85054016113282
 51
150.0000305175781
  0
ARC
  5
405
330
1F
100
AcDbEntity
  8
0-A
  6
Continuous
 62
     4
370
    13
100
AcDbCircle
 10
205.9254129926778
 20
834.1611998871666
 30
0.0
 40
346.5200166444521
100
AcDbArc
 50
52.08865356445312
 51
60.00009155273438
  0
ARC
  5
406
330
1F
100
AcDbEntity
  8
0-A
  6
Continuous
 62
     4
370
    13
100
AcDbCircle
 10
417.6831760047132
 20
1094.269446561575
 30
0.0
 40
13.33333350516654
100
AcDbArc
 50
85.01358032226562
 51
150.0000305175781
  0
ARC
  5
407
330
1F
100
AcDbEntity
  8
0-A
  6
Continuous
 62
     4
370
    13
100
AcDbCircle
 10
325.3062195805159
 20
1147.603120811997
 30
0.0
 40
10.00000012887491
100
AcDbArc
 50
330.0002288818359
 51
69.14971923828126
  0
ARC
  5
408
330
1F
100
AcDbEntity
  8
0-A
  6
Continuous
 62
     4
370
    13
100
AcDbCircle
 10
325.3062195805159
 20
1147.603120811997
 30
0.0
 40
13.33333350516654
100
AcDbArc
 50
330.0000762939453
 51
34.98652648925781
  0
ARC
  5
409
330
1F
100
AcDbEntity
  8
0-A
  6
Continuous
 62
     4
370
    13
100
AcDbCircle
 10
205.9244232333874
 20
834.1616947668116
 30
0.0
 40
346.5200166444521
100
AcDbArc
 50
59.99990844726563
 51
67.91140747070312
  0
ARC
  5
40A
330
1F
100
AcDbEntity
  8
0-A
  6
Continuous
 62
     4
370
    13
100
AcDbCircle
 10
205.9249181130325
 20
834.1614473269892
 30
0.0
 40
409.9999608220281
100
AcDbArc
 50
16.86361694335937
 51
22.33772277832031
  0
ARC
  5
40B
330
1F
100
AcDbEntity
  8
0-A
  6
Continuous
 62
     4
370
    13
100
AcDbCircle
 10
575.9090654683957
 20
986.1874845947257
 30
0.0
 40
10.00000012887491
100
AcDbArc
 50
22.3377685546875
 51
119.9999694824219
  0
ARC
  5
40C
330
1F
100
AcDbEntity
  8
0-A
  6
Continuous
 62
     4
370
    13
100
AcDbCircle
 10
575.9090654683957
 20
986.1874845947257
 30
0.0
 40
20.00000025774981
100
AcDbArc
 50
75.26042175292972
 51
120.0001678466797
  0
ARC
  5
40D
330
1F
100
AcDbEntity
  8
0-A
  6
Continuous
 62
     4
370
    13
100
AcDbCircle
 10
522.5753912179733
 20
1078.563946139278
 30
0.0
 40
10.00000012887491
100
AcDbArc
 50
300.0002288818359
 51
37.66242980957032
  0
ARC
  5
40E
330
1F
100
AcDbEntity
  8
0-A
  6
Continuous
 62
     4
370
    13
100
AcDbCircle
 10
522.5753912179733
 20
1078.563946139278
 30
0.0
 40
20.00000025774981
100
AcDbArc
 50
299.9998931884766
 51
344.7396392822266
  0
ARC
  5
40F
330
1F
100
AcDbEntity
  8
0-A
  6
Continuous
 62
     4
370
    13
100
AcDbCircle
 10
205.9249181130325
 20
834.1614473269892
 30
0.0
 40
412.3666299355996
100
AcDbArc
 50
24.55532836914063
 51
35.44468688964844
  0
ARC
  5
410
330
1F
100
AcDbEntity
  8
0-A
  6
Continuous
 62
     4
370
    13
100
AcDbCircle
 10
205.9249181130325
 20
834.1614473269892
 30
0.0
 40
409.9999608220281
100
AcDbArc
 50
37.66229248046876
 51
43.13638305664064
  0
ARC
  5
411
330
1F
100
AcDbEntity
  8
0-A
  6
Continuous
 62
     4
370
    13
100
AcDbCircle
 10
259.2583449236322
 20
1230.589488527369
 30
0.0
 40
10.00000012887491
100
AcDbArc
 50
82.33776855468749
 51
179.9999694824218
  0
ARC
  5
412
330
1F
100
AcDbEntity
  8
0-A
  6
Continuous
 62
     4
370
    13
100
AcDbCircle
 10
259.2583449236322
 20
1230.589488527369
 30
0.0
 40
20.00000025774981
100
AcDbArc
 50
135.2604217529297
 51
180.0001678466797
  0
ARC
  5
413
330
1F
100
AcDbEntity
  8
0-A
  6
Continuous
 62
     4
370
    13
100
AcDbCircle
 10
152.5912438626103
 20
1230.589488527369
 30
0.0
 40
10.00000012887491
100
AcDbArc
 50
0.0002288818359456
 51
97.66242980957033
  0
ARC
  5
414
330
1F
100
AcDbEntity
  8
0-A
  6
Continuous
 62
     4
370
    13
100
AcDbCircle
 10
152.5912438626103
 20
1230.589488527369
 30
0.0
 40
20.00000025774981
100
AcDbArc
 50
359.9998931884766
 51
44.73963928222656
  0
ARC
  5
415
330
1F
100
AcDbEntity
  8
0-A
  6
Continuous
 62
     4
370
    13
100
AcDbCircle
 10
-110.7255549919084
 20
1078.563451259633
 30
0.0
 40
10.00000012887491
100
AcDbArc
 50
142.3377685546875
 51
239.9999694824219
  0
ARC
  5
416
330
1F
100
AcDbEntity
  8
0-A
  6
Continuous
 62
     4
370
    13
100
AcDbCircle
 10
-110.7255549919084
 20
1078.563451259633
 30
0.0
 40
20.00000025774981
100
AcDbArc
 50
195.2604217529297
 51
240.0001678466797
  0
ARC
  5
417
330
1F
100
AcDbEntity
  8
0-A
  6
Continuous
 62
     4
370
    13
100
AcDbCircle
 10
-164.0591055224193
 20
986.1872371549031
 30
0.0
 40
10.00000012887491
100
AcDbArc
 50
60.00022888183593
 51
157.6624298095703
  0
ARC
  5
418
330
1F
100
AcDbEntity
  8
0-A
  6
Continuous
 62
     4
370
    13
100
AcDbCircle
 10
-164.0591055224193
 20
986.1872371549031
 30
0.0
 40
20.00000025774981
100
AcDbArc
 50
59.99989318847656
 51
104.7396392822266
  0
ARC
  5
419
330
1F
100
AcDbEntity
  8
0-A
  6
Continuous
 62
     4
370
    13
100
AcDbCircle
 10
205.9249181130325
 20
834.1614473269892
 30
0.0
 40
345.4066611625053
100
AcDbArc
 50
69.14958190917969
 51
82.32015991210938
  0
ARC
  5
41A
330
1F
100
AcDbEntity
  8
0-A
  6
Continuous
 62
     4
370
    13
100
AcDbCircle
 10
205.9249181130325
 20
834.1614473269892
 30
0.0
 40
409.9999608220281
100
AcDbArc
 50
76.86363220214847
 51
82.33773803710939
  0
ARC
  5
41B
330
1F
100
AcDbEntity
  8
0-A
  6
Continuous
 62
     4
370
    13
100
AcDbCircle
 10
205.9249181130325
 20
834.1614473269892
 30
0.0
 40
412.3666299355996
100
AcDbArc
 50
84.55529785156251
 51
95.44476318359376
  0
ARC
  5
41C
330
1F
100
AcDbEntity
  8
0-A
  6
Continuous
 62
     4
370
    13
100
AcDbCircle
 10
205.9249181130325
 20
834.1614473269892
 30
0.0
 40
409.9999608220281
100
AcDbArc
 50
97.66232299804688
 51
103.1363830566406
  0
ARC
  5
41D
330
1F
100
AcDbEntity
  8
0-A
  6
Continuous
 62
     4
370
    13
100
AcDbCircle
 10
205.9249181130325
 20
834.1614473269892
 30
0.0
 40
409.9999608220281
100
AcDbArc
 50
136.8636169433594
 51
142.3377838134766
  0
ARC
  5
41E
330
1F
100
AcDbEntity
  8
0-A
  6
Continuous
 62
     4
370
    13
100
AcDbCircle
 10
205.9249181130325
 20
834.1614473269892
 30
0.0
 40
412.3666299355996
100
AcDbArc
 50
144.5553741455078
 51
155.4447326660157
  0
ARC
  5
41F
330
1F
100
AcDbEntity
  8
0-A
  6
Continuous
 62
     4
370
    13
100
AcDbCircle
 10
205.9249181130325
 20
834.1614473269892
 30
0.0
 40
409.9999608220281
100
AcDbArc
 50
157.6623382568359
 51
163.1363830566407
  0
ARC
  5
420
330
1F
100
AcDbEntity
  8
0-A
  6
Continuous
 62
     4
370
    13
100
AcDbCircle
 10
205.9249181130325
 20
834.1614473269892
 30
0.0
 40
433.3333505166543
100
AcDbArc
 50
0.0
 51
180.0
  0
ARC
  5
421
330
1F
100
AcDbEntity
  8
0-A
  6
Continuous
 62
     4
370
    13
100
AcDbCircle
 10
205.9249181130325
 20
834.1614473269892
 30
0.0
 40
299.9999690700222
100
AcDbArc
 50
0.0
 51
42.85441589355469
  0
LINE
  5
422
330
1F
100
AcDbEntity
  8
0-0_通り芯
  6
JWW_CENTER1
 62
     3
370
    13
100
AcDbLine
 10
-342.6681367144432
 20
834.1614473269892
 30
0.0
 11
740.9040793825798
 21
834.1614473269892
 31
0.0
  0
LINE
  5
423
330
1F
100
AcDbEntity
  8
0-0_通り芯
  6
JWW_CENTER1
 62
     3
370
    13
100
AcDbLine
 10
205.9249181130325
 20
1356.780595369349
 30
0.0
 11
205.9249181130325
 21
824.2557883131201
 31
0.0
  0
TEXT
  5
424
330
1F
100
AcDbEntity
  8
F-4ﾚｲﾔ
  6
Continuous
 62
     6
370
    13
100
AcDbText
 10
183.0058376877507
 20
-1112.619480076671
 30
0.0
 40
30.48
  1
ステンレス鋳鋼製　たて引き用　打込型　外断熱用　　Ｃ＝１２０
 50
0.000002109711118
 41
0.7241666666666667
  7
ＭＳ ゴシック
100
AcDbText
  0
TEXT
  5
425
330
1F
100
AcDbEntity
  8
F-4ﾚｲﾔ
  6
Continuous
 62
     6
370
    13
100
AcDbText
 10
181.4537778967824
 20
-1157.629182681938
 30
0.0
 40
30.48
  1
ねじ込み式　ルーフドレイン　　　　　　ＥＳＳＢＷ－２－１００
 41
0.7241666666666668
  7
ＭＳ ゴシック
100
AcDbText
  0
TEXT
  5
426
330
1F
100
AcDbEntity
  8
0-5_文字
  6
Continuous
 62
     7
370
     0
100
AcDbText
 10
-340.0945669482005
 20
-525.1305532801034
 30
0.0
 40
22.86
  1
スペーサー
 41
1.133333333333333
  7
ＭＳ ゴシック
100
AcDbText
  0
TEXT
  5
427
330
1F
100
AcDbEntity
  8
0-5_文字
  6
Continuous
 62
     7
370
     0
100
AcDbText
 10
-426.4454858633512
 20
-574.0245593564205
 30
0.0
 40
22.86
  1
硬質ポリ塩化ビニル管
 41
1.15
  7
ＭＳ ゴシック
100
AcDbText
  0
LINE
  5
428
330
1F
100
AcDbEntity
  8
0-5_文字
  6
Continuous
 62
     7
370
    13
100
AcDbLine
 10
-85.14349404912991
 20
-538.4205005259331
 30
0.0
 11
-424.7945357011314
 21
-538.4205005259331
 31
0.0
  0
LINE
  5
429
330
1F
100
AcDbEntity
  8
0-0_通り芯
  6
Continuous
 62
     3
370
    13
100
AcDbLine
 10
49.37592832734822
 20
-181.7536881447042
 30
0.0
 11
377.6196994422131
 21
-181.7536881447042
 31
0.0
  0
ENDSEC
  0
SECTION
  2
OBJECTS
  0
DICTIONARY
  5
C
330
0
100
AcDbDictionary
281
     1
  3
ACAD_GROUP
350
D
  3
ACAD_LAYOUT
350
1A
  3
ACAD_MLEADERSTYLE
350
42B
  3
ACAD_MLINESTYLE
350
17
  3
ACAD_PLOTSETTINGS
350
19
  3
ACAD_PLOTSTYLENAME
350
E
  3
ACAD_TABLESTYLE
350
42A
  3
ACAD_VISUALSTYLE
350
2A
  0
DICTIONARY
  5
D
102
{ACAD_REACTORS
330
C
102
}
330
C
100
AcDbDictionary
281
     1
  0
DICTIONARY
  5
1A
102
{ACAD_REACTORS
330
C
102
}
330
C
100
AcDbDictionary
281
     1
  3
Layout1
350
1E
  3
Layout2
350
26
  3
Model
350
22
  0
DICTIONARY
  5
42B
102
{ACAD_REACTORS
330
C
102
}
330
C
100
AcDbDictionary
281
     1
  0
DICTIONARY
  5
17
102
{ACAD_REACTORS
330
C
102
}
330
C
100
AcDbDictionary
281
     1
  3
Standard
350
18
  0
DICTIONARY
  5
19
102
{ACAD_REACTORS
330
C
102
}
330
C
100
AcDbDictionary
281
     1
  0
ACDBDICTIONARYWDFLT
  5
E
102
{ACAD_REACTORS
330
C
102
}
330
C
100
AcDbDictionary
281
     1
  3
Normal
350
F
100
AcDbDictionaryWithDefault
340
F
  0
DICTIONARY
  5
42A
102
{ACAD_REACTORS
330
C
102
}
330
C
100
AcDbDictionary
281
     1
  0
DICTIONARY
  5
2A
102
{ACAD_REACTORS
330
C
102
}
330
C
100
AcDbDictionary
281
     1
  3
2dWireframe
350
2F
  3
3D Hidden
350
31
  3
3dWireframe
350
30
  3
Basic
350
32
  3
Brighten
350
36
  3
ColorChange
350
3A
  3
Conceptual
350
34
  3
Dim
350
35
  3
Facepattern
350
39
  3
Flat
350
2B
  3
FlatWithEdges
350
2C
  3
Gouraud
350
2D
  3
GouraudWithEdges
350
2E
  3
Linepattern
350
38
  3
Realistic
350
33
  3
Thicken
350
37
  0
LAYOUT
  5
1E
102
{ACAD_REACTORS
330
1A
102
}
330
1A
100
AcDbPlotSettings
  1

  2
none_device
  4

  6

 40
0.0
 41
0.0
 42
0.0
 43
0.0
 44
0.0
 45
0.0
 46
0.0
 47
0.0
 48
0.0
 49
0.0
140
0.0
141
0.0
142
1.0
143
1.0
 70
   688
 72
     0
 73
     0
 74
     5
  7

 75
    16
 76
     0
 77
     5
 78
   300
147
1.0
148
0.0
149
0.0
100
AcDbLayout
  1
Layout1
 70
     1
 71
     1
 10
0.0
 20
0.0
 11
420.0
 21
297.0
 12
0.0
 22
0.0
 32
0.0
 14
1.000000000000000E+20
 24
1.000000000000000E+20
 34
1.000000000000000E+20
 15
-1.000000000000000E+20
 25
-1.000000000000000E+20
 35
-1.000000000000000E+20
146
0.0
 13
0.0
 23
0.0
 33
0.0
 16
1.0
 26
0.0
 36
0.0
 17
0.0
 27
1.0
 37
0.0
 76
     0
330
1B
  0
LAYOUT
  5
26
102
{ACAD_REACTORS
330
1A
102
}
330
1A
100
AcDbPlotSettings
  1

  2
none_device
  4

  6

 40
0.0
 41
0.0
 42
0.0
 43
0.0
 44
0.0
 45
0.0
 46
0.0
 47
0.0
 48
0.0
 49
0.0
140
0.0
141
0.0
142
1.0
143
1.0
 70
   688
 72
     0
 73
     0
 74
     5
  7

 75
    16
 76
     0
 77
     5
 78
   300
147
1.0
148
0.0
149
0.0
100
AcDbLayout
  1
Layout2
 70
     1
 71
     2
 10
0.0
 20
0.0
 11
0.0
 21
0.0
 12
0.0
 22
0.0
 32
0.0
 14
0.0
 24
0.0
 34
0.0
 15
0.0
 25
0.0
 35
0.0
146
0.0
 13
0.0
 23
0.0
 33
0.0
 16
1.0
 26
0.0
 36
0.0
 17
0.0
 27
1.0
 37
0.0
 76
     0
330
23
  0
LAYOUT
  5
22
102
{ACAD_REACTORS
330
1A
102
}
330
1A
100
AcDbPlotSettings
  1

  2
none_device
  4

  6

 40
0.0
 41
0.0
 42
0.0
 43
0.0
 44
0.0
 45
0.0
 46
0.0
 47
0.0
 48
0.0
 49
0.0
140
0.0
141
0.0
142
1.0
143
1.0
 70
  1712
 72
     0
 73
     0
 74
     0
  7

 75
     0
 76
     0
 77
     5
 78
   300
147
1.0
148
0.0
149
0.0
100
AcDbLayout
  1
Model
 70
     1
 71
     0
 10
-2100.0
 20
-1485.0
 11
2100.0
 21
1485.0
 12
0.0
 22
0.0
 32
0.0
 14
-2100.0
 24
-1485.0
 34
0.0
 15
2100.0
 25
1485.0
 35
0.0
146
0.0
 13
0.0
 23
0.0
 33
0.0
 16
1.0
 26
0.0
 36
0.0
 17
0.0
 27
1.0
 37
0.0
 76
     0
330
1F
331
29
  0
MLINESTYLE
  5
18
102
{ACAD_REACTORS
330
17
102
}
330
17
100
AcDbMlineStyle
  2
Standard
 70
     0
  3

 62
   256
 51
90.0
 52
90.0
 71
     2
 49
0.5
 62
   256
  6
BYLAYER
 49
-0.5
 62
   256
  6
BYLAYER
  0
ACDBPLACEHOLDER
  5
F
102
{ACAD_REACTORS
330
E
102
}
330
E
  0
VISUALSTYLE
  5
2F
102
{ACAD_REACTORS
330
2A
102
}
330
2A
100
AcDbVisualStyle
  2
2dWireframe
 70
     4
 71
     0
 72
     2
 73
     0
 90
        0
 40
-0.6
 41
-30.0
 62
     5
 63
     7
421
 16777215
 74
     1
 91
        4
 64
     7
 65
   257
 75
     1
175
     1
 42
1.0
 92
        0
 66
   257
 43
1.0
 76
     1
 77
     6
 78
     2
 67
     7
 79
     5
170
     0
171
     0
290
     0
174
     0
 93
        1
 44
0.0
173
     0
291
     0
 45
0.0
1001
ACAD
1000
AcDbSavedByObjectVersion
1070
     0
  0
VISUALSTYLE
  5
31
102
{ACAD_REACTORS
330
2A
102
}
330
2A
100
AcDbVisualStyle
  2
3D Hidden
 70
     6
 71
     1
 72
     2
 73
     2
 90
        0
 40
-0.6
 41
-30.0
 62
     5
 63
     7
421
 16777215
 74
     2
 91
        2
 64
     7
 65
   257
 75
     2
175
     1
 42
40.0
 92
        0
 66
   257
 43
1.0
 76
     1
 77
     6
 78
     2
 67
     7
 79
     3
170
     0
171
     0
290
     0
174
     0
 93
        1
 44
0.0
173
     0
291
     0
 45
0.0
1001
ACAD
1000
AcDbSavedByObjectVersion
1070
     0
  0
VISUALSTYLE
  5
30
102
{ACAD_REACTORS
330
2A
102
}
330
2A
100
AcDbVisualStyle
  2
3dWireframe
 70
     5
 71
     0
 72
     2
 73
     0
 90
        0
 40
-0.6
 41
-30.0
 62
     5
 63
     7
421
 16777215
 74
     1
 91
        4
 64
     7
 65
   257
 75
     1
175
     1
 42
1.0
 92
        0
 66
   257
 43
1.0
 76
     1
 77
     6
 78
     2
 67
     7
 79
     5
170
     0
171
     0
290
     0
174
     0
 93
        1
 44
0.0
173
     0
291
     0
 45
0.0
1001
ACAD
1000
AcDbSavedByObjectVersion
1070
     0
  0
VISUALSTYLE
  5
32
102
{ACAD_REACTORS
330
2A
102
}
330
2A
100
AcDbVisualStyle
  2
Basic
 70
     7
 71
     1
 72
     0
 73
     1
 90
        0
 40
-0.6
 41
-30.0
 62
     5
 63
     7
421
 16777215
 74
     0
 91
        4
 64
     7
 65
   257
 75
     1
175
     1
 42
1.0
 92
        8
 66
     7
 43
1.0
 76
     1
 77
     6
 78
     2
 67
     7
 79
     5
170
     0
171
     0
290
     0
174
     0
 93
        1
 44
0.0
173
     0
291
     1
 45
0.0
1001
ACAD
1000
AcDbSavedByObjectVersion
1070
     0
  0
VISUALSTYLE
  5
36
102
{ACAD_REACTORS
330
2A
102
}
330
2A
100
AcDbVisualStyle
  2
Brighten
 70
    12
 71
     2
 72
     2
 73
     0
 90
        0
 40
-0.6
 41
-30.0
 62
     5
 63
     7
421
 16777215
 74
     1
 91
        4
 64
     7
 65
   257
 75
     1
175
     1
 42
1.0
 92
        8
 66
     7
 43
1.0
 76
     1
 77
     6
 78
     2
 67
     7
 79
     5
170
     0
171
     0
290
     0
174
     0
 93
        1
 44
50.0
173
     0
291
     1
 45
0.0
1001
ACAD
1000
AcDbSavedByObjectVersion
1070
     0
  0
VISUALSTYLE
  5
3A
102
{ACAD_REACTORS
330
2A
102
}
330
2A
100
AcDbVisualStyle
  2
ColorChange
 70
    16
 71
     2
 72
     2
 73
     3
 90
        0
 40
-0.6
 41
-30.0
 62
     5
 63
     8
421
  8421504
 74
     1
 91
        4
 64
     7
 65
   257
 75
     1
175
     1
 42
1.0
 92
        8
 66
     8
424
  8421504
 43
1.0
 76
     1
 77
     6
 78
     2
 67
     7
 79
     5
170
     0
171
     0
290
     0
174
     0
 93
        1
 44
0.0
173
     0
291
     1
 45
0.0
1001
ACAD
1000
AcDbSavedByObjectVersion
1070
     0
  0
VISUALSTYLE
  5
34
102
{ACAD_REACTORS
330
2A
102
}
330
2A
100
AcDbVisualStyle
  2
Conceptual
 70
     9
 71
     3
 72
     2
 73
     0
 90
        0
 40
-0.6
 41
-30.0
 62
     5
 63
     7
421
 16777215
 74
     2
 91
        2
 64
     7
 65
   257
 75
     1
175
     1
 42
40.0
 92
        8
 66
     7
 43
1.0
 76
     1
 77
     6
 78
     2
 67
     7
 79
     3
170
     0
171
     0
290
     0
174
     0
 93
        1
 44
0.0
173
     0
291
     0
 45
0.0
1001
ACAD
1000
AcDbSavedByObjectVersion
1070
     0
  0
VISUALSTYLE
  5
35
102
{ACAD_REACTORS
330
2A
102
}
330
2A
100
AcDbVisualStyle
  2
Dim
 70
    11
 71
     2
 72
     2
 73
     0
 90
        0
 40
-0.6
 41
-30.0
 62
     5
 63
     7
421
 16777215
 74
     1
 91
        4
 64
     7
 65
   257
 75
     1
175
     1
 42
1.0
 92
        8
 66
     7
 43
1.0
 76
     1
 77
     6
 78
     2
 67
     7
 79
     5
170
     0
171
     0
290
     0
174
     0
 93
        1
 44
-50.0
173
     0
291
     1
 45
0.0
1001
ACAD
1000
AcDbSavedByObjectVersion
1070
     0
  0
VISUALSTYLE
  5
39
102
{ACAD_REACTORS
330
2A
102
}
330
2A
100
AcDbVisualStyle
  2
Facepattern
 70
    15
 71
     2
 72
     2
 73
     0
 90
        0
 40
-0.6
 41
-30.0
 62
     5
 63
     7
421
 16777215
 74
     1
 91
        4
 64
     7
 65
   257
 75
     1
175
     1
 42
1.0
 92
        8
 66
     7
 43
1.0
 76
     1
 77
     6
 78
     2
 67
     7
 79
     5
170
     0
171
     0
290
     0
174
     0
 93
        1
 44
0.0
173
     0
291
     1
 45
0.0
1001
ACAD
1000
AcDbSavedByObjectVersion
1070
     0
  0
VISUALSTYLE
  5
2B
102
{ACAD_REACTORS
330
2A
102
}
330
2A
100
AcDbVisualStyle
  2
Flat
 70
     0
 71
     2
 72
     1
 73
     1
 90
        2
 40
-0.6
 41
30.0
 62
     5
 63
     7
421
 16777215
 74
     0
 91
        4
 64
     7
 65
   257
 75
     1
175
     1
 42
1.0
 92
        8
 66
     7
 43
1.0
 76
     1
 77
     6
 78
     2
 67
     7
 79
     5
170
     0
171
     0
290
     0
174
     0
 93
       13
 44
0.0
173
     0
291
     1
 45
0.0
1001
ACAD
1000
AcDbSavedByObjectVersion
1070
     0
  0
VISUALSTYLE
  5
2C
102
{ACAD_REACTORS
330
2A
102
}
330
2A
100
AcDbVisualStyle
  2
FlatWithEdges
 70
     1
 71
     2
 72
     1
 73
     1
 90
        2
 40
-0.6
 41
30.0
 62
     5
 63
     7
421
 16777215
 74
     1
 91
        4
 64
     7
 65
   257
 75
     1
175
     1
 42
1.0
 92
        0
 66
   257
 43
1.0
 76
     1
 77
     6
 78
     2
 67
     7
 79
     5
170
     0
171
     0
290
     0
174
     0
 93
       13
 44
0.0
173
     0
291
     1
 45
0.0
1001
ACAD
1000
AcDbSavedByObjectVersion
1070
     0
  0
VISUALSTYLE
  5
2D
102
{ACAD_REACTORS
330
2A
102
}
330
2A
100
AcDbVisualStyle
  2
Gouraud
 70
     2
 71
     2
 72
     2
 73
     1
 90
        2
 40
-0.6
 41
30.0
 62
     5
 63
     7
421
 16777215
 74
     0
 91
        4
 64
     7
 65
   257
 75
     1
175
     1
 42
1.0
 92
        0
 66
     7
 43
1.0
 76
     1
 77
     6
 78
     2
 67
     7
 79
     5
170
     0
171
     0
290
     0
174
     0
 93
       13
 44
0.0
173
     0
291
     1
 45
0.0
1001
ACAD
1000
AcDbSavedByObjectVersion
1070
     0
  0
VISUALSTYLE
  5
2E
102
{ACAD_REACTORS
330
2A
102
}
330
2A
100
AcDbVisualStyle
  2
GouraudWithEdges
 70
     3
 71
     2
 72
     2
 73
     1
 90
        2
 40
-0.6
 41
30.0
 62
     5
 63
     7
421
 16777215
 74
     1
 91
        4
 64
     7
 65
   257
 75
     1
175
     1
 42
1.0
 92
        0
 66
   257
 43
1.0
 76
     1
 77
     6
 78
     2
 67
     7
 79
     5
170
     0
171
     0
290
     0
174
     0
 93
       13
 44
0.0
173
     0
291
     1
 45
0.0
1001
ACAD
1000
AcDbSavedByObjectVersion
1070
     0
  0
VISUALSTYLE
  5
38
102
{ACAD_REACTORS
330
2A
102
}
330
2A
100
AcDbVisualStyle
  2
Linepattern
 70
    14
 71
     2
 72
     2
 73
     0
 90
        0
 40
-0.6
 41
-30.0
 62
     5
 63
     7
421
 16777215
 74
     1
 91
        4
 64
     7
 65
   257
 75
     7
175
     7
 42
1.0
 92
        8
 66
     7
 43
1.0
 76
     1
 77
     6
 78
     2
 67
     7
 79
     5
170
     0
171
     0
290
     0
174
     0
 93
        1
 44
0.0
173
     0
291
     1
 45
0.0
1001
ACAD
1000
AcDbSavedByObjectVersion
1070
     0
  0
VISUALSTYLE
  5
33
102
{ACAD_REACTORS
330
2A
102
}
330
2A
100
AcDbVisualStyle
  2
Realistic
 70
     8
 71
     2
 72
     2
 73
     0
 90
        0
 40
-0.6
 41
-30.0
 62
     5
 63
     7
421
 16777215
 74
     1
 91
        0
 64
     7
 65
   257
 75
     1
175
     1
 42
1.0
 92
        8
 66
     8
424
  7895160
 43
1.0
 76
     1
 77
     6
 78
     2
 67
     7
 79
     5
170
     0
171
     0
290
     0
174
     0
 93
       13
 44
0.0
173
     0
291
     0
 45
0.0
1001
ACAD
1000
AcDbSavedByObjectVersion
1070
     0
  0
VISUALSTYLE
  5
37
102
{ACAD_REACTORS
330
2A
102
}
330
2A
100
AcDbVisualStyle
  2
Thicken
 70
    13
 71
     2
 72
     2
 73
     0
 90
        0
 40
-0.6
 41
-30.0
 62
     5
 63
     7
421
 16777215
 74
     1
 91
        4
 64
     7
 65
   257
 75
     1
175
     1
 42
1.0
 92
       12
 66
     7
 43
1.0
 76
     1
 77
     6
 78
     2
 67
     7
 79
     5
170
     0
171
     0
290
     0
174
     0
 93
        1
 44
0.0
173
     0
291
     1
 45
0.0
1001
ACAD
1000
AcDbSavedByObjectVersion
1070
     0
  0
ENDSEC
  0
EOF
