  0
SECTION
  2
HEADER
  9
$ACADVER
  1
AC1018
  9
$ACADMAINTVER
 70
     0
  9
$DWGCODEPAGE
  3
ANSI_932
  9
$INSBASE
 10
0.0
 20
0.0
 30
0.0
  9
$EXTMIN
 10
-2100.0
 20
-1485.0
 30
0.0
  9
$EXTMAX
 10
2100.0
 20
1485.0
 30
0.0
  9
$LIMMIN
 10
-2100.0
 20
-1485.0
  9
$LIMMAX
 10
2100.0
 20
1485.0
  9
$ORTHOMODE
 70
     0
  9
$REGENMODE
 70
     1
  9
$FILLMODE
 70
     1
  9
$QTEXTMODE
 70
     0
  9
$MIRRTEXT
 70
     1
  9
$LTSCALE
 40
10.0
  9
$ATTMODE
 70
     1
  9
$TEXTSIZE
 40
2.5
  9
$TRACEWID
 40
1.0
  9
$TEXTSTYLE
  7
Standard
  9
$CLAYER
  8
0
  9
$CELTYPE
  6
ByLayer
  9
$CECOLOR
 62
   256
  9
$CELTSCALE
 40
1.0
  9
$DISPSILH
 70
     0
  9
$DIMSCALE
 40
1.0
  9
$DIMASZ
 40
2.5
  9
$DIMEXO
 40
0.625
  9
$DIMDLI
 40
3.75
  9
$DIMRND
 40
0.0
  9
$DIMDLE
 40
0.0
  9
$DIMEXE
 40
1.25
  9
$DIMTP
 40
0.0
  9
$DIMTM
 40
0.0
  9
$DIMTXT
 40
2.5
  9
$DIMCEN
 40
2.5
  9
$DIMTSZ
 40
0.0
  9
$DIMTOL
 70
     0
  9
$DIMLIM
 70
     0
  9
$DIMTIH
 70
     0
  9
$DIMTOH
 70
     0
  9
$DIMSE1
 70
     0
  9
$DIMSE2
 70
     0
  9
$DIMTAD
 70
     1
  9
$DIMZIN
 70
     8
  9
$DIMBLK
  1

  9
$DIMASO
 70
     1
  9
$DIMSHO
 70
     1
  9
$DIMPOST
  1

  9
$DIMAPOST
  1

  9
$DIMALT
 70
     0
  9
$DIMALTD
 70
     3
  9
$DIMALTF
 40
0.03937007874016
  9
$DIMLFAC
 40
1.0
  9
$DIMTOFL
 70
     1
  9
$DIMTVP
 40
0.0
  9
$DIMTIX
 70
     0
  9
$DIMSOXD
 70
     0
  9
$DIMSAH
 70
     0
  9
$DIMBLK1
  1

  9
$DIMBLK2
  1

  9
$DIMSTYLE
  2
ISO-25
  9
$DIMCLRD
 70
     0
  9
$DIMCLRE
 70
     0
  9
$DIMCLRT
 70
     0
  9
$DIMTFAC
 40
1.0
  9
$DIMGAP
 40
0.625
  9
$DIMJUST
 70
     0
  9
$DIMSD1
 70
     0
  9
$DIMSD2
 70
     0
  9
$DIMTOLJ
 70
     0
  9
$DIMTZIN
 70
     8
  9
$DIMALTZ
 70
     0
  9
$DIMALTTZ
 70
     0
  9
$DIMUPT
 70
     0
  9
$DIMDEC
 70
     2
  9
$DIMTDEC
 70
     2
  9
$DIMALTU
 70
     2
  9
$DIMALTTD
 70
     3
  9
$DIMTXSTY
  7
Standard
  9
$DIMAUNIT
 70
     0
  9
$DIMADEC
 70
     0
  9
$DIMALTRND
 40
0.0
  9
$DIMAZIN
 70
     0
  9
$DIMDSEP
 70
    44
  9
$DIMATFIT
 70
     3
  9
$DIMFRAC
 70
     0
  9
$DIMLDRBLK
  1

  9
$DIMLUNIT
 70
     2
  9
$DIMLWD
 70
    -2
  9
$DIMLWE
 70
    -2
  9
$DIMTMOVE
 70
     0
  9
$LUNITS
 70
     2
  9
$LUPREC
 70
     4
  9
$SKETCHINC
 40
1.0
  9
$FILLETRAD
 40
10.0
  9
$AUNITS
 70
     0
  9
$AUPREC
 70
     0
  9
$MENU
  1
.
  9
$ELEVATION
 40
0.0
  9
$PELEVATION
 40
0.0
  9
$THICKNESS
 40
0.0
  9
$LIMCHECK
 70
     0
  9
$CHAMFERA
 40
10.0
  9
$CHAMFERB
 40
10.0
  9
$CHAMFERC
 40
20.0
  9
$CHAMFERD
 40
0.0
  9
$SKPOLY
 70
     0
  9
$TDCREATE
 40
2456498.822330891
  9
$TDUCREATE
 40
2456498.447330891
  9
$TDUPDATE
 40
2456498.822330903
  9
$TDUUPDATE
 40
2456498.447330903
  9
$TDINDWG
 40
0.0000000116
  9
$TDUSRTIMER
 40
0.0000000116
  9
$USRTIMER
 70
     1
  9
$ANGBASE
 50
0.0
  9
$ANGDIR
 70
     0
  9
$PDMODE
 70
     0
  9
$PDSIZE
 40
0.0
  9
$PLINEWID
 40
0.0
  9
$SPLFRAME
 70
     0
  9
$SPLINETYPE
 70
     6
  9
$SPLINESEGS
 70
     8
  9
$HANDSEED
  5
428
  9
$SURFTAB1
 70
     6
  9
$SURFTAB2
 70
     6
  9
$SURFTYPE
 70
     6
  9
$SURFU
 70
     6
  9
$SURFV
 70
     6
  9
$UCSBASE
  2

  9
$UCSNAME
  2

  9
$UCSORG
 10
0.0
 20
0.0
 30
0.0
  9
$UCSXDIR
 10
1.0
 20
0.0
 30
0.0
  9
$UCSYDIR
 10
0.0
 20
1.0
 30
0.0
  9
$UCSORTHOREF
  2

  9
$UCSORTHOVIEW
 70
     0
  9
$UCSORGTOP
 10
0.0
 20
0.0
 30
0.0
  9
$UCSORGBOTTOM
 10
0.0
 20
0.0
 30
0.0
  9
$UCSORGLEFT
 10
0.0
 20
0.0
 30
0.0
  9
$UCSORGRIGHT
 10
0.0
 20
0.0
 30
0.0
  9
$UCSORGFRONT
 10
0.0
 20
0.0
 30
0.0
  9
$UCSORGBACK
 10
0.0
 20
0.0
 30
0.0
  9
$PUCSBASE
  2

  9
$PUCSNAME
  2

  9
$PUCSORG
 10
0.0
 20
0.0
 30
0.0
  9
$PUCSXDIR
 10
1.0
 20
0.0
 30
0.0
  9
$PUCSYDIR
 10
0.0
 20
1.0
 30
0.0
  9
$PUCSORTHOREF
  2

  9
$PUCSORTHOVIEW
 70
     0
  9
$PUCSORGTOP
 10
0.0
 20
0.0
 30
0.0
  9
$PUCSORGBOTTOM
 10
0.0
 20
0.0
 30
0.0
  9
$PUCSORGLEFT
 10
0.0
 20
0.0
 30
0.0
  9
$PUCSORGRIGHT
 10
0.0
 20
0.0
 30
0.0
  9
$PUCSORGFRONT
 10
0.0
 20
0.0
 30
0.0
  9
$PUCSORGBACK
 10
0.0
 20
0.0
 30
0.0
  9
$USERI1
 70
     0
  9
$USERI2
 70
     0
  9
$USERI3
 70
     0
  9
$USERI4
 70
     0
  9
$USERI5
 70
     0
  9
$USERR1
 40
0.0
  9
$USERR2
 40
0.0
  9
$USERR3
 40
0.0
  9
$USERR4
 40
0.0
  9
$USERR5
 40
0.0
  9
$WORLDVIEW
 70
     1
  9
$SHADEDGE
 70
     3
  9
$SHADEDIF
 70
    70
  9
$TILEMODE
 70
     1
  9
$MAXACTVP
 70
    64
  9
$PINSBASE
 10
0.0
 20
0.0
 30
0.0
  9
$PLIMCHECK
 70
     0
  9
$PEXTMIN
 10
1.000000000000000E+20
 20
1.000000000000000E+20
 30
1.000000000000000E+20
  9
$PEXTMAX
 10
-1.000000000000000E+20
 20
-1.000000000000000E+20
 30
-1.000000000000000E+20
  9
$PLIMMIN
 10
0.0
 20
0.0
  9
$PLIMMAX
 10
420.0
 20
297.0
  9
$UNITMODE
 70
     0
  9
$VISRETAIN
 70
     1
  9
$PLINEGEN
 70
     0
  9
$PSLTSCALE
 70
     1
  9
$TREEDEPTH
 70
  3020
  9
$CMLSTYLE
  2
Standard
  9
$CMLJUST
 70
     0
  9
$CMLSCALE
 40
20.0
  9
$PROXYGRAPHICS
 70
     1
  9
$MEASUREMENT
 70
     1
  9
$CELWEIGHT
370
    -1
  9
$ENDCAPS
280
     0
  9
$JOINSTYLE
280
     0
  9
$LWDISPLAY
290
     0
  9
$INSUNITS
 70
     4
  9
$HYPERLINKBASE
  1

  9
$STYLESHEET
  1

  9
$XEDIT
290
     1
  9
$CEPSNTYPE
380
     0
  9
$PSTYLEMODE
290
     1
  9
$FINGERPRINTGUID
  2
{119D89FB-2836-493D-9A84-031C99A9DEB9}
  9
$VERSIONGUID
  2
{FAEB1C32-E019-11D5-929B-00C0DF256EC4}
  9
$EXTNAMES
290
     1
  9
$PSVPSCALE
 40
0.0
  9
$OLESTARTUP
290
     0
  9
$SORTENTS
280
   127
  9
$INDEXCTL
280
     0
  9
$HIDETEXT
280
     1
  9
$XCLIPFRAME
290
     0
  9
$HALOGAP
280
     0
  9
$OBSCOLOR
 70
   257
  9
$OBSLTYPE
280
     0
  9
$INTERSECTIONDISPLAY
280
     0
  9
$INTERSECTIONCOLOR
 70
   257
  9
$DIMASSOC
280
     2
  9
$PROJECTNAME
  1

  0
ENDSEC
  0
SECTION
  2
CLASSES
  0
CLASS
  1
ACDBDICTIONARYWDFLT
  2
AcDbDictionaryWithDefault
  3
ObjectDBX Classes
 90
        0
 91
        4
280
     0
281
     0
  0
CLASS
  1
VISUALSTYLE
  2
AcDbVisualStyle
  3
ObjectDBX Classes
 90
     4095
 91
        4
280
     0
281
     0
  0
ENDSEC
  0
SECTION
  2
TABLES
  0
TABLE
  2
VPORT
  5
8
330
0
100
AcDbSymbolTable
 70
     1
  0
VPORT
  5
29
330
8
100
AcDbSymbolTableRecord
100
AcDbViewportTableRecord
  2
*Active
 70
     0
 10
0.0
 20
0.0
 11
1.0
 21
1.0
 12
0.0
 22
0.0
 13
0.0
 23
0.0
 14
10.0
 24
10.0
 15
10.0
 25
10.0
 16
0.0
 26
0.0
 36
1.0
 17
0.0
 27
0.0
 37
0.0
 40
3267.0
 41
1.414141414141414
 42
50.0
 43
0.0
 44
0.0
 50
0.0
 51
0.0
 71
     0
 72
 10000
 73
     1
 74
     3
 75
     0
 76
     0
 77
     0
 78
     0
281
     0
 65
     1
110
0.0
120
0.0
130
0.0
111
1.0
121
0.0
131
0.0
112
0.0
122
1.0
132
0.0
 79
     0
146
0.0
  0
ENDTAB
  0
TABLE
  2
LTYPE
  5
5
330
0
100
AcDbSymbolTable
 70
     3
  0
LTYPE
  5
14
330
5
100
AcDbSymbolTableRecord
100
AcDbLinetypeTableRecord
  2
ByBlock
 70
     0
  3

 72
    65
 73
     0
 40
0.0
  0
LTYPE
  5
15
330
5
100
AcDbSymbolTableRecord
100
AcDbLinetypeTableRecord
  2
ByLayer
 70
     0
  3

 72
    65
 73
     0
 40
0.0
  0
LTYPE
  5
16
330
5
100
AcDbSymbolTableRecord
100
AcDbLinetypeTableRecord
  2
Continuous
 70
     0
  3
Solid line
 72
    65
 73
     0
 40
0.0
  0
LTYPE
  5
3C
330
5
100
AcDbSymbolTableRecord
100
AcDbLinetypeTableRecord
  2
JWW_CENTER1
 70
     0
  3
-----  --  ----------  --  -----
 72
    65
 73
     4
 40
6.773333333333333
 49
4.233333333333333
 74
     0
 49
-0.8466666666666667
 74
     0
 49
0.8466666666666667
 74
     0
 49
-0.8466666666666667
 74
     0
  0
LTYPE
  5
3D
330
5
100
AcDbSymbolTableRecord
100
AcDbLinetypeTableRecord
  2
JWW_DASHED1
 70
     0
  3
-  --  --  --  --  --  --  --  -
 72
    65
 73
     2
 40
1.693333333333333
 49
0.8466666666666667
 74
     0
 49
-0.8466666666666667
 74
     0
  0
ENDTAB
  0
TABLE
  2
LAYER
  5
2
330
0
100
AcDbSymbolTable
 70
     9
  0
LAYER
  5
10
330
2
100
AcDbSymbolTableRecord
100
AcDbLayerTableRecord
  2
0
 70
     0
 62
     7
  6
Continuous
370
    -3
390
F
  0
LAYER
  5
3E
330
2
100
AcDbSymbolTableRecord
100
AcDbLayerTableRecord
  2
0-1_ピット
 70
     0
 62
     7
  6
Continuous
370
    -3
390
F
  0
LAYER
  5
3F
330
2
100
AcDbSymbolTableRecord
100
AcDbLayerTableRecord
  2
0-2_本体（蓋）
 70
     0
 62
     7
  6
Continuous
370
    -3
390
F
  0
LAYER
  5
40
330
2
100
AcDbSymbolTableRecord
100
AcDbLayerTableRecord
  2
0-0_通り芯
 70
     0
 62
     7
  6
Continuous
370
    -3
390
F
  0
LAYER
  5
41
330
2
100
AcDbSymbolTableRecord
100
AcDbLayerTableRecord
  2
0-3_受枠
 70
     0
 62
     7
  6
Continuous
370
    -3
390
F
  0
LAYER
  5
42
330
2
100
AcDbSymbolTableRecord
100
AcDbLayerTableRecord
  2
0-4_寸法
 70
     0
 62
     7
  6
Continuous
370
    -3
390
F
  0
LAYER
  5
43
330
2
100
AcDbSymbolTableRecord
100
AcDbLayerTableRecord
  2
0-5_文字
 70
     0
 62
     7
  6
Continuous
370
    -3
390
F
  0
LAYER
  5
44
330
2
100
AcDbSymbolTableRecord
100
AcDbLayerTableRecord
  2
0-A
 70
     0
 62
     7
  6
Continuous
370
    -3
390
F
  0
LAYER
  5
45
330
2
100
AcDbSymbolTableRecord
100
AcDbLayerTableRecord
  2
F-5ﾚｲﾔ
 70
     0
 62
     7
  6
Continuous
370
    -3
390
F
  0
ENDTAB
  0
TABLE
  2
STYLE
  5
3
330
0
100
AcDbSymbolTable
 70
     2
  0
STYLE
  5
11
330
3
100
AcDbSymbolTableRecord
100
AcDbTextStyleTableRecord
  2
Standard
 70
     0
 40
0.0
 41
1.0
 50
0.0
 71
     0
 42
2.5
  3
txt
  4

1001
ACAD
1000

1071
        0
  0
STYLE
  5
3B
330
3
100
AcDbSymbolTableRecord
100
AcDbTextStyleTableRecord
  2
ＭＳ ゴシック
 70
     0
 40
1.0
 41
1.0
 50
0.0
 71
     0
 42
10.0
  3

  4

1001
ACAD
1000
MS Gothic
1071
    32817
  0
ENDTAB
  0
TABLE
  2
VIEW
  5
6
330
0
100
AcDbSymbolTable
 70
     0
  0
ENDTAB
  0
TABLE
  2
UCS
  5
7
330
0
100
AcDbSymbolTable
 70
     0
  0
ENDTAB
  0
TABLE
  2
APPID
  5
9
330
0
100
AcDbSymbolTable
 70
     1
  0
APPID
  5
12
330
9
100
AcDbSymbolTableRecord
100
AcDbRegAppTableRecord
  2
ACAD
 70
     0
  0
ENDTAB
  0
TABLE
  2
DIMSTYLE
  5
A
330
0
100
AcDbSymbolTable
 70
     1
100
AcDbDimStyleTable
  0
DIMSTYLE
105
27
330
A
100
AcDbSymbolTableRecord
100
AcDbDimStyleTableRecord
  2
ISO-25
 70
     0
 41
2.5
 42
0.625
 43
3.75
 44
1.25
 73
     0
 74
     0
 77
     1
 78
     8
140
2.5
141
2.5
143
0.03937007874016
147
0.625
171
     3
172
     1
271
     2
272
     2
274
     3
278
    44
283
     0
284
     8
340
11
  0
ENDTAB
  0
TABLE
  2
BLOCK_RECORD
  5
1
330
0
100
AcDbSymbolTable
 70
     1
  0
BLOCK_RECORD
  5
1F
330
1
100
AcDbSymbolTableRecord
100
AcDbBlockTableRecord
  2
*Model_Space
340
22
  0
BLOCK_RECORD
  5
1B
330
1
100
AcDbSymbolTableRecord
100
AcDbBlockTableRecord
  2
*Paper_Space
340
1E
  0
BLOCK_RECORD
  5
23
330
1
100
AcDbSymbolTableRecord
100
AcDbBlockTableRecord
  2
*Paper_Space0
340
26
  0
ENDTAB
  0
ENDSEC
  0
SECTION
  2
BLOCKS
  0
BLOCK
  5
20
330
1F
100
AcDbEntity
  8
0
100
AcDbBlockBegin
  2
*Model_Space
 70
     0
 10
0.0
 20
0.0
 30
0.0
  3
*Model_Space
  1

  0
ENDBLK
  5
21
330
1F
100
AcDbEntity
  8
0
100
AcDbBlockEnd
  0
BLOCK
  5
1C
330
1B
100
AcDbEntity
 67
     1
  8
0
100
AcDbBlockBegin
  2
*Paper_Space
 70
     0
 10
0.0
 20
0.0
 30
0.0
  3
*Paper_Space
  1

  0
ENDBLK
  5
1D
330
1B
100
AcDbEntity
 67
     1
  8
0
100
AcDbBlockEnd
  0
BLOCK
  5
24
330
23
100
AcDbEntity
  8
0
100
AcDbBlockBegin
  2
*Paper_Space0
 70
     0
 10
0.0
 20
0.0
 30
0.0
  3
*Paper_Space0
  1

  0
ENDBLK
  5
25
330
23
100
AcDbEntity
  8
0
100
AcDbBlockEnd
  0
ENDSEC
  0
SECTION
  2
ENTITIES
  0
LINE
  5
46
330
1F
100
AcDbEntity
  8
0-1_ピット
  6
Continuous
 62
     2
370
    13
100
AcDbLine
 10
471.6477098626999
 20
931.1865912791159
 30
0.0
 11
481.3216171684434
 21
933.779100780805
 31
0.0
  0
LINE
  5
47
330
1F
100
AcDbEntity
  8
0-1_ピット
  6
Continuous
 62
     2
370
    13
100
AcDbLine
 10
468.3419138322947
 20
925.1246455443186
 30
0.0
 11
486.0652035282405
 21
929.8735106203321
 31
0.0
  0
LINE
  5
48
330
1F
100
AcDbEntity
  8
0-1_ピット
  6
Continuous
 62
     2
370
    13
100
AcDbLine
 10
404.9418927174298
 20
1046.724492461548
 30
0.0
 11
412.0232905214835
 21
1053.806550105129
 31
0.0
  0
LINE
  5
49
330
1F
100
AcDbEntity
  8
0-1_ピット
  6
Continuous
 62
     2
370
    13
100
AcDbLine
 10
398.0393114251999
 20
1046.893081460704
 30
0.0
 11
411.0130762056054
 21
1059.867176160873
 31
0.0
  0
LINE
  5
4A
330
1F
100
AcDbEntity
  8
0-1_ピット
  6
Continuous
 62
     2
370
    13
100
AcDbLine
 10
468.3419138322947
 20
925.1246455443186
 30
0.0
 11
471.6477098626999
 21
931.1865912791159
 31
0.0
  0
LINE
  5
4B
330
1F
100
AcDbEntity
  8
0-1_ピット
  6
Continuous
 62
     2
370
    13
100
AcDbLine
 10
486.0652035282405
 20
929.8735106203321
 30
0.0
 11
481.3216171684434
 21
933.779100780805
 31
0.0
  0
LINE
  5
4C
330
1F
100
AcDbEntity
  8
0-1_ピット
  6
Continuous
 62
     2
370
    13
100
AcDbLine
 10
412.0232905214835
 20
1053.806550105129
 30
0.0
 11
411.0130762056054
 21
1059.867176160873
 31
0.0
  0
LINE
  5
4D
330
1F
100
AcDbEntity
  8
0-1_ピット
  6
Continuous
 62
     2
370
    13
100
AcDbLine
 10
404.9418927174298
 20
1046.724492461548
 30
0.0
 11
398.0393114251999
 21
1046.893081460704
 31
0.0
  0
LINE
  5
4E
330
1F
100
AcDbEntity
  8
0-1_ピット
  6
Continuous
 62
     2
370
    13
100
AcDbLine
 10
379.0144882621934
 20
1072.651566997021
 30
0.0
 11
386.0962159860106
 21
1079.733624640602
 31
0.0
  0
LINE
  5
4F
330
1F
100
AcDbEntity
  8
0-1_ピット
  6
Continuous
 62
     2
370
    13
100
AcDbLine
 10
379.1830772613486
 20
1065.748985704791
 30
0.0
 11
392.1571719615176
 21
1078.723410324724
 31
0.0
  0
LINE
  5
50
330
1F
100
AcDbEntity
  8
0-1_ピット
  6
Continuous
 62
     2
370
    13
100
AcDbLine
 10
263.4765870797607
 20
1139.357384142291
 30
0.0
 11
266.0687666616864
 21
1149.031621367798
 31
0.0
  0
LINE
  5
51
330
1F
100
AcDbEntity
  8
0-1_ピット
  6
Continuous
 62
     2
370
    13
100
AcDbLine
 10
257.4148063048455
 20
1136.052247951413
 30
0.0
 11
262.1636713808586
 21
1153.774877807832
 31
0.0
  0
LINE
  5
52
330
1F
100
AcDbEntity
  8
0-1_ピット
  6
Continuous
 62
     2
370
    13
100
AcDbLine
 10
379.1830772613486
 20
1065.748985704791
 30
0.0
 11
379.0144882621934
 21
1072.651566997021
 31
0.0
  0
LINE
  5
53
330
1F
100
AcDbEntity
  8
0-1_ピット
  6
Continuous
 62
     2
370
    13
100
AcDbLine
 10
392.1571719615176
 20
1078.723410324724
 30
0.0
 11
386.0962159860106
 21
1079.733624640602
 31
0.0
  0
LINE
  5
54
330
1F
100
AcDbEntity
  8
0-1_ピット
  6
Continuous
 62
     2
370
    13
100
AcDbLine
 10
266.0687666616864
 20
1149.031621367798
 30
0.0
 11
262.1636713808586
 21
1153.774877807832
 31
0.0
  0
LINE
  5
55
330
1F
100
AcDbEntity
  8
0-1_ピット
  6
Continuous
 62
     2
370
    13
100
AcDbLine
 10
263.4765870797607
 20
1139.357384142291
 30
0.0
 11
257.4148063048455
 21
1136.052247951413
 31
0.0
  0
LINE
  5
56
330
1F
100
AcDbEntity
  8
0-1_ピット
  6
Continuous
 62
     2
370
    13
100
AcDbLine
 10
228.059700466585
 20
1148.847526139758
 30
0.0
 11
230.6518800485107
 21
1158.521433445501
 31
0.0
  0
LINE
  5
57
330
1F
100
AcDbEntity
  8
0-1_ピット
  6
Continuous
 62
     2
370
    13
100
AcDbLine
 10
231.6568156481728
 20
1142.953839484352
 30
0.0
 11
236.4056807241864
 21
1160.676799260535
 31
0.0
  0
LINE
  5
58
330
1F
100
AcDbEntity
  8
0-1_ピット
  6
Continuous
 62
     2
370
    13
100
AcDbLine
 10
94.64806617604478
 20
1148.847526139758
 30
0.0
 11
92.05588659411907
 21
1158.521433445501
 31
0.0
  0
LINE
  5
59
330
1F
100
AcDbEntity
  8
0-1_ピット
  6
Continuous
 62
     2
370
    13
100
AcDbLine
 10
91.05111595433851
 20
1142.953839484352
 30
0.0
 11
86.30225087832497
 21
1160.677129180298
 31
0.0
  0
LINE
  5
5A
330
1F
100
AcDbEntity
  8
0-1_ピット
  6
Continuous
 62
     2
370
    13
100
AcDbLine
 10
231.6568156481728
 20
1142.953839484352
 30
0.0
 11
228.059700466585
 21
1148.847526139758
 31
0.0
  0
LINE
  5
5B
330
1F
100
AcDbEntity
  8
0-1_ピット
  6
Continuous
 62
     2
370
    13
100
AcDbLine
 10
236.4056807241864
 20
1160.676799260535
 30
0.0
 11
230.6518800485107
 21
1158.521433445501
 31
0.0
  0
LINE
  5
5C
330
1F
100
AcDbEntity
  8
0-1_ピット
  6
Continuous
 62
     2
370
    13
100
AcDbLine
 10
92.05588659411907
 20
1158.521433445501
 30
0.0
 11
86.30225087832497
 21
1160.677129180298
 31
0.0
  0
LINE
  5
5D
330
1F
100
AcDbEntity
  8
0-1_ピット
  6
Continuous
 62
     2
370
    13
100
AcDbLine
 10
94.64806617604478
 20
1148.847526139758
 30
0.0
 11
91.05111595433851
 21
1142.953839484352
 31
0.0
  0
LINE
  5
5E
330
1F
100
AcDbEntity
  8
0-1_ピット
  6
Continuous
 62
     2
370
    13
100
AcDbLine
 10
59.2310146029871
 20
1139.357384142291
 30
0.0
 11
56.63883502106142
 21
1149.031291448035
 31
0.0
  0
LINE
  5
5F
330
1F
100
AcDbEntity
  8
0-1_ピット
  6
Continuous
 62
     2
370
    13
100
AcDbLine
 10
65.29312529766628
 20
1136.052247951413
 30
0.0
 11
60.54409526177079
 21
1153.775207727596
 31
0.0
  0
LINE
  5
60
330
1F
100
AcDbEntity
  8
0-1_ピット
  6
Continuous
 62
     2
370
    13
100
AcDbLine
 10
-56.30672161956358
 20
1072.651566997021
 30
0.0
 11
-63.38877926314446
 21
1079.733294720839
 31
0.0
  0
LINE
  5
61
330
1F
100
AcDbEntity
  8
0-1_ピット
  6
Continuous
 62
     2
370
    13
100
AcDbLine
 10
-56.47514565883718
 20
1065.749315624555
 30
0.0
 11
-69.4494053188879
 21
1078.723410324724
 31
0.0
  0
LINE
  5
62
330
1F
100
AcDbEntity
  8
0-1_ピット
  6
Continuous
 62
     2
370
    13
100
AcDbLine
 10
65.29312529766628
 20
1136.052247951413
 30
0.0
 11
59.2310146029871
 21
1139.357384142291
 31
0.0
  0
LINE
  5
63
330
1F
100
AcDbEntity
  8
0-1_ピット
  6
Continuous
 62
     2
370
    13
100
AcDbLine
 10
60.54409526177079
 20
1153.775207727596
 30
0.0
 11
56.63883502106142
 21
1149.031291448035
 31
0.0
  0
LINE
  5
64
330
1F
100
AcDbEntity
  8
0-1_ピット
  6
Continuous
 62
     2
370
    13
100
AcDbLine
 10
-63.38877926314446
 20
1079.733294720839
 30
0.0
 11
-69.4494053188879
 21
1078.723410324724
 31
0.0
  0
LINE
  5
65
330
1F
100
AcDbEntity
  8
0-1_ピット
  6
Continuous
 62
     2
370
    13
100
AcDbLine
 10
-56.30672161956358
 20
1072.651566997021
 30
0.0
 11
-56.47514565883718
 21
1065.749315624555
 31
0.0
  0
LINE
  5
66
330
1F
100
AcDbEntity
  8
0-1_ピット
  6
Continuous
 62
     2
370
    13
100
AcDbLine
 10
-82.23379615503649
 20
1046.724492461548
 30
0.0
 11
-89.31568883873581
 21
1053.806550105129
 31
0.0
  0
LINE
  5
67
330
1F
100
AcDbEntity
  8
0-1_ピット
  6
Continuous
 62
     2
370
    13
100
AcDbLine
 10
-75.33137982268858
 20
1046.893081460704
 30
0.0
 11
-88.30547452285731
 21
1059.867176160873
 31
0.0
  0
LINE
  5
68
330
1F
100
AcDbEntity
  8
0-1_ピット
  6
Continuous
 62
     2
370
    13
100
AcDbLine
 10
-148.9396133003066
 20
931.1865912791159
 30
0.0
 11
-158.6136855659316
 21
933.7787708610415
 31
0.0
  0
LINE
  5
69
330
1F
100
AcDbEntity
  8
0-1_ピット
  6
Continuous
 62
     2
370
    13
100
AcDbLine
 10
-145.634147189665
 20
925.1249754640821
 30
0.0
 11
-163.3572719257292
 21
929.8738405400957
 31
0.0
  0
LINE
  5
6A
330
1F
100
AcDbEntity
  8
0-1_ピット
  6
Continuous
 62
     2
370
    13
100
AcDbLine
 10
-75.33137982268858
 20
1046.893081460704
 30
0.0
 11
-82.23379615503649
 21
1046.724492461548
 31
0.0
  0
LINE
  5
6B
330
1F
100
AcDbEntity
  8
0-1_ピット
  6
Continuous
 62
     2
370
    13
100
AcDbLine
 10
-88.30547452285731
 20
1059.867176160873
 30
0.0
 11
-89.31568883873581
 21
1053.806550105129
 31
0.0
  0
LINE
  5
6C
330
1F
100
AcDbEntity
  8
0-1_ピット
  6
Continuous
 62
     2
370
    13
100
AcDbLine
 10
-158.6136855659316
 20
933.7787708610415
 30
0.0
 11
-163.3572719257292
 21
929.8738405400957
 31
0.0
  0
LINE
  5
6D
330
1F
100
AcDbEntity
  8
0-1_ピット
  6
Continuous
 62
     2
370
    13
100
AcDbLine
 10
-148.9396133003066
 20
931.1865912791159
 30
0.0
 11
-145.634147189665
 21
925.1249754640821
 31
0.0
  0
LINE
  5
6E
330
1F
100
AcDbEntity
  8
0-1_ピット
  6
Continuous
 62
     2
370
    13
100
AcDbLine
 10
481.1375219404027
 20
895.76970466594
 30
0.0
 11
490.8114292461461
 21
898.3622141676294
 31
0.0
  0
LINE
  5
6F
330
1F
100
AcDbEntity
  8
0-1_ピット
  6
Continuous
 62
     2
370
    13
100
AcDbLine
 10
475.2438352849971
 20
899.3664899277644
 30
0.0
 11
492.9671249809434
 21
904.1156849235415
 31
0.0
  0
LINE
  5
70
330
1F
100
AcDbEntity
  8
0-1_ピット
  6
Continuous
 62
     2
370
    13
100
AcDbLine
 10
490.8114292461461
 20
898.3622141676294
 30
0.0
 11
492.9671249809434
 21
904.1156849235415
 31
0.0
  0
LINE
  5
71
330
1F
100
AcDbEntity
  8
0-1_ピット
  6
Continuous
 62
     2
370
    13
100
AcDbLine
 10
481.1375219404027
 20
895.76970466594
 30
0.0
 11
475.2438352849971
 21
899.3664899277644
 31
0.0
  0
LINE
  5
72
330
1F
100
AcDbEntity
  8
0-1_ピット
  6
Continuous
 62
     2
370
    13
100
AcDbLine
 10
-158.4295903378913
 20
895.76970466594
 30
0.0
 11
-168.1034976436344
 21
898.3622141676294
 31
0.0
  0
LINE
  5
73
330
1F
100
AcDbEntity
  8
0-1_ピット
  6
Continuous
 62
     2
370
    13
100
AcDbLine
 10
-152.5362336022494
 20
899.3664899277644
 30
0.0
 11
-170.2591933784316
 21
904.1156849235415
 31
0.0
  0
LINE
  5
74
330
1F
100
AcDbEntity
  8
0-1_ピット
  6
Continuous
 62
     2
370
    13
100
AcDbLine
 10
-168.1034976436344
 20
898.3622141676294
 30
0.0
 11
-170.2591933784316
 21
904.1156849235415
 31
0.0
  0
LINE
  5
75
330
1F
100
AcDbEntity
  8
0-1_ピット
  6
Continuous
 62
     2
370
    13
100
AcDbLine
 10
-158.4295903378913
 20
895.76970466594
 30
0.0
 11
-152.5362336022494
 21
899.3664899277644
 31
0.0
  0
LINE
  5
76
330
1F
100
AcDbEntity
  8
0-2_本体（蓋）
  6
Continuous
 62
     6
370
    13
100
AcDbLine
 10
-153.5535411930431
 20
862.3973308272577
 30
0.0
 11
-156.53832529355
 21
865.7305101980348
 31
0.0
  0
LINE
  5
77
330
1F
100
AcDbEntity
  8
0-2_本体（蓋）
  6
Continuous
 62
     6
370
    13
100
AcDbLine
 10
-158.3680603019959
 20
842.397264843305
 30
0.0
 11
-154.8738800866244
 21
845.7304442140821
 31
0.0
  0
LINE
  5
78
330
1F
100
AcDbEntity
  8
0-2_本体（蓋）
  6
Continuous
 62
     6
370
    13
100
AcDbLine
 10
-156.53832529355
 20
865.7305101980348
 30
0.0
 11
-117.9159382580771
 21
865.7305101980348
 31
0.0
  0
LINE
  5
79
330
1F
100
AcDbEntity
  8
0-2_本体（蓋）
  6
Continuous
 62
     6
370
    13
100
AcDbLine
 10
-153.5535411930431
 20
862.3973308272577
 30
0.0
 11
-118.3332867589215
 21
862.3973308272577
 31
0.0
  0
LINE
  5
7A
330
1F
100
AcDbEntity
  8
0-2_本体（蓋）
  6
Continuous
 62
     6
370
    13
100
AcDbLine
 10
-112.8163684734486
 20
893.6133490916159
 30
0.0
 11
-103.4793092462528
 21
890.5794069463457
 31
0.0
  0
LINE
  5
7B
330
1F
100
AcDbEntity
  8
0-2_本体（蓋）
  6
Continuous
 62
     6
370
    13
100
AcDbLine
 10
-119.3444908340907
 20
852.3971328753998
 30
0.0
 11
-109.5267385114552
 21
852.3971328753998
 31
0.0
  0
LINE
  5
7C
330
1F
100
AcDbEntity
  8
0-2_本体（蓋）
  6
Continuous
 62
     6
370
    13
100
AcDbLine
 10
-79.45092294980003
 20
975.1774327064807
 30
0.0
 11
-71.50777472344863
 21
969.4064762031023
 31
0.0
  0
LINE
  5
7D
330
1F
100
AcDbEntity
  8
0-2_本体（蓋）
  6
Continuous
 62
     6
370
    13
100
AcDbLine
 10
-98.39557561027294
 20
937.9958052782713
 30
0.0
 11
-89.05851638307712
 21
934.9618631330013
 31
0.0
  0
LINE
  5
7E
330
1F
100
AcDbEntity
  8
0-2_本体（蓋）
  6
Continuous
 62
     6
370
    13
100
AcDbLine
 10
-22.5133701626379
 20
1042.438834733508
 30
0.0
 11
-16.74274357902295
 21
1034.49601642692
 31
0.0
  0
LINE
  5
7F
330
1F
100
AcDbEntity
  8
0-2_本体（蓋）
  6
Continuous
 62
     6
370
    13
100
AcDbLine
 10
-52.02073397175941
 20
1012.931470924386
 30
0.0
 11
-44.07824558493509
 21
1007.160514421008
 31
0.0
  0
LINE
  5
80
330
1F
100
AcDbEntity
  8
0-2_本体（蓋）
  6
Continuous
 62
     6
370
    13
100
AcDbLine
 10
52.42229548347705
 20
1088.813676372021
 30
0.0
 11
55.45623762874717
 21
1079.476287225062
 31
0.0
  0
LINE
  5
81
330
1F
100
AcDbEntity
  8
0-2_本体（蓋）
  6
Continuous
 62
     6
370
    13
100
AcDbLine
 10
15.24066805526768
 20
1069.869023711548
 30
0.0
 11
21.01129463888261
 21
1061.925875485197
 31
0.0
  0
LINE
  5
82
330
1F
100
AcDbEntity
  8
0-2_本体（蓋）
  6
Continuous
 62
     6
370
    13
100
AcDbLine
 10
138.0209678863486
 20
1109.762261676075
 30
0.0
 11
138.0209678863486
 21
1099.94450935344
 31
0.0
  0
LINE
  5
83
330
1F
100
AcDbEntity
  8
0-2_本体（蓋）
  6
Continuous
 62
     6
370
    13
100
AcDbLine
 10
96.80475167013262
 20
1103.234469235197
 30
0.0
 11
99.83869381540273
 21
1093.897080088238
 31
0.0
  0
LINE
  5
84
330
1F
100
AcDbEntity
  8
0-2_本体（蓋）
  6
Continuous
 62
     6
370
    13
100
AcDbLine
 10
225.9033448922607
 20
1103.234469235197
 30
0.0
 11
222.8694027469905
 21
1093.897080088238
 31
0.0
  0
LINE
  5
85
330
1F
100
AcDbEntity
  8
0-2_本体（蓋）
  6
Continuous
 62
     6
370
    13
100
AcDbLine
 10
184.6874585958083
 20
1109.762261676075
 30
0.0
 11
184.6874585958083
 21
1099.94450935344
 31
0.0
  0
LINE
  5
86
330
1F
100
AcDbEntity
  8
0-2_本体（蓋）
  6
Continuous
 62
     6
370
    13
100
AcDbLine
 10
307.4674285071256
 20
1069.868693791785
 30
0.0
 11
301.6968019235107
 21
1061.925875485197
 31
0.0
  0
LINE
  5
87
330
1F
100
AcDbEntity
  8
0-2_本体（蓋）
  6
Continuous
 62
     6
370
    13
100
AcDbLine
 10
270.2858010789163
 20
1088.813676372021
 30
0.0
 11
267.2518589336461
 21
1079.476287225062
 31
0.0
  0
LINE
  5
88
330
1F
100
AcDbEntity
  8
0-2_本体（蓋）
  6
Continuous
 62
     6
370
    13
100
AcDbLine
 10
374.7291604539163
 20
1012.931141004623
 30
0.0
 11
366.7860122275648
 21
1007.160514421008
 31
0.0
  0
LINE
  5
89
330
1F
100
AcDbEntity
  8
0-2_本体（蓋）
  6
Continuous
 62
     6
370
    13
100
AcDbLine
 10
345.2214667250312
 20
1042.438834733508
 30
0.0
 11
339.4508401414163
 21
1034.495686507157
 31
0.0
  0
LINE
  5
8A
330
1F
100
AcDbEntity
  8
0-2_本体（蓋）
  6
Continuous
 62
     6
370
    13
100
AcDbLine
 10
421.1040020924298
 20
937.9958052782713
 30
0.0
 11
411.7666129454705
 21
934.9618631330013
 31
0.0
  0
LINE
  5
8B
330
1F
100
AcDbEntity
  8
0-2_本体（蓋）
  6
Continuous
 62
     6
370
    13
100
AcDbLine
 10
402.1590195121934
 20
975.1774327064807
 30
0.0
 11
394.2158712858419
 21
969.4064762031023
 31
0.0
  0
LINE
  5
8C
330
1F
100
AcDbEntity
  8
0-2_本体（蓋）
  6
Continuous
 62
     6
370
    13
100
AcDbLine
 10
442.052587396484
 20
852.3971328753998
 30
0.0
 11
432.2348350738486
 21
852.3971328753998
 31
0.0
  0
LINE
  5
8D
330
1F
100
AcDbEntity
  8
0-2_本体（蓋）
  6
Continuous
 62
     6
370
    13
100
AcDbLine
 10
435.5247949556054
 20
893.6133490916159
 30
0.0
 11
426.1874058086461
 21
890.5794069463457
 31
0.0
  0
LINE
  5
8E
330
1F
100
AcDbEntity
  8
0-2_本体（蓋）
  6
Continuous
 62
     6
370
    13
100
AcDbLine
 10
153.0207699344906
 20
1064.063755552764
 30
0.0
 11
169.6873266279027
 21
1064.063755552764
 31
0.0
  0
LINE
  5
8F
330
1F
100
AcDbEntity
  8
0-2_本体（蓋）
  6
Continuous
 62
     6
370
    13
100
AcDbLine
 10
151.3540152892205
 20
1065.730510198035
 30
0.0
 11
171.3540812731729
 21
1065.730510198035
 31
0.0
  0
LINE
  5
90
330
1F
100
AcDbEntity
  8
0-2_本体（蓋）
  6
Continuous
 62
     6
370
    13
100
AcDbLine
 10
151.3540152892205
 20
1065.730510198035
 30
0.0
 11
153.0207699344906
 21
1064.063755552764
 31
0.0
  0
LINE
  5
91
330
1F
100
AcDbEntity
  8
0-2_本体（蓋）
  6
Continuous
 62
     6
370
    13
100
AcDbLine
 10
171.3540812731729
 20
1065.730510198035
 30
0.0
 11
169.6873266279027
 21
1064.063755552764
 31
0.0
  0
LINE
  5
92
330
1F
100
AcDbEntity
  8
0-2_本体（蓋）
  6
Continuous
 62
     6
370
    13
100
AcDbLine
 10
159.6874585958083
 20
1106.420504391447
 30
0.0
 11
163.020637966585
 21
1106.420504391447
 31
0.0
  0
LINE
  5
93
330
1F
100
AcDbEntity
  8
0-2_本体（蓋）
  6
Continuous
 62
     6
370
    13
100
AcDbLine
 10
143.8539493052677
 20
1103.086995100907
 30
0.0
 11
178.8541472571256
 21
1103.086995100907
 31
0.0
  0
LINE
  5
94
330
1F
100
AcDbEntity
  8
0-2_本体（蓋）
  6
Continuous
 62
     6
370
    13
100
AcDbLine
 10
169.6873266279027
 20
1064.063755552764
 30
0.0
 11
169.6873266279027
 21
1070.586929116954
 31
0.0
  0
LINE
  5
95
330
1F
100
AcDbEntity
  8
0-2_本体（蓋）
  6
Continuous
 62
     6
370
    13
100
AcDbLine
 10
171.3540812731729
 20
1065.730510198035
 30
0.0
 11
171.3540812731729
 21
1070.523584522359
 31
0.0
  0
LINE
  5
96
330
1F
100
AcDbEntity
  8
0-2_本体（蓋）
  6
Continuous
 62
     6
370
    13
100
AcDbLine
 10
153.0207699344906
 20
1064.063755552764
 30
0.0
 11
153.0207699344906
 21
1070.586929116954
 31
0.0
  0
LINE
  5
97
330
1F
100
AcDbEntity
  8
0-2_本体（蓋）
  6
Continuous
 62
     6
370
    13
100
AcDbLine
 10
151.3540152892205
 20
1065.730510198035
 30
0.0
 11
151.3540152892205
 21
1070.523584522359
 31
0.0
  0
LINE
  5
98
330
1F
100
AcDbEntity
  8
0-2_本体（蓋）
  6
Continuous
 62
     6
370
    13
100
AcDbLine
 10
151.3540152892205
 20
1088.966429222528
 30
0.0
 11
151.3540152892205
 21
1103.086995100907
 31
0.0
  0
LINE
  5
99
330
1F
100
AcDbEntity
  8
0-2_本体（蓋）
  6
Continuous
 62
     6
370
    13
100
AcDbLine
 10
153.0207699344906
 20
1089.025484860197
 30
0.0
 11
153.0207699344906
 21
1103.086995100907
 31
0.0
  0
LINE
  5
9A
330
1F
100
AcDbEntity
  8
0-2_本体（蓋）
  6
Continuous
 62
     6
370
    13
100
AcDbLine
 10
169.6873266279027
 20
1089.025484860197
 30
0.0
 11
169.6873266279027
 21
1103.086995100907
 31
0.0
  0
LINE
  5
9B
330
1F
100
AcDbEntity
  8
0-2_本体（蓋）
  6
Continuous
 62
     6
370
    13
100
AcDbLine
 10
171.3540812731729
 20
1088.966429222528
 30
0.0
 11
171.3540812731729
 21
1103.086995100907
 31
0.0
  0
LINE
  5
9C
330
1F
100
AcDbEntity
  8
0-2_本体（蓋）
  6
Continuous
 62
     6
370
    13
100
AcDbLine
 10
159.6874585958083
 20
1106.420504391447
 30
0.0
 11
159.6874585958083
 21
1116.02677814567
 31
0.0
  0
LINE
  5
9D
330
1F
100
AcDbEntity
  8
0-2_本体（蓋）
  6
Continuous
 62
     6
370
    13
100
AcDbLine
 10
163.020637966585
 20
1106.420504391447
 30
0.0
 11
163.020637966585
 21
1116.02677814567
 31
0.0
  0
LINE
  5
9E
330
1F
100
AcDbEntity
  8
0-2_本体（蓋）
  6
Continuous
 62
     6
370
    13
100
AcDbLine
 10
476.2613078356728
 20
862.3973308272577
 30
0.0
 11
479.2464218559434
 21
865.7305101980348
 31
0.0
  0
LINE
  5
9F
330
1F
100
AcDbEntity
  8
0-2_本体（蓋）
  6
Continuous
 62
     6
370
    13
100
AcDbLine
 10
481.0758269446256
 20
842.397264843305
 30
0.0
 11
477.5816467292541
 21
845.7304442140821
 31
0.0
  0
LINE
  5
A0
330
1F
100
AcDbEntity
  8
0-2_本体（蓋）
  6
Continuous
 62
     6
370
    13
100
AcDbLine
 10
479.2464218559434
 20
865.7305101980348
 30
0.0
 11
440.6240348204705
 21
865.7305101980348
 31
0.0
  0
LINE
  5
A1
330
1F
100
AcDbEntity
  8
0-2_本体（蓋）
  6
Continuous
 62
     6
370
    13
100
AcDbLine
 10
476.2613078356728
 20
862.3973308272577
 30
0.0
 11
441.0410534015513
 21
862.3973308272577
 31
0.0
  0
LINE
  5
A2
330
1F
100
AcDbEntity
  8
0-2_本体（蓋）
  6
Continuous
 62
     6
370
    13
100
AcDbLine
 10
-155.3130032918608
 20
829.06388752067
 30
0.0
 11
-155.3130032918608
 21
831.0638611270888
 31
0.0
  0
LINE
  5
A3
330
1F
100
AcDbEntity
  8
0-2_本体（蓋）
  6
Continuous
 62
     6
370
    13
100
AcDbLine
 10
-128.6462486465907
 20
831.0638611270888
 30
0.0
 11
-155.3130032918608
 21
831.0638611270888
 31
0.0
  0
LINE
  5
A4
330
1F
100
AcDbEntity
  8
0-2_本体（蓋）
  6
Continuous
 62
     6
370
    13
100
AcDbLine
 10
-128.6462486465907
 20
829.06388752067
 30
0.0
 11
-128.6462486465907
 21
831.0638611270888
 31
0.0
  0
LINE
  5
A5
330
1F
100
AcDbEntity
  8
0-2_本体（蓋）
  6
Continuous
 62
     6
370
    13
100
AcDbLine
 10
478.0210998542541
 20
829.06388752067
 30
0.0
 11
478.0210998542541
 21
831.0638611270888
 31
0.0
  0
LINE
  5
A6
330
1F
100
AcDbEntity
  8
0-2_本体（蓋）
  6
Continuous
 62
     6
370
    13
100
AcDbLine
 10
451.354345208984
 20
831.0638611270888
 30
0.0
 11
478.0210998542541
 21
831.0638611270888
 31
0.0
  0
LINE
  5
A7
330
1F
100
AcDbEntity
  8
0-2_本体（蓋）
  6
Continuous
 62
     6
370
    13
100
AcDbLine
 10
451.354345208984
 20
829.06388752067
 30
0.0
 11
451.354345208984
 21
831.0638611270888
 31
0.0
  0
LINE
  5
A8
330
1F
100
AcDbEntity
  8
0-2_本体（蓋）
  6
Continuous
 62
     6
370
    13
100
AcDbLine
 10
477.5816467292541
 20
845.7304442140821
 30
0.0
 11
470.0238447866864
 21
845.7304442140821
 31
0.0
  0
LINE
  5
A9
330
1F
100
AcDbEntity
  8
0-2_本体（蓋）
  6
Continuous
 62
     6
370
    13
100
AcDbLine
 10
481.0758269446256
 20
842.397264843305
 30
0.0
 11
476.0217860873621
 21
842.397264843305
 31
0.0
  0
LINE
  5
AA
330
1F
100
AcDbEntity
  8
0-2_本体（蓋）
  6
Continuous
 62
     6
370
    13
100
AcDbLine
 10
-154.8738800866244
 20
845.7304442140821
 30
0.0
 11
-147.3157482242931
 21
845.7304442140821
 31
0.0
  0
LINE
  5
AB
330
1F
100
AcDbEntity
  8
0-2_本体（蓋）
  6
Continuous
 62
     6
370
    13
100
AcDbLine
 10
-158.3680603019959
 20
842.397264843305
 30
0.0
 11
-153.3140194447323
 21
842.397264843305
 31
0.0
  0
LINE
  5
AC
330
1F
100
AcDbEntity
  8
0-1_ピット
  6
Continuous
 62
     4
370
    13
100
AcDbLine
 10
-40.30330365081358
 20
829.0797236693186
 30
0.0
 11
-52.79406589743509
 21
850.7145420814807
 31
0.0
  0
LINE
  5
AD
330
1F
100
AcDbEntity
  8
0-1_ピット
  6
Continuous
 62
     4
370
    13
100
AcDbLine
 10
-77.81254140419207
 20
850.7145420814807
 30
0.0
 11
-52.79406589743509
 21
850.7145420814807
 31
0.0
  0
LINE
  5
AE
330
1F
100
AcDbEntity
  8
0-1_ピット
  6
Continuous
 62
     4
370
    13
100
AcDbLine
 10
-61.97936203341499
 20
829.06388752067
 30
0.0
 11
-73.96402736280663
 21
835.9832947208388
 31
0.0
  0
LINE
  5
AF
330
1F
100
AcDbEntity
  8
0-1_ピット
  6
Continuous
 62
     4
370
    13
100
AcDbLine
 10
-68.64572077496877
 20
829.06388752067
 30
0.0
 11
-75.63078200807712
 21
833.0968267098592
 31
0.0
  0
LINE
  5
B0
330
1F
100
AcDbEntity
  8
0-1_ピット
  6
Continuous
 62
     4
370
    13
100
AcDbLine
 10
-40.31254140419207
 20
829.06388752067
 30
0.0
 11
-40.30330365081358
 21
829.0797236693186
 31
0.0
  0
LINE
  5
B1
330
1F
100
AcDbEntity
  8
0-1_ピット
  6
Continuous
 62
     4
370
    13
100
AcDbLine
 10
249.6875905637135
 20
1025.362847613575
 30
0.0
 11
262.1964983973284
 21
1047.029338323035
 31
0.0
  0
LINE
  5
B2
330
1F
100
AcDbEntity
  8
0-1_ピット
  6
Continuous
 62
     4
370
    13
100
AcDbLine
 10
249.6875905637135
 20
1025.362847613575
 30
0.0
 11
262.1964983973284
 21
1003.696356904116
 31
0.0
  0
LINE
  5
B3
330
1F
100
AcDbEntity
  8
0-1_ピット
  6
Continuous
 62
     4
370
    13
100
AcDbLine
 10
262.1964983973284
 20
1003.696356904116
 30
0.0
 11
287.1780228905715
 21
1003.696356904116
 31
0.0
  0
LINE
  5
B4
330
1F
100
AcDbEntity
  8
0-1_ピット
  6
Continuous
 62
     4
370
    13
100
AcDbLine
 10
299.6872606439499
 20
1025.362847613575
 30
0.0
 11
287.1780228905715
 21
1003.696356904116
 31
0.0
  0
LINE
  5
B5
330
1F
100
AcDbEntity
  8
0-1_ピット
  6
Continuous
 62
     4
370
    13
100
AcDbLine
 10
264.3690200400649
 20
1021.329908424386
 30
0.0
 11
283.3390765223284
 21
1032.282254813744
 31
0.0
  0
LINE
  5
B6
330
1F
100
AcDbEntity
  8
0-1_ピット
  6
Continuous
 62
     4
370
    13
100
AcDbLine
 10
266.035774685335
 20
1018.443440413407
 30
0.0
 11
285.005501247835
 21
1029.395786802764
 31
0.0
  0
LINE
  5
B7
330
1F
100
AcDbEntity
  8
0-1_ピット
  6
JWW_CENTER1
 62
     4
370
    13
100
AcDbLine
 10
292.1918135366864
 20
1055.68181404094
 30
0.0
 11
257.1780888745242
 21
995.0359631118863
 31
0.0
  0
LINE
  5
B8
330
1F
100
AcDbEntity
  8
0-1_ピット
  6
JWW_CENTER1
 62
     4
370
    13
100
AcDbLine
 10
247.2771967714836
 20
1041.188438829791
 30
0.0
 11
302.0973245164163
 21
1009.537586317123
 31
0.0
  0
LINE
  5
B9
330
1F
100
AcDbEntity
  8
0-1_ピット
  6
Continuous
 62
     2
370
    13
100
AcDbLine
 10
-65.31254140419207
 20
869.0640194885755
 30
0.0
 11
-76.97916408155663
 21
869.0640194885755
 31
0.0
  0
LINE
  5
BA
330
1F
100
AcDbEntity
  8
0-1_ピット
  6
Continuous
 62
     2
370
    13
100
AcDbLine
 10
-65.31254140419207
 20
872.3975287791159
 30
0.0
 11
-76.39586593966499
 21
872.3975287791159
 31
0.0
  0
LINE
  5
BB
330
1F
100
AcDbEntity
  8
0-1_ピット
  6
Continuous
 62
     4
370
    13
100
AcDbLine
 10
-77.81254140419207
 20
850.7145420814807
 30
0.0
 11
-79.59938684338091
 21
847.6198946997242
 31
0.0
  0
LINE
  5
BC
330
1F
100
AcDbEntity
  8
0-1_ピット
  6
Continuous
 62
     2
370
    13
100
AcDbLine
 10
312.214973904085
 20
1003.696026984352
 30
0.0
 11
317.7566361718215
 21
1013.294382664251
 31
0.0
  0
LINE
  5
BD
330
1F
100
AcDbEntity
  8
0-1_ピット
  6
Continuous
 62
     2
370
    13
100
AcDbLine
 10
309.3285058931055
 20
1005.363111549386
 30
0.0
 11
315.1618172317878
 21
1015.466574387224
 31
0.0
  0
LINE
  5
BE
330
1F
100
AcDbEntity
  8
0-1_ピット
  6
Continuous
 62
     2
370
    13
100
AcDbLine
 10
240.0463453145583
 20
1045.362913597528
 30
0.0
 11
245.8796566532405
 21
1055.466706355129
 31
0.0
  0
LINE
  5
BF
330
1F
100
AcDbEntity
  8
0-1_ピット
  6
Continuous
 62
     2
370
    13
100
AcDbLine
 10
237.1595473838149
 20
1047.029668242798
 30
0.0
 11
242.7012096515513
 21
1056.628023922697
 31
0.0
  0
LINE
  5
C0
330
1F
100
AcDbEntity
  8
0-1_ピット
  6
Continuous
 62
     4
370
    13
100
AcDbLine
 10
299.6872606439499
 20
1025.362847613575
 30
0.0
 11
297.9004152047607
 21
1028.457494995332
 31
0.0
  0
LINE
  5
C1
330
1F
100
AcDbEntity
  8
0-1_ピット
  6
Continuous
 62
     4
370
    13
100
AcDbLine
 10
262.1964983973284
 20
1047.029338323035
 30
0.0
 11
265.7276296262135
 21
1047.029338323035
 31
0.0
  0
ARC
  5
C2
330
1F
100
AcDbEntity
  8
0-1_ピット
  6
Continuous
 62
     2
370
    13
100
AcDbCircle
 10
161.3538833213149
 20
829.06388752067
 30
0.0
 40
326.6666927853146
100
AcDbArc
 50
18.21725463867189
 51
41.7827606201172
  0
ARC
  5
C3
330
1F
100
AcDbEntity
  8
0-1_ピット
  6
Continuous
 62
     2
370
    13
100
AcDbCircle
 10
161.3538833213149
 20
829.06388752067
 30
0.0
 40
336.6666639173353
100
AcDbArc
 50
18.12159729003907
 51
41.87843322753907
  0
ARC
  5
C4
330
1F
100
AcDbEntity
  8
0-1_ピット
  6
Continuous
 62
     2
370
    13
100
AcDbCircle
 10
161.3538833213149
 20
829.06388752067
 30
0.0
 40
340.0000082479941
100
AcDbArc
 50
17.24745178222658
 51
42.75251770019533
  0
ARC
  5
C5
330
1F
100
AcDbEntity
  8
0-1_ピット
  6
Continuous
 62
     2
370
    13
100
AcDbCircle
 10
161.3538833213149
 20
829.06388752067
 30
0.0
 40
321.6666762893265
100
AcDbArc
 50
17.37562561035158
 51
42.62434387207033
  0
ARC
  5
C6
330
1F
100
AcDbEntity
  8
0-1_ピット
  6
Continuous
 62
     2
370
    13
100
AcDbCircle
 10
161.3538833213149
 20
829.06388752067
 30
0.0
 40
326.6666927853146
100
AcDbArc
 50
48.21725463867188
 51
71.78276062011719
  0
ARC
  5
C7
330
1F
100
AcDbEntity
  8
0-1_ピット
  6
Continuous
 62
     2
370
    13
100
AcDbCircle
 10
161.3538833213149
 20
829.06388752067
 30
0.0
 40
321.6666762893265
100
AcDbArc
 50
47.37562561035156
 51
72.6243438720703
  0
ARC
  5
C8
330
1F
100
AcDbEntity
  8
0-1_ピット
  6
Continuous
 62
     2
370
    13
100
AcDbCircle
 10
161.3538833213149
 20
829.06388752067
 30
0.0
 40
326.6666927853146
100
AcDbArc
 50
78.21725463867189
 51
101.7827606201172
  0
ARC
  5
C9
330
1F
100
AcDbEntity
  8
0-1_ピット
  6
Continuous
 62
     2
370
    13
100
AcDbCircle
 10
161.3538833213149
 20
829.06388752067
 30
0.0
 40
336.6666639173353
100
AcDbArc
 50
78.12159729003906
 51
101.8784332275391
  0
ARC
  5
CA
330
1F
100
AcDbEntity
  8
0-1_ピット
  6
Continuous
 62
     2
370
    13
100
AcDbCircle
 10
161.3538833213149
 20
829.06388752067
 30
0.0
 40
340.0000082479941
100
AcDbArc
 50
77.24745178222656
 51
102.7525177001953
  0
ARC
  5
CB
330
1F
100
AcDbEntity
  8
0-1_ピット
  6
Continuous
 62
     2
370
    13
100
AcDbCircle
 10
161.3538833213149
 20
829.06388752067
 30
0.0
 40
326.6666927853146
100
AcDbArc
 50
108.2172546386718
 51
131.7827606201171
  0
ARC
  5
CC
330
1F
100
AcDbEntity
  8
0-1_ピット
  6
Continuous
 62
     2
370
    13
100
AcDbCircle
 10
161.3538833213149
 20
829.06388752067
 30
0.0
 40
336.6666639173353
100
AcDbArc
 50
108.1215972900391
 51
131.8784332275391
  0
ARC
  5
CD
330
1F
100
AcDbEntity
  8
0-1_ピット
  6
Continuous
 62
     2
370
    13
100
AcDbCircle
 10
161.3538833213149
 20
829.06388752067
 30
0.0
 40
340.0000082479941
100
AcDbArc
 50
107.2474517822266
 51
132.7525177001953
  0
ARC
  5
CE
330
1F
100
AcDbEntity
  8
0-1_ピット
  6
Continuous
 62
     2
370
    13
100
AcDbCircle
 10
161.3538833213149
 20
829.06388752067
 30
0.0
 40
321.6666762893265
100
AcDbArc
 50
107.3756256103516
 51
132.6243438720703
  0
ARC
  5
CF
330
1F
100
AcDbEntity
  8
0-1_ピット
  6
Continuous
 62
     2
370
    13
100
AcDbCircle
 10
161.3538833213149
 20
829.06388752067
 30
0.0
 40
326.6666927853146
100
AcDbArc
 50
138.2172546386719
 51
161.7827606201172
  0
ARC
  5
D0
330
1F
100
AcDbEntity
  8
0-1_ピット
  6
Continuous
 62
     2
370
    13
100
AcDbCircle
 10
161.3538833213149
 20
829.06388752067
 30
0.0
 40
336.6666639173353
100
AcDbArc
 50
138.1215972900391
 51
161.8784332275391
  0
ARC
  5
D1
330
1F
100
AcDbEntity
  8
0-1_ピット
  6
Continuous
 62
     2
370
    13
100
AcDbCircle
 10
161.3538833213149
 20
829.06388752067
 30
0.0
 40
340.0000082479941
100
AcDbArc
 50
137.2474517822266
 51
162.7525177001953
  0
ARC
  5
D2
330
1F
100
AcDbEntity
  8
0-1_ピット
  6
Continuous
 62
     2
370
    13
100
AcDbCircle
 10
161.3538833213149
 20
829.06388752067
 30
0.0
 40
321.6666762893265
100
AcDbArc
 50
137.3756256103516
 51
162.6243438720703
  0
ARC
  5
D3
330
1F
100
AcDbEntity
  8
0-1_ピット
  6
Continuous
 62
     2
370
    13
100
AcDbCircle
 10
161.3538833213149
 20
829.06388752067
 30
0.0
 40
321.6666762893265
100
AcDbArc
 50
6.074417114257828
 51
12.62434387207033
  0
ARC
  5
D4
330
1F
100
AcDbEntity
  8
0-1_ピット
  6
Continuous
 62
     2
370
    13
100
AcDbCircle
 10
161.3538833213149
 20
829.06388752067
 30
0.0
 40
323.0568138328758
100
AcDbArc
 50
0.0
 51
5.440963745117188
  0
ARC
  5
D5
330
1F
100
AcDbEntity
  8
0-1_ピット
  6
Continuous
 62
     2
370
    13
100
AcDbCircle
 10
161.3538833213149
 20
829.06388752067
 30
0.0
 40
326.6666927853146
100
AcDbArc
 50
0.0
 51
11.78276062011719
  0
ARC
  5
D6
330
1F
100
AcDbEntity
  8
0-1_ピット
  6
Continuous
 62
     2
370
    13
100
AcDbCircle
 10
161.3538833213149
 20
829.06388752067
 30
0.0
 40
336.6666639173353
100
AcDbArc
 50
0.0
 51
11.87843322753906
  0
ARC
  5
D7
330
1F
100
AcDbEntity
  8
0-1_ピット
  6
Continuous
 62
     2
370
    13
100
AcDbCircle
 10
161.3538833213149
 20
829.06388752067
 30
0.0
 40
340.0000082479941
100
AcDbArc
 50
0.0
 51
12.75251770019531
  0
ARC
  5
D8
330
1F
100
AcDbEntity
  8
0-1_ピット
  6
Continuous
 62
     2
370
    13
100
AcDbCircle
 10
161.3538833213149
 20
829.06388752067
 30
0.0
 40
321.6666762893265
100
AcDbArc
 50
167.3756561279297
 51
173.9255828857422
  0
ARC
  5
D9
330
1F
100
AcDbEntity
  8
0-1_ピット
  6
Continuous
 62
     2
370
    13
100
AcDbCircle
 10
161.3538833213149
 20
829.06388752067
 30
0.0
 40
323.0568138328758
100
AcDbArc
 50
174.5590362548828
 51
180.0
  0
ARC
  5
DA
330
1F
100
AcDbEntity
  8
0-1_ピット
  6
Continuous
 62
     2
370
    13
100
AcDbCircle
 10
161.3538833213149
 20
829.06388752067
 30
0.0
 40
326.6666927853146
100
AcDbArc
 50
168.2172241210937
 51
179.9999847412109
  0
ARC
  5
DB
330
1F
100
AcDbEntity
  8
0-1_ピット
  6
Continuous
 62
     2
370
    13
100
AcDbCircle
 10
161.3538833213149
 20
829.06388752067
 30
0.0
 40
321.6666762893265
100
AcDbArc
 50
93.64027404785156
 51
102.6243438720703
  0
ARC
  5
DC
330
1F
100
AcDbEntity
  8
0-1_ピット
  6
Continuous
 62
     2
370
    13
100
AcDbCircle
 10
161.3538833213149
 20
829.06388752067
 30
0.0
 40
321.6666762893265
100
AcDbArc
 50
77.37562561035155
 51
86.35972595214842
  0
ARC
  5
DD
330
1F
100
AcDbEntity
  8
0-1_ピット
  6
Continuous
 62
     2
370
    13
100
AcDbCircle
 10
161.3538833213149
 20
829.06388752067
 30
0.0
 40
323.0568138328758
100
AcDbArc
 50
87.58473205566406
 51
92.41526794433594
  0
ARC
  5
DE
330
1F
100
AcDbEntity
  8
0-1_ピット
  6
Continuous
 62
     2
370
    13
100
AcDbCircle
 10
474.5853154370242
 20
862.3973308272577
 30
0.0
 40
6.666666752583272
100
AcDbArc
 50
324.2645721435547
 51
6.074234008789071
  0
ARC
  5
DF
330
1F
100
AcDbEntity
  8
0-1_ピット
  6
Continuous
 62
     2
370
    13
100
AcDbCircle
 10
476.3187138745242
 20
859.0641514564807
 30
0.0
 40
6.666666752583272
100
AcDbArc
 50
307.7201690673828
 51
5.441635131835945
  0
ARC
  5
E0
330
1F
100
AcDbEntity
  8
0-1_ピット
  6
Continuous
 62
     2
370
    13
100
AcDbCircle
 10
181.3536193855041
 20
1143.428264104285
 30
0.0
 40
6.666666752583272
100
AcDbArc
 50
86.35946655273438
 51
128.1675720214844
  0
ARC
  5
E1
330
1F
100
AcDbEntity
  8
0-1_ピット
  6
Continuous
 62
     2
370
    13
100
AcDbCircle
 10
174.68726064395
 20
1145.172879813744
 30
0.0
 40
6.666666752583272
100
AcDbArc
 50
87.58457946777342
 51
145.3054962158203
  0
ARC
  5
E2
330
1F
100
AcDbEntity
  8
0-1_ピット
  6
Continuous
 62
     2
370
    13
100
AcDbCircle
 10
148.0206709585614
 20
1145.172879813744
 30
0.0
 40
6.666666752583272
100
AcDbArc
 50
34.6945037841797
 51
92.41542053222658
  0
ARC
  5
E3
330
1F
100
AcDbEntity
  8
0-1_ピット
  6
Continuous
 62
     2
370
    13
100
AcDbCircle
 10
141.3538173373621
 20
1143.428264104285
 30
0.0
 40
6.666666752583272
100
AcDbArc
 50
51.83242797851562
 51
93.64053344726562
  0
ARC
  5
E4
330
1F
100
AcDbEntity
  8
0-1_ピット
  6
Continuous
 62
     2
370
    13
100
AcDbCircle
 10
-151.8775487943944
 20
862.3973308272577
 30
0.0
 40
6.666666752583272
100
AcDbArc
 50
173.925765991211
 51
215.7354278564453
  0
ARC
  5
E5
330
1F
100
AcDbEntity
  8
0-1_ピット
  6
Continuous
 62
     2
370
    13
100
AcDbCircle
 10
-153.6107822720129
 20
859.0641514564807
 30
0.0
 40
6.666666752583272
100
AcDbArc
 50
174.5583648681641
 51
232.2798309326172
  0
ARC
  5
E6
330
1F
100
AcDbEntity
  8
0-1_ピット
  6
Continuous
 62
     2
370
    13
100
AcDbCircle
 10
161.3538833213149
 20
829.06388752067
 30
0.0
 40
336.6666639173353
100
AcDbArc
 50
168.121566772461
 51
179.0262603759766
  0
ARC
  5
E7
330
1F
100
AcDbEntity
  8
0-1_ピット
  6
Continuous
 62
     2
370
    13
100
AcDbCircle
 10
161.3538833213149
 20
829.06388752067
 30
0.0
 40
340.0000082479941
100
AcDbArc
 50
167.2474822998047
 51
178.102783203125
  0
ARC
  5
E8
330
1F
100
AcDbEntity
  8
0-1_ピット
  6
Continuous
 62
     2
370
    13
100
AcDbCircle
 10
161.3538833213149
 20
829.06388752067
 30
0.0
 40
336.6666639173353
100
AcDbArc
 50
48.12159729003907
 51
59.02626037597658
  0
ARC
  5
E9
330
1F
100
AcDbEntity
  8
0-1_ピット
  6
Continuous
 62
     2
370
    13
100
AcDbCircle
 10
161.3538833213149
 20
829.06388752067
 30
0.0
 40
336.6666639173353
100
AcDbArc
 50
60.97373962402345
 51
71.87843322753908
  0
ARC
  5
EA
330
1F
100
AcDbEntity
  8
0-1_ピット
  6
Continuous
 62
     2
370
    13
100
AcDbCircle
 10
161.3538833213149
 20
829.06388752067
 30
0.0
 40
340.0000082479941
100
AcDbArc
 50
47.24745178222657
 51
58.10278320312501
  0
ARC
  5
EB
330
1F
100
AcDbEntity
  8
0-1_ピット
  6
Continuous
 62
     2
370
    13
100
AcDbCircle
 10
161.3538833213149
 20
829.06388752067
 30
0.0
 40
340.0000082479941
100
AcDbArc
 50
61.89723205566407
 51
72.75251770019531
  0
ARC
  5
EC
330
1F
100
AcDbEntity
  8
0-2_本体（蓋）
  6
Continuous
 62
     6
370
    13
100
AcDbCircle
 10
-141.9792960494622
 20
829.06388752067
 30
0.0
 40
17.49999974225018
100
AcDbArc
 50
0.0
 51
180.0
  0
ARC
  5
ED
330
1F
100
AcDbEntity
  8
0-2_本体（蓋）
  6
Continuous
 62
     6
370
    13
100
AcDbCircle
 10
161.3538833213149
 20
829.06388752067
 30
0.0
 40
316.6666804133235
100
AcDbArc
 50
173.9576721191407
 51
176.9830627441407
  0
ARC
  5
EE
330
1F
100
AcDbEntity
  8
0-2_本体（蓋）
  6
Continuous
 62
     6
370
    13
100
AcDbCircle
 10
-105.5393282496309
 20
884.239008931143
 30
0.0
 40
6.666666752583272
100
AcDbArc
 50
348.3188934326172
 51
72.00048828125001
  0
ARC
  5
EF
330
1F
100
AcDbEntity
  8
0-2_本体（蓋）
  6
Continuous
 62
     6
370
    13
100
AcDbCircle
 10
-109.5267385114552
 20
859.0641514564807
 30
0.0
 40
6.666666752583272
100
AcDbArc
 50
270.0
 51
353.6797637939453
  0
ARC
  5
F0
330
1F
100
AcDbEntity
  8
0-2_本体（蓋）
  6
Continuous
 62
     6
370
    13
100
AcDbCircle
 10
161.3538833213149
 20
829.06388752067
 30
0.0
 40
265.8701303842905
100
AcDbArc
 50
168.3197479248047
 51
173.6802520751953
  0
ARC
  5
F1
330
1F
100
AcDbEntity
  8
0-2_本体（蓋）
  6
Continuous
 62
     6
370
    13
100
AcDbCircle
 10
-75.42656167446218
 20
964.0129479091836
 30
0.0
 40
6.666666752583272
100
AcDbArc
 50
330.3188934326172
 51
54.00048828125001
  0
ARC
  5
F2
330
1F
100
AcDbEntity
  8
0-2_本体（蓋）
  6
Continuous
 62
     6
370
    13
100
AcDbCircle
 10
-86.99849737969863
 20
941.3022611482036
 30
0.0
 40
6.666666752583272
100
AcDbArc
 50
252.0
 51
335.6797637939453
  0
ARC
  5
F3
330
1F
100
AcDbEntity
  8
0-2_本体（蓋）
  6
Continuous
 62
     6
370
    13
100
AcDbCircle
 10
161.3538833213149
 20
829.06388752067
 30
0.0
 40
265.8701303842905
100
AcDbArc
 50
150.3197479248047
 51
155.6802520751953
  0
ARC
  5
F4
330
1F
100
AcDbEntity
  8
0-2_本体（蓋）
  6
Continuous
 62
     6
370
    13
100
AcDbCircle
 10
-22.13627187294207
 20
1030.57755939567
 30
0.0
 40
6.666666752583272
100
AcDbArc
 50
312.3188934326172
 51
36.00048828125001
  0
ARC
  5
F5
330
1F
100
AcDbEntity
  8
0-2_本体（蓋）
  6
Continuous
 62
     6
370
    13
100
AcDbCircle
 10
-40.15945863392155
 20
1012.554042714926
 30
0.0
 40
6.666666752583272
100
AcDbArc
 50
234.0
 51
317.6797637939453
  0
ARC
  5
F6
330
1F
100
AcDbEntity
  8
0-2_本体（蓋）
  6
Continuous
 62
     6
370
    13
100
AcDbCircle
 10
161.3538833213149
 20
829.06388752067
 30
0.0
 40
265.8701303842905
100
AcDbArc
 50
132.3197479248047
 51
137.6802520751953
  0
ARC
  5
F7
330
1F
100
AcDbEntity
  8
0-2_本体（蓋）
  6
Continuous
 62
     6
370
    13
100
AcDbCircle
 10
49.11583961354477
 20
1077.416268221684
 30
0.0
 40
6.666666752583272
100
AcDbArc
 50
294.3188934326172
 51
18.00048828125001
  0
ARC
  5
F8
330
1F
100
AcDbEntity
  8
0-2_本体（蓋）
  6
Continuous
 62
     6
370
    13
100
AcDbCircle
 10
26.40482293280135
 20
1065.844662436211
 30
0.0
 40
6.666666752583272
100
AcDbArc
 50
216.0
 51
299.6797637939453
  0
ARC
  5
F9
330
1F
100
AcDbEntity
  8
0-2_本体（蓋）
  6
Continuous
 62
     6
370
    13
100
AcDbCircle
 10
161.3538833213149
 20
829.06388752067
 30
0.0
 40
265.8701303842905
100
AcDbArc
 50
114.3197479248047
 51
119.6802520751953
  0
ARC
  5
FA
330
1F
100
AcDbEntity
  8
0-2_本体（蓋）
  6
Continuous
 62
     6
370
    13
100
AcDbCircle
 10
131.3539493052677
 20
1099.94450935344
 30
0.0
 40
6.666666752583272
100
AcDbArc
 50
276.3188934326172
 51
0.0004882812500088
  0
ARC
  5
FB
330
1F
100
AcDbEntity
  8
0-2_本体（蓋）
  6
Continuous
 62
     6
370
    13
100
AcDbCircle
 10
106.1790918306055
 20
1095.957099091616
 30
0.0
 40
6.666666752583272
100
AcDbArc
 50
198.0
 51
281.6797637939453
  0
ARC
  5
FC
330
1F
100
AcDbEntity
  8
0-2_本体（蓋）
  6
Continuous
 62
     6
370
    13
100
AcDbCircle
 10
161.3538833213149
 20
829.06388752067
 30
0.0
 40
265.8701303842905
100
AcDbArc
 50
96.31974792480467
 51
101.6802520751953
  0
ARC
  5
FD
330
1F
100
AcDbEntity
  8
0-2_本体（蓋）
  6
Continuous
 62
     6
370
    13
100
AcDbCircle
 10
216.5290047317878
 20
1095.957099091616
 30
0.0
 40
6.666666752583272
100
AcDbArc
 50
258.3188934326172
 51
342.00048828125
  0
ARC
  5
FE
330
1F
100
AcDbEntity
  8
0-2_本体（蓋）
  6
Continuous
 62
     6
370
    13
100
AcDbCircle
 10
191.3541472571256
 20
1099.94450935344
 30
0.0
 40
6.666666752583272
100
AcDbArc
 50
180.0
 51
263.6797637939453
  0
ARC
  5
FF
330
1F
100
AcDbEntity
  8
0-2_本体（蓋）
  6
Continuous
 62
     6
370
    13
100
AcDbCircle
 10
161.3538833213149
 20
829.06388752067
 30
0.0
 40
265.8701303842905
100
AcDbArc
 50
78.31974792480467
 51
83.6802520751953
  0
ARC
  5
100
330
1F
100
AcDbEntity
  8
0-2_本体（蓋）
  6
Continuous
 62
     6
370
    13
100
AcDbCircle
 10
296.303273629592
 20
1065.844662436211
 30
0.0
 40
6.666666752583272
100
AcDbArc
 50
240.3188934326172
 51
324.00048828125
  0
ARC
  5
101
330
1F
100
AcDbEntity
  8
0-2_本体（蓋）
  6
Continuous
 62
     6
370
    13
100
AcDbCircle
 10
273.5925868686121
 20
1077.416268221684
 30
0.0
 40
6.666666752583272
100
AcDbArc
 50
162.0
 51
245.6797637939453
  0
ARC
  5
102
330
1F
100
AcDbEntity
  8
0-2_本体（蓋）
  6
Continuous
 62
     6
370
    13
100
AcDbCircle
 10
161.3538833213149
 20
829.06388752067
 30
0.0
 40
265.8701303842905
100
AcDbArc
 50
60.31974792480467
 51
65.6802520751953
  0
ARC
  5
103
330
1F
100
AcDbEntity
  8
0-2_本体（蓋）
  6
Continuous
 62
     6
370
    13
100
AcDbCircle
 10
362.8675551963148
 20
1012.554042714926
 30
0.0
 40
6.666666752583272
100
AcDbArc
 50
222.3188934326172
 51
306.00048828125
  0
ARC
  5
104
330
1F
100
AcDbEntity
  8
0-2_本体（蓋）
  6
Continuous
 62
     6
370
    13
100
AcDbCircle
 10
344.844368435335
 20
1030.57755939567
 30
0.0
 40
6.666666752583272
100
AcDbArc
 50
144.0
 51
227.6797637939453
  0
ARC
  5
105
330
1F
100
AcDbEntity
  8
0-2_本体（蓋）
  6
Continuous
 62
     6
370
    13
100
AcDbCircle
 10
161.3538833213149
 20
829.06388752067
 30
0.0
 40
265.8701303842905
100
AcDbArc
 50
42.31974792480467
 51
47.6802520751953
  0
ARC
  5
106
330
1F
100
AcDbEntity
  8
0-2_本体（蓋）
  6
Continuous
 62
     6
370
    13
100
AcDbCircle
 10
409.7062640223284
 20
941.3022611482036
 30
0.0
 40
6.666666752583272
100
AcDbArc
 50
204.3188934326172
 51
288.00048828125
  0
ARC
  5
107
330
1F
100
AcDbEntity
  8
0-2_本体（蓋）
  6
Continuous
 62
     6
370
    13
100
AcDbCircle
 10
398.1346582368554
 20
964.0129479091836
 30
0.0
 40
6.666666752583272
100
AcDbArc
 50
126.0
 51
209.6797637939453
  0
ARC
  5
108
330
1F
100
AcDbEntity
  8
0-2_本体（蓋）
  6
Continuous
 62
     6
370
    13
100
AcDbCircle
 10
161.3538833213149
 20
829.06388752067
 30
0.0
 40
265.8701303842905
100
AcDbArc
 50
24.31974792480467
 51
29.6802520751953
  0
ARC
  5
109
330
1F
100
AcDbEntity
  8
0-2_本体（蓋）
  6
Continuous
 62
     6
370
    13
100
AcDbCircle
 10
432.2348350738486
 20
859.0638215367171
 30
0.0
 40
6.666666752583272
100
AcDbArc
 50
186.3188934326172
 51
270.00048828125
  0
ARC
  5
10A
330
1F
100
AcDbEntity
  8
0-2_本体（蓋）
  6
Continuous
 62
     6
370
    13
100
AcDbCircle
 10
428.2474248120242
 20
884.2386790113794
 30
0.0
 40
6.666666752583272
100
AcDbArc
 50
108.0
 51
191.6797637939453
  0
ARC
  5
10B
330
1F
100
AcDbEntity
  8
0-2_本体（蓋）
  6
Continuous
 62
     6
370
    13
100
AcDbCircle
 10
161.3538833213149
 20
829.06388752067
 30
0.0
 40
265.8701303842905
100
AcDbArc
 50
6.3197479248047
 51
11.68025207519532
  0
ARC
  5
10C
330
1F
100
AcDbEntity
  8
0-2_本体（蓋）
  6
Continuous
 62
     6
370
    13
100
AcDbCircle
 10
161.3538833213149
 20
829.06388752067
 30
0.0
 40
260.0950086438978
100
AcDbArc
 50
0.0
 51
180.0
  0
ARC
  5
10D
330
1F
100
AcDbEntity
  8
0-2_本体（蓋）
  6
Continuous
 62
     6
370
    13
100
AcDbCircle
 10
161.3538833213149
 20
829.06388752067
 30
0.0
 40
241.6666597933383
100
AcDbArc
 50
0.0
 51
180.0
  0
ARC
  5
10E
330
1F
100
AcDbEntity
  8
0-2_本体（蓋）
  6
Continuous
 62
     6
370
    13
100
AcDbCircle
 10
161.3538833213149
 20
829.06388752067
 30
0.0
 40
281.6666680413323
100
AcDbArc
 50
0.0
 51
87.04763793945312
  0
ARC
  5
10F
330
1F
100
AcDbEntity
  8
0-2_本体（蓋）
  6
Continuous
 62
     6
370
    13
100
AcDbCircle
 10
161.3538833213149
 20
829.06388752067
 30
0.0
 40
281.6666680413323
100
AcDbArc
 50
92.95236206054689
 51
180.0
  0
ELLIPSE
  5
110
330
1F
100
AcDbEntity
  8
0-2_本体（蓋）
  6
Continuous
 62
     6
370
    13
100
AcDbEllipse
 10
161.3538833213149
 20
1103.086995100907
 30
0.0
 11
17.50005773595861
 21
0.0
 31
0.0
210
0.0
220
0.0
230
1.0
 40
0.7428
 41
1.666170250701142
 42
3.141592653589793
  0
ELLIPSE
  5
111
330
1F
100
AcDbEntity
  8
0-2_本体（蓋）
  6
Continuous
 62
     6
370
    13
100
AcDbEllipse
 10
161.3538833213149
 20
1103.086995100907
 30
0.0
 11
17.50005773595861
 21
0.0
 31
0.0
210
0.0
220
0.0
230
1.0
 40
0.7428
 41
0.0
 42
1.475408288134874
  0
ARC
  5
112
330
1F
100
AcDbEntity
  8
0-2_本体（蓋）
  6
Continuous
 62
     6
370
    13
100
AcDbCircle
 10
464.6873926118554
 20
829.06388752067
 30
0.0
 40
17.49999974225018
100
AcDbArc
 50
0.0
 51
180.0
  0
ARC
  5
113
330
1F
100
AcDbEntity
  8
0-2_本体（蓋）
  6
Continuous
 62
     6
370
    13
100
AcDbCircle
 10
161.3538833213149
 20
829.06388752067
 30
0.0
 40
316.6666804133235
100
AcDbArc
 50
3.016937255859381
 51
6.042327880859381
  0
ARC
  5
114
330
1F
100
AcDbEntity
  8
0-2_本体（蓋）
  6
Continuous
 62
     6
370
    13
100
AcDbCircle
 10
161.3538833213149
 20
829.06388752067
 30
0.0
 40
320.000004123997
100
AcDbArc
 50
2.388015747070312
 51
177.6119842529297
  0
ARC
  5
115
330
1F
100
AcDbEntity
  8
0-1_ピット
  6
Continuous
 62
     2
370
    13
100
AcDbCircle
 10
302.968312692092
 20
984.1294755696565
 30
0.0
 40
6.666666752583272
100
AcDbArc
 50
47.59628295898438
 51
124.4453277587891
  0
ARC
  5
116
330
1F
100
AcDbEntity
  8
0-1_ピット
  6
Continuous
 62
     2
370
    13
100
AcDbCircle
 10
224.8380339758756
 20
1029.238085155805
 30
0.0
 40
6.666666752583272
100
AcDbArc
 50
355.5552215576172
 51
72.40367126464842
  0
ARC
  5
117
330
1F
100
AcDbEntity
  8
0-1_ピット
  6
Continuous
 62
     2
370
    13
100
AcDbCircle
 10
274.6872606439499
 20
1025.362847613575
 30
0.0
 40
43.33333195866765
100
AcDbArc
 50
175.5545654296875
 51
304.4453887939453
  0
ARC
  5
118
330
1F
100
AcDbEntity
  8
0-1_ピット
  6
Continuous
 62
     2
370
    13
100
AcDbCircle
 10
305.7861573922607
 20
990.5685195941498
 30
0.0
 40
3.333333376291636
100
AcDbArc
 50
48.19471740722657
 51
131.7901000976562
  0
ARC
  5
119
330
1F
100
AcDbEntity
  8
0-1_ピット
  6
Continuous
 62
     2
370
    13
100
AcDbCircle
 10
274.6872606439499
 20
1025.362847613575
 30
0.0
 40
43.33333195866765
100
AcDbArc
 50
311.7901306152344
 51
329.9999084472657
  0
ARC
  5
11A
330
1F
100
AcDbEntity
  8
0-1_ピット
  6
Continuous
 62
     2
370
    13
100
AcDbCircle
 10
229.0052505088149
 20
1034.898188618643
 30
0.0
 40
3.333333376291636
100
AcDbArc
 50
348.2079467773439
 51
71.80613708496098
  0
ARC
  5
11B
330
1F
100
AcDbEntity
  8
0-1_ピット
  6
Continuous
 62
     2
370
    13
100
AcDbCircle
 10
274.6872606439499
 20
1025.362847613575
 30
0.0
 40
43.33333195866765
100
AcDbArc
 50
149.9999084472656
 51
168.2099304199219
  0
ARC
  5
11C
330
1F
100
AcDbEntity
  8
0-1_ピット
  6
Continuous
 62
     2
370
    13
100
AcDbCircle
 10
-43.74403686449586
 20
874.1724971068186
 30
0.0
 40
6.666666752583272
100
AcDbArc
 50
167.5962829589844
 51
244.445327758789
  0
ARC
  5
11D
330
1F
100
AcDbEntity
  8
0-1_ピット
  6
Continuous
 62
     2
370
    13
100
AcDbCircle
 10
-50.72942801736737
 20
873.3935565451634
 30
0.0
 40
3.333333376291636
100
AcDbArc
 50
168.1947174072266
 51
251.7901000976562
  0
ARC
  5
11E
330
1F
100
AcDbEntity
  8
0-1_ピット
  6
Continuous
 62
     2
370
    13
100
AcDbCircle
 10
-65.31254140419207
 20
829.06388752067
 30
0.0
 40
43.33333195866765
100
AcDbArc
 50
71.79013061523438
 51
89.99990844726562
  0
ARC
  5
11F
330
1F
100
AcDbEntity
  8
0-1_ピット
  6
Continuous
 62
     2
370
    13
100
AcDbCircle
 10
161.3538833213149
 20
829.06388752067
 30
0.0
 40
220.000004123997
100
AcDbArc
 50
71.80592346191406
 51
168.1940460205078
  0
ARC
  5
120
330
1F
100
AcDbEntity
  8
0-1_ピット
  6
Continuous
 62
     2
370
    13
100
AcDbCircle
 10
161.3538833213149
 20
829.06388752067
 30
0.0
 40
216.6666597933383
100
AcDbArc
 50
72.40396118164062
 51
167.5960083007812
  0
ARC
  5
121
330
1F
100
AcDbEntity
  8
0-1_ピット
  6
Continuous
 62
     2
370
    13
100
AcDbCircle
 10
161.3538833213149
 20
829.06388752067
 30
0.0
 40
216.6666597933383
100
AcDbArc
 50
0.0
 51
47.59597778320312
  0
ARC
  5
122
330
1F
100
AcDbEntity
  8
0-1_ピット
  6
Continuous
 62
     2
370
    13
100
AcDbCircle
 10
161.3538833213149
 20
829.06388752067
 30
0.0
 40
220.000004123997
100
AcDbArc
 50
0.0
 51
48.19403076171876
  0
ARC
  5
123
330
1F
100
AcDbEntity
  8
0-1_ピット
  6
Continuous
 62
     2
370
    13
100
AcDbCircle
 10
-65.31254140419207
 20
829.06388752067
 30
0.0
 40
40.00000051549962
100
AcDbArc
 50
0.0
 51
89.99992370605467
  0
ARC
  5
124
330
1F
100
AcDbEntity
  8
0-1_ピット
  6
Continuous
 62
     2
370
    13
100
AcDbCircle
 10
-65.31254140419207
 20
829.06388752067
 30
0.0
 40
43.33333195866765
100
AcDbArc
 50
0.0
 51
64.4453887939453
  0
ARC
  5
125
330
1F
100
AcDbEntity
  8
0-1_ピット
  6
Continuous
 62
     4
370
    13
100
AcDbCircle
 10
-65.31254140419207
 20
829.06388752067
 30
0.0
 40
13.33333350516654
100
AcDbArc
 50
0.0
 51
180.0
  0
ARC
  5
126
330
1F
100
AcDbEntity
  8
0-1_ピット
  6
Continuous
 62
     4
370
    13
100
AcDbCircle
 10
-65.31254140419207
 20
829.06388752067
 30
0.0
 40
11.07833321030076
100
AcDbArc
 50
0.0
 51
180.0
  0
CIRCLE
  5
127
330
1F
100
AcDbEntity
  8
0-1_ピット
  6
Continuous
 62
     4
370
    13
100
AcDbCircle
 10
274.6872606439499
 20
1025.362847613575
 30
0.0
 40
13.33333350516654
  0
CIRCLE
  5
128
330
1F
100
AcDbEntity
  8
0-1_ピット
  6
Continuous
 62
     4
370
    13
100
AcDbCircle
 10
274.6872606439499
 20
1025.362847613575
 30
0.0
 40
11.07833321030076
  0
ARC
  5
129
330
1F
100
AcDbEntity
  8
0-1_ピット
  6
Continuous
 62
     2
370
    13
100
AcDbCircle
 10
274.6872606439499
 20
1025.362847613575
 30
0.0
 40
40.00000051549962
100
AcDbArc
 50
149.9999694824219
 51
330.0002746582032
  0
ARC
  5
12A
330
1F
100
AcDbEntity
  8
0-1_ピット
  6
Continuous
 62
     4
370
    13
100
AcDbCircle
 10
-65.31254140419207
 20
829.0823630274267
 30
0.0
 40
21.66667113433013
100
AcDbArc
 50
359.950927734375
 51
131.8642120361328
  0
ARC
  5
12B
330
1F
100
AcDbEntity
  8
0-1_ピット
  6
Continuous
 62
     4
370
    13
100
AcDbCircle
 10
274.7034267123621
 20
1025.353609860197
 30
0.0
 40
21.66667113433013
100
AcDbArc
 50
108.1268463134765
 51
11.86398315429688
  0
ARC
  5
12C
330
1F
100
AcDbEntity
  8
0-2_本体（蓋）
  6
Continuous
 62
     6
370
    13
100
AcDbCircle
 10
-108.2101515009547
 20
-172.1679393859523
 30
0.0
 40
13.33333350516654
100
AcDbArc
 50
270.0
 51
354.2009735107422
  0
LINE
  5
12D
330
1F
100
AcDbEntity
  8
0-1_ピット
  6
Continuous
 62
     2
370
    13
100
AcDbLine
 10
-206.1624632487379
 20
-205.5011352527177
 30
0.0
 11
-197.8293498619136
 21
-172.1676919461298
 31
0.0
  0
LINE
  5
12E
330
1F
100
AcDbEntity
  8
0-0_通り芯
  6
Continuous
 62
     3
370
    13
100
AcDbLine
 10
-232.8291354140672
 20
-198.3559804543645
 30
0.0
 11
-193.3105213410096
 21
-208.9449202242125
 31
0.0
  0
LINE
  5
12F
330
1F
100
AcDbEntity
  8
0-0_通り芯
  6
Continuous
 62
     3
370
    13
100
AcDbLine
 10
-149.4468639824792
 20
-231.0511939784354
 30
0.0
 11
-132.8782934588305
 21
-235.4905118363325
 31
0.0
  0
LINE
  5
130
330
1F
100
AcDbEntity
  8
0-0_通り芯
  6
Continuous
 62
     3
370
    13
100
AcDbLine
 10
-183.6509655449791
 20
-211.5333882087986
 30
0.0
 11
-173.991904628594
 21
-214.1216087535622
 31
0.0
  0
LINE
  5
131
330
1F
100
AcDbEntity
  8
0-0_通り芯
  6
Continuous
 62
     3
370
    13
100
AcDbLine
 10
-156.6631989698104
 20
-218.7648170253104
 30
0.0
 11
-164.3323488325638
 21
-216.7098292983257
 31
0.0
  0
LINE
  5
132
330
1F
100
AcDbEntity
  8
0-0_通り芯
  6
Continuous
 62
     3
370
    13
100
AcDbLine
 10
-154.2599396924667
 20
-221.3161690365013
 30
0.0
 11
-153.0510724389825
 21
-227.2237948019153
 31
0.0
  0
LINE
  5
133
330
1F
100
AcDbEntity
  8
0-0_通り芯
  6
Continuous
 62
     3
370
    13
100
AcDbLine
 10
-123.8425334556633
 20
-229.4665893542802
 30
0.0
 11
-127.8433879478508
 21
-233.9784070802091
 31
0.0
  0
LINE
  5
134
330
1F
100
AcDbEntity
  8
0-0_通り芯
  6
Continuous
 62
     3
370
    13
100
AcDbLine
 10
-123.3340446201482
 20
-248.9900862398375
 30
0.0
 11
-120.7005425878425
 21
-246.0198186089252
 31
0.0
  0
LINE
  5
135
330
1F
100
AcDbEntity
  8
0-0_通り芯
  6
Continuous
 62
     3
370
    13
100
AcDbLine
 10
-164.4615124199791
 20
-237.9701062989591
 30
0.0
 11
-165.257773769219
 21
-234.0805997269575
 31
0.0
  0
LINE
  5
136
330
1F
100
AcDbEntity
  8
0-0_通り芯
  6
Continuous
 62
     3
370
    13
100
AcDbLine
 10
-112.816367519219
 20
-230.5135072438494
 30
0.0
 11
-120.4853936620612
 21
-228.4585195168645
 31
0.0
  0
LINE
  5
137
330
1F
100
AcDbEntity
  8
0-0_通り芯
  6
Continuous
 62
     3
370
    13
100
AcDbLine
 10
-118.503895562399
 20
-253.1462092207286
 30
0.0
 11
-160.8573039634757
 21
-241.7972580356568
 31
0.0
  0
LINE
  5
138
330
1F
100
AcDbEntity
  8
0-0_通り芯
  6
Continuous
 62
     3
370
    13
100
AcDbLine
 10
554.6592349142691
 20
-211.5333882087986
 30
0.0
 11
544.9999265580616
 21
-214.1216087535622
 31
0.0
  0
LINE
  5
139
330
1F
100
AcDbEntity
  8
0-0_通り芯
  6
Continuous
 62
     3
370
    13
100
AcDbLine
 10
494.3423139894381
 20
-248.9900862398375
 30
0.0
 11
491.7085645173097
 21
-246.0198186089252
 31
0.0
  0
LINE
  5
13A
330
1F
100
AcDbEntity
  8
0-0_通り芯
  6
Continuous
 62
     3
370
    13
100
AcDbLine
 10
535.4697817892691
 20
-237.9701062989591
 30
0.0
 11
536.2660431385088
 21
-234.0805997269575
 31
0.0
  0
LINE
  5
13B
330
1F
100
AcDbEntity
  8
0-0_通り芯
  6
Continuous
 62
     3
370
    13
100
AcDbLine
 10
499.3774669402404
 20
-250.5026858756062
 30
0.0
 11
531.865325892943
 21
-241.7972580356568
 31
0.0
  0
LINE
  5
13C
330
1F
100
AcDbEntity
  8
0-0_通り芯
  6
Continuous
 62
     3
370
    13
100
AcDbLine
 10
527.6712208992776
 20
-218.7645695854877
 30
0.0
 11
535.3403707620311
 21
-216.7098292983257
 31
0.0
  0
LINE
  5
13D
330
1F
100
AcDbEntity
  8
0-0_通り芯
  6
Continuous
 62
     3
370
    13
100
AcDbLine
 10
525.2680853418451
 20
-221.3161690365013
 30
0.0
 11
524.0590943684498
 21
-227.2237948019153
 31
0.0
  0
LINE
  5
13E
330
1F
100
AcDbEntity
  8
0-0_通り芯
  6
Continuous
 62
     3
370
    13
100
AcDbLine
 10
520.4548859119463
 20
-231.0511939784354
 30
0.0
 11
503.8865628281206
 21
-235.4905118363325
 31
0.0
  0
LINE
  5
13F
330
1F
100
AcDbEntity
  8
0-0_通り芯
  6
Continuous
 62
     3
370
    13
100
AcDbLine
 10
483.8243894486862
 20
-230.5135072438494
 30
0.0
 11
491.4935393114396
 21
-228.4585195168645
 31
0.0
  0
LINE
  5
140
330
1F
100
AcDbEntity
  8
0-0_通り芯
  6
Continuous
 62
     3
370
    13
100
AcDbLine
 10
494.8505553851305
 20
-229.4665893542802
 30
0.0
 11
498.8511624374956
 21
-233.9781596403865
 31
0.0
  0
LINE
  5
141
330
1F
100
AcDbEntity
  8
0-0_通り芯
  6
Continuous
 62
     3
370
    13
100
AcDbLine
 10
-29.82925748437971
 20
-243.3558814784354
 30
0.0
 11
-29.82925748437971
 21
-270.0227186036466
 31
0.0
  0
LINE
  5
142
330
1F
100
AcDbEntity
  8
0-0_通り芯
  6
Continuous
 62
     3
370
    13
100
AcDbLine
 10
-52.49585871695992
 20
-243.3558814784354
 30
0.0
 11
-52.49585871695992
 21
-270.0227186036466
 31
0.0
  0
LINE
  5
143
330
1F
100
AcDbEntity
  8
0-0_通り芯
  6
Continuous
 62
     3
370
    13
100
AcDbLine
 10
-29.82925748437971
 20
-270.0227186036466
 30
0.0
 11
-52.49585871695992
 21
-270.0227186036466
 31
0.0
  0
LINE
  5
144
330
1F
100
AcDbEntity
  8
0-0_通り芯
  6
Continuous
 62
     3
370
    13
100
AcDbLine
 10
-162.583196726356
 20
-271.6892258090943
 30
0.0
 11
-162.583196726356
 21
-248.3558979744236
 31
0.0
  0
LINE
  5
145
330
1F
100
AcDbEntity
  8
0-0_通り芯
  6
Continuous
 62
     3
370
    13
100
AcDbLine
 10
-179.5833023006802
 20
-248.3558979744236
 30
0.0
 11
-162.583196726356
 21
-248.3558979744236
 31
0.0
  0
LINE
  5
146
330
1F
100
AcDbEntity
  8
0-0_通り芯
  6
Continuous
 62
     3
370
    13
100
AcDbLine
 10
-179.5833023006802
 20
-271.6892258090943
 30
0.0
 11
-179.5833023006802
 21
-248.3558979744236
 31
0.0
  0
LINE
  5
147
330
1F
100
AcDbEntity
  8
0-0_通り芯
  6
Continuous
 62
     3
370
    13
100
AcDbLine
 10
-148.7052868340417
 20
-250.2379252653865
 30
0.0
 11
-153.4277995689445
 21
-267.9756489509861
 31
0.0
  0
LINE
  5
148
330
1F
100
AcDbEntity
  8
0-0_通り芯
  6
Continuous
 62
     3
370
    13
100
AcDbLine
 10
-194.1533013769049
 20
-225.6829870263661
 30
0.0
 11
-188.3498477768206
 21
-267.3785766589676
 31
0.0
  0
LINE
  5
149
330
1F
100
AcDbEntity
  8
0-0_通り芯
  6
Continuous
 62
     3
370
    13
100
AcDbLine
 10
-236.1625209846963
 20
-225.0228175795757
 30
0.0
 11
-219.4958405713729
 21
-225.0228175795757
 31
0.0
  0
LINE
  5
14A
330
1F
100
AcDbEntity
  8
0-0_通り芯
  6
Continuous
 62
     3
370
    13
100
AcDbLine
 10
-236.5276184429945
 20
-201.2757703614591
 30
0.0
 11
-239.1254891408406
 21
-222.05972570352
 31
0.0
  0
LINE
  5
14B
330
1F
100
AcDbEntity
  8
0-0_通り芯
  6
Continuous
 62
     3
370
    13
100
AcDbLine
 10
-236.1625209846963
 20
-225.0228175795757
 30
0.0
 11
-239.1254891408406
 21
-222.05972570352
 31
0.0
  0
LINE
  5
14C
330
1F
100
AcDbEntity
  8
0-0_通り芯
  6
Continuous
 62
     3
370
    13
100
AcDbLine
 10
-170.0635500044388
 20
-228.9776482647531
 30
0.0
 11
-195.1420709081549
 21
-222.2579250014507
 31
0.0
  0
LINE
  5
14D
330
1F
100
AcDbEntity
  8
0-0_通り芯
  6
Continuous
 62
     3
370
    13
100
AcDbLine
 10
607.1706666340748
 20
-225.0228175795757
 30
0.0
 11
590.50386250084
 21
-225.0228175795757
 31
0.0
  0
LINE
  5
14E
330
1F
100
AcDbEntity
  8
0-0_通り芯
  6
Continuous
 62
     3
370
    13
100
AcDbLine
 10
607.5356403724618
 20
-201.2757703614591
 30
0.0
 11
610.1337585101305
 21
-222.05972570352
 31
0.0
  0
LINE
  5
14F
330
1F
100
AcDbEntity
  8
0-0_通り芯
  6
Continuous
 62
     3
370
    13
100
AcDbLine
 10
607.1706666340748
 20
-225.0228175795757
 30
0.0
 11
610.1337585101305
 21
-222.05972570352
 31
0.0
  0
LINE
  5
150
330
1F
100
AcDbEntity
  8
0-0_通り芯
  6
Continuous
 62
     3
370
    13
100
AcDbLine
 10
541.0718193737287
 20
-228.9776482647531
 30
0.0
 11
566.1503402774449
 21
-222.2576775616281
 31
0.0
  0
LINE
  5
151
330
1F
100
AcDbEntity
  8
0-0_通り芯
  6
Continuous
 62
     3
370
    13
100
AcDbLine
 10
603.8374047833571
 20
-198.3559804543645
 30
0.0
 11
564.3187907102995
 21
-208.9449202242125
 31
0.0
  0
LINE
  5
152
330
1F
100
AcDbEntity
  8
0-0_通り芯
  6
Continuous
 62
     3
370
    13
100
AcDbLine
 10
-96.16243025676148
 20
-348.3559804543646
 30
0.0
 11
-106.1624632487378
 21
-348.3559804543646
 31
0.0
  0
LINE
  5
153
330
1F
100
AcDbEntity
  8
0-0_通り芯
  6
Continuous
 62
     3
370
    13
100
AcDbLine
 10
-93.3651230618711
 20
-334.3689496002682
 30
0.0
 11
-96.16243025676148
 21
-348.3559804543646
 31
0.0
  0
LINE
  5
154
330
1F
100
AcDbEntity
  8
0-0_通り芯
  6
Continuous
 62
     3
370
    13
100
AcDbLine
 10
-71.0811875149961
 20
-331.6894237609523
 30
0.0
 11
-90.09656672477242
 21
-331.6894237609523
 31
0.0
  0
LINE
  5
155
330
1F
100
AcDbEntity
  8
0-0_通り芯
  6
Continuous
 62
     3
370
    13
100
AcDbLine
 10
-66.47917797371669
 20
-392.022180834432
 30
0.0
 11
-69.41665982812971
 21
-333.2727911859945
 31
0.0
  0
LINE
  5
156
330
1F
100
AcDbEntity
  8
0-0_通り芯
  6
Continuous
 62
     3
370
    13
100
AcDbLine
 10
437.4875710629176
 20
-392.022180834432
 30
0.0
 11
440.4249291974195
 21
-333.2727911859945
 31
0.0
  0
LINE
  5
157
330
1F
100
AcDbEntity
  8
0-0_通り芯
  6
Continuous
 62
     3
370
    13
100
AcDbLine
 10
-86.22363862088726
 20
-251.4429572016195
 30
0.0
 11
-113.987005320106
 21
-244.0034314942716
 31
0.0
  0
LINE
  5
158
330
1F
100
AcDbEntity
  8
0-0_通り芯
  6
Continuous
 62
     3
370
    13
100
AcDbLine
 10
-73.88641278421069
 20
-266.8215896182159
 30
0.0
 11
-71.0811875149961
 21
-331.6894237609523
 31
0.0
  0
LINE
  5
159
330
1F
100
AcDbEntity
  8
0-0_通り芯
  6
Continuous
 62
     3
370
    13
100
AcDbLine
 10
-69.94989264590835
 20
-241.9994163707497
 30
0.0
 11
-103.1570591630115
 21
-233.1017277886127
 31
0.0
  0
LINE
  5
15A
330
1F
100
AcDbEntity
  8
0-0_通り芯
  6
Continuous
 62
     3
370
    13
100
AcDbLine
 10
-114.8203826427412
 20
-257.5012738190183
 30
0.0
 11
-106.1624632487378
 21
-348.3559804543646
 31
0.0
  0
LINE
  5
15B
330
1F
100
AcDbEntity
  8
0-0_通り芯
  6
Continuous
 62
     3
370
    13
100
AcDbLine
 10
440.6236233749955
 20
-242.0884947068984
 30
0.0
 11
474.1650810924785
 21
-233.1017277886127
 31
0.0
  0
LINE
  5
15C
330
1F
100
AcDbEntity
  8
0-0_通り芯
  6
Continuous
 62
     3
370
    13
100
AcDbLine
 10
428.530744363171
 20
-259.457285616949
 30
0.0
 11
428.6208124586103
 21
-257.3782962271687
 31
0.0
  0
LINE
  5
15D
330
1F
100
AcDbEntity
  8
0-0_通り芯
  6
Continuous
 62
     3
370
    13
100
AcDbLine
 10
422.7708401718705
 20
-265.7749191684693
 30
0.0
 11
407.4884618462791
 21
-267.8581150352346
 31
0.0
  0
LINE
  5
15E
330
1F
100
AcDbEntity
  8
0-0_通り芯
  6
Continuous
 62
     3
370
    13
100
AcDbLine
 10
457.2317842702655
 20
-251.4429572016195
 30
0.0
 11
484.9950272495732
 21
-244.0034314942716
 31
0.0
  0
LINE
  5
15F
330
1F
100
AcDbEntity
  8
0-0_通り芯
  6
JWW_DASHED1
 62
     3
370
    13
100
AcDbLine
 10
-51.76257080258047
 20
-265.7749191684693
 30
0.0
 11
-36.48006875707814
 21
-267.8581150352346
 31
0.0
  0
LINE
  5
160
330
1F
100
AcDbEntity
  8
0-0_通り芯
  6
JWW_DASHED1
 62
     3
370
    13
100
AcDbLine
 10
-57.52259871379273
 20
-259.457285616949
 30
0.0
 11
-57.6125430893206
 21
-257.3782962271687
 31
0.0
  0
LINE
  5
161
330
1F
100
AcDbEntity
  8
0-0_通り芯
  6
Continuous
 62
     3
370
    13
100
AcDbLine
 10
444.8946821535004
 20
-266.8215896182159
 30
0.0
 11
442.0894568842858
 21
-331.6894237609523
 31
0.0
  0
LINE
  5
162
330
1F
100
AcDbEntity
  8
0-1_ピット
  6
Continuous
 62
     2
370
    13
100
AcDbLine
 10
577.1708150979686
 20
-205.5013002125994
 30
0.0
 11
575.5040604526982
 21
-198.8345290713409
 31
0.0
  0
LINE
  5
163
330
1F
100
AcDbEntity
  8
0-1_ピット
  6
Continuous
 62
     2
370
    13
100
AcDbLine
 10
556.9742818948436
 20
-198.8345290713409
 30
0.0
 11
575.5040604526982
 21
-198.8345290713409
 31
0.0
  0
LINE
  5
164
330
1F
100
AcDbEntity
  8
0-1_ピット
  6
Continuous
 62
     2
370
    13
100
AcDbLine
 10
-61.16256222466667
 20
-223.8346115512818
 30
0.0
 11
-57.82930037394898
 21
-240.501168244694
 31
0.0
  0
LINE
  5
165
330
1F
100
AcDbEntity
  8
0-1_ピット
  6
Continuous
 62
     2
370
    13
100
AcDbLine
 10
-21.16255397667267
 20
-223.8346115512818
 30
0.0
 11
-24.49593954730183
 21
-240.501168244694
 31
0.0
  0
LINE
  5
166
330
1F
100
AcDbEntity
  8
0-1_ピット
  6
Continuous
 62
     2
370
    13
100
AcDbLine
 10
536.2873229632555
 20
-204.3774285381906
 30
0.0
 11
556.9742818948436
 21
-198.8345290713409
 31
0.0
  0
LINE
  5
167
330
1F
100
AcDbEntity
  8
0-1_ピット
  6
Continuous
 62
     2
370
    13
100
AcDbLine
 10
508.8373387994042
 20
-225.5365026513661
 30
0.0
 11
515.5041099406628
 21
-223.7499871319406
 31
0.0
  0
LINE
  5
168
330
1F
100
AcDbEntity
  8
0-1_ピット
  6
Continuous
 62
     2
370
    13
100
AcDbLine
 10
508.8373387994042
 20
-225.5365026513661
 30
0.0
 11
505.5040769486862
 21
-224.7041150880216
 31
0.0
  0
LINE
  5
169
330
1F
100
AcDbEntity
  8
0-1_ピット
  6
Continuous
 62
     2
370
    13
100
AcDbLine
 10
446.5478276085257
 20
-240.501168244694
 30
0.0
 11
505.5040769486862
 21
-224.7041150880216
 31
0.0
  0
LINE
  5
16A
330
1F
100
AcDbEntity
  8
0-1_ピット
  6
Continuous
 62
     2
370
    13
100
AcDbLine
 10
515.5041099406628
 20
-223.7499871319406
 30
0.0
 11
518.8378666710258
 21
-221.1313314889929
 31
0.0
  0
LINE
  5
16B
330
1F
100
AcDbEntity
  8
0-1_ピット
  6
Continuous
 62
     2
370
    13
100
AcDbLine
 10
518.8378666710258
 20
-221.1313314889929
 30
0.0
 11
577.1708150979686
 21
-205.5013002125994
 31
0.0
  0
LINE
  5
16C
330
1F
100
AcDbEntity
  8
0-1_ピット
  6
Continuous
 62
     2
370
    13
100
AcDbLine
 10
-137.8290694301143
 20
-225.5365026513661
 30
0.0
 11
-144.4958405713729
 21
-223.7499871319406
 31
0.0
  0
LINE
  5
16D
330
1F
100
AcDbEntity
  8
0-1_ピット
  6
Continuous
 62
     2
370
    13
100
AcDbLine
 10
-144.4958405713729
 20
-223.7499871319406
 30
0.0
 11
-147.8293498619133
 21
-221.1315789288156
 31
0.0
  0
LINE
  5
16E
330
1F
100
AcDbEntity
  8
0-1_ピット
  6
Continuous
 62
     2
370
    13
100
AcDbLine
 10
-147.8293498619133
 20
-221.1315789288156
 30
0.0
 11
-206.1625457286786
 21
-205.5013002125994
 31
0.0
  0
LINE
  5
16F
330
1F
100
AcDbEntity
  8
0-1_ピット
  6
Continuous
 62
     2
370
    13
100
AcDbLine
 10
-137.8290694301143
 20
-225.5365026513661
 30
0.0
 11
-134.4959312993078
 21
-224.7041150880216
 31
0.0
  0
LINE
  5
170
330
1F
100
AcDbEntity
  8
0-1_ピット
  6
Continuous
 62
     2
370
    13
100
AcDbLine
 10
-75.53968195914742
 20
-240.501168244694
 30
0.0
 11
-134.4959312993078
 21
-224.7041150880216
 31
0.0
  0
LINE
  5
171
330
1F
100
AcDbEntity
  8
0-1_ピット
  6
Continuous
 62
     2
370
    13
100
AcDbLine
 10
523.8143763838639
 20
-196.2322044566872
 30
0.0
 11
522.1708810819212
 21
-185.5012342286466
 31
0.0
  0
LINE
  5
172
330
1F
100
AcDbEntity
  8
0-1_ピット
  6
JWW_DASHED1
 62
     2
370
    13
100
AcDbLine
 10
509.1869712687878
 20
-201.4225021762818
 30
0.0
 11
507.9438335998688
 21
-208.054136862726
 31
0.0
  0
LINE
  5
173
330
1F
100
AcDbEntity
  8
0-1_ピット
  6
Continuous
 62
     2
370
    13
100
AcDbLine
 10
462.9134974776138
 20
-220.0626388950318
 30
0.0
 11
464.7702859066676
 21
-209.6253797364591
 31
0.0
  0
LINE
  5
174
330
1F
100
AcDbEntity
  8
0-1_ピット
  6
Continuous
 62
     2
370
    13
100
AcDbLine
 10
458.0753066256289
 20
-225.3343443162734
 30
0.0
 11
445.0119686294296
 21
-228.83462804727
 31
0.0
  0
LINE
  5
175
330
1F
100
AcDbEntity
  8
0-1_ピット
  6
JWW_DASHED1
 62
     2
370
    13
100
AcDbLine
 10
458.0753066256289
 20
-225.3343443162734
 30
0.0
 11
536.2873229632555
 21
-204.3774285381906
 31
0.0
  0
LINE
  5
176
330
1F
100
AcDbEntity
  8
0-1_ピット
  6
Continuous
 62
     2
370
    13
100
AcDbLine
 10
-0.3586797288895838
 20
-227.8540240301669
 30
0.0
 11
2.170773857997901
 21
-240.501168244694
 31
0.0
  0
LINE
  5
177
330
1F
100
AcDbEntity
  8
0-1_ピット
  6
Continuous
 62
     2
370
    13
100
AcDbLine
 10
404.8136373635934
 20
-231.2523625542377
 30
0.0
 11
402.1709800578502
 21
-240.501168244694
 31
0.0
  0
LINE
  5
178
330
1F
100
AcDbEntity
  8
0-1_ピット
  6
Continuous
 62
     2
370
    13
100
AcDbLine
 10
-0.1625836694513083
 20
-228.83462804727
 30
0.0
 11
445.0119686294296
 21
-228.83462804727
 31
0.0
  0
LINE
  5
179
330
1F
100
AcDbEntity
  8
0-1_ピット
  6
Continuous
 62
     2
370
    13
100
AcDbLine
 10
-5.261452374582305
 20
-223.8346115512818
 30
0.0
 11
-92.66412604434585
 21
-223.8346115512818
 31
0.0
  0
LINE
  5
17A
330
1F
100
AcDbEntity
  8
0-0_通り芯
  6
Continuous
 62
     3
370
    13
100
AcDbLine
 10
420.5042913965325
 20
-285.0225206517886
 30
0.0
 11
-49.49589830733153
 21
-285.0225206517886
 31
0.0
  0
LINE
  5
17B
330
1F
100
AcDbEntity
  8
0-0_通り芯
  6
Continuous
 62
     3
370
    13
100
AcDbLine
 10
420.5042913965325
 20
-285.0225206517886
 30
0.0
 11
420.5042913965325
 21
-321.6891433291534
 31
0.0
  0
LINE
  5
17C
330
1F
100
AcDbEntity
  8
0-0_通り芯
  6
Continuous
 62
     3
370
    13
100
AcDbLine
 10
-49.49589830733153
 20
-285.0225206517886
 30
0.0
 11
-49.49589830733153
 21
-321.6891433291534
 31
0.0
  0
LINE
  5
17D
330
1F
100
AcDbEntity
  8
0-0_通り芯
  6
Continuous
 62
     3
370
    13
100
AcDbLine
 10
420.5042913965325
 20
-321.6891433291534
 30
0.0
 11
-49.49589830733153
 21
-321.6891433291534
 31
0.0
  0
LINE
  5
17E
330
1F
100
AcDbEntity
  8
0-0_通り芯
  6
Continuous
 62
     3
370
    13
100
AcDbLine
 10
403.2315071376643
 20
-271.9906075130638
 30
0.0
 11
401.0597278143957
 21
-285.0225206517886
 31
0.0
  0
LINE
  5
17F
330
1F
100
AcDbEntity
  8
0-0_通り芯
  6
JWW_DASHED1
 62
     3
370
    13
100
AcDbLine
 10
-32.22336148828596
 20
-271.9906075130638
 30
0.0
 11
-30.05133472519454
 21
-285.0225206517886
 31
0.0
  0
LINE
  5
180
330
1F
100
AcDbEntity
  8
0-0_通り芯
  6
Continuous
 62
     3
370
    13
100
AcDbLine
 10
-14.15283124124194
 20
-247.986717759052
 30
0.0
 11
-11.40946592768621
 21
-285.0225206517886
 31
0.0
  0
LINE
  5
181
330
1F
100
AcDbEntity
  8
0-0_通り芯
  6
Continuous
 62
     3
370
    13
100
AcDbLine
 10
-45.21259125760601
 20
-398.3558979744237
 30
0.0
 11
-42.81663145502996
 21
-321.6891433291534
 31
0.0
  0
LINE
  5
182
330
1F
100
AcDbEntity
  8
0-0_通り芯
  6
Continuous
 62
     3
370
    13
100
AcDbLine
 10
408.8949097981372
 20
-321.6891433291534
 30
0.0
 11
411.1369620310343
 21
-393.4286287862903
 31
0.0
  0
LINE
  5
183
330
1F
100
AcDbEntity
  8
0-0_通り芯
  6
Continuous
 62
     3
370
    13
100
AcDbLine
 10
413.8249008243197
 20
-321.6891433291534
 30
0.0
 11
416.2206131870731
 21
-398.3558979744237
 31
0.0
  0
LINE
  5
184
330
1F
100
AcDbEntity
  8
0-0_通り芯
  6
Continuous
 62
     3
370
    13
100
AcDbLine
 10
430.8289654358061
 20
-398.3558979744237
 30
0.0
 11
-59.82081978642761
 21
-398.3558979744237
 31
0.0
  0
LINE
  5
185
330
1F
100
AcDbEntity
  8
0-0_通り芯
  6
Continuous
 62
     3
370
    13
100
AcDbLine
 10
416.2206131870731
 20
-398.3558979744237
 30
0.0
 11
411.1369620310343
 21
-393.4286287862903
 31
0.0
  0
LINE
  5
186
330
1F
100
AcDbEntity
  8
0-0_通り芯
  6
Continuous
 62
     3
370
    13
100
AcDbLine
 10
-45.21246753769454
 20
-398.3558979744237
 30
0.0
 11
-40.12856894183308
 21
-393.4286287862903
 31
0.0
  0
LINE
  5
187
330
1F
100
AcDbEntity
  8
0-0_通り芯
  6
Continuous
 62
     3
370
    13
100
AcDbLine
 10
-40.12856894183308
 20
-393.4286287862903
 30
0.0
 11
411.1369620310343
 21
-393.4286287862903
 31
0.0
  0
LINE
  5
188
330
1F
100
AcDbEntity
  8
0-0_通り芯
  6
Continuous
 62
     3
370
    13
100
AcDbLine
 10
-40.12856894183308
 20
-393.4286287862903
 30
0.0
 11
-37.8866404288474
 21
-321.6891433291534
 31
0.0
  0
LINE
  5
189
330
1F
100
AcDbEntity
  8
0-0_通り芯
  6
Continuous
 62
     4
370
    13
100
AcDbLine
 10
-179.5833023006802
 20
-254.5441204987057
 30
0.0
 11
-182.5832627103086
 21
-257.5440809083341
 31
0.0
  0
LINE
  5
18A
330
1F
100
AcDbEntity
  8
0-0_通り芯
  6
Continuous
 62
     4
370
    13
100
AcDbLine
 10
-162.583196726356
 20
-254.5441204987057
 30
0.0
 11
-179.5833023006802
 21
-254.5441204987057
 31
0.0
  0
LINE
  5
18B
330
1F
100
AcDbEntity
  8
0-0_通り芯
  6
Continuous
 62
     4
370
    13
100
AcDbLine
 10
-162.583196726356
 20
-254.5441204987057
 30
0.0
 11
-159.5832363167276
 21
-257.5440809083341
 31
0.0
  0
LINE
  5
18C
330
1F
100
AcDbEntity
  8
0-0_通り芯
  6
JWW_CENTER1
 62
     4
370
    13
100
AcDbLine
 10
-171.0832495135179
 20
-331.210875143976
 30
0.0
 11
-171.0832495135179
 21
-244.43521398477
 31
0.0
  0
LINE
  5
18D
330
1F
100
AcDbEntity
  8
0-0_通り芯
  6
Continuous
 62
     4
370
    13
100
AcDbLine
 10
-182.5832627103086
 20
-257.5440809083341
 30
0.0
 11
-159.5832363167276
 21
-257.5440809083341
 31
0.0
  0
LINE
  5
18E
330
1F
100
AcDbEntity
  8
0-0_通り芯
  6
Continuous
 62
     4
370
    13
100
AcDbLine
 10
-162.583196726356
 20
-254.5441204987057
 30
0.0
 11
-162.583196726356
 21
-287.8772338855301
 31
0.0
  0
LINE
  5
18F
330
1F
100
AcDbEntity
  8
0-0_通り芯
  6
Continuous
 62
     4
370
    13
100
AcDbLine
 10
-179.5833023006802
 20
-287.8772338855301
 30
0.0
 11
-179.5833023006802
 21
-254.5441204987057
 31
0.0
  0
LINE
  5
190
330
1F
100
AcDbEntity
  8
0-0_通り芯
  6
Continuous
 62
     4
370
    13
100
AcDbLine
 10
-182.5832627103086
 20
-287.8772338855301
 30
0.0
 11
-182.5832627103086
 21
-257.5440809083341
 31
0.0
  0
LINE
  5
191
330
1F
100
AcDbEntity
  8
0-0_通り芯
  6
Continuous
 62
     4
370
    13
100
AcDbLine
 10
-161.0832165215416
 20
-331.210875143976
 30
0.0
 11
-161.0832165215416
 21
-287.8772338855301
 31
0.0
  0
LINE
  5
192
330
1F
100
AcDbEntity
  8
0-0_通り芯
  6
Continuous
 62
     4
370
    13
100
AcDbLine
 10
-159.5832363167276
 20
-257.5440809083341
 30
0.0
 11
-159.5832363167276
 21
-287.8772338855301
 31
0.0
  0
LINE
  5
193
330
1F
100
AcDbEntity
  8
0-0_通り芯
  6
Continuous
 62
     4
370
    13
100
AcDbLine
 10
-182.5832627103086
 20
-287.8772338855301
 30
0.0
 11
-159.5832363167276
 21
-287.8772338855301
 31
0.0
  0
LINE
  5
194
330
1F
100
AcDbEntity
  8
0-0_通り芯
  6
Continuous
 62
     4
370
    13
100
AcDbLine
 10
-181.0832825054945
 20
-331.210875143976
 30
0.0
 11
-181.0832825054945
 21
-287.8772338855301
 31
0.0
  0
LINE
  5
195
330
1F
100
AcDbEntity
  8
0-0_通り芯
  6
Continuous
 62
     4
370
    13
100
AcDbLine
 10
-187.7499299268416
 20
-357.8774648293646
 30
0.0
 11
-214.4165196122302
 21
-357.8774648293646
 31
0.0
  0
LINE
  5
196
330
1F
100
AcDbEntity
  8
0-0_通り芯
  6
Continuous
 62
     4
370
    13
100
AcDbLine
 10
-214.4165196122302
 20
-357.8774648293646
 30
0.0
 11
-214.4165196122302
 21
-337.877398845412
 31
0.0
  0
LINE
  5
197
330
1F
100
AcDbEntity
  8
0-0_通り芯
  6
Continuous
 62
     4
370
    13
100
AcDbLine
 10
-187.7499299268416
 20
-337.877398845412
 30
0.0
 11
-214.4165196122302
 21
-337.877398845412
 31
0.0
  0
LINE
  5
198
330
1F
100
AcDbEntity
  8
0-0_通り芯
  6
JWW_CENTER1
 62
     4
370
    13
100
AcDbLine
 10
-223.4968187834716
 20
-347.8774318373883
 30
0.0
 11
-187.7499299268416
 21
-347.8774318373883
 31
0.0
  0
LINE
  5
199
330
1F
100
AcDbEntity
  8
0-0_通り芯
  6
Continuous
 62
     3
370
    13
100
AcDbLine
 10
-158.2595569855409
 20
-271.6892258090943
 30
0.0
 11
-162.583196726356
 21
-271.6892258090943
 31
0.0
  0
LINE
  5
19A
330
1F
100
AcDbEntity
  8
0-0_通り芯
  6
Continuous
 62
     3
370
    13
100
AcDbLine
 10
-179.5833023006802
 20
-271.6892258090943
 30
0.0
 11
-183.3975871666007
 21
-271.6892258090943
 31
0.0
  0
LINE
  5
19B
330
1F
100
AcDbEntity
  8
0-1_ピット
  6
Continuous
 62
     4
370
    13
100
AcDbLine
 10
-27.57433838070547
 20
-261.1010283587142
 30
0.0
 11
-54.75077782063387
 21
-261.1010283587142
 31
0.0
  0
LINE
  5
19C
330
1F
100
AcDbEntity
  8
0-1_ピット
  6
Continuous
 62
     4
370
    13
100
AcDbLine
 10
-54.75077782063387
 20
-261.1010283587142
 30
0.0
 11
-52.4959824368711
 21
-263.3559474623882
 31
0.0
  0
LINE
  5
19D
330
1F
100
AcDbEntity
  8
0-1_ピット
  6
Continuous
 62
     4
370
    13
100
AcDbLine
 10
-52.4959824368711
 20
-263.3559474623882
 30
0.0
 11
-29.82925748437971
 21
-263.3559474623882
 31
0.0
  0
LINE
  5
19E
330
1F
100
AcDbEntity
  8
0-1_ピット
  6
Continuous
 62
     4
370
    13
100
AcDbLine
 10
-29.82925748437971
 20
-263.3559474623882
 30
0.0
 11
-27.57433838070547
 21
-261.1010283587142
 31
0.0
  0
LINE
  5
19F
330
1F
100
AcDbEntity
  8
0-1_ピット
  6
Continuous
 62
     4
370
    13
100
AcDbLine
 10
-66.16257872065496
 20
-204.5736483175403
 30
0.0
 11
-66.16257872065496
 21
-223.8346115512818
 31
0.0
  0
LINE
  5
1A0
330
1F
100
AcDbEntity
  8
0-1_ピット
  6
Continuous
 62
     4
370
    13
100
AcDbLine
 10
-16.16241376077319
 20
-204.5736483175403
 30
0.0
 11
-16.16241376077319
 21
-223.8346115512818
 31
0.0
  0
LINE
  5
1A1
330
1F
100
AcDbEntity
  8
0-1_ピット
  6
Continuous
 62
     4
370
    13
100
AcDbLine
 10
-66.16257872065496
 20
-223.8346115512818
 30
0.0
 11
-16.16241376077319
 21
-223.8346115512818
 31
0.0
  0
LINE
  5
1A2
330
1F
100
AcDbEntity
  8
0-1_ピット
  6
Continuous
 62
     4
370
    13
100
AcDbLine
 10
-59.90779488408386
 20
-202.1680383618815
 30
0.0
 11
-22.41719759734401
 21
-202.1680383618815
 31
0.0
  0
LINE
  5
1A3
330
1F
100
AcDbEntity
  8
0-1_ピット
  6
Continuous
 62
     4
370
    13
100
AcDbLine
 10
-54.75077782063387
 20
-223.8346115512818
 30
0.0
 11
-54.75077782063387
 21
-261.1010283587142
 31
0.0
  0
LINE
  5
1A4
330
1F
100
AcDbEntity
  8
0-1_ピット
  6
Continuous
 62
     4
370
    13
100
AcDbLine
 10
-27.57433838070547
 20
-223.8346115512818
 30
0.0
 11
-27.57433838070547
 21
-261.1010283587142
 31
0.0
  0
LINE
  5
1A5
330
1F
100
AcDbEntity
  8
0-1_ピット
  6
Continuous
 62
     4
370
    13
100
AcDbLine
 10
-27.8292013980198
 20
-132.2776706992969
 30
0.0
 11
-54.49579108340835
 21
-132.2776706992969
 31
0.0
  0
LINE
  5
1A6
330
1F
100
AcDbEntity
  8
0-1_ピット
  6
Continuous
 62
     4
370
    13
100
AcDbLine
 10
-54.49579108340835
 20
-132.2776706992969
 30
0.0
 11
-52.24087197973439
 21
-130.0225041558003
 31
0.0
  0
LINE
  5
1A7
330
1F
100
AcDbEntity
  8
0-1_ピット
  6
Continuous
 62
     4
370
    13
100
AcDbLine
 10
-52.24087197973439
 20
-130.0225041558003
 30
0.0
 11
-30.08412050169376
 21
-130.0225041558003
 31
0.0
  0
LINE
  5
1A8
330
1F
100
AcDbEntity
  8
0-1_ピット
  6
Continuous
 62
     4
370
    13
100
AcDbLine
 10
-30.08412050169376
 20
-130.0225041558003
 30
0.0
 11
-27.8292013980198
 21
-132.2776706992969
 31
0.0
  0
LINE
  5
1A9
330
1F
100
AcDbEntity
  8
0-1_ピット
  6
Continuous
 62
     4
370
    13
100
AcDbLine
 10
-52.24087197973439
 20
-202.1677909220588
 30
0.0
 11
-52.24087197973439
 21
-130.0225041558003
 31
0.0
  0
LINE
  5
1AA
330
1F
100
AcDbEntity
  8
0-1_ピット
  6
Continuous
 62
     4
370
    13
100
AcDbLine
 10
-54.49579108340835
 20
-202.1677909220588
 30
0.0
 11
-54.49579108340835
 21
-132.2776706992969
 31
0.0
  0
LINE
  5
1AB
330
1F
100
AcDbEntity
  8
0-1_ピット
  6
Continuous
 62
     4
370
    13
100
AcDbLine
 10
-30.08412050169376
 20
-202.1677909220588
 30
0.0
 11
-30.08412050169376
 21
-130.0225041558003
 31
0.0
  0
LINE
  5
1AC
330
1F
100
AcDbEntity
  8
0-1_ピット
  6
Continuous
 62
     4
370
    13
100
AcDbLine
 10
-27.8292013980198
 20
-202.1677909220588
 30
0.0
 11
-27.8292013980198
 21
-132.2776706992969
 31
0.0
  0
LINE
  5
1AD
330
1F
100
AcDbEntity
  8
0-1_ピット
  6
JWW_CENTER1
 62
     4
370
    13
100
AcDbLine
 10
-41.16249624071408
 20
-120.022471163824
 30
0.0
 11
-41.16249624071408
 21
-273.3559804543645
 31
0.0
  0
LINE
  5
1AE
330
1F
100
AcDbEntity
  8
0-1_ピット
  6
Continuous
 62
     4
370
    13
100
AcDbLine
 10
-28.67185771400365
 20
-204.5736483175403
 30
0.0
 11
-28.67185771400365
 21
-223.8346115512818
 31
0.0
  0
LINE
  5
1AF
330
1F
100
AcDbEntity
  8
0-1_ピット
  6
Continuous
 62
     4
370
    13
100
AcDbLine
 10
-53.65325848733569
 20
-204.5736483175403
 30
0.0
 11
-53.65325848733569
 21
-223.8346115512818
 31
0.0
  0
LINE
  5
1B0
330
1F
100
AcDbEntity
  8
0-1_ピット
  6
Continuous
 62
     4
370
    13
100
AcDbLine
 10
-52.4959824368711
 20
-223.8346115512818
 30
0.0
 11
-52.4959824368711
 21
-266.2106606961297
 31
0.0
  0
LINE
  5
1B1
330
1F
100
AcDbEntity
  8
0-1_ピット
  6
Continuous
 62
     4
370
    13
100
AcDbLine
 10
-29.82925748437971
 20
-223.8346115512818
 30
0.0
 11
-29.82925748437971
 21
-266.2106606961297
 31
0.0
  0
LINE
  5
1B2
330
1F
100
AcDbEntity
  8
0-1_ピット
  6
Continuous
 62
     2
370
    13
100
AcDbLine
 10
446.5478276085257
 20
-240.501168244694
 30
0.0
 11
-27.57433838070547
 21
-240.501168244694
 31
0.0
  0
LINE
  5
1B3
330
1F
100
AcDbEntity
  8
0-1_ピット
  6
Continuous
 62
     2
370
    13
100
AcDbLine
 10
-54.75077782063387
 20
-240.501168244694
 30
0.0
 11
-75.53968195914742
 21
-240.501168244694
 31
0.0
  0
LINE
  5
1B4
330
1F
100
AcDbEntity
  8
0-0_通り芯
  6
Continuous
 62
     3
370
    13
100
AcDbLine
 10
-19.13923854698517
 20
-243.3558814784354
 30
0.0
 11
-29.82925748437971
 21
-243.3558814784354
 31
0.0
  0
LINE
  5
1B5
330
1F
100
AcDbEntity
  8
0-0_通り芯
  6
Continuous
 62
     3
370
    13
100
AcDbLine
 10
-52.49585871695992
 20
-243.3558814784354
 30
0.0
 11
-66.48907556662188
 21
-243.3558814784354
 31
0.0
  0
LINE
  5
1B6
330
1F
100
AcDbEntity
  8
0-1_ピット
  6
Continuous
 62
     2
370
    13
100
AcDbLine
 10
495.8992053534584
 20
-222.1678569060115
 30
0.0
 11
495.8992053534584
 21
-227.2777366832497
 31
0.0
  0
LINE
  5
1B7
330
1F
100
AcDbEntity
  8
0-1_ピット
  6
Continuous
 62
     2
370
    13
100
AcDbLine
 10
498.7992000747423
 20
-219.2681096245502
 30
0.0
 11
498.7992000747423
 21
-226.5007756401752
 31
0.0
  0
LINE
  5
1B8
330
1F
100
AcDbEntity
  8
0-1_ピット
  6
Continuous
 62
     2
370
    13
100
AcDbLine
 10
481.6991288120731
 20
-222.1678569060115
 30
0.0
 11
481.6991288120731
 21
-231.0826188359102
 31
0.0
  0
LINE
  5
1B9
330
1F
100
AcDbEntity
  8
0-1_ピット
  6
Continuous
 62
     2
370
    13
100
AcDbLine
 10
478.7991340907893
 20
-219.2681096245502
 30
0.0
 11
478.7991340907893
 21
-231.8595798789844
 31
0.0
  0
LINE
  5
1BA
330
1F
100
AcDbEntity
  8
0-3_受枠
  6
Continuous
 62
     4
370
    13
100
AcDbLine
 10
460.5041759246153
 20
-331.6894237609523
 30
0.0
 11
442.1706171461103
 21
-331.6894237609523
 31
0.0
  0
LINE
  5
1BB
330
1F
100
AcDbEntity
  8
0-3_受枠
  6
Continuous
 62
     4
370
    13
100
AcDbLine
 10
460.5041759246153
 20
-531.6893412810116
 30
0.0
 11
-89.49590655532553
 21
-531.6893412810116
 31
0.0
  0
LINE
  5
1BC
330
1F
100
AcDbEntity
  8
0-3_受枠
  6
Continuous
 62
     4
370
    13
100
AcDbLine
 10
-71.16247149673178
 20
-331.6894237609523
 30
0.0
 11
-89.49590655532553
 21
-331.6894237609523
 31
0.0
  0
LINE
  5
1BD
330
1F
100
AcDbEntity
  8
0-1_ピット
  6
Continuous
 62
     2
370
    13
100
AcDbLine
 10
504.2725689514313
 20
-205.5013002125994
 30
0.0
 11
495.8992053534584
 21
-205.5013002125994
 31
0.0
  0
LINE
  5
1BE
330
1F
100
AcDbEntity
  8
0-1_ピット
  6
Continuous
 62
     2
370
    13
100
AcDbLine
 10
481.6991288120731
 20
-205.5013002125994
 30
0.0
 11
469.6931011779936
 21
-205.5013002125994
 31
0.0
  0
LINE
  5
1BF
330
1F
100
AcDbEntity
  8
0-3_受枠
  6
Continuous
 62
     4
370
    13
100
AcDbLine
 10
-89.49590655532553
 20
-331.6894237609523
 30
0.0
 11
-89.49590655532553
 21
-469.7844752944194
 31
0.0
  0
LINE
  5
1C0
330
1F
100
AcDbEntity
  8
0-3_受枠
  6
Continuous
 62
     4
370
    13
100
AcDbLine
 10
-89.49590655532553
 20
-483.3231451899009
 30
0.0
 11
-89.49590655532553
 21
-531.6893412810116
 31
0.0
  0
LINE
  5
1C1
330
1F
100
AcDbEntity
  8
0-3_受枠
  6
Continuous
 62
     4
370
    13
100
AcDbLine
 10
-71.16247149673178
 20
-331.6894237609523
 30
0.0
 11
-71.16247149673178
 21
-466.5520451714253
 31
0.0
  0
LINE
  5
1C2
330
1F
100
AcDbEntity
  8
0-3_受枠
  6
Continuous
 62
     4
370
    13
100
AcDbLine
 10
-71.16247149673178
 20
-480.0903439071727
 30
0.0
 11
-71.16247149673178
 21
-531.6893412810116
 31
0.0
  0
LINE
  5
1C3
330
1F
100
AcDbEntity
  8
0-3_受枠
  6
Continuous
 62
     4
370
    13
100
AcDbLine
 10
460.5041759246153
 20
-331.6894237609523
 30
0.0
 11
460.5041759246153
 21
-467.1397147501837
 31
0.0
  0
LINE
  5
1C4
330
1F
100
AcDbEntity
  8
0-3_受枠
  6
Continuous
 62
     4
370
    13
100
AcDbLine
 10
460.5041759246153
 20
-480.6781372058425
 30
0.0
 11
460.5041759246153
 21
-531.6893412810116
 31
0.0
  0
LINE
  5
1C5
330
1F
100
AcDbEntity
  8
0-3_受枠
  6
Continuous
 62
     4
370
    13
100
AcDbLine
 10
442.1706171461103
 20
-331.6894237609523
 30
0.0
 11
442.1706171461103
 21
-470.3722685930892
 31
0.0
  0
LINE
  5
1C6
330
1F
100
AcDbEntity
  8
0-3_受枠
  6
Continuous
 62
     4
370
    13
100
AcDbLine
 10
442.1706171461103
 20
-483.9110622084819
 30
0.0
 11
442.1706171461103
 21
-531.6893412810116
 31
0.0
  0
LINE
  5
1C7
330
1F
100
AcDbEntity
  8
0-3_受枠
  6
Continuous
 62
     7
370
    13
100
AcDbLine
 10
-106.162586968649
 20
-486.2621116832496
 30
0.0
 11
-54.49579108340835
 21
-477.1513774138241
 31
0.0
  0
LINE
  5
1C8
330
1F
100
AcDbEntity
  8
0-3_受枠
  6
Continuous
 62
     7
370
    13
100
AcDbLine
 10
-106.162586968649
 20
-472.7231943479457
 30
0.0
 11
-54.49579108340835
 21
-463.6133261178991
 31
0.0
  0
LINE
  5
1C9
330
1F
100
AcDbEntity
  8
0-3_受枠
  6
Continuous
 62
     7
370
    13
100
AcDbLine
 10
425.5040604526981
 20
-486.8499049819194
 30
0.0
 11
477.1707326180275
 21
-477.739294432405
 31
0.0
  0
LINE
  5
1CA
330
1F
100
AcDbEntity
  8
0-3_受枠
  6
Continuous
 62
     7
370
    13
100
AcDbLine
 10
425.5040604526981
 20
-473.310863926704
 30
0.0
 11
477.1707326180275
 21
-464.2011194165689
 31
0.0
  0
LINE
  5
1CB
330
1F
100
AcDbEntity
  8
0-1_ピット
  6
Continuous
 62
     2
370
    13
100
AcDbLine
 10
509.1869712687878
 20
-201.4222547364591
 30
0.0
 11
512.1708480899449
 21
-185.5012342286466
 31
0.0
  0
LINE
  5
1CC
330
1F
100
AcDbEntity
  8
0-1_ピット
  6
Continuous
 62
     2
370
    13
100
AcDbLine
 10
512.1708480899449
 20
-185.5012342286466
 30
0.0
 11
522.1708810819212
 21
-185.5012342286466
 31
0.0
  0
LINE
  5
1CD
330
1F
100
AcDbEntity
  8
0-0_通り芯
  6
Continuous
 62
     3
370
    13
100
AcDbLine
 10
524.3842302953925
 20
-198.3559804543645
 30
0.0
 11
604.2281122632978
 21
-198.3559804543645
 31
0.0
  0
LINE
  5
1CE
330
1F
100
AcDbEntity
  8
0-4_寸法
  6
Continuous
 62
     7
370
    13
100
AcDbLine
 10
-206.1625457286786
 20
207.8319533901244
 30
0.0
 11
577.1708150979686
 21
207.8319533901244
 31
0.0
  0
LINE
  5
1CF
330
1F
100
AcDbEntity
  8
0-4_寸法
  6
Continuous
 62
     7
370
    13
100
AcDbLine
 10
-206.1625457286786
 20
-180.5013414525698
 30
0.0
 11
-206.1625457286786
 21
210.8319137997528
 31
0.0
  0
LINE
  5
1D0
330
1F
100
AcDbEntity
  8
0-4_寸法
  6
Continuous
 62
     7
370
    13
100
AcDbLine
 10
577.1708150979686
 20
-180.5013414525698
 30
0.0
 11
577.1708150979686
 21
210.8319137997528
 31
0.0
  0
LINE
  5
1D1
330
1F
100
AcDbEntity
  8
0-4_寸法
  6
Continuous
 62
     7
370
    13
100
AcDbLine
 10
-206.1625457286786
 20
207.8319533901244
 30
0.0
 11
-181.3763749754057
 21
211.0950660511252
 31
0.0
  0
LINE
  5
1D2
330
1F
100
AcDbEntity
  8
0-4_寸法
  6
Continuous
 62
     7
370
    13
100
AcDbLine
 10
-206.1625457286786
 20
207.8319533901244
 30
0.0
 11
-181.3763749754057
 21
204.5688407291236
 31
0.0
  0
LINE
  5
1D3
330
1F
100
AcDbEntity
  8
0-4_寸法
  6
Continuous
 62
     7
370
    13
100
AcDbLine
 10
577.1708150979686
 20
207.8319533901244
 30
0.0
 11
552.3847680646071
 21
211.0950660511252
 31
0.0
  0
LINE
  5
1D4
330
1F
100
AcDbEntity
  8
0-4_寸法
  6
Continuous
 62
     7
370
    13
100
AcDbLine
 10
577.1708150979686
 20
207.8319533901244
 30
0.0
 11
552.3847680646071
 21
204.5688407291236
 31
0.0
  0
LINE
  5
1D5
330
1F
100
AcDbEntity
  8
0-4_寸法
  6
Continuous
 62
     7
370
    13
100
AcDbLine
 10
-40.12856894183308
 20
-631.6893619009967
 30
0.0
 11
411.1369620310343
 21
-631.6893619009967
 31
0.0
  0
LINE
  5
1D6
330
1F
100
AcDbEntity
  8
0-4_寸法
  6
Continuous
 62
     7
370
    13
100
AcDbLine
 10
-40.12856894183308
 20
-418.4285875463198
 30
0.0
 11
-40.12856894183308
 21
-634.6893841705809
 31
0.0
  0
LINE
  5
1D7
330
1F
100
AcDbEntity
  8
0-4_寸法
  6
Continuous
 62
     7
370
    13
100
AcDbLine
 10
411.1369620310343
 20
-418.4285875463198
 30
0.0
 11
411.1369620310343
 21
-634.6893841705809
 31
0.0
  0
LINE
  5
1D8
330
1F
100
AcDbEntity
  8
0-4_寸法
  6
Continuous
 62
     7
370
    13
100
AcDbLine
 10
-40.12856894183308
 20
-631.6893619009967
 30
0.0
 11
-15.34239818856044
 21
-628.4261873800402
 31
0.0
  0
LINE
  5
1D9
330
1F
100
AcDbEntity
  8
0-4_寸法
  6
Continuous
 62
     7
370
    13
100
AcDbLine
 10
-40.12856894183308
 20
-631.6893619009967
 30
0.0
 11
-15.34239818856044
 21
-634.9525364219533
 31
0.0
  0
LINE
  5
1DA
330
1F
100
AcDbEntity
  8
0-4_寸法
  6
Continuous
 62
     7
370
    13
100
AcDbLine
 10
411.1369620310343
 20
-631.6893619009967
 30
0.0
 11
386.3509149976728
 21
-628.4261873800402
 31
0.0
  0
LINE
  5
1DB
330
1F
100
AcDbEntity
  8
0-4_寸法
  6
Continuous
 62
     7
370
    13
100
AcDbLine
 10
411.1369620310343
 20
-631.6893619009967
 30
0.0
 11
386.3509149976728
 21
-634.9525364219533
 31
0.0
  0
LINE
  5
1DC
330
1F
100
AcDbEntity
  8
0-4_寸法
  6
Continuous
 62
     7
370
    13
100
AcDbLine
 10
-89.49590655532553
 20
-711.689378396985
 30
0.0
 11
460.5041759246153
 21
-711.689378396985
 31
0.0
  0
LINE
  5
1DD
330
1F
100
AcDbEntity
  8
0-4_寸法
  6
Continuous
 62
     7
370
    13
100
AcDbLine
 10
-89.49590655532553
 20
-556.6893619009967
 30
0.0
 11
-89.49590655532553
 21
-714.6894006665689
 31
0.0
  0
LINE
  5
1DE
330
1F
100
AcDbEntity
  8
0-4_寸法
  6
Continuous
 62
     7
370
    13
100
AcDbLine
 10
460.5041759246153
 20
-556.6893619009967
 30
0.0
 11
460.5041759246153
 21
-714.6894006665689
 31
0.0
  0
LINE
  5
1DF
330
1F
100
AcDbEntity
  8
0-4_寸法
  6
Continuous
 62
     7
370
    13
100
AcDbLine
 10
-89.49590655532553
 20
-711.689378396985
 30
0.0
 11
-64.7097358020526
 21
-708.4262038760284
 31
0.0
  0
LINE
  5
1E0
330
1F
100
AcDbEntity
  8
0-4_寸法
  6
Continuous
 62
     7
370
    13
100
AcDbLine
 10
-89.49590655532553
 20
-711.689378396985
 30
0.0
 11
-64.7097358020526
 21
-714.9525529179415
 31
0.0
  0
LINE
  5
1E1
330
1F
100
AcDbEntity
  8
0-4_寸法
  6
Continuous
 62
     7
370
    13
100
AcDbLine
 10
460.5041759246153
 20
-711.689378396985
 30
0.0
 11
435.7181288912539
 21
-708.4262038760284
 31
0.0
  0
LINE
  5
1E2
330
1F
100
AcDbEntity
  8
0-4_寸法
  6
Continuous
 62
     7
370
    13
100
AcDbLine
 10
460.5041759246153
 20
-711.689378396985
 30
0.0
 11
435.7181288912539
 21
-714.9525529179415
 31
0.0
  0
LINE
  5
1E3
330
1F
100
AcDbEntity
  8
0-4_寸法
  6
Continuous
 62
     7
370
    13
100
AcDbLine
 10
-339.1254479008703
 20
-205.5013002125994
 30
0.0
 11
-339.1254479008703
 21
27.8319781341067
 31
0.0
  0
LINE
  5
1E4
330
1F
100
AcDbEntity
  8
0-4_寸法
  6
Continuous
 62
     7
370
    13
100
AcDbLine
 10
-158.2640109023484
 20
-205.5013002125994
 30
0.0
 11
-342.1254083104986
 21
-205.5013002125994
 31
0.0
  0
LINE
  5
1E5
330
1F
100
AcDbEntity
  8
0-4_寸法
  6
Continuous
 62
     7
370
    13
100
AcDbLine
 10
-339.1254479008703
 20
-205.5013002125994
 30
0.0
 11
-342.388560561871
 21
-180.7151294593266
 31
0.0
  0
LINE
  5
1E6
330
1F
100
AcDbEntity
  8
0-4_寸法
  6
Continuous
 62
     7
370
    13
100
AcDbLine
 10
-339.1254479008703
 20
-205.5013002125994
 30
0.0
 11
-335.8623352398695
 21
-180.7151294593266
 31
0.0
  0
LINE
  5
1E7
330
1F
100
AcDbEntity
  8
0-4_寸法
  6
Continuous
 62
     7
370
    13
100
AcDbLine
 10
-339.1254479008703
 20
27.8319781341067
 30
0.0
 11
-342.388560561871
 21
3.045807380833772
 31
0.0
  0
LINE
  5
1E8
330
1F
100
AcDbEntity
  8
0-4_寸法
  6
Continuous
 62
     7
370
    13
100
AcDbLine
 10
-339.1254479008703
 20
27.8319781341067
 30
0.0
 11
-335.8623352398695
 21
3.045807380833772
 31
0.0
  0
LINE
  5
1E9
330
1F
100
AcDbEntity
  8
0-4_寸法
  6
Continuous
 62
     7
370
    13
100
AcDbLine
 10
629.2281947432389
 20
-198.3559804543645
 30
0.0
 11
713.1338013996998
 21
-198.3559804543645
 31
0.0
  0
LINE
  5
1EA
330
1F
100
AcDbEntity
  8
0-2_本体（蓋）
  6
Continuous
 62
     6
370
    13
100
AcDbLine
 10
-131.6601472119979
 20
-202.7641208946094
 30
0.0
 11
-134.4958075793963
 21
-185.5012342286466
 31
0.0
  0
LINE
  5
1EB
330
1F
100
AcDbEntity
  8
0-2_本体（蓋）
  6
Continuous
 62
     6
370
    13
100
AcDbLine
 10
505.5040769486862
 20
-185.5012342286466
 30
0.0
 11
502.7584846767269
 21
-202.2197532848122
 31
0.0
  0
LINE
  5
1EC
330
1F
100
AcDbEntity
  8
0-2_本体（蓋）
  6
Continuous
 62
     6
370
    13
100
AcDbLine
 10
505.5040769486862
 20
-185.5012342286466
 30
0.0
 11
502.1708150979686
 21
-182.1679723779286
 31
0.0
  0
LINE
  5
1ED
330
1F
100
AcDbEntity
  8
0-2_本体（蓋）
  6
Continuous
 62
     6
370
    13
100
AcDbLine
 10
470.5047037962369
 20
-205.5013002125994
 30
0.0
 11
475.5814266372421
 21
-185.5012342286466
 31
0.0
  0
LINE
  5
1EE
330
1F
100
AcDbEntity
  8
0-2_本体（蓋）
  6
Continuous
 62
     6
370
    13
100
AcDbLine
 10
472.3070554643111
 20
-182.2506172786888
 30
0.0
 11
475.5814266372421
 21
-185.5012342286466
 31
0.0
  0
LINE
  5
1EF
330
1F
100
AcDbEntity
  8
0-2_本体（蓋）
  6
Continuous
 62
     6
370
    13
100
AcDbLine
 10
502.1708150979686
 20
-182.1679723779286
 30
0.0
 11
466.8322019486861
 21
-182.1679723779286
 31
0.0
  0
LINE
  5
1F0
330
1F
100
AcDbEntity
  8
0-2_本体（蓋）
  6
Continuous
 62
     6
370
    13
100
AcDbLine
 10
449.9558162856796
 20
-196.5118114562648
 30
0.0
 11
427.1708150979684
 21
27.8319781341067
 31
0.0
  0
LINE
  5
1F1
330
1F
100
AcDbEntity
  8
0-2_本体（蓋）
  6
Continuous
 62
     6
370
    13
100
AcDbLine
 10
-71.48377210642344
 20
27.8319781341067
 30
0.0
 11
442.4922889155358
 21
27.8319781341067
 31
0.0
  0
LINE
  5
1F2
330
1F
100
AcDbEntity
  8
0-2_本体（蓋）
  6
Continuous
 62
     6
370
    13
100
AcDbLine
 10
445.8084774184921
 20
24.83548188199524
 30
0.0
 11
466.8322019486861
 21
-182.1679723779286
 31
0.0
  0
LINE
  5
1F3
330
1F
100
AcDbEntity
  8
0-2_本体（蓋）
  6
Continuous
 62
     6
370
    13
100
AcDbLine
 10
-64.9550723861956
 20
-22.83132555043732
 30
0.0
 11
-79.91243850475549
 21
-25.50144867649305
 31
0.0
  0
LINE
  5
1F4
330
1F
100
AcDbEntity
  8
0-2_本体（蓋）
  6
JWW_DASHED1
 62
     6
370
    13
100
AcDbLine
 10
435.9633417554853
 20
-22.83132555043732
 30
0.0
 11
450.9208315939564
 21
-25.50144867649305
 31
0.0
  0
LINE
  5
1F5
330
1F
100
AcDbEntity
  8
0-2_本体（蓋）
  6
Continuous
 62
     6
370
    13
100
AcDbLine
 10
-68.4981632065081
 20
-205.5013002125994
 30
0.0
 11
-128.3805798027917
 21
-205.5013002125994
 31
0.0
  0
LINE
  5
1F6
330
1F
100
AcDbEntity
  8
0-2_本体（蓋）
  6
Continuous
 62
     4
370
    13
100
AcDbLine
 10
-86.86314684248778
 20
23.66657615986686
 30
0.0
 11
-93.23039207844637
 21
23.77495480218091
 31
0.0
  0
LINE
  5
1F7
330
1F
100
AcDbEntity
  8
0-2_本体（蓋）
  6
Continuous
 62
     4
370
    13
100
AcDbLine
 10
-90.50657451087865
 20
-11.14301064862143
 30
0.0
 11
-96.75851278948933
 21
-9.930555517709188
 31
0.0
  0
LINE
  5
1F8
330
1F
100
AcDbEntity
  8
0-2_本体（蓋）
  6
Continuous
 62
     4
370
    13
100
AcDbLine
 10
-90.50657451087865
 20
-11.14301064862143
 30
0.0
 11
-86.86314684248778
 21
23.66657615986686
 31
0.0
  0
LINE
  5
1F9
330
1F
100
AcDbEntity
  8
0-2_本体（蓋）
  6
Continuous
 62
     4
370
    13
100
AcDbLine
 10
-81.01354571548178
 20
15.5131865642166
 30
0.0
 11
-83.09575182295653
 21
-4.378253337599283
 31
0.0
  0
LINE
  5
1FA
330
1F
100
AcDbEntity
  8
0-2_本体（蓋）
  6
Continuous
 62
     4
370
    13
100
AcDbLine
 10
-82.79375151943022
 20
-1.494094764964125
 30
0.0
 11
-89.36661924799871
 21
-4.331982090766466
 31
0.0
  0
LINE
  5
1FB
330
1F
100
AcDbEntity
  8
0-2_本体（蓋）
  6
Continuous
 62
     4
370
    13
100
AcDbLine
 10
-83.09575182295653
 20
-4.378253337599283
 30
0.0
 11
-85.47439083794792
 21
-2.651370815428713
 31
0.0
  0
LINE
  5
1FC
330
1F
100
AcDbEntity
  8
0-2_本体（蓋）
  6
Continuous
 62
     4
370
    13
100
AcDbLine
 10
-81.31566973891928
 20
12.62902799158145
 30
0.0
 11
-87.15809511106876
 21
16.76622182604081
 31
0.0
  0
LINE
  5
1FD
330
1F
100
AcDbEntity
  8
0-2_本体（蓋）
  6
Continuous
 62
     4
370
    13
100
AcDbLine
 10
-81.01354571548178
 20
15.5131865642166
 30
0.0
 11
-83.69814407116174
 21
14.3163201421304
 31
0.0
  0
LINE
  5
1FE
330
1F
100
AcDbEntity
  8
0-2_本体（蓋）
  6
Continuous
 62
     4
370
    13
100
AcDbLine
 10
-49.64164036286355
 20
-4.963943397776625
 30
0.0
 11
-52.82730435937971
 21
-7.546720266442257
 31
0.0
  0
LINE
  5
1FF
330
1F
100
AcDbEntity
  8
0-2_本体（蓋）
  6
Continuous
 62
     4
370
    13
100
AcDbLine
 10
-48.16331114252996
 20
9.158684479123629
 30
0.0
 11
-50.74534569172762
 21
12.34521451501895
 31
0.0
  0
LINE
  5
200
330
1F
100
AcDbEntity
  8
0-2_本体（蓋）
  6
Continuous
 62
     4
370
    13
100
AcDbLine
 10
-81.31566973891928
 20
12.62902799158145
 30
0.0
 11
-48.16331114252996
 21
9.158684479123629
 31
0.0
  0
LINE
  5
201
330
1F
100
AcDbEntity
  8
0-2_本体（蓋）
  6
Continuous
 62
     4
370
    13
100
AcDbLine
 10
-82.79375151943022
 20
-1.494094764964125
 30
0.0
 11
-49.64164036286355
 21
-4.963943397776625
 31
0.0
  0
LINE
  5
202
330
1F
100
AcDbEntity
  8
0-2_本体（蓋）
  6
Continuous
 62
     4
370
    13
100
AcDbLine
 10
-48.16331114252996
 20
9.158684479123629
 30
0.0
 11
-49.64164036286355
 21
-4.963943397776625
 31
0.0
  0
LINE
  5
203
330
1F
100
AcDbEntity
  8
0-2_本体（蓋）
  6
Continuous
 62
     4
370
    13
100
AcDbLine
 10
-50.74534569172762
 20
12.34521451501895
 30
0.0
 11
-52.82730435937971
 21
-7.546720266442257
 31
0.0
  0
LINE
  5
204
330
1F
100
AcDbEntity
  8
0-2_本体（蓋）
  6
Continuous
 62
     4
370
    13
100
AcDbLine
 10
-81.01354571548178
 20
15.5131865642166
 30
0.0
 11
-50.74534569172762
 21
12.34521451501895
 31
0.0
  0
LINE
  5
205
330
1F
100
AcDbEntity
  8
0-2_本体（蓋）
  6
Continuous
 62
     4
370
    13
100
AcDbLine
 10
-83.09575182295653
 20
-4.378253337599283
 30
0.0
 11
-52.82730435937971
 21
-7.546720266442257
 31
0.0
  0
LINE
  5
206
330
1F
100
AcDbEntity
  8
0-2_本体（蓋）
  6
JWW_CENTER1
 62
     4
370
    13
100
AcDbLine
 10
-107.862003670507
 20
8.26913831675018
 30
0.0
 11
-42.06292975528335
 21
1.381650853701224
 31
0.0
  0
LINE
  5
207
330
1F
100
AcDbEntity
  8
0-2_本体（蓋）
  6
Continuous
 62
     6
370
    13
100
AcDbLine
 10
-78.94729947656721
 20
-196.5118114562648
 30
0.0
 11
-59.38965589548594
 21
-3.943749009052162
 31
0.0
  0
LINE
  5
208
330
1F
100
AcDbEntity
  8
0-2_本体（蓋）
  6
Continuous
 62
     6
370
    13
100
AcDbLine
 10
-57.95487608393621
 20
10.18382766430097
 30
0.0
 11
-56.16242200876719
 21
27.8319781341067
 31
0.0
  0
LINE
  5
209
330
1F
100
AcDbEntity
  8
0-2_本体（蓋）
  6
Continuous
 62
     6
370
    13
100
AcDbLine
 10
-74.8000843292909
 20
24.83548188199524
 30
0.0
 11
-76.09530808087449
 21
12.08268086320306
 31
0.0
  0
LINE
  5
20A
330
1F
100
AcDbEntity
  8
0-2_本体（蓋）
  6
Continuous
 62
     6
370
    13
100
AcDbLine
 10
-77.53021161233569
 20
-2.044895810150074
 30
0.0
 11
-97.88931277893205
 21
-202.5048039604877
 31
0.0
  0
LINE
  5
20B
330
1F
100
AcDbEntity
  8
0-2_本体（蓋）
  6
Continuous
 62
     6
370
    13
100
AcDbLine
 10
-69.47010682981876
 20
27.8319781341067
 30
0.0
 11
-71.12250996537632
 21
11.56206747637857
 31
0.0
  0
LINE
  5
20C
330
1F
100
AcDbEntity
  8
0-2_本体（蓋）
  6
Continuous
 62
     4
370
    13
100
AcDbLine
 10
478.7991340907893
 20
-188.8347435191872
 30
0.0
 11
498.7994475145646
 21
-188.8347435191872
 31
0.0
  0
LINE
  5
20D
330
1F
100
AcDbEntity
  8
0-2_本体（蓋）
  6
Continuous
 62
     4
370
    13
100
AcDbLine
 10
495.8992053534584
 20
-188.8347435191872
 30
0.0
 11
499.4061699596662
 21
-182.5933214330385
 31
0.0
  0
LINE
  5
20E
330
1F
100
AcDbEntity
  8
0-2_本体（蓋）
  6
Continuous
 62
     4
370
    13
100
AcDbLine
 10
498.7994475145646
 20
-188.8347435191872
 30
0.0
 11
497.329654968112
 21
-186.2893300637395
 31
0.0
  0
LINE
  5
20F
330
1F
100
AcDbEntity
  8
0-2_本体（蓋）
  6
Continuous
 62
     4
370
    13
100
AcDbLine
 10
481.6993762518957
 20
-188.8347435191872
 30
0.0
 11
478.1924116456879
 21
-182.5933214330385
 31
0.0
  0
LINE
  5
210
330
1F
100
AcDbEntity
  8
0-2_本体（蓋）
  6
Continuous
 62
     4
370
    13
100
AcDbLine
 10
478.7991340907893
 20
-188.8347435191872
 30
0.0
 11
480.2689266372421
 21
-186.2893300637395
 31
0.0
  0
LINE
  5
211
330
1F
100
AcDbEntity
  8
0-2_本体（蓋）
  6
Continuous
 62
     4
370
    13
100
AcDbLine
 10
495.8992053534584
 20
-222.1681043458341
 30
0.0
 11
498.7994475145646
 21
-219.2683570643729
 31
0.0
  0
LINE
  5
212
330
1F
100
AcDbEntity
  8
0-2_本体（蓋）
  6
Continuous
 62
     4
370
    13
100
AcDbLine
 10
481.6993762518957
 20
-222.1681043458341
 30
0.0
 11
478.7991340907893
 21
-219.2683570643729
 31
0.0
  0
LINE
  5
213
330
1F
100
AcDbEntity
  8
0-2_本体（蓋）
  6
Continuous
 62
     4
370
    13
100
AcDbLine
 10
481.6993762518957
 20
-188.8347435191872
 30
0.0
 11
481.6993762518957
 21
-222.1681043458341
 31
0.0
  0
LINE
  5
214
330
1F
100
AcDbEntity
  8
0-2_本体（蓋）
  6
Continuous
 62
     4
370
    13
100
AcDbLine
 10
495.8992053534584
 20
-188.8347435191872
 30
0.0
 11
495.8992053534584
 21
-222.1681043458341
 31
0.0
  0
LINE
  5
215
330
1F
100
AcDbEntity
  8
0-2_本体（蓋）
  6
Continuous
 62
     4
370
    13
100
AcDbLine
 10
481.6993762518957
 20
-222.1681043458341
 30
0.0
 11
495.8992053534584
 21
-222.1681043458341
 31
0.0
  0
LINE
  5
216
330
1F
100
AcDbEntity
  8
0-2_本体（蓋）
  6
Continuous
 62
     4
370
    13
100
AcDbLine
 10
478.7991340907893
 20
-219.2683570643729
 30
0.0
 11
498.7994475145646
 21
-219.2683570643729
 31
0.0
  0
LINE
  5
217
330
1F
100
AcDbEntity
  8
0-2_本体（蓋）
  6
Continuous
 62
     4
370
    13
100
AcDbLine
 10
478.7991340907893
 20
-188.8347435191872
 30
0.0
 11
478.7991340907893
 21
-219.2683570643729
 31
0.0
  0
LINE
  5
218
330
1F
100
AcDbEntity
  8
0-2_本体（蓋）
  6
Continuous
 62
     4
370
    13
100
AcDbLine
 10
498.7994475145646
 20
-188.8347435191872
 30
0.0
 11
498.7994475145646
 21
-219.2683570643729
 31
0.0
  0
LINE
  5
219
330
1F
100
AcDbEntity
  8
0-2_本体（蓋）
  6
JWW_CENTER1
 62
     4
370
    13
100
AcDbLine
 10
488.7991670827657
 20
-162.0184527411044
 30
0.0
 11
488.7991670827657
 21
-227.7741009674557
 31
0.0
  0
LINE
  5
21A
330
1F
100
AcDbEntity
  8
0-2_本体（蓋）
  6
Continuous
 62
     4
370
    13
100
AcDbLine
 10
471.2989856268957
 20
-182.1682198177513
 30
0.0
 11
471.8539931490664
 21
-175.8241102052091
 31
0.0
  0
LINE
  5
21B
330
1F
100
AcDbEntity
  8
0-2_本体（蓋）
  6
Continuous
 62
     4
370
    13
100
AcDbLine
 10
506.2991010988131
 20
-182.1682198177513
 30
0.0
 11
505.7440935766425
 21
-175.8241102052091
 31
0.0
  0
LINE
  5
21C
330
1F
100
AcDbEntity
  8
0-2_本体（蓋）
  6
Continuous
 62
     4
370
    13
100
AcDbLine
 10
506.2991010988131
 20
-182.1682198177513
 30
0.0
 11
471.2989856268957
 21
-182.1682198177513
 31
0.0
  0
LINE
  5
21D
330
1F
100
AcDbEntity
  8
0-2_本体（蓋）
  6
Continuous
 62
     6
370
    13
100
AcDbLine
 10
499.3893440517269
 20
-205.5013002125994
 30
0.0
 11
498.7994475145646
 21
-205.5013002125994
 31
0.0
  0
LINE
  5
21E
330
1F
100
AcDbEntity
  8
0-2_本体（蓋）
  6
Continuous
 62
     6
370
    13
100
AcDbLine
 10
478.7991340907893
 20
-205.5013002125994
 30
0.0
 11
-12.84894709586617
 21
-205.5013002125994
 31
0.0
  0
LINE
  5
21F
330
1F
100
AcDbEntity
  8
0-2_本体（蓋）
  6
Continuous
 62
     6
370
    13
100
AcDbLine
 10
505.5040769486862
 20
-185.5012342286466
 30
0.0
 11
497.7720773709837
 21
-185.5012342286466
 31
0.0
  0
LINE
  5
220
330
1F
100
AcDbEntity
  8
0-2_本体（蓋）
  6
Continuous
 62
     6
370
    13
100
AcDbLine
 10
479.8265042343705
 20
-185.5012342286466
 30
0.0
 11
475.5814266372421
 21
-185.5012342286466
 31
0.0
  0
LINE
  5
221
330
1F
100
AcDbEntity
  8
0-4_寸法
  6
Continuous
 62
     7
370
    13
100
AcDbLine
 10
-99.62448453516096
 20
27.8319781341067
 30
0.0
 11
-342.1254083104986
 21
27.8319781341067
 31
0.0
  0
LINE
  5
222
330
1F
100
AcDbEntity
  8
0-4_寸法
  6
Continuous
 62
     7
370
    13
100
AcDbLine
 10
-56.16242200876719
 20
127.8319368941364
 30
0.0
 11
427.1708150979684
 21
127.8319368941364
 31
0.0
  0
LINE
  5
223
330
1F
100
AcDbEntity
  8
0-4_寸法
  6
Continuous
 62
     7
370
    13
100
AcDbLine
 10
-56.16242200876719
 20
52.8319368941364
 30
0.0
 11
-56.16242200876719
 21
130.8318973037648
 31
0.0
  0
LINE
  5
224
330
1F
100
AcDbEntity
  8
0-4_寸法
  6
Continuous
 62
     7
370
    13
100
AcDbLine
 10
427.1708150979684
 20
52.8319368941364
 30
0.0
 11
427.1708150979684
 21
130.8318973037648
 31
0.0
  0
LINE
  5
225
330
1F
100
AcDbEntity
  8
0-4_寸法
  6
Continuous
 62
     7
370
    13
100
AcDbLine
 10
-56.16242200876719
 20
127.8319368941364
 30
0.0
 11
-31.37625125549455
 21
131.0950495551372
 31
0.0
  0
LINE
  5
226
330
1F
100
AcDbEntity
  8
0-4_寸法
  6
Continuous
 62
     7
370
    13
100
AcDbLine
 10
-56.16242200876719
 20
127.8319368941364
 30
0.0
 11
-31.37625125549455
 21
124.5688242331353
 31
0.0
  0
LINE
  5
227
330
1F
100
AcDbEntity
  8
0-4_寸法
  6
Continuous
 62
     7
370
    13
100
AcDbLine
 10
427.1708150979684
 20
127.8319368941364
 30
0.0
 11
402.384768064607
 21
131.0950495551372
 31
0.0
  0
LINE
  5
228
330
1F
100
AcDbEntity
  8
0-4_寸法
  6
Continuous
 62
     7
370
    13
100
AcDbLine
 10
427.1708150979684
 20
127.8319368941364
 30
0.0
 11
402.384768064607
 21
124.5688242331353
 31
0.0
  0
LINE
  5
229
330
1F
100
AcDbEntity
  8
0-0_通り芯
  6
JWW_CENTER1
 62
     3
370
    13
100
AcDbLine
 10
185.5042584045563
 20
49.40514279046216
 30
0.0
 11
185.5042584045563
 21
-556.9403277411045
 31
0.0
  0
ARC
  5
22A
330
1F
100
AcDbEntity
  8
0-0_通り芯
  6
Continuous
 62
     3
370
    13
100
AcDbCircle
 10
-131.584183186449
 20
-230.6609813781398
 30
0.0
 40
5.000000064437453
100
AcDbArc
 50
254.9999084472656
 51
318.4355773925781
  0
ARC
  5
22B
330
1F
100
AcDbEntity
  8
0-0_通り芯
  6
Continuous
 62
     3
370
    13
100
AcDbCircle
 10
-148.1527537100974
 20
-226.2214160804203
 30
0.0
 40
5.000000064437453
100
AcDbArc
 50
191.5648956298828
 51
254.9999084472656
  0
ARC
  5
22C
330
1F
100
AcDbEntity
  8
0-0_通り芯
  6
Continuous
 62
     3
370
    13
100
AcDbCircle
 10
-168.622955357057
 20
-213.4032909484523
 30
0.0
 40
5.416692108721347
100
AcDbArc
 50
187.620590209961
 51
322.37890625
  0
ARC
  5
22D
330
1F
100
AcDbEntity
  8
0-0_通り芯
  6
Continuous
 62
     3
370
    13
100
AcDbCircle
 10
-157.5257741915164
 20
-221.9845039974388
 30
0.0
 40
3.333333376291636
100
AcDbArc
 50
11.56642150878906
 51
75.00077819824219
  0
ARC
  5
22E
330
1F
100
AcDbEntity
  8
0-0_通り芯
  6
Continuous
 62
     3
370
    13
100
AcDbCircle
 10
-121.3483400435013
 20
-231.6779590491703
 30
0.0
 40
3.333333376291636
100
AcDbArc
 50
75.00022888183594
 51
138.4349822998047
  0
ARC
  5
22F
330
1F
100
AcDbEntity
  8
0-0_通り芯
  6
Continuous
 62
     3
370
    13
100
AcDbCircle
 10
-107.4474182476821
 20
-229.7951894387395
 30
0.0
 40
5.416692108721347
100
AcDbArc
 50
187.620590209961
 51
322.37890625
  0
ARC
  5
230
330
1F
100
AcDbEntity
  8
0-0_通り芯
  6
Continuous
 62
     3
370
    13
100
AcDbCircle
 10
-187.9415720694724
 20
-208.2268498589252
 30
0.0
 40
5.416692108721347
100
AcDbArc
 50
187.6179962158203
 51
322.3796997070312
  0
ARC
  5
231
330
1F
100
AcDbEntity
  8
0-0_通り芯
  6
Continuous
 62
     3
370
    13
100
AcDbCircle
 10
-171.7889478876734
 20
-235.4170222090098
 30
0.0
 40
6.666666752583272
100
AcDbArc
 50
11.56620788574219
 51
75.00050354003906
  0
ARC
  5
232
330
1F
100
AcDbEntity
  8
0-0_通り芯
  6
Continuous
 62
     3
370
    13
100
AcDbCircle
 10
-115.7124032033406
 20
-250.4428054385284
 30
0.0
 40
6.666666752583272
100
AcDbArc
 50
74.99948120117188
 51
138.4350738525391
  0
ARC
  5
233
330
1F
100
AcDbEntity
  8
0-0_通り芯
  6
Continuous
 62
     3
370
    13
100
AcDbCircle
 10
-127.0753347383914
 20
-245.6726605377682
 30
0.0
 40
5.000000064437453
100
AcDbArc
 50
255.0012817382812
 51
318.4365081787109
  0
ARC
  5
234
330
1F
100
AcDbEntity
  8
0-0_通り芯
  6
Continuous
 62
     3
370
    13
100
AcDbCircle
 10
-159.563193691094
 20
-236.9674801376416
 30
0.0
 40
5.000000064437453
100
AcDbArc
 50
191.5646057128906
 51
254.9999084472656
  0
ARC
  5
235
330
1F
100
AcDbEntity
  8
0-0_通り芯
  6
Continuous
 62
     3
370
    13
100
AcDbCircle
 10
502.5924525557389
 20
-230.6609813781398
 30
0.0
 40
5.000000064437453
100
AcDbArc
 50
221.5644226074219
 51
285.0000915527344
  0
ARC
  5
236
330
1F
100
AcDbEntity
  8
0-0_通り芯
  6
Continuous
 62
     3
370
    13
100
AcDbCircle
 10
519.1607756395647
 20
-226.2214160804203
 30
0.0
 40
5.000000064437453
100
AcDbArc
 50
285.0000915527344
 51
348.4351043701172
  0
ARC
  5
237
330
1F
100
AcDbEntity
  8
0-0_通り芯
  6
Continuous
 62
     3
370
    13
100
AcDbCircle
 10
539.6309772865243
 20
-213.4032909484523
 30
0.0
 40
5.416692108721347
100
AcDbArc
 50
217.62109375
 51
352.3794097900391
  0
ARC
  5
238
330
1F
100
AcDbEntity
  8
0-0_通り芯
  6
Continuous
 62
     3
370
    13
100
AcDbCircle
 10
528.5337961209837
 20
-221.9845039974388
 30
0.0
 40
3.333333376291636
100
AcDbArc
 50
104.9992218017578
 51
168.4335784912109
  0
ARC
  5
239
330
1F
100
AcDbEntity
  8
0-0_通り芯
  6
Continuous
 62
     3
370
    13
100
AcDbCircle
 10
492.3563619729686
 20
-231.6779590491703
 30
0.0
 40
3.333333376291636
100
AcDbArc
 50
41.56501770019532
 51
104.9997711181641
  0
ARC
  5
23A
330
1F
100
AcDbEntity
  8
0-0_通り芯
  6
Continuous
 62
     3
370
    13
100
AcDbCircle
 10
478.4554401771492
 20
-229.7951894387395
 30
0.0
 40
5.416692108721347
100
AcDbArc
 50
217.62109375
 51
352.3794097900391
  0
ARC
  5
23B
330
1F
100
AcDbEntity
  8
0-0_通り芯
  6
Continuous
 62
     3
370
    13
100
AcDbCircle
 10
558.9498414387623
 20
-208.2268498589252
 30
0.0
 40
5.416692108721347
100
AcDbArc
 50
217.6203002929688
 51
352.3820037841797
  0
ARC
  5
23C
330
1F
100
AcDbEntity
  8
0-0_通り芯
  6
Continuous
 62
     3
370
    13
100
AcDbCircle
 10
542.7969698171407
 20
-235.4170222090098
 30
0.0
 40
6.666666752583272
100
AcDbArc
 50
104.9994964599609
 51
168.4337921142578
  0
ARC
  5
23D
330
1F
100
AcDbEntity
  8
0-0_通り芯
  6
Continuous
 62
     3
370
    13
100
AcDbCircle
 10
486.7206725726305
 20
-250.4428054385284
 30
0.0
 40
6.666666752583272
100
AcDbArc
 50
41.56492614746094
 51
105.0005187988281
  0
ARC
  5
23E
330
1F
100
AcDbEntity
  8
0-0_通り芯
  6
Continuous
 62
     3
370
    13
100
AcDbCircle
 10
498.0833566678587
 20
-245.6726605377682
 30
0.0
 40
5.000000064437453
100
AcDbArc
 50
221.5634918212891
 51
284.9987182617188
  0
ARC
  5
23F
330
1F
100
AcDbEntity
  8
0-0_通り芯
  6
Continuous
 62
     3
370
    13
100
AcDbCircle
 10
530.5712156205616
 20
-236.9674801376416
 30
0.0
 40
5.000000064437453
100
AcDbArc
 50
285.0000915527344
 51
348.4353942871094
  0
ARC
  5
240
330
1F
100
AcDbEntity
  8
0-0_通り芯
  6
Continuous
 62
     3
370
    13
100
AcDbCircle
 10
-183.3975871666007
 20
-266.6892093131062
 30
0.0
 40
5.000000064437453
100
AcDbArc
 50
187.9238586425782
 51
270.0
  0
ARC
  5
241
330
1F
100
AcDbEntity
  8
0-0_通り芯
  6
Continuous
 62
     3
370
    13
100
AcDbCircle
 10
-158.2595569855409
 20
-266.6892093131062
 30
0.0
 40
5.000000064437453
100
AcDbArc
 50
270.0
 51
345.0924377441406
  0
ARC
  5
242
330
1F
100
AcDbEntity
  8
0-0_通り芯
  6
Continuous
 62
     3
370
    13
100
AcDbCircle
 10
-143.8736531373568
 20
-251.524117463444
 30
0.0
 40
5.000000064437453
100
AcDbArc
 50
74.99987792968751
 51
165.0922546386719
  0
ARC
  5
243
330
1F
100
AcDbEntity
  8
0-0_通り芯
  6
Continuous
 62
     3
370
    13
100
AcDbCircle
 10
-233.2200903338307
 20
-201.6894897449052
 30
0.0
 40
3.333333376291636
100
AcDbArc
 50
90.0
 51
172.8747406005859
  0
ARC
  5
244
330
1F
100
AcDbEntity
  8
0-0_通り芯
  6
Continuous
 62
     3
370
    13
100
AcDbCircle
 10
-203.4499866730409
 20
-257.9919469873037
 30
0.0
 40
36.66666907233162
100
AcDbArc
 50
76.912841796875
 51
115.9517822265625
  0
ARC
  5
245
330
1F
100
AcDbEntity
  8
0-0_通り芯
  6
Continuous
 62
     3
370
    13
100
AcDbCircle
 10
-199.1055619871244
 20
-226.3723543722278
 30
0.0
 40
5.000000064437453
100
AcDbArc
 50
7.923858642578124
 51
62.62251281738281
  0
ARC
  5
246
330
1F
100
AcDbEntity
  8
0-0_通り芯
  6
Continuous
 62
     3
370
    13
100
AcDbCircle
 10
604.2281122632978
 20
-201.6894897449052
 30
0.0
 40
3.333333376291636
100
AcDbArc
 50
7.125259399414062
 51
90.0
  0
ARC
  5
247
330
1F
100
AcDbEntity
  8
0-0_通り芯
  6
Continuous
 62
     3
370
    13
100
AcDbCircle
 10
574.4581323224196
 20
-257.9919469873037
 30
0.0
 40
36.66666907233162
100
AcDbArc
 50
64.0482177734375
 51
103.087158203125
  0
ARC
  5
248
330
1F
100
AcDbEntity
  8
0-0_通り芯
  6
Continuous
 62
     3
370
    13
100
AcDbCircle
 10
-90.09656672477242
 20
-335.0226856116703
 30
0.0
 40
3.333333376291636
100
AcDbArc
 50
90.0
 51
168.6900634765625
  0
ARC
  5
249
330
1F
100
AcDbEntity
  8
0-0_通り芯
  6
Continuous
 62
     3
370
    13
100
AcDbCircle
 10
-71.0811875149961
 20
-333.3561784062226
 30
0.0
 40
1.666666688145818
100
AcDbArc
 50
2.864410400390625
 51
90.0
  0
ARC
  5
24A
330
1F
100
AcDbEntity
  8
0-0_通り芯
  6
Continuous
 62
     3
370
    13
100
AcDbCircle
 10
442.0894568842858
 20
-333.3561784062226
 30
0.0
 40
1.666666688145818
100
AcDbArc
 50
90.0
 51
177.1355895996094
  0
ARC
  5
24B
330
1F
100
AcDbEntity
  8
0-0_通り芯
  6
Continuous
 62
     3
370
    13
100
AcDbCircle
 10
-59.82081978642761
 20
-391.689374272988
 30
0.0
 40
6.666666752583272
100
AcDbArc
 50
182.8624114990234
 51
270.0
  0
ARC
  5
24C
330
1F
100
AcDbEntity
  8
0-0_通り芯
  6
Continuous
 62
     3
370
    13
100
AcDbCircle
 10
430.8289654358061
 20
-391.689374272988
 30
0.0
 40
6.666666752583272
100
AcDbArc
 50
270.0
 51
357.1375885009766
  0
ARC
  5
24D
330
1F
100
AcDbEntity
  8
0-0_通り芯
  6
Continuous
 62
     3
370
    13
100
AcDbCircle
 10
-90.53750448870808
 20
-267.5416395020841
 30
0.0
 40
16.66666688145818
100
AcDbArc
 50
2.475830078125
 51
74.99928283691406
  0
ARC
  5
24E
330
1F
100
AcDbEntity
  8
0-0_通り芯
  6
Continuous
 62
     3
370
    13
100
AcDbCircle
 10
-74.26363479381799
 20
-258.0983461110369
 30
0.0
 40
16.66666688145818
100
AcDbArc
 50
62.19436645507812
 51
74.99995422363281
  0
ARC
  5
24F
330
1F
100
AcDbEntity
  8
0-0_通り芯
  6
JWW_DASHED1
 62
     3
370
    13
100
AcDbCircle
 10
-74.26363479381799
 20
-258.0983461110369
 30
0.0
 40
16.66666688145818
100
AcDbArc
 50
2.476226806640625
 51
62.19436645507812
  0
ARC
  5
250
330
1F
100
AcDbEntity
  8
0-0_通り芯
  6
Continuous
 62
     3
370
    13
100
AcDbCircle
 10
-119.7978821148696
 20
-257.9753685191872
 30
0.0
 40
5.000000064437453
100
AcDbArc
 50
5.444580078125001
 51
74.99987792968751
  0
ARC
  5
251
330
1F
100
AcDbEntity
  8
0-0_通り芯
  6
Continuous
 62
     3
370
    13
100
AcDbCircle
 10
445.2720278830189
 20
-258.0983461110369
 30
0.0
 40
16.66666688145818
100
AcDbArc
 50
106.1902618408203
 51
177.5237731933594
  0
ARC
  5
252
330
1F
100
AcDbEntity
  8
0-0_通り芯
  6
Continuous
 62
     3
370
    13
100
AcDbCircle
 10
408.1634776824278
 20
-272.8123551640352
 30
0.0
 40
5.000000064437453
100
AcDbArc
 50
97.76203918457033
 51
170.5385589599609
  0
ARC
  5
253
330
1F
100
AcDbEntity
  8
0-0_通り芯
  6
Continuous
 62
     3
370
    13
100
AcDbCircle
 10
421.8706540971236
 20
-259.1695131032244
 30
0.0
 40
6.666666752583272
100
AcDbArc
 50
277.7623138427734
 51
357.5239410400391
  0
ARC
  5
254
330
1F
100
AcDbEntity
  8
0-0_通り芯
  6
Continuous
 62
     3
370
    13
100
AcDbCircle
 10
461.5456501380867
 20
-267.5416395020841
 30
0.0
 40
16.66666688145818
100
AcDbArc
 50
105.000717163086
 51
177.524169921875
  0
ARC
  5
255
330
1F
100
AcDbEntity
  8
0-0_通り芯
  6
JWW_DASHED1
 62
     3
370
    13
100
AcDbCircle
 10
-37.15533203304922
 20
-272.8123551640352
 30
0.0
 40
5.000000064437453
100
AcDbArc
 50
9.461441040039062
 51
82.23796081542969
  0
ARC
  5
256
330
1F
100
AcDbEntity
  8
0-0_通り芯
  6
JWW_DASHED1
 62
     3
370
    13
100
AcDbCircle
 10
-50.86213728801148
 20
-259.1695131032244
 30
0.0
 40
6.666666752583272
100
AcDbArc
 50
182.476058959961
 51
262.2376861572266
  0
ARC
  5
257
330
1F
100
AcDbEntity
  8
0-0_通り芯
  6
Continuous
 62
     3
370
    13
100
AcDbCircle
 10
-19.13923854698517
 20
-248.3558979744236
 30
0.0
 40
5.000000064437453
100
AcDbArc
 50
4.23590087890625
 51
90.00000000000001
  0
ARC
  5
258
330
1F
100
AcDbEntity
  8
0-1_ピット
  6
JWW_DASHED1
 62
     2
370
    13
100
AcDbCircle
 10
501.3913796566678
 20
-206.8260930229877
 30
0.0
 40
6.666666752583272
100
AcDbArc
 50
284.9994964599609
 51
349.3851165771484
  0
ARC
  5
259
330
1F
100
AcDbEntity
  8
0-1_ピット
  6
Continuous
 62
     2
370
    13
100
AcDbCircle
 10
-5.261452374582305
 20
-228.83462804727
 30
0.0
 40
5.000000064437453
100
AcDbArc
 50
11.31021118164062
 51
90.00000000000001
  0
ARC
  5
25A
330
1F
100
AcDbEntity
  8
0-1_ピット
  6
Continuous
 62
     2
370
    13
100
AcDbCircle
 10
533.6991024184922
 20
-194.7183676218054
 30
0.0
 40
10.00000012887491
100
AcDbArc
 50
188.7071380615235
 51
285.0002746582031
  0
ARC
  5
25B
330
1F
100
AcDbEntity
  8
0-1_ピット
  6
Continuous
 62
     2
370
    13
100
AcDbCircle
 10
469.6931011779936
 20
-210.5010692687648
 30
0.0
 40
5.000000064437453
100
AcDbArc
 50
90.0
 51
169.911865234375
  0
ARC
  5
25C
330
1F
100
AcDbEntity
  8
0-1_ピット
  6
Continuous
 62
     2
370
    13
100
AcDbCircle
 10
504.2725689514313
 20
-200.5012837166111
 30
0.0
 40
5.000000064437453
100
AcDbArc
 50
270.0
 51
349.3843536376953
  0
ARC
  5
25D
330
1F
100
AcDbEntity
  8
0-1_ピット
  6
Continuous
 62
     2
370
    13
100
AcDbCircle
 10
456.3499087423939
 20
-218.8949703720166
 30
0.0
 40
6.666666752583272
100
AcDbArc
 50
284.9994964599609
 51
349.9125671386719
  0
ARC
  5
25E
330
1F
100
AcDbEntity
  8
0-1_ピット
  6
Continuous
 62
     2
370
    13
100
AcDbCircle
 10
408.0184779463638
 20
-232.1681373378104
 30
0.0
 40
3.333333376291636
100
AcDbArc
 50
90.0
 51
164.0540161132812
  0
ARC
  5
25F
330
1F
100
AcDbEntity
  8
0-0_通り芯
  6
Continuous
 62
     4
370
    13
100
AcDbCircle
 10
-187.7499299268416
 20
-331.210875143976
 30
0.0
 40
6.666666752583272
100
AcDbArc
 50
270.0
 51
0.0
  0
ARC
  5
260
330
1F
100
AcDbEntity
  8
0-0_通り芯
  6
JWW_CENTER1
 62
     4
370
    13
100
AcDbCircle
 10
-187.7499299268416
 20
-331.210875143976
 30
0.0
 40
6.666666752583272
100
AcDbArc
 50
270.0
 51
0.0
  0
ARC
  5
261
330
1F
100
AcDbEntity
  8
0-0_通り芯
  6
JWW_CENTER1
 62
     4
370
    13
100
AcDbCircle
 10
-187.7499299268416
 20
-331.210875143976
 30
0.0
 40
16.66666688145818
100
AcDbArc
 50
270.0
 51
0.0
  0
ARC
  5
262
330
1F
100
AcDbEntity
  8
0-0_通り芯
  6
Continuous
 62
     4
370
    13
100
AcDbCircle
 10
-187.7499299268416
 20
-331.210875143976
 30
0.0
 40
26.66666701033309
100
AcDbArc
 50
270.0
 51
0.0
  0
ARC
  5
263
330
1F
100
AcDbEntity
  8
0-1_ピット
  6
Continuous
 62
     4
370
    13
100
AcDbCircle
 10
-59.90779488408386
 20
-211.501963351324
 30
0.0
 40
9.333911457577267
100
AcDbArc
 50
47.92556762695313
 51
132.0746307373047
  0
ARC
  5
264
330
1F
100
AcDbEntity
  8
0-1_ピット
  6
Continuous
 62
     4
370
    13
100
AcDbCircle
 10
-41.16249624071408
 20
-235.7993167349812
 30
0.0
 40
33.63136729678592
100
AcDbArc
 50
68.19786071777344
 51
111.8021392822266
  0
ARC
  5
265
330
1F
100
AcDbEntity
  8
0-1_ピット
  6
Continuous
 62
     4
370
    13
100
AcDbCircle
 10
-22.41719759734401
 20
-211.501963351324
 30
0.0
 40
9.33396558503847
100
AcDbArc
 50
47.92572021484374
 51
132.0742797851562
  0
ARC
  5
266
330
1F
100
AcDbEntity
  8
0-2_本体（蓋）
  6
Continuous
 62
     6
370
    13
100
AcDbCircle
 10
-128.3805798027917
 20
-202.1680383618815
 30
0.0
 40
3.333333376291636
100
AcDbArc
 50
190.3048858642578
 51
270.0
  0
ARC
  5
267
330
1F
100
AcDbEntity
  8
0-2_本体（蓋）
  6
Continuous
 62
     6
370
    13
100
AcDbCircle
 10
499.3893440517269
 20
-202.1680383618815
 30
0.0
 40
3.333333376291636
100
AcDbArc
 50
270.0
 51
349.6962738037109
  0
ARC
  5
268
330
1F
100
AcDbEntity
  8
0-2_本体（蓋）
  6
Continuous
 62
     6
370
    13
100
AcDbCircle
 10
459.9046292343705
 20
-195.5012672206229
 30
0.0
 40
10.00000012887491
100
AcDbArc
 50
185.7992401123047
 51
270.0000000000001
  0
ARC
  5
269
330
1F
100
AcDbEntity
  8
0-2_本体（蓋）
  6
Continuous
 62
     6
370
    13
100
AcDbCircle
 10
-88.8961124252581
 20
-195.5012672206229
 30
0.0
 40
10.00000012887491
100
AcDbArc
 50
270.0
 51
354.2007598876953
  0
ARC
  5
26A
330
1F
100
AcDbEntity
  8
0-2_本体（蓋）
  6
Continuous
 62
     6
370
    13
100
AcDbCircle
 10
-101.2056250017992
 20
-202.1680383618815
 30
0.0
 40
3.333333376291636
100
AcDbArc
 50
270.0
 51
354.2015228271484
  0
ARC
  5
26B
330
1F
100
AcDbEntity
  8
0-2_本体（蓋）
  6
Continuous
 62
     6
370
    13
100
AcDbCircle
 10
-71.48377210642344
 20
24.49871628338872
 30
0.0
 40
3.333333376291636
100
AcDbArc
 50
90.0
 51
174.2015228271484
  0
ARC
  5
26C
330
1F
100
AcDbEntity
  8
0-2_本体（蓋）
  6
Continuous
 62
     6
370
    13
100
AcDbCircle
 10
442.4922889155358
 20
24.49871628338872
 30
0.0
 40
3.333333376291636
100
AcDbArc
 50
5.798583984374999
 51
89.99999999999999
  0
ARC
  5
26D
330
1F
100
AcDbEntity
  8
0-2_本体（蓋）
  6
Continuous
 62
     6
370
    13
100
AcDbCircle
 10
-65.83373119637294
 20
-17.90900515875659
 30
0.0
 40
5.000000064437453
100
AcDbArc
 50
280.1220397949219
 51
354.2021484375
  0
ARC
  5
26E
330
1F
100
AcDbEntity
  8
0-2_本体（蓋）
  6
JWW_DASHED1
 62
     6
370
    13
100
AcDbCircle
 10
436.8422480054853
 20
-17.90900515875659
 30
0.0
 40
5.000000064437453
100
AcDbArc
 50
185.7978515625
 51
259.8779602050781
  0
ARC
  5
26F
330
1F
100
AcDbEntity
  8
0-2_本体（蓋）
  6
Continuous
 62
     4
370
    13
100
AcDbCircle
 10
-95.4891464993711
 20
-3.385772209009978
 30
0.0
 40
6.666666752583272
100
AcDbArc
 50
180.3624267578125
 51
259.0242767333984
  0
ARC
  5
270
330
1F
100
AcDbEntity
  8
0-2_本体（蓋）
  6
Continuous
 62
     4
370
    13
100
AcDbCircle
 10
-2.157814679269805
 20
-2.795380792202415
 30
0.0
 40
99.9999896900074
100
AcDbArc
 50
167.6861877441406
 51
180.3625793457031
  0
ARC
  5
271
330
1F
100
AcDbEntity
  8
0-2_本体（蓋）
  6
Continuous
 62
     4
370
    13
100
AcDbCircle
 10
-93.3437195172133
 20
17.10942086003588
 30
0.0
 40
6.666666752583272
100
AcDbArc
 50
89.02424621582031
 51
167.6860961914062
  0
ARC
  5
272
330
1F
100
AcDbEntity
  8
0-2_本体（蓋）
  6
Continuous
 62
     4
370
    13
100
AcDbCircle
 10
-89.03603964495808
 20
-5.096818582531846
 30
0.0
 40
0.833333344072909
100
AcDbArc
 50
113.3555450439453
 51
174.0263671875
  0
ARC
  5
273
330
1F
100
AcDbEntity
  8
0-2_本体（蓋）
  6
Continuous
 62
     4
370
    13
100
AcDbCircle
 10
-86.67620605648672
 20
17.44692877811008
 30
0.0
 40
0.833333344072909
100
AcDbArc
 50
174.0263671875
 51
234.6971893310547
  0
ARC
  5
274
330
1F
100
AcDbEntity
  8
0-2_本体（蓋）
  6
Continuous
 62
     4
370
    13
100
AcDbCircle
 10
499.1028087371154
 20
-176.4053463485791
 30
0.0
 40
6.666666752583272
100
AcDbArc
 50
4.999984741210938
 51
83.66183471679688
  0
ARC
  5
275
330
1F
100
AcDbEntity
  8
0-2_本体（蓋）
  6
Continuous
 62
     4
370
    13
100
AcDbCircle
 10
488.7991670827657
 20
-269.1680614562649
 30
0.0
 40
99.9999896900074
100
AcDbArc
 50
83.66180419921876
 51
96.33819580078125
  0
ARC
  5
276
330
1F
100
AcDbEntity
  8
0-2_本体（蓋）
  6
Continuous
 62
     4
370
    13
100
AcDbCircle
 10
478.4952779885934
 20
-176.4053463485791
 30
0.0
 40
6.666666752583272
100
AcDbArc
 50
96.33816528320312
 51
175.0000152587891
  0
ARC
  5
277
330
1F
100
AcDbEntity
  8
0-2_本体（蓋）
  6
Continuous
 62
     4
370
    13
100
AcDbCircle
 10
500.132653278923
 20
-183.0013497005638
 30
0.0
 40
0.833333344072909
100
AcDbArc
 50
90.0
 51
150.6708221435547
  0
ARC
  5
278
330
1F
100
AcDbEntity
  8
0-2_本体（蓋）
  6
Continuous
 62
     4
370
    13
100
AcDbCircle
 10
477.4656808866085
 20
-183.0013497005638
 30
0.0
 40
0.833333344072909
100
AcDbArc
 50
29.32917785644531
 51
90.0
  0
TEXT
  5
279
330
1F
100
AcDbEntity
  8
0-4_寸法
  6
Continuous
 62
     2
370
    13
100
AcDbText
 10
130.5040728246892
 20
223.4719863821007
 30
0.0
 40
30.48
  1
φ235
 41
1.1
  7
ＭＳ ゴシック
100
AcDbText
  0
TEXT
  5
27A
330
1F
100
AcDbEntity
  8
0-4_寸法
  6
Continuous
 62
     2
370
    13
100
AcDbText
 10
153.0042584045563
 20
-616.0493907689762
 30
0.0
 40
30.48
  1
Rc5
 41
1.083333333333333
  7
ＭＳ ゴシック
100
AcDbText
  0
TEXT
  5
27B
330
1F
100
AcDbEntity
  8
0-4_寸法
  6
Continuous
 62
     2
370
    13
100
AcDbText
 10
130.5040728246892
 20
-696.0494072649642
 30
0.0
 40
30.48
  1
φ165
 41
1.1
  7
ＭＳ ゴシック
100
AcDbText
  0
TEXT
  5
27C
330
1F
100
AcDbEntity
  8
0-4_寸法
  6
Continuous
 62
     2
370
    13
100
AcDbText
 10
130.5040728246892
 20
143.4719698861127
 30
0.0
 40
30.48
  1
φ145
 41
1.1
  7
ＭＳ ゴシック
100
AcDbText
  0
TEXT
  5
27D
330
1F
100
AcDbEntity
  8
0-4_寸法
  6
Continuous
 62
     2
370
    13
100
AcDbText
 10
-354.7654808928465
 20
-110.0846610392463
 30
0.0
 40
30.48
  1
70
 50
90.0
 41
1.0625
  7
ＭＳ ゴシック
100
AcDbText
  0
LINE
  5
27E
330
1F
100
AcDbEntity
  8
0-5_文字
  6
Continuous
 62
     7
370
    13
100
AcDbLine
 10
-214.4165196122302
 20
-357.8774648293646
 30
0.0
 11
-223.9836566345062
 21
-380.9744876334187
 31
0.0
  0
LINE
  5
27F
330
1F
100
AcDbEntity
  8
0-5_文字
  6
Continuous
 62
     7
370
    13
100
AcDbLine
 10
-214.4165196122302
 20
-357.8774648293646
 30
0.0
 11
-229.6355533432268
 21
-377.7112512525065
 31
0.0
  0
LINE
  5
280
330
1F
100
AcDbEntity
  8
0-5_文字
  6
Continuous
 62
     7
370
    13
100
AcDbLine
 10
-236.1625209846963
 20
-225.0228175795757
 30
0.0
 11
-245.7296580069724
 21
-248.1198403836297
 31
0.0
  0
LINE
  5
281
330
1F
100
AcDbEntity
  8
0-5_文字
  6
Continuous
 62
     7
370
    13
100
AcDbLine
 10
-236.1625209846963
 20
-225.0228175795757
 30
0.0
 11
-251.3815547156929
 21
-244.8566040027177
 31
0.0
  0
LINE
  5
282
330
1F
100
AcDbEntity
  8
0-5_文字
  6
Continuous
 62
     7
370
    13
100
AcDbLine
 10
-89.49590655532553
 20
-531.6893412810116
 30
0.0
 11
-99.06304357760185
 21
-554.78630222511
 31
0.0
  0
LINE
  5
283
330
1F
100
AcDbEntity
  8
0-5_文字
  6
Continuous
 62
     7
370
    13
100
AcDbLine
 10
-89.49590655532553
 20
-531.6893412810116
 30
0.0
 11
-104.7149402863221
 21
-551.523189564109
 31
0.0
  0
LINE
  5
284
330
1F
100
AcDbEntity
  8
0-5_文字
  6
Continuous
 62
     7
370
    13
100
AcDbLine
 10
-214.4165196122302
 20
-357.8774648293646
 30
0.0
 11
-283.6985564708662
 21
-477.8774895733467
 31
0.0
  0
LINE
  5
285
330
1F
100
AcDbEntity
  8
0-5_文字
  6
Continuous
 62
     7
370
    13
100
AcDbLine
 10
-236.1625209846963
 20
-225.0228175795757
 30
0.0
 11
-312.8662678834505
 21
-357.8774648293646
 31
0.0
  0
LINE
  5
286
330
1F
100
AcDbEntity
  8
0-5_文字
  6
Continuous
 62
     7
370
    13
100
AcDbLine
 10
-89.49590655532553
 20
-531.6893412810116
 30
0.0
 11
-147.2309166508703
 21
-631.6893619009967
 31
0.0
  0
LINE
  5
287
330
1F
100
AcDbEntity
  8
0-5_文字
  6
Continuous
 62
     7
370
    13
100
AcDbLine
 10
-283.6985564708662
 20
-477.8774895733467
 30
0.0
 11
-599.3973760179522
 21
-477.8774895733467
 31
0.0
  0
LINE
  5
288
330
1F
100
AcDbEntity
  8
0-5_文字
  6
Continuous
 62
     7
370
    13
100
AcDbLine
 10
-312.8662678834505
 20
-357.8774648293646
 30
0.0
 11
-630.6039915690501
 21
-357.8774648293646
 31
0.0
  0
TEXT
  5
289
330
1F
100
AcDbEntity
  8
0-5_文字
  6
Continuous
 62
     7
370
    13
100
AcDbText
 10
-528.3603928372615
 20
-391.4169267962143
 30
0.0
 40
22.86
  1
酸洗・
 41
1.11111111111111
  7
ＭＳ ゴシック
100
AcDbText
  0
TEXT
  5
28A
330
1F
100
AcDbEntity
  8
0-5_文字
  6
Continuous
 62
     7
370
    13
100
AcDbText
 10
-599.3973595219641
 20
-460.8834919025803
 30
0.0
 40
22.86
  1
アンカー：ＳＷＲＭ
 41
1.148148148148148
  7
ＭＳ ゴシック
100
AcDbText
  0
TEXT
  5
28B
330
1F
100
AcDbEntity
  8
0-5_文字
  6
Continuous
 62
     7
370
    13
100
AcDbText
 10
-544.9138819037207
 20
-512.6428921414423
 30
0.0
 40
22.86
  1
りん酸塩被膜
 41
1.138888888888889
  7
ＭＳ ゴシック
100
AcDbText
  0
TEXT
  5
28C
330
1F
100
AcDbEntity
  8
0-5_文字
  6
Continuous
 62
     7
370
    13
100
AcDbText
 10
-610.5998222080386
 20
-341.0196209210031
 30
0.0
 40
22.86
  1
本体：ＳＣＳ１３
 41
1.145833333333333
  7
ＭＳ ゴシック
100
AcDbText
  0
LINE
  5
28D
330
1F
100
AcDbEntity
  8
0-1_ピット
  6
Continuous
 62
     2
370
    13
100
AcDbLine
 10
-197.8293498619136
 20
-172.1676919461298
 30
0.0
 11
-186.1623972647851
 21
-172.1676919461298
 31
0.0
  0
LINE
  5
28E
330
1F
100
AcDbEntity
  8
0-1_ピット
  6
Continuous
 62
     2
370
    13
100
AcDbLine
 10
-162.8291519100552
 20
-193.0608507299135
 30
0.0
 11
-182.829052934126
 21
-193.0608507299135
 31
0.0
  0
LINE
  5
28F
330
1F
100
AcDbEntity
  8
0-1_ピット
  6
Continuous
 62
     2
370
    13
100
AcDbLine
 10
-182.829052934126
 20
-192.1675929702006
 30
0.0
 11
-182.829052934126
 21
-193.0608507299135
 31
0.0
  0
LINE
  5
290
330
1F
100
AcDbEntity
  8
0-1_ピット
  6
Continuous
 62
     2
370
    13
100
AcDbLine
 10
-172.82901994215
 20
-198.8342816315183
 30
0.0
 11
-182.829052934126
 21
-193.0608507299135
 31
0.0
  0
LINE
  5
291
330
1F
100
AcDbEntity
  8
0-1_ピット
  6
Continuous
 62
     2
370
    13
100
AcDbLine
 10
-172.82901994215
 20
-198.8342816315183
 30
0.0
 11
-162.8291519100552
 21
-193.0608507299135
 31
0.0
  0
LINE
  5
292
330
1F
100
AcDbEntity
  8
0-1_ピット
  6
Continuous
 62
     2
370
    13
100
AcDbLine
 10
-162.8291519100552
 20
-192.1675929702006
 30
0.0
 11
-162.8291519100552
 21
-193.0608507299135
 31
0.0
  0
LINE
  5
293
330
1F
100
AcDbEntity
  8
0-1_ピット
  6
Continuous
 62
     2
370
    13
100
AcDbLine
 10
-159.4958075793965
 20
-172.1676919461298
 30
0.0
 11
-144.4958405713729
 21
-172.1676919461298
 31
0.0
  0
LINE
  5
294
330
1F
100
AcDbEntity
  8
0-0_通り芯
  6
Continuous
 62
     3
370
    13
100
AcDbLine
 10
-232.8291354140672
 20
-198.3559804543645
 30
0.0
 11
-204.3762275888497
 21
-198.3559804543645
 31
0.0
  0
LINE
  5
295
330
1F
100
AcDbEntity
  8
0-1_ピット
  6
JWW_DASHED1
 62
     2
370
    13
100
AcDbLine
 10
-132.1082607307901
 20
-213.2654669672445
 30
0.0
 11
-203.3326591776492
 21
-194.1815828605077
 31
0.0
  0
LINE
  5
296
330
1F
100
AcDbEntity
  8
0-1_ピット
  6
Continuous
 62
     2
370
    13
100
AcDbLine
 10
-138.5407702503981
 20
-207.5092528194453
 30
0.0
 11
-144.4958405713729
 21
-172.1676919461298
 31
0.0
  0
LINE
  5
297
330
1F
100
AcDbEntity
  8
0-1_ピット
  6
Continuous
 62
     2
370
    13
100
AcDbLine
 10
-133.6922548350954
 20
-212.8410321851977
 30
0.0
 11
-92.66412604434585
 21
-223.8346115512818
 31
0.0
  0
ARC
  5
298
330
1F
100
AcDbEntity
  8
0-1_ピット
  6
Continuous
 62
     2
370
    13
100
AcDbCircle
 10
-131.966776172431
 20
-206.40153159671
 30
0.0
 40
6.666666666666666
100
AcDbArc
 50
189.5645223006083
 51
254.999836623416
  0
LINE
  5
299
330
1F
100
AcDbEntity
  8
0-2_本体（蓋）
  6
Continuous
 62
     6
370
    13
100
AcDbLine
 10
-108.1780423468222
 20
-185.5012342286466
 30
0.0
 11
-134.4958075793963
 21
-185.5012342286466
 31
0.0
  0
LINE
  5
29A
330
1F
100
AcDbEntity
  8
0-4_寸法
  6
Continuous
 62
     7
370
    13
100
AcDbLine
 10
-231.1623312808322
 20
284.8551755934263
 30
0.0
 11
602.1714085529901
 21
284.8551755934263
 31
0.0
  0
LINE
  5
29B
330
1F
100
AcDbEntity
  8
0-4_寸法
  6
Continuous
 62
     7
370
    13
100
AcDbLine
 10
-231.1623312808322
 20
284.8551755934263
 30
0.0
 11
-206.3762097464869
 21
288.1183303989276
 31
0.0
  0
LINE
  5
29C
330
1F
100
AcDbEntity
  8
0-4_寸法
  6
Continuous
 62
     7
370
    13
100
AcDbLine
 10
-231.1623312808322
 20
284.8551755934263
 30
0.0
 11
-206.3762097464869
 21
281.592020787925
 31
0.0
  0
LINE
  5
29D
330
1F
100
AcDbEntity
  8
0-4_寸法
  6
Continuous
 62
     7
370
    13
100
AcDbLine
 10
602.1714085529901
 20
284.8551755934263
 30
0.0
 11
577.3852870186448
 21
288.1183303989276
 31
0.0
  0
LINE
  5
29E
330
1F
100
AcDbEntity
  8
0-4_寸法
  6
Continuous
 62
     7
370
    13
100
AcDbLine
 10
602.1714085529901
 20
284.8551755934263
 30
0.0
 11
577.3852870186448
 21
281.592020787925
 31
0.0
  0
LINE
  5
29F
330
1F
100
AcDbEntity
  8
0-4_寸法
  6
Continuous
 62
     7
370
    13
100
AcDbLine
 10
-231.1623312808322
 20
287.8551755934263
 30
0.0
 11
-231.1623312808322
 21
-131.8931581430761
 31
0.0
  0
LINE
  5
2A0
330
1F
100
AcDbEntity
  8
0-4_寸法
  6
Continuous
 62
     7
370
    13
100
AcDbLine
 10
602.1714085529901
 20
287.8551755934263
 30
0.0
 11
602.1714085529901
 21
-131.8931581430761
 31
0.0
  0
LINE
  5
2A1
330
1F
100
AcDbEntity
  8
0-4_寸法
  6
Continuous
 62
     7
370
    13
100
AcDbLine
 10
-297.82901994215
 20
359.3795474701319
 30
0.0
 11
668.8377017111441
 21
359.3795474701319
 31
0.0
  0
LINE
  5
2A2
330
1F
100
AcDbEntity
  8
0-4_寸法
  6
Continuous
 62
     7
370
    13
100
AcDbLine
 10
-297.82901994215
 20
359.3795474701319
 30
0.0
 11
-273.0428984078047
 21
362.6427022756332
 31
0.0
  0
LINE
  5
2A3
330
1F
100
AcDbEntity
  8
0-4_寸法
  6
Continuous
 62
     7
370
    13
100
AcDbLine
 10
-297.82901994215
 20
359.3795474701319
 30
0.0
 11
-273.0428984078047
 21
356.1163926646306
 31
0.0
  0
LINE
  5
2A4
330
1F
100
AcDbEntity
  8
0-4_寸法
  6
Continuous
 62
     7
370
    13
100
AcDbLine
 10
668.8377017111441
 20
359.3795474701319
 30
0.0
 11
644.0515801767988
 21
362.6427022756332
 31
0.0
  0
LINE
  5
2A5
330
1F
100
AcDbEntity
  8
0-4_寸法
  6
Continuous
 62
     7
370
    13
100
AcDbLine
 10
668.8377017111441
 20
359.3795474701319
 30
0.0
 11
644.0515801767988
 21
356.1163926646306
 31
0.0
  0
TEXT
  5
2A6
330
1F
100
AcDbEntity
  8
0-4_寸法
  6
Continuous
 62
     2
370
   211
100
AcDbText
 10
130.504340884497
 20
371.0195474701319
 30
0.0
 40
30.48
  1
φ290
 41
1.1
  7
ＭＳ ゴシック
100
AcDbText
  0
TEXT
  5
2A7
330
1F
100
AcDbEntity
  8
0-4_寸法
  6
Continuous
 62
     2
370
   211
100
AcDbText
 10
130.5045386360789
 20
296.4951755934263
 30
0.0
 40
30.48
  1
φ250
 41
1.1
  7
ＭＳ ゴシック
100
AcDbText
  0
LINE
  5
2A8
330
1F
100
AcDbEntity
  8
0-4_寸法
  6
Continuous
 62
     7
370
    13
100
AcDbLine
 10
-239.1254891408406
 20
-782.5123164961525
 30
0.0
 11
610.1337585101305
 21
-782.5123164961525
 31
0.0
  0
LINE
  5
2A9
330
1F
100
AcDbEntity
  8
0-4_寸法
  6
Continuous
 62
     7
370
    13
100
AcDbLine
 10
-239.1254891408406
 20
-782.5123164961525
 30
0.0
 11
-214.3393676064953
 21
-779.2491616906512
 31
0.0
  0
LINE
  5
2AA
330
1F
100
AcDbEntity
  8
0-4_寸法
  6
Continuous
 62
     7
370
    13
100
AcDbLine
 10
-239.1254891408406
 20
-782.5123164961525
 30
0.0
 11
-214.3393676064953
 21
-785.7754713016539
 31
0.0
  0
LINE
  5
2AB
330
1F
100
AcDbEntity
  8
0-4_寸法
  6
Continuous
 62
     7
370
    13
100
AcDbLine
 10
610.1337585101305
 20
-782.5123164961525
 30
0.0
 11
585.3476369757852
 21
-779.2491616906512
 31
0.0
  0
LINE
  5
2AC
330
1F
100
AcDbEntity
  8
0-4_寸法
  6
Continuous
 62
     7
370
    13
100
AcDbLine
 10
610.1337585101305
 20
-782.5123164961525
 30
0.0
 11
585.3476369757852
 21
-785.7754713016539
 31
0.0
  0
LINE
  5
2AD
330
1F
100
AcDbEntity
  8
0-4_寸法
  6
Continuous
 62
     7
370
    13
100
AcDbLine
 10
610.1337585101305
 20
-785.5123164961525
 30
0.0
 11
610.1337585101305
 21
-243.6056868156934
 31
0.0
  0
LINE
  5
2AE
330
1F
100
AcDbEntity
  8
0-4_寸法
  6
Continuous
 62
     7
370
    13
100
AcDbLine
 10
-239.1254891408406
 20
-556.8919121681827
 30
0.0
 11
-239.1254891408406
 21
-243.6056868156934
 31
0.0
  0
LINE
  5
2AF
330
1F
100
AcDbEntity
  8
0-4_寸法
  6
Continuous
 62
     7
370
    13
100
AcDbLine
 10
783.2724279223522
 20
-331.6894237609523
 30
0.0
 11
783.2724279223522
 21
-198.3559804543645
 31
0.0
  0
LINE
  5
2B0
330
1F
100
AcDbEntity
  8
0-4_寸法
  6
Continuous
 62
     7
370
    13
100
AcDbLine
 10
783.2724279223522
 20
-331.6894237609523
 30
0.0
 11
780.0091915414403
 21
-306.9032530076796
 31
0.0
  0
LINE
  5
2B1
330
1F
100
AcDbEntity
  8
0-4_寸法
  6
Continuous
 62
     7
370
    13
100
AcDbLine
 10
783.2724279223522
 20
-331.6894237609523
 30
0.0
 11
786.5356643032646
 21
-306.9032530076796
 31
0.0
  0
LINE
  5
2B2
330
1F
100
AcDbEntity
  8
0-4_寸法
  6
Continuous
 62
     7
370
    13
100
AcDbLine
 10
783.2724279223522
 20
-198.3559804543645
 30
0.0
 11
780.0091915414403
 21
-223.1421512076375
 31
0.0
  0
LINE
  5
2B3
330
1F
100
AcDbEntity
  8
0-4_寸法
  6
Continuous
 62
     7
370
    13
100
AcDbLine
 10
783.2724279223522
 20
-198.3559804543645
 30
0.0
 11
786.5356643032646
 21
-223.1421512076375
 31
0.0
  0
LINE
  5
2B4
330
1F
100
AcDbEntity
  8
0-4_寸法
  6
Continuous
 62
     7
370
    13
100
AcDbLine
 10
863.2724444183407
 20
-531.6893412810116
 30
0.0
 11
863.2724444183407
 21
-198.3559804543645
 31
0.0
  0
LINE
  5
2B5
330
1F
100
AcDbEntity
  8
0-4_寸法
  6
Continuous
 62
     7
370
    13
100
AcDbLine
 10
863.2724444183407
 20
-531.6893412810116
 30
0.0
 11
860.0092080374283
 21
-506.9032323876944
 31
0.0
  0
LINE
  5
2B6
330
1F
100
AcDbEntity
  8
0-4_寸法
  6
Continuous
 62
     7
370
    13
100
AcDbLine
 10
863.2724444183407
 20
-531.6893412810116
 30
0.0
 11
866.5356807992526
 21
-506.9032323876944
 31
0.0
  0
LINE
  5
2B7
330
1F
100
AcDbEntity
  8
0-4_寸法
  6
Continuous
 62
     7
370
    13
100
AcDbLine
 10
863.2724444183407
 20
-198.3559804543645
 30
0.0
 11
860.0092080374283
 21
-223.1421512076375
 31
0.0
  0
LINE
  5
2B8
330
1F
100
AcDbEntity
  8
0-4_寸法
  6
Continuous
 62
     7
370
    13
100
AcDbLine
 10
863.2724444183407
 20
-198.3559804543645
 30
0.0
 11
866.5356807992526
 21
-223.1421512076375
 31
0.0
  0
LINE
  5
2B9
330
1F
100
AcDbEntity
  8
0-4_寸法
  6
Continuous
 62
     7
370
    13
100
AcDbLine
 10
863.2724444183407
 20
-198.3559804543645
 30
0.0
 11
863.2724444183407
 21
27.8319781341067
 31
0.0
  0
LINE
  5
2BA
330
1F
100
AcDbEntity
  8
0-4_寸法
  6
Continuous
 62
     7
370
    13
100
AcDbLine
 10
863.2724444183407
 20
-198.3559804543645
 30
0.0
 11
860.0092080374283
 21
-173.5698097010917
 31
0.0
  0
LINE
  5
2BB
330
1F
100
AcDbEntity
  8
0-4_寸法
  6
Continuous
 62
     7
370
    13
100
AcDbLine
 10
863.2724444183407
 20
-198.3559804543645
 30
0.0
 11
866.5356807992526
 21
-173.5698097010917
 31
0.0
  0
LINE
  5
2BC
330
1F
100
AcDbEntity
  8
0-4_寸法
  6
Continuous
 62
     7
370
    13
100
AcDbLine
 10
863.2724444183407
 20
27.8319781341067
 30
0.0
 11
860.0092080374283
 21
3.045807380833772
 31
0.0
  0
LINE
  5
2BD
330
1F
100
AcDbEntity
  8
0-4_寸法
  6
Continuous
 62
     7
370
    13
100
AcDbLine
 10
863.2724444183407
 20
27.8319781341067
 30
0.0
 11
866.5356807992526
 21
3.045807380833772
 31
0.0
  0
TEXT
  5
2BE
330
1F
100
AcDbEntity
  8
0-4_寸法
  6
Continuous
 62
     2
370
    13
100
AcDbText
 10
767.6323949303761
 20
-286.2727021076585
 30
0.0
 40
30.48
  1
40
 50
90.0
 41
1.0625
  7
ＭＳ ゴシック
100
AcDbText
  0
TEXT
  5
2BF
330
1F
100
AcDbEntity
  8
0-4_寸法
  6
Continuous
 62
     2
370
    13
100
AcDbText
 10
847.6324114263642
 20
-106.5118774402177
 30
0.0
 40
30.48
  1
68
 50
90.0
 41
1.0625
  7
ＭＳ ゴシック
100
AcDbText
  0
TEXT
  5
2C0
330
1F
100
AcDbEntity
  8
0-4_寸法
  6
Continuous
 62
     2
370
    13
100
AcDbText
 10
847.6324114263642
 20
-417.2430895338168
 30
0.0
 40
30.48
  1
120
 50
90.0
 41
1.083333333333333
  7
ＭＳ ゴシック
100
AcDbText
  0
LINE
  5
2C1
330
1F
100
AcDbEntity
  8
0-4_寸法
  6
Continuous
 62
     7
370
    13
100
AcDbLine
 10
470.6328776243619
 20
27.8319781341067
 30
0.0
 11
866.5356807992526
 21
27.8319781341067
 31
0.0
  0
LINE
  5
2C2
330
1F
100
AcDbEntity
  8
0-4_寸法
  6
Continuous
 62
     7
370
    13
100
AcDbLine
 10
628.8374872632978
 20
-198.3559804543645
 30
0.0
 11
866.5356807992526
 21
-198.3559804543645
 31
0.0
  0
LINE
  5
2C3
330
1F
100
AcDbEntity
  8
0-4_寸法
  6
Continuous
 62
     7
370
    13
100
AcDbLine
 10
485.5042584045563
 20
-331.6894237609523
 30
0.0
 11
786.5356643032646
 21
-331.6894237609523
 31
0.0
  0
LINE
  5
2C4
330
1F
100
AcDbEntity
  8
0-4_寸法
  6
Continuous
 62
     7
370
    13
100
AcDbLine
 10
485.5042584045563
 20
-531.6893412810116
 30
0.0
 11
866.5356807992526
 21
-531.6893412810116
 31
0.0
  0
LINE
  5
2C5
330
1F
100
AcDbEntity
  8
0-4_寸法
  6
Continuous
 62
     7
370
    13
100
AcDbLine
 10
783.2724279223522
 20
-172.1676919461298
 30
0.0
 11
783.2724279223522
 21
-72.16786786037883
 31
0.0
  0
LINE
  5
2C6
330
1F
100
AcDbEntity
  8
0-4_寸法
  6
Continuous
 62
     7
370
    13
100
AcDbLine
 10
783.2724279223522
 20
-172.1676919461298
 30
0.0
 11
780.0092731168509
 21
-147.3815704117845
 31
0.0
  0
LINE
  5
2C7
330
1F
100
AcDbEntity
  8
0-4_寸法
  6
Continuous
 62
     7
370
    13
100
AcDbLine
 10
783.2724279223522
 20
-172.1676919461298
 30
0.0
 11
786.5355827278536
 21
-147.3815704117845
 31
0.0
  0
LINE
  5
2C8
330
1F
100
AcDbEntity
  8
0-4_寸法
  6
Continuous
 62
     7
370
    13
100
AcDbLine
 10
783.2724279223522
 20
-72.16786786037883
 30
0.0
 11
780.0092731168509
 21
-96.95398939472409
 31
0.0
  0
LINE
  5
2C9
330
1F
100
AcDbEntity
  8
0-4_寸法
  6
Continuous
 62
     7
370
    13
100
AcDbLine
 10
783.2724279223522
 20
-72.16786786037883
 30
0.0
 11
786.5355827278536
 21
-96.95398939472409
 31
0.0
  0
LINE
  5
2CA
330
1F
100
AcDbEntity
  8
0-4_寸法
  6
Continuous
 62
     7
370
    13
100
AcDbLine
 10
786.2724279223522
 20
-72.16786786037883
 30
0.0
 11
686.6488987663752
 21
-72.16786786037883
 31
0.0
  0
TEXT
  5
2CB
330
1F
100
AcDbEntity
  8
0-4_寸法
  6
Continuous
 62
     2
370
   211
100
AcDbText
 10
771.6324279223523
 20
-143.4177799032543
 30
0.0
 40
30.48
  1
30
 50
90.0
 41
1.0625
  7
ＭＳ ゴシック
100
AcDbText
  0
LINE
  5
2CC
330
1F
100
AcDbEntity
  8
0-4_寸法
  6
Continuous
 62
     7
370
    13
100
AcDbLine
 10
786.2724279223522
 20
-172.1676919461298
 30
0.0
 11
602.3115724290985
 21
-172.1676919461298
 31
0.0
  0
TEXT
  5
2CD
330
1F
100
AcDbEntity
  8
0-5_文字
  6
Continuous
 62
     7
370
    13
100
AcDbText
 10
714.556990988193
 20
121.4838131199453
 30
0.0
 40
22.86
  1
断熱材押え：ＳＣＳ１３
  7
ＭＳ ゴシック
100
AcDbText
  0
TEXT
  5
2CE
330
1F
100
AcDbEntity
  8
0-5_文字
  6
Continuous
 62
     7
370
    13
100
AcDbText
 10
828.1847422169113
 20
71.87584027894003
 30
0.0
 40
22.86
  1
酸洗・
 41
1.111111111111111
  7
ＭＳ ゴシック
100
AcDbText
  0
TEXT
  5
2CF
330
1F
100
AcDbEntity
  8
0-5_文字
  6
Continuous
 62
     7
370
    13
100
AcDbText
 10
765.8522042815343
 20
211.7311335332566
 30
0.0
 40
22.86
  1
酸洗・
 41
1.111111111111111
  7
ＭＳ ゴシック
100
AcDbText
  0
TEXT
  5
2D0
330
1F
100
AcDbEntity
  8
0-5_文字
  6
Continuous
 62
     7
370
    13
100
AcDbText
 10
654.1080706110921
 20
261.3391063742619
 30
0.0
 40
22.86
  1
防水層押え：ＳＣＳ１３
  7
ＭＳ ゴシック
100
AcDbText
  0
LINE
  5
2D1
330
1F
100
AcDbEntity
  8
0-4_寸法
  6
Continuous
 62
     7
370
    13
100
AcDbLine
 10
668.8377017111441
 20
362.3795474701319
 30
0.0
 11
668.8377017111441
 21
315.5734705810133
 31
0.0
  0
LINE
  5
2D2
330
1F
100
AcDbEntity
  8
0-4_寸法
  6
Continuous
 62
     7
370
    13
100
AcDbLine
 10
668.8377017111441
 20
210.074284415346
 30
0.0
 11
668.8377017111441
 21
-76.67762879824008
 31
0.0
  0
TEXT
  5
2D3
330
1F
100
AcDbEntity
  8
0-5_文字
  6
Continuous
 62
     7
370
    13
100
AcDbText
 10
649.1031516433502
 20
410.6638529329311
 30
0.0
 40
22.86
  1
丸小ネジ：ＳＵＳ３０４
  7
ＭＳ ゴシック
100
AcDbText
  0
TEXT
  5
2D4
330
1F
100
AcDbEntity
  8
0-5_文字
  6
Continuous
 62
     7
370
    13
100
AcDbText
 10
721.266273460796
 20
356.3657819737884
 30
0.0
 40
22.86
  1
Ｍ６×１２
 41
1.133333333333333
  7
ＭＳ ゴシック
100
AcDbText
  0
TEXT
  5
2D5
330
1F
100
AcDbEntity
  8
0-5_文字
  6
Continuous
 62
     7
370
    13
100
AcDbText
 10
-586.3415994582815
 20
427.1651761018848
 30
0.0
 40
22.86
  1
ボルト：ＳＵＳ３０４
 41
1.15
  7
ＭＳ ゴシック
100
AcDbText
  0
TEXT
  5
2D6
330
1F
100
AcDbEntity
  8
0-5_文字
  6
Continuous
 62
     7
370
    13
100
AcDbText
 10
-510.4877258703382
 20
374.3383823281306
 30
0.0
 40
22.86
  1
Ｍ８×４０
 41
1.133333333333333
  7
ＭＳ ゴシック
100
AcDbText
  0
TEXT
  5
2D7
330
1F
100
AcDbEntity
  8
0-5_文字
  6
Continuous
 62
     7
370
    13
100
AcDbText
 10
-617.5820824905155
 20
142.5296640304196
 30
0.0
 40
22.86
  1
ボルト：ＳＵＳ３０４
 41
1.15
  7
ＭＳ ゴシック
100
AcDbText
  0
TEXT
  5
2D8
330
1F
100
AcDbEntity
  8
0-5_文字
  6
Continuous
 62
     7
370
    13
100
AcDbText
 10
-541.7282089025722
 20
89.70287025666542
 30
0.0
 40
22.86
  1
Ｍ８×５０
 41
1.133333333333333
  7
ＭＳ ゴシック
100
AcDbText
  0
TEXT
  5
2D9
330
1F
100
AcDbEntity
  8
0-5_文字
  6
Continuous
 62
     7
370
    13
100
AcDbText
 10
-568.4062280252455
 20
573.7189311975335
 30
0.0
 40
22.86
  1
丸小ネジ：ＳＵＳ３０４
  7
ＭＳ ゴシック
100
AcDbText
  0
TEXT
  5
2DA
330
1F
100
AcDbEntity
  8
0-5_文字
  6
Continuous
 62
     7
370
    13
100
AcDbText
 10
-500.2490255145891
 20
519.4208602383908
 30
0.0
 40
22.86
  1
Ｍ６×１２
 41
1.133333333333333
  7
ＭＳ ゴシック
100
AcDbText
  0
LINE
  5
2DB
330
1F
100
AcDbEntity
  8
0-4_寸法
  6
Continuous
 62
     7
370
    13
100
AcDbLine
 10
-297.82901994215
 20
362.3795474701319
 30
0.0
 11
-297.82901994215
 21
182.112180850602
 31
0.0
  0
LINE
  5
2DC
330
1F
100
AcDbEntity
  8
0-4_寸法
  6
Continuous
 62
     7
370
    13
100
AcDbLine
 10
-297.82901994215
 20
87.36980093585325
 30
0.0
 11
-297.82901994215
 21
-76.67762879824008
 31
0.0
  0
LINE
  5
2DD
330
1F
100
AcDbEntity
  8
0-5_文字
  6
Continuous
 62
     7
370
    13
100
AcDbLine
 10
427.1708150979684
 20
27.8319781341067
 30
0.0
 11
618.3724514471669
 21
553.1541565663035
 31
0.0
  0
LINE
  5
2DE
330
1F
100
AcDbEntity
  8
0-5_文字
  6
Continuous
 62
     7
370
    13
100
AcDbLine
 10
427.1708150979684
 20
27.8319781341067
 30
0.0
 11
432.581805446421
 21
52.23937831210503
 31
0.0
  0
LINE
  5
2DF
330
1F
100
AcDbEntity
  8
0-5_文字
  6
Continuous
 62
     7
370
    13
100
AcDbLine
 10
427.1708150979684
 20
27.8319781341067
 30
0.0
 11
438.7145304288442
 21
50.00724896356224
 31
0.0
  0
TEXT
  5
2E0
330
1F
100
AcDbEntity
  8
0-5_文字
  6
Continuous
 62
     7
370
    13
100
AcDbText
 10
618.2293448159112
 20
569.2707944859616
 30
0.0
 40
22.86
  1
ストレーナー：ＳＣＳ１３
  7
ＭＳ ゴシック
100
AcDbText
  0
TEXT
  5
2E1
330
1F
100
AcDbEntity
  8
0-5_文字
  6
Continuous
 62
     7
370
    13
100
AcDbText
 10
742.3006537082533
 20
519.6268191507631
 30
0.0
 40
22.86
  1
酸洗・
 41
1.111111111111111
  7
ＭＳ ゴシック
100
AcDbText
  0
LINE
  5
2E2
330
1F
100
AcDbEntity
  8
0-0_通り芯
  6
JWW_CENTER1
 62
     3
370
    13
100
AcDbLine
 10
161.3538833213149
 20
1370.672546857773
 30
0.0
 11
161.3538833213149
 21
813.0634388297915
 31
0.0
  0
LINE
  5
2E3
330
1F
100
AcDbEntity
  8
0-0_通り芯
  6
JWW_CENTER1
 62
     3
370
    13
100
AcDbLine
 10
-398.2359426681367
 20
829.06388752067
 30
0.0
 11
727.0121278941565
 21
829.06388752067
 31
0.0
  0
LINE
  5
2E4
330
1F
100
AcDbEntity
  8
0-2_本体（蓋）
  6
JWW_CENTER1
 62
     6
370
    13
100
AcDbLine
 10
-141.9792960494622
 20
850.96330158317
 30
0.0
 11
-141.9792960494622
 21
829.06388752067
 31
0.0
  0
LINE
  5
2E5
330
1F
100
AcDbEntity
  8
0-1_ピット
  6
JWW_CENTER1
 62
     4
370
    13
100
AcDbLine
 10
-65.31254140419207
 20
829.06388752067
 30
0.0
 11
-65.31254140419207
 21
860.7144101135755
 31
0.0
  0
LINE
  5
2E6
330
1F
100
AcDbEntity
  8
0-2_本体（蓋）
  6
JWW_CENTER1
 62
     6
370
    13
100
AcDbLine
 10
464.6873926118554
 20
850.96330158317
 30
0.0
 11
464.6873926118554
 21
829.06388752067
 31
0.0
  0
TEXT
  5
2E7
330
1F
100
AcDbEntity
  8
0-4_寸法
  6
Continuous
 62
     2
370
   211
100
AcDbText
 10
130.504134684645
 20
-770.8723164961526
 30
0.0
 40
30.48
  1
φ255
 41
1.1
  7
ＭＳ ゴシック
100
AcDbText
  0
LINE
  5
2E8
330
1F
100
AcDbEntity
  8
0-A
  6
Continuous
 62
     2
370
    13
100
AcDbLine
 10
-209.4793950253913
 20
850.7145420814807
 30
0.0
 11
-221.9793950253913
 21
829.06388752067
 31
0.0
  0
LINE
  5
2E9
330
1F
100
AcDbEntity
  8
0-A
  6
Continuous
 62
     2
370
    13
100
AcDbLine
 10
-171.9701572720129
 20
829.0797236693186
 30
0.0
 11
-184.4609195186344
 21
850.7145420814807
 31
0.0
  0
LINE
  5
2EA
330
1F
100
AcDbEntity
  8
0-A
  6
Continuous
 62
     2
370
    13
100
AcDbLine
 10
-209.4793950253913
 20
850.7145420814807
 30
0.0
 11
-184.4609195186344
 21
850.7145420814807
 31
0.0
  0
LINE
  5
2EB
330
1F
100
AcDbEntity
  8
0-A
  6
Continuous
 62
     2
370
    13
100
AcDbLine
 10
365.5207699344905
 20
1139.389716279116
 30
0.0
 11
353.0207699344905
 21
1161.040370839927
 31
0.0
  0
LINE
  5
2EC
330
1F
100
AcDbEntity
  8
0-A
  6
Continuous
 62
     2
370
    13
100
AcDbLine
 10
328.0296777681054
 20
1117.723225569657
 30
0.0
 11
353.0112022613486
 21
1117.723225569657
 31
0.0
  0
LINE
  5
2ED
330
1F
100
AcDbEntity
  8
0-A
  6
Continuous
 62
     2
370
    13
100
AcDbLine
 10
365.5207699344905
 20
1139.389716279116
 30
0.0
 11
353.0112022613486
 21
1117.723225569657
 31
0.0
  0
LINE
  5
2EE
330
1F
100
AcDbEntity
  8
0-A
  6
Continuous
 62
     2
370
    13
100
AcDbLine
 10
328.020440014727
 20
1161.040370839927
 30
0.0
 11
353.020440014727
 21
1161.040370839927
 31
0.0
  0
LINE
  5
2EF
330
1F
100
AcDbEntity
  8
0-A
  6
Continuous
 62
     2
370
    13
100
AcDbLine
 10
328.0019645079705
 20
1117.739061718305
 30
0.0
 11
315.5112022613486
 21
1139.373880130467
 31
0.0
  0
LINE
  5
2F0
330
1F
100
AcDbEntity
  8
0-A
  6
Continuous
 62
     2
370
    13
100
AcDbLine
 10
328.020440014727
 20
1161.040370839927
 30
0.0
 11
315.5112022613486
 21
1139.373880130467
 31
0.0
  0
LINE
  5
2F1
330
1F
100
AcDbEntity
  8
0-A
  6
Continuous
 62
     2
370
    13
100
AcDbLine
 10
331.8689540561121
 20
1132.470309078947
 30
0.0
 11
350.8386806186121
 21
1143.422325548541
 31
0.0
  0
LINE
  5
2F2
330
1F
100
AcDbEntity
  8
0-A
  6
Continuous
 62
     2
370
    13
100
AcDbLine
 10
330.2025293306054
 20
1135.356777089926
 30
0.0
 11
349.1722558931054
 21
1146.309123479285
 31
0.0
  0
LINE
  5
2F3
330
1F
100
AcDbEntity
  8
0-A
  6
JWW_CENTER1
 62
     2
370
    13
100
AcDbLine
 10
320.5639234395583
 20
1150.911504180298
 30
0.0
 11
360.4772865096593
 21
1127.86759845817
 31
0.0
  0
LINE
  5
2F4
330
1F
100
AcDbEntity
  8
0-A
  6
Continuous
 62
     2
370
    13
100
AcDbLine
 10
-193.6460506947323
 20
829.06388752067
 30
0.0
 11
-205.6308809840059
 21
835.9832947208388
 31
0.0
  0
LINE
  5
2F5
330
1F
100
AcDbEntity
  8
0-A
  6
Continuous
 62
     2
370
    13
100
AcDbLine
 10
-200.3124094362865
 20
829.06388752067
 30
0.0
 11
-207.2976356292764
 21
833.0968267098592
 31
0.0
  0
LINE
  5
2F6
330
1F
100
AcDbEntity
  8
0-A
  6
Continuous
 62
     4
370
    13
100
AcDbLine
 10
264.3342135050142
 20
1284.226471980129
 30
0.0
 11
266.9244135683586
 21
1293.893121051076
 31
0.0
  0
LINE
  5
2F7
330
1F
100
AcDbEntity
  8
0-A
  6
Continuous
 62
     4
370
    13
100
AcDbLine
 10
267.4816480489333
 20
1276.654153567967
 30
0.0
 11
273.5231387583926
 21
1299.201530046008
 31
0.0
  0
LINE
  5
2F8
330
1F
100
AcDbEntity
  8
0-A
  6
Continuous
 62
     4
370
    13
100
AcDbLine
 10
299.751594997835
 20
1274.736329982663
 30
0.0
 11
302.3416301012978
 21
1284.402979053609
 31
0.0
  0
LINE
  5
2F9
330
1F
100
AcDbEntity
  8
0-A
  6
Continuous
 62
     4
370
    13
100
AcDbLine
 10
293.2396387056055
 20
1269.752232115264
 30
0.0
 11
299.2811294150649
 21
1292.299608593305
 31
0.0
  0
LINE
  5
2FA
330
1F
100
AcDbEntity
  8
0-A
  6
Continuous
 62
     4
370
    13
100
AcDbLine
 10
302.3416301012978
 20
1284.402979053609
 30
0.0
 11
299.2811294150649
 21
1292.299608593305
 31
0.0
  0
LINE
  5
2FB
330
1F
100
AcDbEntity
  8
0-A
  6
Continuous
 62
     4
370
    13
100
AcDbLine
 10
299.751594997835
 20
1274.736329982663
 30
0.0
 11
293.2396387056055
 21
1269.752232115264
 31
0.0
  0
LINE
  5
2FC
330
1F
100
AcDbEntity
  8
0-A
  6
Continuous
 62
     4
370
    13
100
AcDbLine
 10
266.9244135683586
 20
1293.893121051076
 30
0.0
 11
273.5231387583926
 21
1299.201530046008
 31
0.0
  0
LINE
  5
2FD
330
1F
100
AcDbEntity
  8
0-A
  6
Continuous
 62
     4
370
    13
100
AcDbLine
 10
264.3342135050142
 20
1284.226471980129
 30
0.0
 11
267.4816480489333
 21
1276.654153567967
 31
0.0
  0
LINE
  5
2FE
330
1F
100
AcDbEntity
  8
0-A
  6
Continuous
 62
     4
370
    13
100
AcDbLine
 10
22.95633660467635
 20
1274.736329982663
 30
0.0
 11
20.36613654133191
 21
1284.402979053609
 31
0.0
  0
LINE
  5
2FF
330
1F
100
AcDbEntity
  8
0-A
  6
Continuous
 62
     4
370
    13
100
AcDbLine
 10
29.46812793702426
 20
1269.752232115264
 30
0.0
 11
23.42647226768293
 21
1292.299608593305
 31
0.0
  0
LINE
  5
300
330
1F
100
AcDbEntity
  8
0-A
  6
Continuous
 62
     4
370
    13
100
AcDbLine
 10
58.37355313761559
 20
1284.226471980129
 30
0.0
 11
55.78351803415273
 21
1293.893121051076
 31
0.0
  0
LINE
  5
301
330
1F
100
AcDbEntity
  8
0-A
  6
Continuous
 62
     4
370
    13
100
AcDbLine
 10
55.22628355357844
 20
1276.654153567967
 30
0.0
 11
49.1846278842371
 21
1299.201200126244
 31
0.0
  0
LINE
  5
302
330
1F
100
AcDbEntity
  8
0-A
  6
Continuous
 62
     4
370
    13
100
AcDbLine
 10
55.78351803415273
 20
1293.893121051076
 30
0.0
 11
49.1846278842371
 21
1299.201200126244
 31
0.0
  0
LINE
  5
303
330
1F
100
AcDbEntity
  8
0-A
  6
Continuous
 62
     4
370
    13
100
AcDbLine
 10
58.37371809749717
 20
1284.226471980129
 30
0.0
 11
55.22611859369647
 21
1276.654153567967
 31
0.0
  0
LINE
  5
304
330
1F
100
AcDbEntity
  8
0-A
  6
Continuous
 62
     4
370
    13
100
AcDbLine
 10
20.36613654133191
 20
1284.402979053609
 30
0.0
 11
23.42647226768293
 21
1292.299608593305
 31
0.0
  0
LINE
  5
305
330
1F
100
AcDbEntity
  8
0-A
  6
Continuous
 62
     4
370
    13
100
AcDbLine
 10
22.95633660467635
 20
1274.736329982663
 30
0.0
 11
29.46812793702426
 21
1269.752232115264
 31
0.0
  0
LINE
  5
306
330
1F
100
AcDbEntity
  8
0-A
  6
Continuous
 62
     4
370
    13
100
AcDbLine
 10
-181.3382289569792
 20
1145.828760303609
 30
0.0
 11
-188.4145130046986
 21
1152.90520931121
 31
0.0
  0
LINE
  5
307
330
1F
100
AcDbEntity
  8
0-A
  6
Continuous
 62
     4
370
    13
100
AcDbLine
 10
-173.2066965456615
 20
1144.768068263913
 30
0.0
 11
-189.7124173543608
 21
1161.273954032494
 31
0.0
  0
LINE
  5
308
330
1F
100
AcDbEntity
  8
0-A
  6
Continuous
 62
     4
370
    13
100
AcDbLine
 10
-155.4108245017424
 20
1171.756164758846
 30
0.0
 11
-162.4872735093438
 21
1178.832283846683
 31
0.0
  0
LINE
  5
309
330
1F
100
AcDbEntity
  8
0-A
  6
Continuous
 62
     4
370
    13
100
AcDbLine
 10
-154.3504623818101
 20
1163.624302427764
 30
0.0
 11
-170.8561831905094
 21
1180.130188196346
 31
0.0
  0
LINE
  5
30A
330
1F
100
AcDbEntity
  8
0-A
  6
Continuous
 62
     4
370
    13
100
AcDbLine
 10
-162.4872735093438
 20
1178.832283846683
 30
0.0
 11
-170.8561831905094
 21
1180.130188196346
 31
0.0
  0
LINE
  5
30B
330
1F
100
AcDbEntity
  8
0-A
  6
Continuous
 62
     4
370
    13
100
AcDbLine
 10
-155.4108245017424
 20
1171.756164758846
 30
0.0
 11
-154.3504623818101
 21
1163.624302427764
 31
0.0
  0
LINE
  5
30C
330
1F
100
AcDbEntity
  8
0-A
  6
Continuous
 62
     4
370
    13
100
AcDbLine
 10
-188.4145130046986
 20
1152.90520931121
 30
0.0
 11
-189.7124173543608
 21
1161.273954032494
 31
0.0
  0
LINE
  5
30D
330
1F
100
AcDbEntity
  8
0-A
  6
Continuous
 62
     4
370
    13
100
AcDbLine
 10
-181.3382289569792
 20
1145.828760303609
 30
0.0
 11
-173.2065315857799
 21
1144.768398183677
 31
0.0
  0
LINE
  5
30E
330
1F
100
AcDbEntity
  8
0-A
  6
Continuous
 62
     4
370
    13
100
AcDbLine
 10
-293.8087011381444
 20
932.0443826642513
 30
0.0
 11
-303.4751852492087
 21
934.6342528078321
 31
0.0
  0
LINE
  5
30F
330
1F
100
AcDbEntity
  8
0-A
  6
Continuous
 62
     4
370
    13
100
AcDbLine
 10
-286.2362177661007
 20
935.1914872884065
 30
0.0
 11
-308.7835942441413
 21
941.2333079176294
 31
0.0
  0
LINE
  5
310
330
1F
100
AcDbEntity
  8
0-A
  6
Continuous
 62
     4
370
    13
100
AcDbLine
 10
-284.3183941807965
 20
967.46159919719
 30
0.0
 11
-293.9850432517424
 21
970.0517992605348
 31
0.0
  0
LINE
  5
311
330
1F
100
AcDbEntity
  8
0-A
  6
Continuous
 62
     4
370
    13
100
AcDbLine
 10
-279.3342963133979
 20
960.9496429049607
 30
0.0
 11
-301.8816727914385
 21
966.99113361442
 31
0.0
  0
LINE
  5
312
330
1F
100
AcDbEntity
  8
0-A
  6
Continuous
 62
     4
370
    13
100
AcDbLine
 10
-293.9850432517424
 20
970.0517992605348
 30
0.0
 11
-301.8816727914385
 21
966.99113361442
 31
0.0
  0
LINE
  5
313
330
1F
100
AcDbEntity
  8
0-A
  6
Continuous
 62
     4
370
    13
100
AcDbLine
 10
-284.3183941807965
 20
967.4619291169536
 30
0.0
 11
-279.3342963133979
 21
960.9496429049607
 31
0.0
  0
LINE
  5
314
330
1F
100
AcDbEntity
  8
0-A
  6
Continuous
 62
     4
370
    13
100
AcDbLine
 10
-303.4751852492087
 20
934.6342528078321
 30
0.0
 11
-308.7835942441413
 21
941.2333079176294
 31
0.0
  0
LINE
  5
315
330
1F
100
AcDbEntity
  8
0-A
  6
Continuous
 62
     4
370
    13
100
AcDbLine
 10
-293.8087011381444
 20
932.0443826642513
 30
0.0
 11
-286.2362177661007
 21
935.19181720817
 31
0.0
  0
LINE
  5
316
330
1F
100
AcDbEntity
  8
0-A
  6
Continuous
 62
     4
370
    13
100
AcDbLine
 10
478.1187561042541
 20
1171.756164758846
 30
0.0
 11
485.1948751920919
 21
1178.832283846683
 31
0.0
  0
LINE
  5
317
330
1F
100
AcDbEntity
  8
0-A
  6
Continuous
 62
     4
370
    13
100
AcDbLine
 10
477.0583939843215
 20
1163.624302427764
 30
0.0
 11
493.5636199133756
 21
1180.130188196346
 31
0.0
  0
LINE
  5
318
330
1F
100
AcDbEntity
  8
0-A
  6
Continuous
 62
     4
370
    13
100
AcDbLine
 10
504.045830639727
 20
1145.828760303609
 30
0.0
 11
511.1226095670919
 21
1152.90520931121
 31
0.0
  0
LINE
  5
319
330
1F
100
AcDbEntity
  8
0-A
  6
Continuous
 62
     4
370
    13
100
AcDbLine
 10
495.9146281481728
 20
1144.768068263913
 30
0.0
 11
512.4205139167541
 21
1161.273954032494
 31
0.0
  0
LINE
  5
31A
330
1F
100
AcDbEntity
  8
0-A
  6
Continuous
 62
     4
370
    13
100
AcDbLine
 10
511.1226095670919
 20
1152.90520931121
 30
0.0
 11
512.4205139167541
 21
1161.273954032494
 31
0.0
  0
LINE
  5
31B
330
1F
100
AcDbEntity
  8
0-A
  6
Continuous
 62
     4
370
    13
100
AcDbLine
 10
504.045830639727
 20
1145.828760303609
 30
0.0
 11
495.9146281481728
 21
1144.768068263913
 31
0.0
  0
LINE
  5
31C
330
1F
100
AcDbEntity
  8
0-A
  6
Continuous
 62
     4
370
    13
100
AcDbLine
 10
485.1948751920919
 20
1178.832283846683
 30
0.0
 11
493.5636199133756
 21
1180.130188196346
 31
0.0
  0
LINE
  5
31D
330
1F
100
AcDbEntity
  8
0-A
  6
Continuous
 62
     4
370
    13
100
AcDbLine
 10
478.1187561042541
 20
1171.756164758846
 30
0.0
 11
477.0583939843215
 21
1163.624302427764
 31
0.0
  0
LINE
  5
31E
330
1F
100
AcDbEntity
  8
0-A
  6
Continuous
 62
     4
370
    13
100
AcDbLine
 10
607.0263257833083
 20
967.46159919719
 30
0.0
 11
616.6929748542541
 21
970.0517992605348
 31
0.0
  0
LINE
  5
31F
330
1F
100
AcDbEntity
  8
0-A
  6
Continuous
 62
     4
370
    13
100
AcDbLine
 10
602.0418979961461
 20
960.9496429049607
 30
0.0
 11
624.5892744741864
 21
966.9914635341836
 31
0.0
  0
LINE
  5
320
330
1F
100
AcDbEntity
  8
0-A
  6
Continuous
 62
     4
370
    13
100
AcDbLine
 10
616.5161378610106
 20
932.0443826642513
 30
0.0
 11
626.1827869319569
 21
934.6342528078321
 31
0.0
  0
LINE
  5
321
330
1F
100
AcDbEntity
  8
0-A
  6
Continuous
 62
     4
370
    13
100
AcDbLine
 10
608.9438194488486
 20
935.1914872884065
 30
0.0
 11
631.4911959268892
 21
941.2333079176294
 31
0.0
  0
LINE
  5
322
330
1F
100
AcDbEntity
  8
0-A
  6
Continuous
 62
     4
370
    13
100
AcDbLine
 10
626.1827869319569
 20
934.6342528078321
 30
0.0
 11
631.4911959268892
 21
941.2333079176294
 31
0.0
  0
LINE
  5
323
330
1F
100
AcDbEntity
  8
0-A
  6
Continuous
 62
     4
370
    13
100
AcDbLine
 10
616.5161378610106
 20
932.0443826642513
 30
0.0
 11
608.9438194488486
 21
935.19181720817
 31
0.0
  0
LINE
  5
324
330
1F
100
AcDbEntity
  8
0-A
  6
Continuous
 62
     4
370
    13
100
AcDbLine
 10
616.6929748542541
 20
970.0517992605348
 30
0.0
 11
624.5892744741864
 21
966.9914635341836
 31
0.0
  0
LINE
  5
325
330
1F
100
AcDbEntity
  8
0-A
  6
Continuous
 62
     4
370
    13
100
AcDbLine
 10
607.0263257833083
 20
967.46159919719
 30
0.0
 11
602.0418979961461
 21
960.9496429049607
 31
0.0
  0
LINE
  5
326
330
1F
100
AcDbEntity
  8
0-A
  6
Continuous
 62
     4
370
    13
100
AcDbLine
 10
302.7096555974971
 20
1143.899389526582
 30
0.0
 11
314.2566823605885
 21
1137.232700865264
 31
0.0
  0
LINE
  5
327
330
1F
100
AcDbEntity
  8
0-A
  6
Continuous
 62
     4
370
    13
100
AcDbLine
 10
-178.6460836867087
 20
850.730708149893
 30
0.0
 11
-178.6460836867087
 21
912.1304257385755
 31
0.0
  0
LINE
  5
328
330
1F
100
AcDbEntity
  8
0-A
  6
Continuous
 62
     4
370
    13
100
AcDbLine
 10
-181.9794280173674
 20
864.0637555527644
 30
0.0
 11
-181.9794280173674
 21
850.730708149893
 31
0.0
  0
LINE
  5
329
330
1F
100
AcDbEntity
  8
0-A
  6
Continuous
 62
     4
370
    13
100
AcDbLine
 10
-181.9794280173674
 20
912.5302884919536
 30
0.0
 11
-181.9794280173674
 21
867.397264843305
 31
0.0
  0
LINE
  5
32A
330
1F
100
AcDbEntity
  8
0-A
  6
Continuous
 62
     4
370
    13
100
AcDbLine
 10
350.117805935335
 20
1112.679082305298
 30
0.0
 11
403.288994702227
 21
1081.981697909184
 31
0.0
  0
LINE
  5
32B
330
1F
100
AcDbEntity
  8
0-A
  6
Continuous
 62
     4
370
    13
100
AcDbLine
 10
363.3314223838148
 20
1108.899191574724
 30
0.0
 11
351.7845605806054
 21
1115.565880236041
 31
0.0
  0
LINE
  5
32C
330
1F
100
AcDbEntity
  8
0-A
  6
Continuous
 62
     4
370
    13
100
AcDbLine
 10
405.3067839758756
 20
1084.664275506312
 30
0.0
 11
366.2178903947947
 21
1107.232766849217
 31
0.0
  0
LINE
  5
32D
330
1F
100
AcDbEntity
  8
0-A
  6
Continuous
 62
     4
370
    13
100
AcDbLine
 10
260.7324794467371
 20
1168.133645755467
 30
0.0
 11
299.8231875865176
 21
1145.565484332325
 31
0.0
  0
LINE
  5
32E
330
1F
100
AcDbEntity
  8
0-A
  6
Continuous
 62
     4
370
    13
100
AcDbLine
 10
312.5899277153184
 20
1134.345902934521
 30
0.0
 11
259.4170893496086
 21
1165.045596768981
 31
0.0
  0
LINE
  5
32F
330
1F
100
AcDbEntity
  8
0-A
  6
Continuous
 62
     4
370
    13
100
AcDbLine
 10
565.8952288660784
 20
1024.206808762224
 30
0.0
 11
532.0223667461461
 21
1004.64982502067
 31
0.0
  0
LINE
  5
330
330
1F
100
AcDbEntity
  8
0-A
  6
Continuous
 62
     4
370
    13
100
AcDbLine
 10
532.6234805552676
 20
1081.835873373711
 30
0.0
 11
498.7499585958083
 21
1062.278889632157
 31
0.0
  0
LINE
  5
331
330
1F
100
AcDbEntity
  8
0-A
  6
Continuous
 62
     4
370
    13
100
AcDbLine
 10
516.6045563576325
 20
1007.295781524048
 30
0.0
 11
560.8956247697947
 21
1032.86687263469
 31
0.0
  0
LINE
  5
332
330
1F
100
AcDbEntity
  8
0-A
  6
Continuous
 62
     4
370
    13
100
AcDbLine
 10
510.1262518812812
 20
997.1359024066498
 30
0.0
 11
520.0693737140513
 21
1000.376044404116
 31
0.0
  0
LINE
  5
333
330
1F
100
AcDbEntity
  8
0-A
  6
Continuous
 62
     4
370
    13
100
AcDbLine
 10
480.6360438998621
 20
1042.928105742798
 30
0.0
 11
506.2068050907405
 21
998.63835700969
 31
0.0
  0
LINE
  5
334
330
1F
100
AcDbEntity
  8
0-A
  6
Continuous
 62
     4
370
    13
100
AcDbLine
 10
481.294563747835
 20
1047.073877491109
 30
0.0
 11
489.0727520924298
 21
1054.064877279961
 31
0.0
  0
LINE
  5
335
330
1F
100
AcDbEntity
  8
0-A
  6
Continuous
 62
     4
370
    13
100
AcDbLine
 10
492.1126327934434
 20
1043.051165814589
 30
0.0
 11
512.0516636211461
 21
1008.515824809521
 31
0.0
  0
LINE
  5
336
330
1F
100
AcDbEntity
  8
0-A
  6
Continuous
 62
     4
370
    13
100
AcDbLine
 10
493.3326760789163
 20
1047.604388470839
 30
0.0
 11
537.6230846515513
 21
1073.175809501244
 31
0.0
  0
LINE
  5
337
330
1F
100
AcDbEntity
  8
0-A
  6
Continuous
 62
     4
370
    13
100
AcDbLine
 10
194.6261265117708
 20
1276.978794615264
 30
0.0
 11
194.6259615518892
 21
1237.864827132156
 31
0.0
  0
LINE
  5
338
330
1F
100
AcDbEntity
  8
0-A
  6
Continuous
 62
     4
370
    13
100
AcDbLine
 10
192.3511647824635
 20
1225.377034163406
 30
0.0
 11
190.1855714547607
 21
1215.145892377089
 31
0.0
  0
LINE
  5
339
330
1F
100
AcDbEntity
  8
0-A
  6
Continuous
 62
     4
370
    13
100
AcDbLine
 10
184.6260935197948
 20
1276.978794615264
 30
0.0
 11
184.6260935197948
 21
1225.835952554454
 31
0.0
  0
LINE
  5
33A
330
1F
100
AcDbEntity
  8
0-A
  6
Continuous
 62
     4
370
    13
100
AcDbLine
 10
181.2925842292541
 20
1222.502773183677
 30
0.0
 11
141.4148524936121
 21
1222.502773183677
 31
0.0
  0
LINE
  5
33B
330
1F
100
AcDbEntity
  8
0-A
  6
Continuous
 62
     4
370
    13
100
AcDbLine
 10
130.3566018601663
 20
1225.377034163406
 30
0.0
 11
132.5221951878691
 21
1215.145892377089
 31
0.0
  0
LINE
  5
33C
330
1F
100
AcDbEntity
  8
0-A
  6
Continuous
 62
     4
370
    13
100
AcDbLine
 10
135.7831221304364
 20
1212.502905151582
 30
0.0
 11
186.9244795523114
 21
1212.502905151582
 31
0.0
  0
LINE
  5
33D
330
1F
100
AcDbEntity
  8
0-A
  6
Continuous
 62
     4
370
    13
100
AcDbLine
 10
138.081673122835
 20
1276.978794615264
 30
0.0
 11
138.081673122835
 21
1225.836282474217
 31
0.0
  0
LINE
  5
33E
330
1F
100
AcDbEntity
  8
0-A
  6
Continuous
 62
     4
370
    13
100
AcDbLine
 10
128.0816401308586
 20
1276.978794615264
 30
0.0
 11
128.0818050907406
 21
1237.86515705192
 31
0.0
  0
LINE
  5
33F
330
1F
100
AcDbEntity
  8
0-A
  6
Continuous
 62
     4
370
    13
100
AcDbLine
 10
-166.3646555300365
 20
1054.064547360197
 30
0.0
 11
-158.5869620650872
 21
1047.073877491109
 31
0.0
  0
LINE
  5
340
330
1F
100
AcDbEntity
  8
0-A
  6
Continuous
 62
     4
370
    13
100
AcDbLine
 10
-169.4047011909316
 20
1043.051165814589
 30
0.0
 11
-189.3435670587528
 21
1008.515824809521
 31
0.0
  0
LINE
  5
341
330
1F
100
AcDbEntity
  8
0-A
  6
Continuous
 62
     4
370
    13
100
AcDbLine
 10
-197.3619369911851
 20
1000.376044404116
 30
0.0
 11
-187.418650198533
 21
997.1359024066498
 31
0.0
  0
LINE
  5
342
330
1F
100
AcDbEntity
  8
0-A
  6
Continuous
 62
     4
370
    13
100
AcDbLine
 10
-183.4990384481108
 20
998.63835700969
 30
0.0
 11
-157.9284422171143
 21
1042.928105742798
 31
0.0
  0
LINE
  5
343
330
1F
100
AcDbEntity
  8
0-A
  6
Continuous
 62
     4
370
    13
100
AcDbLine
 10
-214.9154829688035
 20
1073.175479581481
 30
0.0
 11
-170.6247444764049
 21
1047.604388470839
 31
0.0
  0
LINE
  5
344
330
1F
100
AcDbEntity
  8
0-A
  6
Continuous
 62
     4
370
    13
100
AcDbLine
 10
-209.9153839928744
 20
1081.835873373711
 30
0.0
 11
-176.0420269932965
 21
1062.278889632157
 31
0.0
  0
LINE
  5
345
330
1F
100
AcDbEntity
  8
0-A
  6
Continuous
 62
     4
370
    13
100
AcDbLine
 10
-238.187693167283
 20
1032.86687263469
 30
0.0
 11
-193.8971196347663
 21
1007.295781524048
 31
0.0
  0
LINE
  5
346
330
1F
100
AcDbEntity
  8
0-A
  6
Continuous
 62
     4
370
    13
100
AcDbLine
 10
-243.1876271833302
 20
1024.206808762224
 30
0.0
 11
-209.3144351436344
 21
1004.64982502067
 31
0.0
  0
LINE
  5
347
330
1F
100
AcDbEntity
  8
0-A
  6
Continuous
 62
     4
370
    13
100
AcDbLine
 10
-183.6461826626379
 20
869.0640194885755
 30
0.0
 11
-225.8679943180431
 21
869.0640194885755
 31
0.0
  0
LINE
  5
348
330
1F
100
AcDbEntity
  8
0-A
  6
Continuous
 62
     4
370
    13
100
AcDbLine
 10
-183.6461826626379
 20
865.7305101980348
 30
0.0
 11
-225.8679943180431
 21
865.7305101980348
 31
0.0
  0
LINE
  5
349
330
1F
100
AcDbEntity
  8
0-A
  6
Continuous
 62
     4
370
    13
100
AcDbLine
 10
368.4946666828013
 20
1107.84245857219
 30
0.0
 11
389.6059024302676
 21
1144.40812580192
 31
0.0
  0
LINE
  5
34A
330
1F
100
AcDbEntity
  8
0-A
  6
Continuous
 62
     4
370
    13
100
AcDbLine
 10
365.6081986718215
 20
1109.509213217461
 30
0.0
 11
386.7191044995242
 21
1146.074550527427
 31
0.0
  0
LINE
  5
34B
330
1F
100
AcDbEntity
  8
0-A
  6
Continuous
 62
     4
370
    13
100
AcDbLine
 10
320.3237418517205
 20
1184.407597930298
 30
0.0
 11
299.2128360240176
 21
1147.842920459859
 31
0.0
  0
LINE
  5
34C
330
1F
100
AcDbEntity
  8
0-A
  6
Continuous
 62
     4
370
    13
100
AcDbLine
 10
302.0996339547607
 20
1146.175835894825
 30
0.0
 11
323.2105397824635
 21
1182.741173204791
 31
0.0
  0
LINE
  5
34D
330
1F
100
AcDbEntity
  8
0-A
  6
JWW_CENTER1
 62
     2
370
    13
100
AcDbLine
 10
354.8587529370242
 20
1164.224096557832
 30
0.0
 11
326.8432862985106
 21
1115.700157579791
 31
0.0
  0
ARC
  5
34E
330
1F
100
AcDbEntity
  8
0-A
  6
Continuous
 62
     2
370
    13
100
AcDbCircle
 10
-196.9793950253913
 20
829.0823630274267
 30
0.0
 40
21.66667113433013
100
AcDbArc
 50
359.950927734375
 51
180.049072265625
  0
ARC
  5
34F
330
1F
100
AcDbEntity
  8
0-A
  6
Continuous
 62
     2
370
    13
100
AcDbCircle
 10
-196.9793950253913
 20
829.06388752067
 30
0.0
 40
13.33333350516654
100
AcDbArc
 50
0.0
 51
180.0
  0
ARC
  5
350
330
1F
100
AcDbEntity
  8
0-A
  6
Continuous
 62
     2
370
    13
100
AcDbCircle
 10
-196.9793950253913
 20
829.06388752067
 30
0.0
 40
11.07833321030076
100
AcDbArc
 50
0.0
 51
180.0
  0
ARC
  5
351
330
1F
100
AcDbEntity
  8
0-A
  6
Continuous
 62
     2
370
    13
100
AcDbCircle
 10
340.5369360029027
 20
1139.380478525738
 30
0.0
 40
21.66667113433013
100
AcDbArc
 50
239.950927734375
 51
60.04907226562499
  0
CIRCLE
  5
352
330
1F
100
AcDbEntity
  8
0-A
  6
Continuous
 62
     2
370
    13
100
AcDbCircle
 10
340.5207699344905
 20
1139.389716279116
 30
0.0
 40
13.33333350516654
  0
CIRCLE
  5
353
330
1F
100
AcDbEntity
  8
0-A
  6
Continuous
 62
     2
370
    13
100
AcDbCircle
 10
340.5207699344905
 20
1139.389716279116
 30
0.0
 40
11.07833321030076
  0
ARC
  5
354
330
1F
100
AcDbEntity
  8
0-A
  6
Continuous
 62
     2
370
    13
100
AcDbCircle
 10
340.5046038660784
 20
1139.398954032494
 30
0.0
 40
21.66667113433013
100
AcDbArc
 50
59.950927734375
 51
240.049072265625
  0
ARC
  5
355
330
1F
100
AcDbEntity
  8
0-A
  6
Continuous
 62
     4
370
    13
100
AcDbCircle
 10
161.3538833213149
 20
829.06388752067
 30
0.0
 40
476.6666721653294
100
AcDbArc
 50
0.0
 51
12.79576110839844
  0
ARC
  5
356
330
1F
100
AcDbEntity
  8
0-A
  6
Continuous
 62
     4
370
    13
100
AcDbCircle
 10
161.3538833213149
 20
829.06388752067
 30
0.0
 40
466.6666804133235
100
AcDbArc
 50
0.0
 51
12.74850463867188
  0
ARC
  5
357
330
1F
100
AcDbEntity
  8
0-A
  6
Continuous
 62
     4
370
    13
100
AcDbCircle
 10
161.3538833213149
 20
829.06388752067
 30
0.0
 40
476.6666721653294
100
AcDbArc
 50
17.2042236328125
 51
42.79577636718751
  0
ARC
  5
358
330
1F
100
AcDbEntity
  8
0-A
  6
Continuous
 62
     4
370
    13
100
AcDbCircle
 10
161.3538833213149
 20
829.06388752067
 30
0.0
 40
476.6666721653294
100
AcDbArc
 50
47.20423889160156
 51
72.7957763671875
  0
ARC
  5
359
330
1F
100
AcDbEntity
  8
0-A
  6
Continuous
 62
     4
370
    13
100
AcDbCircle
 10
161.3538833213149
 20
829.06388752067
 30
0.0
 40
466.6666804133235
100
AcDbArc
 50
17.25149536132813
 51
42.74850463867188
  0
ARC
  5
35A
330
1F
100
AcDbEntity
  8
0-A
  6
Continuous
 62
     4
370
    13
100
AcDbCircle
 10
161.3538833213149
 20
829.06388752067
 30
0.0
 40
466.6666804133235
100
AcDbArc
 50
47.25149536132813
 51
72.74850463867189
  0
ARC
  5
35B
330
1F
100
AcDbEntity
  8
0-A
  6
Continuous
 62
     4
370
    13
100
AcDbCircle
 10
161.3538833213149
 20
829.06388752067
 30
0.0
 40
459.9999917520058
100
AcDbArc
 50
46.66096496582031
 51
73.33901977539061
  0
ARC
  5
35C
330
1F
100
AcDbEntity
  8
0-A
  6
Continuous
 62
     4
370
    13
100
AcDbCircle
 10
161.3538833213149
 20
829.06388752067
 30
0.0
 40
466.6666804133235
100
AcDbArc
 50
77.25149536132812
 51
102.7485046386719
  0
ARC
  5
35D
330
1F
100
AcDbEntity
  8
0-A
  6
Continuous
 62
     4
370
    13
100
AcDbCircle
 10
161.3538833213149
 20
829.06388752067
 30
0.0
 40
476.6666721653294
100
AcDbArc
 50
77.20423889160156
 51
102.7957611083984
  0
ARC
  5
35E
330
1F
100
AcDbEntity
  8
0-A
  6
Continuous
 62
     4
370
    13
100
AcDbCircle
 10
161.3538833213149
 20
829.06388752067
 30
0.0
 40
459.9999917520058
100
AcDbArc
 50
106.6609649658203
 51
133.3390197753906
  0
ARC
  5
35F
330
1F
100
AcDbEntity
  8
0-A
  6
Continuous
 62
     4
370
    13
100
AcDbCircle
 10
161.3538833213149
 20
829.06388752067
 30
0.0
 40
466.6666804133235
100
AcDbArc
 50
107.2514801025391
 51
132.7485046386719
  0
ARC
  5
360
330
1F
100
AcDbEntity
  8
0-A
  6
Continuous
 62
     4
370
    13
100
AcDbCircle
 10
161.3538833213149
 20
829.06388752067
 30
0.0
 40
476.6666721653294
100
AcDbArc
 50
107.2042236328125
 51
132.7957763671875
  0
ARC
  5
361
330
1F
100
AcDbEntity
  8
0-A
  6
Continuous
 62
     4
370
    13
100
AcDbCircle
 10
161.3538833213149
 20
829.06388752067
 30
0.0
 40
459.9999917520058
100
AcDbArc
 50
166.6609802246094
 51
180.0
  0
ARC
  5
362
330
1F
100
AcDbEntity
  8
0-A
  6
Continuous
 62
     4
370
    13
100
AcDbCircle
 10
161.3538833213149
 20
829.06388752067
 30
0.0
 40
466.6666804133235
100
AcDbArc
 50
137.2514953613282
 51
162.7485046386719
  0
ARC
  5
363
330
1F
100
AcDbEntity
  8
0-A
  6
Continuous
 62
     4
370
    13
100
AcDbCircle
 10
161.3538833213149
 20
829.06388752067
 30
0.0
 40
466.6666804133235
100
AcDbArc
 50
167.2514953613281
 51
180.0
  0
ARC
  5
364
330
1F
100
AcDbEntity
  8
0-A
  6
Continuous
 62
     4
370
    13
100
AcDbCircle
 10
161.3538833213149
 20
829.06388752067
 30
0.0
 40
476.6666721653294
100
AcDbArc
 50
137.2042388916016
 51
162.7957763671875
  0
ARC
  5
365
330
1F
100
AcDbEntity
  8
0-A
  6
Continuous
 62
     4
370
    13
100
AcDbCircle
 10
161.3538833213149
 20
829.06388752067
 30
0.0
 40
476.6666721653294
100
AcDbArc
 50
167.2042388916016
 51
180.0
  0
ARC
  5
366
330
1F
100
AcDbEntity
  8
0-A
  6
Continuous
 62
     4
370
    13
100
AcDbCircle
 10
-183.6461826626379
 20
864.0637555527644
 30
0.0
 40
1.666666688145818
100
AcDbArc
 50
0.0
 51
90.0
  0
ARC
  5
367
330
1F
100
AcDbEntity
  8
0-A
  6
Continuous
 62
     4
370
    13
100
AcDbCircle
 10
497.0832039505377
 20
1065.1656875629
 30
0.0
 40
3.333333376291636
100
AcDbArc
 50
215.1165618896484
 51
300.0
  0
ARC
  5
368
330
1F
100
AcDbEntity
  8
0-A
  6
Continuous
 62
     4
370
    13
100
AcDbCircle
 10
486.8444740096593
 20
1056.543894383001
 30
0.0
 40
3.333333376291636
100
AcDbArc
 50
311.9502105712891
 51
34.94871520996094
  0
ARC
  5
369
330
1F
100
AcDbEntity
  8
0-A
  6
Continuous
 62
     4
370
    13
100
AcDbCircle
 10
533.6891213914163
 20
1001.763027089926
 30
0.0
 40
3.333333376291636
100
AcDbArc
 50
120.0
 51
204.8834381103516
  0
ARC
  5
36A
330
1F
100
AcDbEntity
  8
0-A
  6
Continuous
 62
     4
370
    13
100
AcDbCircle
 10
521.1026824133756
 20
997.206835155805
 30
0.0
 40
3.333333376291636
100
AcDbArc
 50
25.05128479003908
 51
108.049789428711
  0
ARC
  5
36B
330
1F
100
AcDbEntity
  8
0-A
  6
Continuous
 62
     4
370
    13
100
AcDbCircle
 10
124.7482958002
 20
1237.86515705192
 30
0.0
 40
3.333333376291636
100
AcDbArc
 50
275.1165618896484
 51
0.0
  0
ARC
  5
36C
330
1F
100
AcDbEntity
  8
0-A
  6
Continuous
 62
     4
370
    13
100
AcDbCircle
 10
127.0956749175986
 20
1224.686842018136
 30
0.0
 40
3.333333376291636
100
AcDbArc
 50
11.95021057128907
 51
94.94871520996094
  0
ARC
  5
36D
330
1F
100
AcDbEntity
  8
0-A
  6
Continuous
 62
     4
370
    13
100
AcDbCircle
 10
197.9594708424298
 20
1237.86515705192
 30
0.0
 40
3.333333376291636
100
AcDbArc
 50
180.0
 51
264.8834381103516
  0
ARC
  5
36E
330
1F
100
AcDbEntity
  8
0-A
  6
Continuous
 62
     4
370
    13
100
AcDbCircle
 10
195.6122566849128
 20
1224.686842018136
 30
0.0
 40
3.333333376291636
100
AcDbArc
 50
85.05128479003906
 51
168.0497894287109
  0
ARC
  5
36F
330
1F
100
AcDbEntity
  8
0-A
  6
Continuous
 62
     4
370
    13
100
AcDbCircle
 10
-210.9810248290229
 20
1001.763027089926
 30
0.0
 40
3.333333376291636
100
AcDbArc
 50
335.1165618896484
 51
60.00000000000001
  0
ARC
  5
370
330
1F
100
AcDbEntity
  8
0-A
  6
Continuous
 62
     4
370
    13
100
AcDbCircle
 10
-198.3947508108643
 20
997.206835155805
 30
0.0
 40
3.333333376291636
100
AcDbArc
 50
71.95021057128906
 51
154.9487152099609
  0
ARC
  5
371
330
1F
100
AcDbEntity
  8
0-A
  6
Continuous
 62
     4
370
    13
100
AcDbCircle
 10
-174.375437307908
 20
1065.1656875629
 30
0.0
 40
3.333333376291636
100
AcDbArc
 50
240.0
 51
324.8834381103516
  0
ARC
  5
372
330
1F
100
AcDbEntity
  8
0-A
  6
Continuous
 62
     4
370
    13
100
AcDbCircle
 10
-164.1363774472663
 20
1056.543894383001
 30
0.0
 40
3.333333376291636
100
AcDbArc
 50
145.0512847900391
 51
228.049789428711
  0
ARC
  5
373
330
1F
100
AcDbEntity
  8
0-A
  6
Continuous
 62
     4
370
    13
100
AcDbCircle
 10
161.3538833213149
 20
829.06388752067
 30
0.0
 40
459.9999917520058
100
AcDbArc
 50
0.0
 51
13.33901977539062
  0
ARC
  5
374
330
1F
100
AcDbEntity
  8
0-A
  6
Continuous
 62
     4
370
    13
100
AcDbCircle
 10
161.3538833213149
 20
829.06388752067
 30
0.0
 40
407.1033374683277
100
AcDbArc
 50
0.0
 51
24.88316345214843
  0
ARC
  5
375
330
1F
100
AcDbEntity
  8
0-A
  6
Continuous
 62
     4
370
    13
100
AcDbCircle
 10
161.3538833213149
 20
829.06388752067
 30
0.0
 40
400.4366488070102
100
AcDbArc
 50
0.0
 51
25.05091857910156
  0
ARC
  5
376
330
1F
100
AcDbEntity
  8
0-A
  6
Continuous
 62
     4
370
    13
100
AcDbCircle
 10
161.3538833213149
 20
829.06388752067
 30
0.0
 40
407.1033374683277
100
AcDbArc
 50
35.1168212890625
 51
84.88316345214844
  0
ARC
  5
377
330
1F
100
AcDbEntity
  8
0-A
  6
Continuous
 62
     4
370
    13
100
AcDbCircle
 10
161.3538833213149
 20
829.06388752067
 30
0.0
 40
400.4366488070102
100
AcDbArc
 50
94.94908142089851
 51
145.0509185791016
  0
ARC
  5
378
330
1F
100
AcDbEntity
  8
0-A
  6
Continuous
 62
     4
370
    13
100
AcDbCircle
 10
161.3538833213149
 20
829.06388752067
 30
0.0
 40
407.1033374683277
100
AcDbArc
 50
95.11683654785162
 51
144.8831634521485
  0
ARC
  5
379
330
1F
100
AcDbEntity
  8
0-A
  6
Continuous
 62
     4
370
    13
100
AcDbCircle
 10
161.3538833213149
 20
829.06388752067
 30
0.0
 40
407.1033374683277
100
AcDbArc
 50
155.1168365478516
 51
180.0
  0
ARC
  5
37A
330
1F
100
AcDbEntity
  8
0-A
  6
Continuous
 62
     4
370
    13
100
AcDbCircle
 10
303.5430329201326
 20
1145.342788491954
 30
0.0
 40
1.666666688145818
100
AcDbArc
 50
150.0
 51
240.0
  0
ARC
  5
37B
330
1F
100
AcDbEntity
  8
0-A
  6
Continuous
 62
     4
370
    13
100
AcDbCircle
 10
-183.6461826626379
 20
867.397264843305
 30
0.0
 40
1.666666688145818
100
AcDbArc
 50
0.0
 51
90.0
  0
ARC
  5
37C
330
1F
100
AcDbEntity
  8
0-A
  6
Continuous
 62
     4
370
    13
100
AcDbCircle
 10
161.3538833213149
 20
829.06388752067
 30
0.0
 40
353.3333030906883
100
AcDbArc
 50
0.0
 51
46.33567810058594
  0
ARC
  5
37D
330
1F
100
AcDbEntity
  8
0-A
  6
Continuous
 62
     4
370
    13
100
AcDbCircle
 10
364.1651296262135
 20
1110.342920459859
 30
0.0
 40
1.666666688145818
100
AcDbArc
 50
239.9995422363281
 51
329.9995422363281
  0
ARC
  5
37E
330
1F
100
AcDbEntity
  8
0-A
  6
Continuous
 62
     4
370
    13
100
AcDbCircle
 10
367.0512677174298
 20
1108.675835894825
 30
0.0
 40
1.666666688145818
100
AcDbArc
 50
239.9989624023437
 51
330.0004577636719
  0
ARC
  5
37F
330
1F
100
AcDbEntity
  8
0-A
  6
Continuous
 62
     4
370
    13
100
AcDbCircle
 10
300.6563999492711
 20
1147.008883297697
 30
0.0
 40
1.666666688145818
100
AcDbArc
 50
149.9990844726562
 51
240.0005798339844
  0
ARC
  5
380
330
1F
100
AcDbEntity
  8
0-A
  6
Continuous
 62
     4
370
    13
100
AcDbCircle
 10
161.3538833213149
 20
829.06388752067
 30
0.0
 40
353.3333030906883
100
AcDbArc
 50
73.66459655761722
 51
166.3361053466797
  0
ARC
  5
381
330
1F
100
AcDbEntity
  8
0-A
  6
Continuous
 62
     4
370
    13
100
AcDbCircle
 10
161.3538833213149
 20
829.06388752067
 30
0.0
 40
350.0
100
AcDbArc
 50
73.72901916503906
 51
166.2708587646484
  0
ARC
  5
382
330
1F
100
AcDbEntity
  8
0-A
  6
Continuous
 62
     4
370
    13
100
AcDbCircle
 10
161.3538833213149
 20
829.06388752067
 30
0.0
 40
459.9999917520058
100
AcDbArc
 50
16.66098022460938
 51
24.48190307617188
  0
ARC
  5
383
330
1F
100
AcDbEntity
  8
0-A
  6
Continuous
 62
     4
370
    13
100
AcDbCircle
 10
570.8954928018892
 20
1015.546414969994
 30
0.0
 40
10.00000012887491
100
AcDbArc
 50
24.48187255859376
 51
119.9999694824219
  0
ARC
  5
384
330
1F
100
AcDbEntity
  8
0-A
  6
Continuous
 62
     4
370
    13
100
AcDbCircle
 10
570.8954928018892
 20
1015.546414969994
 30
0.0
 40
20.00000025774981
100
AcDbArc
 50
78.55116271972656
 51
119.9999694824219
  0
ARC
  5
385
330
1F
100
AcDbEntity
  8
0-A
  6
Continuous
 62
     4
370
    13
100
AcDbCircle
 10
527.6232166194569
 20
1090.49626716594
 30
0.0
 40
10.00000012887491
100
AcDbArc
 50
300.0000610351562
 51
35.51815795898439
  0
ARC
  5
386
330
1F
100
AcDbEntity
  8
0-A
  6
Continuous
 62
     4
370
    13
100
AcDbCircle
 10
527.6232166194569
 20
1090.49626716594
 30
0.0
 40
20.00000025774981
100
AcDbArc
 50
300.0000915527344
 51
341.4488983154297
  0
ARC
  5
387
330
1F
100
AcDbEntity
  8
0-A
  6
Continuous
 62
     4
370
    13
100
AcDbCircle
 10
161.3538833213149
 20
829.06388752067
 30
0.0
 40
462.0200079840583
100
AcDbArc
 50
26.49063110351564
 51
33.50938415527345
  0
ARC
  5
388
330
1F
100
AcDbEntity
  8
0-A
  6
Continuous
 62
     4
370
    13
100
AcDbCircle
 10
161.3538833213149
 20
829.06388752067
 30
0.0
 40
459.9999917520058
100
AcDbArc
 50
35.51809692382812
 51
43.33901977539062
  0
ARC
  5
389
330
1F
100
AcDbEntity
  8
0-A
  6
Continuous
 62
     4
370
    13
100
AcDbCircle
 10
514.9378017123621
 20
1010.182579454791
 30
0.0
 40
3.333333376291636
100
AcDbArc
 50
210.0005493164063
 51
300.0005493164064
  0
ARC
  5
38A
330
1F
100
AcDbEntity
  8
0-A
  6
Continuous
 62
     4
370
    13
100
AcDbCircle
 10
509.093603021484
 20
1000.305441574724
 30
0.0
 40
3.333333376291636
100
AcDbArc
 50
209.9996795654297
 51
288.0500640869141
  0
ARC
  5
38B
330
1F
100
AcDbEntity
  8
0-A
  6
Continuous
 62
     4
370
    13
100
AcDbCircle
 10
483.5228418306054
 20
1044.594860388069
 30
0.0
 40
3.333333376291636
100
AcDbArc
 50
131.9502563476562
 51
210.0005493164062
  0
ARC
  5
38C
330
1F
100
AcDbEntity
  8
0-A
  6
Continuous
 62
     4
370
    13
100
AcDbCircle
 10
494.9994307241864
 20
1044.717920459859
 30
0.0
 40
3.333333376291636
100
AcDbArc
 50
120.0005493164063
 51
209.9996795654297
  0
ARC
  5
38D
330
1F
100
AcDbEntity
  8
0-A
  6
Continuous
 62
     4
370
    13
100
AcDbCircle
 10
204.6259945438655
 20
1276.978794615264
 30
0.0
 40
10.00000012887491
100
AcDbArc
 50
84.48187255859374
 51
179.9999694824218
  0
ARC
  5
38E
330
1F
100
AcDbEntity
  8
0-A
  6
Continuous
 62
     4
370
    13
100
AcDbCircle
 10
204.6259945438655
 20
1276.978794615264
 30
0.0
 40
20.00000025774981
100
AcDbArc
 50
138.5511627197266
 51
179.9999694824219
  0
ARC
  5
38F
330
1F
100
AcDbEntity
  8
0-A
  6
Continuous
 62
     4
370
    13
100
AcDbCircle
 10
118.0817720987642
 20
1276.978794615264
 30
0.0
 40
10.00000012887491
100
AcDbArc
 50
0.0000610351562479
 51
95.51815795898439
  0
ARC
  5
390
330
1F
100
AcDbEntity
  8
0-A
  6
Continuous
 62
     4
370
    13
100
AcDbCircle
 10
118.0817720987642
 20
1276.978794615264
 30
0.0
 40
20.00000025774981
100
AcDbArc
 50
0.0000915527343782
 51
41.44889831542969
  0
ARC
  5
391
330
1F
100
AcDbEntity
  8
0-A
  6
Continuous
 62
     4
370
    13
100
AcDbCircle
 10
181.2925842292541
 20
1225.835952554454
 30
0.0
 40
3.333333376291636
100
AcDbArc
 50
270.0005493164062
 51
0.000549316406244
  0
ARC
  5
392
330
1F
100
AcDbEntity
  8
0-A
  6
Continuous
 62
     4
370
    13
100
AcDbCircle
 10
186.9244795523114
 20
1215.836084522359
 30
0.0
 40
3.333333376291636
100
AcDbArc
 50
269.9996795654297
 51
348.0500640869141
  0
ARC
  5
393
330
1F
100
AcDbEntity
  8
0-A
  6
Continuous
 62
     4
370
    13
100
AcDbCircle
 10
135.7831221304364
 20
1215.836084522359
 30
0.0
 40
3.333333376291636
100
AcDbArc
 50
191.9502563476563
 51
270.0005493164062
  0
ARC
  5
394
330
1F
100
AcDbEntity
  8
0-A
  6
Continuous
 62
     4
370
    13
100
AcDbCircle
 10
141.4148524936121
 20
1225.836282474217
 30
0.0
 40
3.333333376291636
100
AcDbArc
 50
180.0005493164063
 51
269.9996795654297
  0
ARC
  5
395
330
1F
100
AcDbEntity
  8
0-A
  6
Continuous
 62
     4
370
    13
100
AcDbCircle
 10
-204.9154499768271
 20
1090.49626716594
 30
0.0
 40
10.00000012887491
100
AcDbArc
 50
144.4818725585938
 51
239.9999694824219
  0
ARC
  5
396
330
1F
100
AcDbEntity
  8
0-A
  6
Continuous
 62
     4
370
    13
100
AcDbCircle
 10
-204.9154499768271
 20
1090.49626716594
 30
0.0
 40
20.00000025774981
100
AcDbArc
 50
198.5511627197266
 51
239.9999694824219
  0
ARC
  5
397
330
1F
100
AcDbEntity
  8
0-A
  6
Continuous
 62
     4
370
    13
100
AcDbCircle
 10
-248.1875611993778
 20
1015.546414969994
 30
0.0
 40
10.00000012887491
100
AcDbArc
 50
60.00006103515624
 51
155.5181579589844
  0
ARC
  5
398
330
1F
100
AcDbEntity
  8
0-A
  6
Continuous
 62
     4
370
    13
100
AcDbCircle
 10
-248.1875611993778
 20
1015.546414969994
 30
0.0
 40
20.00000025774981
100
AcDbArc
 50
60.00009155273439
 51
101.4488983154297
  0
ARC
  5
399
330
1F
100
AcDbEntity
  8
0-A
  6
Continuous
 62
     4
370
    13
100
AcDbCircle
 10
-172.2913341617931
 20
1044.717260620332
 30
0.0
 40
3.333333376291636
100
AcDbArc
 50
330.0005493164062
 51
60.00054931640625
  0
ARC
  5
39A
330
1F
100
AcDbEntity
  8
0-A
  6
Continuous
 62
     4
370
    13
100
AcDbCircle
 10
-160.8152401478573
 20
1044.594530468305
 30
0.0
 40
3.333333376291636
100
AcDbArc
 50
329.9996795654297
 51
48.05006408691406
  0
ARC
  5
39B
330
1F
100
AcDbEntity
  8
0-A
  6
Continuous
 62
     4
370
    13
100
AcDbCircle
 10
-186.3860013387358
 20
1000.305111654961
 30
0.0
 40
3.333333376291636
100
AcDbArc
 50
251.9502563476562
 51
330.0005493164062
  0
ARC
  5
39C
330
1F
100
AcDbEntity
  8
0-A
  6
Continuous
 62
     4
370
    13
100
AcDbCircle
 10
-192.2303649894958
 20
1010.182579454791
 30
0.0
 40
3.333333376291636
100
AcDbArc
 50
240.0005493164062
 51
329.9996795654297
  0
ARC
  5
39D
330
1F
100
AcDbEntity
  8
0-A
  6
Continuous
 62
     4
370
    13
100
AcDbCircle
 10
161.3538833213149
 20
829.06388752067
 30
0.0
 40
459.9999917520058
100
AcDbArc
 50
76.66098022460939
 51
84.4819030761719
  0
ARC
  5
39E
330
1F
100
AcDbEntity
  8
0-A
  6
Continuous
 62
     4
370
    13
100
AcDbCircle
 10
161.3538833213149
 20
829.06388752067
 30
0.0
 40
462.0200079840583
100
AcDbArc
 50
86.49061584472655
 51
93.50938415527342
  0
ARC
  5
39F
330
1F
100
AcDbEntity
  8
0-A
  6
Continuous
 62
     4
370
    13
100
AcDbCircle
 10
161.3538833213149
 20
829.06388752067
 30
0.0
 40
459.9999917520058
100
AcDbArc
 50
95.51809692382818
 51
103.3390045166016
  0
ARC
  5
3A0
330
1F
100
AcDbEntity
  8
0-A
  6
Continuous
 62
     4
370
    13
100
AcDbCircle
 10
161.3538833213149
 20
829.06388752067
 30
0.0
 40
459.9999917520058
100
AcDbArc
 50
136.6609649658203
 51
144.4819030761719
  0
ARC
  5
3A1
330
1F
100
AcDbEntity
  8
0-A
  6
Continuous
 62
     4
370
    13
100
AcDbCircle
 10
161.3538833213149
 20
829.06388752067
 30
0.0
 40
462.0200079840583
100
AcDbArc
 50
146.4906311035156
 51
153.5093841552734
  0
ARC
  5
3A2
330
1F
100
AcDbEntity
  8
0-A
  6
Continuous
 62
     4
370
    13
100
AcDbCircle
 10
161.3538833213149
 20
829.06388752067
 30
0.0
 40
459.9999917520058
100
AcDbArc
 50
155.5181121826172
 51
163.3390197753907
  0
ARC
  5
3A3
330
1F
100
AcDbEntity
  8
0-A
  6
Continuous
 62
     4
370
    13
100
AcDbCircle
 10
161.3538833213149
 20
829.06388752067
 30
0.0
 40
400.4366488070102
100
AcDbArc
 50
154.9490814208985
 51
172.6423950195313
  0
ARC
  5
3A4
330
1F
100
AcDbEntity
  8
0-A
  6
Continuous
 62
     4
370
    13
100
AcDbCircle
 10
-225.8679943180431
 20
879.06388752067
 30
0.0
 40
10.00000012887491
100
AcDbArc
 50
172.6422424316407
 51
270.0000000000001
  0
ARC
  5
3A5
330
1F
100
AcDbEntity
  8
0-A
  6
Continuous
 62
     4
370
    13
100
AcDbCircle
 10
161.3538833213149
 20
829.06388752067
 30
0.0
 40
401.4366356102196
100
AcDbArc
 50
173.7329254150391
 51
180.0
  0
ARC
  5
3A6
330
1F
100
AcDbEntity
  8
0-A
  6
Continuous
 62
     4
370
    13
100
AcDbCircle
 10
-225.8679943180431
 20
879.06388752067
 30
0.0
 40
13.33333350516654
100
AcDbArc
 50
207.6030883789062
 51
270.0
  0
ARC
  5
3A7
330
1F
100
AcDbEntity
  8
0-A
  6
Continuous
 62
     4
370
    13
100
AcDbCircle
 10
161.3538833213149
 20
829.06388752067
 30
0.0
 40
400.4366488070102
100
AcDbArc
 50
34.94909667968751
 51
52.64241027832033
  0
ARC
  5
3A8
330
1F
100
AcDbEntity
  8
0-A
  6
Continuous
 62
     4
370
    13
100
AcDbCircle
 10
398.2662962224971
 20
1139.407861866109
 30
0.0
 40
10.00000012887491
100
AcDbArc
 50
52.64233398437501
 51
149.9998931884766
  0
ARC
  5
3A9
330
1F
100
AcDbEntity
  8
0-A
  6
Continuous
 62
     4
370
    13
100
AcDbCircle
 10
398.2662962224971
 20
1139.407861866109
 30
0.0
 40
13.33333350516654
100
AcDbArc
 50
87.60324096679688
 51
149.9998931884766
  0
ARC
  5
3AA
330
1F
100
AcDbEntity
  8
0-A
  6
Continuous
 62
     4
370
    13
100
AcDbCircle
 10
311.6636779792541
 20
1189.407531946346
 30
0.0
 40
10.00000012887491
100
AcDbArc
 50
330.0003662109375
 51
67.35792541503906
  0
ARC
  5
3AB
330
1F
100
AcDbEntity
  8
0-A
  6
Continuous
 62
     4
370
    13
100
AcDbCircle
 10
311.6636779792541
 20
1189.407531946346
 30
0.0
 40
13.33333350516654
100
AcDbArc
 50
330.0003204345703
 51
32.39697265625
  0
ARC
  5
3AC
330
1F
100
AcDbEntity
  8
0-A
  6
Continuous
 62
     4
370
    13
100
AcDbCircle
 10
161.3538833213149
 20
829.06388752067
 30
0.0
 40
400.4366488070102
100
AcDbArc
 50
67.35757446289064
 51
85.05091857910158
  0
ARC
  5
3AD
330
1F
100
AcDbEntity
  8
0-A
  6
Continuous
 62
     4
370
    13
100
AcDbCircle
 10
161.3538833213149
 20
829.06388752067
 30
0.0
 40
401.4366356102196
100
AcDbArc
 50
53.73294067382813
 51
66.26710510253906
  0
ARC
  5
3AE
330
1F
100
AcDbEntity
  8
0-A
  6
Continuous
 62
     4
370
    13
100
AcDbCircle
 10
161.3538833213149
 20
829.06388752067
 30
0.0
 40
483.3333195866766
100
AcDbArc
 50
0.0
 51
180.0
  0
ARC
  5
3AF
330
1F
100
AcDbEntity
  8
0-A
  6
Continuous
 62
     4
370
    13
100
AcDbCircle
 10
161.3538833213149
 20
829.06388752067
 30
0.0
 40
350.0
100
AcDbArc
 50
0.0
 51
46.27137756347657
  0
ARC
  5
3B0
330
1F
100
AcDbEntity
  8
0-A
  6
Continuous
 62
     4
370
    13
100
AcDbCircle
 10
352.6179379032405
 20
1117.009279201413
 30
0.0
 40
1.666666688145818
100
AcDbArc
 50
154.6474761962891
 51
240.0
  0
ARC
  5
3B1
330
1F
100
AcDbEntity
  8
0-A
  6
Continuous
 62
     4
370
    13
100
AcDbCircle
 10
352.6179379032405
 20
1117.009279201413
 30
0.0
 40
5.000000064437453
100
AcDbArc
 50
171.7942810058594
 51
240.0
  0
ARC
  5
3B2
330
1F
100
AcDbEntity
  8
0-A
  6
Continuous
 62
     4
370
    13
100
AcDbCircle
 10
315.089894723342
 20
1138.676099830636
 30
0.0
 40
5.000000064437453
100
AcDbArc
 50
240.0
 51
308.2052154541016
  0
ARC
  5
3B3
330
1F
100
AcDbEntity
  8
0-A
  6
Continuous
 62
     4
370
    13
100
AcDbCircle
 10
315.089894723342
 20
1138.676099830636
 30
0.0
 40
1.666666688145818
100
AcDbArc
 50
240.0
 51
325.3516998291016
  0
ARC
  5
3B4
330
1F
100
AcDbEntity
  8
0-A
  6
Continuous
 62
     4
370
    13
100
AcDbCircle
 10
-183.6461826626379
 20
850.7303782301294
 30
0.0
 40
1.666666688145818
100
AcDbArc
 50
274.6493072509766
 51
0.0
  0
ARC
  5
3B5
330
1F
100
AcDbEntity
  8
0-A
  6
Continuous
 62
     4
370
    13
100
AcDbCircle
 10
-183.6461826626379
 20
850.7303782301294
 30
0.0
 40
5.000000064437453
100
AcDbArc
 50
291.7949066162109
 51
0.0
  0
LINE
  5
3B6
330
1F
100
AcDbEntity
  8
0-A
  6
Continuous
 62
     2
370
    13
100
AcDbLine
 10
-159.4958075793965
 20
-189.9130862662312
 30
0.0
 11
-186.1623972647851
 21
-189.9130862662312
 31
0.0
  0
LINE
  5
3B7
330
1F
100
AcDbEntity
  8
0-A
  6
Continuous
 62
     2
370
    13
100
AcDbLine
 10
-186.1623972647851
 20
-189.9130862662312
 30
0.0
 11
-183.9073956811701
 21
-192.1675929702006
 31
0.0
  0
LINE
  5
3B8
330
1F
100
AcDbEntity
  8
0-A
  6
Continuous
 62
     2
370
    13
100
AcDbLine
 10
-183.9073956811701
 20
-192.1675929702006
 30
0.0
 11
-161.7506442031295
 21
-192.1675929702006
 31
0.0
  0
LINE
  5
3B9
330
1F
100
AcDbEntity
  8
0-A
  6
Continuous
 62
     2
370
    13
100
AcDbLine
 10
-161.7506442031295
 20
-192.1675929702006
 30
0.0
 11
-159.4958075793965
 21
-189.9130862662312
 31
0.0
  0
LINE
  5
3BA
330
1F
100
AcDbEntity
  8
0-A
  6
Continuous
 62
     2
370
    13
100
AcDbLine
 10
-197.8291849020316
 20
-134.5733348937648
 30
0.0
 11
-197.8291849020316
 21
-153.8343806074475
 31
0.0
  0
LINE
  5
3BB
330
1F
100
AcDbEntity
  8
0-A
  6
Continuous
 62
     2
370
    13
100
AcDbLine
 10
-147.82901994215
 20
-134.5733348937648
 30
0.0
 11
-147.82901994215
 21
-153.8343806074475
 31
0.0
  0
LINE
  5
3BC
330
1F
100
AcDbEntity
  8
0-A
  6
Continuous
 62
     2
370
    13
100
AcDbLine
 10
-197.8291849020316
 20
-153.8343806074475
 30
0.0
 11
-147.82901994215
 21
-153.8343806074475
 31
0.0
  0
LINE
  5
3BD
330
1F
100
AcDbEntity
  8
0-A
  6
Continuous
 62
     2
370
    13
100
AcDbLine
 10
-185.3197821887715
 20
-134.5733348937648
 30
0.0
 11
-185.3197821887715
 21
-153.8343806074475
 31
0.0
  0
LINE
  5
3BE
330
1F
100
AcDbEntity
  8
0-A
  6
Continuous
 62
     2
370
    13
100
AcDbLine
 10
-160.3382576955281
 20
-134.5733348937648
 30
0.0
 11
-160.3382576955281
 21
-153.8343806074475
 31
0.0
  0
LINE
  5
3BF
330
1F
100
AcDbEntity
  8
0-A
  6
Continuous
 62
     2
370
    13
100
AcDbLine
 10
-191.5744010654608
 20
-132.1677249381062
 30
0.0
 11
-154.0838037787208
 21
-132.1677249381062
 31
0.0
  0
LINE
  5
3C0
330
1F
100
AcDbEntity
  8
0-A
  6
Continuous
 62
     2
370
    13
100
AcDbLine
 10
-183.9073956811701
 20
-153.8343806074475
 30
0.0
 11
-183.9073956811701
 21
-192.1675929702006
 31
0.0
  0
LINE
  5
3C1
330
1F
100
AcDbEntity
  8
0-A
  6
Continuous
 62
     2
370
    13
100
AcDbLine
 10
-186.1623972647851
 20
-153.8343806074475
 30
0.0
 11
-186.1623972647851
 21
-189.9130862662312
 31
0.0
  0
LINE
  5
3C2
330
1F
100
AcDbEntity
  8
0-A
  6
Continuous
 62
     2
370
    13
100
AcDbLine
 10
-161.7506442031295
 20
-153.8343806074475
 30
0.0
 11
-161.7506442031295
 21
-192.1675929702006
 31
0.0
  0
LINE
  5
3C3
330
1F
100
AcDbEntity
  8
0-A
  6
Continuous
 62
     2
370
    13
100
AcDbLine
 10
-159.4958075793965
 20
-153.8343806074475
 30
0.0
 11
-159.4958075793965
 21
-189.9130862662312
 31
0.0
  0
LINE
  5
3C4
330
1F
100
AcDbEntity
  8
0-A
  6
Continuous
 62
     2
370
    13
100
AcDbLine
 10
-159.4958075793965
 20
-27.75620282028537
 30
0.0
 11
-186.1623972647851
 21
-27.75620282028537
 31
0.0
  0
LINE
  5
3C5
330
1F
100
AcDbEntity
  8
0-A
  6
Continuous
 62
     2
370
    13
100
AcDbLine
 10
-186.1623972647851
 20
-27.75620282028537
 30
0.0
 11
-183.9073956811701
 21
-25.50103627678848
 31
0.0
  0
LINE
  5
3C6
330
1F
100
AcDbEntity
  8
0-A
  6
Continuous
 62
     2
370
    13
100
AcDbLine
 10
-183.9073956811701
 20
-25.50103627678848
 30
0.0
 11
-161.7506442031295
 21
-25.50103627678848
 31
0.0
  0
LINE
  5
3C7
330
1F
100
AcDbEntity
  8
0-A
  6
Continuous
 62
     2
370
    13
100
AcDbLine
 10
-161.7506442031295
 20
-25.50103627678848
 30
0.0
 11
-159.4958075793965
 21
-27.75620282028537
 31
0.0
  0
LINE
  5
3C8
330
1F
100
AcDbEntity
  8
0-A
  6
Continuous
 62
     2
370
    13
100
AcDbLine
 10
-183.9073956811701
 20
-132.1677249381062
 30
0.0
 11
-183.9073956811701
 21
-25.50103627678848
 31
0.0
  0
LINE
  5
3C9
330
1F
100
AcDbEntity
  8
0-A
  6
Continuous
 62
     2
370
    13
100
AcDbLine
 10
-186.1623972647851
 20
-132.1677249381062
 30
0.0
 11
-186.1623972647851
 21
-27.75620282028537
 31
0.0
  0
LINE
  5
3CA
330
1F
100
AcDbEntity
  8
0-A
  6
Continuous
 62
     2
370
    13
100
AcDbLine
 10
-161.7506442031295
 20
-132.1677249381062
 30
0.0
 11
-161.7506442031295
 21
-25.50103627678848
 31
0.0
  0
LINE
  5
3CB
330
1F
100
AcDbEntity
  8
0-A
  6
Continuous
 62
     2
370
    13
100
AcDbLine
 10
-159.4958075793965
 20
-132.1677249381062
 30
0.0
 11
-159.4958075793965
 21
-27.75620282028537
 31
0.0
  0
LINE
  5
3CC
330
1F
100
AcDbEntity
  8
0-A
  6
JWW_CENTER1
 62
     2
370
    13
100
AcDbLine
 10
-172.82901994215
 20
-200.7765192793225
 30
0.0
 11
-172.82901994215
 21
-20.06214401538639
 31
0.0
  0
LINE
  5
3CD
330
1F
100
AcDbEntity
  8
0-A
  6
Continuous
 62
     4
370
    13
100
AcDbLine
 10
668.8377017111441
 20
-125.5012012366704
 30
0.0
 11
665.5041924206034
 21
-138.8345785593055
 31
0.0
  0
LINE
  5
3CE
330
1F
100
AcDbEntity
  8
0-A
  6
Continuous
 62
     4
370
    13
100
AcDbLine
 10
599.4384196165496
 20
-125.5012012366704
 30
0.0
 11
668.8377017111441
 21
-125.5012012366704
 31
0.0
  0
LINE
  5
3CF
330
1F
100
AcDbEntity
  8
0-A
  6
Continuous
 62
     4
370
    13
100
AcDbLine
 10
583.5145123108063
 20
-164.1288669883596
 30
0.0
 11
589.6325444054006
 21
-133.5400261944406
 31
0.0
  0
LINE
  5
3D0
330
1F
100
AcDbEntity
  8
0-A
  6
Continuous
 62
     4
370
    13
100
AcDbLine
 10
538.8380976148604
 20
-158.8341496636127
 30
0.0
 11
535.5045883243198
 21
-172.1676919461298
 31
0.0
  0
LINE
  5
3D1
330
1F
100
AcDbEntity
  8
0-A
  6
Continuous
 62
     4
370
    13
100
AcDbLine
 10
-154.4958735633493
 20
-153.8343806074475
 30
0.0
 11
-151.1623642728087
 21
-172.1676919461298
 31
0.0
  0
LINE
  5
3D2
330
1F
100
AcDbEntity
  8
0-A
  6
Continuous
 62
     4
370
    13
100
AcDbLine
 10
-192.8292508859844
 20
-153.8343806074475
 30
0.0
 11
-189.4957415954437
 21
-172.1676919461298
 31
0.0
  0
LINE
  5
3D3
330
1F
100
AcDbEntity
  8
0-A
  6
Continuous
 62
     4
370
    13
100
AcDbLine
 10
-297.82901994215
 20
-125.5012012366704
 30
0.0
 11
-294.4956756114909
 21
-138.8345785593055
 31
0.0
  0
LINE
  5
3D4
330
1F
100
AcDbEntity
  8
0-A
  6
Continuous
 62
     4
370
    13
100
AcDbLine
 10
-216.172723753383
 20
-145.795555649677
 30
0.0
 11
-218.6238626364066
 21
-133.5400261944406
 31
0.0
  0
LINE
  5
3D5
330
1F
100
AcDbEntity
  8
0-A
  6
JWW_DASHED1
 62
     4
370
    13
100
AcDbLine
 10
-265.4879752842107
 20
-125.5012012366704
 30
0.0
 11
-297.82901994215
 21
-125.5012012366704
 31
0.0
  0
LINE
  5
3D6
330
1F
100
AcDbEntity
  8
0-A
  6
JWW_DASHED1
 62
     4
370
    13
100
AcDbLine
 10
-205.3670266989066
 20
-158.8341496636127
 30
0.0
 11
-153.5866146951059
 21
-158.8341496636127
 31
0.0
  0
LINE
  5
3D7
330
1F
100
AcDbEntity
  8
0-A
  6
JWW_DASHED1
 62
     4
370
    13
100
AcDbLine
 10
-215.1729019100552
 20
-150.7953247058427
 30
0.0
 11
-216.172723753383
 21
-145.795555649677
 31
0.0
  0
LINE
  5
3D8
330
1F
100
AcDbEntity
  8
0-A
  6
Continuous
 62
     4
370
    13
100
AcDbLine
 10
-280.7871795177409
 20
-75.07445002256557
 30
0.0
 11
-275.4056932951902
 21
-116.7807620474812
 31
0.0
  0
LINE
  5
3D9
330
1F
100
AcDbEntity
  8
0-A
  6
Continuous
 62
     4
370
    13
100
AcDbLine
 10
662.5362342280359
 20
-75.08781177298775
 30
0.0
 11
668.8377017111441
 21
-125.5012012366704
 31
0.0
  0
LINE
  5
3DA
330
1F
100
AcDbEntity
  8
0-A
  6
Continuous
 62
     4
370
    13
100
AcDbLine
 10
651.796026246617
 20
-75.07445002256557
 30
0.0
 11
648.1345767111441
 21
-103.4473847248461
 31
0.0
  0
LINE
  5
3DB
330
1F
100
AcDbEntity
  8
0-A
  6
Continuous
 62
     4
370
    13
100
AcDbLine
 10
-206.367013502116
 20
-153.8343806074475
 30
0.0
 11
-197.8291849020316
 21
-153.8343806074475
 31
0.0
  0
LINE
  5
3DC
330
1F
100
AcDbEntity
  8
0-A
  6
Continuous
 62
     4
370
    13
100
AcDbLine
 10
-197.8293498619136
 20
-172.1676919461298
 30
0.0
 11
-216.2977633437545
 21
-172.1676919461298
 31
0.0
  0
LINE
  5
3DD
330
1F
100
AcDbEntity
  8
0-A
  6
Continuous
 62
     4
370
    13
100
AcDbLine
 10
-288.2197769100552
 20
-72.1678569060114
 30
0.0
 11
-186.1623972647851
 21
-72.1678569060114
 31
0.0
  0
LINE
  5
3DE
330
1F
100
AcDbEntity
  8
0-A
  6
Continuous
 62
     4
370
    13
100
AcDbLine
 10
-186.1623972647851
 20
-125.5012012366704
 30
0.0
 11
-265.4879752842107
 21
-125.5012012366704
 31
0.0
  0
LINE
  5
3DF
330
1F
100
AcDbEntity
  8
0-A
  6
Continuous
 62
     4
370
    13
100
AcDbLine
 10
-291.5273874991601
 20
-75.08781177298775
 30
0.0
 11
-297.82901994215
 21
-125.5012012366704
 31
0.0
  0
LINE
  5
3E0
330
1F
100
AcDbEntity
  8
0-A
  6
Continuous
 62
     4
370
    13
100
AcDbLine
 10
-159.4958075793965
 20
-72.1678569060114
 30
0.0
 11
-84.95192165245382
 21
-72.1678569060114
 31
0.0
  0
LINE
  5
3E1
330
1F
100
AcDbEntity
  8
0-A
  6
Continuous
 62
     4
370
    13
100
AcDbLine
 10
-90.38734975633886
 20
-125.5012012366704
 30
0.0
 11
-159.4958075793965
 21
-125.5012012366704
 31
0.0
  0
LINE
  5
3E2
330
1F
100
AcDbEntity
  8
0-A
  6
Continuous
 62
     4
370
    13
100
AcDbLine
 10
-93.78436860135591
 20
-158.8341496636127
 30
0.0
 11
-153.5866146951059
 21
-158.8341496636127
 31
0.0
  0
LINE
  5
3E3
330
1F
100
AcDbEntity
  8
0-A
  6
Continuous
 62
     4
370
    13
100
AcDbLine
 10
-95.14314314738648
 20
-172.1676919461298
 30
0.0
 11
-144.4958405713729
 21
-172.1676919461298
 31
0.0
  0
LINE
  5
3E4
330
1F
100
AcDbEntity
  8
0-A
  6
Continuous
 62
     4
370
    13
100
AcDbLine
 10
455.9606034214482
 20
-72.1678569060114
 30
0.0
 11
659.2284586790495
 21
-72.1678569060114
 31
0.0
  0
LINE
  5
3E5
330
1F
100
AcDbEntity
  8
0-A
  6
Continuous
 62
     4
370
    13
100
AcDbLine
 10
562.7783953344548
 20
-158.8341496636127
 30
0.0
 11
464.7928854104684
 21
-158.8341496636127
 31
0.0
  0
LINE
  5
3E6
330
1F
100
AcDbEntity
  8
0-A
  6
Continuous
 62
     4
370
    13
100
AcDbLine
 10
587.3066100726305
 20
-172.1676919461298
 30
0.0
 11
504.1602312719549
 21
-172.1676919461298
 31
0.0
  0
LINE
  5
3E7
330
1F
100
AcDbEntity
  8
0-A
  6
Continuous
 62
     4
370
    13
100
AcDbLine
 10
473.5146442787118
 20
-172.1676919461298
 30
0.0
 11
466.1518249163805
 21
-172.1676919461298
 31
0.0
  0
ARC
  5
3E8
330
1F
100
AcDbEntity
  8
0-A
  6
Continuous
 62
     2
370
    13
100
AcDbCircle
 10
-191.5744010654608
 20
-141.5016499275485
 30
0.0
 40
9.333912101951805
100
AcDbArc
 50
47.92556762695312
 51
132.0746307373047
  0
ARC
  5
3E9
330
1F
100
AcDbEntity
  8
0-A
  6
Continuous
 62
     2
370
    13
100
AcDbCircle
 10
-172.82901994215
 20
-165.7990857911468
 30
0.0
 40
33.63136600803685
100
AcDbArc
 50
68.19786071777345
 51
111.8021392822266
  0
ARC
  5
3EA
330
1F
100
AcDbEntity
  8
0-A
  6
Continuous
 62
     2
370
    13
100
AcDbCircle
 10
-154.0838037787208
 20
-141.5016499275485
 30
0.0
 40
9.33396558503847
100
AcDbArc
 50
47.92572021484376
 51
132.0742797851562
  0
ARC
  5
3EB
330
1F
100
AcDbEntity
  8
0-A
  6
Continuous
 62
     4
370
    13
100
AcDbCircle
 10
587.3066100726305
 20
-162.1678239140354
 30
0.0
 40
10.00000012887491
100
AcDbArc
 50
270.0
 51
348.6901550292969
  0
ARC
  5
3EC
330
1F
100
AcDbEntity
  8
0-A
  6
Continuous
 62
     4
370
    13
100
AcDbCircle
 10
-216.2977633437545
 20
-162.1678239140354
 30
0.0
 40
10.00000012887491
100
AcDbArc
 50
191.3098449707032
 51
270.0000000000001
  0
ARC
  5
3ED
330
1F
100
AcDbEntity
  8
0-A
  6
Continuous
 62
     4
370
    13
100
AcDbCircle
 10
599.4384196165496
 20
-135.5010692687648
 30
0.0
 40
10.00000012887491
100
AcDbArc
 50
90.0
 51
168.6902008056641
  0
ARC
  5
3EE
330
1F
100
AcDbEntity
  8
0-A
  6
Continuous
 62
     4
370
    13
100
AcDbCircle
 10
638.2171886199277
 20
-102.1679558819406
 30
0.0
 40
10.00000012887491
100
AcDbArc
 50
270.0
 51
352.6479187011719
  0
ARC
  5
3EF
330
1F
100
AcDbEntity
  8
0-A
  6
Continuous
 62
     4
370
    13
100
AcDbCircle
 10
588.5081778513469
 20
-122.1676919461298
 30
0.0
 40
10.00000012887491
100
AcDbArc
 50
90.0
 51
168.6895446777344
  0
ARC
  5
3F0
330
1F
100
AcDbEntity
  8
0-A
  6
Continuous
 62
     4
370
    13
100
AcDbCircle
 10
573.7092969391847
 20
-162.1678239140354
 30
0.0
 40
10.00000012887491
100
AcDbArc
 50
270.0
 51
348.6895446777344
  0
ARC
  5
3F1
330
1F
100
AcDbEntity
  8
0-A
  6
Continuous
 62
     4
370
    13
100
AcDbCircle
 10
562.7783953344548
 20
-148.8342816315183
 30
0.0
 40
10.00000012887491
100
AcDbArc
 50
270.0
 51
348.6895446777344
  0
ARC
  5
3F2
330
1F
100
AcDbEntity
  8
0-A
  6
Continuous
 62
     4
370
    13
100
AcDbCircle
 10
-265.4879752842107
 20
-115.5013332045756
 30
0.0
 40
10.00000012887491
100
AcDbArc
 50
187.3520355224609
 51
270.0
  0
ARC
  5
3F3
330
1F
100
AcDbEntity
  8
0-A
  6
Continuous
 62
     4
370
    13
100
AcDbCircle
 10
-228.4297378475552
 20
-135.5010692687648
 30
0.0
 40
10.00000012887491
100
AcDbArc
 50
11.30973815917969
 51
90.00000000000001
  0
ARC
  5
3F4
330
1F
100
AcDbEntity
  8
0-A
  6
Continuous
 62
     4
370
    13
100
AcDbCircle
 10
-206.367013502116
 20
-143.8345125753527
 30
0.0
 40
10.00000012887491
100
AcDbArc
 50
191.3097381591797
 51
270.0
  0
ARC
  5
3F5
330
1F
100
AcDbEntity
  8
0-A
  6
JWW_DASHED1
 62
     4
370
    13
100
AcDbCircle
 10
-205.3670266989066
 20
-148.8342816315183
 30
0.0
 40
10.00000012887491
100
AcDbArc
 50
191.3097381591797
 51
270.0
  0
ARC
  5
3F6
330
1F
100
AcDbEntity
  8
0-A
  6
Continuous
 62
     4
370
    13
100
AcDbCircle
 10
-284.0931405080281
 20
-75.50120123667045
 30
0.0
 40
3.333333376291636
100
AcDbArc
 50
7.3507080078125
 51
90.00000000000001
  0
ARC
  5
3F7
330
1F
100
AcDbEntity
  8
0-A
  6
Continuous
 62
     4
370
    13
100
AcDbCircle
 10
-288.2197769100552
 20
-75.50120123667045
 30
0.0
 40
3.333333376291636
100
AcDbArc
 50
90.0
 51
172.875732421875
  0
ARC
  5
3F8
330
1F
100
AcDbEntity
  8
0-A
  6
Continuous
 62
     4
370
    13
100
AcDbCircle
 10
659.2284586790495
 20
-75.50120123667045
 30
0.0
 40
3.333333376291636
100
AcDbArc
 50
7.124267578125002
 51
90.00000000000001
  0
ARC
  5
3F9
330
1F
100
AcDbEntity
  8
0-A
  6
Continuous
 62
     4
370
    13
100
AcDbCircle
 10
655.1018222770224
 20
-75.50120123667045
 30
0.0
 40
3.333333376291636
100
AcDbArc
 50
90.0
 51
172.6491546630859
  0
LINE
  5
3FA
330
1F
100
AcDbEntity
  8
0-A
  6
Continuous
 62
     4
370
    13
100
AcDbLine
 10
588.5081778513469
 20
-112.1676918172549
 30
0.0
 11
638.2171886199277
 21
-112.1676918172549
 31
0.0
  0
LINE
  5
3FB
330
1F
100
AcDbEntity
  8
0-A
  6
Continuous
 62
     4
370
    13
100
AcDbLine
 10
574.9106927488841
 20
-125.5012012366704
 30
0.0
 11
461.0770004678768
 21
-125.5012012366704
 31
0.0
  0
LINE
  5
3FC
330
1F
100
AcDbEntity
  8
0-A
  6
Continuous
 62
     4
370
    13
100
AcDbLine
 10
578.1792902554138
 20
-122.8216120822167
 30
0.0
 11
578.7023026401982
 21
-120.2066488718055
 31
0.0
  0
ARC
  5
3FD
330
1F
100
AcDbEntity
  8
0-A
  6
Continuous
 62
     4
370
    13
100
AcDbCircle
 10
574.9106927488841
 20
-122.1678679033371
 30
0.0
 40
3.333333333333333
100
AcDbArc
 50
270.0
 51
348.6896515869503
  0
LINE
  5
3FE
330
1F
100
AcDbEntity
  8
0-A
  6
Continuous
 62
     4
370
    13
100
AcDbLine
 10
572.5841843209001
 20
-150.7955324902323
 30
0.0
 11
578.7023026401982
 21
-120.2066488718055
 31
0.0
  0
LINE
  5
3FF
330
1F
100
AcDbEntity
  8
0-A
  6
Continuous
 62
     4
370
    13
100
AcDbLine
 10
-239.3603703080178
 20
-138.8345785593055
 30
0.0
 11
-294.4956756114909
 21
-138.8345785593055
 31
0.0
  0
LINE
  5
400
330
1F
100
AcDbEntity
  8
0-A
  6
Continuous
 62
     4
370
    13
100
AcDbLine
 10
-229.5545635511086
 20
-146.8734172079237
 30
0.0
 11
-226.1034735950215
 21
-164.1288669883596
 31
0.0
  0
ARC
  5
401
330
1F
100
AcDbEntity
  8
0-A
  6
Continuous
 62
     4
370
    13
100
AcDbCircle
 10
-239.3603703080178
 20
-148.8345785593055
 30
0.0
 40
10.0
100
AcDbArc
 50
11.30993247401984
 51
90.00000000000001
  0
LINE
  5
402
330
1F
100
AcDbEntity
  8
0-A
  6
Continuous
 62
     4
370
    13
100
AcDbLine
 10
600.5634643636772
 20
-146.8731468026178
 30
0.0
 11
597.1118254442521
 21
-164.1288669883596
 31
0.0
  0
LINE
  5
403
330
1F
100
AcDbEntity
  8
0-A
  6
Continuous
 62
     4
370
    13
100
AcDbLine
 10
610.3692170356477
 20
-138.8345785593055
 30
0.0
 11
665.5041924206034
 21
-138.8345785593055
 31
0.0
  0
ARC
  5
404
330
1F
100
AcDbEntity
  8
0-A
  6
Continuous
 62
     4
370
    13
100
AcDbCircle
 10
610.3692170356477
 20
-148.8345785593055
 30
0.0
 40
10.0
100
AcDbArc
 50
90.0
 51
168.6884875309939
  0
LINE
  5
405
330
1F
100
AcDbEntity
  8
0-A
  6
JWW_CENTER1
 62
     2
370
    13
100
AcDbLine
 10
-196.9792300655094
 20
829.06388752067
 30
0.0
 11
-196.9792300655094
 21
852.1077932427984
 31
0.0
  0
LINE
  5
406
330
1F
100
AcDbEntity
  8
0-5_文字
  6
Continuous
 62
     7
370
    13
100
AcDbLine
 10
522.1708810819212
 20
-185.5012342286466
 30
0.0
 11
525.4340358874224
 21
-160.7151126943014
 31
0.0
  0
LINE
  5
407
330
1F
100
AcDbEntity
  8
0-5_文字
  6
Continuous
 62
     7
370
    13
100
AcDbLine
 10
522.1708810819212
 20
-185.5012342286466
 30
0.0
 11
531.7379668910484
 21
-162.4042459158645
 31
0.0
  0
LINE
  5
408
330
1F
100
AcDbEntity
  8
0-5_文字
  6
Continuous
 62
     7
370
    13
100
AcDbLine
 10
488.7991670827657
 20
-169.1680717662575
 30
0.0
 11
492.062321888267
 21
-144.3819502319122
 31
0.0
  0
LINE
  5
409
330
1F
100
AcDbEntity
  8
0-5_文字
  6
Continuous
 62
     7
370
    13
100
AcDbLine
 10
488.7991670827657
 20
-169.1680717662575
 30
0.0
 11
498.3662528918929
 21
-146.0710834534753
 31
0.0
  0
LINE
  5
40A
330
1F
100
AcDbEntity
  8
0-5_文字
  6
Continuous
 62
     7
370
    13
100
AcDbLine
 10
651.796026246617
 20
-75.07445002256557
 30
0.0
 11
700.7550533694221
 21
107.6431266888854
 31
0.0
  0
LINE
  5
40B
330
1F
100
AcDbEntity
  8
0-5_文字
  6
Continuous
 62
     7
370
    13
100
AcDbLine
 10
651.796026246617
 20
-75.07445002256557
 30
0.0
 11
655.0591810521183
 21
-50.2883284882203
 31
0.0
  0
LINE
  5
40C
330
1F
100
AcDbEntity
  8
0-5_文字
  6
Continuous
 62
     7
370
    13
100
AcDbLine
 10
651.796026246617
 20
-75.07445002256557
 30
0.0
 11
661.3631120557442
 21
-51.9774617097834
 31
0.0
  0
LINE
  5
40D
330
1F
100
AcDbEntity
  8
0-5_文字
  6
Continuous
 62
     7
370
    13
100
AcDbLine
 10
-86.86314684248778
 20
23.66657615986686
 30
0.0
 11
-96.43023265161503
 21
46.76356447264902
 31
0.0
  0
LINE
  5
40E
330
1F
100
AcDbEntity
  8
0-5_文字
  6
Continuous
 62
     7
370
    13
100
AcDbLine
 10
-86.86314684248778
 20
23.66657615986686
 30
0.0
 11
-90.12630164798907
 21
48.45269769421212
 31
0.0
  0
LINE
  5
40F
330
1F
100
AcDbEntity
  8
0-5_文字
  6
Continuous
 62
     7
370
    13
100
AcDbLine
 10
-59.90779488408386
 20
-202.1680383618815
 30
0.0
 11
-69.47488069321109
 21
-179.0710500490993
 31
0.0
  0
LINE
  5
410
330
1F
100
AcDbEntity
  8
0-5_文字
  6
Continuous
 62
     7
370
    13
100
AcDbLine
 10
-59.90779488408386
 20
-202.1680383618815
 30
0.0
 11
-63.17094968958514
 21
-177.3819168275362
 31
0.0
  0
LINE
  5
411
330
1F
100
AcDbEntity
  8
0-5_文字
  6
Continuous
 62
     7
370
    13
100
AcDbLine
 10
-191.5744010654608
 20
-132.1677249381062
 30
0.0
 11
-201.141486874588
 21
-109.070736625324
 31
0.0
  0
LINE
  5
412
330
1F
100
AcDbEntity
  8
0-5_文字
  6
Continuous
 62
     7
370
    13
100
AcDbLine
 10
-191.5744010654608
 20
-132.1677249381062
 30
0.0
 11
-194.837555870962
 21
-107.3816034037609
 31
0.0
  0
LINE
  5
413
330
1F
100
AcDbEntity
  8
0-5_文字
  6
Continuous
 62
     7
370
    13
100
AcDbLine
 10
700.7550533694221
 20
107.6431266888854
 30
0.0
 11
1038.057057141016
 21
107.6431266888854
 31
0.0
  0
LINE
  5
414
330
1F
100
AcDbEntity
  8
0-5_文字
  6
Continuous
 62
     7
370
    13
100
AcDbLine
 10
522.1708810819212
 20
-185.5012342286466
 30
0.0
 11
638.1927887402234
 21
247.4984199432019
 31
0.0
  0
LINE
  5
415
330
1F
100
AcDbEntity
  8
0-5_文字
  6
Continuous
 62
     7
370
    13
100
AcDbLine
 10
638.1927887402234
 20
247.4984199432019
 30
0.0
 11
983.5613973881935
 21
247.4984199432019
 31
0.0
  0
LINE
  5
416
330
1F
100
AcDbEntity
  8
0-5_文字
  6
Continuous
 62
     7
370
    13
100
AcDbLine
 10
488.7991670827657
 20
-169.1680717662575
 30
0.0
 11
639.7003600749888
 21
394.0028474034759
 31
0.0
  0
LINE
  5
417
330
1F
100
AcDbEntity
  8
0-5_文字
  6
Continuous
 62
     7
370
    13
100
AcDbLine
 10
639.7003600749888
 20
394.0028474034759
 30
0.0
 11
977.1102178404767
 21
394.0028474034759
 31
0.0
  0
LINE
  5
418
330
1F
100
AcDbEntity
  8
0-5_文字
  6
Continuous
 62
     7
370
    13
100
AcDbLine
 10
-224.1834090625094
 20
410.916900196585
 30
0.0
 11
-597.4757852492971
 21
410.916900196585
 31
0.0
  0
LINE
  5
419
330
1F
100
AcDbEntity
  8
0-5_文字
  6
Continuous
 62
     7
370
    13
100
AcDbLine
 10
-59.90779488408386
 20
-202.1680383618815
 30
0.0
 11
-224.1834090625094
 21
410.916900196585
 31
0.0
  0
LINE
  5
41A
330
1F
100
AcDbEntity
  8
0-5_文字
  6
Continuous
 62
     7
370
    13
100
AcDbLine
 10
-260.8256321952921
 20
126.2813881251198
 30
0.0
 11
-628.7162682815311
 21
126.2813881251198
 31
0.0
  0
LINE
  5
41B
330
1F
100
AcDbEntity
  8
0-5_文字
  6
Continuous
 62
     7
370
    13
100
AcDbLine
 10
-191.5744010654608
 20
-132.1677249381062
 30
0.0
 11
-260.8256321952921
 21
126.2813881251198
 31
0.0
  0
LINE
  5
41C
330
1F
100
AcDbEntity
  8
0-5_文字
  6
Continuous
 62
     7
370
    13
100
AcDbLine
 10
-229.7849281929597
 20
557.0579256680783
 30
0.0
 11
-592.5708052463696
 21
557.0579256680783
 31
0.0
  0
LINE
  5
41D
330
1F
100
AcDbEntity
  8
0-5_文字
  6
Continuous
 62
     7
370
    13
100
AcDbLine
 10
-86.86314684248778
 20
23.66657615986686
 30
0.0
 11
-229.7849281929597
 21
557.0579256680783
 31
0.0
  0
LINE
  5
41E
330
1F
100
AcDbEntity
  8
0-5_文字
  6
Continuous
 62
     7
370
    13
100
AcDbLine
 10
618.3724514471669
 20
553.1541565663035
 30
0.0
 11
972.1376173072082
 21
553.1541565663035
 31
0.0
  0
TEXT
  5
41F
330
1F
100
AcDbEntity
  8
F-5ﾚｲﾔ
  6
Continuous
 62
     6
370
    13
100
AcDbText
 10
183.0058376877507
 20
-1112.619480076671
 30
0.0
 40
30.48
  1
ステンレス鋳鋼製　たて引き用　打込型　外断熱用　　Ｃ＝１２０
 50
0.000002109711118
 41
0.7241666666666667
  7
ＭＳ ゴシック
100
AcDbText
  0
TEXT
  5
420
330
1F
100
AcDbEntity
  8
F-5ﾚｲﾔ
  6
Continuous
 62
     6
370
    13
100
AcDbText
 10
181.4537778967823
 20
-1157.629182681938
 30
0.0
 40
30.48
  1
ねじ込み式　ルーフドレイン　　　　　　ＥＳＳＢＷ－２－１２５
 41
0.7241666666666668
  7
ＭＳ ゴシック
100
AcDbText
  0
TEXT
  5
421
330
1F
100
AcDbEntity
  8
0-5_文字
  6
Continuous
 62
     7
370
    13
100
AcDbText
 10
-394.3370336932055
 20
-615.2439383170123
 30
0.0
 40
22.86
  1
スペーサー
 41
1.133333333333333
  7
ＭＳ ゴシック
100
AcDbText
  0
TEXT
  5
422
330
1F
100
AcDbEntity
  8
0-5_文字
  6
Continuous
 62
     7
370
    13
100
AcDbText
 10
-492.3722663006944
 20
-669.9765388762399
 30
0.0
 40
22.86
  1
硬質ポリ塩化ビニル管
 41
1.15
  7
ＭＳ ゴシック
100
AcDbText
  0
LINE
  5
423
330
1F
100
AcDbEntity
  8
0-5_文字
  6
Continuous
 62
     7
370
    13
100
AcDbLine
 10
-147.2309166508703
 20
-631.6893619009967
 30
0.0
 11
-491.0834016589561
 21
-631.6893619009967
 31
0.0
  0
LINE
  5
424
330
1F
100
AcDbEntity
  8
0-4_寸法
  6
Continuous
 62
     7
370
    13
100
AcDbLine
 10
-239.1254891408406
 20
-785.5123164961525
 30
0.0
 11
-239.1254891408406
 21
-687.1691328865652
 31
0.0
  0
LINE
  5
425
330
1F
100
AcDbEntity
  8
0-0_通り芯
  6
Continuous
 62
     3
370
    13
100
AcDbLine
 10
401.0597278143957
 20
-267.8581150352346
 30
0.0
 11
-11.40946592768621
 21
-267.8581150352346
 31
0.0
  0
ENDSEC
  0
SECTION
  2
OBJECTS
  0
DICTIONARY
  5
C
330
0
100
AcDbDictionary
281
     1
  3
ACAD_GROUP
350
D
  3
ACAD_LAYOUT
350
1A
  3
ACAD_MLEADERSTYLE
350
427
  3
ACAD_MLINESTYLE
350
17
  3
ACAD_PLOTSETTINGS
350
19
  3
ACAD_PLOTSTYLENAME
350
E
  3
ACAD_TABLESTYLE
350
426
  3
ACAD_VISUALSTYLE
350
2A
  0
DICTIONARY
  5
D
102
{ACAD_REACTORS
330
C
102
}
330
C
100
AcDbDictionary
281
     1
  0
DICTIONARY
  5
1A
102
{ACAD_REACTORS
330
C
102
}
330
C
100
AcDbDictionary
281
     1
  3
Layout1
350
1E
  3
Layout2
350
26
  3
Model
350
22
  0
DICTIONARY
  5
427
102
{ACAD_REACTORS
330
C
102
}
330
C
100
AcDbDictionary
281
     1
  0
DICTIONARY
  5
17
102
{ACAD_REACTORS
330
C
102
}
330
C
100
AcDbDictionary
281
     1
  3
Standard
350
18
  0
DICTIONARY
  5
19
102
{ACAD_REACTORS
330
C
102
}
330
C
100
AcDbDictionary
281
     1
  0
ACDBDICTIONARYWDFLT
  5
E
102
{ACAD_REACTORS
330
C
102
}
330
C
100
AcDbDictionary
281
     1
  3
Normal
350
F
100
AcDbDictionaryWithDefault
340
F
  0
DICTIONARY
  5
426
102
{ACAD_REACTORS
330
C
102
}
330
C
100
AcDbDictionary
281
     1
  0
DICTIONARY
  5
2A
102
{ACAD_REACTORS
330
C
102
}
330
C
100
AcDbDictionary
281
     1
  3
2dWireframe
350
2F
  3
3D Hidden
350
31
  3
3dWireframe
350
30
  3
Basic
350
32
  3
Brighten
350
36
  3
ColorChange
350
3A
  3
Conceptual
350
34
  3
Dim
350
35
  3
Facepattern
350
39
  3
Flat
350
2B
  3
FlatWithEdges
350
2C
  3
Gouraud
350
2D
  3
GouraudWithEdges
350
2E
  3
Linepattern
350
38
  3
Realistic
350
33
  3
Thicken
350
37
  0
LAYOUT
  5
1E
102
{ACAD_REACTORS
330
1A
102
}
330
1A
100
AcDbPlotSettings
  1

  2
none_device
  4

  6

 40
0.0
 41
0.0
 42
0.0
 43
0.0
 44
0.0
 45
0.0
 46
0.0
 47
0.0
 48
0.0
 49
0.0
140
0.0
141
0.0
142
1.0
143
1.0
 70
   688
 72
     0
 73
     0
 74
     5
  7

 75
    16
 76
     0
 77
     5
 78
   300
147
1.0
148
0.0
149
0.0
100
AcDbLayout
  1
Layout1
 70
     1
 71
     1
 10
0.0
 20
0.0
 11
420.0
 21
297.0
 12
0.0
 22
0.0
 32
0.0
 14
1.000000000000000E+20
 24
1.000000000000000E+20
 34
1.000000000000000E+20
 15
-1.000000000000000E+20
 25
-1.000000000000000E+20
 35
-1.000000000000000E+20
146
0.0
 13
0.0
 23
0.0
 33
0.0
 16
1.0
 26
0.0
 36
0.0
 17
0.0
 27
1.0
 37
0.0
 76
     0
330
1B
  0
LAYOUT
  5
26
102
{ACAD_REACTORS
330
1A
102
}
330
1A
100
AcDbPlotSettings
  1

  2
none_device
  4

  6

 40
0.0
 41
0.0
 42
0.0
 43
0.0
 44
0.0
 45
0.0
 46
0.0
 47
0.0
 48
0.0
 49
0.0
140
0.0
141
0.0
142
1.0
143
1.0
 70
   688
 72
     0
 73
     0
 74
     5
  7

 75
    16
 76
     0
 77
     5
 78
   300
147
1.0
148
0.0
149
0.0
100
AcDbLayout
  1
Layout2
 70
     1
 71
     2
 10
0.0
 20
0.0
 11
0.0
 21
0.0
 12
0.0
 22
0.0
 32
0.0
 14
0.0
 24
0.0
 34
0.0
 15
0.0
 25
0.0
 35
0.0
146
0.0
 13
0.0
 23
0.0
 33
0.0
 16
1.0
 26
0.0
 36
0.0
 17
0.0
 27
1.0
 37
0.0
 76
     0
330
23
  0
LAYOUT
  5
22
102
{ACAD_REACTORS
330
1A
102
}
330
1A
100
AcDbPlotSettings
  1

  2
none_device
  4

  6

 40
0.0
 41
0.0
 42
0.0
 43
0.0
 44
0.0
 45
0.0
 46
0.0
 47
0.0
 48
0.0
 49
0.0
140
0.0
141
0.0
142
1.0
143
1.0
 70
  1712
 72
     0
 73
     0
 74
     0
  7

 75
     0
 76
     0
 77
     5
 78
   300
147
1.0
148
0.0
149
0.0
100
AcDbLayout
  1
Model
 70
     1
 71
     0
 10
-2100.0
 20
-1485.0
 11
2100.0
 21
1485.0
 12
0.0
 22
0.0
 32
0.0
 14
-2100.0
 24
-1485.0
 34
0.0
 15
2100.0
 25
1485.0
 35
0.0
146
0.0
 13
0.0
 23
0.0
 33
0.0
 16
1.0
 26
0.0
 36
0.0
 17
0.0
 27
1.0
 37
0.0
 76
     0
330
1F
331
29
  0
MLINESTYLE
  5
18
102
{ACAD_REACTORS
330
17
102
}
330
17
100
AcDbMlineStyle
  2
Standard
 70
     0
  3

 62
   256
 51
90.0
 52
90.0
 71
     2
 49
0.5
 62
   256
  6
BYLAYER
 49
-0.5
 62
   256
  6
BYLAYER
  0
ACDBPLACEHOLDER
  5
F
102
{ACAD_REACTORS
330
E
102
}
330
E
  0
VISUALSTYLE
  5
2F
102
{ACAD_REACTORS
330
2A
102
}
330
2A
100
AcDbVisualStyle
  2
2dWireframe
 70
     4
 71
     0
 72
     2
 73
     0
 90
        0
 40
-0.6
 41
-30.0
 62
     5
 63
     7
421
 16777215
 74
     1
 91
        4
 64
     7
 65
   257
 75
     1
175
     1
 42
1.0
 92
        0
 66
   257
 43
1.0
 76
     1
 77
     6
 78
     2
 67
     7
 79
     5
170
     0
171
     0
290
     0
174
     0
 93
        1
 44
0.0
173
     0
291
     0
 45
0.0
1001
ACAD
1000
AcDbSavedByObjectVersion
1070
     0
  0
VISUALSTYLE
  5
31
102
{ACAD_REACTORS
330
2A
102
}
330
2A
100
AcDbVisualStyle
  2
3D Hidden
 70
     6
 71
     1
 72
     2
 73
     2
 90
        0
 40
-0.6
 41
-30.0
 62
     5
 63
     7
421
 16777215
 74
     2
 91
        2
 64
     7
 65
   257
 75
     2
175
     1
 42
40.0
 92
        0
 66
   257
 43
1.0
 76
     1
 77
     6
 78
     2
 67
     7
 79
     3
170
     0
171
     0
290
     0
174
     0
 93
        1
 44
0.0
173
     0
291
     0
 45
0.0
1001
ACAD
1000
AcDbSavedByObjectVersion
1070
     0
  0
VISUALSTYLE
  5
30
102
{ACAD_REACTORS
330
2A
102
}
330
2A
100
AcDbVisualStyle
  2
3dWireframe
 70
     5
 71
     0
 72
     2
 73
     0
 90
        0
 40
-0.6
 41
-30.0
 62
     5
 63
     7
421
 16777215
 74
     1
 91
        4
 64
     7
 65
   257
 75
     1
175
     1
 42
1.0
 92
        0
 66
   257
 43
1.0
 76
     1
 77
     6
 78
     2
 67
     7
 79
     5
170
     0
171
     0
290
     0
174
     0
 93
        1
 44
0.0
173
     0
291
     0
 45
0.0
1001
ACAD
1000
AcDbSavedByObjectVersion
1070
     0
  0
VISUALSTYLE
  5
32
102
{ACAD_REACTORS
330
2A
102
}
330
2A
100
AcDbVisualStyle
  2
Basic
 70
     7
 71
     1
 72
     0
 73
     1
 90
        0
 40
-0.6
 41
-30.0
 62
     5
 63
     7
421
 16777215
 74
     0
 91
        4
 64
     7
 65
   257
 75
     1
175
     1
 42
1.0
 92
        8
 66
     7
 43
1.0
 76
     1
 77
     6
 78
     2
 67
     7
 79
     5
170
     0
171
     0
290
     0
174
     0
 93
        1
 44
0.0
173
     0
291
     1
 45
0.0
1001
ACAD
1000
AcDbSavedByObjectVersion
1070
     0
  0
VISUALSTYLE
  5
36
102
{ACAD_REACTORS
330
2A
102
}
330
2A
100
AcDbVisualStyle
  2
Brighten
 70
    12
 71
     2
 72
     2
 73
     0
 90
        0
 40
-0.6
 41
-30.0
 62
     5
 63
     7
421
 16777215
 74
     1
 91
        4
 64
     7
 65
   257
 75
     1
175
     1
 42
1.0
 92
        8
 66
     7
 43
1.0
 76
     1
 77
     6
 78
     2
 67
     7
 79
     5
170
     0
171
     0
290
     0
174
     0
 93
        1
 44
50.0
173
     0
291
     1
 45
0.0
1001
ACAD
1000
AcDbSavedByObjectVersion
1070
     0
  0
VISUALSTYLE
  5
3A
102
{ACAD_REACTORS
330
2A
102
}
330
2A
100
AcDbVisualStyle
  2
ColorChange
 70
    16
 71
     2
 72
     2
 73
     3
 90
        0
 40
-0.6
 41
-30.0
 62
     5
 63
     8
421
  8421504
 74
     1
 91
        4
 64
     7
 65
   257
 75
     1
175
     1
 42
1.0
 92
        8
 66
     8
424
  8421504
 43
1.0
 76
     1
 77
     6
 78
     2
 67
     7
 79
     5
170
     0
171
     0
290
     0
174
     0
 93
        1
 44
0.0
173
     0
291
     1
 45
0.0
1001
ACAD
1000
AcDbSavedByObjectVersion
1070
     0
  0
VISUALSTYLE
  5
34
102
{ACAD_REACTORS
330
2A
102
}
330
2A
100
AcDbVisualStyle
  2
Conceptual
 70
     9
 71
     3
 72
     2
 73
     0
 90
        0
 40
-0.6
 41
-30.0
 62
     5
 63
     7
421
 16777215
 74
     2
 91
        2
 64
     7
 65
   257
 75
     1
175
     1
 42
40.0
 92
        8
 66
     7
 43
1.0
 76
     1
 77
     6
 78
     2
 67
     7
 79
     3
170
     0
171
     0
290
     0
174
     0
 93
        1
 44
0.0
173
     0
291
     0
 45
0.0
1001
ACAD
1000
AcDbSavedByObjectVersion
1070
     0
  0
VISUALSTYLE
  5
35
102
{ACAD_REACTORS
330
2A
102
}
330
2A
100
AcDbVisualStyle
  2
Dim
 70
    11
 71
     2
 72
     2
 73
     0
 90
        0
 40
-0.6
 41
-30.0
 62
     5
 63
     7
421
 16777215
 74
     1
 91
        4
 64
     7
 65
   257
 75
     1
175
     1
 42
1.0
 92
        8
 66
     7
 43
1.0
 76
     1
 77
     6
 78
     2
 67
     7
 79
     5
170
     0
171
     0
290
     0
174
     0
 93
        1
 44
-50.0
173
     0
291
     1
 45
0.0
1001
ACAD
1000
AcDbSavedByObjectVersion
1070
     0
  0
VISUALSTYLE
  5
39
102
{ACAD_REACTORS
330
2A
102
}
330
2A
100
AcDbVisualStyle
  2
Facepattern
 70
    15
 71
     2
 72
     2
 73
     0
 90
        0
 40
-0.6
 41
-30.0
 62
     5
 63
     7
421
 16777215
 74
     1
 91
        4
 64
     7
 65
   257
 75
     1
175
     1
 42
1.0
 92
        8
 66
     7
 43
1.0
 76
     1
 77
     6
 78
     2
 67
     7
 79
     5
170
     0
171
     0
290
     0
174
     0
 93
        1
 44
0.0
173
     0
291
     1
 45
0.0
1001
ACAD
1000
AcDbSavedByObjectVersion
1070
     0
  0
VISUALSTYLE
  5
2B
102
{ACAD_REACTORS
330
2A
102
}
330
2A
100
AcDbVisualStyle
  2
Flat
 70
     0
 71
     2
 72
     1
 73
     1
 90
        2
 40
-0.6
 41
30.0
 62
     5
 63
     7
421
 16777215
 74
     0
 91
        4
 64
     7
 65
   257
 75
     1
175
     1
 42
1.0
 92
        8
 66
     7
 43
1.0
 76
     1
 77
     6
 78
     2
 67
     7
 79
     5
170
     0
171
     0
290
     0
174
     0
 93
       13
 44
0.0
173
     0
291
     1
 45
0.0
1001
ACAD
1000
AcDbSavedByObjectVersion
1070
     0
  0
VISUALSTYLE
  5
2C
102
{ACAD_REACTORS
330
2A
102
}
330
2A
100
AcDbVisualStyle
  2
FlatWithEdges
 70
     1
 71
     2
 72
     1
 73
     1
 90
        2
 40
-0.6
 41
30.0
 62
     5
 63
     7
421
 16777215
 74
     1
 91
        4
 64
     7
 65
   257
 75
     1
175
     1
 42
1.0
 92
        0
 66
   257
 43
1.0
 76
     1
 77
     6
 78
     2
 67
     7
 79
     5
170
     0
171
     0
290
     0
174
     0
 93
       13
 44
0.0
173
     0
291
     1
 45
0.0
1001
ACAD
1000
AcDbSavedByObjectVersion
1070
     0
  0
VISUALSTYLE
  5
2D
102
{ACAD_REACTORS
330
2A
102
}
330
2A
100
AcDbVisualStyle
  2
Gouraud
 70
     2
 71
     2
 72
     2
 73
     1
 90
        2
 40
-0.6
 41
30.0
 62
     5
 63
     7
421
 16777215
 74
     0
 91
        4
 64
     7
 65
   257
 75
     1
175
     1
 42
1.0
 92
        0
 66
     7
 43
1.0
 76
     1
 77
     6
 78
     2
 67
     7
 79
     5
170
     0
171
     0
290
     0
174
     0
 93
       13
 44
0.0
173
     0
291
     1
 45
0.0
1001
ACAD
1000
AcDbSavedByObjectVersion
1070
     0
  0
VISUALSTYLE
  5
2E
102
{ACAD_REACTORS
330
2A
102
}
330
2A
100
AcDbVisualStyle
  2
GouraudWithEdges
 70
     3
 71
     2
 72
     2
 73
     1
 90
        2
 40
-0.6
 41
30.0
 62
     5
 63
     7
421
 16777215
 74
     1
 91
        4
 64
     7
 65
   257
 75
     1
175
     1
 42
1.0
 92
        0
 66
   257
 43
1.0
 76
     1
 77
     6
 78
     2
 67
     7
 79
     5
170
     0
171
     0
290
     0
174
     0
 93
       13
 44
0.0
173
     0
291
     1
 45
0.0
1001
ACAD
1000
AcDbSavedByObjectVersion
1070
     0
  0
VISUALSTYLE
  5
38
102
{ACAD_REACTORS
330
2A
102
}
330
2A
100
AcDbVisualStyle
  2
Linepattern
 70
    14
 71
     2
 72
     2
 73
     0
 90
        0
 40
-0.6
 41
-30.0
 62
     5
 63
     7
421
 16777215
 74
     1
 91
        4
 64
     7
 65
   257
 75
     7
175
     7
 42
1.0
 92
        8
 66
     7
 43
1.0
 76
     1
 77
     6
 78
     2
 67
     7
 79
     5
170
     0
171
     0
290
     0
174
     0
 93
        1
 44
0.0
173
     0
291
     1
 45
0.0
1001
ACAD
1000
AcDbSavedByObjectVersion
1070
     0
  0
VISUALSTYLE
  5
33
102
{ACAD_REACTORS
330
2A
102
}
330
2A
100
AcDbVisualStyle
  2
Realistic
 70
     8
 71
     2
 72
     2
 73
     0
 90
        0
 40
-0.6
 41
-30.0
 62
     5
 63
     7
421
 16777215
 74
     1
 91
        0
 64
     7
 65
   257
 75
     1
175
     1
 42
1.0
 92
        8
 66
     8
424
  7895160
 43
1.0
 76
     1
 77
     6
 78
     2
 67
     7
 79
     5
170
     0
171
     0
290
     0
174
     0
 93
       13
 44
0.0
173
     0
291
     0
 45
0.0
1001
ACAD
1000
AcDbSavedByObjectVersion
1070
     0
  0
VISUALSTYLE
  5
37
102
{ACAD_REACTORS
330
2A
102
}
330
2A
100
AcDbVisualStyle
  2
Thicken
 70
    13
 71
     2
 72
     2
 73
     0
 90
        0
 40
-0.6
 41
-30.0
 62
     5
 63
     7
421
 16777215
 74
     1
 91
        4
 64
     7
 65
   257
 75
     1
175
     1
 42
1.0
 92
       12
 66
     7
 43
1.0
 76
     1
 77
     6
 78
     2
 67
     7
 79
     5
170
     0
171
     0
290
     0
174
     0
 93
        1
 44
0.0
173
     0
291
     1
 45
0.0
1001
ACAD
1000
AcDbSavedByObjectVersion
1070
     0
  0
ENDSEC
  0
EOF
