  0
SECTION
  2
HEADER
  9
$ACADVER
  1
AC1018
  9
$ACADMAINTVER
 70
     0
  9
$DWGCODEPAGE
  3
ANSI_932
  9
$INSBASE
 10
0.0
 20
0.0
 30
0.0
  9
$EXTMIN
 10
-630.0
 20
-445.5
 30
0.0
  9
$EXTMAX
 10
630.0
 20
445.5
 30
0.0
  9
$LIMMIN
 10
-630.0
 20
-445.5
  9
$LIMMAX
 10
630.0
 20
445.5
  9
$ORTHOMODE
 70
     0
  9
$REGENMODE
 70
     1
  9
$FILLMODE
 70
     1
  9
$QTEXTMODE
 70
     0
  9
$MIRRTEXT
 70
     1
  9
$LTSCALE
 40
3.0
  9
$ATTMODE
 70
     1
  9
$TEXTSIZE
 40
2.5
  9
$TRACEWID
 40
1.0
  9
$TEXTSTYLE
  7
Standard
  9
$CLAYER
  8
0
  9
$CELTYPE
  6
ByLayer
  9
$CECOLOR
 62
   256
  9
$CELTSCALE
 40
1.0
  9
$DISPSILH
 70
     0
  9
$DIMSCALE
 40
1.0
  9
$DIMASZ
 40
2.5
  9
$DIMEXO
 40
0.625
  9
$DIMDLI
 40
3.75
  9
$DIMRND
 40
0.0
  9
$DIMDLE
 40
0.0
  9
$DIMEXE
 40
1.25
  9
$DIMTP
 40
0.0
  9
$DIMTM
 40
0.0
  9
$DIMTXT
 40
2.5
  9
$DIMCEN
 40
2.5
  9
$DIMTSZ
 40
0.0
  9
$DIMTOL
 70
     0
  9
$DIMLIM
 70
     0
  9
$DIMTIH
 70
     0
  9
$DIMTOH
 70
     0
  9
$DIMSE1
 70
     0
  9
$DIMSE2
 70
     0
  9
$DIMTAD
 70
     1
  9
$DIMZIN
 70
     8
  9
$DIMBLK
  1

  9
$DIMASO
 70
     1
  9
$DIMSHO
 70
     1
  9
$DIMPOST
  1

  9
$DIMAPOST
  1

  9
$DIMALT
 70
     0
  9
$DIMALTD
 70
     3
  9
$DIMALTF
 40
0.03937007874016
  9
$DIMLFAC
 40
1.0
  9
$DIMTOFL
 70
     1
  9
$DIMTVP
 40
0.0
  9
$DIMTIX
 70
     0
  9
$DIMSOXD
 70
     0
  9
$DIMSAH
 70
     0
  9
$DIMBLK1
  1

  9
$DIMBLK2
  1

  9
$DIMSTYLE
  2
ISO-25
  9
$DIMCLRD
 70
     0
  9
$DIMCLRE
 70
     0
  9
$DIMCLRT
 70
     0
  9
$DIMTFAC
 40
1.0
  9
$DIMGAP
 40
0.625
  9
$DIMJUST
 70
     0
  9
$DIMSD1
 70
     0
  9
$DIMSD2
 70
     0
  9
$DIMTOLJ
 70
     0
  9
$DIMTZIN
 70
     8
  9
$DIMALTZ
 70
     0
  9
$DIMALTTZ
 70
     0
  9
$DIMUPT
 70
     0
  9
$DIMDEC
 70
     2
  9
$DIMTDEC
 70
     2
  9
$DIMALTU
 70
     2
  9
$DIMALTTD
 70
     3
  9
$DIMTXSTY
  7
Standard
  9
$DIMAUNIT
 70
     0
  9
$DIMADEC
 70
     0
  9
$DIMALTRND
 40
0.0
  9
$DIMAZIN
 70
     0
  9
$DIMDSEP
 70
    44
  9
$DIMATFIT
 70
     3
  9
$DIMFRAC
 70
     0
  9
$DIMLDRBLK
  1

  9
$DIMLUNIT
 70
     2
  9
$DIMLWD
 70
    -2
  9
$DIMLWE
 70
    -2
  9
$DIMTMOVE
 70
     0
  9
$LUNITS
 70
     2
  9
$LUPREC
 70
     4
  9
$SKETCHINC
 40
1.0
  9
$FILLETRAD
 40
10.0
  9
$AUNITS
 70
     0
  9
$AUPREC
 70
     0
  9
$MENU
  1
.
  9
$ELEVATION
 40
0.0
  9
$PELEVATION
 40
0.0
  9
$THICKNESS
 40
0.0
  9
$LIMCHECK
 70
     0
  9
$CHAMFERA
 40
0.0
  9
$CHAMFERB
 40
0.0
  9
$CHAMFERC
 40
0.0
  9
$CHAMFERD
 40
0.0
  9
$SKPOLY
 70
     0
  9
$TDCREATE
 40
2460144.440594791
  9
$TDUCREATE
 40
2460144.065594791
  9
$TDUPDATE
 40
2460144.440594931
  9
$TDUUPDATE
 40
2460144.065594931
  9
$TDINDWG
 40
0.0000000116
  9
$TDUSRTIMER
 40
0.0000000116
  9
$USRTIMER
 70
     1
  9
$ANGBASE
 50
0.0
  9
$ANGDIR
 70
     0
  9
$PDMODE
 70
     0
  9
$PDSIZE
 40
0.0
  9
$PLINEWID
 40
0.0
  9
$SPLFRAME
 70
     0
  9
$SPLINETYPE
 70
     6
  9
$SPLINESEGS
 70
     8
  9
$HANDSEED
  5
3CA
  9
$SURFTAB1
 70
     6
  9
$SURFTAB2
 70
     6
  9
$SURFTYPE
 70
     6
  9
$SURFU
 70
     6
  9
$SURFV
 70
     6
  9
$UCSBASE
  2

  9
$UCSNAME
  2

  9
$UCSORG
 10
0.0
 20
0.0
 30
0.0
  9
$UCSXDIR
 10
1.0
 20
0.0
 30
0.0
  9
$UCSYDIR
 10
0.0
 20
1.0
 30
0.0
  9
$UCSORTHOREF
  2

  9
$UCSORTHOVIEW
 70
     0
  9
$UCSORGTOP
 10
0.0
 20
0.0
 30
0.0
  9
$UCSORGBOTTOM
 10
0.0
 20
0.0
 30
0.0
  9
$UCSORGLEFT
 10
0.0
 20
0.0
 30
0.0
  9
$UCSORGRIGHT
 10
0.0
 20
0.0
 30
0.0
  9
$UCSORGFRONT
 10
0.0
 20
0.0
 30
0.0
  9
$UCSORGBACK
 10
0.0
 20
0.0
 30
0.0
  9
$PUCSBASE
  2

  9
$PUCSNAME
  2

  9
$PUCSORG
 10
0.0
 20
0.0
 30
0.0
  9
$PUCSXDIR
 10
1.0
 20
0.0
 30
0.0
  9
$PUCSYDIR
 10
0.0
 20
1.0
 30
0.0
  9
$PUCSORTHOREF
  2

  9
$PUCSORTHOVIEW
 70
     0
  9
$PUCSORGTOP
 10
0.0
 20
0.0
 30
0.0
  9
$PUCSORGBOTTOM
 10
0.0
 20
0.0
 30
0.0
  9
$PUCSORGLEFT
 10
0.0
 20
0.0
 30
0.0
  9
$PUCSORGRIGHT
 10
0.0
 20
0.0
 30
0.0
  9
$PUCSORGFRONT
 10
0.0
 20
0.0
 30
0.0
  9
$PUCSORGBACK
 10
0.0
 20
0.0
 30
0.0
  9
$USERI1
 70
     0
  9
$USERI2
 70
     0
  9
$USERI3
 70
     0
  9
$USERI4
 70
     0
  9
$USERI5
 70
     0
  9
$USERR1
 40
0.0
  9
$USERR2
 40
0.0
  9
$USERR3
 40
0.0
  9
$USERR4
 40
0.0
  9
$USERR5
 40
0.0
  9
$WORLDVIEW
 70
     1
  9
$SHADEDGE
 70
     3
  9
$SHADEDIF
 70
    70
  9
$TILEMODE
 70
     1
  9
$MAXACTVP
 70
    64
  9
$PINSBASE
 10
0.0
 20
0.0
 30
0.0
  9
$PLIMCHECK
 70
     0
  9
$PEXTMIN
 10
1.000000000000000E+20
 20
1.000000000000000E+20
 30
1.000000000000000E+20
  9
$PEXTMAX
 10
-1.000000000000000E+20
 20
-1.000000000000000E+20
 30
-1.000000000000000E+20
  9
$PLIMMIN
 10
0.0
 20
0.0
  9
$PLIMMAX
 10
420.0
 20
297.0
  9
$UNITMODE
 70
     0
  9
$VISRETAIN
 70
     1
  9
$PLINEGEN
 70
     0
  9
$PSLTSCALE
 70
     1
  9
$TREEDEPTH
 70
  3020
  9
$CMLSTYLE
  2
Standard
  9
$CMLJUST
 70
     0
  9
$CMLSCALE
 40
20.0
  9
$PROXYGRAPHICS
 70
     1
  9
$MEASUREMENT
 70
     1
  9
$CELWEIGHT
370
    -1
  9
$ENDCAPS
280
     0
  9
$JOINSTYLE
280
     0
  9
$LWDISPLAY
290
     0
  9
$INSUNITS
 70
     4
  9
$HYPERLINKBASE
  1

  9
$STYLESHEET
  1

  9
$XEDIT
290
     1
  9
$CEPSNTYPE
380
     0
  9
$PSTYLEMODE
290
     1
  9
$FINGERPRINTGUID
  2
{36C1F641-898C-475C-AF71-8A2F76EA13E5}
  9
$VERSIONGUID
  2
{FAEB1C32-E019-11D5-929B-00C0DF256EC4}
  9
$EXTNAMES
290
     1
  9
$PSVPSCALE
 40
0.0
  9
$OLESTARTUP
290
     0
  9
$SORTENTS
280
   127
  9
$INDEXCTL
280
     0
  9
$HIDETEXT
280
     1
  9
$XCLIPFRAME
290
     0
  9
$HALOGAP
280
     0
  9
$OBSCOLOR
 70
   257
  9
$OBSLTYPE
280
     0
  9
$INTERSECTIONDISPLAY
280
     0
  9
$INTERSECTIONCOLOR
 70
   257
  9
$DIMASSOC
280
     2
  9
$PROJECTNAME
  1

  0
ENDSEC
  0
SECTION
  2
CLASSES
  0
CLASS
  1
ACDBDICTIONARYWDFLT
  2
AcDbDictionaryWithDefault
  3
ObjectDBX Classes
 90
        0
 91
        4
280
     0
281
     0
  0
CLASS
  1
VISUALSTYLE
  2
AcDbVisualStyle
  3
ObjectDBX Classes
 90
     4095
 91
        4
280
     0
281
     0
  0
CLASS
  1
MATERIAL
  2
AcDbMaterial
  3
ObjectDBX Classes
 90
     1153
 91
        4
280
     0
281
     0
  0
CLASS
  1
SCALE
  2
AcDbScale
  3
ObjectDBX Classes
 90
     1153
 91
        4
280
     0
281
     0
  0
CLASS
  1
TABLESTYLE
  2
AcDbTableStyle
  3
ObjectDBX Classes
 90
     4095
 91
        4
280
     0
281
     0
  0
CLASS
  1
MLEADERSTYLE
  2
AcDbMLeaderStyle
  3
ACDB_MLEADERSTYLE_CLASS
 90
     4095
 91
        4
280
     0
281
     0
  0
CLASS
  1
SUN
  2
AcDbSun
  3
SCENEOE
 90
     1153
 91
        4
280
     0
281
     0
  0
CLASS
  1
DICTIONARYVAR
  2
AcDbDictionaryVar
  3
ObjectDBX Classes
 90
        0
 91
        4
280
     0
281
     0
  0
CLASS
  1
CELLSTYLEMAP
  2
AcDbCellStyleMap
  3
ObjectDBX Classes
 90
     1152
 91
        4
280
     0
281
     0
  0
ENDSEC
  0
SECTION
  2
TABLES
  0
TABLE
  2
VPORT
  5
8
102
{ACAD_XDICTIONARY
360
381
102
}
330
0
100
AcDbSymbolTable
 70
     1
  0
VPORT
  5
29
330
8
100
AcDbSymbolTableRecord
100
AcDbViewportTableRecord
  2
*Active
 70
     0
 10
0.0
 20
0.0
 11
1.0
 21
1.0
 12
0.0
 22
0.0
 13
0.0
 23
0.0
 14
10.0
 24
10.0
 15
10.0
 25
10.0
 16
0.0
 26
0.0
 36
1.0
 17
0.0
 27
0.0
 37
0.0
 40
980.1
 41
1.414141414141414
 42
50.0
 43
0.0
 44
0.0
 50
0.0
 51
0.0
 71
     0
 72
 10000
 73
     1
 74
     3
 75
     0
 76
     0
 77
     0
 78
     0
281
     0
 65
     1
110
0.0
120
0.0
130
0.0
111
1.0
121
0.0
131
0.0
112
0.0
122
1.0
132
0.0
 79
     0
146
0.0
  0
ENDTAB
  0
TABLE
  2
LTYPE
  5
5
330
0
100
AcDbSymbolTable
 70
     3
  0
LTYPE
  5
14
330
5
100
AcDbSymbolTableRecord
100
AcDbLinetypeTableRecord
  2
ByBlock
 70
     0
  3

 72
    65
 73
     0
 40
0.0
  0
LTYPE
  5
15
330
5
100
AcDbSymbolTableRecord
100
AcDbLinetypeTableRecord
  2
ByLayer
 70
     0
  3

 72
    65
 73
     0
 40
0.0
  0
LTYPE
  5
16
330
5
100
AcDbSymbolTableRecord
100
AcDbLinetypeTableRecord
  2
Continuous
 70
     0
  3
Solid line
 72
    65
 73
     0
 40
0.0
  0
LTYPE
  5
6F
330
5
100
AcDbSymbolTableRecord
100
AcDbLinetypeTableRecord
  2
JWW_CENTER1
 70
     0
  3
-----  --  ----------  --  -----
 72
    65
 73
     4
 40
6.773333333333333
 49
4.233333333333333
 74
     0
 49
-0.8466666666666667
 74
     0
 49
0.8466666666666667
 74
     0
 49
-0.8466666666666667
 74
     0
  0
LTYPE
  5
70
330
5
100
AcDbSymbolTableRecord
100
AcDbLinetypeTableRecord
  2
JWW_DASHED1
 70
     0
  3
-  --  --  --  --  --  --  --  -
 72
    65
 73
     2
 40
1.693333333333333
 49
0.8466666666666667
 74
     0
 49
-0.8466666666666667
 74
     0
  0
ENDTAB
  0
TABLE
  2
LAYER
  5
2
330
0
100
AcDbSymbolTable
 70
    10
  0
LAYER
  5
10
330
2
100
AcDbSymbolTableRecord
100
AcDbLayerTableRecord
  2
0
 70
     0
 62
     7
  6
Continuous
370
    -3
390
F
  0
LAYER
  5
71
330
2
100
AcDbSymbolTableRecord
100
AcDbLayerTableRecord
  2
3-4
 70
     0
 62
     7
  6
Continuous
370
    -3
390
F
  0
LAYER
  5
72
330
2
100
AcDbSymbolTableRecord
100
AcDbLayerTableRecord
  2
3-1
 70
     0
 62
     7
  6
Continuous
370
    -3
390
F
  0
LAYER
  5
73
330
2
100
AcDbSymbolTableRecord
100
AcDbLayerTableRecord
  2
3-3
 70
     0
 62
     7
  6
Continuous
370
    -3
390
F
  0
LAYER
  5
74
330
2
100
AcDbSymbolTableRecord
100
AcDbLayerTableRecord
  2
3-0
 70
     0
 62
     7
  6
Continuous
370
    -3
390
F
  0
LAYER
  5
75
330
2
100
AcDbSymbolTableRecord
100
AcDbLayerTableRecord
  2
3-2
 70
     0
 62
     7
  6
Continuous
370
    -3
390
F
  0
LAYER
  5
76
330
2
100
AcDbSymbolTableRecord
100
AcDbLayerTableRecord
  2
3-8
 70
     0
 62
     7
  6
Continuous
370
    -3
390
F
  0
LAYER
  5
77
330
2
100
AcDbSymbolTableRecord
100
AcDbLayerTableRecord
  2
3-5
 70
     0
 62
     7
  6
Continuous
370
    -3
390
F
  0
LAYER
  5
78
330
2
100
AcDbSymbolTableRecord
100
AcDbLayerTableRecord
  2
3-E
 70
     0
 62
     7
  6
Continuous
370
    -3
390
F
  0
LAYER
  5
79
330
2
100
AcDbSymbolTableRecord
100
AcDbLayerTableRecord
  2
F-5ﾚｲﾔ
 70
     0
 62
     7
  6
Continuous
370
    -3
390
F
  0
ENDTAB
  0
TABLE
  2
STYLE
  5
3
330
0
100
AcDbSymbolTable
 70
     2
  0
STYLE
  5
11
330
3
100
AcDbSymbolTableRecord
100
AcDbTextStyleTableRecord
  2
Standard
 70
     0
 40
0.0
 41
1.0
 50
0.0
 71
     0
 42
2.5
  3
txt
  4

  0
STYLE
  5
6E
330
3
100
AcDbSymbolTableRecord
100
AcDbTextStyleTableRecord
  2
ＭＳ ゴシック
 70
     0
 40
1.0
 41
1.0
 50
0.0
 71
     0
 42
2.5
  3

  4

1001
ACAD
1000
MS Gothic
1071
    32817
  0
ENDTAB
  0
TABLE
  2
VIEW
  5
6
330
0
100
AcDbSymbolTable
 70
     0
  0
ENDTAB
  0
TABLE
  2
UCS
  5
7
330
0
100
AcDbSymbolTable
 70
     0
  0
ENDTAB
  0
TABLE
  2
APPID
  5
9
330
0
100
AcDbSymbolTable
 70
     2
  0
APPID
  5
12
330
9
100
AcDbSymbolTableRecord
100
AcDbRegAppTableRecord
  2
ACAD
 70
     0
  0
APPID
  5
3C0
330
9
100
AcDbSymbolTableRecord
100
AcDbRegAppTableRecord
  2
ACAD_MLEADERVER
 70
     0
  0
ENDTAB
  0
TABLE
  2
DIMSTYLE
  5
A
330
0
100
AcDbSymbolTable
 70
     1
100
AcDbDimStyleTable
  0
DIMSTYLE
105
27
330
A
100
AcDbSymbolTableRecord
100
AcDbDimStyleTableRecord
  2
ISO-25
 70
     0
 41
2.5
 42
0.625
 43
3.75
 44
1.25
 73
     0
 74
     0
 77
     1
 78
     8
140
2.5
141
2.5
143
0.03937007874016
147
0.625
171
     3
172
     1
178
     0
271
     2
272
     2
274
     3
278
    44
283
     0
284
     8
340
11
  0
ENDTAB
  0
TABLE
  2
BLOCK_RECORD
  5
1
330
0
100
AcDbSymbolTable
 70
     1
  0
BLOCK_RECORD
  5
1F
330
1
100
AcDbSymbolTableRecord
100
AcDbBlockTableRecord
  2
*Model_Space
340
22
  0
BLOCK_RECORD
  5
1B
330
1
100
AcDbSymbolTableRecord
100
AcDbBlockTableRecord
  2
*Paper_Space
340
1E
  0
BLOCK_RECORD
  5
23
330
1
100
AcDbSymbolTableRecord
100
AcDbBlockTableRecord
  2
*Paper_Space0
340
26
  0
ENDTAB
  0
ENDSEC
  0
SECTION
  2
BLOCKS
  0
BLOCK
  5
20
330
1F
100
AcDbEntity
  8
0
100
AcDbBlockBegin
  2
*Model_Space
 70
     0
 10
0.0
 20
0.0
 30
0.0
  3
*Model_Space
  1

  0
ENDBLK
  5
21
330
1F
100
AcDbEntity
  8
0
100
AcDbBlockEnd
  0
BLOCK
  5
1C
330
1B
100
AcDbEntity
 67
     1
  8
0
100
AcDbBlockBegin
  2
*Paper_Space
 70
     0
 10
0.0
 20
0.0
 30
0.0
  3
*Paper_Space
  1

  0
ENDBLK
  5
1D
330
1B
100
AcDbEntity
 67
     1
  8
0
100
AcDbBlockEnd
  0
BLOCK
  5
24
330
23
100
AcDbEntity
  8
0
100
AcDbBlockBegin
  2
*Paper_Space0
 70
     0
 10
0.0
 20
0.0
 30
0.0
  3
*Paper_Space0
  1

  0
ENDBLK
  5
25
330
23
100
AcDbEntity
  8
0
100
AcDbBlockEnd
  0
ENDSEC
  0
SECTION
  2
ENTITIES
  0
LINE
  5
7A
330
1F
100
AcDbEntity
  8
3-4
  6
JWW_CENTER1
 62
     7
370
     9
100
AcDbLine
 10
47.02058379693864
 20
290.6062962994396
 30
0.0
 11
47.02058379693864
 21
274.2086432425916
 31
0.0
  0
LINE
  5
7B
330
1F
100
AcDbEntity
  8
3-1
  6
Continuous
 62
     2
370
     9
100
AcDbLine
 10
-98.56763468582636
 20
328.9775928911799
 30
0.0
 11
-100.6951593968166
 21
331.1051700947612
 31
0.0
  0
LINE
  5
7C
330
1F
100
AcDbEntity
  8
3-1
  6
Continuous
 62
     2
370
     9
100
AcDbLine
 10
-96.51617173911498
 20
329.0475305198486
 30
0.0
 11
-100.4113494551087
 21
332.9427082358424
 31
0.0
  0
LINE
  5
7D
330
1F
100
AcDbEntity
  8
3-1
  6
Continuous
 62
     2
370
     9
100
AcDbLine
 10
-111.4461494506784
 20
306.671426290183
 30
0.0
 11
-114.3524017483339
 21
307.4501188817876
 31
0.0
  0
LINE
  5
7E
330
1F
100
AcDbEntity
  8
3-1
  6
Continuous
 62
     2
370
     9
100
AcDbLine
 10
-110.4809331859169
 20
304.8598719816194
 30
0.0
 11
-115.8018096719697
 21
306.2855707516785
 31
0.0
  0
LINE
  5
7F
330
1F
100
AcDbEntity
  8
3-1
  6
Continuous
 62
     2
370
     9
100
AcDbLine
 10
-115.8018096719697
 20
306.2855707516785
 30
0.0
 11
-114.3524017483339
 21
307.4501188817876
 31
0.0
  0
LINE
  5
80
330
1F
100
AcDbEntity
  8
3-1
  6
Continuous
 62
     2
370
     9
100
AcDbLine
 10
-111.4461494506784
 20
306.671426290183
 30
0.0
 11
-110.4809331859169
 21
304.8598719816194
 31
0.0
  0
LINE
  5
81
330
1F
100
AcDbEntity
  8
3-1
  6
Continuous
 62
     2
370
     9
100
AcDbLine
 10
-98.56763468582636
 20
328.9775928911799
 30
0.0
 11
-96.51617173911498
 21
329.0475305198486
 31
0.0
  0
LINE
  5
82
330
1F
100
AcDbEntity
  8
3-1
  6
Continuous
 62
     2
370
     9
100
AcDbLine
 10
-100.4113494551087
 20
332.9427082358424
 30
0.0
 11
-100.6951593968166
 21
331.1051700947612
 31
0.0
  0
LINE
  5
83
330
1F
100
AcDbEntity
  8
3-1
  6
Continuous
 62
     2
370
     9
100
AcDbLine
 10
-68.48322094381984
 20
349.6343372995112
 30
0.0
 11
-69.26191353542441
 21
352.5406070946971
 31
0.0
  0
LINE
  5
84
330
1F
100
AcDbEntity
  8
3-1
  6
Continuous
 62
     2
370
     9
100
AcDbLine
 10
-66.67163164019561
 20
348.6691735273406
 30
0.0
 11
-68.09736540531537
 21
353.9900500133936
 31
0.0
  0
LINE
  5
85
330
1F
100
AcDbEntity
  8
3-1
  6
Continuous
 62
     2
370
     9
100
AcDbLine
 10
-90.7894400374077
 20
336.7558400321896
 30
0.0
 11
-92.91696474839799
 21
338.8833297481192
 31
0.0
  0
LINE
  5
86
330
1F
100
AcDbEntity
  8
3-1
  6
Continuous
 62
     2
370
     9
100
AcDbLine
 10
-90.85932517348547
 20
334.7043770854782
 30
0.0
 11
-94.75446789441857
 21
338.599554801472
 31
0.0
  0
LINE
  5
87
330
1F
100
AcDbEntity
  8
3-1
  6
Continuous
 62
     2
370
     9
100
AcDbLine
 10
-94.75446789441857
 20
338.599554801472
 30
0.0
 11
-92.91696474839799
 21
338.8833297481192
 31
0.0
  0
LINE
  5
88
330
1F
100
AcDbEntity
  8
3-1
  6
Continuous
 62
     2
370
     9
100
AcDbLine
 10
-90.7894400374077
 20
336.7558400321896
 30
0.0
 11
-90.85932517348547
 21
334.7043770854782
 31
0.0
  0
LINE
  5
89
330
1F
100
AcDbEntity
  8
3-1
  6
Continuous
 62
     2
370
     9
100
AcDbLine
 10
-68.48322094381984
 20
349.6343372995112
 30
0.0
 11
-66.67163164019561
 21
348.6691735273406
 31
0.0
  0
LINE
  5
8A
330
1F
100
AcDbEntity
  8
3-1
  6
Continuous
 62
     2
370
     9
100
AcDbLine
 10
-68.09736540531537
 20
353.9900500133936
 30
0.0
 11
-69.26191353542441
 21
352.5406070946971
 31
0.0
  0
LINE
  5
8B
330
1F
100
AcDbEntity
  8
3-1
  6
Continuous
 62
     2
370
     9
100
AcDbLine
 10
-32.10092111556662
 20
352.4813604570508
 30
0.0
 11
-31.32222852396205
 21
355.3877002423579
 31
0.0
  0
LINE
  5
8C
330
1F
100
AcDbEntity
  8
3-1
  6
Continuous
 62
     2
370
     9
100
AcDbLine
 10
-31.01460444349556
 20
350.7397262796256
 30
0.0
 11
-29.58890567343645
 21
356.0606115144436
 31
0.0
  0
LINE
  5
8D
330
1F
100
AcDbEntity
  8
3-1
  6
Continuous
 62
     2
370
     9
100
AcDbLine
 10
-57.85795064527073
 20
352.4813604570508
 30
0.0
 11
-58.63667823193595
 21
355.3876215034715
 31
0.0
  0
LINE
  5
8E
330
1F
100
AcDbEntity
  8
3-1
  6
Continuous
 62
     2
370
     9
100
AcDbLine
 10
-58.94423232228115
 20
350.7397262796256
 30
0.0
 11
-60.36993109234029
 21
356.0606115144436
 31
0.0
  0
LINE
  5
8F
330
1F
100
AcDbEntity
  8
3-1
  6
Continuous
 62
     2
370
     9
100
AcDbLine
 10
-60.36993109234029
 20
356.0606115144436
 30
0.0
 11
-58.63667823193595
 21
355.3876215034715
 31
0.0
  0
LINE
  5
90
330
1F
100
AcDbEntity
  8
3-1
  6
Continuous
 62
     2
370
     9
100
AcDbLine
 10
-57.85795064527073
 20
352.4813604570508
 30
0.0
 11
-58.94423232228115
 21
350.7397262796256
 31
0.0
  0
LINE
  5
91
330
1F
100
AcDbEntity
  8
3-1
  6
Continuous
 62
     2
370
     9
100
AcDbLine
 10
-32.10092111556662
 20
352.4813604570508
 30
0.0
 11
-31.01460444349556
 21
350.7397262796256
 31
0.0
  0
LINE
  5
92
330
1F
100
AcDbEntity
  8
3-1
  6
Continuous
 62
     2
370
     9
100
AcDbLine
 10
-29.58890567343645
 20
356.0606115144436
 30
0.0
 11
-31.32222852396205
 21
355.3877002423579
 31
0.0
  0
LINE
  5
93
330
1F
100
AcDbEntity
  8
3-1
  6
Continuous
 62
     2
370
     9
100
AcDbLine
 10
0.8305332815097053
 20
336.7558400321896
 30
0.0
 11
2.958092987560635
 21
338.8833997382404
 31
0.0
  0
LINE
  5
94
330
1F
100
AcDbEntity
  8
3-1
  6
Continuous
 62
     2
370
     9
100
AcDbLine
 10
0.9004534126481225
 20
334.7043770854782
 30
0.0
 11
4.795613631111564
 21
338.5996247915932
 31
0.0
  0
LINE
  5
95
330
1F
100
AcDbEntity
  8
3-1
  6
Continuous
 62
     2
370
     9
100
AcDbLine
 10
-21.47565081701754
 20
349.6343372995112
 30
0.0
 11
-20.69695822541297
 21
352.5406770848184
 31
0.0
  0
LINE
  5
96
330
1F
100
AcDbEntity
  8
3-1
  6
Continuous
 62
     2
370
     9
100
AcDbLine
 10
-23.28720512558112
 20
348.6691735273406
 30
0.0
 11
-21.86150635552201
 21
353.9900500133936
 31
0.0
  0
LINE
  5
97
330
1F
100
AcDbEntity
  8
3-1
  6
Continuous
 62
     2
370
     9
100
AcDbLine
 10
-21.86150635552201
 20
353.9900500133936
 30
0.0
 11
-20.69695822541297
 21
352.5406770848184
 31
0.0
  0
LINE
  5
98
330
1F
100
AcDbEntity
  8
3-1
  6
Continuous
 62
     2
370
     9
100
AcDbLine
 10
-21.47565081701754
 20
349.6343372995112
 30
0.0
 11
-23.28720512558112
 21
348.6691735273406
 31
0.0
  0
LINE
  5
99
330
1F
100
AcDbEntity
  8
3-1
  6
Continuous
 62
     2
370
     9
100
AcDbLine
 10
0.8305332815097053
 20
336.7558400321896
 30
0.0
 11
0.9004534126481225
 21
334.7043770854782
 31
0.0
  0
LINE
  5
9A
330
1F
100
AcDbEntity
  8
3-1
  6
Continuous
 62
     2
370
     9
100
AcDbLine
 10
4.795613631111564
 20
338.5996247915932
 30
0.0
 11
2.958092987560635
 21
338.8833997382404
 31
0.0
  0
LINE
  5
9B
330
1F
100
AcDbEntity
  8
3-1
  6
Continuous
 62
     2
370
     9
100
AcDbLine
 10
21.48724269478038
 20
306.671426290183
 30
0.0
 11
24.39354748502683
 21
307.4501188817876
 31
0.0
  0
LINE
  5
9C
330
1F
100
AcDbEntity
  8
3-1
  6
Continuous
 62
     2
370
     9
100
AcDbLine
 10
20.52211391767042
 20
304.8598719816194
 30
0.0
 11
25.84297290619299
 21
306.2855707516785
 31
0.0
  0
LINE
  5
9D
330
1F
100
AcDbEntity
  8
3-1
  6
Continuous
 62
     2
370
     9
100
AcDbLine
 10
8.60874542745864
 20
328.9776803788315
 30
0.0
 11
10.73623514338835
 21
331.1051700947612
 31
0.0
  0
LINE
  5
9E
330
1F
100
AcDbEntity
  8
3-1
  6
Continuous
 62
     2
370
     9
100
AcDbLine
 10
6.55726498321701
 20
329.0475305198486
 30
0.0
 11
10.45249519180169
 21
332.9427082358424
 31
0.0
  0
LINE
  5
9F
330
1F
100
AcDbEntity
  8
3-1
  6
Continuous
 62
     2
370
     9
100
AcDbLine
 10
10.45249519180169
 20
332.9427082358424
 30
0.0
 11
10.73623514338835
 21
331.1051700947612
 31
0.0
  0
LINE
  5
A0
330
1F
100
AcDbEntity
  8
3-1
  6
Continuous
 62
     2
370
     9
100
AcDbLine
 10
8.60874542745864
 20
328.9776803788315
 30
0.0
 11
6.55726498321701
 21
329.0475305198486
 31
0.0
  0
LINE
  5
A1
330
1F
100
AcDbEntity
  8
3-1
  6
Continuous
 62
     2
370
     9
100
AcDbLine
 10
21.48724269478038
 20
306.671426290183
 30
0.0
 11
20.52211391767042
 21
304.8598719816194
 31
0.0
  0
LINE
  5
A2
330
1F
100
AcDbEntity
  8
3-1
  6
Continuous
 62
     2
370
     9
100
AcDbLine
 10
25.84297290619299
 20
306.2855707516785
 30
0.0
 11
24.39354748502683
 21
307.4501188817876
 31
0.0
  0
LINE
  5
A3
330
1F
100
AcDbEntity
  8
3-1
  6
Continuous
 62
     2
370
     9
100
AcDbLine
 10
24.33426585231991
 20
296.0461559916339
 30
0.0
 11
27.24053564750574
 21
296.8249185733598
 31
0.0
  0
LINE
  5
A4
330
1F
100
AcDbEntity
  8
3-1
  6
Continuous
 62
     2
370
     9
100
AcDbLine
 10
22.59263167489473
 20
297.132472663705
 30
0.0
 11
27.91352565847791
 21
298.5581714337641
 31
0.0
  0
LINE
  5
A5
330
1F
100
AcDbEntity
  8
3-1
  6
Continuous
 62
     2
370
     9
100
AcDbLine
 10
27.91352565847791
 20
298.5581714337641
 30
0.0
 11
27.24053564750574
 21
296.8249185733598
 31
0.0
  0
LINE
  5
A6
330
1F
100
AcDbEntity
  8
3-1
  6
Continuous
 62
     2
370
     9
100
AcDbLine
 10
24.33426585231991
 20
296.0461559916339
 30
0.0
 11
22.59263167489473
 21
297.132472663705
 31
0.0
  0
LINE
  5
A7
330
1F
100
AcDbEntity
  8
3-1
  6
Continuous
 62
     2
370
     9
100
AcDbLine
 10
-114.293120115627
 20
296.0461559916339
 30
0.0
 11
-117.1993899108128
 21
296.8249185733598
 31
0.0
  0
LINE
  5
A8
330
1F
100
AcDbEntity
  8
3-1
  6
Continuous
 62
     2
370
     9
100
AcDbLine
 10
-112.5514859382018
 20
297.132472663705
 30
0.0
 11
-117.872379921785
 21
298.5581714337641
 31
0.0
  0
LINE
  5
A9
330
1F
100
AcDbEntity
  8
3-1
  6
Continuous
 62
     2
370
     9
100
AcDbLine
 10
-117.872379921785
 20
298.5581714337641
 30
0.0
 11
-117.1993899108128
 21
296.8249185733598
 31
0.0
  0
LINE
  5
AA
330
1F
100
AcDbEntity
  8
3-1
  6
Continuous
 62
     2
370
     9
100
AcDbLine
 10
-114.293120115627
 20
296.0461559916339
 30
0.0
 11
-112.5514859382018
 21
297.132472663705
 31
0.0
  0
LINE
  5
AB
330
1F
100
AcDbEntity
  8
3-3
  6
Continuous
 62
     4
370
     9
100
AcDbLine
 10
18.00222458689853
 20
284.4170873739789
 30
0.0
 11
17.76975239913457
 21
283.9184952476554
 31
0.0
  0
LINE
  5
AC
330
1F
100
AcDbEntity
  8
3-3
  6
Continuous
 62
     4
370
     9
100
AcDbLine
 10
17.27110778022018
 20
283.6860230598915
 30
0.0
 11
17.76975239913457
 21
283.9184952476554
 31
0.0
  0
LINE
  5
AD
330
1F
100
AcDbEntity
  8
3-3
  6
Continuous
 62
     4
370
     9
100
AcDbLine
 10
19.03888326793589
 20
284.4170873739789
 30
0.0
 11
19.2713904507604
 21
283.9184952476554
 31
0.0
  0
LINE
  5
AE
330
1F
100
AcDbEntity
  8
3-3
  6
Continuous
 62
     4
370
     9
100
AcDbLine
 10
19.76996507955357
 20
283.6860230598915
 30
0.0
 11
19.2713904507604
 21
283.9184952476554
 31
0.0
  0
LINE
  5
AF
330
1F
100
AcDbEntity
  8
3-3
  6
Continuous
 62
     4
370
     9
100
AcDbLine
 10
16.02055928861335
 20
283.6641861420585
 30
0.0
 11
17.27110778022018
 21
283.6860230598915
 31
0.0
  0
LINE
  5
B0
330
1F
100
AcDbEntity
  8
3-3
  6
Continuous
 62
     4
370
     9
100
AcDbLine
 10
21.02058356128168
 20
283.6641861420585
 30
0.0
 11
19.76996507955357
 21
283.6860230598915
 31
0.0
  0
LINE
  5
B1
330
1F
100
AcDbEntity
  8
3-3
  6
Continuous
 62
     4
370
     9
100
AcDbLine
 10
21.02058356128168
 20
283.6641861420585
 30
0.0
 11
21.02058356128168
 21
283.1676587243122
 31
0.0
  0
LINE
  5
B2
330
1F
100
AcDbEntity
  8
3-3
  6
Continuous
 62
     4
370
     9
100
AcDbLine
 10
16.02055928861335
 20
283.6641861420585
 30
0.0
 11
16.02055928861335
 21
283.1676587243122
 31
0.0
  0
LINE
  5
B3
330
1F
100
AcDbEntity
  8
3-3
  6
JWW_CENTER1
 62
     4
370
     9
100
AcDbLine
 10
18.5206064200081
 20
290.769005833838
 30
0.0
 11
18.5206064200081
 21
283.1676587243122
 31
0.0
  0
LINE
  5
B4
330
1F
100
AcDbEntity
  8
3-3
  6
Continuous
 62
     4
370
     9
100
AcDbLine
 10
18.07175977237
 20
288.3984404267736
 30
0.0
 11
18.00222458689853
 21
284.4170873739789
 31
0.0
  0
LINE
  5
B5
330
1F
100
AcDbEntity
  8
3-3
  6
Continuous
 62
     4
370
     9
100
AcDbLine
 10
18.96938307752504
 20
288.3984404267736
 30
0.0
 11
19.03888326793589
 21
284.4170873739789
 31
0.0
  0
LINE
  5
B6
330
1F
100
AcDbEntity
  8
3-3
  6
Continuous
 62
     4
370
     9
100
AcDbLine
 10
-107.9610788502056
 20
284.4170873739789
 30
0.0
 11
-107.728571667381
 21
283.9184952476554
 31
0.0
  0
LINE
  5
B7
330
1F
100
AcDbEntity
  8
3-3
  6
Continuous
 62
     4
370
     9
100
AcDbLine
 10
-107.2299620435272
 20
283.6860230598915
 30
0.0
 11
-107.728571667381
 21
283.9184952476554
 31
0.0
  0
LINE
  5
B8
330
1F
100
AcDbEntity
  8
3-3
  6
Continuous
 62
     4
370
     9
100
AcDbLine
 10
-108.9977375312429
 20
284.4170873739789
 30
0.0
 11
-109.2302447140675
 21
283.9184952476554
 31
0.0
  0
LINE
  5
B9
330
1F
100
AcDbEntity
  8
3-3
  6
Continuous
 62
     4
370
     9
100
AcDbLine
 10
-109.7288193428606
 20
283.6860230598915
 30
0.0
 11
-109.2302447140675
 21
283.9184952476554
 31
0.0
  0
LINE
  5
BA
330
1F
100
AcDbEntity
  8
3-3
  6
Continuous
 62
     4
370
     9
100
AcDbLine
 10
-105.9794135519204
 20
283.6641861420585
 30
0.0
 11
-107.2299620435272
 21
283.6860230598915
 31
0.0
  0
LINE
  5
BB
330
1F
100
AcDbEntity
  8
3-3
  6
Continuous
 62
     4
370
     9
100
AcDbLine
 10
-110.9794028295281
 20
283.6641861420585
 30
0.0
 11
-109.7288193428606
 21
283.6860230598915
 31
0.0
  0
LINE
  5
BC
330
1F
100
AcDbEntity
  8
3-3
  6
Continuous
 62
     4
370
     9
100
AcDbLine
 10
-110.9794028295281
 20
283.6641861420585
 30
0.0
 11
-110.9794028295281
 21
283.1676587243122
 31
0.0
  0
LINE
  5
BD
330
1F
100
AcDbEntity
  8
3-3
  6
Continuous
 62
     4
370
     9
100
AcDbLine
 10
-105.9794135519204
 20
283.6641861420585
 30
0.0
 11
-105.9794135519204
 21
283.1676587243122
 31
0.0
  0
LINE
  5
BE
330
1F
100
AcDbEntity
  8
3-3
  6
JWW_CENTER1
 62
     4
370
     9
100
AcDbLine
 10
-108.4794256882546
 20
290.3341222153912
 30
0.0
 11
-108.4794256882546
 21
283.1676587243122
 31
0.0
  0
LINE
  5
BF
330
1F
100
AcDbEntity
  8
3-3
  6
Continuous
 62
     4
370
     9
100
AcDbLine
 10
-108.030614035677
 20
288.3984404267736
 30
0.0
 11
-107.9610788502056
 21
284.4170873739789
 31
0.0
  0
LINE
  5
C0
330
1F
100
AcDbEntity
  8
3-3
  6
Continuous
 62
     4
370
     9
100
AcDbLine
 10
-108.9282023457714
 20
288.3984404267736
 30
0.0
 11
-108.9977375312429
 21
284.4170873739789
 31
0.0
  0
LINE
  5
C1
330
1F
100
AcDbEntity
  8
3-0
  6
Continuous
 62
     3
370
     9
100
AcDbLine
 10
-76.22841525006456
 20
217.0428468964059
 30
0.0
 11
-70.60388662292667
 21
226.7848068695975
 31
0.0
  0
LINE
  5
C2
330
1F
100
AcDbEntity
  8
3-0
  6
Continuous
 62
     3
370
     9
100
AcDbLine
 10
-76.61801526005641
 20
218.3680398523361
 30
0.0
 11
-70.55919793050239
 21
228.8622186537659
 31
0.0
  0
LINE
  5
C3
330
1F
100
AcDbEntity
  8
3-0
  6
Continuous
 62
     3
370
     9
100
AcDbLine
 10
-86.62063594234932
 20
223.0428025339805
 30
0.0
 11
-80.99610731521143
 21
232.7847625071722
 31
0.0
  0
LINE
  5
C4
330
1F
100
AcDbEntity
  8
3-0
  6
Continuous
 62
     3
370
     9
100
AcDbLine
 10
-85.27819042152856
 20
223.3679941348832
 30
0.0
 11
-79.21935559444422
 21
233.8621554387827
 31
0.0
  0
LINE
  5
C5
330
1F
100
AcDbEntity
  8
3-0
  6
Continuous
 62
     3
370
     9
100
AcDbLine
 10
27.91090102893065
 20
277.1677030867376
 30
0.0
 11
16.66180877959431
 21
277.1677030867376
 31
0.0
  0
LINE
  5
C6
330
1F
100
AcDbEntity
  8
3-0
  6
Continuous
 62
     3
370
     9
100
AcDbLine
 10
26.95802052304111
 20
278.1677044417651
 30
0.0
 11
14.84038586393308
 21
278.1677219392955
 31
0.0
  0
LINE
  5
C7
330
1F
100
AcDbEntity
  8
3-0
  6
Continuous
 62
     3
370
     9
100
AcDbLine
 10
-10.99109565726098
 20
231.2982423217384
 30
0.0
 11
-5.455996907562612
 21
221.7111704868944
 31
0.0
  0
LINE
  5
C8
330
1F
100
AcDbEntity
  8
3-0
  6
Continuous
 62
     3
370
     9
100
AcDbLine
 10
-12.78450502688798
 20
232.4045061783685
 30
0.0
 11
-6.815187564894751
 21
222.0653554955288
 31
0.0
  0
LINE
  5
C9
330
1F
100
AcDbEntity
  8
3-0
  6
Continuous
 62
     3
370
     9
100
AcDbLine
 10
-17.11461885391952
 20
229.904529037095
 30
0.0
 11
-11.14530139192629
 21
219.565360856725
 31
0.0
  0
LINE
  5
CA
330
1F
100
AcDbEntity
  8
3-0
  6
Continuous
 62
     3
370
     9
100
AcDbLine
 10
-17.05327251263542
 20
227.798246327907
 30
0.0
 11
-11.51817376293706
 21
218.211174493063
 31
0.0
  0
LINE
  5
CB
330
1F
100
AcDbEntity
  8
3-0
  6
Continuous
 62
     3
370
     9
100
AcDbLine
 10
-106.8937644960565
 20
279.6676452329505
 30
0.0
 11
-117.9639619954532
 21
279.6676452329505
 31
0.0
  0
LINE
  5
CC
330
1F
100
AcDbEntity
  8
3-0
  6
Continuous
 62
     3
370
     9
100
AcDbLine
 10
-105.0389912876151
 20
280.667646587978
 30
0.0
 11
-116.9776262116016
 21
280.667646587978
 31
0.0
  0
LINE
  5
CD
330
1F
100
AcDbEntity
  8
3-2
  6
Continuous
 62
     6
370
     9
100
AcDbLine
 10
21.77570697955207
 20
293.1676722745882
 30
0.0
 11
22.63161617243634
 21
294.1676561320854
 31
0.0
  0
LINE
  5
CE
330
1F
100
AcDbEntity
  8
3-2
  6
Continuous
 62
     6
370
     9
100
AcDbLine
 10
-101.4174049556253
 20
294.1676561320854
 30
0.0
 11
-112.5904354406828
 21
294.1676561320854
 31
0.0
  0
LINE
  5
CF
330
1F
100
AcDbEntity
  8
3-2
  6
Continuous
 62
     6
370
     9
100
AcDbLine
 10
11.45860318490918
 20
294.1676561320854
 30
0.0
 11
22.63161617243634
 21
294.1676561320854
 31
0.0
  0
LINE
  5
D0
330
1F
100
AcDbEntity
  8
3-2
  6
Continuous
 62
     6
370
     9
100
AcDbLine
 10
11.37223537527478
 20
293.1676722745882
 30
0.0
 11
21.77570697955207
 21
293.1676722745882
 31
0.0
  0
LINE
  5
D1
330
1F
100
AcDbEntity
  8
3-2
  6
Continuous
 62
     6
370
     9
100
AcDbLine
 10
11.37223537527478
 20
293.1676722745882
 30
0.0
 11
11.45860318490918
 21
294.1676211370249
 31
0.0
  0
LINE
  5
D2
330
1F
100
AcDbEntity
  8
3-2
  6
Continuous
 62
     6
370
     9
100
AcDbLine
 10
21.92097147622644
 20
287.1676641444226
 30
0.0
 11
22.33513801878047
 21
287.1676641444226
 31
0.0
  0
LINE
  5
D3
330
1F
100
AcDbEntity
  8
3-2
  6
Continuous
 62
     6
370
     9
100
AcDbLine
 10
20.12149046358018
 20
288.1676130068593
 30
0.0
 11
21.24938126767944
 21
288.1676130068593
 31
0.0
  0
LINE
  5
D4
330
1F
100
AcDbEntity
  8
3-2
  6
Continuous
 62
     6
370
     9
100
AcDbLine
 10
-111.7345612428591
 20
293.1676722745882
 30
0.0
 11
-112.5904704357434
 21
294.1676561320854
 31
0.0
  0
LINE
  5
D5
330
1F
100
AcDbEntity
  8
3-2
  6
Continuous
 62
     6
370
     9
100
AcDbLine
 10
-101.3310546435212
 20
293.1676722745882
 30
0.0
 11
-101.4174574482163
 21
294.1676211370249
 31
0.0
  0
LINE
  5
D6
330
1F
100
AcDbEntity
  8
3-2
  6
Continuous
 62
     6
370
     9
100
AcDbLine
 10
-110.0803447268872
 20
288.1676130068593
 30
0.0
 11
-111.2082005359259
 21
288.1676130068593
 31
0.0
  0
LINE
  5
D7
330
1F
100
AcDbEntity
  8
3-2
  6
Continuous
 62
     6
370
     9
100
AcDbLine
 10
-101.3310546435212
 20
293.1676722745882
 30
0.0
 11
-111.7345262477985
 21
293.1676722745882
 31
0.0
  0
LINE
  5
D8
330
1F
100
AcDbEntity
  8
3-2
  6
Continuous
 62
     6
370
     9
100
AcDbLine
 10
-67.99435744435146
 20
286.4176500050041
 30
0.0
 11
-61.30232199023106
 21
286.4176500050041
 31
0.0
  0
LINE
  5
D9
330
1F
100
AcDbEntity
  8
3-2
  6
Continuous
 62
     6
370
     9
100
AcDbLine
 10
-63.55152452703125
 20
297.1436010929853
 30
0.0
 11
-58.81954492125708
 21
292.4116039896808
 31
0.0
  0
LINE
  5
DA
330
1F
100
AcDbEntity
  8
3-2
  6
Continuous
 62
     6
370
     9
100
AcDbLine
 10
-26.40731223874547
 20
297.1436010929853
 30
0.0
 11
-31.13929184451961
 21
292.4116039896808
 31
0.0
  0
LINE
  5
DB
330
1F
100
AcDbEntity
  8
3-2
  6
Continuous
 62
     6
370
     9
100
AcDbLine
 10
-21.96447932142524
 20
286.4176500050041
 30
0.0
 11
-28.6565147755457
 21
286.4176500050041
 31
0.0
  0
LINE
  5
DC
330
1F
100
AcDbEntity
  8
3-2
  6
Continuous
 62
     6
370
     9
100
AcDbLine
 10
-41.7294271021964
 20
306.1826152833056
 30
0.0
 11
-41.7294271021964
 21
299.4905798291852
 31
0.0
  0
LINE
  5
DD
330
1F
100
AcDbEntity
  8
3-2
  6
Continuous
 62
     6
370
     9
100
AcDbLine
 10
-31.0034935117456
 20
301.7397823659854
 30
0.0
 11
-35.73547311751974
 21
297.007785262681
 31
0.0
  0
LINE
  5
DE
330
1F
100
AcDbEntity
  8
3-2
  6
Continuous
 62
     6
370
     9
100
AcDbLine
 10
-58.95534325403113
 20
301.7397823659854
 30
0.0
 11
-54.22336364825696
 21
297.007785262681
 31
0.0
  0
LINE
  5
DF
330
1F
100
AcDbEntity
  8
3-2
  6
Continuous
 62
     6
370
     9
100
AcDbLine
 10
-48.22940966358032
 20
306.1826152833056
 30
0.0
 11
-48.22940966358032
 21
299.4905798291852
 31
0.0
  0
LINE
  5
E0
330
1F
100
AcDbEntity
  8
3-2
  6
Continuous
 62
     6
370
     9
100
AcDbLine
 10
-52.02835096284206
 20
286.4176500050041
 30
0.0
 11
-37.9304858029347
 21
286.4176500050041
 31
0.0
  0
LINE
  5
E1
330
1F
100
AcDbEntity
  8
3-2
  6
Continuous
 62
     6
370
     9
100
AcDbLine
 10
5.79535252318442
 20
310.1524199660925
 30
0.0
 11
-13.38799484744931
 21
300.6824765991764
 31
0.0
  0
LINE
  5
E2
330
1F
100
AcDbEntity
  8
3-2
  6
Continuous
 62
     6
370
     9
100
AcDbLine
 10
-0.6181222483226048
 20
319.7508039542851
 30
0.0
 11
-16.70830870247692
 21
305.6516702234298
 31
0.0
  0
LINE
  5
E3
330
1F
100
AcDbEntity
  8
3-2
  6
Continuous
 62
     6
370
     9
100
AcDbLine
 10
-8.39629939921093
 20
327.5289636076432
 30
0.0
 11
-22.49537188871005
 21
311.4387684047236
 31
0.0
  0
LINE
  5
E4
330
1F
100
AcDbEntity
  8
3-2
  6
Continuous
 62
     6
370
     9
100
AcDbLine
 10
-17.99469213616873
 20
333.9424121328547
 30
0.0
 11
-27.46458301049381
 21
314.7590647622209
 31
0.0
  0
LINE
  5
E5
330
1F
100
AcDbEntity
  8
3-2
  6
Continuous
 62
     6
370
     9
100
AcDbLine
 10
-28.15736272825217
 20
338.1519242321907
 30
0.0
 11
-35.02575579041655
 21
317.8910264521736
 31
0.0
  0
LINE
  5
E6
330
1F
100
AcDbEntity
  8
3-2
  6
Continuous
 62
     6
370
     9
100
AcDbLine
 10
-39.47943717653203
 20
340.4040226102579
 30
0.0
 11
-40.88732346073058
 21
319.0569568871775
 31
0.0
  0
LINE
  5
E7
330
1F
100
AcDbEntity
  8
3-2
  6
Continuous
 62
     6
370
     9
100
AcDbLine
 10
-50.47941708677501
 20
340.4040138614928
 30
0.0
 11
-49.07147830998554
 21
319.0569568871775
 31
0.0
  0
LINE
  5
E8
330
1F
100
AcDbEntity
  8
3-2
  6
Continuous
 62
     6
370
     9
100
AcDbLine
 10
-61.80149153505491
 20
338.1519242321907
 30
0.0
 11
-54.93304598029954
 21
317.8910264521736
 31
0.0
  0
LINE
  5
E9
330
1F
100
AcDbEntity
  8
3-2
  6
Continuous
 62
     6
370
     9
100
AcDbLine
 10
-71.96416212713834
 20
333.9424033840895
 30
0.0
 11
-62.49423625775262
 21
314.7590997572815
 31
0.0
  0
LINE
  5
EA
330
1F
100
AcDbEntity
  8
3-2
  6
Continuous
 62
     6
370
     9
100
AcDbLine
 10
-81.56255486409614
 20
327.5289636076432
 30
0.0
 11
-67.46342988200607
 21
311.4387684047236
 31
0.0
  0
LINE
  5
EB
330
1F
100
AcDbEntity
  8
3-2
  6
Continuous
 62
     6
370
     9
100
AcDbLine
 10
-89.34071451745416
 20
319.7507864567548
 30
0.0
 11
-73.2505105657695
 21
305.6517052184905
 31
0.0
  0
LINE
  5
EC
330
1F
100
AcDbEntity
  8
3-2
  6
Continuous
 62
     6
370
     9
100
AcDbLine
 10
-95.75417179143084
 20
310.1523849710319
 30
0.0
 11
-76.5708244207971
 21
300.6825115942371
 31
0.0
  0
LINE
  5
ED
330
1F
100
AcDbEntity
  8
3-2
  6
Continuous
 62
     6
370
     9
100
AcDbLine
 10
-99.96367514200169
 20
299.9897493740091
 30
0.0
 11
-79.70277736198466
 21
293.1213038192537
 31
0.0
  0
LINE
  5
EE
330
1F
100
AcDbEntity
  8
3-2
  6
Continuous
 62
     6
370
     9
100
AcDbLine
 10
-101.8824718138654
 20
289.6478690764403
 30
0.0
 11
-80.69983913191933
 21
288.2507612709157
 31
0.0
  0
LINE
  5
EF
330
1F
100
AcDbEntity
  8
3-2
  6
Continuous
 62
     6
370
     9
100
AcDbLine
 10
10.00480338116433
 20
299.9897493740091
 30
0.0
 11
-10.2560594037921
 21
293.1213038192537
 31
0.0
  0
LINE
  5
F0
330
1F
100
AcDbEntity
  8
3-2
  6
Continuous
 62
     6
370
     9
100
AcDbLine
 10
11.92361755055833
 20
289.6478690764403
 30
0.0
 11
-9.258997633857403
 21
288.2507612709157
 31
0.0
  0
LINE
  5
F1
330
1F
100
AcDbEntity
  8
3-2
  6
Continuous
 62
     6
370
     9
100
AcDbLine
 10
-111.8798082420032
 20
287.1676641444226
 30
0.0
 11
-112.2939922820875
 21
287.1676641444226
 31
0.0
  0
LINE
  5
F2
330
1F
100
AcDbEntity
  8
3-4
  6
JWW_CENTER1
 62
     7
370
     9
100
AcDbLine
 10
-44.97941838288838
 20
397.8394733961269
 30
0.0
 11
-44.97941838288837
 21
168.4958440524975
 31
0.0
  0
LINE
  5
F3
330
1F
100
AcDbEntity
  8
3-4
  6
JWW_CENTER1
 62
     7
370
     9
100
AcDbLine
 10
-160.7979512014211
 20
283.1676587243122
 30
0.0
 11
67.39897749302031
 21
283.1676587243122
 31
0.0
  0
LINE
  5
F4
330
1F
100
AcDbEntity
  8
3-8
  6
Continuous
 62
     6
370
     9
100
AcDbLine
 10
47.52059322321759
 20
285.7816847681784
 30
0.0
 11
46.52057437065969
 21
285.7816847681784
 31
0.0
  0
LINE
  5
F5
330
1F
100
AcDbEntity
  8
3-8
  6
Continuous
 62
     6
370
     9
100
AcDbLine
 10
46.16701927311652
 20
283.6676506530608
 30
0.0
 11
45.01897131409447
 21
283.6676506530608
 31
0.0
  0
LINE
  5
F6
330
1F
100
AcDbEntity
  8
3-8
  6
Continuous
 62
     6
370
     9
100
AcDbLine
 10
46.52057437065969
 20
284.0212057506039
 30
0.0
 11
46.52057437065969
 21
285.7816847681784
 31
0.0
  0
LINE
  5
F7
330
1F
100
AcDbEntity
  8
3-8
  6
Continuous
 62
     6
370
     9
100
AcDbLine
 10
46.16701927311652
 20
283.6676506530608
 30
0.0
 11
46.52057437065969
 21
284.0212057506039
 31
0.0
  0
LINE
  5
F8
330
1F
100
AcDbEntity
  8
3-8
  6
Continuous
 62
     6
370
     9
100
AcDbLine
 10
47.87414832076075
 20
283.6676681505912
 30
0.0
 11
49.63460984080479
 21
283.6676681505912
 31
0.0
  0
LINE
  5
F9
330
1F
100
AcDbEntity
  8
3-8
  6
Continuous
 62
     6
370
     9
100
AcDbLine
 10
47.52059322321759
 20
284.0212232481343
 30
0.0
 11
47.52059322321759
 21
285.7816847681784
 31
0.0
  0
LINE
  5
FA
330
1F
100
AcDbEntity
  8
3-8
  6
Continuous
 62
     6
370
     9
100
AcDbLine
 10
47.87414832076075
 20
283.6676681505912
 30
0.0
 11
47.52059322321759
 21
284.0212232481343
 31
0.0
  0
LINE
  5
FB
330
1F
100
AcDbEntity
  8
3-8
  6
Continuous
 62
     6
370
     9
100
AcDbLine
 10
49.63460984080479
 20
283.1676587243122
 30
0.0
 11
49.63460984080479
 21
283.6676681505912
 31
0.0
  0
LINE
  5
FC
330
1F
100
AcDbEntity
  8
3-8
  6
Continuous
 62
     6
370
     9
100
AcDbLine
 10
-47.5934444267545
 20
374.6676164827996
 30
0.0
 11
-47.5934444267545
 21
375.6676353353575
 31
0.0
  0
LINE
  5
FD
330
1F
100
AcDbEntity
  8
3-8
  6
Continuous
 62
     6
370
     9
100
AcDbLine
 10
-47.5934444267545
 20
374.6676164827996
 30
0.0
 11
-45.83298290671047
 21
374.6676164827996
 31
0.0
  0
LINE
  5
FE
330
1F
100
AcDbEntity
  8
3-8
  6
Continuous
 62
     6
370
     9
100
AcDbLine
 10
-45.47942780916733
 20
374.3140613852565
 30
0.0
 11
-45.47942780916733
 21
373.1660309237647
 31
0.0
  0
LINE
  5
FF
330
1F
100
AcDbEntity
  8
3-8
  6
Continuous
 62
     6
370
     9
100
AcDbLine
 10
-42.36539233902224
 20
375.6676353353575
 30
0.0
 11
-42.36539233902224
 21
374.6676164827996
 31
0.0
  0
LINE
  5
100
330
1F
100
AcDbEntity
  8
3-8
  6
Continuous
 62
     6
370
     9
100
AcDbLine
 10
-45.47942780916733
 20
377.7816519529447
 30
0.0
 11
-44.4794089566094
 21
377.7816519529447
 31
0.0
  0
LINE
  5
101
330
1F
100
AcDbEntity
  8
3-8
  6
Continuous
 62
     6
370
     9
100
AcDbLine
 10
-45.47941031163703
 20
376.0211904329007
 30
0.0
 11
-45.47941031163703
 21
377.7816519529447
 31
0.0
  0
LINE
  5
102
330
1F
100
AcDbEntity
  8
3-8
  6
Continuous
 62
     6
370
     9
100
AcDbLine
 10
-45.83296540918016
 20
375.6676353353575
 30
0.0
 11
-47.5934444267545
 21
375.6676353353575
 31
0.0
  0
LINE
  5
103
330
1F
100
AcDbEntity
  8
3-8
  6
Continuous
 62
     6
370
     9
100
AcDbLine
 10
-45.47941031163703
 20
376.0211904329007
 30
0.0
 11
-45.83296540918016
 21
375.6676353353575
 31
0.0
  0
LINE
  5
104
330
1F
100
AcDbEntity
  8
3-8
  6
Continuous
 62
     6
370
     9
100
AcDbLine
 10
-44.47942645413974
 20
374.3140613852565
 30
0.0
 11
-44.47942645413974
 21
373.1660309237647
 31
0.0
  0
LINE
  5
105
330
1F
100
AcDbEntity
  8
3-8
  6
Continuous
 62
     6
370
     9
100
AcDbLine
 10
-44.1258713565966
 20
374.6676164827996
 30
0.0
 11
-42.36539233902224
 21
374.6676164827996
 31
0.0
  0
LINE
  5
106
330
1F
100
AcDbEntity
  8
3-8
  6
Continuous
 62
     6
370
     9
100
AcDbLine
 10
-44.47942645413974
 20
374.3140613852565
 30
0.0
 11
-44.1258713565966
 21
374.6676164827996
 31
0.0
  0
LINE
  5
107
330
1F
100
AcDbEntity
  8
3-8
  6
Continuous
 62
     6
370
     9
100
AcDbLine
 10
-44.4794089566094
 20
376.0211904329007
 30
0.0
 11
-44.4794089566094
 21
377.7816519529447
 31
0.0
  0
LINE
  5
108
330
1F
100
AcDbEntity
  8
3-8
  6
Continuous
 62
     6
370
     9
100
AcDbLine
 10
-44.12585385906627
 20
375.6676353353575
 30
0.0
 11
-42.36539233902224
 21
375.6676353353575
 31
0.0
  0
LINE
  5
109
330
1F
100
AcDbEntity
  8
3-8
  6
Continuous
 62
     6
370
     9
100
AcDbLine
 10
-44.4794089566094
 20
376.0211904329007
 30
0.0
 11
-44.12585385906627
 21
375.6676353353575
 31
0.0
  0
LINE
  5
10A
330
1F
100
AcDbEntity
  8
3-8
  6
Continuous
 62
     6
370
     9
100
AcDbLine
 10
-45.83298290671047
 20
374.6676164827996
 30
0.0
 11
-45.47942780916733
 21
374.3140613852565
 31
0.0
  0
LINE
  5
10B
330
1F
100
AcDbEntity
  8
3-4
  6
JWW_CENTER1
 62
     7
370
     9
100
AcDbLine
 10
-53.96338534283799
 20
191.1676915395458
 30
0.0
 11
-35.9685402213144
 21
191.1676915395458
 31
0.0
  0
LINE
  5
10C
330
1F
100
AcDbEntity
  8
3-4
  6
JWW_CENTER1
 62
     7
370
     9
100
AcDbLine
 10
-52.11550616134065
 20
375.1676259090786
 30
0.0
 11
-37.7619145958808
 21
375.1676259090786
 31
0.0
  0
LINE
  5
10D
330
1F
100
AcDbEntity
  8
3-4
  6
JWW_CENTER1
 62
     7
370
     9
100
AcDbLine
 10
-136.9794205627153
 20
290.6062962994396
 30
0.0
 11
-136.9794205627153
 21
274.2086432425916
 31
0.0
  0
LINE
  5
10E
330
1F
100
AcDbEntity
  8
3-8
  6
Continuous
 62
     6
370
     9
100
AcDbLine
 10
-137.4794299889943
 20
285.7816847681784
 30
0.0
 11
-136.4794111364364
 21
285.7816847681784
 31
0.0
  0
LINE
  5
10F
330
1F
100
AcDbEntity
  8
3-8
  6
Continuous
 62
     6
370
     9
100
AcDbLine
 10
-136.1258560388933
 20
283.6676506530608
 30
0.0
 11
-134.9778080798712
 21
283.6676506530608
 31
0.0
  0
LINE
  5
110
330
1F
100
AcDbEntity
  8
3-8
  6
Continuous
 62
     6
370
     9
100
AcDbLine
 10
-136.4794111364364
 20
284.0212057506039
 30
0.0
 11
-136.4794111364364
 21
285.7816847681784
 31
0.0
  0
LINE
  5
111
330
1F
100
AcDbEntity
  8
3-8
  6
Continuous
 62
     6
370
     9
100
AcDbLine
 10
-136.1258560388933
 20
283.6676506530608
 30
0.0
 11
-136.4794111364364
 21
284.0212057506039
 31
0.0
  0
LINE
  5
112
330
1F
100
AcDbEntity
  8
3-8
  6
Continuous
 62
     6
370
     9
100
AcDbLine
 10
-137.8329850865375
 20
283.6676681505912
 30
0.0
 11
-139.5934466065815
 21
283.6676681505912
 31
0.0
  0
LINE
  5
113
330
1F
100
AcDbEntity
  8
3-8
  6
Continuous
 62
     6
370
     9
100
AcDbLine
 10
-137.4794299889943
 20
284.0212232481343
 30
0.0
 11
-137.4794299889943
 21
285.7816847681784
 31
0.0
  0
LINE
  5
114
330
1F
100
AcDbEntity
  8
3-8
  6
Continuous
 62
     6
370
     9
100
AcDbLine
 10
-137.8329850865375
 20
283.6676681505912
 30
0.0
 11
-137.4794299889943
 21
284.0212232481343
 31
0.0
  0
LINE
  5
115
330
1F
100
AcDbEntity
  8
3-8
  6
Continuous
 62
     6
370
     9
100
AcDbLine
 10
-139.5934466065815
 20
283.1676587243122
 30
0.0
 11
-139.5934466065815
 21
283.6676681505912
 31
0.0
  0
CIRCLE
  5
116
330
1F
100
AcDbEntity
  8
3-0
  6
Continuous
 62
     3
370
     9
100
AcDbCircle
 10
-44.97941838288838
 20
283.1676587243122
 30
0.0
 40
98.99997666995958
  0
CIRCLE
  5
117
330
1F
100
AcDbEntity
  8
3-0
  6
Continuous
 62
     3
370
     9
100
AcDbCircle
 10
-44.97941838288838
 20
283.1676587243122
 30
0.0
 40
99.9999955225175
  0
ARC
  5
118
330
1F
100
AcDbEntity
  8
3-1
  6
Continuous
 62
     2
370
     9
100
AcDbCircle
 10
-44.97941838288838
 20
283.1676587243122
 30
0.0
 40
83.94104215997524
100
AcDbArc
 50
0.0
 51
180.0
  0
ARC
  5
119
330
1F
100
AcDbEntity
  8
3-1
  6
Continuous
 62
     2
370
     9
100
AcDbCircle
 10
-44.97941838288838
 20
283.1676587243122
 30
0.0
 40
89.499998792258
100
AcDbArc
 50
0.0
 51
180.0
  0
ARC
  5
11A
330
1F
100
AcDbEntity
  8
3-1
  6
Continuous
 62
     2
370
     9
100
AcDbCircle
 10
-44.97941838288838
 20
283.1676587243122
 30
0.0
 40
73.49999460934671
100
AcDbArc
 50
139.2914886474609
 51
160.7085418701172
  0
ARC
  5
11B
330
1F
100
AcDbEntity
  8
3-1
  6
Continuous
 62
     2
370
     9
100
AcDbCircle
 10
-44.97941838288838
 20
283.1676587243122
 30
0.0
 40
74.49998721560915
100
AcDbArc
 50
138.0777740478516
 51
161.9222412109375
  0
ARC
  5
11C
330
1F
100
AcDbEntity
  8
3-1
  6
Continuous
 62
     2
370
     9
100
AcDbCircle
 10
-44.97941838288838
 20
283.1676587243122
 30
0.0
 40
70.49999054426392
100
AcDbArc
 50
139.4744873046875
 51
160.5255737304688
  0
ARC
  5
11D
330
1F
100
AcDbEntity
  8
3-1
  6
Continuous
 62
     2
370
     9
100
AcDbCircle
 10
-44.97941838288838
 20
283.1676587243122
 30
0.0
 40
68.99999288610509
100
AcDbArc
 50
138.3233795166016
 51
161.6766510009766
  0
ARC
  5
11E
330
1F
100
AcDbEntity
  8
3-1
  6
Continuous
 62
     2
370
     9
100
AcDbCircle
 10
-44.97941838288838
 20
283.1676587243122
 30
0.0
 40
73.49999460934671
100
AcDbArc
 50
109.291488647461
 51
130.7085418701172
  0
ARC
  5
11F
330
1F
100
AcDbEntity
  8
3-1
  6
Continuous
 62
     2
370
     9
100
AcDbCircle
 10
-44.97941838288838
 20
283.1676587243122
 30
0.0
 40
74.49998721560915
100
AcDbArc
 50
108.0777740478516
 51
131.9222412109375
  0
ARC
  5
120
330
1F
100
AcDbEntity
  8
3-1
  6
Continuous
 62
     2
370
     9
100
AcDbCircle
 10
-44.97941838288838
 20
283.1676587243122
 30
0.0
 40
70.49999054426392
100
AcDbArc
 50
109.4744873046875
 51
130.5255737304688
  0
ARC
  5
121
330
1F
100
AcDbEntity
  8
3-1
  6
Continuous
 62
     2
370
     9
100
AcDbCircle
 10
-44.97941838288838
 20
283.1676587243122
 30
0.0
 40
68.99999288610509
100
AcDbArc
 50
108.3233795166016
 51
131.6766510009766
  0
ARC
  5
122
330
1F
100
AcDbEntity
  8
3-1
  6
Continuous
 62
     2
370
     9
100
AcDbCircle
 10
-44.97941838288838
 20
283.1676587243122
 30
0.0
 40
73.49999460934671
100
AcDbArc
 50
79.29148864746095
 51
100.7085418701172
  0
ARC
  5
123
330
1F
100
AcDbEntity
  8
3-1
  6
Continuous
 62
     2
370
     9
100
AcDbCircle
 10
-44.97941838288838
 20
283.1676587243122
 30
0.0
 40
74.49998721560915
100
AcDbArc
 50
78.07777404785155
 51
101.9222412109375
  0
ARC
  5
124
330
1F
100
AcDbEntity
  8
3-1
  6
Continuous
 62
     2
370
     9
100
AcDbCircle
 10
-44.97941838288838
 20
283.1676587243122
 30
0.0
 40
70.49999054426392
100
AcDbArc
 50
79.4744873046875
 51
100.5255737304687
  0
ARC
  5
125
330
1F
100
AcDbEntity
  8
3-1
  6
Continuous
 62
     2
370
     9
100
AcDbCircle
 10
-44.97941838288838
 20
283.1676587243122
 30
0.0
 40
73.49999460934671
100
AcDbArc
 50
49.29148864746096
 51
70.7085418701172
  0
ARC
  5
126
330
1F
100
AcDbEntity
  8
3-1
  6
Continuous
 62
     2
370
     9
100
AcDbCircle
 10
-44.97941838288838
 20
283.1676587243122
 30
0.0
 40
74.49998721560915
100
AcDbArc
 50
48.07777404785156
 51
71.9222412109375
  0
ARC
  5
127
330
1F
100
AcDbEntity
  8
3-1
  6
Continuous
 62
     2
370
     9
100
AcDbCircle
 10
-44.97941838288838
 20
283.1676587243122
 30
0.0
 40
70.49999054426392
100
AcDbArc
 50
49.47448730468751
 51
70.52557373046875
  0
ARC
  5
128
330
1F
100
AcDbEntity
  8
3-1
  6
Continuous
 62
     2
370
     9
100
AcDbCircle
 10
-44.97941838288838
 20
283.1676587243122
 30
0.0
 40
68.99999288610509
100
AcDbArc
 50
48.32337951660157
 51
71.67665100097656
  0
ARC
  5
129
330
1F
100
AcDbEntity
  8
3-1
  6
Continuous
 62
     2
370
     9
100
AcDbCircle
 10
-44.97941838288838
 20
283.1676587243122
 30
0.0
 40
73.49999460934671
100
AcDbArc
 50
19.29148864746094
 51
40.70854187011719
  0
ARC
  5
12A
330
1F
100
AcDbEntity
  8
3-1
  6
Continuous
 62
     2
370
     9
100
AcDbCircle
 10
-44.97941838288838
 20
283.1676587243122
 30
0.0
 40
74.49998721560915
100
AcDbArc
 50
18.07777404785154
 51
41.92224121093749
  0
ARC
  5
12B
330
1F
100
AcDbEntity
  8
3-1
  6
Continuous
 62
     2
370
     9
100
AcDbCircle
 10
-44.97941838288838
 20
283.1676587243122
 30
0.0
 40
70.49999054426392
100
AcDbArc
 50
19.47448730468749
 51
40.52557373046874
  0
ARC
  5
12C
330
1F
100
AcDbEntity
  8
3-1
  6
Continuous
 62
     2
370
     9
100
AcDbCircle
 10
-44.97941838288838
 20
283.1676587243122
 30
0.0
 40
68.99999288610509
100
AcDbArc
 50
18.32337951660155
 51
41.67665100097655
  0
ARC
  5
12D
330
1F
100
AcDbEntity
  8
3-1
  6
Continuous
 62
     2
370
     9
100
AcDbCircle
 10
-44.97941838288838
 20
283.1676587243122
 30
0.0
 40
68.99999288610509
100
AcDbArc
 50
8.583679199218768
 51
11.67665100097658
  0
ARC
  5
12E
330
1F
100
AcDbEntity
  8
3-1
  6
Continuous
 62
     2
370
     9
100
AcDbCircle
 10
-44.97941838288838
 20
283.1676587243122
 30
0.0
 40
69.3754723891328
100
AcDbArc
 50
0.0
 51
7.676528930664062
  0
ARC
  5
12F
330
1F
100
AcDbEntity
  8
3-1
  6
Continuous
 62
     2
370
     9
100
AcDbCircle
 10
-44.97941838288838
 20
283.1676587243122
 30
0.0
 40
70.49999054426392
100
AcDbArc
 50
169.4744110107422
 51
179.9999847412109
  0
ARC
  5
130
330
1F
100
AcDbEntity
  8
3-1
  6
Continuous
 62
     2
370
     9
100
AcDbCircle
 10
-44.97941838288838
 20
283.1676587243122
 30
0.0
 40
73.49999460934671
100
AcDbArc
 50
169.2914428710938
 51
179.9999847412109
  0
ARC
  5
131
330
1F
100
AcDbEntity
  8
3-1
  6
Continuous
 62
     2
370
     9
100
AcDbCircle
 10
-44.97941838288838
 20
283.1676587243122
 30
0.0
 40
68.99999288610509
100
AcDbArc
 50
168.3233489990235
 51
171.4163208007813
  0
ARC
  5
132
330
1F
100
AcDbEntity
  8
3-1
  6
Continuous
 62
     2
370
     9
100
AcDbCircle
 10
-44.97941838288838
 20
283.1676587243122
 30
0.0
 40
69.3754723891328
100
AcDbArc
 50
172.3234710693359
 51
180.0
  0
ARC
  5
133
330
1F
100
AcDbEntity
  8
3-1
  6
Continuous
 62
     2
370
     9
100
AcDbCircle
 10
-44.97941838288838
 20
283.1676587243122
 30
0.0
 40
68.99999288610509
100
AcDbArc
 50
95.13783264160155
 51
101.6766510009766
  0
ARC
  5
134
330
1F
100
AcDbEntity
  8
3-1
  6
Continuous
 62
     2
370
     9
100
AcDbCircle
 10
-44.97941838288838
 20
283.1676587243122
 30
0.0
 40
68.99999288610509
100
AcDbArc
 50
78.32337951660156
 51
84.86216735839844
  0
ARC
  5
135
330
1F
100
AcDbEntity
  8
3-1
  6
Continuous
 62
     2
370
     9
100
AcDbCircle
 10
-44.97941838288838
 20
283.1676587243122
 30
0.0
 40
69.3754723891328
100
AcDbArc
 50
86.596435546875
 51
93.40356445312499
  0
ARC
  5
136
330
1F
100
AcDbEntity
  8
3-1
  6
Continuous
 62
     2
370
     9
100
AcDbCircle
 10
-44.97941838288838
 20
283.1676587243122
 30
0.0
 40
74.49998721560915
100
AcDbArc
 50
168.0777740478516
 51
180.0
  0
ARC
  5
137
330
1F
100
AcDbEntity
  8
3-1
  6
Continuous
 62
     2
370
     9
100
AcDbCircle
 10
-44.97941838288838
 20
283.1676587243122
 30
0.0
 40
89.99999946977181
100
AcDbArc
 50
0.0
 51
180.0
  0
ARC
  5
138
330
1F
100
AcDbEntity
  8
3-1
  6
Continuous
 62
     2
370
     9
100
AcDbCircle
 10
-44.97941838288838
 20
283.1676587243122
 30
0.0
 40
73.49999460934671
100
AcDbArc
 50
0.0000000000000254
 51
10.70854187011721
  0
ARC
  5
139
330
1F
100
AcDbEntity
  8
3-1
  6
Continuous
 62
     2
370
     9
100
AcDbCircle
 10
-44.97941838288838
 20
283.1676587243122
 30
0.0
 40
74.49998721560915
100
AcDbArc
 50
0.0000000000000509
 51
11.92222595214849
  0
ARC
  5
13A
330
1F
100
AcDbEntity
  8
3-1
  6
Continuous
 62
     2
370
     9
100
AcDbCircle
 10
21.27009834357233
 20
293.1676722745882
 30
0.0
 40
1.999999976066088
100
AcDbArc
 50
326.6110687255861
 51
8.583190917968805
  0
ARC
  5
13B
330
1F
100
AcDbEntity
  8
3-1
  6
Continuous
 62
     2
370
     9
100
AcDbCircle
 10
21.79222464816933
 20
292.1676884170909
 30
0.0
 40
1.999999976066088
100
AcDbArc
 50
311.1882781982422
 51
7.676574707031246
  0
ARC
  5
13C
330
1F
100
AcDbEntity
  8
3-1
  6
Continuous
 62
     2
370
     9
100
AcDbCircle
 10
-38.97942775025308
 20
349.8984625196149
 30
0.0
 40
1.999999976066088
100
AcDbArc
 50
84.86212158203125
 51
126.8342132568359
  0
ARC
  5
13D
330
1F
100
AcDbEntity
  8
3-1
  6
Continuous
 62
     2
370
     9
100
AcDbCircle
 10
-40.97943046030829
 20
350.4242458080477
 30
0.0
 40
1.999999976066088
100
AcDbArc
 50
86.59663391113284
 51
143.0828857421875
  0
ARC
  5
13E
330
1F
100
AcDbEntity
  8
3-1
  6
Continuous
 62
     2
370
     9
100
AcDbCircle
 10
-48.97940630546844
 20
350.4242458080477
 30
0.0
 40
1.999999976066088
100
AcDbArc
 50
36.9171142578125
 51
93.40336608886719
  0
ARC
  5
13F
330
1F
100
AcDbEntity
  8
3-1
  6
Continuous
 62
     2
370
     9
100
AcDbCircle
 10
-50.97940901552366
 20
349.8984625196149
 30
0.0
 40
1.999999976066088
100
AcDbArc
 50
53.16578674316407
 51
95.13787841796875
  0
ARC
  5
140
330
1F
100
AcDbEntity
  8
3-1
  6
Continuous
 62
     2
370
     9
100
AcDbCircle
 10
-111.2289526068794
 20
293.1676722745882
 30
0.0
 40
1.999999976066088
100
AcDbArc
 50
171.4168090820312
 51
213.3886566162109
  0
ARC
  5
141
330
1F
100
AcDbEntity
  8
3-1
  6
Continuous
 62
     2
370
     9
100
AcDbCircle
 10
-111.7510964090067
 20
292.1676884170909
 30
0.0
 40
1.999999976066088
100
AcDbArc
 50
172.3234252929688
 51
228.8127136230469
  0
ARC
  5
142
330
1F
100
AcDbEntity
  8
3-3
  6
Continuous
 62
     4
370
     9
100
AcDbCircle
 10
18.5206064200081
 20
283.1676587243122
 30
0.0
 40
5.25000000552321
100
AcDbArc
 50
0.0
 51
180.0
  0
ARC
  5
143
330
1F
100
AcDbEntity
  8
3-3
  6
Continuous
 62
     4
370
     9
100
AcDbCircle
 10
-108.4794256882546
 20
283.1676587243122
 30
0.0
 40
5.25000000552321
100
AcDbArc
 50
0.0
 51
180.0
  0
ARC
  5
144
330
1F
100
AcDbEntity
  8
3-0
  6
Continuous
 62
     3
370
     9
100
AcDbCircle
 10
-136.9793505725941
 20
283.1676587243122
 30
0.0
 40
6.000025627695915
100
AcDbArc
 50
272.8033599853516
 51
0.0
  0
ARC
  5
145
330
1F
100
AcDbEntity
  8
3-0
  6
Continuous
 62
     3
370
     9
100
AcDbCircle
 10
-136.5391652024618
 20
274.1784075102075
 30
0.0
 40
2.999999964099133
100
AcDbArc
 50
92.80354309082026
 51
185.6074066162109
  0
ARC
  5
146
330
1F
100
AcDbEntity
  8
3-0
  6
Continuous
 62
     3
370
     9
100
AcDbCircle
 10
-136.9793505725941
 20
283.1676587243122
 30
0.0
 40
7.115195727256273
100
AcDbArc
 50
278.3759613037109
 51
0.0
  0
ARC
  5
147
330
1F
100
AcDbEntity
  8
3-0
  6
Continuous
 62
     3
370
     9
100
AcDbCircle
 10
-135.4287544311472
 20
273.1720195566149
 30
0.0
 40
2.999999964099133
100
AcDbArc
 50
98.8179931640625
 51
186.3063201904297
  0
ARC
  5
148
330
1F
100
AcDbEntity
  8
3-0
  6
Continuous
 62
     3
370
     9
100
AcDbCircle
 10
-34.98374422013045
 20
192.7182876809928
 30
0.0
 40
2.999999964099133
100
AcDbArc
 50
188.8179931640626
 51
276.3063201904297
  0
ARC
  5
149
330
1F
100
AcDbEntity
  8
3-0
  6
Continuous
 62
     3
370
     9
100
AcDbCircle
 10
-54.97502255552501
 20
192.7182876809928
 30
0.0
 40
2.999999964099133
100
AcDbArc
 50
263.6936798095704
 51
351.1820068359375
  0
ARC
  5
14A
330
1F
100
AcDbEntity
  8
3-0
  6
Continuous
 62
     3
370
     9
100
AcDbCircle
 10
-44.97938338782772
 20
191.1676915395458
 30
0.0
 40
7.115195727256273
100
AcDbArc
 50
8.375961303710946
 51
171.1822052001953
  0
ARC
  5
14B
330
1F
100
AcDbEntity
  8
3-0
  6
Continuous
 62
     3
370
     9
100
AcDbCircle
 10
-35.99013217372298
 20
191.6078769096781
 30
0.0
 40
2.999999964099133
100
AcDbArc
 50
182.8035278320312
 51
275.6074066162109
  0
ARC
  5
14C
330
1F
100
AcDbEntity
  8
3-0
  6
Continuous
 62
     3
370
     9
100
AcDbCircle
 10
-53.96863460193246
 20
191.6078769096781
 30
0.0
 40
2.999999964099133
100
AcDbArc
 50
264.3925933837891
 51
357.1964721679688
  0
ARC
  5
14D
330
1F
100
AcDbEntity
  8
3-0
  6
Continuous
 62
     3
370
     9
100
AcDbCircle
 10
-44.97938338782772
 20
191.1676915395458
 30
0.0
 40
6.000014691739468
100
AcDbArc
 50
2.803359985351555
 51
177.1966400146484
  0
ARC
  5
14E
330
1F
100
AcDbEntity
  8
3-0
  6
Continuous
 62
     3
370
     9
100
AcDbCircle
 10
47.02058379693864
 20
283.1676587243122
 30
0.0
 40
6.000025627695915
100
AcDbArc
 50
180.0
 51
267.1966400146484
  0
ARC
  5
14F
330
1F
100
AcDbEntity
  8
3-0
  6
Continuous
 62
     3
370
     9
100
AcDbCircle
 10
46.58041592433671
 20
274.1784075102075
 30
0.0
 40
2.999999964099133
100
AcDbArc
 50
354.3925933837891
 51
87.1964569091797
  0
ARC
  5
150
330
1F
100
AcDbEntity
  8
3-0
  6
Continuous
 62
     3
370
     9
100
AcDbCircle
 10
47.02058379693864
 20
283.1676587243122
 30
0.0
 40
7.115195727256273
100
AcDbArc
 50
180.0
 51
261.6240386962891
  0
ARC
  5
151
330
1F
100
AcDbEntity
  8
3-0
  6
Continuous
 62
     3
370
     9
100
AcDbCircle
 10
45.46995266043103
 20
273.1720195566149
 30
0.0
 40
2.999999964099133
100
AcDbArc
 50
353.6936798095703
 51
81.18200683593751
  0
ARC
  5
152
330
1F
100
AcDbEntity
  8
3-0
  6
Continuous
 62
     3
370
     9
100
AcDbCircle
 10
-44.97938338782773
 20
283.1676587243122
 30
0.0
 40
93.99995239729125
100
AcDbArc
 50
186.3062133789063
 51
263.6937866210937
  0
ARC
  5
153
330
1F
100
AcDbEntity
  8
3-0
  6
Continuous
 62
     3
370
     9
100
AcDbCircle
 10
-44.97938338782773
 20
283.1676587243122
 30
0.0
 40
95.0000062449098
100
AcDbArc
 50
185.6072845458984
 51
264.3927154541016
  0
ARC
  5
154
330
1F
100
AcDbEntity
  8
3-0
  6
Continuous
 62
     3
370
     9
100
AcDbCircle
 10
-44.97938338782773
 20
283.1676587243122
 30
0.0
 40
93.99995239729125
100
AcDbArc
 50
276.3062133789062
 51
353.6937866210937
  0
ARC
  5
155
330
1F
100
AcDbEntity
  8
3-0
  6
Continuous
 62
     3
370
     9
100
AcDbCircle
 10
-44.97938338782773
 20
283.1676587243122
 30
0.0
 40
95.0000062449098
100
AcDbArc
 50
275.6072845458984
 51
354.3927154541016
  0
ARC
  5
156
330
1F
100
AcDbEntity
  8
3-0
  6
Continuous
 62
     3
370
     9
100
AcDbCircle
 10
-44.97938338782773
 20
283.1676587243122
 30
0.0
 40
79.99996842196549
100
AcDbArc
 50
180.0
 51
0.0
  0
ARC
  5
157
330
1F
100
AcDbEntity
  8
3-0
  6
Continuous
 62
     3
370
     9
100
AcDbCircle
 10
-44.97938338782773
 20
283.1676587243122
 30
0.0
 40
81.00002226958404
100
AcDbArc
 50
180.0
 51
0.0
  0
ARC
  5
158
330
1F
100
AcDbEntity
  8
3-0
  6
Continuous
 62
     3
370
     9
100
AcDbCircle
 10
-44.97938338782773
 20
283.1676587243122
 30
0.0
 40
49.50002333004041
100
AcDbArc
 50
180.0
 51
0.0
  0
ARC
  5
159
330
1F
100
AcDbEntity
  8
3-0
  6
Continuous
 62
     3
370
     9
100
AcDbCircle
 10
-44.97938338782773
 20
283.1676587243122
 30
0.0
 40
52.49999240006258
100
AcDbArc
 50
180.0
 51
0.0
  0
ARC
  5
15A
330
1F
100
AcDbEntity
  8
3-0
  6
Continuous
 62
     3
370
     9
100
AcDbCircle
 10
-78.35007828839935
 20
219.3680237098334
 30
0.0
 40
1.999999976066088
100
AcDbArc
 50
242.3882141113281
 51
330.0
  0
ARC
  5
15B
330
1F
100
AcDbEntity
  8
3-0
  6
Continuous
 62
     3
370
     9
100
AcDbCircle
 10
-77.96046078087717
 20
218.0428482514335
 30
0.0
 40
1.999999976066088
100
AcDbArc
 50
243.1409912109375
 51
330.0
  0
ARC
  5
15C
330
1F
100
AcDbEntity
  8
3-0
  6
Continuous
 62
     3
370
     9
100
AcDbCircle
 10
-83.54614489071592
 20
222.3679752823253
 30
0.0
 40
1.999999976066088
100
AcDbArc
 50
150.0
 51
237.6117858886719
  0
ARC
  5
15D
330
1F
100
AcDbEntity
  8
3-0
  6
Continuous
 62
     3
370
     9
100
AcDbCircle
 10
-84.88859041153671
 20
222.0428011789529
 30
0.0
 40
1.999999976066088
100
AcDbArc
 50
150.0
 51
236.8590087890625
  0
ARC
  5
15E
330
1F
100
AcDbEntity
  8
3-0
  6
Continuous
 62
     3
370
     9
100
AcDbCircle
 10
-68.87184109211407
 20
225.78480551457
 30
0.0
 40
1.999999976066088
100
AcDbArc
 50
67.39451599121094
 51
149.9998931884766
  0
ARC
  5
15F
330
1F
100
AcDbEntity
  8
3-0
  6
Continuous
 62
     3
370
     9
100
AcDbCircle
 10
-68.82715239968975
 20
227.8622172987383
 30
0.0
 40
1.999999976066088
100
AcDbArc
 50
66.67417907714844
 51
149.9998931884766
  0
ARC
  5
160
330
1F
100
AcDbEntity
  8
3-0
  6
Continuous
 62
     3
370
     9
100
AcDbCircle
 10
-82.72817034355437
 20
233.7847638621998
 30
0.0
 40
1.999999976066088
100
AcDbArc
 50
330.0001373291016
 51
52.60537719726565
  0
ARC
  5
161
330
1F
100
AcDbEntity
  8
3-0
  6
Continuous
 62
     3
370
     9
100
AcDbCircle
 10
-80.95141862278716
 20
234.8621742913406
 30
0.0
 40
1.999999976066088
100
AcDbArc
 50
329.9997100830078
 51
53.3258972167969
  0
ARC
  5
162
330
1F
100
AcDbEntity
  8
3-0
  6
Continuous
 62
     3
370
     9
100
AcDbCircle
 10
-44.97938338782773
 20
283.1676587243122
 30
0.0
 40
58.22796642642223
100
AcDbArc
 50
233.3257446289063
 51
246.6742401123047
  0
ARC
  5
163
330
1F
100
AcDbEntity
  8
3-0
  6
Continuous
 62
     3
370
     9
100
AcDbCircle
 10
26.95805551810179
 20
280.1677071518203
 30
0.0
 40
1.999999976066088
100
AcDbArc
 50
270.0
 51
357.6117858886719
  0
ARC
  5
164
330
1F
100
AcDbEntity
  8
3-0
  6
Continuous
 62
     3
370
     9
100
AcDbCircle
 10
27.91090102893065
 20
279.1677057967927
 30
0.0
 40
1.999999976066088
100
AcDbArc
 50
270.0
 51
356.8590087890625
  0
ARC
  5
165
330
1F
100
AcDbEntity
  8
3-0
  6
Continuous
 62
     3
370
     9
100
AcDbCircle
 10
16.66187876971554
 20
275.1677003766823
 30
0.0
 40
1.999999976066088
100
AcDbArc
 50
90.00013732910158
 51
172.6053771972657
  0
ARC
  5
166
330
1F
100
AcDbEntity
  8
3-0
  6
Continuous
 62
     3
370
     9
100
AcDbCircle
 10
14.84038586393308
 20
276.1677017317099
 30
0.0
 40
1.999999976066088
100
AcDbArc
 50
89.99971008300784
 51
173.3258972167969
  0
ARC
  5
167
330
1F
100
AcDbEntity
  8
3-0
  6
Continuous
 62
     3
370
     9
100
AcDbCircle
 10
-44.97938338782773
 20
283.1676587243122
 30
0.0
 40
58.22796642642223
100
AcDbArc
 50
353.3257446289062
 51
0.0000000000000413
  0
ARC
  5
168
330
1F
100
AcDbEntity
  8
3-0
  6
Continuous
 62
     3
370
     9
100
AcDbCircle
 10
-44.97938338782773
 20
283.1676587243122
 30
0.0
 40
60.15818898558155
100
AcDbArc
 50
185.5392608642579
 51
232.6053314208985
  0
ARC
  5
169
330
1F
100
AcDbEntity
  8
3-0
  6
Continuous
 62
     3
370
     9
100
AcDbCircle
 10
-7.188059935905521
 20
220.7111691318668
 30
0.0
 40
1.999999976066088
100
AcDbArc
 50
301.1774749755859
 51
29.99986267089845
  0
ARC
  5
16A
330
1F
100
AcDbEntity
  8
3-0
  6
Continuous
 62
     3
370
     9
100
AcDbCircle
 10
-8.547250593237655
 20
221.0653541405013
 30
0.0
 40
1.999999976066088
100
AcDbArc
 50
300.3976593017578
 51
29.99986267089844
  0
ARC
  5
16B
330
1F
100
AcDbEntity
  8
3-0
  6
Continuous
 62
     3
370
     9
100
AcDbCircle
 10
-9.786110734594152
 20
219.2111933456209
 30
0.0
 40
1.999999976066088
100
AcDbArc
 50
210.0000305175781
 51
298.8224182128906
  0
ARC
  5
16C
330
1F
100
AcDbEntity
  8
3-0
  6
Continuous
 62
     3
370
     9
100
AcDbCircle
 10
-9.41325586111366
 20
220.5653797092829
 30
0.0
 40
1.999999976066088
100
AcDbArc
 50
210.0000305175781
 51
299.6022338867188
  0
ARC
  5
16D
330
1F
100
AcDbEntity
  8
3-0
  6
Continuous
 62
     3
370
     9
100
AcDbCircle
 10
-44.97936589029742
 20
283.1676412267819
 30
0.0
 40
73.99996029179988
100
AcDbArc
 50
299.6021270751953
 51
300.3978729248048
  0
ARC
  5
16E
330
1F
100
AcDbEntity
  8
3-0
  6
Continuous
 62
     3
370
     9
100
AcDbCircle
 10
-44.97936589029742
 20
283.1676412267819
 30
0.0
 40
74.99996164682747
100
AcDbArc
 50
298.8226318359376
 51
301.1773986816407
  0
ARC
  5
16F
330
1F
100
AcDbEntity
  8
3-0
  6
Continuous
 62
     3
370
     9
100
AcDbCircle
 10
-44.97938338782773
 20
283.1676587243122
 30
0.0
 40
60.15818898558155
100
AcDbArc
 50
305.076416015625
 51
352.6053314208985
  0
ARC
  5
170
330
1F
100
AcDbEntity
  8
3-0
  6
Continuous
 62
     3
370
     9
100
AcDbCircle
 10
-9.259050126448349
 20
232.298243676766
 30
0.0
 40
1.999999976066088
100
AcDbArc
 50
125.076156616211
 51
210.0001068115234
  0
ARC
  5
171
330
1F
100
AcDbEntity
  8
3-0
  6
Continuous
 62
     3
370
     9
100
AcDbCircle
 10
-11.05245949607535
 20
233.4045075333961
 30
0.0
 40
1.999999976066088
100
AcDbArc
 50
124.2846984863281
 51
210.0001068115234
  0
ARC
  5
172
330
1F
100
AcDbEntity
  8
3-0
  6
Continuous
 62
     3
370
     9
100
AcDbCircle
 10
-18.78530054591777
 20
226.7982624704097
 30
0.0
 40
1.999999976066088
100
AcDbArc
 50
29.99992370605469
 51
114.9238586425781
  0
ARC
  5
173
330
1F
100
AcDbEntity
  8
3-0
  6
Continuous
 62
     3
370
     9
100
AcDbCircle
 10
-44.97938338782773
 20
283.1676587243122
 30
0.0
 40
60.15818898558155
100
AcDbArc
 50
247.3946533203125
 51
294.9236450195312
  0
ARC
  5
174
330
1F
100
AcDbEntity
  8
3-0
  6
Continuous
 62
     3
370
     9
100
AcDbCircle
 10
-44.97938338782773
 20
283.1676587243122
 30
0.0
 40
58.22796205203965
100
AcDbArc
 50
295.7151336669922
 51
304.2849273681641
  0
ARC
  5
175
330
1F
100
AcDbEntity
  8
3-0
  6
Continuous
 62
     3
370
     9
100
AcDbCircle
 10
-18.84664688720181
 20
228.9045451795977
 30
0.0
 40
1.999999976066088
100
AcDbArc
 50
29.99992370605469
 51
115.7151794433594
  0
ARC
  5
176
330
1F
100
AcDbEntity
  8
3-0
  6
Continuous
 62
     3
370
     9
100
AcDbCircle
 10
-44.97938338782773
 20
283.1676587243122
 30
0.0
 40
64.75914708435765
100
AcDbArc
 50
303.09814453125
 51
354.6838989257812
  0
ARC
  5
177
330
1F
100
AcDbEntity
  8
3-0
  6
Continuous
 62
     3
370
     9
100
AcDbCircle
 10
-44.97938338782773
 20
283.1676587243122
 30
0.0
 40
66.46692791500607
100
AcDbArc
 50
303.0184783935547
 51
354.8208770751954
  0
ARC
  5
178
330
1F
100
AcDbEntity
  8
3-0
  6
Continuous
 62
     3
370
     9
100
AcDbCircle
 10
-44.97938338782773
 20
283.1676587243122
 30
0.0
 40
72.53411781281577
100
AcDbArc
 50
302.7657928466797
 51
355.255126953125
  0
ARC
  5
179
330
1F
100
AcDbEntity
  8
3-0
  6
Continuous
 62
     3
370
     9
100
AcDbCircle
 10
-44.97938338782773
 20
283.1676412267819
 30
0.0
 40
73.99996029179988
100
AcDbArc
 50
302.5276641845703
 51
355.5087432861328
  0
ARC
  5
17A
330
1F
100
AcDbEntity
  8
3-0
  6
Continuous
 62
     3
370
     9
100
AcDbCircle
 10
-44.97938338782773
 20
283.1676412267819
 30
0.0
 40
73.99996029179988
100
AcDbArc
 50
244.4912567138672
 51
297.4723815917968
  0
ARC
  5
17B
330
1F
100
AcDbEntity
  8
3-0
  6
Continuous
 62
     3
370
     9
100
AcDbCircle
 10
-44.97938338782773
 20
283.1676587243122
 30
0.0
 40
72.53411781281577
100
AcDbArc
 50
244.744873046875
 51
297.2342376708984
  0
ARC
  5
17C
330
1F
100
AcDbEntity
  8
3-0
  6
Continuous
 62
     3
370
     9
100
AcDbCircle
 10
-44.97938338782773
 20
283.1676587243122
 30
0.0
 40
66.46692791500607
100
AcDbArc
 50
245.1791229248047
 51
296.9815368652344
  0
ARC
  5
17D
330
1F
100
AcDbEntity
  8
3-0
  6
Continuous
 62
     3
370
     9
100
AcDbCircle
 10
-44.97938338782773
 20
283.1676587243122
 30
0.0
 40
64.75914708435765
100
AcDbArc
 50
245.3161010742188
 51
296.9018707275391
  0
ARC
  5
17E
330
1F
100
AcDbEntity
  8
3-0
  6
Continuous
 62
     3
370
     9
100
AcDbCircle
 10
-117.9639444979229
 20
281.6676654405359
 30
0.0
 40
1.999999976066088
100
AcDbArc
 50
181.1774749755859
 51
269.9998626708984
  0
ARC
  5
17F
330
1F
100
AcDbEntity
  8
3-0
  6
Continuous
 62
     3
370
     9
100
AcDbCircle
 10
-116.9776262116016
 20
282.6676667955635
 30
0.0
 40
1.999999976066088
100
AcDbArc
 50
180.3976593017578
 51
269.9998626708984
  0
ARC
  5
180
330
1F
100
AcDbEntity
  8
3-0
  6
Continuous
 62
     3
370
     9
100
AcDbCircle
 10
-106.8937644960565
 20
277.6676425228952
 30
0.0
 40
1.999999976066088
100
AcDbArc
 50
5.076156616210924
 51
90.00010681152342
  0
ARC
  5
181
330
1F
100
AcDbEntity
  8
3-0
  6
Continuous
 62
     3
370
     9
100
AcDbCircle
 10
-105.0389912876151
 20
278.6676613754531
 30
0.0
 40
1.999999976066088
100
AcDbArc
 50
4.284698486328122
 51
90.00010681152345
  0
ARC
  5
182
330
1F
100
AcDbEntity
  8
3-0
  6
Continuous
 62
     3
370
     9
100
AcDbCircle
 10
-44.97938338782773
 20
283.1676587243122
 30
0.0
 40
58.22796205203965
100
AcDbArc
 50
180.0
 51
184.284927368164
  0
ARC
  5
183
330
1F
100
AcDbEntity
  8
3-0
  6
Continuous
 62
     3
370
     9
100
AcDbCircle
 10
-44.97940088535804
 20
283.1676587243122
 30
0.0
 40
73.99996029179988
100
AcDbArc
 50
180.0
 51
180.3978729248047
  0
ARC
  5
184
330
1F
100
AcDbEntity
  8
3-0
  6
Continuous
 62
     3
370
     9
100
AcDbCircle
 10
-44.97940088535804
 20
283.1676587243122
 30
0.0
 40
74.99996164682747
100
AcDbArc
 50
180.0
 51
181.1773986816406
  0
ARC
  5
185
330
1F
100
AcDbEntity
  8
3-0
  6
Continuous
 62
     3
370
     9
100
AcDbCircle
 10
-44.97938338782773
 20
283.1676587243122
 30
0.0
 40
64.75914708435765
100
AcDbArc
 50
183.0981597900391
 51
234.6838989257812
  0
ARC
  5
186
330
1F
100
AcDbEntity
  8
3-0
  6
Continuous
 62
     3
370
     9
100
AcDbCircle
 10
-44.97938338782773
 20
283.1676587243122
 30
0.0
 40
66.46692791500607
100
AcDbArc
 50
183.0184783935547
 51
234.8208770751954
  0
ARC
  5
187
330
1F
100
AcDbEntity
  8
3-0
  6
Continuous
 62
     3
370
     9
100
AcDbCircle
 10
-44.97938338782773
 20
283.1676587243122
 30
0.0
 40
72.53411781281577
100
AcDbArc
 50
182.7657928466797
 51
235.2551269531251
  0
ARC
  5
188
330
1F
100
AcDbEntity
  8
3-0
  6
Continuous
 62
     3
370
     9
100
AcDbCircle
 10
-44.97938338782773
 20
283.1676412267819
 30
0.0
 40
73.99996029179988
100
AcDbArc
 50
182.5276489257813
 51
235.5087280273438
  0
ARC
  5
189
330
1F
100
AcDbEntity
  8
3-0
  6
Continuous
 62
     3
370
     9
100
AcDbCircle
 10
-81.66837992744071
 20
275.4107060776959
 30
0.0
 40
1.999999976066088
100
AcDbArc
 50
129.1321105957032
 51
191.9381256103516
  0
ARC
  5
18A
330
1F
100
AcDbEntity
  8
3-0
  6
Continuous
 62
     3
370
     9
100
AcDbCircle
 10
-33.3526594392349
 20
247.5156008262216
 30
0.0
 40
1.999999976066088
100
AcDbArc
 50
288.0622253417969
 51
350.8682403564453
  0
ARC
  5
18B
330
1F
100
AcDbEntity
  8
3-0
  6
Continuous
 62
     3
370
     9
100
AcDbCircle
 10
-19.91721578198945
 20
255.2725709703682
 30
0.0
 40
1.999999976066088
100
AcDbArc
 50
249.1321105957031
 51
311.9381256103515
  0
ARC
  5
18C
330
1F
100
AcDbEntity
  8
3-0
  6
Continuous
 62
     3
370
     9
100
AcDbCircle
 10
-23.4793979985601
 20
245.9285398315983
 30
0.0
 40
7.999999904264353
100
AcDbArc
 50
69.13185119628906
 51
170.8681488037109
  0
ARC
  5
18D
330
1F
100
AcDbEntity
  8
3-0
  6
Continuous
 62
     3
370
     9
100
AcDbCircle
 10
-44.97941838288838
 20
283.1676587243122
 30
0.0
 40
43.94273771190275
100
AcDbArc
 50
180.0
 51
0.0
  0
ARC
  5
18E
330
1F
100
AcDbEntity
  8
3-0
  6
Continuous
 62
     3
370
     9
100
AcDbCircle
 10
-44.97941838288838
 20
283.1676587243122
 30
0.0
 40
42.41677809313917
100
AcDbArc
 50
180.0
 51
0.0
  0
ARC
  5
18F
330
1F
100
AcDbEntity
  8
3-0
  6
Continuous
 62
     3
370
     9
100
AcDbCircle
 10
-44.97941838288838
 20
283.1676587243122
 30
0.0
 40
39.50000977976441
100
AcDbArc
 50
311.9379425048828
 51
0.0
  0
ARC
  5
190
330
1F
100
AcDbEntity
  8
3-0
  6
Continuous
 62
     3
370
     9
100
AcDbCircle
 10
-87.97945915154486
 20
283.1676587243122
 30
0.0
 40
7.999999904264353
100
AcDbArc
 50
309.1318511962891
 51
0.0
  0
ARC
  5
191
330
1F
100
AcDbEntity
  8
3-0
  6
Continuous
 62
     3
370
     9
100
AcDbCircle
 10
-44.97941838288838
 20
283.1676587243122
 30
0.0
 40
39.50000977976441
100
AcDbArc
 50
191.9379425048828
 51
288.0620574951172
  0
ARC
  5
192
330
1F
100
AcDbEntity
  8
3-2
  6
Continuous
 62
     6
370
     9
100
AcDbCircle
 10
22.33513801878047
 20
288.1676480019199
 30
0.0
 40
0.9999999880330441
100
AcDbArc
 50
270.0
 51
4.247619628906258
  0
ARC
  5
193
330
1F
100
AcDbEntity
  8
3-2
  6
Continuous
 62
     6
370
     9
100
AcDbCircle
 10
-44.97941838288838
 20
283.1676587243122
 30
0.0
 40
67.49999960232886
100
AcDbArc
 50
5.176544189453126
 51
8.519638061523438
  0
ARC
  5
194
330
1F
100
AcDbEntity
  8
3-2
  6
Continuous
 62
     6
370
     9
100
AcDbCircle
 10
21.24938126767944
 20
289.1676318594172
 30
0.0
 40
0.9999999880330441
100
AcDbArc
 50
270.0
 51
5.176101684570324
  0
ARC
  5
195
330
1F
100
AcDbEntity
  8
3-2
  6
Continuous
 62
     6
370
     9
100
AcDbCircle
 10
-44.97941838288838
 20
283.1676587243122
 30
0.0
 40
57.49999917520059
100
AcDbArc
 50
11.02888488769531
 51
168.9710998535157
  0
ARC
  5
196
330
1F
100
AcDbEntity
  8
3-2
  6
Continuous
 62
     6
370
     9
100
AcDbCircle
 10
-112.2939922820875
 20
288.1676480019199
 30
0.0
 40
0.9999999880330441
100
AcDbArc
 50
175.7523803710938
 51
270.0
  0
ARC
  5
197
330
1F
100
AcDbEntity
  8
3-2
  6
Continuous
 62
     6
370
     9
100
AcDbCircle
 10
-44.97941838288838
 20
283.1676587243122
 30
0.0
 40
67.49999960232886
100
AcDbArc
 50
171.4803619384766
 51
174.8234558105469
  0
ARC
  5
198
330
1F
100
AcDbEntity
  8
3-2
  6
Continuous
 62
     6
370
     9
100
AcDbCircle
 10
-111.2082005359259
 20
289.1676318594172
 30
0.0
 40
0.9999999880330441
100
AcDbArc
 50
174.8238983154297
 51
270.0
  0
ARC
  5
199
330
1F
100
AcDbEntity
  8
3-2
  6
Continuous
 62
     6
370
     9
100
AcDbCircle
 10
-44.97941838288838
 20
283.1676587243122
 30
0.0
 40
68.50000095735643
100
AcDbArc
 50
4.248001098632812
 51
175.7519989013672
  0
ARC
  5
19A
330
1F
100
AcDbEntity
  8
3-2
  6
Continuous
 62
     6
370
     9
100
AcDbCircle
 10
-61.30232199023106
 20
287.9176432887804
 30
0.0
 40
1.499999982049566
100
AcDbArc
 50
270.0
 51
343.7748718261719
  0
ARC
  5
19B
330
1F
100
AcDbEntity
  8
3-2
  6
Continuous
 62
     6
370
     9
100
AcDbCircle
 10
-67.99435744435146
 20
287.9176432887804
 30
0.0
 40
1.499999982049566
100
AcDbArc
 50
168.3383941650391
 51
270.0
  0
ARC
  5
19C
330
1F
100
AcDbEntity
  8
3-2
  6
Continuous
 62
     6
370
     9
100
AcDbCircle
 10
-59.88021021388649
 20
291.3509386970514
 30
0.0
 40
1.499999982049566
100
AcDbArc
 50
331.2249298095704
 51
45.00000000000003
  0
ARC
  5
19D
330
1F
100
AcDbEntity
  8
3-2
  6
Continuous
 62
     6
370
     9
100
AcDbCircle
 10
-44.97941838288838
 20
283.1676587243122
 30
0.0
 40
15.49999366303668
100
AcDbArc
 50
151.2251129150391
 51
163.7749481201172
  0
ARC
  5
19E
330
1F
100
AcDbEntity
  8
3-2
  6
Continuous
 62
     6
370
     9
100
AcDbCircle
 10
-64.61218981966066
 20
296.0829358003559
 30
0.0
 40
1.499999982049566
100
AcDbArc
 50
45.0
 51
146.6613922119141
  0
ARC
  5
19F
330
1F
100
AcDbEntity
  8
3-2
  6
Continuous
 62
     6
370
     9
100
AcDbCircle
 10
-44.97941838288838
 20
283.1676587243122
 30
0.0
 40
24.99999888062937
100
AcDbArc
 50
146.6614074707031
 51
168.338607788086
  0
ARC
  5
1A0
330
1F
100
AcDbEntity
  8
3-2
  6
Continuous
 62
     6
370
     9
100
AcDbCircle
 10
-30.07864404942057
 20
291.3509561945817
 30
0.0
 40
1.499999982049566
100
AcDbArc
 50
135.0
 51
208.7748718261719
  0
ARC
  5
1A1
330
1F
100
AcDbEntity
  8
3-2
  6
Continuous
 62
     6
370
     9
100
AcDbCircle
 10
-25.34664694611609
 20
296.0829358003559
 30
0.0
 40
1.499999982049566
100
AcDbArc
 50
33.33839416503906
 51
135.0
  0
ARC
  5
1A2
330
1F
100
AcDbEntity
  8
3-2
  6
Continuous
 62
     6
370
     9
100
AcDbCircle
 10
-28.6565147755457
 20
287.917678283841
 30
0.0
 40
1.499999982049566
100
AcDbArc
 50
196.2249298095703
 51
270.0
  0
ARC
  5
1A3
330
1F
100
AcDbEntity
  8
3-2
  6
Continuous
 62
     6
370
     9
100
AcDbCircle
 10
-44.97941838288838
 20
283.1676587243122
 30
0.0
 40
15.49999366303668
100
AcDbArc
 50
16.22511291503909
 51
28.77494812011721
  0
ARC
  5
1A4
330
1F
100
AcDbEntity
  8
3-2
  6
Continuous
 62
     6
370
     9
100
AcDbCircle
 10
-21.96447932142524
 20
287.917678283841
 30
0.0
 40
1.499999982049566
100
AcDbArc
 50
270.0
 51
11.66139221191407
  0
ARC
  5
1A5
330
1F
100
AcDbEntity
  8
3-2
  6
Continuous
 62
     6
370
     9
100
AcDbCircle
 10
-44.97941838288838
 20
283.1676587243122
 30
0.0
 40
24.99999888062937
100
AcDbArc
 50
11.66140747070314
 51
33.33860778808596
  0
ARC
  5
1A6
330
1F
100
AcDbEntity
  8
3-2
  6
Continuous
 62
     6
370
     9
100
AcDbCircle
 10
-40.22943381842018
 20
299.4905798291852
 30
0.0
 40
1.499999982049566
100
AcDbArc
 50
180.0
 51
253.7748718261719
  0
ARC
  5
1A7
330
1F
100
AcDbEntity
  8
3-2
  6
Continuous
 62
     6
370
     9
100
AcDbCircle
 10
-40.22943381842018
 20
306.1826152833056
 30
0.0
 40
1.499999982049566
100
AcDbArc
 50
78.33839416503906
 51
180.0
  0
ARC
  5
1A8
330
1F
100
AcDbEntity
  8
3-2
  6
Continuous
 62
     6
370
     9
100
AcDbCircle
 10
-36.79613841014918
 20
298.0684505553103
 30
0.0
 40
1.499999982049566
100
AcDbArc
 50
241.2249298095703
 51
315.0
  0
ARC
  5
1A9
330
1F
100
AcDbEntity
  8
3-2
  6
Continuous
 62
     6
370
     9
100
AcDbCircle
 10
-44.97941838288838
 20
283.1676587243122
 30
0.0
 40
15.49999366303668
100
AcDbArc
 50
61.22511291503908
 51
73.77494812011722
  0
ARC
  5
1AA
330
1F
100
AcDbEntity
  8
3-2
  6
Continuous
 62
     6
370
     9
100
AcDbCircle
 10
-32.06415880437498
 20
302.8004476586148
 30
0.0
 40
1.499999982049566
100
AcDbArc
 50
315.0
 51
56.66139221191407
  0
ARC
  5
1AB
330
1F
100
AcDbEntity
  8
3-2
  6
Continuous
 62
     6
370
     9
100
AcDbCircle
 10
-44.97941838288838
 20
283.1676587243122
 30
0.0
 40
24.99999888062937
100
AcDbArc
 50
56.66140747070315
 51
78.33860778808597
  0
ARC
  5
1AC
330
1F
100
AcDbEntity
  8
3-2
  6
Continuous
 62
     6
370
     9
100
AcDbCircle
 10
-53.16271585315789
 20
298.06843305778
 30
0.0
 40
1.499999982049566
100
AcDbArc
 50
225.0000000000001
 51
298.7748718261719
  0
ARC
  5
1AD
330
1F
100
AcDbEntity
  8
3-2
  6
Continuous
 62
     6
370
     9
100
AcDbCircle
 10
-57.89469545893203
 20
302.8004476586148
 30
0.0
 40
1.499999982049566
100
AcDbArc
 50
123.3383941650391
 51
225.0000000000001
  0
ARC
  5
1AE
330
1F
100
AcDbEntity
  8
3-2
  6
Continuous
 62
     6
370
     9
100
AcDbCircle
 10
-49.72942044488688
 20
299.4905798291852
 30
0.0
 40
1.499999982049566
100
AcDbArc
 50
286.2249298095704
 51
0.0000000000000254
  0
ARC
  5
1AF
330
1F
100
AcDbEntity
  8
3-2
  6
Continuous
 62
     6
370
     9
100
AcDbCircle
 10
-44.97941838288838
 20
283.1676587243122
 30
0.0
 40
15.49999366303668
100
AcDbArc
 50
106.2251129150391
 51
118.7749481201173
  0
ARC
  5
1B0
330
1F
100
AcDbEntity
  8
3-2
  6
Continuous
 62
     6
370
     9
100
AcDbCircle
 10
-49.7294204448869
 20
306.1826152833056
 30
0.0
 40
1.499999982049566
100
AcDbArc
 50
0.0
 51
101.6613922119141
  0
ARC
  5
1B1
330
1F
100
AcDbEntity
  8
3-2
  6
Continuous
 62
     6
370
     9
100
AcDbCircle
 10
-44.97941838288838
 20
283.1676587243122
 30
0.0
 40
24.99999888062937
100
AcDbArc
 50
101.6614074707032
 51
123.338607788086
  0
ARC
  5
1B2
330
1F
100
AcDbEntity
  8
3-2
  6
Continuous
 62
     6
370
     9
100
AcDbCircle
 10
-37.9304858029347
 20
287.9176432887804
 30
0.0
 40
1.499999982049566
100
AcDbArc
 50
270.0
 51
33.97442626953126
  0
ARC
  5
1B3
330
1F
100
AcDbEntity
  8
3-2
  6
Continuous
 62
     6
370
     9
100
AcDbCircle
 10
-44.97941838288838
 20
283.1676587243122
 30
0.0
 40
9.999996052745686
100
AcDbArc
 50
33.97441101074219
 51
146.0255889892578
  0
ARC
  5
1B4
330
1F
100
AcDbEntity
  8
3-2
  6
Continuous
 62
     6
370
     9
100
AcDbCircle
 10
-52.02835096284206
 20
287.9176432887804
 30
0.0
 40
1.499999982049566
100
AcDbArc
 50
146.0255737304688
 51
270.0
  0
ARC
  5
1B5
330
1F
100
AcDbEntity
  8
3-2
  6
Continuous
 62
     6
370
     9
100
AcDbCircle
 10
-14.05197363030936
 20
302.0275117544838
 30
0.0
 40
1.499999982049566
100
AcDbArc
 50
211.3751373291016
 51
296.2733306884766
  0
ARC
  5
1B6
330
1F
100
AcDbEntity
  8
3-2
  6
Continuous
 62
     6
370
     9
100
AcDbCircle
 10
-44.97941838288838
 20
283.1676587243122
 30
0.0
 40
34.72430384573329
100
AcDbArc
 50
31.375244140625
 51
36.12471008300781
  0
ARC
  5
1B7
330
1F
100
AcDbEntity
  8
3-2
  6
Continuous
 62
     6
370
     9
100
AcDbCircle
 10
-15.71975073227532
 20
304.5234994588455
 30
0.0
 40
1.499999982049566
100
AcDbArc
 50
131.2264099121094
 51
216.1245269775391
  0
ARC
  5
1B8
330
1F
100
AcDbEntity
  8
3-2
  6
Continuous
 62
     6
370
     9
100
AcDbCircle
 10
-23.6235426532944
 20
312.427308877395
 30
0.0
 40
1.499999982049566
100
AcDbArc
 50
233.8751373291016
 51
318.7733306884766
  0
ARC
  5
1B9
330
1F
100
AcDbEntity
  8
3-2
  6
Continuous
 62
     6
370
     9
100
AcDbCircle
 10
-44.97941838288838
 20
283.1676587243122
 30
0.0
 40
34.72430384573329
100
AcDbArc
 50
53.87524414062503
 51
58.62471008300784
  0
ARC
  5
1BA
330
1F
100
AcDbEntity
  8
3-2
  6
Continuous
 62
     6
370
     9
100
AcDbCircle
 10
-26.11953035765612
 20
314.0950684818306
 30
0.0
 40
1.499999982049566
100
AcDbArc
 50
153.7264099121094
 51
238.6245269775391
  0
ARC
  5
1BB
330
1F
100
AcDbEntity
  8
3-2
  6
Continuous
 62
     6
370
     9
100
AcDbCircle
 10
-36.44634528162373
 20
318.3725934815006
 30
0.0
 40
1.499999982049566
100
AcDbArc
 50
256.3751373291015
 51
341.2733306884766
  0
ARC
  5
1BC
330
1F
100
AcDbEntity
  8
3-2
  6
Continuous
 62
     6
370
     9
100
AcDbCircle
 10
-44.97941838288838
 20
283.1676587243122
 30
0.0
 40
34.72430384573329
100
AcDbArc
 50
76.375244140625
 51
81.12471008300781
  0
ARC
  5
1BD
330
1F
100
AcDbEntity
  8
3-2
  6
Continuous
 62
     6
370
     9
100
AcDbCircle
 10
-39.39056722006259
 20
318.9582358211408
 30
0.0
 40
1.499999982049566
100
AcDbArc
 50
176.2264099121094
 51
261.1245269775391
  0
ARC
  5
1BE
330
1F
100
AcDbEntity
  8
3-2
  6
Continuous
 62
     6
370
     9
100
AcDbCircle
 10
-50.5682345506535
 20
318.9582533186712
 30
0.0
 40
1.499999982049566
100
AcDbArc
 50
278.8751373291016
 51
3.773330688476562
  0
ARC
  5
1BF
330
1F
100
AcDbEntity
  8
3-2
  6
Continuous
 62
     6
370
     9
100
AcDbCircle
 10
-44.97941838288838
 20
283.1676587243122
 30
0.0
 40
34.72430384573329
100
AcDbArc
 50
98.87524414062503
 51
103.6247100830078
  0
ARC
  5
1C0
330
1F
100
AcDbEntity
  8
3-2
  6
Continuous
 62
     6
370
     9
100
AcDbCircle
 10
-53.51245648909235
 20
318.3725934815006
 30
0.0
 40
1.499999982049566
100
AcDbArc
 50
198.7264099121094
 51
283.6245269775391
  0
ARC
  5
1C1
330
1F
100
AcDbEntity
  8
3-2
  6
Continuous
 62
     6
370
     9
100
AcDbCircle
 10
-63.83927141306
 20
314.0951034768913
 30
0.0
 40
1.499999982049566
100
AcDbArc
 50
301.3751373291016
 51
26.27333068847662
  0
ARC
  5
1C2
330
1F
100
AcDbEntity
  8
3-2
  6
Continuous
 62
     6
370
     9
100
AcDbCircle
 10
-44.97941838288838
 20
283.1676587243122
 30
0.0
 40
34.72430384573329
100
AcDbArc
 50
121.375244140625
 51
126.1247100830078
  0
ARC
  5
1C3
330
1F
100
AcDbEntity
  8
3-2
  6
Continuous
 62
     6
370
     9
100
AcDbCircle
 10
-66.33525911742174
 20
312.4273438724556
 30
0.0
 40
1.499999982049566
100
AcDbArc
 50
221.2264099121094
 51
306.1245269775391
  0
ARC
  5
1C4
330
1F
100
AcDbEntity
  8
3-2
  6
Continuous
 62
     6
370
     9
100
AcDbCircle
 10
-74.23906853597114
 20
304.5235344539062
 30
0.0
 40
1.499999982049566
100
AcDbArc
 50
323.8751373291016
 51
48.77333068847658
  0
ARC
  5
1C5
330
1F
100
AcDbEntity
  8
3-2
  6
Continuous
 62
     6
370
     9
100
AcDbCircle
 10
-44.97941838288838
 20
283.1676587243122
 30
0.0
 40
34.72430384573329
100
AcDbArc
 50
143.875244140625
 51
148.6247100830078
  0
ARC
  5
1C6
330
1F
100
AcDbEntity
  8
3-2
  6
Continuous
 62
     6
370
     9
100
AcDbCircle
 10
-75.90682814040676
 20
302.0275467495444
 30
0.0
 40
1.499999982049566
100
AcDbArc
 50
243.7264099121094
 51
328.6245269775391
  0
ARC
  5
1C7
330
1F
100
AcDbEntity
  8
3-2
  6
Continuous
 62
     6
370
     9
100
AcDbCircle
 10
-80.1843443913117
 20
291.7007143280465
 30
0.0
 40
1.499999982049566
100
AcDbArc
 50
346.3753967285157
 51
71.27351379394536
  0
ARC
  5
1C8
330
1F
100
AcDbEntity
  8
3-2
  6
Continuous
 62
     6
370
     9
100
AcDbCircle
 10
-80.60111806588262
 20
289.7475000140534
 30
0.0
 40
1.499999982049566
100
AcDbArc
 50
266.2263793945313
 51
349.5348815917969
  0
ARC
  5
1C9
330
1F
100
AcDbEntity
  8
3-2
  6
Continuous
 62
     6
370
     9
100
AcDbCircle
 10
-44.97941838288838
 20
283.1676587243122
 30
0.0
 40
34.72430384573329
100
AcDbArc
 50
166.3752899169922
 51
169.5345916748047
  0
ARC
  5
1CA
330
1F
100
AcDbEntity
  8
3-2
  6
Continuous
 62
     6
370
     9
100
AcDbCircle
 10
-9.77449237446507
 20
291.7007143280465
 30
0.0
 40
1.499999982049566
100
AcDbArc
 50
108.7264862060547
 51
193.6246032714844
  0
ARC
  5
1CB
330
1F
100
AcDbEntity
  8
3-2
  6
Continuous
 62
     6
370
     9
100
AcDbCircle
 10
-9.35771869989412
 20
289.7475000140534
 30
0.0
 40
1.499999982049566
100
AcDbArc
 50
190.4651184082031
 51
273.7736206054688
  0
ARC
  5
1CC
330
1F
100
AcDbEntity
  8
3-2
  6
Continuous
 62
     6
370
     9
100
AcDbCircle
 10
-44.97941838288838
 20
283.1676587243122
 30
0.0
 40
34.72430384573329
100
AcDbArc
 50
10.46540832519535
 51
13.62471008300785
  0
ARC
  5
1CD
330
1F
100
AcDbEntity
  8
3-2
  6
Continuous
 62
     6
370
     9
100
AcDbCircle
 10
-44.97941838288838
 20
283.1676587243122
 30
0.0
 40
57.23203762157543
100
AcDbArc
 50
169.9372100830078
 51
180.0
  0
ARC
  5
1CE
330
1F
100
AcDbEntity
  8
3-2
  6
Continuous
 62
     6
370
     9
100
AcDbCircle
 10
-44.97941838288838
 20
283.1676587243122
 30
0.0
 40
57.23203762157543
100
AcDbArc
 50
0.0
 51
10.06278991699219
  0
ARC
  5
1CF
330
1F
100
AcDbEntity
  8
3-0
  6
Continuous
 62
     3
370
     9
100
AcDbCircle
 10
-44.97938338782773
 20
283.1676587243122
 30
0.0
 40
56.99998974892162
100
AcDbArc
 50
180.0
 51
0.0
  0
ARC
  5
1D0
330
1F
100
AcDbEntity
  8
3-0
  6
Continuous
 62
     3
370
     9
100
AcDbCircle
 10
-44.97938338782773
 20
283.1676412267819
 30
0.0
 40
74.99996164682747
100
AcDbArc
 50
356.8589782714844
 51
0.000015258789122
  0
ARC
  5
1D1
330
1F
100
AcDbEntity
  8
3-0
  6
Continuous
 62
     3
370
     9
100
AcDbCircle
 10
-44.97938338782773
 20
283.1676412267819
 30
0.0
 40
73.99996904056505
100
AcDbArc
 50
357.6120300292969
 51
0.0000152587890477
  0
ARC
  5
1D2
330
1F
100
AcDbEntity
  8
3-0
  6
Continuous
 62
     3
370
     9
100
AcDbCircle
 10
-44.97940088535804
 20
283.1676587243122
 30
0.0
 40
73.99996029179988
100
AcDbArc
 50
237.6120300292968
 51
242.3880004882812
  0
ARC
  5
1D3
330
1F
100
AcDbEntity
  8
3-0
  6
Continuous
 62
     3
370
     9
100
AcDbCircle
 10
-44.97940088535804
 20
283.1676587243122
 30
0.0
 40
74.99996164682747
100
AcDbArc
 50
236.8589782714845
 51
243.1410522460938
  0
CIRCLE
  5
1D4
330
1F
100
AcDbEntity
  8
3-0
  6
Continuous
 62
     3
370
     9
100
AcDbCircle
 10
-44.97941838288837
 20
191.1676915395458
 30
0.0
 40
2.500000106782066
  0
ARC
  5
1D5
330
1F
100
AcDbEntity
  8
3-8
  6
Continuous
 62
     6
370
     9
100
AcDbCircle
 10
47.02058379693864
 20
283.1676587243122
 30
0.0
 40
4.099986034930903
100
AcDbArc
 50
0.0
 51
120.5804138183594
  0
ARC
  5
1D6
330
1F
100
AcDbEntity
  8
3-0
  6
Continuous
 62
     3
370
     9
100
AcDbCircle
 10
47.02058379693864
 20
283.1676587243122
 30
0.0
 40
4.500000082848155
100
AcDbArc
 50
0.0
 51
117.9470062255859
  0
ARC
  5
1D7
330
1F
100
AcDbEntity
  8
3-0
  6
Continuous
 62
     3
370
     9
100
AcDbCircle
 10
47.02058379693864
 20
283.1676587243122
 30
0.0
 40
2.500000106782066
100
AcDbArc
 50
180.0
 51
0.0
  0
ARC
  5
1D8
330
1F
100
AcDbEntity
  8
3-0
  6
Continuous
 62
     3
370
     9
100
AcDbCircle
 10
-44.97941838288838
 20
375.1676259090786
 30
0.0
 40
4.500000082848155
100
AcDbArc
 50
332.0529937744141
 51
207.9467926025391
  0
ARC
  5
1D9
330
1F
100
AcDbEntity
  8
3-8
  6
Continuous
 62
     6
370
     9
100
AcDbCircle
 10
-44.97941838288838
 20
375.1676259090786
 30
0.0
 40
4.099986034930903
100
AcDbArc
 50
329.4195861816406
 51
210.5802917480468
  0
ARC
  5
1DA
330
1F
100
AcDbEntity
  8
3-8
  6
Continuous
 62
     6
370
     9
100
AcDbCircle
 10
-136.9794205627153
 20
283.1676587243122
 30
0.0
 40
4.099986034930903
100
AcDbArc
 50
59.41958618164062
 51
180.0
  0
ARC
  5
1DB
330
1F
100
AcDbEntity
  8
3-0
  6
Continuous
 62
     3
370
     9
100
AcDbCircle
 10
-136.9794205627153
 20
283.1676587243122
 30
0.0
 40
4.500000082848155
100
AcDbArc
 50
62.05299377441406
 51
180.0
  0
ARC
  5
1DC
330
1F
100
AcDbEntity
  8
3-0
  6
Continuous
 62
     3
370
     9
100
AcDbCircle
 10
-136.9794205627153
 20
283.1676587243122
 30
0.0
 40
2.500000106782066
100
AcDbArc
 50
180.0
 51
0.0
  0
LINE
  5
1DD
330
1F
100
AcDbEntity
  8
3-1
  6
Continuous
 62
     2
370
     9
100
AcDbLine
 10
-134.9793828575995
 20
-77.82639105220734
 30
0.0
 11
-134.4794084263812
 21
-75.82642333721279
 31
0.0
  0
LINE
  5
1DE
330
1F
100
AcDbEntity
  8
3-1
  6
Continuous
 62
     2
370
     9
100
AcDbLine
 10
-128.920425547803
 20
-75.82642333721279
 30
0.0
 11
-134.4794084263812
 21
-75.82642333721279
 31
0.0
  0
LINE
  5
1DF
330
1F
100
AcDbEntity
  8
3-1
  6
Continuous
 62
     2
370
     9
100
AcDbLine
 10
-115.4793651833265
 20
-71.82641791710236
 30
0.0
 11
-118.4793692484093
 21
-71.82641791710236
 31
0.0
  0
LINE
  5
1E0
330
1F
100
AcDbEntity
  8
3-1
  6
Continuous
 62
     2
370
     9
100
AcDbLine
 10
-118.9724321551532
 20
-75.04575352468261
 30
0.0
 11
-118.4793692484093
 21
-71.82641791710236
 31
0.0
  0
LINE
  5
1E1
330
1F
100
AcDbEntity
  8
3-1
  6
Continuous
 62
     2
370
     9
100
AcDbLine
 10
-115.4793651833265
 20
-71.82641791710236
 30
0.0
 11
-114.2112841663441
 21
-78.59229294915167
 31
0.0
  0
LINE
  5
1E2
330
1F
100
AcDbEntity
  8
3-1
  6
Continuous
 62
     2
370
     9
100
AcDbLine
 10
45.02061608194408
 20
-77.82639105220734
 30
0.0
 11
44.52053666554386
 21
-75.82642333721279
 31
0.0
  0
LINE
  5
1E3
330
1F
100
AcDbEntity
  8
3-1
  6
Continuous
 62
     2
370
     9
100
AcDbLine
 10
38.96164127461721
 20
-75.82642333721279
 30
0.0
 11
44.52053666554386
 21
-75.82642333721279
 31
0.0
  0
LINE
  5
1E4
330
1F
100
AcDbEntity
  8
3-1
  6
Continuous
 62
     2
370
     9
100
AcDbLine
 10
-93.97941478911949
 20
-83.32645974621522
 30
0.0
 11
-92.9794134340919
 21
-88.32644902382295
 31
0.0
  0
LINE
  5
1E5
330
1F
100
AcDbEntity
  8
3-1
  6
Continuous
 62
     2
370
     9
100
AcDbLine
 10
-81.97938103125796
 20
-83.32645974621522
 30
0.0
 11
-82.97939988381589
 21
-88.32644902382295
 31
0.0
  0
LINE
  5
1E6
330
1F
100
AcDbEntity
  8
3-1
  6
Continuous
 62
     2
370
     9
100
AcDbLine
 10
-122.714314008058
 20
-77.48938861834212
 30
0.0
 11
-128.920425547803
 21
-75.82642333721279
 31
0.0
  0
LINE
  5
1E7
330
1F
100
AcDbEntity
  8
3-1
  6
JWW_DASHED1
 62
     2
370
     9
100
AcDbLine
 10
-112.7631360648909
 20
-80.15573227784986
 30
0.0
 11
-122.714314008058
 21
-77.48938861834212
 31
0.0
  0
LINE
  5
1E8
330
1F
100
AcDbEntity
  8
3-1
  6
Continuous
 62
     2
370
     9
100
AcDbLine
 10
32.75554723240256
 20
-77.48931862822084
 30
0.0
 11
38.96164127461721
 21
-75.82642333721279
 31
0.0
  0
LINE
  5
1E9
330
1F
100
AcDbEntity
  8
3-1
  6
Continuous
 62
     2
370
     9
100
AcDbLine
 10
25.52059840767102
 20
-71.82641791710236
 30
0.0
 11
28.52058497522355
 21
-71.82641791710236
 31
0.0
  0
LINE
  5
1EA
330
1F
100
AcDbEntity
  8
3-1
  6
Continuous
 62
     2
370
     9
100
AcDbLine
 10
24.5205445600525
 20
-83.83700268574377
 30
0.0
 11
26.5205822651683
 21
-83.30108832725861
 31
0.0
  0
LINE
  5
1EB
330
1F
100
AcDbEntity
  8
3-1
  6
Continuous
 62
     2
370
     9
100
AcDbLine
 10
24.5205445600525
 20
-83.83700268574377
 30
0.0
 11
23.52056070255522
 21
-83.58731292815
 31
0.0
  0
LINE
  5
1EC
330
1F
100
AcDbEntity
  8
3-1
  6
Continuous
 62
     2
370
     9
100
AcDbLine
 10
5.833707109634727
 20
-88.32644902382295
 30
0.0
 11
23.52056070255522
 21
-83.58731292815
 31
0.0
  0
LINE
  5
1ED
330
1F
100
AcDbEntity
  8
3-1
  6
Continuous
 62
     2
370
     9
100
AcDbLine
 10
26.5205822651683
 20
-83.30108832725861
 30
0.0
 11
27.52070610290812
 21
-82.51544921611904
 31
0.0
  0
LINE
  5
1EE
330
1F
100
AcDbEntity
  8
3-1
  6
Continuous
 62
     2
370
     9
100
AcDbLine
 10
27.52070610290812
 20
-82.51544921611904
 30
0.0
 11
45.02061608194408
 21
-77.82639105220734
 31
0.0
  0
LINE
  5
1EF
330
1F
100
AcDbEntity
  8
3-1
  6
Continuous
 62
     2
370
     9
100
AcDbLine
 10
-114.4793463307686
 20
-83.83700268574377
 30
0.0
 11
-116.4793840358844
 21
-83.30108832725861
 31
0.0
  0
LINE
  5
1F0
330
1F
100
AcDbEntity
  8
3-1
  6
Continuous
 62
     2
370
     9
100
AcDbLine
 10
-116.4793840358844
 20
-83.30108832725861
 30
0.0
 11
-117.4794028884423
 21
-82.51551920624024
 31
0.0
  0
LINE
  5
1F1
330
1F
100
AcDbEntity
  8
3-1
  6
Continuous
 62
     2
370
     9
100
AcDbLine
 10
-117.4794028884423
 20
-82.51551920624024
 30
0.0
 11
-134.9793828575995
 21
-77.82639105220734
 31
0.0
  0
LINE
  5
1F2
330
1F
100
AcDbEntity
  8
3-1
  6
Continuous
 62
     2
370
     9
100
AcDbLine
 10
-114.4793463307686
 20
-83.83700268574377
 30
0.0
 11
-113.4793974683319
 21
-83.58731292815
 31
0.0
  0
LINE
  5
1F3
330
1F
100
AcDbEntity
  8
3-1
  6
Continuous
 62
     2
370
     9
100
AcDbLine
 10
-95.7925263778811
 20
-88.32644902382295
 30
0.0
 11
-113.4793974683319
 21
-83.58731292815
 31
0.0
  0
LINE
  5
1F4
330
1F
100
AcDbEntity
  8
3-1
  6
Continuous
 62
     2
370
     9
100
AcDbLine
 10
29.01366537949777
 20
-75.04575352468261
 30
0.0
 11
28.52058497522355
 21
-71.82641791710236
 31
0.0
  0
LINE
  5
1F5
330
1F
100
AcDbEntity
  8
3-1
  6
Continuous
 62
     2
370
     9
100
AcDbLine
 10
24.62542475676011
 20
-76.60275376222486
 30
0.0
 11
25.52059840767102
 21
-71.82641791710236
 31
0.0
  0
LINE
  5
1F6
330
1F
100
AcDbEntity
  8
3-1
  6
JWW_DASHED1
 62
     2
370
     9
100
AcDbLine
 10
24.62542475676011
 20
-76.60278875728547
 30
0.0
 11
24.25251739068866
 21
-78.59229294915167
 31
0.0
  0
LINE
  5
1F7
330
1F
100
AcDbEntity
  8
3-1
  6
Continuous
 62
     2
370
     9
100
AcDbLine
 10
10.74337413575685
 20
-82.19482447062855
 30
0.0
 11
11.30049550098365
 21
-79.06367641583549
 31
0.0
  0
LINE
  5
1F8
330
1F
100
AcDbEntity
  8
3-1
  6
Continuous
 62
     2
370
     9
100
AcDbLine
 10
9.291919001074145
 20
-83.77639124073292
 30
0.0
 11
5.372962141382427
 21
-84.82645302999147
 31
0.0
  0
LINE
  5
1F9
330
1F
100
AcDbEntity
  8
3-1
  6
JWW_DASHED1
 62
     2
370
     9
100
AcDbLine
 10
9.291919001074145
 20
-83.77639124073292
 30
0.0
 11
32.75554723240256
 21
-77.48931862822084
 31
0.0
  0
LINE
  5
1FA
330
1F
100
AcDbEntity
  8
3-1
  6
Continuous
 62
     2
370
     9
100
AcDbLine
 10
-75.73822193829224
 20
-84.53228455033714
 30
0.0
 11
-74.97938904359509
 21
-88.32644902382295
 31
0.0
  0
LINE
  5
1FB
330
1F
100
AcDbEntity
  8
3-1
  6
Continuous
 62
     2
370
     9
100
AcDbLine
 10
-2.686610292030341
 20
-85.55176065660527
 30
0.0
 11
-3.47942339059907
 21
-88.32644902382295
 31
0.0
  0
LINE
  5
1FC
330
1F
100
AcDbEntity
  8
3-1
  6
Continuous
 62
     2
370
     9
100
AcDbLine
 10
-75.17940331262486
 20
-84.82645302999147
 30
0.0
 11
5.372962141382427
 21
-84.82645302999147
 31
0.0
  0
LINE
  5
1FD
330
1F
100
AcDbEntity
  8
3-1
  6
Continuous
 62
     2
370
     9
100
AcDbLine
 10
-77.20908183409415
 20
-83.32645974621522
 30
0.0
 11
-100.9298537709306
 21
-83.32645974621522
 31
0.0
  0
LINE
  5
1FE
330
1F
100
AcDbEntity
  8
3-4
  6
JWW_CENTER1
 62
     7
370
     9
100
AcDbLine
 10
-44.97941838288837
 20
36.69298513550381
 30
0.0
 11
-44.97941838288835
 21
-151.3029302221669
 31
0.0
  0
LINE
  5
1FF
330
1F
100
AcDbEntity
  8
3-3
  6
Continuous
 62
     4
370
     9
100
AcDbLine
 10
21.52052299743937
 20
-72.82640177459962
 30
0.0
 11
15.52047987221314
 21
-72.82640177459962
 31
0.0
  0
LINE
  5
200
330
1F
100
AcDbEntity
  8
3-3
  6
Continuous
 62
     4
370
     9
100
AcDbLine
 10
16.39049207453129
 20
-72.82640177459962
 30
0.0
 11
15.33850555693808
 21
-70.95395606054015
 31
0.0
  0
LINE
  5
201
330
1F
100
AcDbEntity
  8
3-3
  6
Continuous
 62
     4
370
     9
100
AcDbLine
 10
15.52047987221314
 20
-72.82640177459962
 30
0.0
 11
15.96141763614897
 21
-72.06277455659622
 31
0.0
  0
LINE
  5
202
330
1F
100
AcDbEntity
  8
3-3
  6
Continuous
 62
     4
370
     9
100
AcDbLine
 10
20.65051079512127
 20
-72.82640177459962
 30
0.0
 11
21.70256730283571
 21
-70.95395606054015
 31
0.0
  0
LINE
  5
203
330
1F
100
AcDbEntity
  8
3-3
  6
Continuous
 62
     4
370
     9
100
AcDbLine
 10
21.52052299743937
 20
-72.82640177459962
 30
0.0
 11
21.07958523350359
 21
-72.06277455659622
 31
0.0
  0
LINE
  5
204
330
1F
100
AcDbEntity
  8
3-3
  6
Continuous
 62
     4
370
     9
100
AcDbLine
 10
16.39049207453129
 20
-82.82641532487567
 30
0.0
 11
15.52047987221314
 21
-81.95643811761819
 31
0.0
  0
LINE
  5
205
330
1F
100
AcDbEntity
  8
3-3
  6
Continuous
 62
     4
370
     9
100
AcDbLine
 10
20.65051079512127
 20
-82.82641532487567
 30
0.0
 11
21.52052299743937
 21
-81.95643811761819
 31
0.0
  0
LINE
  5
206
330
1F
100
AcDbEntity
  8
3-3
  6
Continuous
 62
     4
370
     9
100
AcDbLine
 10
20.65051079512127
 20
-72.82640177459962
 30
0.0
 11
20.65051079512127
 21
-82.82641532487567
 31
0.0
  0
LINE
  5
207
330
1F
100
AcDbEntity
  8
3-3
  6
Continuous
 62
     4
370
     9
100
AcDbLine
 10
16.39049207453129
 20
-72.82640177459962
 30
0.0
 11
16.39049207453129
 21
-82.82641532487567
 31
0.0
  0
LINE
  5
208
330
1F
100
AcDbEntity
  8
3-3
  6
Continuous
 62
     4
370
     9
100
AcDbLine
 10
20.65051079512127
 20
-82.82641532487567
 30
0.0
 11
16.39049207453129
 21
-82.82641532487567
 31
0.0
  0
LINE
  5
209
330
1F
100
AcDbEntity
  8
3-3
  6
Continuous
 62
     4
370
     9
100
AcDbLine
 10
21.52052299743937
 20
-81.95643811761819
 30
0.0
 11
15.52047987221314
 21
-81.95643811761819
 31
0.0
  0
LINE
  5
20A
330
1F
100
AcDbEntity
  8
3-3
  6
Continuous
 62
     4
370
     9
100
AcDbLine
 10
21.52052299743937
 20
-72.82640177459962
 30
0.0
 11
21.52052299743937
 21
-81.95643811761819
 31
0.0
  0
LINE
  5
20B
330
1F
100
AcDbEntity
  8
3-3
  6
Continuous
 62
     4
370
     9
100
AcDbLine
 10
15.52047987221314
 20
-72.82640177459962
 30
0.0
 11
15.52047987221314
 21
-81.95643811761819
 31
0.0
  0
LINE
  5
20C
330
1F
100
AcDbEntity
  8
3-3
  6
JWW_CENTER1
 62
     4
370
     9
100
AcDbLine
 10
18.52060642000813
 20
-64.78149227159078
 30
0.0
 11
18.52060642000813
 21
-85.11407743330801
 31
0.0
  0
LINE
  5
20D
330
1F
100
AcDbEntity
  8
3-3
  6
Continuous
 62
     4
370
     9
100
AcDbLine
 10
23.77056541569467
 20
-70.82643405960506
 30
0.0
 11
23.60405891721799
 21
-68.92326268231261
 31
0.0
  0
LINE
  5
20E
330
1F
100
AcDbEntity
  8
3-3
  6
Continuous
 62
     4
370
     9
100
AcDbLine
 10
13.27057743420036
 20
-70.82643405960506
 30
0.0
 11
13.43708393267709
 21
-68.92326268231261
 31
0.0
  0
LINE
  5
20F
330
1F
100
AcDbEntity
  8
3-3
  6
Continuous
 62
     4
370
     9
100
AcDbLine
 10
13.27057743420036
 20
-70.82643405960506
 30
0.0
 11
23.77056541569467
 21
-70.82643405960506
 31
0.0
  0
LINE
  5
210
330
1F
100
AcDbEntity
  8
3-1
  6
Continuous
 62
     2
370
     9
100
AcDbLine
 10
23.15115284254679
 20
-77.82639105220734
 30
0.0
 11
20.65051079512127
 21
-77.82639105220734
 31
0.0
  0
LINE
  5
211
330
1F
100
AcDbEntity
  8
3-1
  6
Continuous
 62
     2
370
     9
100
AcDbLine
 10
16.39049207453129
 20
-77.82639105220734
 30
0.0
 11
12.77728705956232
 21
-77.82639105220734
 31
0.0
  0
LINE
  5
212
330
1F
100
AcDbEntity
  8
3-1
  6
Continuous
 62
     2
370
     9
100
AcDbLine
 10
21.52052299743937
 20
-81.95643811761819
 30
0.0
 11
21.52052299743937
 21
-84.12319229157448
 31
0.0
  0
LINE
  5
213
330
1F
100
AcDbEntity
  8
3-1
  6
Continuous
 62
     2
370
     9
100
AcDbLine
 10
20.65051079512127
 20
-82.82641532487567
 30
0.0
 11
20.65051079512127
 21
-84.3563293854904
 31
0.0
  0
LINE
  5
214
330
1F
100
AcDbEntity
  8
3-1
  6
Continuous
 62
     2
370
     9
100
AcDbLine
 10
16.39049207453129
 20
-82.82641532487567
 30
0.0
 11
16.39049207453129
 21
-85.49779827311406
 31
0.0
  0
LINE
  5
215
330
1F
100
AcDbEntity
  8
3-1
  6
Continuous
 62
     2
370
     9
100
AcDbLine
 10
15.52047987221314
 20
-81.95643811761819
 30
0.0
 11
15.52047987221314
 21
-85.73090037196933
 31
0.0
  0
LINE
  5
216
330
1F
100
AcDbEntity
  8
3-3
  6
Continuous
 62
     4
370
     9
100
AcDbLine
 10
-83.90293703136732
 20
-94.50640175574705
 30
0.0
 11
-92.05587628654047
 21
-94.50640175574705
 31
0.0
  0
LINE
  5
217
330
1F
100
AcDbEntity
  8
3-3
  6
Continuous
 62
     4
370
     9
100
AcDbLine
 10
-92.05587628654047
 20
-94.50640175574705
 30
0.0
 11
-91.3794042670356
 21
-95.18282128266102
 31
0.0
  0
LINE
  5
218
330
1F
100
AcDbEntity
  8
3-3
  6
Continuous
 62
     4
370
     9
100
AcDbLine
 10
-91.3794042670356
 20
-95.18282128266102
 30
0.0
 11
-84.5794265484025
 21
-95.18282128266102
 31
0.0
  0
LINE
  5
219
330
1F
100
AcDbEntity
  8
3-3
  6
Continuous
 62
     4
370
     9
100
AcDbLine
 10
-84.5794265484025
 20
-95.18282128266102
 30
0.0
 11
-83.90293703136732
 21
-94.50640175574705
 31
0.0
  0
LINE
  5
21A
330
1F
100
AcDbEntity
  8
3-3
  6
Continuous
 62
     4
370
     9
100
AcDbLine
 10
-95.47940807289572
 20
-77.54818032020017
 30
0.0
 11
-95.47940807289572
 21
-83.32645974621522
 31
0.0
  0
LINE
  5
21B
330
1F
100
AcDbEntity
  8
3-3
  6
Continuous
 62
     4
370
     9
100
AcDbLine
 10
-80.47937024995142
 20
-77.54818032020017
 30
0.0
 11
-80.47937024995142
 21
-83.32645974621522
 31
0.0
  0
LINE
  5
21C
330
1F
100
AcDbEntity
  8
3-3
  6
Continuous
 62
     4
370
     9
100
AcDbLine
 10
-95.47940807289572
 20
-83.32645974621522
 30
0.0
 11
-80.47937024995142
 21
-83.32645974621522
 31
0.0
  0
LINE
  5
21D
330
1F
100
AcDbEntity
  8
3-3
  6
Continuous
 62
     4
370
     9
100
AcDbLine
 10
-93.60297292192445
 20
-76.82644218977069
 30
0.0
 11
-82.35580540092269
 21
-76.82644218977069
 31
0.0
  0
LINE
  5
21E
330
1F
100
AcDbEntity
  8
3-3
  6
Continuous
 62
     4
370
     9
100
AcDbLine
 10
-92.05587628654047
 20
-83.32645974621522
 30
0.0
 11
-92.05587628654047
 21
-94.50640175574705
 31
0.0
  0
LINE
  5
21F
330
1F
100
AcDbEntity
  8
3-3
  6
Continuous
 62
     4
370
     9
100
AcDbLine
 10
-83.90293703136732
 20
-83.32645974621522
 30
0.0
 11
-83.90293703136732
 21
-94.50640175574705
 31
0.0
  0
LINE
  5
220
330
1F
100
AcDbEntity
  8
3-3
  6
Continuous
 62
     4
370
     9
100
AcDbLine
 10
-83.97940123884348
 20
-55.85936158377406
 30
0.0
 11
-91.97937708400366
 21
-55.85936158377406
 31
0.0
  0
LINE
  5
221
330
1F
100
AcDbEntity
  8
3-3
  6
Continuous
 62
     4
370
     9
100
AcDbLine
 10
-91.97937708400366
 20
-55.85936158377406
 30
0.0
 11
-91.30290506449879
 21
-55.18283707167827
 31
0.0
  0
LINE
  5
222
330
1F
100
AcDbEntity
  8
3-3
  6
Continuous
 62
     4
370
     9
100
AcDbLine
 10
-91.30290506449879
 20
-55.18283707167827
 30
0.0
 11
-84.65585576081803
 21
-55.18283707167827
 31
0.0
  0
LINE
  5
223
330
1F
100
AcDbEntity
  8
3-3
  6
Continuous
 62
     4
370
     9
100
AcDbLine
 10
-84.65585576081803
 20
-55.18283707167827
 30
0.0
 11
-83.97940123884348
 21
-55.85936158377406
 31
0.0
  0
LINE
  5
224
330
1F
100
AcDbEntity
  8
3-3
  6
Continuous
 62
     4
370
     9
100
AcDbLine
 10
-91.30290506449879
 20
-76.82637219964944
 30
0.0
 11
-91.30290506449879
 21
-55.18283707167827
 31
0.0
  0
LINE
  5
225
330
1F
100
AcDbEntity
  8
3-3
  6
Continuous
 62
     4
370
     9
100
AcDbLine
 10
-91.97937708400366
 20
-76.82637219964944
 30
0.0
 11
-91.97937708400366
 21
-55.85936158377406
 31
0.0
  0
LINE
  5
226
330
1F
100
AcDbEntity
  8
3-3
  6
Continuous
 62
     4
370
     9
100
AcDbLine
 10
-84.65585576081801
 20
-76.82637219964944
 30
0.0
 11
-84.65585576081803
 21
-55.18283707167827
 31
0.0
  0
LINE
  5
227
330
1F
100
AcDbEntity
  8
3-3
  6
Continuous
 62
     4
370
     9
100
AcDbLine
 10
-83.97940123884348
 20
-76.82637219964944
 30
0.0
 11
-83.97940123884348
 21
-55.85936158377406
 31
0.0
  0
LINE
  5
228
330
1F
100
AcDbEntity
  8
3-3
  6
JWW_CENTER1
 62
     4
370
     9
100
AcDbLine
 10
-87.97938916142357
 20
-52.18281550906512
 30
0.0
 11
-87.97938916142357
 21
-99.1879009865627
 31
0.0
  0
LINE
  5
229
330
1F
100
AcDbEntity
  8
3-3
  6
Continuous
 62
     4
370
     9
100
AcDbLine
 10
-84.23220555683335
 20
-77.54814532513957
 30
0.0
 11
-84.23220555683335
 21
-83.32645974621522
 31
0.0
  0
LINE
  5
22A
330
1F
100
AcDbEntity
  8
3-3
  6
Continuous
 62
     4
370
     9
100
AcDbLine
 10
-91.7265902635441
 20
-77.54818032020017
 30
0.0
 11
-91.7265902635441
 21
-83.32645974621522
 31
0.0
  0
LINE
  5
22B
330
1F
100
AcDbEntity
  8
3-3
  6
Continuous
 62
     4
370
     9
100
AcDbLine
 10
-91.3794042670356
 20
-83.32645974621522
 30
0.0
 11
-91.3794042670356
 21
-96.03922040639408
 31
0.0
  0
LINE
  5
22C
330
1F
100
AcDbEntity
  8
3-3
  6
Continuous
 62
     4
370
     9
100
AcDbLine
 10
-84.5794265484025
 20
-83.32645974621522
 30
0.0
 11
-84.5794265484025
 21
-96.03922040639408
 31
0.0
  0
LINE
  5
22D
330
1F
100
AcDbEntity
  8
3-1
  6
Continuous
 62
     2
370
     9
100
AcDbLine
 10
5.833707109634727
 20
-88.32644902382295
 30
0.0
 11
-83.90293703136732
 21
-88.32644902382295
 31
0.0
  0
LINE
  5
22E
330
1F
100
AcDbEntity
  8
3-1
  6
Continuous
 62
     2
370
     9
100
AcDbLine
 10
-92.05587628654047
 20
-88.32644902382295
 30
0.0
 11
-95.7925263778811
 21
-88.32644902382295
 31
0.0
  0
LINE
  5
22F
330
1F
100
AcDbEntity
  8
3-1
  6
JWW_CENTER1
 62
     2
370
     9
100
AcDbLine
 10
-113.1099721107932
 20
-77.82639105220734
 30
0.0
 11
-110.6093650584283
 21
-77.82639105220734
 31
0.0
  0
LINE
  5
230
330
1F
100
AcDbEntity
  8
3-1
  6
Continuous
 62
     2
370
     9
100
AcDbLine
 10
-112.7631185673606
 20
-80.15566228772855
 30
0.0
 11
-100.9298537709306
 21
-83.32645974621522
 31
0.0
  0
LINE
  5
231
330
1F
100
AcDbEntity
  8
3-1
  6
Continuous
 62
     2
370
     9
100
AcDbLine
 10
-107.4584972869703
 20
-77.82639105220734
 30
0.0
 11
-107.8109325425733
 21
-77.82639105220734
 31
0.0
  0
LINE
  5
232
330
1F
100
AcDbEntity
  8
3-1
  6
JWW_CENTER1
 62
     2
370
     9
100
AcDbLine
 10
-106.0853610979772
 20
-78.72268454505846
 30
0.0
 11
-104.8656607523155
 21
-81.496812991306
 31
0.0
  0
LINE
  5
233
330
1F
100
AcDbEntity
  8
3-0
  6
Continuous
 62
     3
370
     9
100
AcDbLine
 10
-84.5794265484025
 20
-96.03922040639408
 30
0.0
 11
-91.3794042670356
 21
-96.03922040639408
 31
0.0
  0
LINE
  5
234
330
1F
100
AcDbEntity
  8
3-0
  6
Continuous
 62
     3
370
     9
100
AcDbLine
 10
-91.3794042670356
 20
-96.03922040639408
 30
0.0
 11
-87.97938916142357
 21
-98.00223333736359
 31
0.0
  0
LINE
  5
235
330
1F
100
AcDbEntity
  8
3-0
  6
Continuous
 62
     3
370
     9
100
AcDbLine
 10
-87.97938916142357
 20
-98.00223333736359
 30
0.0
 11
-84.57940905087216
 21
-96.03929039651536
 31
0.0
  0
LINE
  5
236
330
1F
100
AcDbEntity
  8
3-0
  6
Continuous
 62
     3
370
     9
100
AcDbLine
 10
-2.097345963614977
 20
-101.6698556716119
 30
0.0
 11
-79.31760422716243
 21
-101.6698556716119
 31
0.0
  0
LINE
  5
237
330
1F
100
AcDbEntity
  8
3-0
  6
Continuous
 62
     3
370
     9
100
AcDbLine
 10
-8.052910366780715
 20
-102.6698045340485
 30
0.0
 11
-78.78786649687845
 21
-102.6698045340485
 31
0.0
  0
LINE
  5
238
330
1F
100
AcDbEntity
  8
3-0
  6
Continuous
 62
     3
370
     9
100
AcDbLine
 10
12.45022322291598
 20
-86.5405810897616
 30
0.0
 11
14.11885770386734
 21
-86.0935191902156
 31
0.0
  0
LINE
  5
239
330
1F
100
AcDbEntity
  8
3-0
  6
Continuous
 62
     3
370
     9
100
AcDbLine
 10
-128.2259835646647
 20
-79.62300246988198
 30
0.0
 11
-125.3282525642725
 21
-80.39943788007594
 31
0.0
  0
LINE
  5
23A
330
1F
100
AcDbEntity
  8
3-0
  6
Continuous
 62
     3
370
     9
100
AcDbLine
 10
-144.9794314029361
 20
-86.16984341744921
 30
0.0
 11
-143.9794300479086
 21
-87.66983670122546
 31
0.0
  0
LINE
  5
23B
330
1F
100
AcDbEntity
  8
3-0
  6
Continuous
 62
     3
370
     9
100
AcDbLine
 10
-144.0656403797701
 20
-76.57496768408475
 30
0.0
 11
-144.9794314029361
 21
-86.16984341744921
 31
0.0
  0
LINE
  5
23C
330
1F
100
AcDbEntity
  8
3-0
  6
Continuous
 62
     3
370
     9
100
AcDbLine
 10
-109.8732089630192
 20
-84.54061337476705
 30
0.0
 11
-106.9756004453393
 21
-85.31708378002165
 31
0.0
  0
LINE
  5
23D
330
1F
100
AcDbEntity
  8
3-0
  6
Continuous
 62
     3
370
     9
100
AcDbLine
 10
-109.8732089630192
 20
-84.54061337476705
 30
0.0
 11
-111.5809679217548
 21
-85.11838182576551
 31
0.0
  0
LINE
  5
23E
330
1F
100
AcDbEntity
  8
3-0
  6
Continuous
 62
     3
370
     9
100
AcDbLine
 10
38.26705931123645
 20
-79.62300246988198
 30
0.0
 11
35.36932831084428
 21
-80.39943788007594
 31
0.0
  0
LINE
  5
23F
330
1F
100
AcDbEntity
  8
3-0
  6
Continuous
 62
     3
370
     9
100
AcDbLine
 10
55.02052464703821
 20
-86.16984341744921
 30
0.0
 11
54.02050579448024
 21
-87.66983670122546
 31
0.0
  0
LINE
  5
240
330
1F
100
AcDbEntity
  8
3-0
  6
Continuous
 62
     3
370
     9
100
AcDbLine
 10
53.02048694192234
 20
-75.66978544583368
 30
0.0
 11
41.16493029187112
 21
-78.84649706956674
 31
0.0
  0
LINE
  5
241
330
1F
100
AcDbEntity
  8
3-0
  6
Continuous
 62
     3
370
     9
100
AcDbLine
 10
54.10673362387218
 20
-76.57496768408475
 30
0.0
 11
55.02052464703821
 21
-86.16984341744921
 31
0.0
  0
LINE
  5
242
330
1F
100
AcDbEntity
  8
3-0
  6
Continuous
 62
     3
370
     9
100
AcDbLine
 10
32.47145733020962
 20
-81.17594328039118
 30
0.0
 11
29.57365633969627
 21
-81.95244868070638
 31
0.0
  0
LINE
  5
243
330
1F
100
AcDbEntity
  8
3-0
  6
JWW_DASHED1
 62
     3
370
     9
100
AcDbLine
 10
21.20070313834341
 20
-89.19849093965752
 30
0.0
 11
20.06647822827008
 21
-88.81480509491212
 31
0.0
  0
LINE
  5
244
330
1F
100
AcDbEntity
  8
3-0
  6
Continuous
 62
     3
370
     9
100
AcDbLine
 10
19.91424971453036
 20
-84.54061337476705
 30
0.0
 11
17.01665869438076
 21
-85.31708378002165
 31
0.0
  0
LINE
  5
245
330
1F
100
AcDbEntity
  8
3-0
  6
Continuous
 62
     3
370
     9
100
AcDbLine
 10
19.91424971453036
 20
-84.54061337476705
 30
0.0
 11
21.62204366832654
 21
-85.11838182576551
 31
0.0
  0
LINE
  5
246
330
1F
100
AcDbEntity
  8
3-0
  6
Continuous
 62
     3
370
     9
100
AcDbLine
 10
21.62204366832654
 20
-85.11838182576551
 30
0.0
 11
28.38357931285779
 21
-83.3066175468381
 31
0.0
  0
LINE
  5
247
330
1F
100
AcDbEntity
  8
3-0
  6
Continuous
 62
     3
370
     9
100
AcDbLine
 10
-125.8183058958023
 20
-84.89840287464638
 30
0.0
 11
-125.1944314524241
 21
-86.95954195562192
 31
0.0
  0
LINE
  5
248
330
1F
100
AcDbEntity
  8
3-0
  6
Continuous
 62
     3
370
     9
100
AcDbLine
 10
50.88396850035022
 20
-87.66983670122546
 30
0.0
 11
54.02050579448024
 21
-87.66983670122546
 31
0.0
  0
LINE
  5
249
330
1F
100
AcDbEntity
  8
3-0
  6
Continuous
 62
     3
370
     9
100
AcDbLine
 10
29.57365633969627
 20
-81.95244868070638
 30
0.0
 11
28.38357931285779
 21
-83.3066175468381
 31
0.0
  0
LINE
  5
24A
330
1F
100
AcDbEntity
  8
3-0
  6
Continuous
 62
     3
370
     9
100
AcDbLine
 10
19.9143197046516
 20
-84.54082334513085
 30
0.0
 11
21.62207866338715
 21
-85.11845181588671
 31
0.0
  0
LINE
  5
24B
330
1F
100
AcDbEntity
  8
3-0
  6
Continuous
 62
     3
370
     9
100
AcDbLine
 10
-111.5809679217548
 20
-85.11838182576551
 30
0.0
 11
-118.3424860687557
 21
-83.3066175468381
 31
0.0
  0
LINE
  5
24C
330
1F
100
AcDbEntity
  8
3-0
  6
Continuous
 62
     3
370
     9
100
AcDbLine
 10
-122.4303990811682
 20
-81.17594328039118
 30
0.0
 11
-119.5325805931245
 21
-81.95244868070638
 31
0.0
  0
LINE
  5
24D
330
1F
100
AcDbEntity
  8
3-0
  6
Continuous
 62
     3
370
     9
100
AcDbLine
 10
-118.3424685712254
 20
-83.3066175468381
 30
0.0
 11
-119.5325805931245
 21
-81.95244868070638
 31
0.0
  0
LINE
  5
24E
330
1F
100
AcDbEntity
  8
3-0
  6
Continuous
 62
     3
370
     9
100
AcDbLine
 10
-142.979428692881
 20
-75.66978544583368
 30
0.0
 11
-131.1238545452994
 21
-78.84649706956674
 31
0.0
  0
LINE
  5
24F
330
1F
100
AcDbEntity
  8
3-0
  6
Continuous
 62
     3
370
     9
100
AcDbLine
 10
-130.8017775047927
 20
-86.89263139969768
 30
0.0
 11
-130.441853306215
 21
-85.31778368123426
 31
0.0
  0
LINE
  5
250
330
1F
100
AcDbEntity
  8
3-0
  6
Continuous
 62
     3
370
     9
100
AcDbLine
 10
-127.9744915614484
 20
-83.83147346616428
 30
0.0
 11
-126.5166148331402
 21
-84.22222831315692
 31
0.0
  0
LINE
  5
251
330
1F
100
AcDbEntity
  8
3-0
  6
Continuous
 62
     3
370
     9
100
AcDbLine
 10
35.8593991399044
 20
-84.89840287464638
 30
0.0
 11
35.23550719899585
 21
-86.95954195562192
 31
0.0
  0
LINE
  5
252
330
1F
100
AcDbEntity
  8
3-0
  6
Continuous
 62
     3
370
     9
100
AcDbLine
 10
34.27839229077009
 20
-87.66983670122546
 30
0.0
 11
30.96645975276337
 21
-87.66983670122546
 31
0.0
  0
LINE
  5
253
330
1F
100
AcDbEntity
  8
3-0
  6
Continuous
 62
     3
370
     9
100
AcDbLine
 10
49.83873602945854
 20
-86.43643578932728
 30
0.0
 11
49.89458814622375
 21
-86.81557227619078
 31
0.0
  0
LINE
  5
254
330
1F
100
AcDbEntity
  8
3-0
  6
Continuous
 62
     3
370
     9
100
AcDbLine
 10
43.59806686734165
 20
-82.33564459460297
 30
0.0
 11
36.55762058959069
 21
-84.2220883329144
 31
0.0
  0
LINE
  5
255
330
1F
100
AcDbEntity
  8
3-0
  6
JWW_DASHED1
 62
     3
370
     9
100
AcDbLine
 10
-139.7976777804171
 20
-86.43643578932728
 30
0.0
 11
-139.8535473947126
 21
-86.81557227619078
 31
0.0
  0
LINE
  5
256
330
1F
100
AcDbEntity
  8
3-0
  6
JWW_DASHED1
 62
     3
370
     9
100
AcDbLine
 10
-133.5570261158305
 20
-82.33564459460297
 30
0.0
 11
-127.8339688954894
 21
-83.86909315634134
 31
0.0
  0
LINE
  5
257
330
1F
100
AcDbEntity
  8
3-0
  6
Continuous
 62
     3
370
     9
100
AcDbLine
 10
-119.9269574288923
 20
-88.6143533876245
 30
0.0
 11
-119.084381354108
 21
-103.780757728803
 31
0.0
  0
LINE
  5
258
330
1F
100
AcDbEntity
  8
3-0
  6
Continuous
 62
     3
370
     9
100
AcDbLine
 10
-124.2372990466681
 20
-87.66983670122546
 30
0.0
 11
-117.5135930626776
 21
-87.66983670122546
 31
0.0
  0
LINE
  5
259
330
1F
100
AcDbEntity
  8
3-0
  6
Continuous
 62
     3
370
     9
100
AcDbLine
 10
-117.5135930626776
 20
-87.66983670122546
 30
0.0
 11
-111.7388306402559
 21
-89.21714330697326
 31
0.0
  0
LINE
  5
25A
330
1F
100
AcDbEntity
  8
3-0
  6
Continuous
 62
     3
370
     9
100
AcDbLine
 10
-111.159592396711
 20
-89.19849093965752
 30
0.0
 11
-110.0253849841681
 21
-88.81480509491212
 31
0.0
  0
LINE
  5
25B
330
1F
100
AcDbEntity
  8
3-0
  6
Continuous
 62
     3
370
     9
100
AcDbLine
 10
-92.76053682738265
 20
-135.6697617623078
 30
0.0
 11
2.801595076424086
 21
-135.6697617623078
 31
0.0
  0
LINE
  5
25C
330
1F
100
AcDbEntity
  8
3-0
  6
Continuous
 62
     3
370
     9
100
AcDbLine
 10
-97.35183628942491
 20
-116.5216194226677
 30
0.0
 11
-94.73847515171073
 21
-133.966097225666
 31
0.0
  0
LINE
  5
25D
330
1F
100
AcDbEntity
  8
3-0
  6
Continuous
 62
     3
370
     9
100
AcDbLine
 10
-108.3952625674398
 20
-89.07772298542406
 30
0.0
 11
-109.4461292430929
 21
-88.79615272759645
 31
0.0
  0
LINE
  5
25E
330
1F
100
AcDbEntity
  8
3-0
  6
Continuous
 62
     3
370
     9
100
AcDbLine
 10
-101.094732999088
 20
-115.669804651877
 30
0.0
 11
-98.34079670282378
 21
-115.669804651877
 31
0.0
  0
LINE
  5
25F
330
1F
100
AcDbEntity
  8
3-0
  6
Continuous
 62
     3
370
     9
100
AcDbLine
 10
-104.7266078789029
 20
-93.29795232207792
 30
0.0
 11
-102.0872804062014
 21
-114.7916735954928
 31
0.0
  0
LINE
  5
260
330
1F
100
AcDbEntity
  8
3-0
  6
Continuous
 62
     3
370
     9
100
AcDbLine
 10
7.392877040935979
 20
-116.5216194226677
 30
0.0
 11
4.779515903221828
 21
-133.966097225666
 31
0.0
  0
LINE
  5
261
330
1F
100
AcDbEntity
  8
3-0
  6
JWW_DASHED1
 62
     3
370
     9
100
AcDbLine
 10
18.43633831401151
 20
-89.07772298542406
 30
0.0
 11
19.48716999460398
 21
-88.79615272759645
 31
0.0
  0
LINE
  5
262
330
1F
100
AcDbEntity
  8
3-0
  6
Continuous
 62
     3
370
     9
100
AcDbLine
 10
8.381837454334882
 20
-115.669804651877
 30
0.0
 11
11.13580874565971
 21
-115.669804651877
 31
0.0
  0
LINE
  5
263
330
1F
100
AcDbEntity
  8
3-0
  6
Continuous
 62
     3
370
     9
100
AcDbLine
 10
29.96805067299439
 20
-88.6143533876245
 30
0.0
 11
29.12543960314942
 21
-103.780757728803
 31
0.0
  0
LINE
  5
264
330
1F
100
AcDbEntity
  8
3-0
  6
JWW_DASHED1
 62
     3
370
     9
100
AcDbLine
 10
27.55465131171908
 20
-87.66983670122546
 30
0.0
 11
21.77990638682765
 21
-89.21714330697326
 31
0.0
  0
LINE
  5
265
330
1F
100
AcDbEntity
  8
3-0
  6
JWW_DASHED1
 62
     3
370
     9
100
AcDbLine
 10
27.55465131171908
 20
-87.66983670122546
 30
0.0
 11
30.96645975276337
 21
-87.66983670122546
 31
0.0
  0
LINE
  5
266
330
1F
100
AcDbEntity
  8
3-0
  6
Continuous
 62
     3
370
     9
100
AcDbLine
 10
-102.4091124812836
 20
-86.5405810897616
 30
0.0
 11
-104.0778169523562
 21
-86.0935191902156
 31
0.0
  0
LINE
  5
267
330
1F
100
AcDbEntity
  8
3-0
  6
JWW_DASHED1
 62
     3
370
     9
100
AcDbLine
 10
-98.96062921669926
 20
-99.2300000445004
 30
0.0
 11
-100.2078881726069
 21
-89.0727536868146
 31
0.0
  0
LINE
  5
268
330
1F
100
AcDbEntity
  8
3-0
  6
JWW_DASHED1
 62
     3
370
     9
100
AcDbLine
 10
-87.04320129945447
 20
-102.5511712785134
 30
0.0
 11
-96.20992996354335
 21
-101.8557494336775
 31
0.0
  0
LINE
  5
269
330
1F
100
AcDbEntity
  8
3-0
  6
Continuous
 62
     3
370
     9
100
AcDbLine
 10
-96.270751378918
 20
-90.66978827371739
 30
0.0
 11
-97.83375326935824
 21
-90.66985826383859
 31
0.0
  0
LINE
  5
26A
330
1F
100
AcDbEntity
  8
3-0
  6
Continuous
 62
     3
370
     9
100
AcDbLine
 10
9.001669968210383
 20
-99.2300000445004
 30
0.0
 11
10.24896391917863
 21
-89.0727536868146
 31
0.0
  0
LINE
  5
26B
330
1F
100
AcDbEntity
  8
3-0
  6
Continuous
 62
     3
370
     9
100
AcDbLine
 10
-2.915705456443483
 20
-102.5511712785134
 30
0.0
 11
6.250988212584751
 21
-101.8557494336775
 31
0.0
  0
LINE
  5
26C
330
1F
100
AcDbEntity
  8
3-0
  6
Continuous
 62
     3
370
     9
100
AcDbLine
 10
15.01788081144761
 20
-105.669791101601
 30
0.0
 11
27.12855145349029
 21
-105.669791101601
 31
0.0
  0
LINE
  5
26D
330
1F
100
AcDbEntity
  8
3-0
  6
Continuous
 62
     3
370
     9
100
AcDbLine
 10
13.03282099228132
 20
-107.4260182193089
 30
0.0
 11
12.12833865524285
 21
-114.7916735954928
 31
0.0
  0
LINE
  5
26E
330
1F
100
AcDbEntity
  8
3-0
  6
JWW_DASHED1
 62
     3
370
     9
100
AcDbLine
 10
14.76766612794435
 20
-93.29795232207792
 30
0.0
 11
13.03282099228132
 21
-107.4260182193089
 31
0.0
  0
LINE
  5
26F
330
1F
100
AcDbEntity
  8
3-0
  6
Continuous
 62
     3
370
     9
100
AcDbLine
 10
-143.0966971410515
 20
-75.66978544583368
 30
0.0
 11
-121.5753122722087
 21
-75.66978544583368
 31
0.0
  0
LINE
  5
270
330
1F
100
AcDbEntity
  8
3-0
  6
Continuous
 62
     3
370
     9
100
AcDbLine
 10
33.54321605705873
 20
-75.66978544583368
 30
0.0
 11
53.11119413907483
 21
-75.66978544583368
 31
0.0
  0
LINE
  5
271
330
1F
100
AcDbEntity
  8
3-0
  6
Continuous
 62
     3
370
     9
100
AcDbLine
 10
-88.92215609479109
 20
-135.6697617623078
 30
0.0
 11
-87.39621397355782
 21
-134.19080050997
 31
0.0
  0
LINE
  5
272
330
1F
100
AcDbEntity
  8
3-0
  6
Continuous
 62
     3
370
     9
100
AcDbLine
 10
-89.9794268665394
 20
-107.6697938116562
 30
0.0
 11
0.0206075982930205
 21
-107.6697938116562
 31
0.0
  0
LINE
  5
273
330
1F
100
AcDbEntity
  8
3-0
  6
Continuous
 62
     3
370
     9
100
AcDbLine
 10
-89.9794268665394
 20
-107.6697938116562
 30
0.0
 11
-89.9794268665394
 21
-117.6698073619322
 31
0.0
  0
LINE
  5
274
330
1F
100
AcDbEntity
  8
3-0
  6
Continuous
 62
     3
370
     9
100
AcDbLine
 10
-89.9794268665394
 20
-117.6698073619322
 30
0.0
 11
0.0206075982930205
 21
-117.6698073619322
 31
0.0
  0
LINE
  5
275
330
1F
100
AcDbEntity
  8
3-0
  6
Continuous
 62
     3
370
     9
100
AcDbLine
 10
0.0206075982930205
 20
-107.6697938116562
 30
0.0
 11
0.0206075982930205
 21
-117.6698073619322
 31
0.0
  0
LINE
  5
276
330
1F
100
AcDbEntity
  8
3-0
  6
Continuous
 62
     3
370
     9
100
AcDbLine
 10
-88.92215609479109
 20
-135.6697617623078
 30
0.0
 11
-88.35966298775759
 21
-117.6698073619322
 31
0.0
  0
LINE
  5
277
330
1F
100
AcDbEntity
  8
3-0
  6
Continuous
 62
     3
370
     9
100
AcDbLine
 10
-87.39621397355782
 20
-134.19080050997
 30
0.0
 11
-86.879931844086
 21
-117.6698073619322
 31
0.0
  0
LINE
  5
278
330
1F
100
AcDbEntity
  8
3-0
  6
Continuous
 62
     3
370
     9
100
AcDbLine
 10
-1.036680670985595
 20
-135.6697617623078
 30
0.0
 11
-2.562640289749176
 21
-134.19080050997
 31
0.0
  0
LINE
  5
279
330
1F
100
AcDbEntity
  8
3-0
  6
Continuous
 62
     3
370
     9
100
AcDbLine
 10
-1.036680670985595
 20
-135.6697617623078
 30
0.0
 11
-1.59922627061005
 21
-117.6698073619322
 31
0.0
  0
LINE
  5
27A
330
1F
100
AcDbEntity
  8
3-0
  6
Continuous
 62
     3
370
     9
100
AcDbLine
 10
-2.562640289749176
 20
-134.19080050997
 30
0.0
 11
-3.078957414281636
 21
-117.6698073619322
 31
0.0
  0
LINE
  5
27B
330
1F
100
AcDbEntity
  8
3-0
  6
Continuous
 62
     3
370
     9
100
AcDbLine
 10
-87.39621397355782
 20
-134.19080050997
 30
0.0
 11
-2.562640289749176
 21
-134.19080050997
 31
0.0
  0
LINE
  5
27C
330
1F
100
AcDbEntity
  8
3-0
  6
Continuous
 62
     3
370
     9
100
AcDbLine
 10
-4.738633159711789
 20
-104.2251949988018
 30
0.0
 11
-5.312762124404717
 21
-107.6697938116562
 31
0.0
  0
LINE
  5
27D
330
1F
100
AcDbEntity
  8
3-0
  6
Continuous
 62
     3
370
     9
100
AcDbLine
 10
-81.8413255170733
 20
-90.51678986864377
 30
0.0
 11
-80.0820888241513
 21
-107.6697938116562
 31
0.0
  0
LINE
  5
27E
330
1F
100
AcDbEntity
  8
3-0
  6
JWW_DASHED1
 62
     3
370
     9
100
AcDbLine
 10
-85.221708393672
 20
-104.2166212089475
 30
0.0
 11
-84.64614463149326
 21
-107.6697938116562
 31
0.0
  0
LINE
  5
27F
330
1F
100
AcDbEntity
  8
3-0
  6
Continuous
 62
     3
370
     9
100
AcDbLine
 10
-83.33346240973816
 20
-89.16982998500174
 30
0.0
 11
-84.5794265484025
 21
-89.16982998500174
 31
0.0
  0
LINE
  5
280
330
1F
100
AcDbEntity
  8
3-0
  6
Continuous
 62
     3
370
     9
100
AcDbLine
 10
-91.3794042670356
 20
-89.16982998500174
 30
0.0
 11
-93.97946728171044
 21
-89.16982998500174
 31
0.0
  0
LINE
  5
281
330
1F
100
AcDbEntity
  8
3-2
  6
Continuous
 62
     6
370
     9
100
AcDbLine
 10
22.66976078852288
 20
-77.00526694958913
 30
0.0
 11
23.52049071243393
 21
-71.82641791710236
 31
0.0
  0
LINE
  5
282
330
1F
100
AcDbEntity
  8
3-2
  6
Continuous
 62
     6
370
     9
100
AcDbLine
 10
21.52052299743937
 20
-77.82639105220734
 30
0.0
 11
21.68590965397592
 21
-77.82639105220734
 31
0.0
  0
LINE
  5
283
330
1F
100
AcDbEntity
  8
3-2
  6
Continuous
 62
     6
370
     9
100
AcDbLine
 10
-112.6287200370118
 20
-77.00526694958913
 30
0.0
 11
-113.4793799708016
 21
-71.82641791710236
 31
0.0
  0
LINE
  5
284
330
1F
100
AcDbEntity
  8
3-2
  6
Continuous
 62
     6
370
     9
100
AcDbLine
 10
-102.4794175580889
 20
-71.82641791710236
 30
0.0
 11
-113.4793799708016
 21
-71.82641791710236
 31
0.0
  0
LINE
  5
285
330
1F
100
AcDbEntity
  8
3-2
  6
Continuous
 62
     6
370
     9
100
AcDbLine
 10
13.55795687209248
 20
-76.69619057410642
 30
0.0
 11
14.79650205790332
 21
-71.82641791710236
 31
0.0
  0
LINE
  5
286
330
1F
100
AcDbEntity
  8
3-2
  6
Continuous
 62
     6
370
     9
100
AcDbLine
 10
23.52049071243393
 20
-71.82641791710236
 30
0.0
 11
22.47378844899585
 21
-70.77971565366428
 31
0.0
  0
LINE
  5
287
330
1F
100
AcDbEntity
  8
3-2
  6
Continuous
 62
     6
370
     9
100
AcDbLine
 10
14.79650205790332
 20
-71.82641791710236
 30
0.0
 11
13.79648320534536
 21
-70.82646905466567
 31
0.0
  0
LINE
  5
288
330
1F
100
AcDbEntity
  8
3-2
  6
Continuous
 62
     6
370
     9
100
AcDbLine
 10
12.25260611553935
 20
-70.82646905466567
 30
0.0
 11
22.47378844899585
 21
-70.82646905466567
 31
0.0
  0
LINE
  5
289
330
1F
100
AcDbEntity
  8
3-2
  6
Continuous
 62
     6
370
     9
100
AcDbLine
 10
8.873658036426452
 20
-75.60287488990942
 30
0.0
 11
-16.42050932385722
 21
18.79756098122958
 31
0.0
  0
LINE
  5
28A
330
1F
100
AcDbEntity
  8
3-2
  6
Continuous
 62
     6
370
     9
100
AcDbLine
 10
-98.83254729479411
 20
-75.60287488990942
 30
0.0
 11
-73.53818746167697
 21
18.79752598616891
 31
0.0
  0
LINE
  5
28B
330
1F
100
AcDbEntity
  8
3-2
  6
Continuous
 62
     6
370
     9
100
AcDbLine
 10
-54.97941443563404
 20
27.92343291203314
 30
0.0
 11
-56.47940771941027
 21
23.32389211321252
 31
0.0
  0
LINE
  5
28C
330
1F
100
AcDbEntity
  8
3-2
  6
Continuous
 62
     6
370
     9
100
AcDbLine
 10
-60.47941313952067
 20
27.57208250330965
 30
0.0
 11
-58.97941985574443
 21
23.1608851207988
 31
0.0
  0
LINE
  5
28D
330
1F
100
AcDbEntity
  8
3-2
  6
Continuous
 62
     6
370
     9
100
AcDbLine
 10
-41.7294271021964
 20
28.14719132970025
 30
0.0
 11
-43.22942038597263
 21
23.66736863329429
 31
0.0
  0
LINE
  5
28E
330
1F
100
AcDbEntity
  8
3-2
  6
Continuous
 62
     6
370
     9
100
AcDbLine
 10
-48.22940966358031
 20
28.14719132970025
 30
0.0
 11
-46.72941637980408
 21
23.66736863329429
 31
0.0
  0
LINE
  5
28F
330
1F
100
AcDbEntity
  8
3-2
  6
Continuous
 62
     6
370
     9
100
AcDbLine
 10
-34.9794223301427
 20
27.92343291203314
 30
0.0
 11
-33.47942904636641
 21
23.32389211321252
 31
0.0
  0
LINE
  5
290
330
1F
100
AcDbEntity
  8
3-2
  6
Continuous
 62
     6
370
     9
100
AcDbLine
 10
12.25260611553935
 20
-70.82646905466567
 30
0.0
 11
-12.07438525658754
 21
19.96212660886889
 31
0.0
  0
LINE
  5
291
330
1F
100
AcDbEntity
  8
3-2
  6
JWW_CENTER1
 62
     6
370
     9
100
AcDbLine
 10
-40.95426901171543
 20
15.64888040106096
 30
0.0
 11
-39.4794196790017
 21
-77.82639105220734
 31
0.0
  0
LINE
  5
292
330
1F
100
AcDbEntity
  8
3-2
  6
JWW_CENTER1
 62
     6
370
     9
100
AcDbLine
 10
-42.45447226585544
 20
15.64888040106096
 30
0.0
 11
-40.97922048994449
 21
-77.85109756501198
 31
0.0
  0
LINE
  5
293
330
1F
100
AcDbEntity
  8
3-2
  6
JWW_CENTER1
 62
     6
370
     9
100
AcDbLine
 10
-49.00456775406128
 20
15.64888040106096
 30
0.0
 11
-50.47941708677499
 21
-77.82639105220734
 31
0.0
  0
LINE
  5
294
330
1F
100
AcDbEntity
  8
3-2
  6
JWW_CENTER1
 62
     6
370
     9
100
AcDbLine
 10
-47.50436449992126
 20
15.64888040106096
 30
0.0
 11
-48.9796162758322
 21
-77.85109756501198
 31
0.0
  0
LINE
  5
295
330
1F
100
AcDbEntity
  8
3-2
  6
Continuous
 62
     6
370
     9
100
AcDbLine
 10
-103.789212687342
 20
-76.71459797599772
 30
0.0
 11
-77.8847139721439
 21
19.96216160392957
 31
0.0
  0
LINE
  5
296
330
1F
100
AcDbEntity
  8
3-2
  6
Continuous
 62
     6
370
     9
100
AcDbLine
 10
-69.97941726351772
 20
26.58459188245723
 30
0.0
 11
-71.21902979867774
 21
21.65007836328794
 31
0.0
  0
LINE
  5
297
330
1F
100
AcDbEntity
  8
3-2
  6
Continuous
 62
     6
370
     9
100
AcDbLine
 10
-73.97331604554823
 20
17.17358019764185
 30
0.0
 11
-78.63191100918164
 21
17.17358019764185
 31
0.0
  0
LINE
  5
298
330
1F
100
AcDbEntity
  8
3-2
  6
JWW_CENTER1
 62
     6
370
     9
100
AcDbLine
 10
-73.97331604554823
 20
17.17361519270246
 30
0.0
 11
-11.3272057170801
 21
17.17361519270246
 31
0.0
  0
LINE
  5
299
330
1F
100
AcDbEntity
  8
3-2
  6
Continuous
 62
     6
370
     9
100
AcDbLine
 10
20.65047580006065
 20
-77.82639105220734
 30
0.0
 11
21.52052299743937
 21
-77.82639105220734
 31
0.0
  0
LINE
  5
29A
330
1F
100
AcDbEntity
  8
3-2
  6
Continuous
 62
     6
370
     9
100
AcDbLine
 10
14.79650205790332
 20
-71.82641791710236
 30
0.0
 11
15.82864637611939
 21
-71.82641791710236
 31
0.0
  0
LINE
  5
29B
330
1F
100
AcDbEntity
  8
3-2
  6
Continuous
 62
     6
370
     9
100
AcDbLine
 10
21.21235649353312
 20
-71.82641791710236
 30
0.0
 11
23.52049071243393
 21
-71.82641791710236
 31
0.0
  0
LINE
  5
29C
330
1F
100
AcDbEntity
  8
3-2
  6
Continuous
 62
     6
370
     9
100
AcDbLine
 10
-111.6448339074042
 20
-77.82639105220734
 30
0.0
 11
-97.3483017883013
 21
-77.82639105220734
 31
0.0
  0
LINE
  5
29D
330
1F
100
AcDbEntity
  8
3-2
  6
JWW_CENTER1
 62
     6
370
     9
100
AcDbLine
 10
-97.82063012162205
 20
-71.82641791710236
 30
0.0
 11
-92.9857825351265
 21
-71.82641791710236
 31
0.0
  0
LINE
  5
29E
330
1F
100
AcDbEntity
  8
3-2
  6
JWW_CENTER1
 62
     6
370
     9
100
AcDbLine
 10
-81.64323597637818
 20
-71.82641791710236
 30
0.0
 11
-50.3805210454351
 21
-71.82641791710236
 31
0.0
  0
LINE
  5
29F
330
1F
100
AcDbEntity
  8
3-2
  6
JWW_CENTER1
 62
     6
370
     9
100
AcDbLine
 10
-39.57831572034159
 20
-71.82641791710236
 30
0.0
 11
7.861740863254418
 21
-71.82641791710236
 31
0.0
  0
LINE
  5
2A0
330
1F
100
AcDbEntity
  8
3-2
  6
Continuous
 62
     6
370
     9
100
AcDbLine
 10
-78.58947949816798
 20
-77.82639105220734
 30
0.0
 11
16.39045707947062
 21
-77.82639105220734
 31
0.0
  0
LINE
  5
2A1
330
1F
100
AcDbEntity
  8
3-0
  6
Continuous
 62
     3
370
     9
100
AcDbLine
 10
-104.9768400599365
 20
-105.669791101601
 30
0.0
 11
-117.0874582093882
 21
-105.669791101601
 31
0.0
  0
LINE
  5
2A2
330
1F
100
AcDbEntity
  8
3-8
  6
Continuous
 62
     6
370
     9
100
AcDbLine
 10
-141.0794068710452
 20
-79.76977175416346
 30
0.0
 11
-141.0794068710452
 21
-80.06974941388236
 31
0.0
  0
LINE
  5
2A3
330
1F
100
AcDbEntity
  8
3-8
  6
Continuous
 62
     6
370
     9
100
AcDbLine
 10
-134.9294449060808
 20
-82.11976006557757
 30
0.0
 11
-132.8793992593249
 21
-80.06974941388236
 31
0.0
  0
LINE
  5
2A4
330
1F
100
AcDbEntity
  8
3-8
  6
Continuous
 62
     6
370
     9
100
AcDbLine
 10
-132.8793992593249
 20
-79.76977175416346
 30
0.0
 11
-132.8793992593249
 21
-80.06974941388236
 31
0.0
  0
LINE
  5
2A5
330
1F
100
AcDbEntity
  8
3-8
  6
Continuous
 62
     6
370
     9
100
AcDbLine
 10
-132.8793992593249
 20
-80.06974941388236
 30
0.0
 11
-141.0794068710452
 21
-80.06974941388236
 31
0.0
  0
LINE
  5
2A6
330
1F
100
AcDbEntity
  8
3-8
  6
Continuous
 62
     6
370
     9
100
AcDbLine
 10
-139.02939621935
 20
-82.11976006557757
 30
0.0
 11
-134.9294449060808
 21
-82.11976006557757
 31
0.0
  0
LINE
  5
2A7
330
1F
100
AcDbEntity
  8
3-8
  6
Continuous
 62
     6
370
     9
100
AcDbLine
 10
-139.02939621935
 20
-82.11976006557757
 30
0.0
 11
-141.0794068710452
 21
-80.06974941388236
 31
0.0
  0
LINE
  5
2A8
330
1F
100
AcDbEntity
  8
3-8
  6
Continuous
 62
     6
370
     9
100
AcDbLine
 10
-141.0794068710452
 20
-79.76977175416346
 30
0.0
 11
-132.8793992593249
 21
-79.76977175416346
 31
0.0
  0
LINE
  5
2A9
330
1F
100
AcDbEntity
  8
3-8
  6
JWW_CENTER1
 62
     6
370
     9
100
AcDbLine
 10
-136.9793855676547
 20
-121.5475050451414
 30
0.0
 11
-136.9793855676547
 21
-76.56352429925882
 31
0.0
  0
LINE
  5
2AA
330
1F
100
AcDbEntity
  8
3-8
  6
Continuous
 62
     6
370
     9
100
AcDbLine
 10
-136.9793855676547
 20
-117.769753255091
 30
0.0
 11
-134.9294449060808
 21
-110.119168095259
 31
0.0
  0
LINE
  5
2AB
330
1F
100
AcDbEntity
  8
3-8
  6
Continuous
 62
     6
370
     9
100
AcDbLine
 10
-134.9294449060808
 20
-82.11976006557757
 30
0.0
 11
-134.9294449060808
 21
-110.119168095259
 31
0.0
  0
LINE
  5
2AC
330
1F
100
AcDbEntity
  8
3-8
  6
Continuous
 62
     6
370
     9
100
AcDbLine
 10
-136.9793855676547
 20
-117.769753255091
 30
0.0
 11
-139.02939621935
 21
-110.119168095259
 31
0.0
  0
LINE
  5
2AD
330
1F
100
AcDbEntity
  8
3-8
  6
Continuous
 62
     6
370
     9
100
AcDbLine
 10
-139.02939621935
 20
-82.11976006557757
 30
0.0
 11
-139.02939621935
 21
-110.119168095259
 31
0.0
  0
LINE
  5
2AE
330
1F
100
AcDbEntity
  8
3-8
  6
Continuous
 62
     6
370
     9
100
AcDbLine
 10
-136.9793855676547
 20
-91.52863705169457
 30
0.0
 11
-139.02939621935
 21
-91.93751934009346
 31
0.0
  0
LINE
  5
2AF
330
1F
100
AcDbEntity
  8
3-8
  6
Continuous
 62
     6
370
     9
100
AcDbLine
 10
-134.9294449060808
 20
-93.05865609749118
 30
0.0
 11
-139.02939621935
 21
-93.876420674289
 31
0.0
  0
LINE
  5
2B0
330
1F
100
AcDbEntity
  8
3-8
  6
Continuous
 62
     6
370
     9
100
AcDbLine
 10
-134.9294449060808
 20
-94.99759242674732
 30
0.0
 11
-139.02939621935
 21
-95.81528701342381
 31
0.0
  0
LINE
  5
2B1
330
1F
100
AcDbEntity
  8
3-8
  6
Continuous
 62
     6
370
     9
100
AcDbLine
 10
-134.9294449060808
 20
-96.93645876588221
 30
0.0
 11
-139.02939621935
 21
-97.75415335255875
 31
0.0
  0
LINE
  5
2B2
330
1F
100
AcDbEntity
  8
3-8
  6
Continuous
 62
     6
370
     9
100
AcDbLine
 10
-134.9294449060808
 20
-98.87532510501714
 30
0.0
 11
-139.02939621935
 21
-99.69301969169364
 31
0.0
  0
LINE
  5
2B3
330
1F
100
AcDbEntity
  8
3-8
  6
Continuous
 62
     6
370
     9
100
AcDbLine
 10
-134.9294449060808
 20
-100.814191444152
 30
0.0
 11
-139.02939621935
 21
-101.6318860308285
 31
0.0
  0
LINE
  5
2B4
330
1F
100
AcDbEntity
  8
3-8
  6
Continuous
 62
     6
370
     9
100
AcDbLine
 10
-134.9294449060808
 20
-102.7530577832869
 30
0.0
 11
-139.02939621935
 21
-103.5708223600847
 31
0.0
  0
LINE
  5
2B5
330
1F
100
AcDbEntity
  8
3-8
  6
Continuous
 62
     6
370
     9
100
AcDbLine
 10
-134.9294449060808
 20
-104.6919941125431
 30
0.0
 11
-139.02939621935
 21
-105.5096886992196
 31
0.0
  0
LINE
  5
2B6
330
1F
100
AcDbEntity
  8
3-8
  6
Continuous
 62
     6
370
     9
100
AcDbLine
 10
-134.9294449060808
 20
-106.630860451678
 30
0.0
 11
-139.02939621935
 21
-107.4485550383545
 31
0.0
  0
LINE
  5
2B7
330
1F
100
AcDbEntity
  8
3-8
  6
Continuous
 62
     6
370
     9
100
AcDbLine
 10
-134.9294449060808
 20
-108.5697267908128
 30
0.0
 11
-139.02939621935
 21
-109.3874913676106
 31
0.0
  0
LINE
  5
2B8
330
1F
100
AcDbEntity
  8
3-8
  6
Continuous
 62
     6
370
     9
100
AcDbLine
 10
-135.5885418779829
 20
-112.5789359118689
 30
0.0
 11
-138.2291291728671
 21
-113.1056115743478
 31
0.0
  0
LINE
  5
2B9
330
1F
100
AcDbEntity
  8
3-8
  6
Continuous
 62
     6
370
     9
100
AcDbLine
 10
-136.1373694138405
 20
-114.6273017957145
 30
0.0
 11
-137.7359787784715
 21
-114.9461417931128
 31
0.0
  0
LINE
  5
2BA
330
1F
100
AcDbEntity
  8
3-8
  6
Continuous
 62
     6
370
     9
100
AcDbLine
 10
-135.0396793470647
 20
-110.5305700280233
 30
0.0
 11
-138.7222795672626
 21
-111.2651163506433
 31
0.0
  0
LINE
  5
2BB
330
1F
100
AcDbEntity
  8
3-0
  6
Continuous
 62
     3
370
     9
100
AcDbLine
 10
-132.4794232138563
 20
-79.66975587088344
 30
0.0
 11
-134.4794259239115
 21
-81.66975858093863
 31
0.0
  0
LINE
  5
2BC
330
1F
100
AcDbEntity
  8
3-0
  6
Continuous
 62
     3
370
     9
100
AcDbLine
 10
-141.4794179115744
 20
-79.66975587088344
 30
0.0
 11
-139.4794152015192
 21
-81.66975858093863
 31
0.0
  0
LINE
  5
2BD
330
1F
100
AcDbEntity
  8
3-0
  6
Continuous
 62
     3
370
     9
100
AcDbLine
 10
-141.4794179115744
 20
-76.07170371716725
 30
0.0
 11
-141.4794179115744
 21
-79.66975587088344
 31
0.0
  0
LINE
  5
2BE
330
1F
100
AcDbEntity
  8
3-0
  6
Continuous
 62
     3
370
     9
100
AcDbLine
 10
-132.4794232138563
 20
-78.4832483402292
 30
0.0
 11
-132.4794232138563
 21
-79.66975587088344
 31
0.0
  0
LINE
  5
2BF
330
1F
100
AcDbEntity
  8
3-0
  6
Continuous
 62
     3
370
     9
100
AcDbLine
 10
-132.4794232138563
 20
-79.66975587088344
 30
0.0
 11
-141.4794179115744
 21
-79.66975587088344
 31
0.0
  0
LINE
  5
2C0
330
1F
100
AcDbEntity
  8
3-0
  6
Continuous
 62
     3
370
     9
100
AcDbLine
 10
-134.4794259239115
 20
-81.66975858093863
 30
0.0
 11
-134.4794259239115
 21
-87.66983670122546
 31
0.0
  0
LINE
  5
2C1
330
1F
100
AcDbEntity
  8
3-0
  6
Continuous
 62
     3
370
     9
100
AcDbLine
 10
-139.4794152015192
 20
-81.66975858093863
 30
0.0
 11
-139.4794152015192
 21
-87.66983670122546
 31
0.0
  0
LINE
  5
2C2
330
1F
100
AcDbEntity
  8
3-0
  6
Continuous
 62
     3
370
     9
100
AcDbLine
 10
-131.7766349087578
 20
-87.66983670122546
 30
0.0
 11
-134.9294449060808
 21
-87.66983670122546
 31
0.0
  0
LINE
  5
2C3
330
1F
100
AcDbEntity
  8
3-0
  6
Continuous
 62
     3
370
     9
100
AcDbLine
 10
-139.02939621935
 20
-87.66983670122546
 30
0.0
 11
-143.9794300479086
 21
-87.66983670122546
 31
0.0
  0
ARC
  5
2C4
330
1F
100
AcDbEntity
  8
3-1
  6
Continuous
 62
     2
370
     9
100
AcDbCircle
 10
-112.2455241231151
 20
-78.22386495084089
 30
0.0
 40
1.999999976066088
100
AcDbArc
 50
190.6148834228515
 51
255.0005035400391
  0
ARC
  5
2C5
330
1F
100
AcDbEntity
  8
3-1
  6
JWW_DASHED1
 62
     2
370
     9
100
AcDbCircle
 10
22.28673984992942
 20
-78.22386495084089
 30
0.0
 40
1.999999976066088
100
AcDbArc
 50
284.9994964599609
 51
349.3851165771484
  0
ARC
  5
2C6
330
1F
100
AcDbEntity
  8
3-1
  6
Continuous
 62
     2
370
     9
100
AcDbCircle
 10
31.97907682714801
 20
-74.5915876278287
 30
0.0
 40
2.999999964099133
100
AcDbArc
 50
188.7071380615234
 51
285.0002746582031
  0
ARC
  5
2C7
330
1F
100
AcDbEntity
  8
3-1
  6
Continuous
 62
     2
370
     9
100
AcDbCircle
 10
-121.9378436028034
 20
-74.5915876278287
 30
0.0
 40
2.999999964099133
100
AcDbArc
 50
254.9997253417969
 51
351.2928619384766
  0
ARC
  5
2C8
330
1F
100
AcDbEntity
  8
3-1
  6
Continuous
 62
     2
370
     9
100
AcDbCircle
 10
12.77728705956232
 20
-79.32641933104419
 30
0.0
 40
1.499999982049566
100
AcDbArc
 50
90.0
 51
169.911865234375
  0
ARC
  5
2C9
330
1F
100
AcDbEntity
  8
3-1
  6
Continuous
 62
     2
370
     9
100
AcDbCircle
 10
23.15115284254679
 20
-76.32643276349174
 30
0.0
 40
1.499999982049566
100
AcDbArc
 50
270.0
 51
349.3843536376953
  0
ARC
  5
2CA
330
1F
100
AcDbEntity
  8
3-1
  6
Continuous
 62
     2
370
     9
100
AcDbCircle
 10
8.774342054359035
 20
-81.84452391372395
 30
0.0
 40
1.999999976066088
100
AcDbArc
 50
284.9994964599609
 51
349.9125671386718
  0
ARC
  5
2CB
330
1F
100
AcDbEntity
  8
3-1
  6
Continuous
 62
     2
370
     9
100
AcDbCircle
 10
-1.725086006165249
 20
-85.82647188254937
 30
0.0
 40
0.9999999880330441
100
AcDbArc
 50
90.0
 51
164.0540161132812
  0
ARC
  5
2CC
330
1F
100
AcDbEntity
  8
3-1
  6
Continuous
 62
     2
370
     9
100
AcDbCircle
 10
-77.20908183409415
 20
-84.82645302999147
 30
0.0
 40
1.499999982049566
100
AcDbArc
 50
11.31021118164062
 51
90.00000000000001
  0
ARC
  5
2CD
330
1F
100
AcDbEntity
  8
3-3
  6
Continuous
 62
     4
370
     9
100
AcDbCircle
 10
15.42949271457561
 20
-69.0975730793098
 30
0.0
 40
1.999999976066088
100
AcDbArc
 50
96.33816528320312
 51
175.0000152587891
  0
ARC
  5
2CE
330
1F
100
AcDbEntity
  8
3-3
  6
Continuous
 62
     4
370
     9
100
AcDbCircle
 10
18.52060642000813
 20
-96.92641518348142
 30
0.0
 40
29.99999690700222
100
AcDbArc
 50
83.66180419921876
 51
96.33819580078126
  0
ARC
  5
2CF
330
1F
100
AcDbEntity
  8
3-3
  6
Continuous
 62
     4
370
     9
100
AcDbCircle
 10
21.61168513038009
 20
-69.0975730793098
 30
0.0
 40
1.999999976066088
100
AcDbArc
 50
4.999984741210936
 51
83.66183471679688
  0
ARC
  5
2D0
330
1F
100
AcDbEntity
  8
3-3
  6
Continuous
 62
     4
370
     9
100
AcDbCircle
 10
15.12055631933551
 20
-71.07640377768395
 30
0.0
 40
0.249999997008261
100
AcDbArc
 50
29.32917785644532
 51
90.00000000000001
  0
ARC
  5
2D1
330
1F
100
AcDbEntity
  8
3-3
  6
Continuous
 62
     4
370
     9
100
AcDbCircle
 10
21.92058653055957
 20
-71.07640377768395
 30
0.0
 40
0.249999997008261
100
AcDbArc
 50
90.0
 51
150.6708221435547
  0
ARC
  5
2D2
330
1F
100
AcDbEntity
  8
3-3
  6
Continuous
 62
     4
370
     9
100
AcDbCircle
 10
-93.60297292192445
 20
-79.6266769512481
 30
0.0
 40
2.800173520121335
100
AcDbArc
 50
47.92556762695312
 51
132.0746307373047
  0
ARC
  5
2D3
330
1F
100
AcDbEntity
  8
3-3
  6
Continuous
 62
     4
370
     9
100
AcDbCircle
 10
-87.97938916142357
 20
-86.91586811995589
 30
0.0
 40
10.08940952625054
100
AcDbArc
 50
68.19786071777344
 51
111.8021392822266
  0
ARC
  5
2D4
330
1F
100
AcDbEntity
  8
3-3
  6
Continuous
 62
     4
370
     9
100
AcDbCircle
 10
-82.35580540092269
 20
-79.6266769512481
 30
0.0
 40
2.800189650657094
100
AcDbArc
 50
47.92572021484374
 51
132.0742797851562
  0
ARC
  5
2D5
330
1F
100
AcDbEntity
  8
3-1
  6
JWW_CENTER1
 62
     2
370
     9
100
AcDbCircle
 10
-113.1099721107932
 20
-76.32643276349174
 30
0.0
 40
1.499999982049566
100
AcDbArc
 50
190.6156463623047
 51
270.0
  0
ARC
  5
2D6
330
1F
100
AcDbEntity
  8
3-1
  6
JWW_CENTER1
 62
     2
370
     9
100
AcDbCircle
 10
-103.0348066678146
 20
-80.69185660669879
 30
0.0
 40
1.999999976066088
100
AcDbArc
 50
203.7332458496093
 51
254.9996185302734
  0
ARC
  5
2D7
330
1F
100
AcDbEntity
  8
3-1
  6
JWW_CENTER1
 62
     2
370
     9
100
AcDbCircle
 10
-107.4584972869703
 20
-79.32641933104419
 30
0.0
 40
1.499999982049566
100
AcDbArc
 50
23.73393249511719
 51
90.00000000000001
  0
ARC
  5
2D8
330
1F
100
AcDbEntity
  8
3-0
  6
Continuous
 62
     3
370
     9
100
AcDbCircle
 10
-83.33346240973816
 20
-90.66978827371739
 30
0.0
 40
1.499999982049566
100
AcDbArc
 50
5.856887817382806
 51
89.99999999999999
  0
ARC
  5
2D9
330
1F
100
AcDbEntity
  8
3-0
  6
Continuous
 62
     3
370
     9
100
AcDbCircle
 10
-123.7175699037242
 20
-80.1839732917781
 30
0.0
 40
1.625007669898074
100
AcDbArc
 50
187.620590209961
 51
322.37890625
  0
ARC
  5
2DA
330
1F
100
AcDbEntity
  8
3-0
  6
Continuous
 62
     3
370
     9
100
AcDbCircle
 10
-105.3649177847909
 20
-85.10154920160257
 30
0.0
 40
1.625007669898074
100
AcDbArc
 50
187.620590209961
 51
322.37890625
  0
ARC
  5
2DB
330
1F
100
AcDbEntity
  8
3-0
  6
Continuous
 62
     3
370
     9
100
AcDbCircle
 10
-129.513171884751
 20
-78.63106747632955
 30
0.0
 40
1.625007669898074
100
AcDbArc
 50
187.6179962158203
 51
322.3796997070312
  0
ARC
  5
2DC
330
1F
100
AcDbEntity
  8
3-0
  6
Continuous
 62
     3
370
     9
100
AcDbCircle
 10
-143.0701533875638
 20
-76.66980429839158
 30
0.0
 40
0.9999999880330441
100
AcDbArc
 50
90.0
 51
174.5600891113281
  0
ARC
  5
2DD
330
1F
100
AcDbEntity
  8
3-0
  6
Continuous
 62
     3
370
     9
100
AcDbCircle
 10
-109.7049352139807
 20
-89.76208639110094
 30
0.0
 40
0.9999999880330441
100
AcDbArc
 50
75.00035095214845
 51
108.6898345947266
  0
ARC
  5
2DE
330
1F
100
AcDbEntity
  8
3-0
  6
Continuous
 62
     3
370
     9
100
AcDbCircle
 10
33.75864565029589
 20
-80.1839732917781
 30
0.0
 40
1.625007669898074
100
AcDbArc
 50
217.62109375
 51
352.3794097900391
  0
ARC
  5
2DF
330
1F
100
AcDbEntity
  8
3-0
  6
Continuous
 62
     3
370
     9
100
AcDbCircle
 10
15.40597603383238
 20
-85.10154920160257
 30
0.0
 40
1.625007669898074
100
AcDbArc
 50
217.62109375
 51
352.3794097900391
  0
ARC
  5
2E0
330
1F
100
AcDbEntity
  8
3-0
  6
Continuous
 62
     3
370
     9
100
AcDbCircle
 10
39.55424763132272
 20
-78.63106747632955
 30
0.0
 40
1.625007669898074
100
AcDbArc
 50
217.6203002929688
 51
352.3820037841797
  0
ARC
  5
2E1
330
1F
100
AcDbEntity
  8
3-0
  6
Continuous
 62
     3
370
     9
100
AcDbCircle
 10
53.11119413907483
 20
-76.66980429839158
 30
0.0
 40
0.9999999880330441
100
AcDbArc
 50
5.439910888671868
 51
89.99999999999999
  0
ARC
  5
2E2
330
1F
100
AcDbEntity
  8
3-0
  6
JWW_DASHED1
 62
     3
370
     9
100
AcDbCircle
 10
19.74599346302212
 20
-89.76208639110094
 30
0.0
 40
0.9999999880330441
100
AcDbArc
 50
71.31016540527344
 51
104.9996490478516
  0
ARC
  5
2E3
330
1F
100
AcDbEntity
  8
3-0
  6
JWW_DASHED1
 62
     3
370
     9
100
AcDbCircle
 10
21.52108291840946
 20
-88.25120964346877
 30
0.0
 40
0.9999999880330441
100
AcDbArc
 50
251.3106384277343
 51
284.9996490478516
  0
ARC
  5
2E4
330
1F
100
AcDbEntity
  8
3-0
  6
Continuous
 62
     3
370
     9
100
AcDbCircle
 10
-124.2372990466681
 20
-86.66985284372817
 30
0.0
 40
0.9999999880330441
100
AcDbArc
 50
196.8391571044923
 51
270.0000000000001
  0
ARC
  5
2E5
330
1F
100
AcDbEntity
  8
3-0
  6
Continuous
 62
     3
370
     9
100
AcDbCircle
 10
-126.7754208040281
 20
-85.18809198654009
 30
0.0
 40
0.9999999880330441
100
AcDbArc
 50
16.83944702148438
 51
74.9998779296875
  0
ARC
  5
2E6
330
1F
100
AcDbEntity
  8
3-0
  6
Continuous
 62
     3
370
     9
100
AcDbCircle
 10
50.88396850035022
 20
-86.66985284372817
 30
0.0
 40
0.9999999880330441
100
AcDbArc
 50
188.3807678222657
 51
270.0
  0
ARC
  5
2E7
330
1F
100
AcDbEntity
  8
3-0
  6
JWW_DASHED1
 62
     3
370
     9
100
AcDbCircle
 10
-140.8428927537785
 20
-86.66985284372817
 30
0.0
 40
0.9999999880330441
100
AcDbArc
 50
270.0
 51
351.6192321777344
  0
ARC
  5
2E8
330
1F
100
AcDbEntity
  8
3-0
  6
Continuous
 62
     3
370
     9
100
AcDbCircle
 10
-128.4921384982849
 20
-85.76334079317321
 30
0.0
 40
1.999999976066088
100
AcDbArc
 50
74.99961853027345
 51
167.1265869140626
  0
ARC
  5
2E9
330
1F
100
AcDbEntity
  8
3-0
  6
Continuous
 62
     3
370
     9
100
AcDbCircle
 10
-131.7766349087578
 20
-86.66985284372817
 30
0.0
 40
0.9999999880330441
100
AcDbArc
 50
270.0
 51
347.1275634765625
  0
ARC
  5
2EA
330
1F
100
AcDbEntity
  8
3-0
  6
Continuous
 62
     3
370
     9
100
AcDbCircle
 10
34.27839229077009
 20
-86.66985284372817
 30
0.0
 40
0.9999999880330441
100
AcDbArc
 50
270.0
 51
343.1608428955078
  0
ARC
  5
2EB
330
1F
100
AcDbEntity
  8
3-0
  6
Continuous
 62
     3
370
     9
100
AcDbCircle
 10
36.81651404813013
 20
-85.18809198654009
 30
0.0
 40
0.9999999880330441
100
AcDbArc
 50
105.0001220703125
 51
163.1605529785156
  0
ARC
  5
2EC
330
1F
100
AcDbEntity
  8
3-0
  6
Continuous
 62
     3
370
     9
100
AcDbCircle
 10
44.89218420943266
 20
-87.16524292200401
 30
0.0
 40
5.000000213564133
100
AcDbArc
 50
8.381790161132807
 51
104.9998474121094
  0
ARC
  5
2ED
330
1F
100
AcDbEntity
  8
3-0
  6
JWW_DASHED1
 62
     3
370
     9
100
AcDbCircle
 10
-134.8510909653306
 20
-87.16524292200401
 30
0.0
 40
5.000000213564133
100
AcDbArc
 50
75.00035095214845
 51
171.6182098388672
  0
ARC
  5
2EE
330
1F
100
AcDbEntity
  8
3-0
  6
Continuous
 62
     3
370
     9
100
AcDbCircle
 10
-117.0874582093882
 20
-103.6697533964852
 30
0.0
 40
1.999999976066088
100
AcDbArc
 50
183.1796569824219
 51
270.0
  0
ARC
  5
2EF
330
1F
100
AcDbEntity
  8
3-0
  6
Continuous
 62
     3
370
     9
100
AcDbCircle
 10
-120.9254190012522
 20
-88.66982055872276
 30
0.0
 40
0.9999999880330441
100
AcDbArc
 50
3.179656982421887
 51
90.00000000000001
  0
ARC
  5
2F0
330
1F
100
AcDbEntity
  8
3-0
  6
Continuous
 62
     3
370
     9
100
AcDbCircle
 10
-111.4800246693681
 20
-88.25120964346877
 30
0.0
 40
0.9999999880330441
100
AcDbArc
 50
255.0003509521485
 51
288.6893615722657
  0
ARC
  5
2F1
330
1F
100
AcDbEntity
  8
3-0
  6
Continuous
 62
     3
370
     9
100
AcDbCircle
 10
-96.270751378918
 20
-88.16984612750448
 30
0.0
 40
2.500000106782066
100
AcDbArc
 50
270.0
 51
336.4218139648438
  0
ARC
  5
2F2
330
1F
100
AcDbEntity
  8
3-0
  6
Continuous
 62
     3
370
     9
100
AcDbCircle
 10
-92.76053682738265
 20
-133.6697940473132
 30
0.0
 40
1.999999976066088
100
AcDbArc
 50
188.5197906494141
 51
270.0
  0
ARC
  5
2F3
330
1F
100
AcDbEntity
  8
3-0
  6
Continuous
 62
     3
370
     9
100
AcDbCircle
 10
-98.34079670282378
 20
-116.6697885093743
 30
0.0
 40
0.9999999880330441
100
AcDbArc
 50
8.518875122070309
 51
90.0
  0
ARC
  5
2F4
330
1F
100
AcDbEntity
  8
3-0
  6
Continuous
 62
     3
370
     9
100
AcDbCircle
 10
-109.6893449144702
 20
-93.90735630788573
 30
0.0
 40
5.000000213564133
100
AcDbArc
 50
7.000640869140632
 51
75.00015258789062
  0
ARC
  5
2F5
330
1F
100
AcDbEntity
  8
3-0
  6
Continuous
 62
     3
370
     9
100
AcDbCircle
 10
-101.094732999088
 20
-114.6698207943798
 30
0.0
 40
0.9999999880330441
100
AcDbArc
 50
186.9990539550781
 51
270.0
  0
ARC
  5
2F6
330
1F
100
AcDbEntity
  8
3-0
  6
Continuous
 62
     3
370
     9
100
AcDbCircle
 10
-104.9768400599365
 20
-107.6697938116562
 30
0.0
 40
1.999999976066088
100
AcDbArc
 50
7.00103759765625
 51
90.0
  0
ARC
  5
2F7
330
1F
100
AcDbEntity
  8
3-0
  6
Continuous
 62
     3
370
     9
100
AcDbCircle
 10
2.801595076424086
 20
-133.6697940473132
 30
0.0
 40
1.999999976066088
100
AcDbArc
 50
270.0
 51
351.4802093505859
  0
ARC
  5
2F8
330
1F
100
AcDbEntity
  8
3-0
  6
Continuous
 62
     3
370
     9
100
AcDbCircle
 10
8.381837454334882
 20
-116.6697885093743
 30
0.0
 40
0.9999999880330441
100
AcDbArc
 50
90.0
 51
171.4811248779297
  0
ARC
  5
2F9
330
1F
100
AcDbEntity
  8
3-0
  6
JWW_DASHED1
 62
     3
370
     9
100
AcDbCircle
 10
19.73038566598122
 20
-93.90735630788573
 30
0.0
 40
5.000000213564133
100
AcDbArc
 50
104.9998474121094
 51
172.9993591308595
  0
ARC
  5
2FA
330
1F
100
AcDbEntity
  8
3-0
  6
Continuous
 62
     3
370
     9
100
AcDbCircle
 10
11.13580874565971
 20
-114.6698207943798
 30
0.0
 40
0.9999999880330441
100
AcDbArc
 50
270.0
 51
353.0009460449219
  0
ARC
  5
2FB
330
1F
100
AcDbEntity
  8
3-0
  6
Continuous
 62
     3
370
     9
100
AcDbCircle
 10
-2.765856606826592
 20
-104.5540085884797
 30
0.0
 40
1.999999976066088
100
AcDbArc
 50
94.03097534179688
 51
170.5371856689453
  0
ARC
  5
2FC
330
1F
100
AcDbEntity
  8
3-0
  6
Continuous
 62
     3
370
     9
100
AcDbCircle
 10
30.96645975276337
 20
-88.66982055872276
 30
0.0
 40
0.9999999880330441
100
AcDbArc
 50
90.0
 51
176.8203430175781
  0
ARC
  5
2FD
330
1F
100
AcDbEntity
  8
3-0
  6
Continuous
 62
     3
370
     9
100
AcDbCircle
 10
27.12855145349029
 20
-103.6697533964852
 30
0.0
 40
1.999999976066088
100
AcDbArc
 50
270.0
 51
356.8203430175781
  0
ARC
  5
2FE
330
1F
100
AcDbEntity
  8
3-0
  6
JWW_DASHED1
 62
     3
370
     9
100
AcDbCircle
 10
-95.98300449288925
 20
-98.86437165103997
 30
0.0
 40
2.999999964099133
100
AcDbArc
 50
187.0004119873047
 51
265.6619110107422
  0
ARC
  5
2FF
330
1F
100
AcDbEntity
  8
3-0
  6
JWW_DASHED1
 62
     3
370
     9
100
AcDbCircle
 10
-87.1944849465572
 20
-104.5454347986253
 30
0.0
 40
1.999999976066088
100
AcDbArc
 50
9.462814331054691
 51
85.66188049316408
  0
ARC
  5
300
330
1F
100
AcDbEntity
  8
3-0
  6
Continuous
 62
     3
370
     9
100
AcDbCircle
 10
-103.1855303939472
 20
-89.43845207039627
 30
0.0
 40
2.999999964099133
100
AcDbArc
 50
7.00103759765625
 51
75.00083923339844
  0
ARC
  5
301
330
1F
100
AcDbEntity
  8
3-0
  6
Continuous
 62
     3
370
     9
100
AcDbCircle
 10
-97.8338232594795
 20
-88.16988112256509
 30
0.0
 40
2.500000106782066
100
AcDbArc
 50
196.4049072265625
 51
270.0016021728516
  0
ARC
  5
302
330
1F
100
AcDbEntity
  8
3-0
  6
Continuous
 62
     3
370
     9
100
AcDbCircle
 10
6.024080239460961
 20
-98.86437165103997
 30
0.0
 40
2.999999964099133
100
AcDbArc
 50
274.3380889892578
 51
352.9995880126953
  0
ARC
  5
303
330
1F
100
AcDbEntity
  8
3-0
  6
Continuous
 62
     3
370
     9
100
AcDbCircle
 10
13.22662363804928
 20
-89.43845207039627
 30
0.0
 40
2.999999964099133
100
AcDbArc
 50
104.9991607666016
 51
172.9989624023438
  0
ARC
  5
304
330
1F
100
AcDbEntity
  8
3-0
  6
Continuous
 62
     3
370
     9
100
AcDbCircle
 10
15.01788081144761
 20
-107.6697938116562
 30
0.0
 40
1.999999976066088
100
AcDbArc
 50
90.0
 51
172.9988403320312
  0
ARC
  5
305
330
1F
100
AcDbEntity
  8
3-2
  6
Continuous
 62
     6
370
     9
100
AcDbCircle
 10
-111.6448339074042
 20
-76.82637219964944
 30
0.0
 40
0.9999999880330441
100
AcDbArc
 50
190.3056030273438
 51
270.0
  0
ARC
  5
306
330
1F
100
AcDbEntity
  8
3-2
  6
Continuous
 62
     6
370
     9
100
AcDbCircle
 10
-101.7304182754287
 20
-74.82640448465489
 30
0.0
 40
2.999999964099133
100
AcDbArc
 50
270.0
 51
345.0002746582031
  0
ARC
  5
307
330
1F
100
AcDbEntity
  8
3-2
  6
Continuous
 62
     6
370
     9
100
AcDbCircle
 10
21.68590965397592
 20
-76.82637219964944
 30
0.0
 40
0.9999999880330441
100
AcDbArc
 50
270.0
 51
349.6943969726562
  0
ARC
  5
308
330
1F
100
AcDbEntity
  8
3-2
  6
Continuous
 62
     6
370
     9
100
AcDbCircle
 10
11.77152901706111
 20
-74.82640448465489
 30
0.0
 40
2.999999964099133
100
AcDbArc
 50
194.9997253417969
 51
270.0
  0
ARC
  5
309
330
1F
100
AcDbEntity
  8
3-2
  6
Continuous
 62
     6
370
     9
100
AcDbCircle
 10
12.10419206340824
 20
-76.32636277337042
 30
0.0
 40
1.499999982049566
100
AcDbArc
 50
270.0
 51
345.7299499511719
  0
ARC
  5
30A
330
1F
100
AcDbEntity
  8
3-2
  6
Continuous
 62
     6
370
     9
100
AcDbCircle
 10
-104.7813926463189
 20
-68.82636135942859
 30
0.0
 40
2.999999964099133
100
AcDbArc
 50
270.0
 51
344.9998626708984
  0
ARC
  5
30B
330
1F
100
AcDbEntity
  8
3-2
  6
Continuous
 62
     6
370
     9
100
AcDbCircle
 10
-105.2381131825988
 20
-76.32636277337042
 30
0.0
 40
1.499999982049566
100
AcDbArc
 50
270.0
 51
344.9998779296876
  0
ARC
  5
30C
330
1F
100
AcDbEntity
  8
3-2
  6
JWW_CENTER1
 62
     6
370
     9
100
AcDbCircle
 10
-39.45448569830297
 20
15.67362190892621
 30
0.0
 40
1.499999982049566
100
AcDbArc
 50
90.0
 51
180.9451141357422
  0
ARC
  5
30D
330
1F
100
AcDbEntity
  8
3-2
  6
JWW_CENTER1
 62
     6
370
     9
100
AcDbCircle
 10
-40.95468895244299
 20
15.67362190892621
 30
0.0
 40
1.499999982049566
100
AcDbArc
 50
90.0
 51
180.9451141357422
  0
ARC
  5
30E
330
1F
100
AcDbEntity
  8
3-2
  6
JWW_CENTER1
 62
     6
370
     9
100
AcDbCircle
 10
-50.50435106747376
 20
15.67362190892621
 30
0.0
 40
1.499999982049566
100
AcDbArc
 50
359.0548858642578
 51
90.00000000000001
  0
ARC
  5
30F
330
1F
100
AcDbEntity
  8
3-2
  6
JWW_CENTER1
 62
     6
370
     9
100
AcDbCircle
 10
-49.00414781333372
 20
15.67362190892621
 30
0.0
 40
1.499999982049566
100
AcDbArc
 50
359.0548858642578
 51
90.00000000000001
  0
ARC
  5
310
330
1F
100
AcDbEntity
  8
3-2
  6
Continuous
 62
     6
370
     9
100
AcDbCircle
 10
-69.19139848825529
 20
17.63278538322644
 30
0.0
 40
9.00000016569631
100
AcDbArc
 50
97.2826385498047
 51
164.9999389648437
  0
ARC
  5
311
330
1F
100
AcDbEntity
  8
3-2
  6
Continuous
 62
     6
370
     9
100
AcDbCircle
 10
-69.19139848825529
 20
17.63278538322644
 30
0.0
 40
4.500000082848155
100
AcDbArc
 50
97.2826385498047
 51
164.9999389648437
  0
ARC
  5
312
330
1F
100
AcDbEntity
  8
3-2
  6
Continuous
 62
     6
370
     9
100
AcDbCircle
 10
-20.7674382775214
 20
17.63278538322644
 30
0.0
 40
4.500000082848155
100
AcDbArc
 50
15.00006103515626
 51
82.71736145019533
  0
ARC
  5
313
330
1F
100
AcDbEntity
  8
3-2
  6
Continuous
 62
     6
370
     9
100
AcDbCircle
 10
-20.7674382775214
 20
17.63278538322644
 30
0.0
 40
9.00000016569631
100
AcDbArc
 50
15.00006103515626
 51
82.71736145019533
  0
ARC
  5
314
330
1F
100
AcDbEntity
  8
3-2
  6
Continuous
 62
     6
370
     9
100
AcDbCircle
 10
-44.97941838288835
 20
-171.8263784445592
 30
0.0
 40
200.0000085425653
100
AcDbArc
 50
82.71734619140625
 51
97.28265380859375
  0
ARC
  5
315
330
1F
100
AcDbEntity
  8
3-2
  6
Continuous
 62
     6
370
     9
100
AcDbCircle
 10
-44.97941838288835
 20
-171.8263784445592
 30
0.0
 40
195.5000111937063
100
AcDbArc
 50
82.71734619140625
 51
97.28265380859375
  0
LINE
  5
316
330
1F
100
AcDbEntity
  8
3-5
  6
Continuous
 62
     7
370
     9
100
AcDbLine
 10
-143.0966971410515
 20
-75.66978544583368
 30
0.0
 11
-174.5959855718801
 21
-33.78920293381184
 31
0.0
  0
LINE
  5
317
330
1F
100
AcDbEntity
  8
3-5
  6
Continuous
 62
     7
370
     9
100
AcDbLine
 10
-143.0966971410515
 20
-75.66978544583368
 30
0.0
 11
-148.3486234490937
 21
-70.31560296342842
 31
0.0
  0
LINE
  5
318
330
1F
100
AcDbEntity
  8
3-5
  6
Continuous
 62
     7
370
     9
100
AcDbLine
 10
-143.0966971410515
 20
-75.66978544583368
 30
0.0
 11
-146.7839040023556
 21
-69.13874375541766
 31
0.0
  0
LINE
  5
319
330
1F
100
AcDbEntity
  8
3-5
  6
Continuous
 62
     7
370
     9
100
AcDbLine
 10
-92.0966455321742
 20
-55.85936158377404
 30
0.0
 11
-97.32382491294402
 21
-50.48101651105372
 31
0.0
  0
LINE
  5
31A
330
1F
100
AcDbEntity
  8
3-5
  6
Continuous
 62
     7
370
     9
100
AcDbLine
 10
-92.0966455321742
 20
-55.85936158377404
 30
0.0
 11
-95.75369495875225
 21
-49.3113855994285
 31
0.0
  0
LINE
  5
31B
330
1F
100
AcDbEntity
  8
3-4
  6
Continuous
 62
     7
370
     9
100
AcDbLine
 10
-113.4793799708015
 20
45.47446194077984
 30
0.0
 11
23.52049071243394
 21
45.47446194077984
 31
0.0
  0
LINE
  5
31C
330
1F
100
AcDbEntity
  8
3-4
  6
Continuous
 62
     7
370
     9
100
AcDbLine
 10
-113.4793799708015
 20
45.47446194077984
 30
0.0
 11
-106.0435435104979
 21
46.45340838243025
 31
0.0
  0
LINE
  5
31D
330
1F
100
AcDbEntity
  8
3-4
  6
Continuous
 62
     7
370
     9
100
AcDbLine
 10
-113.4793799708015
 20
45.47446194077984
 30
0.0
 11
-106.0435435104979
 21
44.49551549912947
 31
0.0
  0
LINE
  5
31E
330
1F
100
AcDbEntity
  8
3-4
  6
Continuous
 62
     7
370
     9
100
AcDbLine
 10
23.52049071243394
 20
45.47446194077984
 30
0.0
 11
16.08465425213032
 21
46.45340838243025
 31
0.0
  0
LINE
  5
31F
330
1F
100
AcDbEntity
  8
3-4
  6
Continuous
 62
     7
370
     9
100
AcDbLine
 10
23.52049071243394
 20
45.47446194077984
 30
0.0
 11
16.08465425213032
 21
44.49551549912947
 31
0.0
  0
LINE
  5
320
330
1F
100
AcDbEntity
  8
3-4
  6
Continuous
 62
     7
370
     9
100
AcDbLine
 10
-113.4793799708015
 20
46.37446194077985
 30
0.0
 11
-113.4793799708015
 21
-66.74189128998921
 31
0.0
  0
LINE
  5
321
330
1F
100
AcDbEntity
  8
3-4
  6
Continuous
 62
     7
370
     9
100
AcDbLine
 10
23.52049071243394
 20
46.37446194077985
 30
0.0
 11
23.52049071243394
 21
-66.74189128998921
 31
0.0
  0
LINE
  5
322
330
1F
100
AcDbEntity
  8
3-4
  6
Continuous
 62
     7
370
     9
100
AcDbLine
 10
-134.9763402282296
 20
69.47446194077983
 30
0.0
 11
45.0206160819441
 21
69.47446194077983
 31
0.0
  0
LINE
  5
323
330
1F
100
AcDbEntity
  8
3-4
  6
Continuous
 62
     7
370
     9
100
AcDbLine
 10
-134.9763402282296
 20
69.47446194077983
 30
0.0
 11
-127.5405037679262
 21
70.45340838243024
 31
0.0
  0
LINE
  5
324
330
1F
100
AcDbEntity
  8
3-4
  6
Continuous
 62
     7
370
     9
100
AcDbLine
 10
-134.9763402282296
 20
69.47446194077983
 30
0.0
 11
-127.5405037679262
 21
68.49551549912948
 31
0.0
  0
LINE
  5
325
330
1F
100
AcDbEntity
  8
3-4
  6
Continuous
 62
     7
370
     9
100
AcDbLine
 10
45.0206160819441
 20
69.47446194077983
 30
0.0
 11
37.58477962164048
 21
70.45340838243024
 31
0.0
  0
LINE
  5
326
330
1F
100
AcDbEntity
  8
3-4
  6
Continuous
 62
     7
370
     9
100
AcDbLine
 10
45.0206160819441
 20
69.47446194077983
 30
0.0
 11
37.58477962164048
 21
68.49551549912948
 31
0.0
  0
LINE
  5
327
330
1F
100
AcDbEntity
  8
3-4
  6
Continuous
 62
     7
370
     9
100
AcDbLine
 10
-134.9763402282296
 20
70.37446194077984
 30
0.0
 11
-134.9763402282296
 21
-72.72976347180646
 31
0.0
  0
LINE
  5
328
330
1F
100
AcDbEntity
  8
3-4
  6
Continuous
 62
     7
370
     9
100
AcDbLine
 10
45.0206160819441
 20
70.37446194077984
 30
0.0
 11
45.0206160819441
 21
-72.74193441521544
 31
0.0
  0
LINE
  5
329
330
1F
100
AcDbEntity
  8
3-4
  6
Continuous
 62
     7
370
     9
100
AcDbLine
 10
-144.9794314029362
 20
93.47446194077983
 30
0.0
 11
55.02052464703823
 21
93.47446194077983
 31
0.0
  0
LINE
  5
32A
330
1F
100
AcDbEntity
  8
3-4
  6
Continuous
 62
     7
370
     9
100
AcDbLine
 10
-144.9794314029362
 20
93.47446194077983
 30
0.0
 11
-137.5435949426326
 21
94.45340838243024
 31
0.0
  0
LINE
  5
32B
330
1F
100
AcDbEntity
  8
3-4
  6
Continuous
 62
     7
370
     9
100
AcDbLine
 10
-144.9794314029362
 20
93.47446194077983
 30
0.0
 11
-137.5435949426326
 21
92.49551549912948
 31
0.0
  0
LINE
  5
32C
330
1F
100
AcDbEntity
  8
3-4
  6
Continuous
 62
     7
370
     9
100
AcDbLine
 10
55.02052464703823
 20
93.47446194077983
 30
0.0
 11
47.58468818673461
 21
94.45340838243024
 31
0.0
  0
LINE
  5
32D
330
1F
100
AcDbEntity
  8
3-4
  6
Continuous
 62
     7
370
     9
100
AcDbLine
 10
55.02052464703823
 20
93.47446194077983
 30
0.0
 11
47.58468818673461
 21
92.49551549912948
 31
0.0
  0
LINE
  5
32E
330
1F
100
AcDbEntity
  8
3-4
  6
Continuous
 62
     7
370
     9
100
AcDbLine
 10
-144.9794314029362
 20
94.37446194077984
 30
0.0
 11
-144.9794314029362
 21
-81.08538678045738
 31
0.0
  0
LINE
  5
32F
330
1F
100
AcDbEntity
  8
3-4
  6
Continuous
 62
     7
370
     9
100
AcDbLine
 10
55.02052464703823
 20
94.37446194077984
 30
0.0
 11
55.02052464703823
 21
-81.08538678045738
 31
0.0
  0
TEXT
  5
330
330
1F
100
AcDbEntity
  8
3-4
  6
Continuous
 62
     2
370
   211
100
AcDbText
 10
-61.4794446291838
 20
50.16646194077984
 30
0.0
 40
9.144
  1
φ137
 41
1.1
  7
ＭＳ ゴシック
100
AcDbText
  0
TEXT
  5
331
330
1F
100
AcDbEntity
  8
3-4
  6
Continuous
 62
     2
370
   211
100
AcDbText
 10
-61.47786207314286
 20
74.16646194077984
 30
0.0
 40
9.144
  1
φ180
 41
1.100000000000003
  7
ＭＳ ゴシック
100
AcDbText
  0
TEXT
  5
332
330
1F
100
AcDbEntity
  8
3-4
  6
Continuous
 62
     2
370
   211
100
AcDbText
 10
-61.47945337794897
 20
98.16646194077984
 30
0.0
 40
9.144
  1
φ200
 41
1.1
  7
ＭＳ ゴシック
100
AcDbText
  0
LINE
  5
333
330
1F
100
AcDbEntity
  8
3-4
  6
Continuous
 62
     7
370
     9
100
AcDbLine
 10
91.1227981374955
 20
-87.66986896229699
 30
0.0
 11
90.14385169584517
 21
-80.23403250199343
 31
0.0
  0
LINE
  5
334
330
1F
100
AcDbEntity
  8
3-4
  6
Continuous
 62
     7
370
     9
100
AcDbLine
 10
91.1227981374955
 20
-87.66986896229699
 30
0.0
 11
92.1017445791459
 21
-80.23403250199343
 31
0.0
  0
LINE
  5
335
330
1F
100
AcDbEntity
  8
3-4
  6
Continuous
 62
     7
370
     9
100
AcDbLine
 10
91.1227981374955
 20
-75.66981770690518
 30
0.0
 11
92.1017445791459
 21
-83.10565416720874
 31
0.0
  0
LINE
  5
336
330
1F
100
AcDbEntity
  8
3-4
  6
Continuous
 62
     7
370
     9
100
AcDbLine
 10
91.1227981374955
 20
-75.66981770690518
 30
0.0
 11
90.14385169584517
 21
-83.10565416720874
 31
0.0
  0
LINE
  5
337
330
1F
100
AcDbEntity
  8
3-4
  6
Continuous
 62
     7
370
     9
100
AcDbLine
 10
120.1902804000594
 20
-75.66981770690518
 30
0.0
 11
121.1692268417098
 21
-68.23398124660159
 31
0.0
  0
LINE
  5
338
330
1F
100
AcDbEntity
  8
3-4
  6
Continuous
 62
     7
370
     9
100
AcDbLine
 10
120.1902804000594
 20
-75.66981770690518
 30
0.0
 11
119.2113339584091
 21
-68.23398124660159
 31
0.0
  0
LINE
  5
339
330
1F
100
AcDbEntity
  8
3-4
  6
Continuous
 62
     7
370
     9
100
AcDbLine
 10
121.0902804000595
 20
-75.66981770690518
 30
0.0
 11
59.02048694192234
 21
-75.66981770690518
 31
0.0
  0
LINE
  5
33A
330
1F
100
AcDbEntity
  8
3-4
  6
Continuous
 62
     7
370
     9
100
AcDbLine
 10
120.1902804000594
 20
-75.66981770690518
 30
0.0
 11
120.1902804000594
 21
-135.6698262844508
 31
0.0
  0
LINE
  5
33B
330
1F
100
AcDbEntity
  8
3-4
  6
Continuous
 62
     7
370
     9
100
AcDbLine
 10
120.1902804000594
 20
-75.66981770690518
 30
0.0
 11
121.1692268417098
 21
-83.10565416720874
 31
0.0
  0
LINE
  5
33C
330
1F
100
AcDbEntity
  8
3-4
  6
Continuous
 62
     7
370
     9
100
AcDbLine
 10
120.1902804000594
 20
-75.66981770690518
 30
0.0
 11
119.2113339584091
 21
-83.10565416720874
 31
0.0
  0
LINE
  5
33D
330
1F
100
AcDbEntity
  8
3-4
  6
Continuous
 62
     7
370
     9
100
AcDbLine
 10
120.1902804000594
 20
-135.6698262844508
 30
0.0
 11
121.1692268417098
 21
-128.2339898241473
 31
0.0
  0
LINE
  5
33E
330
1F
100
AcDbEntity
  8
3-4
  6
Continuous
 62
     7
370
     9
100
AcDbLine
 10
120.1902804000594
 20
-135.6698262844508
 30
0.0
 11
119.2113339584091
 21
-128.2339898241473
 31
0.0
  0
LINE
  5
33F
330
1F
100
AcDbEntity
  8
3-4
  6
Continuous
 62
     7
370
     9
100
AcDbLine
 10
121.0902804000595
 20
-135.6698262844508
 30
0.0
 11
8.801595076424064
 21
-135.6698262844508
 31
0.0
  0
TEXT
  5
340
330
1F
100
AcDbEntity
  8
3-4
  6
Continuous
 62
     2
370
   211
100
AcDbText
 10
115.4982804000594
 20
-112.044821995678
 30
0.0
 40
9.144
  1
60
 50
90.0
 41
1.0625
  7
ＭＳ ゴシック
100
AcDbText
  0
LINE
  5
341
330
1F
100
AcDbEntity
  8
3-4
  6
Continuous
 62
     7
370
     9
100
AcDbLine
 10
92.02279813749553
 20
-87.66986896229699
 30
0.0
 11
60.02050579448024
 21
-87.66986896229699
 31
0.0
  0
TEXT
  5
342
330
1F
100
AcDbEntity
  8
3-4
  6
Continuous
 62
     2
370
   211
100
AcDbText
 10
87.51428552235245
 20
-102.5066440150974
 30
0.0
 40
9.144
  1
12
 50
90.0
 41
1.0625
  7
ＭＳ ゴシック
100
AcDbText
  0
LINE
  5
343
330
1F
100
AcDbEntity
  8
3-4
  6
Continuous
 62
     7
370
     9
100
AcDbLine
 10
91.1227981374955
 20
-75.66981770690518
 30
0.0
 11
91.1227981374955
 21
-105.8589602585046
 31
0.0
  0
LINE
  5
344
330
1F
100
AcDbEntity
  8
3-4
  6
Continuous
 62
     7
370
     9
100
AcDbLine
 10
33.90204201139423
 20
-77.18212045233396
 30
0.0
 11
35.34659514357867
 21
-69.82255074695743
 31
0.0
  0
LINE
  5
345
330
1F
100
AcDbEntity
  8
3-4
  6
Continuous
 62
     7
370
     9
100
AcDbLine
 10
33.90204201139423
 20
-77.18212045233396
 30
0.0
 11
37.20216999272894
 21
-70.44719986580796
 31
0.0
  0
LINE
  5
346
330
1F
100
AcDbEntity
  8
3-4
  6
Continuous
 62
     7
370
     9
100
AcDbLine
 10
18.52060642000814
 20
-66.92641827647924
 30
0.0
 11
20.06442347208445
 21
-59.58702941161328
 31
0.0
  0
LINE
  5
347
330
1F
100
AcDbEntity
  8
3-4
  6
Continuous
 62
     7
370
     9
100
AcDbLine
 10
18.52060642000814
 20
-66.92641827647924
 30
0.0
 11
21.91139279931478
 21
-60.23668227795817
 31
0.0
  0
LINE
  5
348
330
1F
100
AcDbEntity
  8
3-4
  6
Continuous
 62
     7
370
     9
100
AcDbLine
 10
5.663484178683518
 20
-46.26522374220004
 30
0.0
 11
7.292836264800421
 21
-38.94434867295683
 31
0.0
  0
LINE
  5
349
330
1F
100
AcDbEntity
  8
3-4
  6
Continuous
 62
     7
370
     9
100
AcDbLine
 10
5.663484178683518
 20
-46.26522374220004
 30
0.0
 11
9.132099333518177
 21
-39.61550879284684
 31
0.0
  0
LINE
  5
34A
330
1F
100
AcDbEntity
  8
3-4
  6
Continuous
 62
     7
370
     9
100
AcDbLine
 10
120.1902804000594
 20
-75.66981770690518
 30
0.0
 11
120.1902804000594
 21
28.17363009800611
 31
0.0
  0
LINE
  5
34B
330
1F
100
AcDbEntity
  8
3-4
  6
Continuous
 62
     7
370
     9
100
AcDbLine
 10
120.1902804000594
 20
28.17363009800611
 30
0.0
 11
119.2113339584091
 21
20.73779363770253
 31
0.0
  0
LINE
  5
34C
330
1F
100
AcDbEntity
  8
3-4
  6
Continuous
 62
     7
370
     9
100
AcDbLine
 10
120.1902804000594
 20
28.17363009800611
 30
0.0
 11
121.1692268417098
 21
20.73779363770253
 31
0.0
  0
LINE
  5
34D
330
1F
100
AcDbEntity
  8
3-4
  6
Continuous
 62
     7
370
     9
100
AcDbLine
 10
121.0902804000594
 20
28.17363009800611
 30
0.0
 11
-22.27790878882494
 21
28.17363009800612
 31
0.0
  0
TEXT
  5
34E
330
1F
100
AcDbEntity
  8
3-4
  6
Continuous
 62
     2
370
   211
100
AcDbText
 10
115.4982804000594
 20
-33.49809380444953
 30
0.0
 40
9.144
  1
104
 50
90.0
 41
1.083333333333333
  7
ＭＳ ゴシック
100
AcDbText
  0
LINE
  5
34F
330
1F
100
AcDbEntity
  8
3-4
  6
Continuous
 62
     7
370
     9
100
AcDbLine
 10
-87.39621397355782
 20
-172.1887119068373
 30
0.0
 11
-2.562640289749197
 21
-172.1887119068373
 31
0.0
  0
LINE
  5
350
330
1F
100
AcDbEntity
  8
3-4
  6
Continuous
 62
     7
370
     9
100
AcDbLine
 10
-87.39621397355782
 20
-172.1887119068373
 30
0.0
 11
-79.9603775132542
 21
-171.2097654651869
 31
0.0
  0
LINE
  5
351
330
1F
100
AcDbEntity
  8
3-4
  6
Continuous
 62
     7
370
     9
100
AcDbLine
 10
-87.39621397355782
 20
-172.1887119068373
 30
0.0
 11
-79.9603775132542
 21
-173.1676583484877
 31
0.0
  0
LINE
  5
352
330
1F
100
AcDbEntity
  8
3-4
  6
Continuous
 62
     7
370
     9
100
AcDbLine
 10
-2.562640289749197
 20
-172.1887119068373
 30
0.0
 11
-9.998476750052731
 21
-171.2097654651869
 31
0.0
  0
LINE
  5
353
330
1F
100
AcDbEntity
  8
3-4
  6
Continuous
 62
     7
370
     9
100
AcDbLine
 10
-2.562640289749197
 20
-172.1887119068373
 30
0.0
 11
-9.998476750052731
 21
-173.1676583484877
 31
0.0
  0
LINE
  5
354
330
1F
100
AcDbEntity
  8
3-4
  6
Continuous
 62
     7
370
     9
100
AcDbLine
 10
-87.39621397355782
 20
-173.0887119068373
 30
0.0
 11
-87.39621397355782
 21
-140.19080050997
 31
0.0
  0
LINE
  5
355
330
1F
100
AcDbEntity
  8
3-4
  6
Continuous
 62
     7
370
     9
100
AcDbLine
 10
-2.562640289749197
 20
-173.0887119068373
 30
0.0
 11
-2.562640289749197
 21
-140.19080050997
 31
0.0
  0
TEXT
  5
356
330
1F
100
AcDbEntity
  8
3-5
  6
Continuous
 62
     2
370
     9
100
AcDbText
 10
-55.12917142181882
 20
-168.7389374253597
 30
0.0
 40
9.144
  1
RC3
 41
1.083333333333333
  7
ＭＳ ゴシック
100
AcDbText
  0
LINE
  5
357
330
1F
100
AcDbEntity
  8
3-5
  6
Continuous
 62
     7
370
     9
100
AcDbLine
 10
-87.39621397355782
 20
-196.1887119068373
 30
0.0
 11
-2.562640289749197
 21
-196.1887119068373
 31
0.0
  0
LINE
  5
358
330
1F
100
AcDbEntity
  8
3-4
  6
Continuous
 62
     7
370
     9
100
AcDbLine
 10
-120.9197391411372
 20
-196.1887119068373
 30
0.0
 11
29.96805067299434
 21
-196.1887119068373
 31
0.0
  0
LINE
  5
359
330
1F
100
AcDbEntity
  8
3-4
  6
Continuous
 62
     7
370
     9
100
AcDbLine
 10
-120.9197391411372
 20
-196.1887119068373
 30
0.0
 11
-113.4839026808338
 21
-195.2097654651869
 31
0.0
  0
LINE
  5
35A
330
1F
100
AcDbEntity
  8
3-4
  6
Continuous
 62
     7
370
     9
100
AcDbLine
 10
-120.9197391411372
 20
-196.1887119068373
 30
0.0
 11
-113.4839026808338
 21
-197.1676583484877
 31
0.0
  0
LINE
  5
35B
330
1F
100
AcDbEntity
  8
3-4
  6
Continuous
 62
     7
370
     9
100
AcDbLine
 10
29.96805067299434
 20
-196.1887119068373
 30
0.0
 11
22.5322142126908
 21
-195.2097654651869
 31
0.0
  0
LINE
  5
35C
330
1F
100
AcDbEntity
  8
3-4
  6
Continuous
 62
     7
370
     9
100
AcDbLine
 10
29.96805067299434
 20
-196.1887119068373
 30
0.0
 11
22.5322142126908
 21
-197.1676583484877
 31
0.0
  0
LINE
  5
35D
330
1F
100
AcDbEntity
  8
3-4
  6
Continuous
 62
     7
370
     9
100
AcDbLine
 10
-120.9197391411372
 20
-197.0887119068373
 30
0.0
 11
-120.9197391411372
 21
-93.66983670122545
 31
0.0
  0
LINE
  5
35E
330
1F
100
AcDbEntity
  8
3-4
  6
Continuous
 62
     7
370
     9
100
AcDbLine
 10
29.96805067299434
 20
-197.0887119068373
 30
0.0
 11
29.96805067299434
 21
-94.61435338762448
 31
0.0
  0
TEXT
  5
35F
330
1F
100
AcDbEntity
  8
3-4
  6
Continuous
 62
     2
370
   211
100
AcDbText
 10
-65.35084423407145
 20
-191.4967119068373
 30
0.0
 40
9.144
  1
φ150
 41
1.1
  7
ＭＳ ゴシック
100
AcDbText
  0
LINE
  5
360
330
1F
100
AcDbEntity
  8
3-E
  6
Continuous
 62
     7
370
     9
100
AcDbLine
 10
-92.0966455321742
 20
-55.85936158377404
 30
0.0
 11
-161.353254215867
 21
37.11174129936689
 31
0.0
  0
LINE
  5
361
330
1F
100
AcDbEntity
  8
3-5
  6
Continuous
 62
     7
370
     9
100
AcDbLine
 10
18.52060642000814
 20
-66.92641827647924
 30
0.0
 11
86.67388068380299
 21
127.3546628858562
 31
0.0
  0
LINE
  5
362
330
1F
100
AcDbEntity
  8
3-5
  6
Continuous
 62
     7
370
     9
100
AcDbLine
 10
5.663484178683518
 20
-46.26522374220004
 30
0.0
 11
85.50662907030838
 21
172.7075100615221
 31
0.0
  0
LINE
  5
363
330
1F
100
AcDbEntity
  8
3-5
  6
Continuous
 62
     7
370
     9
100
AcDbLine
 10
33.90204201139423
 20
-77.18212045233396
 30
0.0
 11
91.11393401952583
 21
93.72920545810646
 31
0.0
  0
TEXT
  5
364
330
1F
100
AcDbEntity
  8
3-5
  6
Continuous
 62
     6
370
     9
100
AcDbText
 10
-62.73496771560087
 20
347.3394443374813
 30
0.0
 40
5.333999999999976
  1
Ｏ
 50
196.999963107001
 41
1.000000000000004
  7
ＭＳ ゴシック
100
AcDbText
  0
TEXT
  5
365
330
1F
100
AcDbEntity
  8
3-5
  6
Continuous
 62
     6
370
     9
100
AcDbText
 10
-54.42708930886006
 20
348.7815547881554
 30
0.0
 40
5.333999999999997
  1
Ｓ
 50
190.9999855304829
 41
1.000000000000004
  7
ＭＳ ゴシック
100
AcDbText
  0
TEXT
  5
366
330
1F
100
AcDbEntity
  8
3-5
  6
Continuous
 62
     6
370
     9
100
AcDbText
 10
-46.01397419299285
 20
349.3473549633999
 30
0.0
 40
5.333999999999992
  1
Ｅ
 50
184.9999532191956
 41
1.000000000000019
  7
ＭＳ ゴシック
100
AcDbText
  0
TEXT
  5
367
330
1F
100
AcDbEntity
  8
3-5
  6
Continuous
 62
     6
370
     9
100
AcDbText
 10
-37.587777079455
 20
349.030658215342
 30
0.0
 40
5.333999999999995
  1
Ｎ
 50
178.9999037577848
 41
0.9999999999999819
  7
ＭＳ ゴシック
100
AcDbText
  0
TEXT
  5
368
330
1F
100
AcDbEntity
  8
3-5
  6
Continuous
 62
     6
370
     9
100
AcDbText
 10
-29.24082124710204
 20
347.8349030970319
 30
0.0
 40
5.334000000000017
  1
Ａ
 50
172.9998730135579
 41
1.000000000000001
  7
ＭＳ ゴシック
100
AcDbText
  0
TEXT
  5
369
330
1F
100
AcDbEntity
  8
3-5
  6
Continuous
 62
     6
370
     9
100
AcDbText
 10
-21.06463843466085
 20
345.7732329907578
 30
0.0
 40
5.333999999999987
  1
Ｋ
 50
167.0000368929983
 41
0.9999999999999962
  7
ＭＳ ゴシック
100
AcDbText
  0
TEXT
  5
36A
330
1F
100
AcDbEntity
  8
3-E
  6
Continuous
 62
     7
370
     9
100
AcDbText
 10
-258.3831091908876
 20
-30.88989332285935
 30
0.0
 40
6.858000000000001
  1
本体：ＦＣ１５０
 41
1.145833333333333
  7
ＭＳ ゴシック
100
AcDbText
  0
TEXT
  5
36B
330
1F
100
AcDbEntity
  8
3-E
  6
Continuous
 62
     7
370
     9
100
AcDbText
 10
-256.5614373254659
 20
-43.59873059834162
 30
0.0
 40
6.858000000000001
  1
樹脂系塗装（黒）
 41
1.145833333333333
  7
ＭＳ ゴシック
100
AcDbText
  0
LINE
  5
36C
330
1F
100
AcDbEntity
  8
3-E
  6
Continuous
 62
     7
370
     9
100
AcDbLine
 10
-174.5959855718801
 20
-33.78920293381184
 30
0.0
 11
-259.7828282947112
 21
-33.78920293381184
 31
0.0
  0
TEXT
  5
36D
330
1F
100
AcDbEntity
  8
F-5ﾚｲﾔ
  6
Continuous
 62
     2
370
     9
100
AcDbText
 10
-36.90282796543596
 20
-330.9252820109976
 30
0.0
 40
9.144
  1
アルミニウム製ルーフドレン（本体：鋳鉄製）たて引き用
 41
0.7740384615384616
  7
ＭＳ ゴシック
100
AcDbText
  0
TEXT
  5
36E
330
1F
100
AcDbEntity
  8
F-5ﾚｲﾔ
  6
Continuous
 62
     2
370
     9
100
AcDbText
 10
-36.8347257355878
 20
-345.8256075089868
 30
0.0
 40
9.144
  1
木付け用　ねじ込み式　シート防水用　ＥＷＨＳＰ－２－７５
 41
0.7741071428571429
  7
ＭＳ ゴシック
100
AcDbText
  0
TEXT
  5
36F
330
1F
100
AcDbEntity
  8
3-5
  6
Continuous
 62
     7
370
     9
100
AcDbText
 10
122.2444784560931
 20
117.8224579040255
 30
0.0
 40
6.858000000000001
  1
Ｍ６×１２
 41
1.133333333333333
  7
ＭＳ ゴシック
100
AcDbText
  0
LINE
  5
370
330
1F
100
AcDbEntity
  8
3-E
  6
Continuous
 62
     7
370
     9
100
AcDbLine
 10
85.50662907030838
 20
172.7075100615221
 30
0.0
 11
212.7176284306826
 21
172.7075100615221
 31
0.0
  0
LINE
  5
371
330
1F
100
AcDbEntity
  8
3-E
  6
Continuous
 62
     7
370
     9
100
AcDbLine
 10
209.3244057730108
 20
93.72920545810646
 30
0.0
 11
91.11393401952583
 21
93.72920545810646
 31
0.0
  0
TEXT
  5
372
330
1F
100
AcDbEntity
  8
3-E
  6
Continuous
 62
     7
370
     9
100
AcDbText
 10
92.3774721541411
 20
98.42003839333663
 30
0.0
 40
6.858000000000001
  1
防水層押え：ＡＤＣ１２
 41
1.151515151515151
  7
ＭＳ ゴシック
100
AcDbText
  0
TEXT
  5
373
330
1F
100
AcDbEntity
  8
3-E
  6
Continuous
 62
     7
370
     9
100
AcDbText
 10
87.50449689388242
 20
177.3983429967523
 30
0.0
 40
6.858000000000001
  1
ストレーナー：ＡＤＣ１２
 41
1.152777777777777
  7
ＭＳ ゴシック
100
AcDbText
  0
TEXT
  5
374
330
1F
100
AcDbEntity
  8
3-E
  6
Continuous
 62
     7
370
     9
100
AcDbText
 10
97.36212875049551
 20
161.599409297428
 30
0.0
 40
6.858000000000001
  1
樹脂系塗装（グレー）
 41
1.15
  7
ＭＳ ゴシック
100
AcDbText
  0
TEXT
  5
375
330
1F
100
AcDbEntity
  8
3-E
  6
Continuous
 62
     7
370
     9
100
AcDbText
 10
98.4691698962683
 20
82.62110469401233
 30
0.0
 40
6.858000000000001
  1
樹脂系塗装（グレー）
 41
1.15
  7
ＭＳ ゴシック
100
AcDbText
  0
TEXT
  5
376
330
1F
100
AcDbEntity
  8
3-5
  6
Continuous
 62
     7
370
     9
100
AcDbText
 10
87.23325513482268
 20
132.5317885974789
 30
0.0
 40
6.858000000000001
  1
丸小ねじ：ＳＵＳ３０４
 41
1.151515151515151
  7
ＭＳ ゴシック
100
AcDbText
  0
LINE
  5
377
330
1F
100
AcDbEntity
  8
3-5
  6
Continuous
 62
     7
370
     9
100
AcDbLine
 10
86.67388068380299
 20
127.3546628858562
 30
0.0
 11
199.9424910401036
 21
127.3546628858562
 31
0.0
  0
TEXT
  5
378
330
1F
100
AcDbEntity
  8
3-5
  6
Continuous
 62
     7
370
     9
100
AcDbText
 10
-265.8180941453995
 20
42.28886701098959
 30
0.0
 40
6.858000000000001
  1
ボルト：Ｃ３６０２Ｗ
 41
1.15
  7
ＭＳ ゴシック
100
AcDbText
  0
LINE
  5
379
330
1F
100
AcDbEntity
  8
3-5
  6
Continuous
 62
     7
370
     9
100
AcDbLine
 10
-265.4909885025281
 20
37.11174129936689
 30
0.0
 11
-161.353254215867
 21
37.11174129936689
 31
0.0
  0
TEXT
  5
37A
330
1F
100
AcDbEntity
  8
3-5
  6
Continuous
 62
     7
370
     9
100
AcDbText
 10
-238.9221213591975
 20
27.57953631753624
 30
0.0
 40
6.858000000000001
  1
Ｍ８×４０
 41
1.133333333333333
  7
ＭＳ ゴシック
100
AcDbText
  0
LINE
  5
37B
330
1F
100
AcDbEntity
  8
3-E
  6
Continuous
 62
     7
370
     9
100
AcDbLine
 10
-155.2024878245897
 20
-149.3330922356255
 30
0.0
 11
-264.8847297169062
 21
-149.3330922356255
 31
0.0
  0
TEXT
  5
37C
330
1F
100
AcDbEntity
  8
3-E
  6
Continuous
 62
     7
370
     9
100
AcDbText
 10
-261.4949182857961
 20
-146.170249973491
 30
0.0
 40
6.858000000000001
  1
木ねじ：ＳＵＳ３０４
 41
1.149999999999999
  7
ＭＳ ゴシック
100
AcDbText
  0
TEXT
  5
37D
330
1F
100
AcDbEntity
  8
3-5
  6
Continuous
 62
     7
370
     9
100
AcDbText
 10
-240.793608770748
 20
-159.4250400377612
 30
0.0
 40
6.858000000000001
  1
４．１×３８
 41
1.138888888888888
  7
ＭＳ ゴシック
100
AcDbText
  0
LINE
  5
37E
330
1F
100
AcDbEntity
  8
3-4
  6
Continuous
 62
     7
370
     9
100
AcDbLine
 10
-136.9793855676547
 20
-117.769753255091
 30
0.0
 11
-155.2024878245897
 21
-149.3330922356255
 31
0.0
  0
LINE
  5
37F
330
1F
100
AcDbEntity
  8
3-4
  6
Continuous
 62
     7
370
     9
100
AcDbLine
 10
-136.9793855676547
 20
-117.769753255091
 30
0.0
 11
-139.8495113103929
 21
-124.6988497489257
 31
0.0
  0
LINE
  5
380
330
1F
100
AcDbEntity
  8
3-4
  6
Continuous
 62
     7
370
     9
100
AcDbLine
 10
-136.9793855676547
 20
-117.769753255091
 30
0.0
 11
-141.5450962852201
 21
-123.7199033072753
 31
0.0
  0
ENDSEC
  0
SECTION
  2
OBJECTS
  0
DICTIONARY
  5
C
330
0
100
AcDbDictionary
281
     1
  3
ACAD_DETAILVIEWSTYLE
350
3C6
  3
ACAD_GROUP
350
D
  3
ACAD_LAYOUT
350
1A
  3
ACAD_MATERIAL
350
43
  3
ACAD_MLEADERSTYLE
350
6B
  3
ACAD_MLINESTYLE
350
17
  3
ACAD_PLOTSETTINGS
350
19
  3
ACAD_PLOTSTYLENAME
350
E
  3
ACAD_SCALELIST
350
47
  3
ACAD_SECTIONVIEWSTYLE
350
3C7
  3
ACAD_TABLESTYLE
350
69
  3
ACAD_VISUALSTYLE
350
2A
  3
ACDB_RECOMPOSE_DATA
350
3C3
  3
AcDbVariableDictionary
350
383
  0
DICTIONARY
  5
381
330
8
100
AcDbDictionary
280
     1
281
     1
  3
ACAD_XREC_ROUNDTRIP
360
382
  0
DICTIONARY
  5
3C6
102
{ACAD_REACTORS
330
C
102
}
330
C
100
AcDbDictionary
281
     1
  0
DICTIONARY
  5
D
102
{ACAD_REACTORS
330
C
102
}
330
C
100
AcDbDictionary
281
     1
  0
DICTIONARY
  5
1A
102
{ACAD_REACTORS
330
C
102
}
330
C
100
AcDbDictionary
281
     1
  3
Layout1
350
1E
  3
Layout2
350
26
  3
Model
350
22
  0
DICTIONARY
  5
43
102
{ACAD_REACTORS
330
C
102
}
330
C
100
AcDbDictionary
281
     1
  3
ByBlock
350
45
  3
ByLayer
350
44
  3
Global
350
46
  0
DICTIONARY
  5
6B
102
{ACAD_REACTORS
330
C
102
}
330
C
100
AcDbDictionary
281
     1
  3
Standard
350
6C
  0
DICTIONARY
  5
17
102
{ACAD_REACTORS
330
C
102
}
330
C
100
AcDbDictionary
281
     1
  3
Standard
350
18
  0
DICTIONARY
  5
19
102
{ACAD_REACTORS
330
C
102
}
330
C
100
AcDbDictionary
281
     1
  0
ACDBDICTIONARYWDFLT
  5
E
102
{ACAD_REACTORS
330
C
102
}
330
C
100
AcDbDictionary
281
     1
  3
Normal
350
F
100
AcDbDictionaryWithDefault
340
F
  0
DICTIONARY
  5
47
102
{ACAD_REACTORS
330
C
102
}
330
C
100
AcDbDictionary
281
     1
  3
A0
350
48
  3
A1
350
49
  3
A2
350
4A
  3
A3
350
4B
  3
A4
350
4C
  3
A5
350
4D
  3
A6
350
4E
  3
A7
350
4F
  3
A8
350
50
  3
A9
350
51
  3
B0
350
52
  3
B1
350
53
  3
B2
350
54
  3
B3
350
55
  3
B4
350
56
  3
B5
350
57
  3
B6
350
58
  3
B7
350
59
  3
B8
350
5A
  3
B9
350
5B
  3
C0
350
5C
  3
C1
350
5D
  3
C2
350
5E
  3
C3
350
5F
  3
C4
350
60
  3
C5
350
61
  3
C6
350
62
  3
C7
350
63
  3
C8
350
64
  3
C9
350
65
  3
D0
350
66
  3
D1
350
67
  3
D2
350
68
  0
DICTIONARY
  5
3C7
102
{ACAD_REACTORS
330
C
102
}
330
C
100
AcDbDictionary
281
     1
  0
DICTIONARY
  5
69
102
{ACAD_REACTORS
330
C
102
}
330
C
100
AcDbDictionary
281
     1
  3
Standard
350
6A
  0
DICTIONARY
  5
2A
102
{ACAD_REACTORS
330
C
102
}
330
C
100
AcDbDictionary
281
     1
  3
2dWireframe
350
2F
  3
Basic
350
32
  3
Brighten
350
36
  3
ColorChange
350
3A
  3
Conceptual
350
34
  3
Dim
350
35
  3
EdgeColorOff
350
3D
  3
Facepattern
350
39
  3
Flat
350
2B
  3
FlatWithEdges
350
2C
  3
Gouraud
350
2D
  3
GouraudWithEdges
350
2E
  3
Hidden
350
31
  3
JitterOff
350
3B
  3
Linepattern
350
38
  3
OverhangOff
350
3C
  3
Realistic
350
33
  3
Shaded
350
42
  3
Shaded with edges
350
41
  3
Shades of Gray
350
3E
  3
Sketchy
350
3F
  3
Thicken
350
37
  3
Wireframe
350
30
  3
X-Ray
350
40
  0
XRECORD
  5
3C3
102
{ACAD_REACTORS
330
C
102
}
330
C
100
AcDbXrecord
280
     1
 90
        1
330
6A
  0
DICTIONARY
  5
383
102
{ACAD_REACTORS
330
C
102
}
330
C
100
AcDbDictionary
281
     1
  3
CANNOSCALE
350
384
  3
CENTEREXE
350
3C8
  3
CENTERLTYPEFILE
350
3C9
  3
CMLEADERSTYLE
350
3C5
  3
CTABLESTYLE
350
3C4
  3
MSLTSCALE
350
385
  3
XCLIPFRAME
350
386
  0
XRECORD
  5
382
102
{ACAD_REACTORS
330
381
102
}
330
381
100
AcDbXrecord
280
     1
102
VTR_0.000_0.000_1.000_1.000_VISUALSTYLE
340
2F
102
VTR_0.000_0.000_1.000_1.000_GRIDDISPLAY
 70
     3
102
VTR_0.000_0.000_1.000_1.000_GRIDMAJOR
 70
     5
102
VTR_0.000_0.000_1.000_1.000_DEFAULTLIGHTING
280
     1
102
VTR_0.000_0.000_1.000_1.000_DEFAULTLIGHTINGTYPE
 70
     1
102
VTR_0.000_0.000_1.000_1.000_BRIGHTNESS
141
0.0
102
VTR_0.000_0.000_1.000_1.000_CONTRAST
142
0.0
  0
LAYOUT
  5
1E
102
{ACAD_REACTORS
330
1A
102
}
330
1A
100
AcDbPlotSettings
  1

  2
none_device
  4

  6

 40
0.0
 41
0.0
 42
0.0
 43
0.0
 44
0.0
 45
0.0
 46
0.0
 47
0.0
 48
0.0
 49
0.0
140
0.0
141
0.0
142
1.0
143
1.0
 70
   688
 72
     1
 73
     0
 74
     5
  7

 75
    16
 76
     0
 77
     5
 78
   300
147
1.0
148
0.0
149
0.0
100
AcDbLayout
  1
Layout1
 70
     1
 71
     1
 10
0.0
 20
0.0
 11
420.0
 21
297.0
 12
0.0
 22
0.0
 32
0.0
 14
1.000000000000000E+20
 24
1.000000000000000E+20
 34
1.000000000000000E+20
 15
-1.000000000000000E+20
 25
-1.000000000000000E+20
 35
-1.000000000000000E+20
146
0.0
 13
0.0
 23
0.0
 33
0.0
 16
1.0
 26
0.0
 36
0.0
 17
0.0
 27
1.0
 37
0.0
 76
     0
330
1B
  0
LAYOUT
  5
26
102
{ACAD_REACTORS
330
1A
102
}
330
1A
100
AcDbPlotSettings
  1

  2
none_device
  4

  6

 40
0.0
 41
0.0
 42
0.0
 43
0.0
 44
0.0
 45
0.0
 46
0.0
 47
0.0
 48
0.0
 49
0.0
140
0.0
141
0.0
142
1.0
143
1.0
 70
   688
 72
     1
 73
     0
 74
     5
  7

 75
    16
 76
     0
 77
     5
 78
   300
147
1.0
148
0.0
149
0.0
100
AcDbLayout
  1
Layout2
 70
     1
 71
     2
 10
0.0
 20
0.0
 11
0.0
 21
0.0
 12
0.0
 22
0.0
 32
0.0
 14
0.0
 24
0.0
 34
0.0
 15
0.0
 25
0.0
 35
0.0
146
0.0
 13
0.0
 23
0.0
 33
0.0
 16
1.0
 26
0.0
 36
0.0
 17
0.0
 27
1.0
 37
0.0
 76
     0
330
23
  0
LAYOUT
  5
22
102
{ACAD_REACTORS
330
1A
102
}
330
1A
100
AcDbPlotSettings
  1

  2
none_device
  4
Letter_(8.50_x_11.00_Inches)
  6

 40
6.35
 41
6.35
 42
6.35000508
 43
6.35000508
 44
215.9
 45
279.4
 46
0.0
 47
0.0
 48
0.0
 49
0.0
140
0.0
141
0.0
142
1.0
143
1.0
 70
  1712
 72
     1
 73
     0
 74
     0
  7

 75
     0
 76
     0
 77
     5
 78
   300
147
1.0
148
0.0
149
0.0
100
AcDbLayout
  1
Model
 70
     1
 71
     0
 10
-630.0
 20
-445.5
 11
630.0
 21
445.5
 12
0.0
 22
0.0
 32
0.0
 14
-630.0
 24
-445.5
 34
0.0
 15
630.0
 25
445.5
 35
0.0
146
0.0
 13
0.0
 23
0.0
 33
0.0
 16
1.0
 26
0.0
 36
0.0
 17
0.0
 27
1.0
 37
0.0
 76
     0
330
1F
331
29
  0
MATERIAL
  5
45
102
{ACAD_REACTORS
330
43
102
}
102
{ACAD_XDICTIONARY
360
3B9
102
}
330
43
100
AcDbMaterial
  1
ByBlock
  0
MATERIAL
  5
44
102
{ACAD_REACTORS
330
43
102
}
102
{ACAD_XDICTIONARY
360
3B7
102
}
330
43
100
AcDbMaterial
  1
ByLayer
  0
MATERIAL
  5
46
102
{ACAD_REACTORS
330
43
102
}
102
{ACAD_XDICTIONARY
360
3BB
102
}
330
43
100
AcDbMaterial
  1
Global
  0
MLEADERSTYLE
  5
6C
102
{ACAD_REACTORS
330
6B
102
}
102
{ACAD_XDICTIONARY
360
3C1
102
}
330
6B
100
AcDbMLeaderStyle
170
     2
171
     1
172
     0
 90
        2
 40
0.0
 41
0.0
173
     1
 91
-1056964608
340
14
 92
       -2
290
     1
 42
2.0
291
     1
 43
8.0
  3
Standard
341
0
 44
4.0
300

342
11
174
     1
178
     6
175
     1
176
     0
 93
-1056964608
 45
4.0
292
     0
297
     0
 46
4.0
343
0
 94
-1056964608
 47
1.0
 49
1.0
140
1.0
293
     1
141
0.0
294
     1
177
     0
142
1.0
295
     0
296
     0
143
3.75
1001
ACAD_MLEADERVER
1070
     2
  0
MLINESTYLE
  5
18
102
{ACAD_REACTORS
330
17
102
}
330
17
100
AcDbMlineStyle
  2
Standard
 70
     0
  3

 62
   256
 51
90.0
 52
90.0
 71
     2
 49
0.5
 62
   256
  6
BYLAYER
 49
-0.5
 62
   256
  6
BYLAYER
  0
ACDBPLACEHOLDER
  5
F
102
{ACAD_REACTORS
330
E
102
}
330
E
  0
SCALE
  5
48
102
{ACAD_REACTORS
330
47
102
}
330
47
100
AcDbScale
 70
     0
300
1:1
140
1.0
141
1.0
290
     1
  0
SCALE
  5
49
102
{ACAD_REACTORS
330
47
102
}
330
47
100
AcDbScale
 70
     0
300
1:2
140
1.0
141
2.0
290
     0
  0
SCALE
  5
4A
102
{ACAD_REACTORS
330
47
102
}
330
47
100
AcDbScale
 70
     0
300
1:4
140
1.0
141
4.0
290
     0
  0
SCALE
  5
4B
102
{ACAD_REACTORS
330
47
102
}
330
47
100
AcDbScale
 70
     0
300
1:5
140
1.0
141
5.0
290
     0
  0
SCALE
  5
4C
102
{ACAD_REACTORS
330
47
102
}
330
47
100
AcDbScale
 70
     0
300
1:8
140
1.0
141
8.0
290
     0
  0
SCALE
  5
4D
102
{ACAD_REACTORS
330
47
102
}
330
47
100
AcDbScale
 70
     0
300
1:10
140
1.0
141
10.0
290
     0
  0
SCALE
  5
4E
102
{ACAD_REACTORS
330
47
102
}
330
47
100
AcDbScale
 70
     0
300
1:16
140
1.0
141
16.0
290
     0
  0
SCALE
  5
4F
102
{ACAD_REACTORS
330
47
102
}
330
47
100
AcDbScale
 70
     0
300
1:20
140
1.0
141
20.0
290
     0
  0
SCALE
  5
50
102
{ACAD_REACTORS
330
47
102
}
330
47
100
AcDbScale
 70
     0
300
1:30
140
1.0
141
30.0
290
     0
  0
SCALE
  5
51
102
{ACAD_REACTORS
330
47
102
}
330
47
100
AcDbScale
 70
     0
300
1:40
140
1.0
141
40.0
290
     0
  0
SCALE
  5
52
102
{ACAD_REACTORS
330
47
102
}
330
47
100
AcDbScale
 70
     0
300
1:50
140
1.0
141
50.0
290
     0
  0
SCALE
  5
53
102
{ACAD_REACTORS
330
47
102
}
330
47
100
AcDbScale
 70
     0
300
1:100
140
1.0
141
100.0
290
     0
  0
SCALE
  5
54
102
{ACAD_REACTORS
330
47
102
}
330
47
100
AcDbScale
 70
     0
300
2:1
140
2.0
141
1.0
290
     0
  0
SCALE
  5
55
102
{ACAD_REACTORS
330
47
102
}
330
47
100
AcDbScale
 70
     0
300
4:1
140
4.0
141
1.0
290
     0
  0
SCALE
  5
56
102
{ACAD_REACTORS
330
47
102
}
330
47
100
AcDbScale
 70
     0
300
8:1
140
8.0
141
1.0
290
     0
  0
SCALE
  5
57
102
{ACAD_REACTORS
330
47
102
}
330
47
100
AcDbScale
 70
     0
300
10:1
140
10.0
141
1.0
290
     0
  0
SCALE
  5
58
102
{ACAD_REACTORS
330
47
102
}
330
47
100
AcDbScale
 70
     0
300
100:1
140
100.0
141
1.0
290
     0
  0
SCALE
  5
59
102
{ACAD_REACTORS
330
47
102
}
330
47
100
AcDbScale
 70
     0
300
1/128" = 1'-0"
140
0.0078125
141
12.0
290
     0
  0
SCALE
  5
5A
102
{ACAD_REACTORS
330
47
102
}
330
47
100
AcDbScale
 70
     0
300
1/64" = 1'-0"
140
0.015625
141
12.0
290
     0
  0
SCALE
  5
5B
102
{ACAD_REACTORS
330
47
102
}
330
47
100
AcDbScale
 70
     0
300
1/32" = 1'-0"
140
0.03125
141
12.0
290
     0
  0
SCALE
  5
5C
102
{ACAD_REACTORS
330
47
102
}
330
47
100
AcDbScale
 70
     0
300
1/16" = 1'-0"
140
0.0625
141
12.0
290
     0
  0
SCALE
  5
5D
102
{ACAD_REACTORS
330
47
102
}
330
47
100
AcDbScale
 70
     0
300
3/32" = 1'-0"
140
0.09375
141
12.0
290
     0
  0
SCALE
  5
5E
102
{ACAD_REACTORS
330
47
102
}
330
47
100
AcDbScale
 70
     0
300
1/8" = 1'-0"
140
0.125
141
12.0
290
     0
  0
SCALE
  5
5F
102
{ACAD_REACTORS
330
47
102
}
330
47
100
AcDbScale
 70
     0
300
3/16" = 1'-0"
140
0.1875
141
12.0
290
     0
  0
SCALE
  5
60
102
{ACAD_REACTORS
330
47
102
}
330
47
100
AcDbScale
 70
     0
300
1/4" = 1'-0"
140
0.25
141
12.0
290
     0
  0
SCALE
  5
61
102
{ACAD_REACTORS
330
47
102
}
330
47
100
AcDbScale
 70
     0
300
3/8" = 1'-0"
140
0.375
141
12.0
290
     0
  0
SCALE
  5
62
102
{ACAD_REACTORS
330
47
102
}
330
47
100
AcDbScale
 70
     0
300
1/2" = 1'-0"
140
0.5
141
12.0
290
     0
  0
SCALE
  5
63
102
{ACAD_REACTORS
330
47
102
}
330
47
100
AcDbScale
 70
     0
300
3/4" = 1'-0"
140
0.75
141
12.0
290
     0
  0
SCALE
  5
64
102
{ACAD_REACTORS
330
47
102
}
330
47
100
AcDbScale
 70
     0
300
1" = 1'-0"
140
1.0
141
12.0
290
     0
  0
SCALE
  5
65
102
{ACAD_REACTORS
330
47
102
}
330
47
100
AcDbScale
 70
     0
300
1-1/2" = 1'-0"
140
1.5
141
12.0
290
     0
  0
SCALE
  5
66
102
{ACAD_REACTORS
330
47
102
}
330
47
100
AcDbScale
 70
     0
300
3" = 1'-0"
140
3.0
141
12.0
290
     0
  0
SCALE
  5
67
102
{ACAD_REACTORS
330
47
102
}
330
47
100
AcDbScale
 70
     0
300
6" = 1'-0"
140
6.0
141
12.0
290
     0
  0
SCALE
  5
68
102
{ACAD_REACTORS
330
47
102
}
330
47
100
AcDbScale
 70
     0
300
1'-0" = 1'-0"
140
12.0
141
12.0
290
     0
  0
TABLESTYLE
  5
6A
102
{ACAD_REACTORS
330
69
102
}
102
{ACAD_XDICTIONARY
360
3BD
102
}
330
69
100
AcDbTableStyle
  3
Standard
 70
     0
 71
     0
 40
0.06
 41
0.06
280
     0
281
     0
  7
Standard
140
4.5
170
     2
 62
     0
 63
   257
283
     0
274
    -2
284
     1
 64
     0
275
    -2
285
     1
 65
     0
276
    -2
286
     1
 66
     0
277
    -2
287
     1
 67
     0
278
    -2
288
     1
 68
     0
279
    -2
289
     1
 69
     0
  7
Standard
140
6.0
170
     5
 62
     0
 63
   257
283
     0
274
    -2
284
     1
 64
     0
275
    -2
285
     1
 65
     0
276
    -2
286
     1
 66
     0
277
    -2
287
     1
 67
     0
278
    -2
288
     1
 68
     0
279
    -2
289
     1
 69
     0
  7
Standard
140
4.5
170
     5
 62
     0
 63
   257
283
     0
274
    -2
284
     1
 64
     0
275
    -2
285
     1
 65
     0
276
    -2
286
     1
 66
     0
277
    -2
287
     1
 67
     0
278
    -2
288
     1
 68
     0
279
    -2
289
     1
 69
     0
  0
VISUALSTYLE
  5
2F
102
{ACAD_REACTORS
330
2A
102
}
102
{ACAD_XDICTIONARY
360
38F
102
}
330
2A
100
AcDbVisualStyle
  2
2dWireframe
 70
     4
 71
     0
 72
     2
 73
     0
 90
        0
 40
0.6
 41
30.0
 62
     5
 63
     7
421
 16777215
 74
     1
 91
        4
 64
     7
 65
   257
 75
     1
175
     1
 42
1.0
 92
        0
 66
   257
 43
1.0
 76
     1
 77
     6
 78
     2
 67
     7
 79
     5
170
     0
171
     0
290
     0
174
     0
 93
        1
 44
0.0
173
     0
291
     0
 45
0.0
1001
ACAD
1000
AcDbSavedByObjectVersion
1070
     0
  0
VISUALSTYLE
  5
32
102
{ACAD_REACTORS
330
2A
102
}
102
{ACAD_XDICTIONARY
360
395
102
}
330
2A
100
AcDbVisualStyle
  2
Basic
 70
     7
 71
     1
 72
     0
 73
     1
 90
        0
 40
0.6
 41
30.0
 62
     5
 63
     7
421
 16777215
 74
     0
 91
        4
 64
     7
 65
   257
 75
     1
175
     1
 42
1.0
 92
        8
 66
     7
 43
1.0
 76
     1
 77
     6
 78
     2
 67
     7
 79
     5
170
     0
171
     0
290
     0
174
     0
 93
        1
 44
0.0
173
     0
291
     1
 45
0.0
1001
ACAD
1000
AcDbSavedByObjectVersion
1070
     0
  0
VISUALSTYLE
  5
36
102
{ACAD_REACTORS
330
2A
102
}
102
{ACAD_XDICTIONARY
360
39D
102
}
330
2A
100
AcDbVisualStyle
  2
Brighten
 70
    12
 71
     2
 72
     2
 73
     0
 90
        0
 40
0.6
 41
30.0
 62
     5
 63
     7
421
 16777215
 74
     1
 91
        4
 64
     7
 65
   257
 75
     1
175
     1
 42
1.0
 92
        8
 66
     7
 43
1.0
 76
     1
 77
     6
 78
     2
 67
     7
 79
     5
170
     0
171
     0
290
     0
174
     0
 93
        1
 44
50.0
173
     0
291
     1
 45
0.0
1001
ACAD
1000
AcDbSavedByObjectVersion
1070
     0
  0
VISUALSTYLE
  5
3A
102
{ACAD_REACTORS
330
2A
102
}
102
{ACAD_XDICTIONARY
360
3A5
102
}
330
2A
100
AcDbVisualStyle
  2
ColorChange
 70
    16
 71
     2
 72
     2
 73
     3
 90
        0
 40
0.6
 41
30.0
 62
     5
 63
     8
421
  8421504
 74
     1
 91
        4
 64
     7
 65
   257
 75
     1
175
     1
 42
1.0
 92
        8
 66
     8
424
  8421504
 43
1.0
 76
     1
 77
     6
 78
     2
 67
     7
 79
     5
170
     0
171
     0
290
     0
174
     0
 93
        1
 44
0.0
173
     0
291
     1
 45
0.0
1001
ACAD
1000
AcDbSavedByObjectVersion
1070
     0
  0
VISUALSTYLE
  5
34
102
{ACAD_REACTORS
330
2A
102
}
102
{ACAD_XDICTIONARY
360
399
102
}
330
2A
100
AcDbVisualStyle
  2
Conceptual
 70
     9
 71
     3
 72
     2
 73
     0
 90
        0
 40
0.6
 41
30.0
 62
     5
 63
     7
421
 16777215
 74
     2
 91
        2
 64
     7
 65
   257
 75
     1
175
     1
 42
179.0
 92
        8
 66
     7
 43
1.0
 76
     1
 77
     6
 78
     2
 67
     7
 79
     3
170
     0
171
     0
290
     0
174
     0
 93
        1
 44
0.0
173
     0
291
     0
 45
0.0
1001
ACAD
1000
AcDbSavedByObjectVersion
1070
     0
  0
VISUALSTYLE
  5
35
102
{ACAD_REACTORS
330
2A
102
}
102
{ACAD_XDICTIONARY
360
39B
102
}
330
2A
100
AcDbVisualStyle
  2
Dim
 70
    11
 71
     2
 72
     2
 73
     0
 90
        0
 40
0.6
 41
30.0
 62
     5
 63
     7
421
 16777215
 74
     1
 91
        4
 64
     7
 65
   257
 75
     1
175
     1
 42
1.0
 92
        8
 66
     7
 43
1.0
 76
     1
 77
     6
 78
     2
 67
     7
 79
     5
170
     0
171
     0
290
     0
174
     0
 93
        1
 44
-50.0
173
     0
291
     1
 45
0.0
1001
ACAD
1000
AcDbSavedByObjectVersion
1070
     0
  0
VISUALSTYLE
  5
3D
102
{ACAD_REACTORS
330
2A
102
}
102
{ACAD_XDICTIONARY
360
3AB
102
}
330
2A
100
AcDbVisualStyle
  2
EdgeColorOff
 70
    22
 71
     2
 72
     2
 73
     0
 90
        0
 40
0.6
 41
30.0
 62
     5
 63
     7
421
 16777215
 74
     1
 91
        4
 64
     7
 65
   257
 75
     1
175
     1
 42
1.0
 92
        8
 66
     7
 43
1.0
 76
     1
 77
     6
 78
     2
 67
     7
 79
     5
170
     0
171
     0
290
     0
174
     0
 93
        1
 44
0.0
173
     0
291
     1
 45
0.0
1001
ACAD
1000
AcDbSavedByObjectVersion
1070
     0
  0
VISUALSTYLE
  5
39
102
{ACAD_REACTORS
330
2A
102
}
102
{ACAD_XDICTIONARY
360
3A3
102
}
330
2A
100
AcDbVisualStyle
  2
Facepattern
 70
    15
 71
     2
 72
     2
 73
     0
 90
        0
 40
0.6
 41
30.0
 62
     5
 63
     7
421
 16777215
 74
     1
 91
        4
 64
     7
 65
   257
 75
     1
175
     1
 42
1.0
 92
        8
 66
     7
 43
1.0
 76
     1
 77
     6
 78
     2
 67
     7
 79
     5
170
     0
171
     0
290
     0
174
     0
 93
        1
 44
0.0
173
     0
291
     1
 45
0.0
1001
ACAD
1000
AcDbSavedByObjectVersion
1070
     0
  0
VISUALSTYLE
  5
2B
102
{ACAD_REACTORS
330
2A
102
}
102
{ACAD_XDICTIONARY
360
387
102
}
330
2A
100
AcDbVisualStyle
  2
Flat
 70
     0
 71
     2
 72
     1
 73
     1
 90
        2
 40
0.6
 41
30.0
 62
     5
 63
     7
421
 16777215
 74
     0
 91
        0
 64
     7
 65
   257
 75
     1
175
     1
 42
1.0
 92
        8
 66
     7
 43
1.0
 76
     1
 77
     6
 78
     2
 67
     7
 79
     5
170
     0
171
     0
290
     0
174
     0
 93
       13
 44
0.0
173
     0
291
     1
 45
0.0
1001
ACAD
1000
AcDbSavedByObjectVersion
1070
     0
  0
VISUALSTYLE
  5
2C
102
{ACAD_REACTORS
330
2A
102
}
102
{ACAD_XDICTIONARY
360
389
102
}
330
2A
100
AcDbVisualStyle
  2
FlatWithEdges
 70
     1
 71
     2
 72
     1
 73
     1
 90
        2
 40
0.6
 41
30.0
 62
     5
 63
     7
421
 16777215
 74
     1
 91
        0
 64
     7
 65
   257
 75
     1
175
     1
 42
1.0
 92
        0
 66
   257
 43
1.0
 76
     1
 77
     6
 78
     2
 67
     7
 79
     5
170
     0
171
     0
290
     0
174
     0
 93
       13
 44
0.0
173
     0
291
     1
 45
0.0
1001
ACAD
1000
AcDbSavedByObjectVersion
1070
     0
  0
VISUALSTYLE
  5
2D
102
{ACAD_REACTORS
330
2A
102
}
102
{ACAD_XDICTIONARY
360
38B
102
}
330
2A
100
AcDbVisualStyle
  2
Gouraud
 70
     2
 71
     2
 72
     2
 73
     1
 90
        2
 40
0.6
 41
30.0
 62
     5
 63
     7
421
 16777215
 74
     0
 91
        0
 64
     7
 65
   257
 75
     1
175
     1
 42
1.0
 92
        0
 66
     7
 43
1.0
 76
     1
 77
     6
 78
     2
 67
     7
 79
     5
170
     0
171
     0
290
     0
174
     0
 93
       13
 44
0.0
173
     0
291
     1
 45
0.0
1001
ACAD
1000
AcDbSavedByObjectVersion
1070
     0
  0
VISUALSTYLE
  5
2E
102
{ACAD_REACTORS
330
2A
102
}
102
{ACAD_XDICTIONARY
360
38D
102
}
330
2A
100
AcDbVisualStyle
  2
GouraudWithEdges
 70
     3
 71
     2
 72
     2
 73
     1
 90
        2
 40
0.6
 41
30.0
 62
     5
 63
     7
421
 16777215
 74
     1
 91
        0
 64
     7
 65
   257
 75
     1
175
     1
 42
1.0
 92
        0
 66
   257
 43
1.0
 76
     1
 77
     6
 78
     2
 67
     7
 79
     5
170
     0
171
     0
290
     0
174
     0
 93
       13
 44
0.0
173
     0
291
     1
 45
0.0
1001
ACAD
1000
AcDbSavedByObjectVersion
1070
     0
  0
VISUALSTYLE
  5
31
102
{ACAD_REACTORS
330
2A
102
}
102
{ACAD_XDICTIONARY
360
393
102
}
330
2A
100
AcDbVisualStyle
  2
Hidden
 70
     6
 71
     1
 72
     2
 73
     2
 90
        0
 40
0.6
 41
30.0
 62
     5
 63
     7
421
 16777215
 74
     2
 91
        2
 64
     7
 65
   257
 75
     2
175
     1
 42
40.0
 92
        0
 66
   257
 43
1.0
 76
     1
 77
     6
 78
     2
 67
     7
 79
     3
170
     0
171
     0
290
     0
174
     0
 93
        1
 44
0.0
173
     0
291
     0
 45
0.0
1001
ACAD
1000
AcDbSavedByObjectVersion
1070
     0
  0
VISUALSTYLE
  5
3B
102
{ACAD_REACTORS
330
2A
102
}
102
{ACAD_XDICTIONARY
360
3A7
102
}
330
2A
100
AcDbVisualStyle
  2
JitterOff
 70
    20
 71
     2
 72
     2
 73
     0
 90
        0
 40
0.6
 41
30.0
 62
     5
 63
     7
421
 16777215
 74
     1
 91
        4
 64
     7
 65
   257
 75
     1
175
     1
 42
1.0
 92
       10
 66
     7
 43
1.0
 76
     1
 77
     6
 78
     2
 67
     7
 79
     5
170
     0
171
     0
290
     0
174
     0
 93
        1
 44
0.0
173
     0
291
     1
 45
0.0
1001
ACAD
1000
AcDbSavedByObjectVersion
1070
     0
  0
VISUALSTYLE
  5
38
102
{ACAD_REACTORS
330
2A
102
}
102
{ACAD_XDICTIONARY
360
3A1
102
}
330
2A
100
AcDbVisualStyle
  2
Linepattern
 70
    14
 71
     2
 72
     2
 73
     0
 90
        0
 40
0.6
 41
30.0
 62
     5
 63
     7
421
 16777215
 74
     1
 91
        4
 64
     7
 65
   257
 75
     7
175
     7
 42
1.0
 92
        8
 66
     7
 43
1.0
 76
     1
 77
     6
 78
     2
 67
     7
 79
     5
170
     0
171
     0
290
     0
174
     0
 93
        1
 44
0.0
173
     0
291
     1
 45
0.0
1001
ACAD
1000
AcDbSavedByObjectVersion
1070
     0
  0
VISUALSTYLE
  5
3C
102
{ACAD_REACTORS
330
2A
102
}
102
{ACAD_XDICTIONARY
360
3A9
102
}
330
2A
100
AcDbVisualStyle
  2
OverhangOff
 70
    21
 71
     2
 72
     2
 73
     0
 90
        0
 40
0.6
 41
30.0
 62
     5
 63
     7
421
 16777215
 74
     1
 91
        4
 64
     7
 65
   257
 75
     1
175
     1
 42
1.0
 92
        9
 66
     7
 43
1.0
 76
     1
 77
     6
 78
     2
 67
     7
 79
     5
170
     0
171
     0
290
     0
174
     0
 93
        1
 44
0.0
173
     0
291
     1
 45
0.0
1001
ACAD
1000
AcDbSavedByObjectVersion
1070
     0
  0
VISUALSTYLE
  5
33
102
{ACAD_REACTORS
330
2A
102
}
102
{ACAD_XDICTIONARY
360
397
102
}
330
2A
100
AcDbVisualStyle
  2
Realistic
 70
     8
 71
     2
 72
     3
 73
     0
 90
        2
 40
0.6
 41
30.0
 62
     5
 63
     7
421
 16777215
 74
     0
 91
        0
 64
     7
 65
   257
 75
     1
175
     1
 42
1.0
 92
        8
 66
   257
 43
1.0
 76
     1
 77
     6
 78
     2
 67
     7
 79
     3
170
     0
171
     0
290
     0
174
     0
 93
       13
 44
0.0
173
     0
291
     0
 45
0.0
1001
ACAD
1000
AcDbSavedByObjectVersion
1070
     0
  0
VISUALSTYLE
  5
42
102
{ACAD_REACTORS
330
2A
102
}
102
{ACAD_XDICTIONARY
360
3B5
102
}
330
2A
100
AcDbVisualStyle
  2
Shaded
 70
    27
 71
     2
 72
     2
 73
     1
 90
        2
 40
0.6
 41
30.0
 62
     5
 63
     7
421
 16777215
 74
     0
 91
        4
 64
     7
 65
   257
 75
     1
175
     1
 42
1.0
 92
        8
 66
   257
 43
1.0
 76
     1
 77
     6
 78
     2
 67
     8
425
  7895160
 79
     3
170
     0
171
     0
290
     0
174
     0
 93
        5
 44
0.0
173
     0
291
     0
 45
0.0
1001
ACAD
1000
AcDbSavedByObjectVersion
1070
     0
  0
VISUALSTYLE
  5
41
102
{ACAD_REACTORS
330
2A
102
}
102
{ACAD_XDICTIONARY
360
3B3
102
}
330
2A
100
AcDbVisualStyle
  2
Shaded with edges
 70
    26
 71
     2
 72
     2
 73
     1
 90
        2
 40
0.6
 41
30.0
 62
     5
 63
     7
421
 16777215
 74
     1
 91
       10
 64
     7
 65
   257
 75
     2
175
     1
 42
1.0
 92
        8
 66
   257
 43
1.0
 76
     1
 77
     6
 78
     2
 67
     7
 79
     3
170
     0
171
     0
290
     0
174
     0
 93
        5
 44
0.0
173
     0
291
     0
 45
0.0
1001
ACAD
1000
AcDbSavedByObjectVersion
1070
     0
  0
VISUALSTYLE
  5
3E
102
{ACAD_REACTORS
330
2A
102
}
102
{ACAD_XDICTIONARY
360
3AD
102
}
330
2A
100
AcDbVisualStyle
  2
Shades of Gray
 70
    23
 71
     2
 72
     2
 73
     3
 90
        0
 40
0.6
 41
30.0
 62
     5
 63
     7
421
 16777215
 74
     2
 91
        2
 64
     7
 65
     7
 75
     1
175
     1
 42
40.0
 92
        8
 66
     7
 43
1.0
 76
     1
 77
     6
 78
     2
 67
     7
 79
     3
170
     0
171
     0
290
     0
174
     0
 93
        1
 44
0.0
173
     0
291
     0
 45
0.0
1001
ACAD
1000
AcDbSavedByObjectVersion
1070
     0
  0
VISUALSTYLE
  5
3F
102
{ACAD_REACTORS
330
2A
102
}
102
{ACAD_XDICTIONARY
360
3AF
102
}
330
2A
100
AcDbVisualStyle
  2
Sketchy
 70
    24
 71
     1
 72
     2
 73
     2
 90
        0
 40
0.6
 41
30.0
 62
     5
 63
     7
421
 16777215
 74
     2
 91
        2
 64
     7
 65
     7
 75
     1
175
     1
 42
40.0
 92
       11
 66
     7
 43
1.0
 76
     1
 77
     6
 78
     2
 67
     7
 79
     6
170
     0
171
     0
290
     0
174
     0
 93
        1
 44
0.0
173
     0
291
     0
 45
0.0
1001
ACAD
1000
AcDbSavedByObjectVersion
1070
     0
  0
VISUALSTYLE
  5
37
102
{ACAD_REACTORS
330
2A
102
}
102
{ACAD_XDICTIONARY
360
39F
102
}
330
2A
100
AcDbVisualStyle
  2
Thicken
 70
    13
 71
     2
 72
     2
 73
     0
 90
        0
 40
0.6
 41
30.0
 62
     5
 63
     7
421
 16777215
 74
     1
 91
        4
 64
     7
 65
   257
 75
     1
175
     1
 42
1.0
 92
       12
 66
     7
 43
1.0
 76
     1
 77
     6
 78
     2
 67
     7
 79
     5
170
     0
171
     0
290
     0
174
     0
 93
        1
 44
0.0
173
     0
291
     1
 45
0.0
1001
ACAD
1000
AcDbSavedByObjectVersion
1070
     0
  0
VISUALSTYLE
  5
30
102
{ACAD_REACTORS
330
2A
102
}
102
{ACAD_XDICTIONARY
360
391
102
}
330
2A
100
AcDbVisualStyle
  2
Wireframe
 70
     5
 71
     0
 72
     2
 73
     0
 90
        0
 40
0.6
 41
30.0
 62
     5
 63
     7
421
 16777215
 74
     1
 91
        4
 64
     7
 65
   257
 75
     1
175
     1
 42
1.0
 92
        0
 66
   257
 43
1.0
 76
     1
 77
     6
 78
     2
 67
     7
 79
     3
170
     0
171
     0
290
     0
174
     0
 93
        1
 44
0.0
173
     0
291
     0
 45
0.0
1001
ACAD
1000
AcDbSavedByObjectVersion
1070
     0
  0
VISUALSTYLE
  5
40
102
{ACAD_REACTORS
330
2A
102
}
102
{ACAD_XDICTIONARY
360
3B1
102
}
330
2A
100
AcDbVisualStyle
  2
X-Ray
 70
    25
 71
     2
 72
     2
 73
     1
 90
        1
 40
0.5
 41
30.0
 62
     5
 63
     7
421
 16777215
 74
     1
 91
        0
 64
     7
 65
   257
 75
     1
175
     1
 42
1.0
 92
        8
 66
     7
 43
1.0
 76
     1
 77
     6
 78
     2
 67
     7
 79
     3
170
     0
171
     0
290
     0
174
     0
 93
       13
 44
0.0
173
     0
291
     0
 45
0.0
1001
ACAD
1000
AcDbSavedByObjectVersion
1070
     0
  0
DICTIONARYVAR
  5
384
102
{ACAD_REACTORS
330
383
102
}
330
383
100
DictionaryVariables
280
     0
  1
1:1
  0
DICTIONARYVAR
  5
3C8
102
{ACAD_REACTORS
330
383
102
}
330
383
100
DictionaryVariables
280
     0
  1
3.500000
  0
DICTIONARYVAR
  5
3C9
102
{ACAD_REACTORS
330
383
102
}
330
383
100
DictionaryVariables
280
     0
  1
acadiso.lin
  0
DICTIONARYVAR
  5
3C5
102
{ACAD_REACTORS
330
383
102
}
330
383
100
DictionaryVariables
280
     0
  1
Standard
  0
DICTIONARYVAR
  5
3C4
102
{ACAD_REACTORS
330
383
102
}
330
383
100
DictionaryVariables
280
     0
  1
Standard
  0
DICTIONARYVAR
  5
385
102
{ACAD_REACTORS
330
383
102
}
330
383
100
DictionaryVariables
280
     0
  1
1
  0
DICTIONARYVAR
  5
386
102
{ACAD_REACTORS
330
383
102
}
330
383
100
DictionaryVariables
280
     0
  1
2
  0
DICTIONARY
  5
3B9
330
45
100
AcDbDictionary
280
     1
281
     1
  3
ACAD_XREC_ROUNDTRIP
360
3BA
  0
DICTIONARY
  5
3B7
330
44
100
AcDbDictionary
280
     1
281
     1
  3
ACAD_XREC_ROUNDTRIP
360
3B8
  0
DICTIONARY
  5
3BB
330
46
100
AcDbDictionary
280
     1
281
     1
  3
ACAD_XREC_ROUNDTRIP
360
3BC
  0
DICTIONARY
  5
3C1
330
6C
100
AcDbDictionary
280
     1
281
     1
  3
ACAD_XREC_ROUNDTRIP
360
3C2
  0
DICTIONARY
  5
3BD
330
6A
100
AcDbDictionary
280
     1
281
     1
  3
ACAD_ROUNDTRIP_2008_TABLESTYLE_CELLSTYLEMAP
360
3BF
  3
ACAD_XREC_ROUNDTRIP
360
3BE
  0
DICTIONARY
  5
38F
330
2F
100
AcDbDictionary
280
     1
281
     1
  3
ACAD_XREC_ROUNDTRIP
360
390
  0
DICTIONARY
  5
395
330
32
100
AcDbDictionary
280
     1
281
     1
  3
ACAD_XREC_ROUNDTRIP
360
396
  0
DICTIONARY
  5
39D
330
36
100
AcDbDictionary
280
     1
281
     1
  3
ACAD_XREC_ROUNDTRIP
360
39E
  0
DICTIONARY
  5
3A5
330
3A
100
AcDbDictionary
280
     1
281
     1
  3
ACAD_XREC_ROUNDTRIP
360
3A6
  0
DICTIONARY
  5
399
330
34
100
AcDbDictionary
280
     1
281
     1
  3
ACAD_XREC_ROUNDTRIP
360
39A
  0
DICTIONARY
  5
39B
330
35
100
AcDbDictionary
280
     1
281
     1
  3
ACAD_XREC_ROUNDTRIP
360
39C
  0
DICTIONARY
  5
3AB
330
3D
100
AcDbDictionary
280
     1
281
     1
  3
ACAD_XREC_ROUNDTRIP
360
3AC
  0
DICTIONARY
  5
3A3
330
39
100
AcDbDictionary
280
     1
281
     1
  3
ACAD_XREC_ROUNDTRIP
360
3A4
  0
DICTIONARY
  5
387
330
2B
100
AcDbDictionary
280
     1
281
     1
  3
ACAD_XREC_ROUNDTRIP
360
388
  0
DICTIONARY
  5
389
330
2C
100
AcDbDictionary
280
     1
281
     1
  3
ACAD_XREC_ROUNDTRIP
360
38A
  0
DICTIONARY
  5
38B
330
2D
100
AcDbDictionary
280
     1
281
     1
  3
ACAD_XREC_ROUNDTRIP
360
38C
  0
DICTIONARY
  5
38D
330
2E
100
AcDbDictionary
280
     1
281
     1
  3
ACAD_XREC_ROUNDTRIP
360
38E
  0
DICTIONARY
  5
393
330
31
100
AcDbDictionary
280
     1
281
     1
  3
ACAD_XREC_ROUNDTRIP
360
394
  0
DICTIONARY
  5
3A7
330
3B
100
AcDbDictionary
280
     1
281
     1
  3
ACAD_XREC_ROUNDTRIP
360
3A8
  0
DICTIONARY
  5
3A1
330
38
100
AcDbDictionary
280
     1
281
     1
  3
ACAD_XREC_ROUNDTRIP
360
3A2
  0
DICTIONARY
  5
3A9
330
3C
100
AcDbDictionary
280
     1
281
     1
  3
ACAD_XREC_ROUNDTRIP
360
3AA
  0
DICTIONARY
  5
397
330
33
100
AcDbDictionary
280
     1
281
     1
  3
ACAD_XREC_ROUNDTRIP
360
398
  0
DICTIONARY
  5
3B5
330
42
100
AcDbDictionary
280
     1
281
     1
  3
ACAD_XREC_ROUNDTRIP
360
3B6
  0
DICTIONARY
  5
3B3
330
41
100
AcDbDictionary
280
     1
281
     1
  3
ACAD_XREC_ROUNDTRIP
360
3B4
  0
DICTIONARY
  5
3AD
330
3E
100
AcDbDictionary
280
     1
281
     1
  3
ACAD_XREC_ROUNDTRIP
360
3AE
  0
DICTIONARY
  5
3AF
330
3F
100
AcDbDictionary
280
     1
281
     1
  3
ACAD_XREC_ROUNDTRIP
360
3B0
  0
DICTIONARY
  5
39F
330
37
100
AcDbDictionary
280
     1
281
     1
  3
ACAD_XREC_ROUNDTRIP
360
3A0
  0
DICTIONARY
  5
391
330
30
100
AcDbDictionary
280
     1
281
     1
  3
ACAD_XREC_ROUNDTRIP
360
392
  0
DICTIONARY
  5
3B1
330
40
100
AcDbDictionary
280
     1
281
     1
  3
ACAD_XREC_ROUNDTRIP
360
3B2
  0
XRECORD
  5
3BA
102
{ACAD_REACTORS
330
3B9
102
}
330
3B9
100
AcDbXrecord
280
     1
102
MATERIAL
148
0.0
149
0.0
149
0.0
 93
        0
 94
      127
282
     0
 72
     1
 77
     1
171
     1
175
     1
179
     1
273
     0
  0
XRECORD
  5
3B8
102
{ACAD_REACTORS
330
3B7
102
}
330
3B7
100
AcDbXrecord
280
     1
102
MATERIAL
148
0.0
149
0.0
149
0.0
 93
        0
 94
      127
282
     0
 72
     1
 77
     1
171
     1
175
     1
179
     1
273
     0
  0
XRECORD
  5
3BC
102
{ACAD_REACTORS
330
3BB
102
}
330
3BB
100
AcDbXrecord
280
     1
102
MATERIAL
148
0.0
149
0.0
149
0.0
 93
        0
 94
      127
282
     0
 72
     1
 77
     1
171
     1
175
     1
179
     1
273
     0
  0
XRECORD
  5
3C2
102
{ACAD_REACTORS
330
3C1
102
}
330
3C1
100
AcDbXrecord
280
     1
102
ACAD_ROUNDTRIP_2010_MLEADER_STYLE
  0
CELLSTYLEMAP
  5
3BF
102
{ACAD_REACTORS
330
3BD
102
}
330
3BD
100
AcDbCellStyleMap
 90
        3
300
CELLSTYLE
  1
TABLEFORMAT_BEGIN
 90
        5
170
     1
 91
        0
 92
    32768
 62
   257
 93
        1
300
CONTENTFORMAT
  1
CONTENTFORMAT_BEGIN
 90
        0
 91
        0
 92
        4
 93
        0
300

 40
0.0
140
1.0
 94
        5
 62
     0
340
11
144
6.0
309
CONTENTFORMAT_END
171
     1
301
MARGIN
  1
CELLMARGIN_BEGIN
 40
1.5
 40
1.5
 40
1.5
 40
1.5
 40
1.5
 40
1.5
309
CELLMARGIN_END
 94
        6
 95
        1
302
GRIDFORMAT
  1
GRIDFORMAT_BEGIN
 90
        0
 91
        1
 62
     0
 92
       -2
340
14
 93
        0
 40
0.045
309
GRIDFORMAT_END
 95
        2
302
GRIDFORMAT
  1
GRIDFORMAT_BEGIN
 90
        0
 91
        1
 62
     0
 92
       -2
340
14
 93
        0
 40
0.045
309
GRIDFORMAT_END
 95
        4
302
GRIDFORMAT
  1
GRIDFORMAT_BEGIN
 90
        0
 91
        1
 62
     0
 92
       -2
340
14
 93
        0
 40
0.045
309
GRIDFORMAT_END
 95
        8
302
GRIDFORMAT
  1
GRIDFORMAT_BEGIN
 90
        0
 91
        1
 62
     0
 92
       -2
340
14
 93
        0
 40
0.045
309
GRIDFORMAT_END
 95
       16
302
GRIDFORMAT
  1
GRIDFORMAT_BEGIN
 90
        0
 91
        1
 62
     0
 92
       -2
340
14
 93
        0
 40
0.045
309
GRIDFORMAT_END
 95
       32
302
GRIDFORMAT
  1
GRIDFORMAT_BEGIN
 90
        0
 91
        1
 62
     0
 92
       -2
340
14
 93
        0
 40
0.045
309
GRIDFORMAT_END
309
TABLEFORMAT_END
  1
CELLSTYLE_BEGIN
 90
        1
 91
        1
300
_TITLE
309
CELLSTYLE_END
300
CELLSTYLE
  1
TABLEFORMAT_BEGIN
 90
        5
170
     1
 91
        0
 92
        0
 62
   257
 93
        1
300
CONTENTFORMAT
  1
CONTENTFORMAT_BEGIN
 90
        0
 91
        0
 92
        4
 93
        0
300

 40
0.0
140
1.0
 94
        5
 62
     0
340
11
144
4.5
309
CONTENTFORMAT_END
171
     1
301
MARGIN
  1
CELLMARGIN_BEGIN
 40
1.5
 40
1.5
 40
1.5
 40
1.5
 40
1.5
 40
1.5
309
CELLMARGIN_END
 94
        6
 95
        1
302
GRIDFORMAT
  1
GRIDFORMAT_BEGIN
 90
        0
 91
        1
 62
     0
 92
       -2
340
14
 93
        0
 40
0.045
309
GRIDFORMAT_END
 95
        2
302
GRIDFORMAT
  1
GRIDFORMAT_BEGIN
 90
        0
 91
        1
 62
     0
 92
       -2
340
14
 93
        0
 40
0.045
309
GRIDFORMAT_END
 95
        4
302
GRIDFORMAT
  1
GRIDFORMAT_BEGIN
 90
        0
 91
        1
 62
     0
 92
       -2
340
14
 93
        0
 40
0.045
309
GRIDFORMAT_END
 95
        8
302
GRIDFORMAT
  1
GRIDFORMAT_BEGIN
 90
        0
 91
        1
 62
     0
 92
       -2
340
14
 93
        0
 40
0.045
309
GRIDFORMAT_END
 95
       16
302
GRIDFORMAT
  1
GRIDFORMAT_BEGIN
 90
        0
 91
        1
 62
     0
 92
       -2
340
14
 93
        0
 40
0.045
309
GRIDFORMAT_END
 95
       32
302
GRIDFORMAT
  1
GRIDFORMAT_BEGIN
 90
        0
 91
        1
 62
     0
 92
       -2
340
14
 93
        0
 40
0.045
309
GRIDFORMAT_END
309
TABLEFORMAT_END
  1
CELLSTYLE_BEGIN
 90
        2
 91
        1
300
_HEADER
309
CELLSTYLE_END
300
CELLSTYLE
  1
TABLEFORMAT_BEGIN
 90
        5
170
     1
 91
        0
 92
        0
 62
   257
 93
        1
300
CONTENTFORMAT
  1
CONTENTFORMAT_BEGIN
 90
        0
 91
        0
 92
        4
 93
        0
300

 40
0.0
140
1.0
 94
        2
 62
     0
340
11
144
4.5
309
CONTENTFORMAT_END
171
     1
301
MARGIN
  1
CELLMARGIN_BEGIN
 40
1.5
 40
1.5
 40
1.5
 40
1.5
 40
1.5
 40
1.5
309
CELLMARGIN_END
 94
        6
 95
        1
302
GRIDFORMAT
  1
GRIDFORMAT_BEGIN
 90
        0
 91
        1
 62
     0
 92
       -2
340
14
 93
        0
 40
0.045
309
GRIDFORMAT_END
 95
        2
302
GRIDFORMAT
  1
GRIDFORMAT_BEGIN
 90
        0
 91
        1
 62
     0
 92
       -2
340
14
 93
        0
 40
0.045
309
GRIDFORMAT_END
 95
        4
302
GRIDFORMAT
  1
GRIDFORMAT_BEGIN
 90
        0
 91
        1
 62
     0
 92
       -2
340
14
 93
        0
 40
0.045
309
GRIDFORMAT_END
 95
        8
302
GRIDFORMAT
  1
GRIDFORMAT_BEGIN
 90
        0
 91
        1
 62
     0
 92
       -2
340
14
 93
        0
 40
0.045
309
GRIDFORMAT_END
 95
       16
302
GRIDFORMAT
  1
GRIDFORMAT_BEGIN
 90
        0
 91
        1
 62
     0
 92
       -2
340
14
 93
        0
 40
0.045
309
GRIDFORMAT_END
 95
       32
302
GRIDFORMAT
  1
GRIDFORMAT_BEGIN
 90
        0
 91
        1
 62
     0
 92
       -2
340
14
 93
        0
 40
0.045
309
GRIDFORMAT_END
309
TABLEFORMAT_END
  1
CELLSTYLE_BEGIN
 90
        3
 91
        2
300
_DATA
309
CELLSTYLE_END
  0
XRECORD
  5
3BE
102
{ACAD_REACTORS
330
3BD
102
}
330
3BD
100
AcDbXrecord
280
     1
102
ACAD_ROUNDTRIP_PRE2007_TABLESTYLE
 90
        4
 91
        0
  1

 92
        4
 93
        0
  2

 94
        4
 95
        0
  3

  0
XRECORD
  5
390
102
{ACAD_REACTORS
330
38F
102
}
330
38F
100
AcDbXrecord
280
     1
102
RTVSPropertyOp0
 70
     1
102
RTVSPropertyOp1
 70
     1
102
RTVSPropertyOp2
 70
     1
102
RTVSPropertyOp3
 70
     1
102
RTVSPropertyOp4
 70
     1
102
RTVSPropertyOp5
 70
     1
102
RTVSPropertyOp6
 70
     1
102
RTVSPropertyOp7
 70
     1
102
RTVSPropertyOp8
 70
     1
102
RTVSPropertyOp9
 70
     1
102
RTVSPropertyOp10
 70
     1
102
RTVSPropertyOp11
 70
     1
102
RTVSPropertyOp12
 70
     1
102
RTVSPropertyOp13
 70
     1
102
RTVSPropertyOp14
 70
     1
102
RTVSPropertyOp15
 70
     1
102
RTVSPropertyOp16
 70
     1
102
RTVSPropertyOp17
 70
     1
102
RTVSPropertyOp18
 70
     1
102
RTVSPropertyOp19
 70
     1
102
RTVSPropertyOp20
 70
     1
102
RTVSPropertyOp21
 70
     1
102
RTVSPropertyOp22
 70
     1
102
RTVSPropertyOp23
 70
     1
102
RTVSPropertyOp24
 70
     1
102
RTVSPropertyOp25
 70
     1
102
RTVSPropertyOp26
 70
     1
102
RTVSPropertyOp27
 70
     1
102
RTVSPropertyOp28
 70
     1
102
RTVSPropertyOp29
 70
     1
102
RTVSPropertyOp30
 70
     1
102
RTVSPropertyOp31
 70
     1
102
RTVSPropertyOp32
 70
     1
102
RTVSPropertyOp33
 70
     1
102
RTVSPropertyOp34
 70
     1
102
RTVSPropertyOp35
 70
     1
102
RTVSPropertyOp36
 70
     1
102
RTVSPropertyOp37
 70
     1
102
RTVSPropertyOp38
 70
     1
102
RTVSPropertyOp39
 70
     1
102
RTVSPropertyOp40
 70
     1
102
RTVSPropertyOp41
 70
     1
102
RTVSPropertyOp42
 70
     1
102
RTVSPropertyOp43
 70
     1
102
RTVSPropertyOp44
 70
     1
102
RTVSPropertyOp45
 70
     1
102
RTVSPropertyOp46
 70
     1
102
RTVSPropertyOp47
 70
     1
102
RTVSPropertyOp48
 70
     1
102
RTVSPropertyOp49
 70
     1
102
RTVSPropertyOp50
 70
     1
102
RTVSPropertyOp51
 70
     0
102
RTVSPropertyOp52
 70
     0
102
RTVSPropertyOp53
 70
     1
102
RTVSPropertyOp54
 70
     1
102
RTVSPropertyOp55
 70
     1
102
RTVSPropertyOp56
 70
     1
102
RTVSPropertyOp57
 70
     1
102
RTVSPost2010Prop28
280
     1
102
RTVSPost2010PropOp28
 70
     1
102
RTVSPost2010Prop29
280
     1
102
RTVSPost2010PropOp29
 70
     1
102
RTVSPost2010Prop30
280
     0
102
RTVSPost2010PropOp30
 70
     1
102
RTVSPost2010Prop31
280
     0
102
RTVSPost2010PropOp31
 70
     1
102
RTVSPost2010Prop32
280
     0
102
RTVSPost2010PropOp32
 70
     1
102
RTVSPost2010Prop33
280
     0
102
RTVSPost2010PropOp33
 70
     1
102
RTVSPost2010Prop34
280
     0
102
RTVSPost2010PropOp34
 70
     1
102
RTVSPost2010Prop35
280
     0
102
RTVSPost2010PropOp35
 70
     1
102
RTVSPost2010Prop36
280
     0
102
RTVSPost2010PropOp36
 70
     1
102
RTVSPost2010Prop37
 90
       50
102
RTVSPost2010PropOp37
 70
     1
102
RTVSPost2010Prop38
140
0.0
102
RTVSPost2010PropOp38
 70
     1
102
RTVSPost2010Prop39
140
1.0
102
RTVSPost2010PropOp39
 70
     1
102
RTVSPost2010Prop40
 90
        0
102
RTVSPost2010PropOp40
 70
     1
102
RTVSPost2010Prop41ColorIndex
 90
       18
102
RTVSPost2010Prop41ColorRGB
 90
        0
102
RTVSPost2010PropOp41
 70
     1
102
RTVSPost2010Prop42
 90
       50
102
RTVSPost2010PropOp42
 70
     1
102
RTVSPost2010Prop43
 90
        3
102
RTVSPost2010PropOp43
 70
     1
102
RTVSPost2010Prop44ColorIndex
 90
        5
102
RTVSPost2010Prop44ColorRGB
 90
      255
102
RTVSPost2010PropOp44
 70
     1
102
RTVSPost2010Prop45
280
     0
102
RTVSPost2010PropOp45
 70
     1
102
RTVSPost2010Prop46
 90
       50
102
RTVSPost2010PropOp46
 70
     1
102
RTVSPost2010Prop47
 90
       50
102
RTVSPost2010PropOp47
 70
     1
102
RTVSPost2010Prop48
 90
       50
102
RTVSPost2010PropOp48
 70
     1
102
RTVSPost2010Prop49
280
     0
102
RTVSPost2010PropOp49
 70
     1
102
RTVSPost2010Prop50
 90
       50
102
RTVSPost2010PropOp50
 70
     1
102
RTVSPost2010Prop51ColorIndex
 90
      256
102
RTVSPost2010Prop51ColorRGB
 90
-16777216
102
RTVSPost2010PropOp51
 70
     0
102
RTVSPost2010Prop52
140
1.0
102
RTVSPost2010PropOp52
 70
     0
102
RTVSPost2010Prop53
 90
        2
102
RTVSPost2010PropOp53
 70
     1
102
RTVSPost2010Prop54
  1
strokes_ogs.tif
102
RTVSPost2010PropOp54
 70
     1
102
RTVSPost2010Prop55
280
     0
102
RTVSPost2010PropOp55
 70
     1
102
RTVSPost2010Prop56
140
1.0
102
RTVSPost2010PropOp56
 70
     1
102
RTVSPost2010Prop57
140
1.0
102
RTVSPost2010PropOp57
 70
     1
  0
XRECORD
  5
396
102
{ACAD_REACTORS
330
395
102
}
330
395
100
AcDbXrecord
280
     1
102
RTVSPropertyOp0
 70
     1
102
RTVSPropertyOp1
 70
     1
102
RTVSPropertyOp2
 70
     1
102
RTVSPropertyOp3
 70
     1
102
RTVSPropertyOp4
 70
     1
102
RTVSPropertyOp5
 70
     1
102
RTVSPropertyOp6
 70
     1
102
RTVSPropertyOp7
 70
     1
102
RTVSPropertyOp8
 70
     1
102
RTVSPropertyOp9
 70
     1
102
RTVSPropertyOp10
 70
     1
102
RTVSPropertyOp11
 70
     1
102
RTVSPropertyOp12
 70
     1
102
RTVSPropertyOp13
 70
     1
102
RTVSPropertyOp14
 70
     1
102
RTVSPropertyOp15
 70
     1
102
RTVSPropertyOp16
 70
     1
102
RTVSPropertyOp17
 70
     1
102
RTVSPropertyOp18
 70
     1
102
RTVSPropertyOp19
 70
     1
102
RTVSPropertyOp20
 70
     1
102
RTVSPropertyOp21
 70
     1
102
RTVSPropertyOp22
 70
     1
102
RTVSPropertyOp23
 70
     1
102
RTVSPropertyOp24
 70
     1
102
RTVSPropertyOp25
 70
     1
102
RTVSPropertyOp26
 70
     1
102
RTVSPropertyOp27
 70
     1
102
RTVSPropertyOp28
 70
     1
102
RTVSPropertyOp29
 70
     1
102
RTVSPropertyOp30
 70
     1
102
RTVSPropertyOp31
 70
     1
102
RTVSPropertyOp32
 70
     1
102
RTVSPropertyOp33
 70
     1
102
RTVSPropertyOp34
 70
     1
102
RTVSPropertyOp35
 70
     1
102
RTVSPropertyOp36
 70
     1
102
RTVSPropertyOp37
 70
     1
102
RTVSPropertyOp38
 70
     1
102
RTVSPropertyOp39
 70
     1
102
RTVSPropertyOp40
 70
     1
102
RTVSPropertyOp41
 70
     1
102
RTVSPropertyOp42
 70
     1
102
RTVSPropertyOp43
 70
     1
102
RTVSPropertyOp44
 70
     1
102
RTVSPropertyOp45
 70
     1
102
RTVSPropertyOp46
 70
     1
102
RTVSPropertyOp47
 70
     1
102
RTVSPropertyOp48
 70
     1
102
RTVSPropertyOp49
 70
     1
102
RTVSPropertyOp50
 70
     1
102
RTVSPropertyOp51
 70
     0
102
RTVSPropertyOp52
 70
     0
102
RTVSPropertyOp53
 70
     1
102
RTVSPropertyOp54
 70
     1
102
RTVSPropertyOp55
 70
     1
102
RTVSPropertyOp56
 70
     1
102
RTVSPropertyOp57
 70
     1
102
RTVSPost2010Prop28
280
     0
102
RTVSPost2010PropOp28
 70
     1
102
RTVSPost2010Prop29
280
     1
102
RTVSPost2010PropOp29
 70
     1
102
RTVSPost2010Prop30
280
     1
102
RTVSPost2010PropOp30
 70
     1
102
RTVSPost2010Prop31
280
     0
102
RTVSPost2010PropOp31
 70
     1
102
RTVSPost2010Prop32
280
     0
102
RTVSPost2010PropOp32
 70
     1
102
RTVSPost2010Prop33
280
     0
102
RTVSPost2010PropOp33
 70
     1
102
RTVSPost2010Prop34
280
     0
102
RTVSPost2010PropOp34
 70
     1
102
RTVSPost2010Prop35
280
     0
102
RTVSPost2010PropOp35
 70
     1
102
RTVSPost2010Prop36
280
     0
102
RTVSPost2010PropOp36
 70
     1
102
RTVSPost2010Prop37
 90
       50
102
RTVSPost2010PropOp37
 70
     1
102
RTVSPost2010Prop38
140
0.0
102
RTVSPost2010PropOp38
 70
     1
102
RTVSPost2010Prop39
140
1.0
102
RTVSPost2010PropOp39
 70
     1
102
RTVSPost2010Prop40
 90
        0
102
RTVSPost2010PropOp40
 70
     1
102
RTVSPost2010Prop41ColorIndex
 90
       18
102
RTVSPost2010Prop41ColorRGB
 90
        0
102
RTVSPost2010PropOp41
 70
     1
102
RTVSPost2010Prop42
 90
       50
102
RTVSPost2010PropOp42
 70
     1
102
RTVSPost2010Prop43
 90
        3
102
RTVSPost2010PropOp43
 70
     1
102
RTVSPost2010Prop44ColorIndex
 90
        5
102
RTVSPost2010Prop44ColorRGB
 90
      255
102
RTVSPost2010PropOp44
 70
     1
102
RTVSPost2010Prop45
280
     0
102
RTVSPost2010PropOp45
 70
     1
102
RTVSPost2010Prop46
 90
       50
102
RTVSPost2010PropOp46
 70
     1
102
RTVSPost2010Prop47
 90
       50
102
RTVSPost2010PropOp47
 70
     1
102
RTVSPost2010Prop48
 90
       50
102
RTVSPost2010PropOp48
 70
     1
102
RTVSPost2010Prop49
280
     0
102
RTVSPost2010PropOp49
 70
     1
102
RTVSPost2010Prop50
 90
       50
102
RTVSPost2010PropOp50
 70
     1
102
RTVSPost2010Prop51ColorIndex
 90
      256
102
RTVSPost2010Prop51ColorRGB
 90
-16777216
102
RTVSPost2010PropOp51
 70
     0
102
RTVSPost2010Prop52
140
1.0
102
RTVSPost2010PropOp52
 70
     0
102
RTVSPost2010Prop53
 90
        2
102
RTVSPost2010PropOp53
 70
     1
102
RTVSPost2010Prop54
  1
strokes_ogs.tif
102
RTVSPost2010PropOp54
 70
     1
102
RTVSPost2010Prop55
280
     0
102
RTVSPost2010PropOp55
 70
     1
102
RTVSPost2010Prop56
140
1.0
102
RTVSPost2010PropOp56
 70
     1
102
RTVSPost2010Prop57
140
1.0
102
RTVSPost2010PropOp57
 70
     1
  0
XRECORD
  5
39E
102
{ACAD_REACTORS
330
39D
102
}
330
39D
100
AcDbXrecord
280
     1
102
RTVSPropertyOp0
 70
     1
102
RTVSPropertyOp1
 70
     1
102
RTVSPropertyOp2
 70
     1
102
RTVSPropertyOp3
 70
     1
102
RTVSPropertyOp4
 70
     1
102
RTVSPropertyOp5
 70
     1
102
RTVSPropertyOp6
 70
     1
102
RTVSPropertyOp7
 70
     1
102
RTVSPropertyOp8
 70
     1
102
RTVSPropertyOp9
 70
     1
102
RTVSPropertyOp10
 70
     1
102
RTVSPropertyOp11
 70
     1
102
RTVSPropertyOp12
 70
     1
102
RTVSPropertyOp13
 70
     1
102
RTVSPropertyOp14
 70
     1
102
RTVSPropertyOp15
 70
     1
102
RTVSPropertyOp16
 70
     1
102
RTVSPropertyOp17
 70
     1
102
RTVSPropertyOp18
 70
     1
102
RTVSPropertyOp19
 70
     1
102
RTVSPropertyOp20
 70
     1
102
RTVSPropertyOp21
 70
     1
102
RTVSPropertyOp22
 70
     1
102
RTVSPropertyOp23
 70
     1
102
RTVSPropertyOp24
 70
     1
102
RTVSPropertyOp25
 70
     1
102
RTVSPropertyOp26
 70
     1
102
RTVSPropertyOp27
 70
     1
102
RTVSPropertyOp28
 70
     1
102
RTVSPropertyOp29
 70
     1
102
RTVSPropertyOp30
 70
     1
102
RTVSPropertyOp31
 70
     1
102
RTVSPropertyOp32
 70
     1
102
RTVSPropertyOp33
 70
     1
102
RTVSPropertyOp34
 70
     1
102
RTVSPropertyOp35
 70
     1
102
RTVSPropertyOp36
 70
     1
102
RTVSPropertyOp37
 70
     1
102
RTVSPropertyOp38
 70
     1
102
RTVSPropertyOp39
 70
     1
102
RTVSPropertyOp40
 70
     1
102
RTVSPropertyOp41
 70
     1
102
RTVSPropertyOp42
 70
     1
102
RTVSPropertyOp43
 70
     1
102
RTVSPropertyOp44
 70
     1
102
RTVSPropertyOp45
 70
     1
102
RTVSPropertyOp46
 70
     1
102
RTVSPropertyOp47
 70
     1
102
RTVSPropertyOp48
 70
     1
102
RTVSPropertyOp49
 70
     1
102
RTVSPropertyOp50
 70
     1
102
RTVSPropertyOp51
 70
     0
102
RTVSPropertyOp52
 70
     0
102
RTVSPropertyOp53
 70
     1
102
RTVSPropertyOp54
 70
     1
102
RTVSPropertyOp55
 70
     1
102
RTVSPropertyOp56
 70
     1
102
RTVSPropertyOp57
 70
     1
102
RTVSPost2010Prop28
280
     0
102
RTVSPost2010PropOp28
 70
     1
102
RTVSPost2010Prop29
280
     1
102
RTVSPost2010PropOp29
 70
     1
102
RTVSPost2010Prop30
280
     1
102
RTVSPost2010PropOp30
 70
     1
102
RTVSPost2010Prop31
280
     0
102
RTVSPost2010PropOp31
 70
     1
102
RTVSPost2010Prop32
280
     0
102
RTVSPost2010PropOp32
 70
     1
102
RTVSPost2010Prop33
280
     0
102
RTVSPost2010PropOp33
 70
     1
102
RTVSPost2010Prop34
280
     0
102
RTVSPost2010PropOp34
 70
     1
102
RTVSPost2010Prop35
280
     0
102
RTVSPost2010PropOp35
 70
     1
102
RTVSPost2010Prop36
280
     0
102
RTVSPost2010PropOp36
 70
     1
102
RTVSPost2010Prop37
 90
       50
102
RTVSPost2010PropOp37
 70
     1
102
RTVSPost2010Prop38
140
0.0
102
RTVSPost2010PropOp38
 70
     1
102
RTVSPost2010Prop39
140
1.0
102
RTVSPost2010PropOp39
 70
     1
102
RTVSPost2010Prop40
 90
        0
102
RTVSPost2010PropOp40
 70
     1
102
RTVSPost2010Prop41ColorIndex
 90
       18
102
RTVSPost2010Prop41ColorRGB
 90
        0
102
RTVSPost2010PropOp41
 70
     1
102
RTVSPost2010Prop42
 90
       50
102
RTVSPost2010PropOp42
 70
     1
102
RTVSPost2010Prop43
 90
        3
102
RTVSPost2010PropOp43
 70
     1
102
RTVSPost2010Prop44ColorIndex
 90
        5
102
RTVSPost2010Prop44ColorRGB
 90
      255
102
RTVSPost2010PropOp44
 70
     1
102
RTVSPost2010Prop45
280
     0
102
RTVSPost2010PropOp45
 70
     1
102
RTVSPost2010Prop46
 90
       50
102
RTVSPost2010PropOp46
 70
     1
102
RTVSPost2010Prop47
 90
       50
102
RTVSPost2010PropOp47
 70
     1
102
RTVSPost2010Prop48
 90
       50
102
RTVSPost2010PropOp48
 70
     1
102
RTVSPost2010Prop49
280
     0
102
RTVSPost2010PropOp49
 70
     1
102
RTVSPost2010Prop50
 90
       50
102
RTVSPost2010PropOp50
 70
     1
102
RTVSPost2010Prop51ColorIndex
 90
      256
102
RTVSPost2010Prop51ColorRGB
 90
-16777216
102
RTVSPost2010PropOp51
 70
     0
102
RTVSPost2010Prop52
140
1.0
102
RTVSPost2010PropOp52
 70
     0
102
RTVSPost2010Prop53
 90
        2
102
RTVSPost2010PropOp53
 70
     1
102
RTVSPost2010Prop54
  1
strokes_ogs.tif
102
RTVSPost2010PropOp54
 70
     1
102
RTVSPost2010Prop55
280
     0
102
RTVSPost2010PropOp55
 70
     1
102
RTVSPost2010Prop56
140
1.0
102
RTVSPost2010PropOp56
 70
     1
102
RTVSPost2010Prop57
140
1.0
102
RTVSPost2010PropOp57
 70
     1
  0
XRECORD
  5
3A6
102
{ACAD_REACTORS
330
3A5
102
}
330
3A5
100
AcDbXrecord
280
     1
102
RTVSPropertyOp0
 70
     1
102
RTVSPropertyOp1
 70
     1
102
RTVSPropertyOp2
 70
     1
102
RTVSPropertyOp3
 70
     1
102
RTVSPropertyOp4
 70
     1
102
RTVSPropertyOp5
 70
     1
102
RTVSPropertyOp6
 70
     1
102
RTVSPropertyOp7
 70
     1
102
RTVSPropertyOp8
 70
     1
102
RTVSPropertyOp9
 70
     1
102
RTVSPropertyOp10
 70
     1
102
RTVSPropertyOp11
 70
     1
102
RTVSPropertyOp12
 70
     1
102
RTVSPropertyOp13
 70
     1
102
RTVSPropertyOp14
 70
     1
102
RTVSPropertyOp15
 70
     1
102
RTVSPropertyOp16
 70
     1
102
RTVSPropertyOp17
 70
     1
102
RTVSPropertyOp18
 70
     1
102
RTVSPropertyOp19
 70
     1
102
RTVSPropertyOp20
 70
     1
102
RTVSPropertyOp21
 70
     1
102
RTVSPropertyOp22
 70
     1
102
RTVSPropertyOp23
 70
     1
102
RTVSPropertyOp24
 70
     1
102
RTVSPropertyOp25
 70
     1
102
RTVSPropertyOp26
 70
     1
102
RTVSPropertyOp27
 70
     1
102
RTVSPropertyOp28
 70
     1
102
RTVSPropertyOp29
 70
     1
102
RTVSPropertyOp30
 70
     1
102
RTVSPropertyOp31
 70
     1
102
RTVSPropertyOp32
 70
     1
102
RTVSPropertyOp33
 70
     1
102
RTVSPropertyOp34
 70
     1
102
RTVSPropertyOp35
 70
     1
102
RTVSPropertyOp36
 70
     1
102
RTVSPropertyOp37
 70
     1
102
RTVSPropertyOp38
 70
     1
102
RTVSPropertyOp39
 70
     1
102
RTVSPropertyOp40
 70
     1
102
RTVSPropertyOp41
 70
     1
102
RTVSPropertyOp42
 70
     1
102
RTVSPropertyOp43
 70
     1
102
RTVSPropertyOp44
 70
     1
102
RTVSPropertyOp45
 70
     1
102
RTVSPropertyOp46
 70
     1
102
RTVSPropertyOp47
 70
     1
102
RTVSPropertyOp48
 70
     1
102
RTVSPropertyOp49
 70
     1
102
RTVSPropertyOp50
 70
     1
102
RTVSPropertyOp51
 70
     0
102
RTVSPropertyOp52
 70
     0
102
RTVSPropertyOp53
 70
     1
102
RTVSPropertyOp54
 70
     1
102
RTVSPropertyOp55
 70
     1
102
RTVSPropertyOp56
 70
     1
102
RTVSPropertyOp57
 70
     1
102
RTVSPost2010Prop28
280
     0
102
RTVSPost2010PropOp28
 70
     1
102
RTVSPost2010Prop29
280
     1
102
RTVSPost2010PropOp29
 70
     1
102
RTVSPost2010Prop30
280
     1
102
RTVSPost2010PropOp30
 70
     1
102
RTVSPost2010Prop31
280
     0
102
RTVSPost2010PropOp31
 70
     1
102
RTVSPost2010Prop32
280
     0
102
RTVSPost2010PropOp32
 70
     1
102
RTVSPost2010Prop33
280
     0
102
RTVSPost2010PropOp33
 70
     1
102
RTVSPost2010Prop34
280
     0
102
RTVSPost2010PropOp34
 70
     1
102
RTVSPost2010Prop35
280
     0
102
RTVSPost2010PropOp35
 70
     1
102
RTVSPost2010Prop36
280
     0
102
RTVSPost2010PropOp36
 70
     1
102
RTVSPost2010Prop37
 90
       50
102
RTVSPost2010PropOp37
 70
     1
102
RTVSPost2010Prop38
140
0.0
102
RTVSPost2010PropOp38
 70
     1
102
RTVSPost2010Prop39
140
1.0
102
RTVSPost2010PropOp39
 70
     1
102
RTVSPost2010Prop40
 90
        0
102
RTVSPost2010PropOp40
 70
     1
102
RTVSPost2010Prop41ColorIndex
 90
       18
102
RTVSPost2010Prop41ColorRGB
 90
        0
102
RTVSPost2010PropOp41
 70
     1
102
RTVSPost2010Prop42
 90
       50
102
RTVSPost2010PropOp42
 70
     1
102
RTVSPost2010Prop43
 90
        3
102
RTVSPost2010PropOp43
 70
     1
102
RTVSPost2010Prop44ColorIndex
 90
        5
102
RTVSPost2010Prop44ColorRGB
 90
      255
102
RTVSPost2010PropOp44
 70
     1
102
RTVSPost2010Prop45
280
     0
102
RTVSPost2010PropOp45
 70
     1
102
RTVSPost2010Prop46
 90
       50
102
RTVSPost2010PropOp46
 70
     1
102
RTVSPost2010Prop47
 90
       50
102
RTVSPost2010PropOp47
 70
     1
102
RTVSPost2010Prop48
 90
       50
102
RTVSPost2010PropOp48
 70
     1
102
RTVSPost2010Prop49
280
     0
102
RTVSPost2010PropOp49
 70
     1
102
RTVSPost2010Prop50
 90
       50
102
RTVSPost2010PropOp50
 70
     1
102
RTVSPost2010Prop51ColorIndex
 90
      256
102
RTVSPost2010Prop51ColorRGB
 90
-16777216
102
RTVSPost2010PropOp51
 70
     0
102
RTVSPost2010Prop52
140
1.0
102
RTVSPost2010PropOp52
 70
     0
102
RTVSPost2010Prop53
 90
        2
102
RTVSPost2010PropOp53
 70
     1
102
RTVSPost2010Prop54
  1
strokes_ogs.tif
102
RTVSPost2010PropOp54
 70
     1
102
RTVSPost2010Prop55
280
     0
102
RTVSPost2010PropOp55
 70
     1
102
RTVSPost2010Prop56
140
1.0
102
RTVSPost2010PropOp56
 70
     1
102
RTVSPost2010Prop57
140
1.0
102
RTVSPost2010PropOp57
 70
     1
  0
XRECORD
  5
39A
102
{ACAD_REACTORS
330
399
102
}
330
399
100
AcDbXrecord
280
     1
102
RTVSPropertyOp0
 70
     1
102
RTVSPropertyOp1
 70
     1
102
RTVSPropertyOp2
 70
     1
102
RTVSPropertyOp3
 70
     1
102
RTVSPropertyOp4
 70
     1
102
RTVSPropertyOp5
 70
     1
102
RTVSPropertyOp6
 70
     1
102
RTVSPropertyOp7
 70
     1
102
RTVSPropertyOp8
 70
     1
102
RTVSPropertyOp9
 70
     1
102
RTVSPropertyOp10
 70
     1
102
RTVSPropertyOp11
 70
     1
102
RTVSPropertyOp12
 70
     1
102
RTVSPropertyOp13
 70
     1
102
RTVSPropertyOp14
 70
     1
102
RTVSPropertyOp15
 70
     1
102
RTVSPropertyOp16
 70
     1
102
RTVSPropertyOp17
 70
     1
102
RTVSPropertyOp18
 70
     1
102
RTVSPropertyOp19
 70
     1
102
RTVSPropertyOp20
 70
     1
102
RTVSPropertyOp21
 70
     1
102
RTVSPropertyOp22
 70
     1
102
RTVSPropertyOp23
 70
     1
102
RTVSPropertyOp24
 70
     1
102
RTVSPropertyOp25
 70
     1
102
RTVSPropertyOp26
 70
     1
102
RTVSPropertyOp27
 70
     1
102
RTVSPropertyOp28
 70
     1
102
RTVSPropertyOp29
 70
     1
102
RTVSPropertyOp30
 70
     1
102
RTVSPropertyOp31
 70
     1
102
RTVSPropertyOp32
 70
     1
102
RTVSPropertyOp33
 70
     1
102
RTVSPropertyOp34
 70
     1
102
RTVSPropertyOp35
 70
     1
102
RTVSPropertyOp36
 70
     1
102
RTVSPropertyOp37
 70
     1
102
RTVSPropertyOp38
 70
     1
102
RTVSPropertyOp39
 70
     1
102
RTVSPropertyOp40
 70
     1
102
RTVSPropertyOp41
 70
     1
102
RTVSPropertyOp42
 70
     1
102
RTVSPropertyOp43
 70
     1
102
RTVSPropertyOp44
 70
     1
102
RTVSPropertyOp45
 70
     1
102
RTVSPropertyOp46
 70
     1
102
RTVSPropertyOp47
 70
     1
102
RTVSPropertyOp48
 70
     1
102
RTVSPropertyOp49
 70
     1
102
RTVSPropertyOp50
 70
     1
102
RTVSPropertyOp51
 70
     0
102
RTVSPropertyOp52
 70
     0
102
RTVSPropertyOp53
 70
     1
102
RTVSPropertyOp54
 70
     1
102
RTVSPropertyOp55
 70
     1
102
RTVSPropertyOp56
 70
     1
102
RTVSPropertyOp57
 70
     1
102
RTVSPost2010Prop28
280
     0
102
RTVSPost2010PropOp28
 70
     1
102
RTVSPost2010Prop29
280
     1
102
RTVSPost2010PropOp29
 70
     1
102
RTVSPost2010Prop30
280
     1
102
RTVSPost2010PropOp30
 70
     1
102
RTVSPost2010Prop31
280
     0
102
RTVSPost2010PropOp31
 70
     1
102
RTVSPost2010Prop32
280
     0
102
RTVSPost2010PropOp32
 70
     1
102
RTVSPost2010Prop33
280
     0
102
RTVSPost2010PropOp33
 70
     1
102
RTVSPost2010Prop34
280
     0
102
RTVSPost2010PropOp34
 70
     1
102
RTVSPost2010Prop35
280
     0
102
RTVSPost2010PropOp35
 70
     1
102
RTVSPost2010Prop36
280
     0
102
RTVSPost2010PropOp36
 70
     1
102
RTVSPost2010Prop37
 90
       50
102
RTVSPost2010PropOp37
 70
     1
102
RTVSPost2010Prop38
140
0.0
102
RTVSPost2010PropOp38
 70
     1
102
RTVSPost2010Prop39
140
1.0
102
RTVSPost2010PropOp39
 70
     1
102
RTVSPost2010Prop40
 90
        0
102
RTVSPost2010PropOp40
 70
     1
102
RTVSPost2010Prop41ColorIndex
 90
       18
102
RTVSPost2010Prop41ColorRGB
 90
        0
102
RTVSPost2010PropOp41
 70
     1
102
RTVSPost2010Prop42
 90
       50
102
RTVSPost2010PropOp42
 70
     1
102
RTVSPost2010Prop43
 90
        3
102
RTVSPost2010PropOp43
 70
     1
102
RTVSPost2010Prop44ColorIndex
 90
        5
102
RTVSPost2010Prop44ColorRGB
 90
      255
102
RTVSPost2010PropOp44
 70
     1
102
RTVSPost2010Prop45
280
     0
102
RTVSPost2010PropOp45
 70
     1
102
RTVSPost2010Prop46
 90
       50
102
RTVSPost2010PropOp46
 70
     1
102
RTVSPost2010Prop47
 90
       50
102
RTVSPost2010PropOp47
 70
     1
102
RTVSPost2010Prop48
 90
       50
102
RTVSPost2010PropOp48
 70
     1
102
RTVSPost2010Prop49
280
     0
102
RTVSPost2010PropOp49
 70
     1
102
RTVSPost2010Prop50
 90
       50
102
RTVSPost2010PropOp50
 70
     1
102
RTVSPost2010Prop51ColorIndex
 90
      256
102
RTVSPost2010Prop51ColorRGB
 90
-16777216
102
RTVSPost2010PropOp51
 70
     0
102
RTVSPost2010Prop52
140
1.0
102
RTVSPost2010PropOp52
 70
     0
102
RTVSPost2010Prop53
 90
        2
102
RTVSPost2010PropOp53
 70
     1
102
RTVSPost2010Prop54
  1
strokes_ogs.tif
102
RTVSPost2010PropOp54
 70
     1
102
RTVSPost2010Prop55
280
     0
102
RTVSPost2010PropOp55
 70
     1
102
RTVSPost2010Prop56
140
1.0
102
RTVSPost2010PropOp56
 70
     1
102
RTVSPost2010Prop57
140
1.0
102
RTVSPost2010PropOp57
 70
     1
  0
XRECORD
  5
39C
102
{ACAD_REACTORS
330
39B
102
}
330
39B
100
AcDbXrecord
280
     1
102
RTVSPropertyOp0
 70
     1
102
RTVSPropertyOp1
 70
     1
102
RTVSPropertyOp2
 70
     1
102
RTVSPropertyOp3
 70
     1
102
RTVSPropertyOp4
 70
     1
102
RTVSPropertyOp5
 70
     1
102
RTVSPropertyOp6
 70
     1
102
RTVSPropertyOp7
 70
     1
102
RTVSPropertyOp8
 70
     1
102
RTVSPropertyOp9
 70
     1
102
RTVSPropertyOp10
 70
     1
102
RTVSPropertyOp11
 70
     1
102
RTVSPropertyOp12
 70
     1
102
RTVSPropertyOp13
 70
     1
102
RTVSPropertyOp14
 70
     1
102
RTVSPropertyOp15
 70
     1
102
RTVSPropertyOp16
 70
     1
102
RTVSPropertyOp17
 70
     1
102
RTVSPropertyOp18
 70
     1
102
RTVSPropertyOp19
 70
     1
102
RTVSPropertyOp20
 70
     1
102
RTVSPropertyOp21
 70
     1
102
RTVSPropertyOp22
 70
     1
102
RTVSPropertyOp23
 70
     1
102
RTVSPropertyOp24
 70
     1
102
RTVSPropertyOp25
 70
     1
102
RTVSPropertyOp26
 70
     1
102
RTVSPropertyOp27
 70
     1
102
RTVSPropertyOp28
 70
     1
102
RTVSPropertyOp29
 70
     1
102
RTVSPropertyOp30
 70
     1
102
RTVSPropertyOp31
 70
     1
102
RTVSPropertyOp32
 70
     1
102
RTVSPropertyOp33
 70
     1
102
RTVSPropertyOp34
 70
     1
102
RTVSPropertyOp35
 70
     1
102
RTVSPropertyOp36
 70
     1
102
RTVSPropertyOp37
 70
     1
102
RTVSPropertyOp38
 70
     1
102
RTVSPropertyOp39
 70
     1
102
RTVSPropertyOp40
 70
     1
102
RTVSPropertyOp41
 70
     1
102
RTVSPropertyOp42
 70
     1
102
RTVSPropertyOp43
 70
     1
102
RTVSPropertyOp44
 70
     1
102
RTVSPropertyOp45
 70
     1
102
RTVSPropertyOp46
 70
     1
102
RTVSPropertyOp47
 70
     1
102
RTVSPropertyOp48
 70
     1
102
RTVSPropertyOp49
 70
     1
102
RTVSPropertyOp50
 70
     1
102
RTVSPropertyOp51
 70
     0
102
RTVSPropertyOp52
 70
     0
102
RTVSPropertyOp53
 70
     1
102
RTVSPropertyOp54
 70
     1
102
RTVSPropertyOp55
 70
     1
102
RTVSPropertyOp56
 70
     1
102
RTVSPropertyOp57
 70
     1
102
RTVSPost2010Prop28
280
     0
102
RTVSPost2010PropOp28
 70
     1
102
RTVSPost2010Prop29
280
     1
102
RTVSPost2010PropOp29
 70
     1
102
RTVSPost2010Prop30
280
     1
102
RTVSPost2010PropOp30
 70
     1
102
RTVSPost2010Prop31
280
     0
102
RTVSPost2010PropOp31
 70
     1
102
RTVSPost2010Prop32
280
     0
102
RTVSPost2010PropOp32
 70
     1
102
RTVSPost2010Prop33
280
     0
102
RTVSPost2010PropOp33
 70
     1
102
RTVSPost2010Prop34
280
     0
102
RTVSPost2010PropOp34
 70
     1
102
RTVSPost2010Prop35
280
     0
102
RTVSPost2010PropOp35
 70
     1
102
RTVSPost2010Prop36
280
     0
102
RTVSPost2010PropOp36
 70
     1
102
RTVSPost2010Prop37
 90
       50
102
RTVSPost2010PropOp37
 70
     1
102
RTVSPost2010Prop38
140
0.0
102
RTVSPost2010PropOp38
 70
     1
102
RTVSPost2010Prop39
140
1.0
102
RTVSPost2010PropOp39
 70
     1
102
RTVSPost2010Prop40
 90
        0
102
RTVSPost2010PropOp40
 70
     1
102
RTVSPost2010Prop41ColorIndex
 90
       18
102
RTVSPost2010Prop41ColorRGB
 90
        0
102
RTVSPost2010PropOp41
 70
     1
102
RTVSPost2010Prop42
 90
       50
102
RTVSPost2010PropOp42
 70
     1
102
RTVSPost2010Prop43
 90
        3
102
RTVSPost2010PropOp43
 70
     1
102
RTVSPost2010Prop44ColorIndex
 90
        5
102
RTVSPost2010Prop44ColorRGB
 90
      255
102
RTVSPost2010PropOp44
 70
     1
102
RTVSPost2010Prop45
280
     0
102
RTVSPost2010PropOp45
 70
     1
102
RTVSPost2010Prop46
 90
       50
102
RTVSPost2010PropOp46
 70
     1
102
RTVSPost2010Prop47
 90
       50
102
RTVSPost2010PropOp47
 70
     1
102
RTVSPost2010Prop48
 90
       50
102
RTVSPost2010PropOp48
 70
     1
102
RTVSPost2010Prop49
280
     0
102
RTVSPost2010PropOp49
 70
     1
102
RTVSPost2010Prop50
 90
       50
102
RTVSPost2010PropOp50
 70
     1
102
RTVSPost2010Prop51ColorIndex
 90
      256
102
RTVSPost2010Prop51ColorRGB
 90
-16777216
102
RTVSPost2010PropOp51
 70
     0
102
RTVSPost2010Prop52
140
1.0
102
RTVSPost2010PropOp52
 70
     0
102
RTVSPost2010Prop53
 90
        2
102
RTVSPost2010PropOp53
 70
     1
102
RTVSPost2010Prop54
  1
strokes_ogs.tif
102
RTVSPost2010PropOp54
 70
     1
102
RTVSPost2010Prop55
280
     0
102
RTVSPost2010PropOp55
 70
     1
102
RTVSPost2010Prop56
140
1.0
102
RTVSPost2010PropOp56
 70
     1
102
RTVSPost2010Prop57
140
1.0
102
RTVSPost2010PropOp57
 70
     1
  0
XRECORD
  5
3AC
102
{ACAD_REACTORS
330
3AB
102
}
330
3AB
100
AcDbXrecord
280
     1
102
RTVSPropertyOp0
 70
     0
102
RTVSPropertyOp1
 70
     0
102
RTVSPropertyOp2
 70
     0
102
RTVSPropertyOp3
 70
     0
102
RTVSPropertyOp4
 70
     0
102
RTVSPropertyOp5
 70
     0
102
RTVSPropertyOp6
 70
     0
102
RTVSPropertyOp7
 70
     0
102
RTVSPropertyOp8
 70
     0
102
RTVSPropertyOp9
 70
     0
102
RTVSPropertyOp10
 70
     0
102
RTVSPropertyOp11
 70
     0
102
RTVSPropertyOp12
 70
     0
102
RTVSPropertyOp13
 70
     0
102
RTVSPropertyOp14
 70
     2
102
RTVSPropertyOp15
 70
     0
102
RTVSPropertyOp16
 70
     0
102
RTVSPropertyOp17
 70
     0
102
RTVSPropertyOp18
 70
     0
102
RTVSPropertyOp19
 70
     0
102
RTVSPropertyOp20
 70
     0
102
RTVSPropertyOp21
 70
     0
102
RTVSPropertyOp22
 70
     0
102
RTVSPropertyOp23
 70
     0
102
RTVSPropertyOp24
 70
     0
102
RTVSPropertyOp25
 70
     0
102
RTVSPropertyOp26
 70
     0
102
RTVSPropertyOp27
 70
     0
102
RTVSPropertyOp28
 70
     0
102
RTVSPropertyOp29
 70
     0
102
RTVSPropertyOp30
 70
     0
102
RTVSPropertyOp31
 70
     0
102
RTVSPropertyOp32
 70
     0
102
RTVSPropertyOp33
 70
     0
102
RTVSPropertyOp34
 70
     0
102
RTVSPropertyOp35
 70
     0
102
RTVSPropertyOp36
 70
     0
102
RTVSPropertyOp37
 70
     0
102
RTVSPropertyOp38
 70
     0
102
RTVSPropertyOp39
 70
     0
102
RTVSPropertyOp40
 70
     0
102
RTVSPropertyOp41
 70
     0
102
RTVSPropertyOp42
 70
     0
102
RTVSPropertyOp43
 70
     0
102
RTVSPropertyOp44
 70
     0
102
RTVSPropertyOp45
 70
     0
102
RTVSPropertyOp46
 70
     0
102
RTVSPropertyOp47
 70
     0
102
RTVSPropertyOp48
 70
     0
102
RTVSPropertyOp49
 70
     0
102
RTVSPropertyOp50
 70
     0
102
RTVSPropertyOp51
 70
     0
102
RTVSPropertyOp52
 70
     0
102
RTVSPropertyOp53
 70
     0
102
RTVSPropertyOp54
 70
     0
102
RTVSPropertyOp55
 70
     0
102
RTVSPropertyOp56
 70
     0
102
RTVSPropertyOp57
 70
     0
102
RTVSPost2010Prop28
280
     0
102
RTVSPost2010PropOp28
 70
     0
102
RTVSPost2010Prop29
280
     1
102
RTVSPost2010PropOp29
 70
     0
102
RTVSPost2010Prop30
280
     1
102
RTVSPost2010PropOp30
 70
     0
102
RTVSPost2010Prop31
280
     0
102
RTVSPost2010PropOp31
 70
     0
102
RTVSPost2010Prop32
280
     0
102
RTVSPost2010PropOp32
 70
     0
102
RTVSPost2010Prop33
280
     0
102
RTVSPost2010PropOp33
 70
     0
102
RTVSPost2010Prop34
280
     0
102
RTVSPost2010PropOp34
 70
     0
102
RTVSPost2010Prop35
280
     0
102
RTVSPost2010PropOp35
 70
     0
102
RTVSPost2010Prop36
280
     0
102
RTVSPost2010PropOp36
 70
     0
102
RTVSPost2010Prop37
 90
       50
102
RTVSPost2010PropOp37
 70
     0
102
RTVSPost2010Prop38
140
0.0
102
RTVSPost2010PropOp38
 70
     0
102
RTVSPost2010Prop39
140
1.0
102
RTVSPost2010PropOp39
 70
     0
102
RTVSPost2010Prop40
 90
        0
102
RTVSPost2010PropOp40
 70
     0
102
RTVSPost2010Prop41ColorIndex
 90
       18
102
RTVSPost2010Prop41ColorRGB
 90
        0
102
RTVSPost2010PropOp41
 70
     0
102
RTVSPost2010Prop42
 90
       50
102
RTVSPost2010PropOp42
 70
     0
102
RTVSPost2010Prop43
 90
        3
102
RTVSPost2010PropOp43
 70
     0
102
RTVSPost2010Prop44ColorIndex
 90
        5
102
RTVSPost2010Prop44ColorRGB
 90
      255
102
RTVSPost2010PropOp44
 70
     0
102
RTVSPost2010Prop45
280
     0
102
RTVSPost2010PropOp45
 70
     0
102
RTVSPost2010Prop46
 90
       50
102
RTVSPost2010PropOp46
 70
     0
102
RTVSPost2010Prop47
 90
       50
102
RTVSPost2010PropOp47
 70
     0
102
RTVSPost2010Prop48
 90
       50
102
RTVSPost2010PropOp48
 70
     0
102
RTVSPost2010Prop49
280
     0
102
RTVSPost2010PropOp49
 70
     0
102
RTVSPost2010Prop50
 90
       50
102
RTVSPost2010PropOp50
 70
     0
102
RTVSPost2010Prop51ColorIndex
 90
      256
102
RTVSPost2010Prop51ColorRGB
 90
-16777216
102
RTVSPost2010PropOp51
 70
     0
102
RTVSPost2010Prop52
140
1.0
102
RTVSPost2010PropOp52
 70
     0
102
RTVSPost2010Prop53
 90
        2
102
RTVSPost2010PropOp53
 70
     0
102
RTVSPost2010Prop54
  1
strokes_ogs.tif
102
RTVSPost2010PropOp54
 70
     0
102
RTVSPost2010Prop55
280
     0
102
RTVSPost2010PropOp55
 70
     0
102
RTVSPost2010Prop56
140
1.0
102
RTVSPost2010PropOp56
 70
     0
102
RTVSPost2010Prop57
140
1.0
102
RTVSPost2010PropOp57
 70
     0
  0
XRECORD
  5
3A4
102
{ACAD_REACTORS
330
3A3
102
}
330
3A3
100
AcDbXrecord
280
     1
102
RTVSPropertyOp0
 70
     1
102
RTVSPropertyOp1
 70
     1
102
RTVSPropertyOp2
 70
     1
102
RTVSPropertyOp3
 70
     1
102
RTVSPropertyOp4
 70
     1
102
RTVSPropertyOp5
 70
     1
102
RTVSPropertyOp6
 70
     1
102
RTVSPropertyOp7
 70
     1
102
RTVSPropertyOp8
 70
     1
102
RTVSPropertyOp9
 70
     1
102
RTVSPropertyOp10
 70
     1
102
RTVSPropertyOp11
 70
     1
102
RTVSPropertyOp12
 70
     1
102
RTVSPropertyOp13
 70
     1
102
RTVSPropertyOp14
 70
     1
102
RTVSPropertyOp15
 70
     1
102
RTVSPropertyOp16
 70
     1
102
RTVSPropertyOp17
 70
     1
102
RTVSPropertyOp18
 70
     1
102
RTVSPropertyOp19
 70
     1
102
RTVSPropertyOp20
 70
     1
102
RTVSPropertyOp21
 70
     1
102
RTVSPropertyOp22
 70
     1
102
RTVSPropertyOp23
 70
     1
102
RTVSPropertyOp24
 70
     1
102
RTVSPropertyOp25
 70
     1
102
RTVSPropertyOp26
 70
     1
102
RTVSPropertyOp27
 70
     1
102
RTVSPropertyOp28
 70
     1
102
RTVSPropertyOp29
 70
     1
102
RTVSPropertyOp30
 70
     1
102
RTVSPropertyOp31
 70
     1
102
RTVSPropertyOp32
 70
     1
102
RTVSPropertyOp33
 70
     1
102
RTVSPropertyOp34
 70
     1
102
RTVSPropertyOp35
 70
     1
102
RTVSPropertyOp36
 70
     1
102
RTVSPropertyOp37
 70
     1
102
RTVSPropertyOp38
 70
     1
102
RTVSPropertyOp39
 70
     1
102
RTVSPropertyOp40
 70
     1
102
RTVSPropertyOp41
 70
     1
102
RTVSPropertyOp42
 70
     1
102
RTVSPropertyOp43
 70
     1
102
RTVSPropertyOp44
 70
     1
102
RTVSPropertyOp45
 70
     1
102
RTVSPropertyOp46
 70
     1
102
RTVSPropertyOp47
 70
     1
102
RTVSPropertyOp48
 70
     1
102
RTVSPropertyOp49
 70
     1
102
RTVSPropertyOp50
 70
     1
102
RTVSPropertyOp51
 70
     0
102
RTVSPropertyOp52
 70
     0
102
RTVSPropertyOp53
 70
     1
102
RTVSPropertyOp54
 70
     1
102
RTVSPropertyOp55
 70
     1
102
RTVSPropertyOp56
 70
     1
102
RTVSPropertyOp57
 70
     1
102
RTVSPost2010Prop28
280
     0
102
RTVSPost2010PropOp28
 70
     1
102
RTVSPost2010Prop29
280
     1
102
RTVSPost2010PropOp29
 70
     1
102
RTVSPost2010Prop30
280
     1
102
RTVSPost2010PropOp30
 70
     1
102
RTVSPost2010Prop31
280
     0
102
RTVSPost2010PropOp31
 70
     1
102
RTVSPost2010Prop32
280
     0
102
RTVSPost2010PropOp32
 70
     1
102
RTVSPost2010Prop33
280
     0
102
RTVSPost2010PropOp33
 70
     1
102
RTVSPost2010Prop34
280
     0
102
RTVSPost2010PropOp34
 70
     1
102
RTVSPost2010Prop35
280
     0
102
RTVSPost2010PropOp35
 70
     1
102
RTVSPost2010Prop36
280
     0
102
RTVSPost2010PropOp36
 70
     1
102
RTVSPost2010Prop37
 90
       50
102
RTVSPost2010PropOp37
 70
     1
102
RTVSPost2010Prop38
140
0.0
102
RTVSPost2010PropOp38
 70
     1
102
RTVSPost2010Prop39
140
1.0
102
RTVSPost2010PropOp39
 70
     1
102
RTVSPost2010Prop40
 90
        0
102
RTVSPost2010PropOp40
 70
     1
102
RTVSPost2010Prop41ColorIndex
 90
       18
102
RTVSPost2010Prop41ColorRGB
 90
        0
102
RTVSPost2010PropOp41
 70
     1
102
RTVSPost2010Prop42
 90
       50
102
RTVSPost2010PropOp42
 70
     1
102
RTVSPost2010Prop43
 90
        3
102
RTVSPost2010PropOp43
 70
     1
102
RTVSPost2010Prop44ColorIndex
 90
        5
102
RTVSPost2010Prop44ColorRGB
 90
      255
102
RTVSPost2010PropOp44
 70
     1
102
RTVSPost2010Prop45
280
     0
102
RTVSPost2010PropOp45
 70
     1
102
RTVSPost2010Prop46
 90
       50
102
RTVSPost2010PropOp46
 70
     1
102
RTVSPost2010Prop47
 90
       50
102
RTVSPost2010PropOp47
 70
     1
102
RTVSPost2010Prop48
 90
       50
102
RTVSPost2010PropOp48
 70
     1
102
RTVSPost2010Prop49
280
     0
102
RTVSPost2010PropOp49
 70
     1
102
RTVSPost2010Prop50
 90
       50
102
RTVSPost2010PropOp50
 70
     1
102
RTVSPost2010Prop51ColorIndex
 90
      256
102
RTVSPost2010Prop51ColorRGB
 90
-16777216
102
RTVSPost2010PropOp51
 70
     0
102
RTVSPost2010Prop52
140
1.0
102
RTVSPost2010PropOp52
 70
     0
102
RTVSPost2010Prop53
 90
        2
102
RTVSPost2010PropOp53
 70
     1
102
RTVSPost2010Prop54
  1
strokes_ogs.tif
102
RTVSPost2010PropOp54
 70
     1
102
RTVSPost2010Prop55
280
     0
102
RTVSPost2010PropOp55
 70
     1
102
RTVSPost2010Prop56
140
1.0
102
RTVSPost2010PropOp56
 70
     1
102
RTVSPost2010Prop57
140
1.0
102
RTVSPost2010PropOp57
 70
     1
  0
XRECORD
  5
388
102
{ACAD_REACTORS
330
387
102
}
330
387
100
AcDbXrecord
280
     1
102
RTVSPropertyOp0
 70
     1
102
RTVSPropertyOp1
 70
     1
102
RTVSPropertyOp2
 70
     1
102
RTVSPropertyOp3
 70
     1
102
RTVSPropertyOp4
 70
     1
102
RTVSPropertyOp5
 70
     1
102
RTVSPropertyOp6
 70
     1
102
RTVSPropertyOp7
 70
     1
102
RTVSPropertyOp8
 70
     1
102
RTVSPropertyOp9
 70
     1
102
RTVSPropertyOp10
 70
     1
102
RTVSPropertyOp11
 70
     1
102
RTVSPropertyOp12
 70
     1
102
RTVSPropertyOp13
 70
     1
102
RTVSPropertyOp14
 70
     1
102
RTVSPropertyOp15
 70
     1
102
RTVSPropertyOp16
 70
     1
102
RTVSPropertyOp17
 70
     1
102
RTVSPropertyOp18
 70
     1
102
RTVSPropertyOp19
 70
     1
102
RTVSPropertyOp20
 70
     1
102
RTVSPropertyOp21
 70
     1
102
RTVSPropertyOp22
 70
     1
102
RTVSPropertyOp23
 70
     1
102
RTVSPropertyOp24
 70
     1
102
RTVSPropertyOp25
 70
     1
102
RTVSPropertyOp26
 70
     1
102
RTVSPropertyOp27
 70
     1
102
RTVSPropertyOp28
 70
     1
102
RTVSPropertyOp29
 70
     1
102
RTVSPropertyOp30
 70
     1
102
RTVSPropertyOp31
 70
     1
102
RTVSPropertyOp32
 70
     1
102
RTVSPropertyOp33
 70
     1
102
RTVSPropertyOp34
 70
     1
102
RTVSPropertyOp35
 70
     1
102
RTVSPropertyOp36
 70
     1
102
RTVSPropertyOp37
 70
     1
102
RTVSPropertyOp38
 70
     1
102
RTVSPropertyOp39
 70
     1
102
RTVSPropertyOp40
 70
     1
102
RTVSPropertyOp41
 70
     1
102
RTVSPropertyOp42
 70
     1
102
RTVSPropertyOp43
 70
     1
102
RTVSPropertyOp44
 70
     1
102
RTVSPropertyOp45
 70
     1
102
RTVSPropertyOp46
 70
     1
102
RTVSPropertyOp47
 70
     1
102
RTVSPropertyOp48
 70
     1
102
RTVSPropertyOp49
 70
     1
102
RTVSPropertyOp50
 70
     1
102
RTVSPropertyOp51
 70
     0
102
RTVSPropertyOp52
 70
     0
102
RTVSPropertyOp53
 70
     1
102
RTVSPropertyOp54
 70
     1
102
RTVSPropertyOp55
 70
     1
102
RTVSPropertyOp56
 70
     1
102
RTVSPropertyOp57
 70
     1
102
RTVSPost2010Prop28
280
     0
102
RTVSPost2010PropOp28
 70
     1
102
RTVSPost2010Prop29
280
     1
102
RTVSPost2010PropOp29
 70
     1
102
RTVSPost2010Prop30
280
     1
102
RTVSPost2010PropOp30
 70
     1
102
RTVSPost2010Prop31
280
     0
102
RTVSPost2010PropOp31
 70
     1
102
RTVSPost2010Prop32
280
     0
102
RTVSPost2010PropOp32
 70
     1
102
RTVSPost2010Prop33
280
     0
102
RTVSPost2010PropOp33
 70
     1
102
RTVSPost2010Prop34
280
     0
102
RTVSPost2010PropOp34
 70
     1
102
RTVSPost2010Prop35
280
     0
102
RTVSPost2010PropOp35
 70
     1
102
RTVSPost2010Prop36
280
     0
102
RTVSPost2010PropOp36
 70
     1
102
RTVSPost2010Prop37
 90
       50
102
RTVSPost2010PropOp37
 70
     1
102
RTVSPost2010Prop38
140
0.0
102
RTVSPost2010PropOp38
 70
     1
102
RTVSPost2010Prop39
140
1.0
102
RTVSPost2010PropOp39
 70
     1
102
RTVSPost2010Prop40
 90
        0
102
RTVSPost2010PropOp40
 70
     1
102
RTVSPost2010Prop41ColorIndex
 90
       18
102
RTVSPost2010Prop41ColorRGB
 90
        0
102
RTVSPost2010PropOp41
 70
     1
102
RTVSPost2010Prop42
 90
       50
102
RTVSPost2010PropOp42
 70
     1
102
RTVSPost2010Prop43
 90
        3
102
RTVSPost2010PropOp43
 70
     1
102
RTVSPost2010Prop44ColorIndex
 90
        5
102
RTVSPost2010Prop44ColorRGB
 90
      255
102
RTVSPost2010PropOp44
 70
     1
102
RTVSPost2010Prop45
280
     0
102
RTVSPost2010PropOp45
 70
     1
102
RTVSPost2010Prop46
 90
       50
102
RTVSPost2010PropOp46
 70
     1
102
RTVSPost2010Prop47
 90
       50
102
RTVSPost2010PropOp47
 70
     1
102
RTVSPost2010Prop48
 90
       50
102
RTVSPost2010PropOp48
 70
     1
102
RTVSPost2010Prop49
280
     0
102
RTVSPost2010PropOp49
 70
     1
102
RTVSPost2010Prop50
 90
       50
102
RTVSPost2010PropOp50
 70
     1
102
RTVSPost2010Prop51ColorIndex
 90
      256
102
RTVSPost2010Prop51ColorRGB
 90
-16777216
102
RTVSPost2010PropOp51
 70
     0
102
RTVSPost2010Prop52
140
1.0
102
RTVSPost2010PropOp52
 70
     0
102
RTVSPost2010Prop53
 90
        2
102
RTVSPost2010PropOp53
 70
     1
102
RTVSPost2010Prop54
  1
strokes_ogs.tif
102
RTVSPost2010PropOp54
 70
     1
102
RTVSPost2010Prop55
280
     0
102
RTVSPost2010PropOp55
 70
     1
102
RTVSPost2010Prop56
140
1.0
102
RTVSPost2010PropOp56
 70
     1
102
RTVSPost2010Prop57
140
1.0
102
RTVSPost2010PropOp57
 70
     1
  0
XRECORD
  5
38A
102
{ACAD_REACTORS
330
389
102
}
330
389
100
AcDbXrecord
280
     1
102
RTVSPropertyOp0
 70
     1
102
RTVSPropertyOp1
 70
     1
102
RTVSPropertyOp2
 70
     1
102
RTVSPropertyOp3
 70
     1
102
RTVSPropertyOp4
 70
     1
102
RTVSPropertyOp5
 70
     1
102
RTVSPropertyOp6
 70
     1
102
RTVSPropertyOp7
 70
     1
102
RTVSPropertyOp8
 70
     1
102
RTVSPropertyOp9
 70
     1
102
RTVSPropertyOp10
 70
     1
102
RTVSPropertyOp11
 70
     1
102
RTVSPropertyOp12
 70
     1
102
RTVSPropertyOp13
 70
     1
102
RTVSPropertyOp14
 70
     1
102
RTVSPropertyOp15
 70
     1
102
RTVSPropertyOp16
 70
     1
102
RTVSPropertyOp17
 70
     1
102
RTVSPropertyOp18
 70
     1
102
RTVSPropertyOp19
 70
     1
102
RTVSPropertyOp20
 70
     1
102
RTVSPropertyOp21
 70
     1
102
RTVSPropertyOp22
 70
     1
102
RTVSPropertyOp23
 70
     1
102
RTVSPropertyOp24
 70
     1
102
RTVSPropertyOp25
 70
     1
102
RTVSPropertyOp26
 70
     1
102
RTVSPropertyOp27
 70
     1
102
RTVSPropertyOp28
 70
     1
102
RTVSPropertyOp29
 70
     1
102
RTVSPropertyOp30
 70
     1
102
RTVSPropertyOp31
 70
     1
102
RTVSPropertyOp32
 70
     1
102
RTVSPropertyOp33
 70
     1
102
RTVSPropertyOp34
 70
     1
102
RTVSPropertyOp35
 70
     1
102
RTVSPropertyOp36
 70
     1
102
RTVSPropertyOp37
 70
     1
102
RTVSPropertyOp38
 70
     1
102
RTVSPropertyOp39
 70
     1
102
RTVSPropertyOp40
 70
     1
102
RTVSPropertyOp41
 70
     1
102
RTVSPropertyOp42
 70
     1
102
RTVSPropertyOp43
 70
     1
102
RTVSPropertyOp44
 70
     1
102
RTVSPropertyOp45
 70
     1
102
RTVSPropertyOp46
 70
     1
102
RTVSPropertyOp47
 70
     1
102
RTVSPropertyOp48
 70
     1
102
RTVSPropertyOp49
 70
     1
102
RTVSPropertyOp50
 70
     1
102
RTVSPropertyOp51
 70
     0
102
RTVSPropertyOp52
 70
     0
102
RTVSPropertyOp53
 70
     1
102
RTVSPropertyOp54
 70
     1
102
RTVSPropertyOp55
 70
     1
102
RTVSPropertyOp56
 70
     1
102
RTVSPropertyOp57
 70
     1
102
RTVSPost2010Prop28
280
     0
102
RTVSPost2010PropOp28
 70
     1
102
RTVSPost2010Prop29
280
     1
102
RTVSPost2010PropOp29
 70
     1
102
RTVSPost2010Prop30
280
     1
102
RTVSPost2010PropOp30
 70
     1
102
RTVSPost2010Prop31
280
     0
102
RTVSPost2010PropOp31
 70
     1
102
RTVSPost2010Prop32
280
     0
102
RTVSPost2010PropOp32
 70
     1
102
RTVSPost2010Prop33
280
     0
102
RTVSPost2010PropOp33
 70
     1
102
RTVSPost2010Prop34
280
     0
102
RTVSPost2010PropOp34
 70
     1
102
RTVSPost2010Prop35
280
     0
102
RTVSPost2010PropOp35
 70
     1
102
RTVSPost2010Prop36
280
     0
102
RTVSPost2010PropOp36
 70
     1
102
RTVSPost2010Prop37
 90
       50
102
RTVSPost2010PropOp37
 70
     1
102
RTVSPost2010Prop38
140
0.0
102
RTVSPost2010PropOp38
 70
     1
102
RTVSPost2010Prop39
140
1.0
102
RTVSPost2010PropOp39
 70
     1
102
RTVSPost2010Prop40
 90
        0
102
RTVSPost2010PropOp40
 70
     1
102
RTVSPost2010Prop41ColorIndex
 90
       18
102
RTVSPost2010Prop41ColorRGB
 90
        0
102
RTVSPost2010PropOp41
 70
     1
102
RTVSPost2010Prop42
 90
       50
102
RTVSPost2010PropOp42
 70
     1
102
RTVSPost2010Prop43
 90
        3
102
RTVSPost2010PropOp43
 70
     1
102
RTVSPost2010Prop44ColorIndex
 90
        5
102
RTVSPost2010Prop44ColorRGB
 90
      255
102
RTVSPost2010PropOp44
 70
     1
102
RTVSPost2010Prop45
280
     0
102
RTVSPost2010PropOp45
 70
     1
102
RTVSPost2010Prop46
 90
       50
102
RTVSPost2010PropOp46
 70
     1
102
RTVSPost2010Prop47
 90
       50
102
RTVSPost2010PropOp47
 70
     1
102
RTVSPost2010Prop48
 90
       50
102
RTVSPost2010PropOp48
 70
     1
102
RTVSPost2010Prop49
280
     0
102
RTVSPost2010PropOp49
 70
     1
102
RTVSPost2010Prop50
 90
       50
102
RTVSPost2010PropOp50
 70
     1
102
RTVSPost2010Prop51ColorIndex
 90
      256
102
RTVSPost2010Prop51ColorRGB
 90
-16777216
102
RTVSPost2010PropOp51
 70
     0
102
RTVSPost2010Prop52
140
1.0
102
RTVSPost2010PropOp52
 70
     0
102
RTVSPost2010Prop53
 90
        2
102
RTVSPost2010PropOp53
 70
     1
102
RTVSPost2010Prop54
  1
strokes_ogs.tif
102
RTVSPost2010PropOp54
 70
     1
102
RTVSPost2010Prop55
280
     0
102
RTVSPost2010PropOp55
 70
     1
102
RTVSPost2010Prop56
140
1.0
102
RTVSPost2010PropOp56
 70
     1
102
RTVSPost2010Prop57
140
1.0
102
RTVSPost2010PropOp57
 70
     1
  0
XRECORD
  5
38C
102
{ACAD_REACTORS
330
38B
102
}
330
38B
100
AcDbXrecord
280
     1
102
RTVSPropertyOp0
 70
     1
102
RTVSPropertyOp1
 70
     1
102
RTVSPropertyOp2
 70
     1
102
RTVSPropertyOp3
 70
     1
102
RTVSPropertyOp4
 70
     1
102
RTVSPropertyOp5
 70
     1
102
RTVSPropertyOp6
 70
     1
102
RTVSPropertyOp7
 70
     1
102
RTVSPropertyOp8
 70
     1
102
RTVSPropertyOp9
 70
     1
102
RTVSPropertyOp10
 70
     1
102
RTVSPropertyOp11
 70
     1
102
RTVSPropertyOp12
 70
     1
102
RTVSPropertyOp13
 70
     1
102
RTVSPropertyOp14
 70
     1
102
RTVSPropertyOp15
 70
     1
102
RTVSPropertyOp16
 70
     1
102
RTVSPropertyOp17
 70
     1
102
RTVSPropertyOp18
 70
     1
102
RTVSPropertyOp19
 70
     1
102
RTVSPropertyOp20
 70
     1
102
RTVSPropertyOp21
 70
     1
102
RTVSPropertyOp22
 70
     1
102
RTVSPropertyOp23
 70
     1
102
RTVSPropertyOp24
 70
     1
102
RTVSPropertyOp25
 70
     1
102
RTVSPropertyOp26
 70
     1
102
RTVSPropertyOp27
 70
     1
102
RTVSPropertyOp28
 70
     1
102
RTVSPropertyOp29
 70
     1
102
RTVSPropertyOp30
 70
     1
102
RTVSPropertyOp31
 70
     1
102
RTVSPropertyOp32
 70
     1
102
RTVSPropertyOp33
 70
     1
102
RTVSPropertyOp34
 70
     1
102
RTVSPropertyOp35
 70
     1
102
RTVSPropertyOp36
 70
     1
102
RTVSPropertyOp37
 70
     1
102
RTVSPropertyOp38
 70
     1
102
RTVSPropertyOp39
 70
     1
102
RTVSPropertyOp40
 70
     1
102
RTVSPropertyOp41
 70
     1
102
RTVSPropertyOp42
 70
     1
102
RTVSPropertyOp43
 70
     1
102
RTVSPropertyOp44
 70
     1
102
RTVSPropertyOp45
 70
     1
102
RTVSPropertyOp46
 70
     1
102
RTVSPropertyOp47
 70
     1
102
RTVSPropertyOp48
 70
     1
102
RTVSPropertyOp49
 70
     1
102
RTVSPropertyOp50
 70
     1
102
RTVSPropertyOp51
 70
     0
102
RTVSPropertyOp52
 70
     0
102
RTVSPropertyOp53
 70
     1
102
RTVSPropertyOp54
 70
     1
102
RTVSPropertyOp55
 70
     1
102
RTVSPropertyOp56
 70
     1
102
RTVSPropertyOp57
 70
     1
102
RTVSPost2010Prop28
280
     0
102
RTVSPost2010PropOp28
 70
     1
102
RTVSPost2010Prop29
280
     1
102
RTVSPost2010PropOp29
 70
     1
102
RTVSPost2010Prop30
280
     1
102
RTVSPost2010PropOp30
 70
     1
102
RTVSPost2010Prop31
280
     0
102
RTVSPost2010PropOp31
 70
     1
102
RTVSPost2010Prop32
280
     0
102
RTVSPost2010PropOp32
 70
     1
102
RTVSPost2010Prop33
280
     0
102
RTVSPost2010PropOp33
 70
     1
102
RTVSPost2010Prop34
280
     0
102
RTVSPost2010PropOp34
 70
     1
102
RTVSPost2010Prop35
280
     0
102
RTVSPost2010PropOp35
 70
     1
102
RTVSPost2010Prop36
280
     0
102
RTVSPost2010PropOp36
 70
     1
102
RTVSPost2010Prop37
 90
       50
102
RTVSPost2010PropOp37
 70
     1
102
RTVSPost2010Prop38
140
0.0
102
RTVSPost2010PropOp38
 70
     1
102
RTVSPost2010Prop39
140
1.0
102
RTVSPost2010PropOp39
 70
     1
102
RTVSPost2010Prop40
 90
        0
102
RTVSPost2010PropOp40
 70
     1
102
RTVSPost2010Prop41ColorIndex
 90
       18
102
RTVSPost2010Prop41ColorRGB
 90
        0
102
RTVSPost2010PropOp41
 70
     1
102
RTVSPost2010Prop42
 90
       50
102
RTVSPost2010PropOp42
 70
     1
102
RTVSPost2010Prop43
 90
        3
102
RTVSPost2010PropOp43
 70
     1
102
RTVSPost2010Prop44ColorIndex
 90
        5
102
RTVSPost2010Prop44ColorRGB
 90
      255
102
RTVSPost2010PropOp44
 70
     1
102
RTVSPost2010Prop45
280
     0
102
RTVSPost2010PropOp45
 70
     1
102
RTVSPost2010Prop46
 90
       50
102
RTVSPost2010PropOp46
 70
     1
102
RTVSPost2010Prop47
 90
       50
102
RTVSPost2010PropOp47
 70
     1
102
RTVSPost2010Prop48
 90
       50
102
RTVSPost2010PropOp48
 70
     1
102
RTVSPost2010Prop49
280
     0
102
RTVSPost2010PropOp49
 70
     1
102
RTVSPost2010Prop50
 90
       50
102
RTVSPost2010PropOp50
 70
     1
102
RTVSPost2010Prop51ColorIndex
 90
      256
102
RTVSPost2010Prop51ColorRGB
 90
-16777216
102
RTVSPost2010PropOp51
 70
     0
102
RTVSPost2010Prop52
140
1.0
102
RTVSPost2010PropOp52
 70
     0
102
RTVSPost2010Prop53
 90
        2
102
RTVSPost2010PropOp53
 70
     1
102
RTVSPost2010Prop54
  1
strokes_ogs.tif
102
RTVSPost2010PropOp54
 70
     1
102
RTVSPost2010Prop55
280
     0
102
RTVSPost2010PropOp55
 70
     1
102
RTVSPost2010Prop56
140
1.0
102
RTVSPost2010PropOp56
 70
     1
102
RTVSPost2010Prop57
140
1.0
102
RTVSPost2010PropOp57
 70
     1
  0
XRECORD
  5
38E
102
{ACAD_REACTORS
330
38D
102
}
330
38D
100
AcDbXrecord
280
     1
102
RTVSPropertyOp0
 70
     1
102
RTVSPropertyOp1
 70
     1
102
RTVSPropertyOp2
 70
     1
102
RTVSPropertyOp3
 70
     1
102
RTVSPropertyOp4
 70
     1
102
RTVSPropertyOp5
 70
     1
102
RTVSPropertyOp6
 70
     1
102
RTVSPropertyOp7
 70
     1
102
RTVSPropertyOp8
 70
     1
102
RTVSPropertyOp9
 70
     1
102
RTVSPropertyOp10
 70
     1
102
RTVSPropertyOp11
 70
     1
102
RTVSPropertyOp12
 70
     1
102
RTVSPropertyOp13
 70
     1
102
RTVSPropertyOp14
 70
     1
102
RTVSPropertyOp15
 70
     1
102
RTVSPropertyOp16
 70
     1
102
RTVSPropertyOp17
 70
     1
102
RTVSPropertyOp18
 70
     1
102
RTVSPropertyOp19
 70
     1
102
RTVSPropertyOp20
 70
     1
102
RTVSPropertyOp21
 70
     1
102
RTVSPropertyOp22
 70
     1
102
RTVSPropertyOp23
 70
     1
102
RTVSPropertyOp24
 70
     1
102
RTVSPropertyOp25
 70
     1
102
RTVSPropertyOp26
 70
     1
102
RTVSPropertyOp27
 70
     1
102
RTVSPropertyOp28
 70
     1
102
RTVSPropertyOp29
 70
     1
102
RTVSPropertyOp30
 70
     1
102
RTVSPropertyOp31
 70
     1
102
RTVSPropertyOp32
 70
     1
102
RTVSPropertyOp33
 70
     1
102
RTVSPropertyOp34
 70
     1
102
RTVSPropertyOp35
 70
     1
102
RTVSPropertyOp36
 70
     1
102
RTVSPropertyOp37
 70
     1
102
RTVSPropertyOp38
 70
     1
102
RTVSPropertyOp39
 70
     1
102
RTVSPropertyOp40
 70
     1
102
RTVSPropertyOp41
 70
     1
102
RTVSPropertyOp42
 70
     1
102
RTVSPropertyOp43
 70
     1
102
RTVSPropertyOp44
 70
     1
102
RTVSPropertyOp45
 70
     1
102
RTVSPropertyOp46
 70
     1
102
RTVSPropertyOp47
 70
     1
102
RTVSPropertyOp48
 70
     1
102
RTVSPropertyOp49
 70
     1
102
RTVSPropertyOp50
 70
     1
102
RTVSPropertyOp51
 70
     0
102
RTVSPropertyOp52
 70
     0
102
RTVSPropertyOp53
 70
     1
102
RTVSPropertyOp54
 70
     1
102
RTVSPropertyOp55
 70
     1
102
RTVSPropertyOp56
 70
     1
102
RTVSPropertyOp57
 70
     1
102
RTVSPost2010Prop28
280
     0
102
RTVSPost2010PropOp28
 70
     1
102
RTVSPost2010Prop29
280
     1
102
RTVSPost2010PropOp29
 70
     1
102
RTVSPost2010Prop30
280
     1
102
RTVSPost2010PropOp30
 70
     1
102
RTVSPost2010Prop31
280
     0
102
RTVSPost2010PropOp31
 70
     1
102
RTVSPost2010Prop32
280
     0
102
RTVSPost2010PropOp32
 70
     1
102
RTVSPost2010Prop33
280
     0
102
RTVSPost2010PropOp33
 70
     1
102
RTVSPost2010Prop34
280
     0
102
RTVSPost2010PropOp34
 70
     1
102
RTVSPost2010Prop35
280
     0
102
RTVSPost2010PropOp35
 70
     1
102
RTVSPost2010Prop36
280
     0
102
RTVSPost2010PropOp36
 70
     1
102
RTVSPost2010Prop37
 90
       50
102
RTVSPost2010PropOp37
 70
     1
102
RTVSPost2010Prop38
140
0.0
102
RTVSPost2010PropOp38
 70
     1
102
RTVSPost2010Prop39
140
1.0
102
RTVSPost2010PropOp39
 70
     1
102
RTVSPost2010Prop40
 90
        0
102
RTVSPost2010PropOp40
 70
     1
102
RTVSPost2010Prop41ColorIndex
 90
       18
102
RTVSPost2010Prop41ColorRGB
 90
        0
102
RTVSPost2010PropOp41
 70
     1
102
RTVSPost2010Prop42
 90
       50
102
RTVSPost2010PropOp42
 70
     1
102
RTVSPost2010Prop43
 90
        3
102
RTVSPost2010PropOp43
 70
     1
102
RTVSPost2010Prop44ColorIndex
 90
        5
102
RTVSPost2010Prop44ColorRGB
 90
      255
102
RTVSPost2010PropOp44
 70
     1
102
RTVSPost2010Prop45
280
     0
102
RTVSPost2010PropOp45
 70
     1
102
RTVSPost2010Prop46
 90
       50
102
RTVSPost2010PropOp46
 70
     1
102
RTVSPost2010Prop47
 90
       50
102
RTVSPost2010PropOp47
 70
     1
102
RTVSPost2010Prop48
 90
       50
102
RTVSPost2010PropOp48
 70
     1
102
RTVSPost2010Prop49
280
     0
102
RTVSPost2010PropOp49
 70
     1
102
RTVSPost2010Prop50
 90
       50
102
RTVSPost2010PropOp50
 70
     1
102
RTVSPost2010Prop51ColorIndex
 90
      256
102
RTVSPost2010Prop51ColorRGB
 90
-16777216
102
RTVSPost2010PropOp51
 70
     0
102
RTVSPost2010Prop52
140
1.0
102
RTVSPost2010PropOp52
 70
     0
102
RTVSPost2010Prop53
 90
        2
102
RTVSPost2010PropOp53
 70
     1
102
RTVSPost2010Prop54
  1
strokes_ogs.tif
102
RTVSPost2010PropOp54
 70
     1
102
RTVSPost2010Prop55
280
     0
102
RTVSPost2010PropOp55
 70
     1
102
RTVSPost2010Prop56
140
1.0
102
RTVSPost2010PropOp56
 70
     1
102
RTVSPost2010Prop57
140
1.0
102
RTVSPost2010PropOp57
 70
     1
  0
XRECORD
  5
394
102
{ACAD_REACTORS
330
393
102
}
330
393
100
AcDbXrecord
280
     1
102
RTVSPropertyOp0
 70
     1
102
RTVSPropertyOp1
 70
     1
102
RTVSPropertyOp2
 70
     1
102
RTVSPropertyOp3
 70
     1
102
RTVSPropertyOp4
 70
     1
102
RTVSPropertyOp5
 70
     1
102
RTVSPropertyOp6
 70
     1
102
RTVSPropertyOp7
 70
     1
102
RTVSPropertyOp8
 70
     1
102
RTVSPropertyOp9
 70
     1
102
RTVSPropertyOp10
 70
     1
102
RTVSPropertyOp11
 70
     1
102
RTVSPropertyOp12
 70
     1
102
RTVSPropertyOp13
 70
     1
102
RTVSPropertyOp14
 70
     1
102
RTVSPropertyOp15
 70
     1
102
RTVSPropertyOp16
 70
     1
102
RTVSPropertyOp17
 70
     1
102
RTVSPropertyOp18
 70
     1
102
RTVSPropertyOp19
 70
     1
102
RTVSPropertyOp20
 70
     1
102
RTVSPropertyOp21
 70
     1
102
RTVSPropertyOp22
 70
     1
102
RTVSPropertyOp23
 70
     1
102
RTVSPropertyOp24
 70
     1
102
RTVSPropertyOp25
 70
     1
102
RTVSPropertyOp26
 70
     1
102
RTVSPropertyOp27
 70
     1
102
RTVSPropertyOp28
 70
     1
102
RTVSPropertyOp29
 70
     1
102
RTVSPropertyOp30
 70
     1
102
RTVSPropertyOp31
 70
     1
102
RTVSPropertyOp32
 70
     1
102
RTVSPropertyOp33
 70
     1
102
RTVSPropertyOp34
 70
     1
102
RTVSPropertyOp35
 70
     1
102
RTVSPropertyOp36
 70
     1
102
RTVSPropertyOp37
 70
     1
102
RTVSPropertyOp38
 70
     1
102
RTVSPropertyOp39
 70
     1
102
RTVSPropertyOp40
 70
     1
102
RTVSPropertyOp41
 70
     1
102
RTVSPropertyOp42
 70
     1
102
RTVSPropertyOp43
 70
     1
102
RTVSPropertyOp44
 70
     1
102
RTVSPropertyOp45
 70
     1
102
RTVSPropertyOp46
 70
     1
102
RTVSPropertyOp47
 70
     1
102
RTVSPropertyOp48
 70
     1
102
RTVSPropertyOp49
 70
     1
102
RTVSPropertyOp50
 70
     1
102
RTVSPropertyOp51
 70
     0
102
RTVSPropertyOp52
 70
     0
102
RTVSPropertyOp53
 70
     1
102
RTVSPropertyOp54
 70
     1
102
RTVSPropertyOp55
 70
     1
102
RTVSPropertyOp56
 70
     1
102
RTVSPropertyOp57
 70
     1
102
RTVSPost2010Prop28
280
     0
102
RTVSPost2010PropOp28
 70
     1
102
RTVSPost2010Prop29
280
     1
102
RTVSPost2010PropOp29
 70
     1
102
RTVSPost2010Prop30
280
     1
102
RTVSPost2010PropOp30
 70
     1
102
RTVSPost2010Prop31
280
     0
102
RTVSPost2010PropOp31
 70
     1
102
RTVSPost2010Prop32
280
     0
102
RTVSPost2010PropOp32
 70
     1
102
RTVSPost2010Prop33
280
     0
102
RTVSPost2010PropOp33
 70
     1
102
RTVSPost2010Prop34
280
     0
102
RTVSPost2010PropOp34
 70
     1
102
RTVSPost2010Prop35
280
     0
102
RTVSPost2010PropOp35
 70
     1
102
RTVSPost2010Prop36
280
     0
102
RTVSPost2010PropOp36
 70
     1
102
RTVSPost2010Prop37
 90
       50
102
RTVSPost2010PropOp37
 70
     1
102
RTVSPost2010Prop38
140
0.0
102
RTVSPost2010PropOp38
 70
     1
102
RTVSPost2010Prop39
140
1.0
102
RTVSPost2010PropOp39
 70
     1
102
RTVSPost2010Prop40
 90
        0
102
RTVSPost2010PropOp40
 70
     1
102
RTVSPost2010Prop41ColorIndex
 90
       18
102
RTVSPost2010Prop41ColorRGB
 90
        0
102
RTVSPost2010PropOp41
 70
     1
102
RTVSPost2010Prop42
 90
       50
102
RTVSPost2010PropOp42
 70
     1
102
RTVSPost2010Prop43
 90
        3
102
RTVSPost2010PropOp43
 70
     1
102
RTVSPost2010Prop44ColorIndex
 90
        5
102
RTVSPost2010Prop44ColorRGB
 90
      255
102
RTVSPost2010PropOp44
 70
     1
102
RTVSPost2010Prop45
280
     0
102
RTVSPost2010PropOp45
 70
     1
102
RTVSPost2010Prop46
 90
       50
102
RTVSPost2010PropOp46
 70
     1
102
RTVSPost2010Prop47
 90
       50
102
RTVSPost2010PropOp47
 70
     1
102
RTVSPost2010Prop48
 90
       50
102
RTVSPost2010PropOp48
 70
     1
102
RTVSPost2010Prop49
280
     0
102
RTVSPost2010PropOp49
 70
     1
102
RTVSPost2010Prop50
 90
       50
102
RTVSPost2010PropOp50
 70
     1
102
RTVSPost2010Prop51ColorIndex
 90
      256
102
RTVSPost2010Prop51ColorRGB
 90
-16777216
102
RTVSPost2010PropOp51
 70
     0
102
RTVSPost2010Prop52
140
1.0
102
RTVSPost2010PropOp52
 70
     0
102
RTVSPost2010Prop53
 90
        2
102
RTVSPost2010PropOp53
 70
     1
102
RTVSPost2010Prop54
  1
strokes_ogs.tif
102
RTVSPost2010PropOp54
 70
     1
102
RTVSPost2010Prop55
280
     0
102
RTVSPost2010PropOp55
 70
     1
102
RTVSPost2010Prop56
140
1.0
102
RTVSPost2010PropOp56
 70
     1
102
RTVSPost2010Prop57
140
1.0
102
RTVSPost2010PropOp57
 70
     1
  0
XRECORD
  5
3A8
102
{ACAD_REACTORS
330
3A7
102
}
330
3A7
100
AcDbXrecord
280
     1
102
RTVSPropertyOp0
 70
     0
102
RTVSPropertyOp1
 70
     0
102
RTVSPropertyOp2
 70
     0
102
RTVSPropertyOp3
 70
     0
102
RTVSPropertyOp4
 70
     0
102
RTVSPropertyOp5
 70
     0
102
RTVSPropertyOp6
 70
     0
102
RTVSPropertyOp7
 70
     0
102
RTVSPropertyOp8
 70
     0
102
RTVSPropertyOp9
 70
     0
102
RTVSPropertyOp10
 70
     0
102
RTVSPropertyOp11
 70
     0
102
RTVSPropertyOp12
 70
     0
102
RTVSPropertyOp13
 70
     0
102
RTVSPropertyOp14
 70
     2
102
RTVSPropertyOp15
 70
     0
102
RTVSPropertyOp16
 70
     0
102
RTVSPropertyOp17
 70
     0
102
RTVSPropertyOp18
 70
     0
102
RTVSPropertyOp19
 70
     0
102
RTVSPropertyOp20
 70
     0
102
RTVSPropertyOp21
 70
     0
102
RTVSPropertyOp22
 70
     0
102
RTVSPropertyOp23
 70
     0
102
RTVSPropertyOp24
 70
     0
102
RTVSPropertyOp25
 70
     0
102
RTVSPropertyOp26
 70
     0
102
RTVSPropertyOp27
 70
     0
102
RTVSPropertyOp28
 70
     0
102
RTVSPropertyOp29
 70
     0
102
RTVSPropertyOp30
 70
     0
102
RTVSPropertyOp31
 70
     0
102
RTVSPropertyOp32
 70
     0
102
RTVSPropertyOp33
 70
     0
102
RTVSPropertyOp34
 70
     0
102
RTVSPropertyOp35
 70
     0
102
RTVSPropertyOp36
 70
     0
102
RTVSPropertyOp37
 70
     0
102
RTVSPropertyOp38
 70
     0
102
RTVSPropertyOp39
 70
     0
102
RTVSPropertyOp40
 70
     0
102
RTVSPropertyOp41
 70
     0
102
RTVSPropertyOp42
 70
     0
102
RTVSPropertyOp43
 70
     0
102
RTVSPropertyOp44
 70
     0
102
RTVSPropertyOp45
 70
     0
102
RTVSPropertyOp46
 70
     0
102
RTVSPropertyOp47
 70
     0
102
RTVSPropertyOp48
 70
     0
102
RTVSPropertyOp49
 70
     0
102
RTVSPropertyOp50
 70
     0
102
RTVSPropertyOp51
 70
     0
102
RTVSPropertyOp52
 70
     0
102
RTVSPropertyOp53
 70
     0
102
RTVSPropertyOp54
 70
     0
102
RTVSPropertyOp55
 70
     0
102
RTVSPropertyOp56
 70
     0
102
RTVSPropertyOp57
 70
     0
102
RTVSPost2010Prop28
280
     0
102
RTVSPost2010PropOp28
 70
     0
102
RTVSPost2010Prop29
280
     1
102
RTVSPost2010PropOp29
 70
     0
102
RTVSPost2010Prop30
280
     1
102
RTVSPost2010PropOp30
 70
     0
102
RTVSPost2010Prop31
280
     0
102
RTVSPost2010PropOp31
 70
     0
102
RTVSPost2010Prop32
280
     0
102
RTVSPost2010PropOp32
 70
     0
102
RTVSPost2010Prop33
280
     0
102
RTVSPost2010PropOp33
 70
     0
102
RTVSPost2010Prop34
280
     0
102
RTVSPost2010PropOp34
 70
     0
102
RTVSPost2010Prop35
280
     0
102
RTVSPost2010PropOp35
 70
     0
102
RTVSPost2010Prop36
280
     0
102
RTVSPost2010PropOp36
 70
     0
102
RTVSPost2010Prop37
 90
       50
102
RTVSPost2010PropOp37
 70
     0
102
RTVSPost2010Prop38
140
0.0
102
RTVSPost2010PropOp38
 70
     0
102
RTVSPost2010Prop39
140
1.0
102
RTVSPost2010PropOp39
 70
     0
102
RTVSPost2010Prop40
 90
        0
102
RTVSPost2010PropOp40
 70
     0
102
RTVSPost2010Prop41ColorIndex
 90
       18
102
RTVSPost2010Prop41ColorRGB
 90
        0
102
RTVSPost2010PropOp41
 70
     0
102
RTVSPost2010Prop42
 90
       50
102
RTVSPost2010PropOp42
 70
     0
102
RTVSPost2010Prop43
 90
        3
102
RTVSPost2010PropOp43
 70
     0
102
RTVSPost2010Prop44ColorIndex
 90
        5
102
RTVSPost2010Prop44ColorRGB
 90
      255
102
RTVSPost2010PropOp44
 70
     0
102
RTVSPost2010Prop45
280
     0
102
RTVSPost2010PropOp45
 70
     0
102
RTVSPost2010Prop46
 90
       50
102
RTVSPost2010PropOp46
 70
     0
102
RTVSPost2010Prop47
 90
       50
102
RTVSPost2010PropOp47
 70
     0
102
RTVSPost2010Prop48
 90
       50
102
RTVSPost2010PropOp48
 70
     0
102
RTVSPost2010Prop49
280
     0
102
RTVSPost2010PropOp49
 70
     0
102
RTVSPost2010Prop50
 90
       50
102
RTVSPost2010PropOp50
 70
     0
102
RTVSPost2010Prop51ColorIndex
 90
      256
102
RTVSPost2010Prop51ColorRGB
 90
-16777216
102
RTVSPost2010PropOp51
 70
     0
102
RTVSPost2010Prop52
140
1.0
102
RTVSPost2010PropOp52
 70
     0
102
RTVSPost2010Prop53
 90
        2
102
RTVSPost2010PropOp53
 70
     0
102
RTVSPost2010Prop54
  1
strokes_ogs.tif
102
RTVSPost2010PropOp54
 70
     0
102
RTVSPost2010Prop55
280
     0
102
RTVSPost2010PropOp55
 70
     0
102
RTVSPost2010Prop56
140
1.0
102
RTVSPost2010PropOp56
 70
     0
102
RTVSPost2010Prop57
140
1.0
102
RTVSPost2010PropOp57
 70
     0
  0
XRECORD
  5
3A2
102
{ACAD_REACTORS
330
3A1
102
}
330
3A1
100
AcDbXrecord
280
     1
102
RTVSPropertyOp0
 70
     1
102
RTVSPropertyOp1
 70
     1
102
RTVSPropertyOp2
 70
     1
102
RTVSPropertyOp3
 70
     1
102
RTVSPropertyOp4
 70
     1
102
RTVSPropertyOp5
 70
     1
102
RTVSPropertyOp6
 70
     1
102
RTVSPropertyOp7
 70
     1
102
RTVSPropertyOp8
 70
     1
102
RTVSPropertyOp9
 70
     1
102
RTVSPropertyOp10
 70
     1
102
RTVSPropertyOp11
 70
     1
102
RTVSPropertyOp12
 70
     1
102
RTVSPropertyOp13
 70
     1
102
RTVSPropertyOp14
 70
     1
102
RTVSPropertyOp15
 70
     1
102
RTVSPropertyOp16
 70
     1
102
RTVSPropertyOp17
 70
     1
102
RTVSPropertyOp18
 70
     1
102
RTVSPropertyOp19
 70
     1
102
RTVSPropertyOp20
 70
     1
102
RTVSPropertyOp21
 70
     1
102
RTVSPropertyOp22
 70
     1
102
RTVSPropertyOp23
 70
     1
102
RTVSPropertyOp24
 70
     1
102
RTVSPropertyOp25
 70
     1
102
RTVSPropertyOp26
 70
     1
102
RTVSPropertyOp27
 70
     1
102
RTVSPropertyOp28
 70
     1
102
RTVSPropertyOp29
 70
     1
102
RTVSPropertyOp30
 70
     1
102
RTVSPropertyOp31
 70
     1
102
RTVSPropertyOp32
 70
     1
102
RTVSPropertyOp33
 70
     1
102
RTVSPropertyOp34
 70
     1
102
RTVSPropertyOp35
 70
     1
102
RTVSPropertyOp36
 70
     1
102
RTVSPropertyOp37
 70
     1
102
RTVSPropertyOp38
 70
     1
102
RTVSPropertyOp39
 70
     1
102
RTVSPropertyOp40
 70
     1
102
RTVSPropertyOp41
 70
     1
102
RTVSPropertyOp42
 70
     1
102
RTVSPropertyOp43
 70
     1
102
RTVSPropertyOp44
 70
     1
102
RTVSPropertyOp45
 70
     1
102
RTVSPropertyOp46
 70
     1
102
RTVSPropertyOp47
 70
     1
102
RTVSPropertyOp48
 70
     1
102
RTVSPropertyOp49
 70
     1
102
RTVSPropertyOp50
 70
     1
102
RTVSPropertyOp51
 70
     0
102
RTVSPropertyOp52
 70
     0
102
RTVSPropertyOp53
 70
     1
102
RTVSPropertyOp54
 70
     1
102
RTVSPropertyOp55
 70
     1
102
RTVSPropertyOp56
 70
     1
102
RTVSPropertyOp57
 70
     1
102
RTVSPost2010Prop28
280
     0
102
RTVSPost2010PropOp28
 70
     1
102
RTVSPost2010Prop29
280
     1
102
RTVSPost2010PropOp29
 70
     1
102
RTVSPost2010Prop30
280
     1
102
RTVSPost2010PropOp30
 70
     1
102
RTVSPost2010Prop31
280
     0
102
RTVSPost2010PropOp31
 70
     1
102
RTVSPost2010Prop32
280
     0
102
RTVSPost2010PropOp32
 70
     1
102
RTVSPost2010Prop33
280
     0
102
RTVSPost2010PropOp33
 70
     1
102
RTVSPost2010Prop34
280
     0
102
RTVSPost2010PropOp34
 70
     1
102
RTVSPost2010Prop35
280
     0
102
RTVSPost2010PropOp35
 70
     1
102
RTVSPost2010Prop36
280
     0
102
RTVSPost2010PropOp36
 70
     1
102
RTVSPost2010Prop37
 90
       50
102
RTVSPost2010PropOp37
 70
     1
102
RTVSPost2010Prop38
140
0.0
102
RTVSPost2010PropOp38
 70
     1
102
RTVSPost2010Prop39
140
1.0
102
RTVSPost2010PropOp39
 70
     1
102
RTVSPost2010Prop40
 90
        0
102
RTVSPost2010PropOp40
 70
     1
102
RTVSPost2010Prop41ColorIndex
 90
       18
102
RTVSPost2010Prop41ColorRGB
 90
        0
102
RTVSPost2010PropOp41
 70
     1
102
RTVSPost2010Prop42
 90
       50
102
RTVSPost2010PropOp42
 70
     1
102
RTVSPost2010Prop43
 90
        3
102
RTVSPost2010PropOp43
 70
     1
102
RTVSPost2010Prop44ColorIndex
 90
        5
102
RTVSPost2010Prop44ColorRGB
 90
      255
102
RTVSPost2010PropOp44
 70
     1
102
RTVSPost2010Prop45
280
     0
102
RTVSPost2010PropOp45
 70
     1
102
RTVSPost2010Prop46
 90
       50
102
RTVSPost2010PropOp46
 70
     1
102
RTVSPost2010Prop47
 90
       50
102
RTVSPost2010PropOp47
 70
     1
102
RTVSPost2010Prop48
 90
       50
102
RTVSPost2010PropOp48
 70
     1
102
RTVSPost2010Prop49
280
     0
102
RTVSPost2010PropOp49
 70
     1
102
RTVSPost2010Prop50
 90
       50
102
RTVSPost2010PropOp50
 70
     1
102
RTVSPost2010Prop51ColorIndex
 90
      256
102
RTVSPost2010Prop51ColorRGB
 90
-16777216
102
RTVSPost2010PropOp51
 70
     0
102
RTVSPost2010Prop52
140
1.0
102
RTVSPost2010PropOp52
 70
     0
102
RTVSPost2010Prop53
 90
        2
102
RTVSPost2010PropOp53
 70
     1
102
RTVSPost2010Prop54
  1
strokes_ogs.tif
102
RTVSPost2010PropOp54
 70
     1
102
RTVSPost2010Prop55
280
     0
102
RTVSPost2010PropOp55
 70
     1
102
RTVSPost2010Prop56
140
1.0
102
RTVSPost2010PropOp56
 70
     1
102
RTVSPost2010Prop57
140
1.0
102
RTVSPost2010PropOp57
 70
     1
  0
XRECORD
  5
3AA
102
{ACAD_REACTORS
330
3A9
102
}
330
3A9
100
AcDbXrecord
280
     1
102
RTVSPropertyOp0
 70
     0
102
RTVSPropertyOp1
 70
     0
102
RTVSPropertyOp2
 70
     0
102
RTVSPropertyOp3
 70
     0
102
RTVSPropertyOp4
 70
     0
102
RTVSPropertyOp5
 70
     0
102
RTVSPropertyOp6
 70
     0
102
RTVSPropertyOp7
 70
     0
102
RTVSPropertyOp8
 70
     0
102
RTVSPropertyOp9
 70
     0
102
RTVSPropertyOp10
 70
     0
102
RTVSPropertyOp11
 70
     0
102
RTVSPropertyOp12
 70
     0
102
RTVSPropertyOp13
 70
     0
102
RTVSPropertyOp14
 70
     2
102
RTVSPropertyOp15
 70
     0
102
RTVSPropertyOp16
 70
     0
102
RTVSPropertyOp17
 70
     0
102
RTVSPropertyOp18
 70
     0
102
RTVSPropertyOp19
 70
     0
102
RTVSPropertyOp20
 70
     0
102
RTVSPropertyOp21
 70
     0
102
RTVSPropertyOp22
 70
     0
102
RTVSPropertyOp23
 70
     0
102
RTVSPropertyOp24
 70
     0
102
RTVSPropertyOp25
 70
     0
102
RTVSPropertyOp26
 70
     0
102
RTVSPropertyOp27
 70
     0
102
RTVSPropertyOp28
 70
     0
102
RTVSPropertyOp29
 70
     0
102
RTVSPropertyOp30
 70
     0
102
RTVSPropertyOp31
 70
     0
102
RTVSPropertyOp32
 70
     0
102
RTVSPropertyOp33
 70
     0
102
RTVSPropertyOp34
 70
     0
102
RTVSPropertyOp35
 70
     0
102
RTVSPropertyOp36
 70
     0
102
RTVSPropertyOp37
 70
     0
102
RTVSPropertyOp38
 70
     0
102
RTVSPropertyOp39
 70
     0
102
RTVSPropertyOp40
 70
     0
102
RTVSPropertyOp41
 70
     0
102
RTVSPropertyOp42
 70
     0
102
RTVSPropertyOp43
 70
     0
102
RTVSPropertyOp44
 70
     0
102
RTVSPropertyOp45
 70
     0
102
RTVSPropertyOp46
 70
     0
102
RTVSPropertyOp47
 70
     0
102
RTVSPropertyOp48
 70
     0
102
RTVSPropertyOp49
 70
     0
102
RTVSPropertyOp50
 70
     0
102
RTVSPropertyOp51
 70
     0
102
RTVSPropertyOp52
 70
     0
102
RTVSPropertyOp53
 70
     0
102
RTVSPropertyOp54
 70
     0
102
RTVSPropertyOp55
 70
     0
102
RTVSPropertyOp56
 70
     0
102
RTVSPropertyOp57
 70
     0
102
RTVSPost2010Prop28
280
     0
102
RTVSPost2010PropOp28
 70
     0
102
RTVSPost2010Prop29
280
     1
102
RTVSPost2010PropOp29
 70
     0
102
RTVSPost2010Prop30
280
     1
102
RTVSPost2010PropOp30
 70
     0
102
RTVSPost2010Prop31
280
     0
102
RTVSPost2010PropOp31
 70
     0
102
RTVSPost2010Prop32
280
     0
102
RTVSPost2010PropOp32
 70
     0
102
RTVSPost2010Prop33
280
     0
102
RTVSPost2010PropOp33
 70
     0
102
RTVSPost2010Prop34
280
     0
102
RTVSPost2010PropOp34
 70
     0
102
RTVSPost2010Prop35
280
     0
102
RTVSPost2010PropOp35
 70
     0
102
RTVSPost2010Prop36
280
     0
102
RTVSPost2010PropOp36
 70
     0
102
RTVSPost2010Prop37
 90
       50
102
RTVSPost2010PropOp37
 70
     0
102
RTVSPost2010Prop38
140
0.0
102
RTVSPost2010PropOp38
 70
     0
102
RTVSPost2010Prop39
140
1.0
102
RTVSPost2010PropOp39
 70
     0
102
RTVSPost2010Prop40
 90
        0
102
RTVSPost2010PropOp40
 70
     0
102
RTVSPost2010Prop41ColorIndex
 90
       18
102
RTVSPost2010Prop41ColorRGB
 90
        0
102
RTVSPost2010PropOp41
 70
     0
102
RTVSPost2010Prop42
 90
       50
102
RTVSPost2010PropOp42
 70
     0
102
RTVSPost2010Prop43
 90
        3
102
RTVSPost2010PropOp43
 70
     0
102
RTVSPost2010Prop44ColorIndex
 90
        5
102
RTVSPost2010Prop44ColorRGB
 90
      255
102
RTVSPost2010PropOp44
 70
     0
102
RTVSPost2010Prop45
280
     0
102
RTVSPost2010PropOp45
 70
     0
102
RTVSPost2010Prop46
 90
       50
102
RTVSPost2010PropOp46
 70
     0
102
RTVSPost2010Prop47
 90
       50
102
RTVSPost2010PropOp47
 70
     0
102
RTVSPost2010Prop48
 90
       50
102
RTVSPost2010PropOp48
 70
     0
102
RTVSPost2010Prop49
280
     0
102
RTVSPost2010PropOp49
 70
     0
102
RTVSPost2010Prop50
 90
       50
102
RTVSPost2010PropOp50
 70
     0
102
RTVSPost2010Prop51ColorIndex
 90
      256
102
RTVSPost2010Prop51ColorRGB
 90
-16777216
102
RTVSPost2010PropOp51
 70
     0
102
RTVSPost2010Prop52
140
1.0
102
RTVSPost2010PropOp52
 70
     0
102
RTVSPost2010Prop53
 90
        2
102
RTVSPost2010PropOp53
 70
     0
102
RTVSPost2010Prop54
  1
strokes_ogs.tif
102
RTVSPost2010PropOp54
 70
     0
102
RTVSPost2010Prop55
280
     0
102
RTVSPost2010PropOp55
 70
     0
102
RTVSPost2010Prop56
140
1.0
102
RTVSPost2010PropOp56
 70
     0
102
RTVSPost2010Prop57
140
1.0
102
RTVSPost2010PropOp57
 70
     0
  0
XRECORD
  5
398
102
{ACAD_REACTORS
330
397
102
}
330
397
100
AcDbXrecord
280
     1
102
RTVSPropertyOp0
 70
     1
102
RTVSPropertyOp1
 70
     1
102
RTVSPropertyOp2
 70
     1
102
RTVSPropertyOp3
 70
     1
102
RTVSPropertyOp4
 70
     1
102
RTVSPropertyOp5
 70
     1
102
RTVSPropertyOp6
 70
     1
102
RTVSPropertyOp7
 70
     1
102
RTVSPropertyOp8
 70
     1
102
RTVSPropertyOp9
 70
     1
102
RTVSPropertyOp10
 70
     1
102
RTVSPropertyOp11
 70
     1
102
RTVSPropertyOp12
 70
     1
102
RTVSPropertyOp13
 70
     1
102
RTVSPropertyOp14
 70
     1
102
RTVSPropertyOp15
 70
     1
102
RTVSPropertyOp16
 70
     1
102
RTVSPropertyOp17
 70
     1
102
RTVSPropertyOp18
 70
     1
102
RTVSPropertyOp19
 70
     1
102
RTVSPropertyOp20
 70
     1
102
RTVSPropertyOp21
 70
     1
102
RTVSPropertyOp22
 70
     1
102
RTVSPropertyOp23
 70
     1
102
RTVSPropertyOp24
 70
     1
102
RTVSPropertyOp25
 70
     1
102
RTVSPropertyOp26
 70
     1
102
RTVSPropertyOp27
 70
     1
102
RTVSPropertyOp28
 70
     1
102
RTVSPropertyOp29
 70
     1
102
RTVSPropertyOp30
 70
     1
102
RTVSPropertyOp31
 70
     1
102
RTVSPropertyOp32
 70
     1
102
RTVSPropertyOp33
 70
     1
102
RTVSPropertyOp34
 70
     1
102
RTVSPropertyOp35
 70
     1
102
RTVSPropertyOp36
 70
     1
102
RTVSPropertyOp37
 70
     1
102
RTVSPropertyOp38
 70
     1
102
RTVSPropertyOp39
 70
     1
102
RTVSPropertyOp40
 70
     1
102
RTVSPropertyOp41
 70
     1
102
RTVSPropertyOp42
 70
     1
102
RTVSPropertyOp43
 70
     1
102
RTVSPropertyOp44
 70
     1
102
RTVSPropertyOp45
 70
     1
102
RTVSPropertyOp46
 70
     1
102
RTVSPropertyOp47
 70
     1
102
RTVSPropertyOp48
 70
     1
102
RTVSPropertyOp49
 70
     1
102
RTVSPropertyOp50
 70
     1
102
RTVSPropertyOp51
 70
     0
102
RTVSPropertyOp52
 70
     0
102
RTVSPropertyOp53
 70
     1
102
RTVSPropertyOp54
 70
     1
102
RTVSPropertyOp55
 70
     1
102
RTVSPropertyOp56
 70
     1
102
RTVSPropertyOp57
 70
     1
102
RTVSPost2010Prop28
280
     0
102
RTVSPost2010PropOp28
 70
     1
102
RTVSPost2010Prop29
280
     1
102
RTVSPost2010PropOp29
 70
     1
102
RTVSPost2010Prop30
280
     1
102
RTVSPost2010PropOp30
 70
     1
102
RTVSPost2010Prop31
280
     0
102
RTVSPost2010PropOp31
 70
     1
102
RTVSPost2010Prop32
280
     0
102
RTVSPost2010PropOp32
 70
     1
102
RTVSPost2010Prop33
280
     0
102
RTVSPost2010PropOp33
 70
     1
102
RTVSPost2010Prop34
280
     0
102
RTVSPost2010PropOp34
 70
     1
102
RTVSPost2010Prop35
280
     0
102
RTVSPost2010PropOp35
 70
     1
102
RTVSPost2010Prop36
280
     0
102
RTVSPost2010PropOp36
 70
     1
102
RTVSPost2010Prop37
 90
       50
102
RTVSPost2010PropOp37
 70
     1
102
RTVSPost2010Prop38
140
0.0
102
RTVSPost2010PropOp38
 70
     1
102
RTVSPost2010Prop39
140
1.0
102
RTVSPost2010PropOp39
 70
     1
102
RTVSPost2010Prop40
 90
        0
102
RTVSPost2010PropOp40
 70
     1
102
RTVSPost2010Prop41ColorIndex
 90
       18
102
RTVSPost2010Prop41ColorRGB
 90
        0
102
RTVSPost2010PropOp41
 70
     1
102
RTVSPost2010Prop42
 90
       50
102
RTVSPost2010PropOp42
 70
     1
102
RTVSPost2010Prop43
 90
        3
102
RTVSPost2010PropOp43
 70
     1
102
RTVSPost2010Prop44ColorIndex
 90
        5
102
RTVSPost2010Prop44ColorRGB
 90
      255
102
RTVSPost2010PropOp44
 70
     1
102
RTVSPost2010Prop45
280
     0
102
RTVSPost2010PropOp45
 70
     1
102
RTVSPost2010Prop46
 90
       50
102
RTVSPost2010PropOp46
 70
     1
102
RTVSPost2010Prop47
 90
       50
102
RTVSPost2010PropOp47
 70
     1
102
RTVSPost2010Prop48
 90
       50
102
RTVSPost2010PropOp48
 70
     1
102
RTVSPost2010Prop49
280
     0
102
RTVSPost2010PropOp49
 70
     1
102
RTVSPost2010Prop50
 90
       50
102
RTVSPost2010PropOp50
 70
     1
102
RTVSPost2010Prop51ColorIndex
 90
      256
102
RTVSPost2010Prop51ColorRGB
 90
-16777216
102
RTVSPost2010PropOp51
 70
     0
102
RTVSPost2010Prop52
140
1.0
102
RTVSPost2010PropOp52
 70
     0
102
RTVSPost2010Prop53
 90
        2
102
RTVSPost2010PropOp53
 70
     1
102
RTVSPost2010Prop54
  1
strokes_ogs.tif
102
RTVSPost2010PropOp54
 70
     1
102
RTVSPost2010Prop55
280
     0
102
RTVSPost2010PropOp55
 70
     1
102
RTVSPost2010Prop56
140
1.0
102
RTVSPost2010PropOp56
 70
     1
102
RTVSPost2010Prop57
140
1.0
102
RTVSPost2010PropOp57
 70
     1
  0
XRECORD
  5
3B6
102
{ACAD_REACTORS
330
3B5
102
}
330
3B5
100
AcDbXrecord
280
     1
102
RTVSPropertyOp0
 70
     1
102
RTVSPropertyOp1
 70
     1
102
RTVSPropertyOp2
 70
     1
102
RTVSPropertyOp3
 70
     1
102
RTVSPropertyOp4
 70
     1
102
RTVSPropertyOp5
 70
     1
102
RTVSPropertyOp6
 70
     1
102
RTVSPropertyOp7
 70
     1
102
RTVSPropertyOp8
 70
     1
102
RTVSPropertyOp9
 70
     1
102
RTVSPropertyOp10
 70
     1
102
RTVSPropertyOp11
 70
     1
102
RTVSPropertyOp12
 70
     1
102
RTVSPropertyOp13
 70
     1
102
RTVSPropertyOp14
 70
     1
102
RTVSPropertyOp15
 70
     1
102
RTVSPropertyOp16
 70
     1
102
RTVSPropertyOp17
 70
     1
102
RTVSPropertyOp18
 70
     1
102
RTVSPropertyOp19
 70
     1
102
RTVSPropertyOp20
 70
     1
102
RTVSPropertyOp21
 70
     1
102
RTVSPropertyOp22
 70
     1
102
RTVSPropertyOp23
 70
     1
102
RTVSPropertyOp24
 70
     1
102
RTVSPropertyOp25
 70
     1
102
RTVSPropertyOp26
 70
     1
102
RTVSPropertyOp27
 70
     1
102
RTVSPropertyOp28
 70
     1
102
RTVSPropertyOp29
 70
     1
102
RTVSPropertyOp30
 70
     1
102
RTVSPropertyOp31
 70
     1
102
RTVSPropertyOp32
 70
     1
102
RTVSPropertyOp33
 70
     1
102
RTVSPropertyOp34
 70
     1
102
RTVSPropertyOp35
 70
     1
102
RTVSPropertyOp36
 70
     1
102
RTVSPropertyOp37
 70
     1
102
RTVSPropertyOp38
 70
     1
102
RTVSPropertyOp39
 70
     1
102
RTVSPropertyOp40
 70
     1
102
RTVSPropertyOp41
 70
     1
102
RTVSPropertyOp42
 70
     1
102
RTVSPropertyOp43
 70
     1
102
RTVSPropertyOp44
 70
     1
102
RTVSPropertyOp45
 70
     1
102
RTVSPropertyOp46
 70
     1
102
RTVSPropertyOp47
 70
     1
102
RTVSPropertyOp48
 70
     1
102
RTVSPropertyOp49
 70
     1
102
RTVSPropertyOp50
 70
     1
102
RTVSPropertyOp51
 70
     0
102
RTVSPropertyOp52
 70
     0
102
RTVSPropertyOp53
 70
     1
102
RTVSPropertyOp54
 70
     1
102
RTVSPropertyOp55
 70
     1
102
RTVSPropertyOp56
 70
     1
102
RTVSPropertyOp57
 70
     1
102
RTVSPost2010Prop28
280
     0
102
RTVSPost2010PropOp28
 70
     1
102
RTVSPost2010Prop29
280
     1
102
RTVSPost2010PropOp29
 70
     1
102
RTVSPost2010Prop30
280
     1
102
RTVSPost2010PropOp30
 70
     1
102
RTVSPost2010Prop31
280
     0
102
RTVSPost2010PropOp31
 70
     1
102
RTVSPost2010Prop32
280
     0
102
RTVSPost2010PropOp32
 70
     1
102
RTVSPost2010Prop33
280
     0
102
RTVSPost2010PropOp33
 70
     1
102
RTVSPost2010Prop34
280
     0
102
RTVSPost2010PropOp34
 70
     1
102
RTVSPost2010Prop35
280
     0
102
RTVSPost2010PropOp35
 70
     1
102
RTVSPost2010Prop36
280
     0
102
RTVSPost2010PropOp36
 70
     1
102
RTVSPost2010Prop37
 90
       50
102
RTVSPost2010PropOp37
 70
     1
102
RTVSPost2010Prop38
140
0.0
102
RTVSPost2010PropOp38
 70
     1
102
RTVSPost2010Prop39
140
1.0
102
RTVSPost2010PropOp39
 70
     1
102
RTVSPost2010Prop40
 90
        0
102
RTVSPost2010PropOp40
 70
     1
102
RTVSPost2010Prop41ColorIndex
 90
       18
102
RTVSPost2010Prop41ColorRGB
 90
        0
102
RTVSPost2010PropOp41
 70
     1
102
RTVSPost2010Prop42
 90
       50
102
RTVSPost2010PropOp42
 70
     1
102
RTVSPost2010Prop43
 90
        3
102
RTVSPost2010PropOp43
 70
     1
102
RTVSPost2010Prop44ColorIndex
 90
        5
102
RTVSPost2010Prop44ColorRGB
 90
      255
102
RTVSPost2010PropOp44
 70
     1
102
RTVSPost2010Prop45
280
     0
102
RTVSPost2010PropOp45
 70
     1
102
RTVSPost2010Prop46
 90
       50
102
RTVSPost2010PropOp46
 70
     1
102
RTVSPost2010Prop47
 90
       50
102
RTVSPost2010PropOp47
 70
     1
102
RTVSPost2010Prop48
 90
       50
102
RTVSPost2010PropOp48
 70
     1
102
RTVSPost2010Prop49
280
     0
102
RTVSPost2010PropOp49
 70
     1
102
RTVSPost2010Prop50
 90
       50
102
RTVSPost2010PropOp50
 70
     1
102
RTVSPost2010Prop51ColorIndex
 90
      256
102
RTVSPost2010Prop51ColorRGB
 90
-16777216
102
RTVSPost2010PropOp51
 70
     0
102
RTVSPost2010Prop52
140
1.0
102
RTVSPost2010PropOp52
 70
     0
102
RTVSPost2010Prop53
 90
        2
102
RTVSPost2010PropOp53
 70
     1
102
RTVSPost2010Prop54
  1
strokes_ogs.tif
102
RTVSPost2010PropOp54
 70
     1
102
RTVSPost2010Prop55
280
     0
102
RTVSPost2010PropOp55
 70
     1
102
RTVSPost2010Prop56
140
1.0
102
RTVSPost2010PropOp56
 70
     1
102
RTVSPost2010Prop57
140
1.0
102
RTVSPost2010PropOp57
 70
     1
  0
XRECORD
  5
3B4
102
{ACAD_REACTORS
330
3B3
102
}
330
3B3
100
AcDbXrecord
280
     1
102
RTVSPropertyOp0
 70
     1
102
RTVSPropertyOp1
 70
     1
102
RTVSPropertyOp2
 70
     1
102
RTVSPropertyOp3
 70
     1
102
RTVSPropertyOp4
 70
     1
102
RTVSPropertyOp5
 70
     1
102
RTVSPropertyOp6
 70
     1
102
RTVSPropertyOp7
 70
     1
102
RTVSPropertyOp8
 70
     1
102
RTVSPropertyOp9
 70
     1
102
RTVSPropertyOp10
 70
     1
102
RTVSPropertyOp11
 70
     1
102
RTVSPropertyOp12
 70
     1
102
RTVSPropertyOp13
 70
     1
102
RTVSPropertyOp14
 70
     1
102
RTVSPropertyOp15
 70
     1
102
RTVSPropertyOp16
 70
     1
102
RTVSPropertyOp17
 70
     1
102
RTVSPropertyOp18
 70
     1
102
RTVSPropertyOp19
 70
     1
102
RTVSPropertyOp20
 70
     1
102
RTVSPropertyOp21
 70
     1
102
RTVSPropertyOp22
 70
     1
102
RTVSPropertyOp23
 70
     1
102
RTVSPropertyOp24
 70
     1
102
RTVSPropertyOp25
 70
     1
102
RTVSPropertyOp26
 70
     1
102
RTVSPropertyOp27
 70
     1
102
RTVSPropertyOp28
 70
     1
102
RTVSPropertyOp29
 70
     1
102
RTVSPropertyOp30
 70
     1
102
RTVSPropertyOp31
 70
     1
102
RTVSPropertyOp32
 70
     1
102
RTVSPropertyOp33
 70
     1
102
RTVSPropertyOp34
 70
     1
102
RTVSPropertyOp35
 70
     1
102
RTVSPropertyOp36
 70
     1
102
RTVSPropertyOp37
 70
     1
102
RTVSPropertyOp38
 70
     1
102
RTVSPropertyOp39
 70
     1
102
RTVSPropertyOp40
 70
     1
102
RTVSPropertyOp41
 70
     1
102
RTVSPropertyOp42
 70
     1
102
RTVSPropertyOp43
 70
     1
102
RTVSPropertyOp44
 70
     1
102
RTVSPropertyOp45
 70
     1
102
RTVSPropertyOp46
 70
     1
102
RTVSPropertyOp47
 70
     1
102
RTVSPropertyOp48
 70
     1
102
RTVSPropertyOp49
 70
     1
102
RTVSPropertyOp50
 70
     1
102
RTVSPropertyOp51
 70
     0
102
RTVSPropertyOp52
 70
     0
102
RTVSPropertyOp53
 70
     1
102
RTVSPropertyOp54
 70
     1
102
RTVSPropertyOp55
 70
     1
102
RTVSPropertyOp56
 70
     1
102
RTVSPropertyOp57
 70
     1
102
RTVSPost2010Prop28
280
     0
102
RTVSPost2010PropOp28
 70
     1
102
RTVSPost2010Prop29
280
     1
102
RTVSPost2010PropOp29
 70
     1
102
RTVSPost2010Prop30
280
     1
102
RTVSPost2010PropOp30
 70
     1
102
RTVSPost2010Prop31
280
     0
102
RTVSPost2010PropOp31
 70
     1
102
RTVSPost2010Prop32
280
     0
102
RTVSPost2010PropOp32
 70
     1
102
RTVSPost2010Prop33
280
     0
102
RTVSPost2010PropOp33
 70
     1
102
RTVSPost2010Prop34
280
     0
102
RTVSPost2010PropOp34
 70
     1
102
RTVSPost2010Prop35
280
     0
102
RTVSPost2010PropOp35
 70
     1
102
RTVSPost2010Prop36
280
     0
102
RTVSPost2010PropOp36
 70
     1
102
RTVSPost2010Prop37
 90
       50
102
RTVSPost2010PropOp37
 70
     1
102
RTVSPost2010Prop38
140
0.0
102
RTVSPost2010PropOp38
 70
     1
102
RTVSPost2010Prop39
140
1.0
102
RTVSPost2010PropOp39
 70
     1
102
RTVSPost2010Prop40
 90
        0
102
RTVSPost2010PropOp40
 70
     1
102
RTVSPost2010Prop41ColorIndex
 90
       18
102
RTVSPost2010Prop41ColorRGB
 90
        0
102
RTVSPost2010PropOp41
 70
     1
102
RTVSPost2010Prop42
 90
       50
102
RTVSPost2010PropOp42
 70
     1
102
RTVSPost2010Prop43
 90
        3
102
RTVSPost2010PropOp43
 70
     1
102
RTVSPost2010Prop44ColorIndex
 90
        5
102
RTVSPost2010Prop44ColorRGB
 90
      255
102
RTVSPost2010PropOp44
 70
     1
102
RTVSPost2010Prop45
280
     0
102
RTVSPost2010PropOp45
 70
     1
102
RTVSPost2010Prop46
 90
       50
102
RTVSPost2010PropOp46
 70
     1
102
RTVSPost2010Prop47
 90
       50
102
RTVSPost2010PropOp47
 70
     1
102
RTVSPost2010Prop48
 90
       50
102
RTVSPost2010PropOp48
 70
     1
102
RTVSPost2010Prop49
280
     0
102
RTVSPost2010PropOp49
 70
     1
102
RTVSPost2010Prop50
 90
       50
102
RTVSPost2010PropOp50
 70
     1
102
RTVSPost2010Prop51ColorIndex
 90
      256
102
RTVSPost2010Prop51ColorRGB
 90
-16777216
102
RTVSPost2010PropOp51
 70
     0
102
RTVSPost2010Prop52
140
1.0
102
RTVSPost2010PropOp52
 70
     0
102
RTVSPost2010Prop53
 90
        2
102
RTVSPost2010PropOp53
 70
     1
102
RTVSPost2010Prop54
  1
strokes_ogs.tif
102
RTVSPost2010PropOp54
 70
     1
102
RTVSPost2010Prop55
280
     0
102
RTVSPost2010PropOp55
 70
     1
102
RTVSPost2010Prop56
140
1.0
102
RTVSPost2010PropOp56
 70
     1
102
RTVSPost2010Prop57
140
1.0
102
RTVSPost2010PropOp57
 70
     1
  0
XRECORD
  5
3AE
102
{ACAD_REACTORS
330
3AD
102
}
330
3AD
100
AcDbXrecord
280
     1
102
RTVSPropertyOp0
 70
     1
102
RTVSPropertyOp1
 70
     1
102
RTVSPropertyOp2
 70
     1
102
RTVSPropertyOp3
 70
     1
102
RTVSPropertyOp4
 70
     1
102
RTVSPropertyOp5
 70
     1
102
RTVSPropertyOp6
 70
     1
102
RTVSPropertyOp7
 70
     1
102
RTVSPropertyOp8
 70
     1
102
RTVSPropertyOp9
 70
     1
102
RTVSPropertyOp10
 70
     1
102
RTVSPropertyOp11
 70
     1
102
RTVSPropertyOp12
 70
     1
102
RTVSPropertyOp13
 70
     1
102
RTVSPropertyOp14
 70
     1
102
RTVSPropertyOp15
 70
     1
102
RTVSPropertyOp16
 70
     1
102
RTVSPropertyOp17
 70
     1
102
RTVSPropertyOp18
 70
     1
102
RTVSPropertyOp19
 70
     1
102
RTVSPropertyOp20
 70
     1
102
RTVSPropertyOp21
 70
     1
102
RTVSPropertyOp22
 70
     1
102
RTVSPropertyOp23
 70
     1
102
RTVSPropertyOp24
 70
     1
102
RTVSPropertyOp25
 70
     1
102
RTVSPropertyOp26
 70
     1
102
RTVSPropertyOp27
 70
     1
102
RTVSPropertyOp28
 70
     1
102
RTVSPropertyOp29
 70
     1
102
RTVSPropertyOp30
 70
     1
102
RTVSPropertyOp31
 70
     1
102
RTVSPropertyOp32
 70
     1
102
RTVSPropertyOp33
 70
     1
102
RTVSPropertyOp34
 70
     1
102
RTVSPropertyOp35
 70
     1
102
RTVSPropertyOp36
 70
     1
102
RTVSPropertyOp37
 70
     1
102
RTVSPropertyOp38
 70
     1
102
RTVSPropertyOp39
 70
     1
102
RTVSPropertyOp40
 70
     1
102
RTVSPropertyOp41
 70
     1
102
RTVSPropertyOp42
 70
     1
102
RTVSPropertyOp43
 70
     1
102
RTVSPropertyOp44
 70
     1
102
RTVSPropertyOp45
 70
     1
102
RTVSPropertyOp46
 70
     1
102
RTVSPropertyOp47
 70
     1
102
RTVSPropertyOp48
 70
     1
102
RTVSPropertyOp49
 70
     1
102
RTVSPropertyOp50
 70
     1
102
RTVSPropertyOp51
 70
     0
102
RTVSPropertyOp52
 70
     0
102
RTVSPropertyOp53
 70
     1
102
RTVSPropertyOp54
 70
     1
102
RTVSPropertyOp55
 70
     1
102
RTVSPropertyOp56
 70
     1
102
RTVSPropertyOp57
 70
     1
102
RTVSPost2010Prop28
280
     0
102
RTVSPost2010PropOp28
 70
     1
102
RTVSPost2010Prop29
280
     1
102
RTVSPost2010PropOp29
 70
     1
102
RTVSPost2010Prop30
280
     1
102
RTVSPost2010PropOp30
 70
     1
102
RTVSPost2010Prop31
280
     0
102
RTVSPost2010PropOp31
 70
     1
102
RTVSPost2010Prop32
280
     0
102
RTVSPost2010PropOp32
 70
     1
102
RTVSPost2010Prop33
280
     0
102
RTVSPost2010PropOp33
 70
     1
102
RTVSPost2010Prop34
280
     0
102
RTVSPost2010PropOp34
 70
     1
102
RTVSPost2010Prop35
280
     0
102
RTVSPost2010PropOp35
 70
     1
102
RTVSPost2010Prop36
280
     0
102
RTVSPost2010PropOp36
 70
     1
102
RTVSPost2010Prop37
 90
       50
102
RTVSPost2010PropOp37
 70
     1
102
RTVSPost2010Prop38
140
0.0
102
RTVSPost2010PropOp38
 70
     1
102
RTVSPost2010Prop39
140
1.0
102
RTVSPost2010PropOp39
 70
     1
102
RTVSPost2010Prop40
 90
        0
102
RTVSPost2010PropOp40
 70
     1
102
RTVSPost2010Prop41ColorIndex
 90
       18
102
RTVSPost2010Prop41ColorRGB
 90
        0
102
RTVSPost2010PropOp41
 70
     1
102
RTVSPost2010Prop42
 90
       50
102
RTVSPost2010PropOp42
 70
     1
102
RTVSPost2010Prop43
 90
        3
102
RTVSPost2010PropOp43
 70
     1
102
RTVSPost2010Prop44ColorIndex
 90
        5
102
RTVSPost2010Prop44ColorRGB
 90
      255
102
RTVSPost2010PropOp44
 70
     1
102
RTVSPost2010Prop45
280
     0
102
RTVSPost2010PropOp45
 70
     1
102
RTVSPost2010Prop46
 90
       50
102
RTVSPost2010PropOp46
 70
     1
102
RTVSPost2010Prop47
 90
       50
102
RTVSPost2010PropOp47
 70
     1
102
RTVSPost2010Prop48
 90
       50
102
RTVSPost2010PropOp48
 70
     1
102
RTVSPost2010Prop49
280
     0
102
RTVSPost2010PropOp49
 70
     1
102
RTVSPost2010Prop50
 90
       50
102
RTVSPost2010PropOp50
 70
     1
102
RTVSPost2010Prop51ColorIndex
 90
      256
102
RTVSPost2010Prop51ColorRGB
 90
-16777216
102
RTVSPost2010PropOp51
 70
     0
102
RTVSPost2010Prop52
140
1.0
102
RTVSPost2010PropOp52
 70
     0
102
RTVSPost2010Prop53
 90
        2
102
RTVSPost2010PropOp53
 70
     1
102
RTVSPost2010Prop54
  1
strokes_ogs.tif
102
RTVSPost2010PropOp54
 70
     1
102
RTVSPost2010Prop55
280
     0
102
RTVSPost2010PropOp55
 70
     1
102
RTVSPost2010Prop56
140
1.0
102
RTVSPost2010PropOp56
 70
     1
102
RTVSPost2010Prop57
140
1.0
102
RTVSPost2010PropOp57
 70
     1
  0
XRECORD
  5
3B0
102
{ACAD_REACTORS
330
3AF
102
}
330
3AF
100
AcDbXrecord
280
     1
102
RTVSPropertyOp0
 70
     1
102
RTVSPropertyOp1
 70
     1
102
RTVSPropertyOp2
 70
     1
102
RTVSPropertyOp3
 70
     1
102
RTVSPropertyOp4
 70
     1
102
RTVSPropertyOp5
 70
     1
102
RTVSPropertyOp6
 70
     1
102
RTVSPropertyOp7
 70
     1
102
RTVSPropertyOp8
 70
     1
102
RTVSPropertyOp9
 70
     1
102
RTVSPropertyOp10
 70
     1
102
RTVSPropertyOp11
 70
     1
102
RTVSPropertyOp12
 70
     1
102
RTVSPropertyOp13
 70
     1
102
RTVSPropertyOp14
 70
     1
102
RTVSPropertyOp15
 70
     1
102
RTVSPropertyOp16
 70
     1
102
RTVSPropertyOp17
 70
     1
102
RTVSPropertyOp18
 70
     1
102
RTVSPropertyOp19
 70
     1
102
RTVSPropertyOp20
 70
     1
102
RTVSPropertyOp21
 70
     1
102
RTVSPropertyOp22
 70
     1
102
RTVSPropertyOp23
 70
     1
102
RTVSPropertyOp24
 70
     1
102
RTVSPropertyOp25
 70
     1
102
RTVSPropertyOp26
 70
     1
102
RTVSPropertyOp27
 70
     1
102
RTVSPropertyOp28
 70
     1
102
RTVSPropertyOp29
 70
     1
102
RTVSPropertyOp30
 70
     1
102
RTVSPropertyOp31
 70
     1
102
RTVSPropertyOp32
 70
     1
102
RTVSPropertyOp33
 70
     1
102
RTVSPropertyOp34
 70
     1
102
RTVSPropertyOp35
 70
     1
102
RTVSPropertyOp36
 70
     1
102
RTVSPropertyOp37
 70
     1
102
RTVSPropertyOp38
 70
     1
102
RTVSPropertyOp39
 70
     1
102
RTVSPropertyOp40
 70
     1
102
RTVSPropertyOp41
 70
     1
102
RTVSPropertyOp42
 70
     1
102
RTVSPropertyOp43
 70
     1
102
RTVSPropertyOp44
 70
     1
102
RTVSPropertyOp45
 70
     1
102
RTVSPropertyOp46
 70
     1
102
RTVSPropertyOp47
 70
     1
102
RTVSPropertyOp48
 70
     1
102
RTVSPropertyOp49
 70
     1
102
RTVSPropertyOp50
 70
     1
102
RTVSPropertyOp51
 70
     0
102
RTVSPropertyOp52
 70
     0
102
RTVSPropertyOp53
 70
     1
102
RTVSPropertyOp54
 70
     1
102
RTVSPropertyOp55
 70
     1
102
RTVSPropertyOp56
 70
     1
102
RTVSPropertyOp57
 70
     1
102
RTVSPost2010Prop28
280
     0
102
RTVSPost2010PropOp28
 70
     1
102
RTVSPost2010Prop29
280
     1
102
RTVSPost2010PropOp29
 70
     1
102
RTVSPost2010Prop30
280
     1
102
RTVSPost2010PropOp30
 70
     1
102
RTVSPost2010Prop31
280
     0
102
RTVSPost2010PropOp31
 70
     1
102
RTVSPost2010Prop32
280
     0
102
RTVSPost2010PropOp32
 70
     1
102
RTVSPost2010Prop33
280
     0
102
RTVSPost2010PropOp33
 70
     1
102
RTVSPost2010Prop34
280
     0
102
RTVSPost2010PropOp34
 70
     1
102
RTVSPost2010Prop35
280
     0
102
RTVSPost2010PropOp35
 70
     1
102
RTVSPost2010Prop36
280
     0
102
RTVSPost2010PropOp36
 70
     1
102
RTVSPost2010Prop37
 90
       50
102
RTVSPost2010PropOp37
 70
     1
102
RTVSPost2010Prop38
140
0.0
102
RTVSPost2010PropOp38
 70
     1
102
RTVSPost2010Prop39
140
1.0
102
RTVSPost2010PropOp39
 70
     1
102
RTVSPost2010Prop40
 90
        0
102
RTVSPost2010PropOp40
 70
     1
102
RTVSPost2010Prop41ColorIndex
 90
       18
102
RTVSPost2010Prop41ColorRGB
 90
        0
102
RTVSPost2010PropOp41
 70
     1
102
RTVSPost2010Prop42
 90
       50
102
RTVSPost2010PropOp42
 70
     1
102
RTVSPost2010Prop43
 90
        3
102
RTVSPost2010PropOp43
 70
     1
102
RTVSPost2010Prop44ColorIndex
 90
        5
102
RTVSPost2010Prop44ColorRGB
 90
      255
102
RTVSPost2010PropOp44
 70
     1
102
RTVSPost2010Prop45
280
     0
102
RTVSPost2010PropOp45
 70
     1
102
RTVSPost2010Prop46
 90
       50
102
RTVSPost2010PropOp46
 70
     1
102
RTVSPost2010Prop47
 90
       50
102
RTVSPost2010PropOp47
 70
     1
102
RTVSPost2010Prop48
 90
       50
102
RTVSPost2010PropOp48
 70
     1
102
RTVSPost2010Prop49
280
     0
102
RTVSPost2010PropOp49
 70
     1
102
RTVSPost2010Prop50
 90
       50
102
RTVSPost2010PropOp50
 70
     1
102
RTVSPost2010Prop51ColorIndex
 90
      256
102
RTVSPost2010Prop51ColorRGB
 90
-16777216
102
RTVSPost2010PropOp51
 70
     0
102
RTVSPost2010Prop52
140
1.0
102
RTVSPost2010PropOp52
 70
     0
102
RTVSPost2010Prop53
 90
        2
102
RTVSPost2010PropOp53
 70
     1
102
RTVSPost2010Prop54
  1
strokes_ogs.tif
102
RTVSPost2010PropOp54
 70
     1
102
RTVSPost2010Prop55
280
     0
102
RTVSPost2010PropOp55
 70
     1
102
RTVSPost2010Prop56
140
1.0
102
RTVSPost2010PropOp56
 70
     1
102
RTVSPost2010Prop57
140
1.0
102
RTVSPost2010PropOp57
 70
     1
  0
XRECORD
  5
3A0
102
{ACAD_REACTORS
330
39F
102
}
330
39F
100
AcDbXrecord
280
     1
102
RTVSPropertyOp0
 70
     1
102
RTVSPropertyOp1
 70
     1
102
RTVSPropertyOp2
 70
     1
102
RTVSPropertyOp3
 70
     1
102
RTVSPropertyOp4
 70
     1
102
RTVSPropertyOp5
 70
     1
102
RTVSPropertyOp6
 70
     1
102
RTVSPropertyOp7
 70
     1
102
RTVSPropertyOp8
 70
     1
102
RTVSPropertyOp9
 70
     1
102
RTVSPropertyOp10
 70
     1
102
RTVSPropertyOp11
 70
     1
102
RTVSPropertyOp12
 70
     1
102
RTVSPropertyOp13
 70
     1
102
RTVSPropertyOp14
 70
     1
102
RTVSPropertyOp15
 70
     1
102
RTVSPropertyOp16
 70
     1
102
RTVSPropertyOp17
 70
     1
102
RTVSPropertyOp18
 70
     1
102
RTVSPropertyOp19
 70
     1
102
RTVSPropertyOp20
 70
     1
102
RTVSPropertyOp21
 70
     1
102
RTVSPropertyOp22
 70
     1
102
RTVSPropertyOp23
 70
     1
102
RTVSPropertyOp24
 70
     1
102
RTVSPropertyOp25
 70
     1
102
RTVSPropertyOp26
 70
     1
102
RTVSPropertyOp27
 70
     1
102
RTVSPropertyOp28
 70
     1
102
RTVSPropertyOp29
 70
     1
102
RTVSPropertyOp30
 70
     1
102
RTVSPropertyOp31
 70
     1
102
RTVSPropertyOp32
 70
     1
102
RTVSPropertyOp33
 70
     1
102
RTVSPropertyOp34
 70
     1
102
RTVSPropertyOp35
 70
     1
102
RTVSPropertyOp36
 70
     1
102
RTVSPropertyOp37
 70
     1
102
RTVSPropertyOp38
 70
     1
102
RTVSPropertyOp39
 70
     1
102
RTVSPropertyOp40
 70
     1
102
RTVSPropertyOp41
 70
     1
102
RTVSPropertyOp42
 70
     1
102
RTVSPropertyOp43
 70
     1
102
RTVSPropertyOp44
 70
     1
102
RTVSPropertyOp45
 70
     1
102
RTVSPropertyOp46
 70
     1
102
RTVSPropertyOp47
 70
     1
102
RTVSPropertyOp48
 70
     1
102
RTVSPropertyOp49
 70
     1
102
RTVSPropertyOp50
 70
     1
102
RTVSPropertyOp51
 70
     0
102
RTVSPropertyOp52
 70
     0
102
RTVSPropertyOp53
 70
     1
102
RTVSPropertyOp54
 70
     1
102
RTVSPropertyOp55
 70
     1
102
RTVSPropertyOp56
 70
     1
102
RTVSPropertyOp57
 70
     1
102
RTVSPost2010Prop28
280
     0
102
RTVSPost2010PropOp28
 70
     1
102
RTVSPost2010Prop29
280
     1
102
RTVSPost2010PropOp29
 70
     1
102
RTVSPost2010Prop30
280
     1
102
RTVSPost2010PropOp30
 70
     1
102
RTVSPost2010Prop31
280
     0
102
RTVSPost2010PropOp31
 70
     1
102
RTVSPost2010Prop32
280
     0
102
RTVSPost2010PropOp32
 70
     1
102
RTVSPost2010Prop33
280
     0
102
RTVSPost2010PropOp33
 70
     1
102
RTVSPost2010Prop34
280
     0
102
RTVSPost2010PropOp34
 70
     1
102
RTVSPost2010Prop35
280
     0
102
RTVSPost2010PropOp35
 70
     1
102
RTVSPost2010Prop36
280
     0
102
RTVSPost2010PropOp36
 70
     1
102
RTVSPost2010Prop37
 90
       50
102
RTVSPost2010PropOp37
 70
     1
102
RTVSPost2010Prop38
140
0.0
102
RTVSPost2010PropOp38
 70
     1
102
RTVSPost2010Prop39
140
1.0
102
RTVSPost2010PropOp39
 70
     1
102
RTVSPost2010Prop40
 90
        0
102
RTVSPost2010PropOp40
 70
     1
102
RTVSPost2010Prop41ColorIndex
 90
       18
102
RTVSPost2010Prop41ColorRGB
 90
        0
102
RTVSPost2010PropOp41
 70
     1
102
RTVSPost2010Prop42
 90
       50
102
RTVSPost2010PropOp42
 70
     1
102
RTVSPost2010Prop43
 90
        3
102
RTVSPost2010PropOp43
 70
     1
102
RTVSPost2010Prop44ColorIndex
 90
        5
102
RTVSPost2010Prop44ColorRGB
 90
      255
102
RTVSPost2010PropOp44
 70
     1
102
RTVSPost2010Prop45
280
     0
102
RTVSPost2010PropOp45
 70
     1
102
RTVSPost2010Prop46
 90
       50
102
RTVSPost2010PropOp46
 70
     1
102
RTVSPost2010Prop47
 90
       50
102
RTVSPost2010PropOp47
 70
     1
102
RTVSPost2010Prop48
 90
       50
102
RTVSPost2010PropOp48
 70
     1
102
RTVSPost2010Prop49
280
     0
102
RTVSPost2010PropOp49
 70
     1
102
RTVSPost2010Prop50
 90
       50
102
RTVSPost2010PropOp50
 70
     1
102
RTVSPost2010Prop51ColorIndex
 90
      256
102
RTVSPost2010Prop51ColorRGB
 90
-16777216
102
RTVSPost2010PropOp51
 70
     0
102
RTVSPost2010Prop52
140
1.0
102
RTVSPost2010PropOp52
 70
     0
102
RTVSPost2010Prop53
 90
        2
102
RTVSPost2010PropOp53
 70
     1
102
RTVSPost2010Prop54
  1
strokes_ogs.tif
102
RTVSPost2010PropOp54
 70
     1
102
RTVSPost2010Prop55
280
     0
102
RTVSPost2010PropOp55
 70
     1
102
RTVSPost2010Prop56
140
1.0
102
RTVSPost2010PropOp56
 70
     1
102
RTVSPost2010Prop57
140
1.0
102
RTVSPost2010PropOp57
 70
     1
  0
XRECORD
  5
392
102
{ACAD_REACTORS
330
391
102
}
330
391
100
AcDbXrecord
280
     1
102
RTVSPropertyOp0
 70
     1
102
RTVSPropertyOp1
 70
     1
102
RTVSPropertyOp2
 70
     1
102
RTVSPropertyOp3
 70
     1
102
RTVSPropertyOp4
 70
     1
102
RTVSPropertyOp5
 70
     1
102
RTVSPropertyOp6
 70
     1
102
RTVSPropertyOp7
 70
     1
102
RTVSPropertyOp8
 70
     1
102
RTVSPropertyOp9
 70
     1
102
RTVSPropertyOp10
 70
     1
102
RTVSPropertyOp11
 70
     1
102
RTVSPropertyOp12
 70
     1
102
RTVSPropertyOp13
 70
     1
102
RTVSPropertyOp14
 70
     1
102
RTVSPropertyOp15
 70
     1
102
RTVSPropertyOp16
 70
     1
102
RTVSPropertyOp17
 70
     1
102
RTVSPropertyOp18
 70
     1
102
RTVSPropertyOp19
 70
     1
102
RTVSPropertyOp20
 70
     1
102
RTVSPropertyOp21
 70
     1
102
RTVSPropertyOp22
 70
     1
102
RTVSPropertyOp23
 70
     1
102
RTVSPropertyOp24
 70
     1
102
RTVSPropertyOp25
 70
     1
102
RTVSPropertyOp26
 70
     1
102
RTVSPropertyOp27
 70
     1
102
RTVSPropertyOp28
 70
     1
102
RTVSPropertyOp29
 70
     1
102
RTVSPropertyOp30
 70
     1
102
RTVSPropertyOp31
 70
     1
102
RTVSPropertyOp32
 70
     1
102
RTVSPropertyOp33
 70
     1
102
RTVSPropertyOp34
 70
     1
102
RTVSPropertyOp35
 70
     1
102
RTVSPropertyOp36
 70
     1
102
RTVSPropertyOp37
 70
     1
102
RTVSPropertyOp38
 70
     1
102
RTVSPropertyOp39
 70
     1
102
RTVSPropertyOp40
 70
     1
102
RTVSPropertyOp41
 70
     1
102
RTVSPropertyOp42
 70
     1
102
RTVSPropertyOp43
 70
     1
102
RTVSPropertyOp44
 70
     1
102
RTVSPropertyOp45
 70
     1
102
RTVSPropertyOp46
 70
     1
102
RTVSPropertyOp47
 70
     1
102
RTVSPropertyOp48
 70
     1
102
RTVSPropertyOp49
 70
     1
102
RTVSPropertyOp50
 70
     1
102
RTVSPropertyOp51
 70
     0
102
RTVSPropertyOp52
 70
     0
102
RTVSPropertyOp53
 70
     1
102
RTVSPropertyOp54
 70
     1
102
RTVSPropertyOp55
 70
     1
102
RTVSPropertyOp56
 70
     1
102
RTVSPropertyOp57
 70
     1
102
RTVSPost2010Prop28
280
     0
102
RTVSPost2010PropOp28
 70
     1
102
RTVSPost2010Prop29
280
     1
102
RTVSPost2010PropOp29
 70
     1
102
RTVSPost2010Prop30
280
     1
102
RTVSPost2010PropOp30
 70
     1
102
RTVSPost2010Prop31
280
     0
102
RTVSPost2010PropOp31
 70
     1
102
RTVSPost2010Prop32
280
     0
102
RTVSPost2010PropOp32
 70
     1
102
RTVSPost2010Prop33
280
     0
102
RTVSPost2010PropOp33
 70
     1
102
RTVSPost2010Prop34
280
     0
102
RTVSPost2010PropOp34
 70
     1
102
RTVSPost2010Prop35
280
     0
102
RTVSPost2010PropOp35
 70
     1
102
RTVSPost2010Prop36
280
     0
102
RTVSPost2010PropOp36
 70
     1
102
RTVSPost2010Prop37
 90
       50
102
RTVSPost2010PropOp37
 70
     1
102
RTVSPost2010Prop38
140
0.0
102
RTVSPost2010PropOp38
 70
     1
102
RTVSPost2010Prop39
140
1.0
102
RTVSPost2010PropOp39
 70
     1
102
RTVSPost2010Prop40
 90
        0
102
RTVSPost2010PropOp40
 70
     1
102
RTVSPost2010Prop41ColorIndex
 90
       18
102
RTVSPost2010Prop41ColorRGB
 90
        0
102
RTVSPost2010PropOp41
 70
     1
102
RTVSPost2010Prop42
 90
       50
102
RTVSPost2010PropOp42
 70
     1
102
RTVSPost2010Prop43
 90
        3
102
RTVSPost2010PropOp43
 70
     1
102
RTVSPost2010Prop44ColorIndex
 90
        5
102
RTVSPost2010Prop44ColorRGB
 90
      255
102
RTVSPost2010PropOp44
 70
     1
102
RTVSPost2010Prop45
280
     0
102
RTVSPost2010PropOp45
 70
     1
102
RTVSPost2010Prop46
 90
       50
102
RTVSPost2010PropOp46
 70
     1
102
RTVSPost2010Prop47
 90
       50
102
RTVSPost2010PropOp47
 70
     1
102
RTVSPost2010Prop48
 90
       50
102
RTVSPost2010PropOp48
 70
     1
102
RTVSPost2010Prop49
280
     0
102
RTVSPost2010PropOp49
 70
     1
102
RTVSPost2010Prop50
 90
       50
102
RTVSPost2010PropOp50
 70
     1
102
RTVSPost2010Prop51ColorIndex
 90
      256
102
RTVSPost2010Prop51ColorRGB
 90
-16777216
102
RTVSPost2010PropOp51
 70
     0
102
RTVSPost2010Prop52
140
1.0
102
RTVSPost2010PropOp52
 70
     0
102
RTVSPost2010Prop53
 90
        2
102
RTVSPost2010PropOp53
 70
     1
102
RTVSPost2010Prop54
  1
strokes_ogs.tif
102
RTVSPost2010PropOp54
 70
     1
102
RTVSPost2010Prop55
280
     0
102
RTVSPost2010PropOp55
 70
     1
102
RTVSPost2010Prop56
140
1.0
102
RTVSPost2010PropOp56
 70
     1
102
RTVSPost2010Prop57
140
1.0
102
RTVSPost2010PropOp57
 70
     1
  0
XRECORD
  5
3B2
102
{ACAD_REACTORS
330
3B1
102
}
330
3B1
100
AcDbXrecord
280
     1
102
RTVSPropertyOp0
 70
     1
102
RTVSPropertyOp1
 70
     1
102
RTVSPropertyOp2
 70
     1
102
RTVSPropertyOp3
 70
     1
102
RTVSPropertyOp4
 70
     1
102
RTVSPropertyOp5
 70
     1
102
RTVSPropertyOp6
 70
     1
102
RTVSPropertyOp7
 70
     1
102
RTVSPropertyOp8
 70
     1
102
RTVSPropertyOp9
 70
     1
102
RTVSPropertyOp10
 70
     1
102
RTVSPropertyOp11
 70
     1
102
RTVSPropertyOp12
 70
     1
102
RTVSPropertyOp13
 70
     1
102
RTVSPropertyOp14
 70
     1
102
RTVSPropertyOp15
 70
     1
102
RTVSPropertyOp16
 70
     1
102
RTVSPropertyOp17
 70
     1
102
RTVSPropertyOp18
 70
     1
102
RTVSPropertyOp19
 70
     1
102
RTVSPropertyOp20
 70
     1
102
RTVSPropertyOp21
 70
     1
102
RTVSPropertyOp22
 70
     1
102
RTVSPropertyOp23
 70
     1
102
RTVSPropertyOp24
 70
     1
102
RTVSPropertyOp25
 70
     1
102
RTVSPropertyOp26
 70
     1
102
RTVSPropertyOp27
 70
     1
102
RTVSPropertyOp28
 70
     1
102
RTVSPropertyOp29
 70
     1
102
RTVSPropertyOp30
 70
     1
102
RTVSPropertyOp31
 70
     1
102
RTVSPropertyOp32
 70
     1
102
RTVSPropertyOp33
 70
     1
102
RTVSPropertyOp34
 70
     1
102
RTVSPropertyOp35
 70
     1
102
RTVSPropertyOp36
 70
     1
102
RTVSPropertyOp37
 70
     1
102
RTVSPropertyOp38
 70
     1
102
RTVSPropertyOp39
 70
     1
102
RTVSPropertyOp40
 70
     1
102
RTVSPropertyOp41
 70
     1
102
RTVSPropertyOp42
 70
     1
102
RTVSPropertyOp43
 70
     1
102
RTVSPropertyOp44
 70
     1
102
RTVSPropertyOp45
 70
     1
102
RTVSPropertyOp46
 70
     1
102
RTVSPropertyOp47
 70
     1
102
RTVSPropertyOp48
 70
     1
102
RTVSPropertyOp49
 70
     1
102
RTVSPropertyOp50
 70
     1
102
RTVSPropertyOp51
 70
     0
102
RTVSPropertyOp52
 70
     0
102
RTVSPropertyOp53
 70
     1
102
RTVSPropertyOp54
 70
     1
102
RTVSPropertyOp55
 70
     1
102
RTVSPropertyOp56
 70
     1
102
RTVSPropertyOp57
 70
     1
102
RTVSPost2010Prop28
280
     0
102
RTVSPost2010PropOp28
 70
     1
102
RTVSPost2010Prop29
280
     1
102
RTVSPost2010PropOp29
 70
     1
102
RTVSPost2010Prop30
280
     1
102
RTVSPost2010PropOp30
 70
     1
102
RTVSPost2010Prop31
280
     0
102
RTVSPost2010PropOp31
 70
     1
102
RTVSPost2010Prop32
280
     0
102
RTVSPost2010PropOp32
 70
     1
102
RTVSPost2010Prop33
280
     0
102
RTVSPost2010PropOp33
 70
     1
102
RTVSPost2010Prop34
280
     0
102
RTVSPost2010PropOp34
 70
     1
102
RTVSPost2010Prop35
280
     0
102
RTVSPost2010PropOp35
 70
     1
102
RTVSPost2010Prop36
280
     0
102
RTVSPost2010PropOp36
 70
     1
102
RTVSPost2010Prop37
 90
       50
102
RTVSPost2010PropOp37
 70
     1
102
RTVSPost2010Prop38
140
0.0
102
RTVSPost2010PropOp38
 70
     1
102
RTVSPost2010Prop39
140
1.0
102
RTVSPost2010PropOp39
 70
     1
102
RTVSPost2010Prop40
 90
        0
102
RTVSPost2010PropOp40
 70
     1
102
RTVSPost2010Prop41ColorIndex
 90
       18
102
RTVSPost2010Prop41ColorRGB
 90
        0
102
RTVSPost2010PropOp41
 70
     1
102
RTVSPost2010Prop42
 90
       50
102
RTVSPost2010PropOp42
 70
     1
102
RTVSPost2010Prop43
 90
        3
102
RTVSPost2010PropOp43
 70
     1
102
RTVSPost2010Prop44ColorIndex
 90
        5
102
RTVSPost2010Prop44ColorRGB
 90
      255
102
RTVSPost2010PropOp44
 70
     1
102
RTVSPost2010Prop45
280
     0
102
RTVSPost2010PropOp45
 70
     1
102
RTVSPost2010Prop46
 90
       50
102
RTVSPost2010PropOp46
 70
     1
102
RTVSPost2010Prop47
 90
       50
102
RTVSPost2010PropOp47
 70
     1
102
RTVSPost2010Prop48
 90
       50
102
RTVSPost2010PropOp48
 70
     1
102
RTVSPost2010Prop49
280
     0
102
RTVSPost2010PropOp49
 70
     1
102
RTVSPost2010Prop50
 90
       50
102
RTVSPost2010PropOp50
 70
     1
102
RTVSPost2010Prop51ColorIndex
 90
      256
102
RTVSPost2010Prop51ColorRGB
 90
-16777216
102
RTVSPost2010PropOp51
 70
     0
102
RTVSPost2010Prop52
140
1.0
102
RTVSPost2010PropOp52
 70
     0
102
RTVSPost2010Prop53
 90
        2
102
RTVSPost2010PropOp53
 70
     1
102
RTVSPost2010Prop54
  1
strokes_ogs.tif
102
RTVSPost2010PropOp54
 70
     1
102
RTVSPost2010Prop55
280
     0
102
RTVSPost2010PropOp55
 70
     1
102
RTVSPost2010Prop56
140
1.0
102
RTVSPost2010PropOp56
 70
     1
102
RTVSPost2010Prop57
140
1.0
102
RTVSPost2010PropOp57
 70
     1
  0
ENDSEC
  0
EOF
