  0
SECTION
  2
HEADER
  9
$ACADVER
  1
AC1018
  9
$ACADMAINTVER
 70
     0
  9
$DWGCODEPAGE
  3
ANSI_932
  9
$INSBASE
 10
0.0
 20
0.0
 30
0.0
  9
$EXTMIN
 10
-2100.0
 20
-1485.0
 30
0.0
  9
$EXTMAX
 10
2100.0
 20
1485.0
 30
0.0
  9
$LIMMIN
 10
-2100.0
 20
-1485.0
  9
$LIMMAX
 10
2100.0
 20
1485.0
  9
$ORTHOMODE
 70
     0
  9
$REGENMODE
 70
     1
  9
$FILLMODE
 70
     1
  9
$QTEXTMODE
 70
     0
  9
$MIRRTEXT
 70
     1
  9
$LTSCALE
 40
10.0
  9
$ATTMODE
 70
     1
  9
$TEXTSIZE
 40
2.5
  9
$TRACEWID
 40
1.0
  9
$TEXTSTYLE
  7
Standard
  9
$CLAYER
  8
0
  9
$CELTYPE
  6
ByLayer
  9
$CECOLOR
 62
   256
  9
$CELTSCALE
 40
1.0
  9
$DISPSILH
 70
     0
  9
$DIMSCALE
 40
1.0
  9
$DIMASZ
 40
2.5
  9
$DIMEXO
 40
0.625
  9
$DIMDLI
 40
3.75
  9
$DIMRND
 40
0.0
  9
$DIMDLE
 40
0.0
  9
$DIMEXE
 40
1.25
  9
$DIMTP
 40
0.0
  9
$DIMTM
 40
0.0
  9
$DIMTXT
 40
2.5
  9
$DIMCEN
 40
2.5
  9
$DIMTSZ
 40
0.0
  9
$DIMTOL
 70
     0
  9
$DIMLIM
 70
     0
  9
$DIMTIH
 70
     0
  9
$DIMTOH
 70
     0
  9
$DIMSE1
 70
     0
  9
$DIMSE2
 70
     0
  9
$DIMTAD
 70
     1
  9
$DIMZIN
 70
     8
  9
$DIMBLK
  1

  9
$DIMASO
 70
     1
  9
$DIMSHO
 70
     1
  9
$DIMPOST
  1

  9
$DIMAPOST
  1

  9
$DIMALT
 70
     0
  9
$DIMALTD
 70
     3
  9
$DIMALTF
 40
0.03937007874016
  9
$DIMLFAC
 40
1.0
  9
$DIMTOFL
 70
     1
  9
$DIMTVP
 40
0.0
  9
$DIMTIX
 70
     0
  9
$DIMSOXD
 70
     0
  9
$DIMSAH
 70
     0
  9
$DIMBLK1
  1

  9
$DIMBLK2
  1

  9
$DIMSTYLE
  2
ISO-25
  9
$DIMCLRD
 70
     0
  9
$DIMCLRE
 70
     0
  9
$DIMCLRT
 70
     0
  9
$DIMTFAC
 40
1.0
  9
$DIMGAP
 40
0.625
  9
$DIMJUST
 70
     0
  9
$DIMSD1
 70
     0
  9
$DIMSD2
 70
     0
  9
$DIMTOLJ
 70
     0
  9
$DIMTZIN
 70
     8
  9
$DIMALTZ
 70
     0
  9
$DIMALTTZ
 70
     0
  9
$DIMUPT
 70
     0
  9
$DIMDEC
 70
     2
  9
$DIMTDEC
 70
     2
  9
$DIMALTU
 70
     2
  9
$DIMALTTD
 70
     3
  9
$DIMTXSTY
  7
Standard
  9
$DIMAUNIT
 70
     0
  9
$DIMADEC
 70
     0
  9
$DIMALTRND
 40
0.0
  9
$DIMAZIN
 70
     0
  9
$DIMDSEP
 70
    44
  9
$DIMATFIT
 70
     3
  9
$DIMFRAC
 70
     0
  9
$DIMLDRBLK
  1

  9
$DIMLUNIT
 70
     2
  9
$DIMLWD
 70
    -2
  9
$DIMLWE
 70
    -2
  9
$DIMTMOVE
 70
     0
  9
$LUNITS
 70
     2
  9
$LUPREC
 70
     4
  9
$SKETCHINC
 40
1.0
  9
$FILLETRAD
 40
10.0
  9
$AUNITS
 70
     0
  9
$AUPREC
 70
     0
  9
$MENU
  1
.
  9
$ELEVATION
 40
0.0
  9
$PELEVATION
 40
0.0
  9
$THICKNESS
 40
0.0
  9
$LIMCHECK
 70
     0
  9
$CHAMFERA
 40
10.0
  9
$CHAMFERB
 40
10.0
  9
$CHAMFERC
 40
20.0
  9
$CHAMFERD
 40
0.0
  9
$SKPOLY
 70
     0
  9
$TDCREATE
 40
2456498.823163079
  9
$TDUCREATE
 40
2456498.448163079
  9
$TDUPDATE
 40
2456498.82316309
  9
$TDUUPDATE
 40
2456498.44816309
  9
$TDINDWG
 40
0.0000000116
  9
$TDUSRTIMER
 40
0.0000000116
  9
$USRTIMER
 70
     1
  9
$ANGBASE
 50
0.0
  9
$ANGDIR
 70
     0
  9
$PDMODE
 70
     0
  9
$PDSIZE
 40
0.0
  9
$PLINEWID
 40
0.0
  9
$SPLFRAME
 70
     0
  9
$SPLINETYPE
 70
     6
  9
$SPLINESEGS
 70
     8
  9
$HANDSEED
  5
F1
  9
$SURFTAB1
 70
     6
  9
$SURFTAB2
 70
     6
  9
$SURFTYPE
 70
     6
  9
$SURFU
 70
     6
  9
$SURFV
 70
     6
  9
$UCSBASE
  2

  9
$UCSNAME
  2

  9
$UCSORG
 10
0.0
 20
0.0
 30
0.0
  9
$UCSXDIR
 10
1.0
 20
0.0
 30
0.0
  9
$UCSYDIR
 10
0.0
 20
1.0
 30
0.0
  9
$UCSORTHOREF
  2

  9
$UCSORTHOVIEW
 70
     0
  9
$UCSORGTOP
 10
0.0
 20
0.0
 30
0.0
  9
$UCSORGBOTTOM
 10
0.0
 20
0.0
 30
0.0
  9
$UCSORGLEFT
 10
0.0
 20
0.0
 30
0.0
  9
$UCSORGRIGHT
 10
0.0
 20
0.0
 30
0.0
  9
$UCSORGFRONT
 10
0.0
 20
0.0
 30
0.0
  9
$UCSORGBACK
 10
0.0
 20
0.0
 30
0.0
  9
$PUCSBASE
  2

  9
$PUCSNAME
  2

  9
$PUCSORG
 10
0.0
 20
0.0
 30
0.0
  9
$PUCSXDIR
 10
1.0
 20
0.0
 30
0.0
  9
$PUCSYDIR
 10
0.0
 20
1.0
 30
0.0
  9
$PUCSORTHOREF
  2

  9
$PUCSORTHOVIEW
 70
     0
  9
$PUCSORGTOP
 10
0.0
 20
0.0
 30
0.0
  9
$PUCSORGBOTTOM
 10
0.0
 20
0.0
 30
0.0
  9
$PUCSORGLEFT
 10
0.0
 20
0.0
 30
0.0
  9
$PUCSORGRIGHT
 10
0.0
 20
0.0
 30
0.0
  9
$PUCSORGFRONT
 10
0.0
 20
0.0
 30
0.0
  9
$PUCSORGBACK
 10
0.0
 20
0.0
 30
0.0
  9
$USERI1
 70
     0
  9
$USERI2
 70
     0
  9
$USERI3
 70
     0
  9
$USERI4
 70
     0
  9
$USERI5
 70
     0
  9
$USERR1
 40
0.0
  9
$USERR2
 40
0.0
  9
$USERR3
 40
0.0
  9
$USERR4
 40
0.0
  9
$USERR5
 40
0.0
  9
$WORLDVIEW
 70
     1
  9
$SHADEDGE
 70
     3
  9
$SHADEDIF
 70
    70
  9
$TILEMODE
 70
     1
  9
$MAXACTVP
 70
    64
  9
$PINSBASE
 10
0.0
 20
0.0
 30
0.0
  9
$PLIMCHECK
 70
     0
  9
$PEXTMIN
 10
1.000000000000000E+20
 20
1.000000000000000E+20
 30
1.000000000000000E+20
  9
$PEXTMAX
 10
-1.000000000000000E+20
 20
-1.000000000000000E+20
 30
-1.000000000000000E+20
  9
$PLIMMIN
 10
0.0
 20
0.0
  9
$PLIMMAX
 10
420.0
 20
297.0
  9
$UNITMODE
 70
     0
  9
$VISRETAIN
 70
     1
  9
$PLINEGEN
 70
     0
  9
$PSLTSCALE
 70
     1
  9
$TREEDEPTH
 70
  3020
  9
$CMLSTYLE
  2
Standard
  9
$CMLJUST
 70
     0
  9
$CMLSCALE
 40
20.0
  9
$PROXYGRAPHICS
 70
     1
  9
$MEASUREMENT
 70
     1
  9
$CELWEIGHT
370
    -1
  9
$ENDCAPS
280
     0
  9
$JOINSTYLE
280
     0
  9
$LWDISPLAY
290
     0
  9
$INSUNITS
 70
     4
  9
$HYPERLINKBASE
  1

  9
$STYLESHEET
  1

  9
$XEDIT
290
     1
  9
$CEPSNTYPE
380
     0
  9
$PSTYLEMODE
290
     1
  9
$FINGERPRINTGUID
  2
{51FB33A6-CF6C-440E-A6FA-E81F2FCF2FFC}
  9
$VERSIONGUID
  2
{FAEB1C32-E019-11D5-929B-00C0DF256EC4}
  9
$EXTNAMES
290
     1
  9
$PSVPSCALE
 40
0.0
  9
$OLESTARTUP
290
     0
  9
$SORTENTS
280
   127
  9
$INDEXCTL
280
     0
  9
$HIDETEXT
280
     1
  9
$XCLIPFRAME
290
     0
  9
$HALOGAP
280
     0
  9
$OBSCOLOR
 70
   257
  9
$OBSLTYPE
280
     0
  9
$INTERSECTIONDISPLAY
280
     0
  9
$INTERSECTIONCOLOR
 70
   257
  9
$DIMASSOC
280
     2
  9
$PROJECTNAME
  1

  0
ENDSEC
  0
SECTION
  2
CLASSES
  0
CLASS
  1
ACDBDICTIONARYWDFLT
  2
AcDbDictionaryWithDefault
  3
ObjectDBX Classes
 90
        0
 91
        4
280
     0
281
     0
  0
CLASS
  1
VISUALSTYLE
  2
AcDbVisualStyle
  3
ObjectDBX Classes
 90
     4095
 91
        4
280
     0
281
     0
  0
ENDSEC
  0
SECTION
  2
TABLES
  0
TABLE
  2
VPORT
  5
8
330
0
100
AcDbSymbolTable
 70
     1
  0
VPORT
  5
29
330
8
100
AcDbSymbolTableRecord
100
AcDbViewportTableRecord
  2
*Active
 70
     0
 10
0.0
 20
0.0
 11
1.0
 21
1.0
 12
0.0
 22
0.0
 13
0.0
 23
0.0
 14
10.0
 24
10.0
 15
10.0
 25
10.0
 16
0.0
 26
0.0
 36
1.0
 17
0.0
 27
0.0
 37
0.0
 40
3267.0
 41
1.414141414141414
 42
50.0
 43
0.0
 44
0.0
 50
0.0
 51
0.0
 71
     0
 72
 10000
 73
     1
 74
     3
 75
     0
 76
     0
 77
     0
 78
     0
281
     0
 65
     1
110
0.0
120
0.0
130
0.0
111
1.0
121
0.0
131
0.0
112
0.0
122
1.0
132
0.0
 79
     0
146
0.0
  0
ENDTAB
  0
TABLE
  2
LTYPE
  5
5
330
0
100
AcDbSymbolTable
 70
     2
  0
LTYPE
  5
14
330
5
100
AcDbSymbolTableRecord
100
AcDbLinetypeTableRecord
  2
ByBlock
 70
     0
  3

 72
    65
 73
     0
 40
0.0
  0
LTYPE
  5
15
330
5
100
AcDbSymbolTableRecord
100
AcDbLinetypeTableRecord
  2
ByLayer
 70
     0
  3

 72
    65
 73
     0
 40
0.0
  0
LTYPE
  5
16
330
5
100
AcDbSymbolTableRecord
100
AcDbLinetypeTableRecord
  2
Continuous
 70
     0
  3
Solid line
 72
    65
 73
     0
 40
0.0
  0
LTYPE
  5
3C
330
5
100
AcDbSymbolTableRecord
100
AcDbLinetypeTableRecord
  2
JWW_CENTER2
 70
     0
  3
-------------  --  -------------
 72
    65
 73
     4
 40
13.54666666666667
 49
11.00666666666667
 74
     0
 49
-0.8466666666666667
 74
     0
 49
0.8466666666666667
 74
     0
 49
-0.8466666666666667
 74
     0
  0
ENDTAB
  0
TABLE
  2
LAYER
  5
2
330
0
100
AcDbSymbolTable
 70
     6
  0
LAYER
  5
10
330
2
100
AcDbSymbolTableRecord
100
AcDbLayerTableRecord
  2
0
 70
     0
 62
     7
  6
Continuous
370
    -3
390
F
  0
LAYER
  5
3D
330
2
100
AcDbSymbolTableRecord
100
AcDbLayerTableRecord
  2
0-4
 70
     0
 62
     7
  6
Continuous
370
    -3
390
F
  0
LAYER
  5
3E
330
2
100
AcDbSymbolTableRecord
100
AcDbLayerTableRecord
  2
0-1
 70
     0
 62
     7
  6
Continuous
370
    -3
390
F
  0
LAYER
  5
3F
330
2
100
AcDbSymbolTableRecord
100
AcDbLayerTableRecord
  2
0-5
 70
     0
 62
     7
  6
Continuous
370
    -3
390
F
  0
LAYER
  5
40
330
2
100
AcDbSymbolTableRecord
100
AcDbLayerTableRecord
  2
0-2
 70
     0
 62
     7
  6
Continuous
370
    -3
390
F
  0
LAYER
  5
41
330
2
100
AcDbSymbolTableRecord
100
AcDbLayerTableRecord
  2
F-4
 70
     0
 62
     7
  6
Continuous
370
    -3
390
F
  0
ENDTAB
  0
TABLE
  2
STYLE
  5
3
330
0
100
AcDbSymbolTable
 70
     2
  0
STYLE
  5
11
330
3
100
AcDbSymbolTableRecord
100
AcDbTextStyleTableRecord
  2
Standard
 70
     0
 40
0.0
 41
1.0
 50
0.0
 71
     0
 42
2.5
  3
txt
  4

1001
ACAD
1000

1071
        0
  0
STYLE
  5
3B
330
3
100
AcDbSymbolTableRecord
100
AcDbTextStyleTableRecord
  2
ＭＳ ゴシック
 70
     0
 40
1.0
 41
1.0
 50
0.0
 71
     0
 42
10.0
  3

  4

1001
ACAD
1000
MS Gothic
1071
    32817
  0
ENDTAB
  0
TABLE
  2
VIEW
  5
6
330
0
100
AcDbSymbolTable
 70
     0
  0
ENDTAB
  0
TABLE
  2
UCS
  5
7
330
0
100
AcDbSymbolTable
 70
     0
  0
ENDTAB
  0
TABLE
  2
APPID
  5
9
330
0
100
AcDbSymbolTable
 70
     1
  0
APPID
  5
12
330
9
100
AcDbSymbolTableRecord
100
AcDbRegAppTableRecord
  2
ACAD
 70
     0
  0
ENDTAB
  0
TABLE
  2
DIMSTYLE
  5
A
330
0
100
AcDbSymbolTable
 70
     1
100
AcDbDimStyleTable
  0
DIMSTYLE
105
27
330
A
100
AcDbSymbolTableRecord
100
AcDbDimStyleTableRecord
  2
ISO-25
 70
     0
 41
2.5
 42
0.625
 43
3.75
 44
1.25
 73
     0
 74
     0
 77
     1
 78
     8
140
2.5
141
2.5
143
0.03937007874016
147
0.625
171
     3
172
     1
271
     2
272
     2
274
     3
278
    44
283
     0
284
     8
340
11
  0
ENDTAB
  0
TABLE
  2
BLOCK_RECORD
  5
1
330
0
100
AcDbSymbolTable
 70
     1
  0
BLOCK_RECORD
  5
1F
330
1
100
AcDbSymbolTableRecord
100
AcDbBlockTableRecord
  2
*Model_Space
340
22
  0
BLOCK_RECORD
  5
1B
330
1
100
AcDbSymbolTableRecord
100
AcDbBlockTableRecord
  2
*Paper_Space
340
1E
  0
BLOCK_RECORD
  5
23
330
1
100
AcDbSymbolTableRecord
100
AcDbBlockTableRecord
  2
*Paper_Space0
340
26
  0
ENDTAB
  0
ENDSEC
  0
SECTION
  2
BLOCKS
  0
BLOCK
  5
20
330
1F
100
AcDbEntity
  8
0
100
AcDbBlockBegin
  2
*Model_Space
 70
     0
 10
0.0
 20
0.0
 30
0.0
  3
*Model_Space
  1

  0
ENDBLK
  5
21
330
1F
100
AcDbEntity
  8
0
100
AcDbBlockEnd
  0
BLOCK
  5
1C
330
1B
100
AcDbEntity
 67
     1
  8
0
100
AcDbBlockBegin
  2
*Paper_Space
 70
     0
 10
0.0
 20
0.0
 30
0.0
  3
*Paper_Space
  1

  0
ENDBLK
  5
1D
330
1B
100
AcDbEntity
 67
     1
  8
0
100
AcDbBlockEnd
  0
BLOCK
  5
24
330
23
100
AcDbEntity
  8
0
100
AcDbBlockBegin
  2
*Paper_Space0
 70
     0
 10
0.0
 20
0.0
 30
0.0
  3
*Paper_Space0
  1

  0
ENDBLK
  5
25
330
23
100
AcDbEntity
  8
0
100
AcDbBlockEnd
  0
ENDSEC
  0
SECTION
  2
ENTITIES
  0
LINE
  5
42
330
1F
100
AcDbEntity
  8
0-4
  6
Continuous
 62
     7
370
    13
100
AcDbLine
 10
461.6380846178208
 20
437.1292444177578
 30
0.0
 11
455.5505701013516
 21
445.0627837309966
 31
0.0
  0
LINE
  5
43
330
1F
100
AcDbEntity
  8
0-4
  6
Continuous
 62
     7
370
    13
100
AcDbLine
 10
461.6380846178208
 20
437.1292444177578
 30
0.0
 11
453.7046690244935
 21
443.2168826541385
 31
0.0
  0
LINE
  5
44
330
1F
100
AcDbEntity
  8
0-4
  6
Continuous
 62
     7
370
    13
100
AcDbLine
 10
390.927453943201
 20
507.8398750923776
 30
0.0
 11
398.8611169763516
 21
501.7522368559966
 31
0.0
  0
LINE
  5
45
330
1F
100
AcDbEntity
  8
0-4
  6
Continuous
 62
     7
370
    13
100
AcDbLine
 10
390.927453943201
 20
507.8398750923776
 30
0.0
 11
397.0152158994935
 21
499.9063357791385
 31
0.0
  0
LINE
  5
46
330
1F
100
AcDbEntity
  8
0-4
  6
Continuous
 62
     7
370
    13
100
AcDbLine
 10
390.927453943201
 20
507.8398750923776
 30
0.0
 11
461.6380846178208
 21
437.1292444177578
 31
0.0
  0
LINE
  5
47
330
1F
100
AcDbEntity
  8
0-4
  6
Continuous
 62
     7
370
    13
100
AcDbLine
 10
497.607421875
 20
375.7302691485432
 30
0.0
 11
498.9126669394005
 21
365.8158503351987
 31
0.0
  0
LINE
  5
48
330
1F
100
AcDbEntity
  8
0-4
  6
Continuous
 62
     7
370
    13
100
AcDbLine
 10
497.607421875
 20
375.7302691485432
 30
0.0
 11
496.3021768106
 21
365.8158503351987
 31
0.0
  0
TEXT
  5
49
330
1F
100
AcDbEntity
  8
0-4
  6
Continuous
 62
     2
370
    13
100
AcDbText
 10
418.8521338804754
 20
490.9504581741258
 30
0.0
 40
30.48
  1
50
 50
315.0
 41
1.062500000000001
  7
ＭＳ ゴシック
100
AcDbText
  0
LINE
  5
4A
330
1F
100
AcDbEntity
  8
0-4
  6
Continuous
 62
     7
370
    13
100
AcDbLine
 10
498.8075050147808
 20
375.7302691485432
 30
0.0
 11
435.0996687605576
 21
375.7302691485432
 31
0.0
  0
LINE
  5
4B
330
1F
100
AcDbEntity
  8
0-4
  6
Continuous
 62
     7
370
    13
100
AcDbLine
 10
462.4868032094594
 20
437.9777155695737
 30
0.0
 11
423.8619417757602
 21
399.3528541358742
 31
0.0
  0
LINE
  5
4C
330
1F
100
AcDbEntity
  8
0-4
  6
Continuous
 62
     7
370
    13
100
AcDbLine
 10
391.7759250950169
 20
508.688469964105
 30
0.0
 11
353.1510636613177
 21
470.0636085304055
 31
0.0
  0
LINE
  5
4D
330
1F
100
AcDbEntity
  8
0-1
  6
Continuous
 62
     3
370
    13
100
AcDbLine
 10
313.9721844647383
 20
430.8846056139149
 30
0.0
 11
345.0850203230576
 21
461.9973177523227
 31
0.0
  0
LINE
  5
4E
330
1F
100
AcDbEntity
  8
0-1
  6
Continuous
 62
     3
370
    13
100
AcDbLine
 10
403.4941802153719
 20
403.5881578600086
 30
0.0
 11
345.0850203230576
 21
461.9973177523227
 31
0.0
  0
LINE
  5
4F
330
1F
100
AcDbEntity
  8
0-1
  6
Continuous
 62
     3
370
    13
100
AcDbLine
 10
372.3813443570526
 20
372.4754457216005
 30
0.0
 11
313.9721844647383
 21
430.8846056139149
 31
0.0
  0
LINE
  5
50
330
1F
100
AcDbEntity
  8
0-1
  6
JWW_CENTER2
 62
     3
370
    13
100
AcDbLine
 10
387.9376385663008
 20
388.0318636507602
 30
0.0
 11
321.5178618559966
 21
454.4516403610643
 31
0.0
  0
LINE
  5
51
330
1F
100
AcDbEntity
  8
0-1
  6
Continuous
 62
     3
370
    13
100
AcDbLine
 10
-537.636256862331
 20
364.8013470623945
 30
0.0
 11
-573.6361529376054
 21
364.8013470623945
 31
0.0
  0
LINE
  5
52
330
1F
100
AcDbEntity
  8
0-1
  6
Continuous
 62
     3
370
    13
100
AcDbLine
 10
62.36399057749168
 20
364.8013470623945
 30
0.0
 11
26.36397078230573
 21
364.8013470623945
 31
0.0
  0
ARC
  5
53
330
1F
100
AcDbEntity
  8
0-1
  6
Continuous
 62
     3
370
    13
100
AcDbCircle
 10
358.2391687341641
 20
358.333270098712
 30
0.0
 40
64.00000082479941
100
AcDbArc
 50
0.0
 51
45.0
  0
ARC
  5
54
330
1F
100
AcDbEntity
  8
0-1
  6
JWW_CENTER2
 62
     3
370
    13
100
AcDbCircle
 10
358.2391687341641
 20
358.333270098712
 30
0.0
 40
41.999998608151
100
AcDbArc
 50
0.0
 51
45.0
  0
ARC
  5
55
330
1F
100
AcDbEntity
  8
0-1
  6
Continuous
 62
     3
370
    13
100
AcDbCircle
 10
358.2391687341641
 20
358.333270098712
 30
0.0
 40
20.00000025774982
100
AcDbArc
 50
0.0
 51
45.0
  0
ELLIPSE
  5
56
330
1F
100
AcDbEntity
  8
0-1
  6
Continuous
 62
     3
370
    13
100
AcDbEllipse
 10
-555.6361430400125
 20
444.6248152449326
 30
0.0
 11
22.0000002835248
 21
0.0
 31
0.0
210
0.0
220
0.0
230
1.0
 40
0.7000000000000001
 41
0.0
 42
6.283185307179586
  0
ELLIPSE
  5
57
330
1F
100
AcDbEntity
  8
0-1
  6
Continuous
 62
     3
370
    13
100
AcDbEllipse
 10
44.3639806798987
 20
444.6248152449326
 30
0.0
 11
22.0000002835248
 21
0.0
 31
0.0
210
0.0
220
0.0
230
1.0
 40
0.7000000000000001
 41
0.0
 42
6.283185307179586
  0
LINE
  5
58
330
1F
100
AcDbEntity
  8
0-4
  6
Continuous
 62
     7
370
    13
100
AcDbLine
 10
497.607421875
 20
-224.2696483715159
 30
0.0
 11
498.9126669394005
 21
-214.3552295581713
 31
0.0
  0
LINE
  5
59
330
1F
100
AcDbEntity
  8
0-4
  6
Continuous
 62
     7
370
    13
100
AcDbLine
 10
497.607421875
 20
-224.2696483715159
 30
0.0
 11
496.3021768106
 21
-214.3552295581713
 31
0.0
  0
LINE
  5
5A
330
1F
100
AcDbEntity
  8
0-4
  6
Continuous
 62
     7
370
    13
100
AcDbLine
 10
497.607421875
 20
375.7302691485432
 30
0.0
 11
497.607421875
 21
-224.2696483715159
 31
0.0
  0
LINE
  5
5B
330
1F
100
AcDbEntity
  8
0-4
  6
Continuous
 62
     7
370
    13
100
AcDbLine
 10
-533.6361446896115
 20
55.93652673669766
 30
0.0
 11
-523.7217258762669
 21
57.2417718010982
 31
0.0
  0
LINE
  5
5C
330
1F
100
AcDbEntity
  8
0-4
  6
Continuous
 62
     7
370
    13
100
AcDbLine
 10
-533.6361446896115
 20
55.93652673669766
 30
0.0
 11
-523.7217258762669
 21
54.6312816722974
 31
0.0
  0
LINE
  5
5D
330
1F
100
AcDbEntity
  8
0-4
  6
Continuous
 62
     7
370
    13
100
AcDbLine
 10
-577.6361413904137
 20
55.93652673669766
 30
0.0
 11
-587.5506839236698
 21
57.2417718010982
 31
0.0
  0
LINE
  5
5E
330
1F
100
AcDbEntity
  8
0-4
  6
Continuous
 62
     7
370
    13
100
AcDbLine
 10
-577.6361413904137
 20
55.93652673669766
 30
0.0
 11
-587.5506839236698
 21
54.6312816722974
 31
0.0
  0
LINE
  5
5F
330
1F
100
AcDbEntity
  8
0-4
  6
Continuous
 62
     7
370
    13
100
AcDbLine
 10
-577.6361413904137
 20
55.93652673669766
 30
0.0
 11
-533.6361446896115
 21
55.93652673669766
 31
0.0
  0
LINE
  5
60
330
1F
100
AcDbEntity
  8
0-4
  6
Continuous
 62
     7
370
    13
100
AcDbLine
 10
-533.6361446896115
 20
55.93652673669766
 30
0.0
 11
-513.63620242557
 21
55.93652673669766
 31
0.0
  0
LINE
  5
61
330
1F
100
AcDbEntity
  8
0-4
  6
Continuous
 62
     7
370
    13
100
AcDbLine
 10
-577.6361413904137
 20
55.93652673669766
 30
0.0
 11
-597.6362073743664
 21
55.93652673669766
 31
0.0
  0
TEXT
  5
62
330
1F
100
AcDbEntity
  8
0-4
  6
Continuous
 62
     2
370
    13
100
AcDbText
 10
-518.5634509937182
 20
73.90323638091225
 30
0.0
 40
30.48
  1
φ22
 41
1.09375
  7
ＭＳ ゴシック
100
AcDbText
  0
TEXT
  5
63
330
1F
100
AcDbEntity
  8
0-5
  6
Continuous
 62
     7
370
    13
100
AcDbText
 10
-245.4177196605785
 20
-69.45519551045182
 30
0.0
 40
22.86
  1
ローレット加工
 41
1.142857142857143
  7
ＭＳ ゴシック
100
AcDbText
  0
LINE
  5
64
330
1F
100
AcDbEntity
  8
0-5
  6
Continuous
 62
     7
370
    13
100
AcDbLine
 10
-247.860594053526
 20
-77.42623818887239
 30
0.0
 11
-3.967045464410646
 21
-77.42623818887239
 31
0.0
  0
LINE
  5
65
330
1F
100
AcDbEntity
  8
0-5
  6
Continuous
 62
     7
370
    13
100
AcDbLine
 10
-247.860594053526
 20
-77.42623818887239
 30
0.0
 11
-307.2373673722549
 21
-180.2696516707135
 31
0.0
  0
LINE
  5
66
330
1F
100
AcDbEntity
  8
0-5
  6
Continuous
 62
     7
370
    13
100
AcDbLine
 10
-307.2373673722549
 20
-180.2696516707135
 30
0.0
 11
-292.0183336412583
 21
-160.4358652475716
 31
0.0
  0
LINE
  5
67
330
1F
100
AcDbEntity
  8
0-5
  6
Continuous
 62
     7
370
    13
100
AcDbLine
 10
-307.2373673722549
 20
-180.2696516707135
 30
0.0
 11
-297.6702303499789
 21
-157.1726288666596
 31
0.0
  0
LINE
  5
68
330
1F
100
AcDbEntity
  8
0-5
  6
Continuous
 62
     7
370
    13
100
AcDbLine
 10
-164.577917150549
 20
-223.9017053552575
 30
0.0
 11
-155.0109038481841
 21
-246.9987281593114
 31
0.0
  0
LINE
  5
69
330
1F
100
AcDbEntity
  8
0-5
  6
Continuous
 62
     7
370
    13
100
AcDbLine
 10
-164.577917150549
 20
-223.9017053552575
 30
0.0
 11
-161.3148044895479
 21
-248.6878761085302
 31
0.0
  0
LINE
  5
6A
330
1F
100
AcDbEntity
  8
0-5
  6
Continuous
 62
     7
370
    13
100
AcDbLine
 10
-164.577917150549
 20
-223.9017053552575
 30
0.0
 11
-66.42744734480573
 21
-590.2046904692779
 31
0.0
  0
TEXT
  5
6B
330
1F
100
AcDbEntity
  8
0-5
  6
Continuous
 62
     7
370
    13
100
AcDbText
 10
-40.54007865287147
 20
-577.8637986631651
 30
0.0
 40
22.86
  1
ＳＵＳ３０４
 41
1.138888888888889
  7
ＭＳ ゴシック
100
AcDbText
  0
LINE
  5
6C
330
1F
100
AcDbEntity
  8
0-5
  6
Continuous
 62
     7
370
    13
100
AcDbLine
 10
-66.42744734480573
 20
-590.2046904692779
 30
0.0
 11
171.9007742062532
 21
-590.2046904692779
 31
0.0
  0
LINE
  5
6D
330
1F
100
AcDbEntity
  8
0-4
  6
Continuous
 62
     7
370
    13
100
AcDbLine
 10
498.8075050147808
 20
-224.2696483715159
 30
0.0
 11
435.0996687605576
 21
-224.2696483715159
 31
0.0
  0
LINE
  5
6E
330
1F
100
AcDbEntity
  8
0-4
  6
Continuous
 62
     7
370
    13
100
AcDbLine
 10
-555.6361430400125
 20
-428.0256828854104
 30
0.0
 11
44.3639806798987
 21
-428.0256828854104
 31
0.0
  0
LINE
  5
6F
330
1F
100
AcDbEntity
  8
0-4
  6
Continuous
 62
     7
370
    13
100
AcDbLine
 10
-555.6361430400125
 20
-428.0256828854104
 30
0.0
 11
-530.8500215056672
 21
-424.7625280799091
 31
0.0
  0
LINE
  5
70
330
1F
100
AcDbEntity
  8
0-4
  6
Continuous
 62
     7
370
    13
100
AcDbLine
 10
-555.6361430400125
 20
-428.0256828854104
 30
0.0
 11
-530.8500215056672
 21
-431.2888376909117
 31
0.0
  0
LINE
  5
71
330
1F
100
AcDbEntity
  8
0-4
  6
Continuous
 62
     7
370
    13
100
AcDbLine
 10
44.3639806798987
 20
-428.0256828854104
 30
0.0
 11
19.57785914555344
 21
-424.7625280799091
 31
0.0
  0
LINE
  5
72
330
1F
100
AcDbEntity
  8
0-4
  6
Continuous
 62
     7
370
    13
100
AcDbLine
 10
44.3639806798987
 20
-428.0256828854104
 30
0.0
 11
19.57785914555344
 21
-431.2888376909117
 31
0.0
  0
LINE
  5
73
330
1F
100
AcDbEntity
  8
0-4
  6
Continuous
 62
     7
370
    13
100
AcDbLine
 10
-555.6361430400125
 20
-431.0256830046197
 30
0.0
 11
-555.6361430400125
 21
-238.9909912976251
 31
0.0
  0
LINE
  5
74
330
1F
100
AcDbEntity
  8
0-4
  6
Continuous
 62
     7
370
    13
100
AcDbLine
 10
44.3639806798987
 20
-431.0256830046197
 30
0.0
 11
44.3639806798987
 21
-238.9909912976251
 31
0.0
  0
TEXT
  5
75
330
1F
100
AcDbEntity
  8
0-4
  6
Continuous
 62
     2
370
   211
100
AcDbText
 10
-288.1360811800569
 20
-412.3856828854104
 30
0.0
 40
30.48
  1
300
 41
1.083333333333333
  7
ＭＳ ゴシック
100
AcDbText
  0
LINE
  5
76
330
1F
100
AcDbEntity
  8
0-4
  6
Continuous
 62
     7
370
    13
100
AcDbLine
 10
-555.6361430400125
 20
-330.9811353323228
 30
0.0
 11
-455.447609874927
 21
-330.9811353323228
 31
0.0
  0
LINE
  5
77
330
1F
100
AcDbEntity
  8
0-4
  6
Continuous
 62
     7
370
    13
100
AcDbLine
 10
-555.6361430400125
 20
-330.9811353323228
 30
0.0
 11
-530.8500215056672
 21
-327.7179805268214
 31
0.0
  0
LINE
  5
78
330
1F
100
AcDbEntity
  8
0-4
  6
Continuous
 62
     7
370
    13
100
AcDbLine
 10
-555.6361430400125
 20
-330.9811353323228
 30
0.0
 11
-530.8500215056672
 21
-334.244290137824
 31
0.0
  0
LINE
  5
79
330
1F
100
AcDbEntity
  8
0-4
  6
Continuous
 62
     7
370
    13
100
AcDbLine
 10
-455.447609874927
 20
-330.9811353323228
 30
0.0
 11
-480.2337314092723
 21
-327.7179805268214
 31
0.0
  0
LINE
  5
7A
330
1F
100
AcDbEntity
  8
0-4
  6
Continuous
 62
     7
370
    13
100
AcDbLine
 10
-455.447609874927
 20
-330.9811353323228
 30
0.0
 11
-480.2337314092723
 21
-334.244290137824
 31
0.0
  0
LINE
  5
7B
330
1F
100
AcDbEntity
  8
0-4
  6
Continuous
 62
     7
370
    13
100
AcDbLine
 10
-555.6361430400125
 20
-333.9811354515321
 30
0.0
 11
-555.6361430400125
 21
-238.9909912976251
 31
0.0
  0
LINE
  5
7C
330
1F
100
AcDbEntity
  8
0-4
  6
Continuous
 62
     7
370
    13
100
AcDbLine
 10
-455.447609874927
 20
-333.9811354515321
 30
0.0
 11
-455.447609874927
 21
-238.9909912976251
 31
0.0
  0
LINE
  5
7D
330
1F
100
AcDbEntity
  8
0-4
  6
Continuous
 62
     7
370
    13
100
AcDbLine
 10
-55.63622551995337
 20
-333.9811354515321
 30
0.0
 11
-55.63622551995337
 21
-238.9909912976251
 31
0.0
  0
LINE
  5
7E
330
1F
100
AcDbEntity
  8
0-4
  6
Continuous
 62
     7
370
    13
100
AcDbLine
 10
-55.63622551995337
 20
-330.9811353323228
 30
0.0
 11
44.3639806798987
 21
-330.9811353323228
 31
0.0
  0
LINE
  5
7F
330
1F
100
AcDbEntity
  8
0-4
  6
Continuous
 62
     7
370
    13
100
AcDbLine
 10
-55.63622551995337
 20
-330.9811353323228
 30
0.0
 11
-30.85010398560811
 21
-327.7179805268214
 31
0.0
  0
LINE
  5
80
330
1F
100
AcDbEntity
  8
0-4
  6
Continuous
 62
     7
370
    13
100
AcDbLine
 10
-55.63622551995337
 20
-330.9811353323228
 30
0.0
 11
-30.85010398560811
 21
-334.244290137824
 31
0.0
  0
LINE
  5
81
330
1F
100
AcDbEntity
  8
0-4
  6
Continuous
 62
     7
370
    13
100
AcDbLine
 10
44.3639806798987
 20
-330.9811353323228
 30
0.0
 11
19.57785914555344
 21
-327.7179805268214
 31
0.0
  0
LINE
  5
82
330
1F
100
AcDbEntity
  8
0-4
  6
Continuous
 62
     7
370
    13
100
AcDbLine
 10
44.3639806798987
 20
-330.9811353323228
 30
0.0
 11
19.57785914555344
 21
-334.244290137824
 31
0.0
  0
LINE
  5
83
330
1F
100
AcDbEntity
  8
0-4
  6
Continuous
 62
     7
370
    13
100
AcDbLine
 10
44.3639806798987
 20
-333.9811354515321
 30
0.0
 11
44.3639806798987
 21
-238.9909912976251
 31
0.0
  0
TEXT
  5
84
330
1F
100
AcDbEntity
  8
0-4
  6
Continuous
 62
     2
370
   211
100
AcDbText
 10
-26.88612242002733
 20
-315.3411353323228
 30
0.0
 40
30.48
  1
50
 41
1.0625
  7
ＭＳ ゴシック
100
AcDbText
  0
TEXT
  5
85
330
1F
100
AcDbEntity
  8
0-4
  6
Continuous
 62
     2
370
   211
100
AcDbText
 10
-526.7918764574698
 20
-315.3411353323228
 30
0.0
 40
30.48
  1
50
 41
1.0625
  7
ＭＳ ゴシック
100
AcDbText
  0
LINE
  5
86
330
1F
100
AcDbEntity
  8
0-1
  6
Continuous
 62
     3
370
    13
100
AcDbLine
 10
422.239231418919
 20
358.333270098712
 30
0.0
 11
422.239231418919
 21
-202.2696500211148
 31
0.0
  0
LINE
  5
87
330
1F
100
AcDbEntity
  8
0-1
  6
Continuous
 62
     3
370
    13
100
AcDbLine
 10
378.2392347181167
 20
358.333270098712
 30
0.0
 11
378.2392347181167
 21
-202.2696500211148
 31
0.0
  0
LINE
  5
88
330
1F
100
AcDbEntity
  8
0-1
  6
JWW_CENTER2
 62
     3
370
    13
100
AcDbLine
 10
400.2393567884292
 20
358.333270098712
 30
0.0
 11
400.2393567884292
 21
-236.4426978858739
 31
0.0
  0
LINE
  5
89
330
1F
100
AcDbEntity
  8
0-1
  6
JWW_CENTER2
 62
     3
370
    13
100
AcDbLine
 10
-255.636266759924
 20
509.6849101298565
 30
0.0
 11
-255.636266759924
 21
-267.2393056508656
 31
0.0
  0
LINE
  5
8A
330
1F
100
AcDbEntity
  8
0-1
  6
JWW_CENTER2
 62
     3
370
    13
100
AcDbLine
 10
-555.6361430400125
 20
-140.2696434227195
 30
0.0
 11
-555.6361430400125
 21
477.4384287241344
 31
0.0
  0
LINE
  5
8B
330
1F
100
AcDbEntity
  8
0-1
  6
Continuous
 62
     3
370
    13
100
AcDbLine
 10
-577.6361413904137
 20
-140.2696434227195
 30
0.0
 11
-577.6361413904137
 21
444.6248152449326
 31
0.0
  0
LINE
  5
8C
330
1F
100
AcDbEntity
  8
0-1
  6
Continuous
 62
     3
370
    13
100
AcDbLine
 10
-533.6361446896115
 20
-140.2696434227195
 30
0.0
 11
-533.6361446896115
 21
444.6248152449326
 31
0.0
  0
LINE
  5
8D
330
1F
100
AcDbEntity
  8
0-1
  6
JWW_CENTER2
 62
     3
370
    13
100
AcDbLine
 10
44.3639806798987
 20
-140.2696434227195
 30
0.0
 11
44.3639806798987
 21
475.6222204259925
 31
0.0
  0
LINE
  5
8E
330
1F
100
AcDbEntity
  8
0-1
  6
Continuous
 62
     3
370
    13
100
AcDbLine
 10
66.36385531038854
 20
-140.2696434227195
 30
0.0
 11
66.36385531038854
 21
444.6248152449326
 31
0.0
  0
LINE
  5
8F
330
1F
100
AcDbEntity
  8
0-1
  6
Continuous
 62
     3
370
    13
100
AcDbLine
 10
22.3638586095862
 20
-140.2696434227195
 30
0.0
 11
22.3638586095862
 21
444.6248152449326
 31
0.0
  0
ARC
  5
90
330
1F
100
AcDbEntity
  8
0-1
  6
Continuous
 62
     3
370
    13
100
AcDbCircle
 10
-493.6362601615286
 20
-140.2696434227195
 30
0.0
 40
83.999997216302
100
AcDbArc
 50
180.0
 51
270.0
  0
ARC
  5
91
330
1F
100
AcDbEntity
  8
0-1
  6
JWW_CENTER2
 62
     3
370
    13
100
AcDbCircle
 10
-493.6362601615286
 20
-140.2696434227195
 30
0.0
 40
61.99999886590081
100
AcDbArc
 50
180.0
 51
270.0
  0
ARC
  5
92
330
1F
100
AcDbEntity
  8
0-1
  6
Continuous
 62
     3
370
    13
100
AcDbCircle
 10
-493.6362601615286
 20
-140.2696434227195
 30
0.0
 40
40.00000051549964
100
AcDbArc
 50
180.0
 51
270.0
  0
LINE
  5
93
330
1F
100
AcDbEntity
  8
0-1
  6
Continuous
 62
     3
370
    13
100
AcDbLine
 10
-493.6362601615286
 20
-180.2696516707135
 30
0.0
 11
-255.636266759924
 21
-180.2696516707135
 31
0.0
  0
LINE
  5
94
330
1F
100
AcDbEntity
  8
0-1
  6
JWW_CENTER2
 62
     3
370
    13
100
AcDbLine
 10
-493.6362601615286
 20
-202.2696500211148
 30
0.0
 11
-17.63602591849661
 21
-202.2696500211148
 31
0.0
  0
LINE
  5
95
330
1F
100
AcDbEntity
  8
0-1
  6
Continuous
 62
     3
370
    13
100
AcDbLine
 10
-493.6362601615286
 20
-224.2696483715159
 30
0.0
 11
-255.636266759924
 21
-224.2696483715159
 31
0.0
  0
ARC
  5
96
330
1F
100
AcDbEntity
  8
0-1
  6
Continuous
 62
     3
370
    13
100
AcDbCircle
 10
-17.63602591849661
 20
-140.2696434227195
 30
0.0
 40
83.999997216302
100
AcDbArc
 50
270.0
 51
0.0
  0
LINE
  5
97
330
1F
100
AcDbEntity
  8
0-1
  6
Continuous
 62
     3
370
    13
100
AcDbLine
 10
-255.636266759924
 20
-180.2696516707135
 30
0.0
 11
-17.63602591849661
 21
-180.2696516707135
 31
0.0
  0
LINE
  5
98
330
1F
100
AcDbEntity
  8
0-1
  6
Continuous
 62
     3
370
    13
100
AcDbLine
 10
-255.636266759924
 20
-224.2696483715159
 30
0.0
 11
-17.63602591849661
 21
-224.2696483715159
 31
0.0
  0
ARC
  5
99
330
1F
100
AcDbEntity
  8
0-1
  6
JWW_CENTER2
 62
     3
370
    13
100
AcDbCircle
 10
-17.63602591849661
 20
-140.2696434227195
 30
0.0
 40
61.99999886590081
100
AcDbArc
 50
270.0
 51
0.0
  0
ARC
  5
9A
330
1F
100
AcDbEntity
  8
0-1
  6
Continuous
 62
     3
370
    13
100
AcDbCircle
 10
-17.63602591849661
 20
-140.2696434227195
 30
0.0
 40
40.00000051549964
100
AcDbArc
 50
270.0
 51
0.0
  0
CIRCLE
  5
9B
330
1F
100
AcDbEntity
  8
0-1
  6
Continuous
 62
     3
370
    13
100
AcDbCircle
 10
400.2393567884292
 20
-202.2696500211148
 30
0.0
 40
22.0000002835248
  0
LINE
  5
9C
330
1F
100
AcDbEntity
  8
0-2
  6
Continuous
 62
     7
370
    13
100
AcDbLine
 10
-137.0081721125422
 20
-180.2696516707135
 30
0.0
 11
-60.79794394003358
 21
-224.2696483715159
 31
0.0
  0
LINE
  5
9D
330
1F
100
AcDbEntity
  8
0-2
  6
Continuous
 62
     7
370
    13
100
AcDbLine
 10
-149.0081374709669
 20
-180.2696516707135
 30
0.0
 11
-72.79790929845859
 21
-224.2696483715159
 31
0.0
  0
LINE
  5
9E
330
1F
100
AcDbEntity
  8
0-2
  6
Continuous
 62
     7
370
    13
100
AcDbLine
 10
-161.0082265493031
 20
-180.2696516707135
 30
0.0
 11
-84.79799837679451
 21
-224.2696483715159
 31
0.0
  0
LINE
  5
9F
330
1F
100
AcDbEntity
  8
0-2
  6
Continuous
 62
     7
370
    13
100
AcDbLine
 10
-173.0081919077278
 20
-180.2696516707135
 30
0.0
 11
-96.79796373521953
 21
-224.2696483715159
 31
0.0
  0
LINE
  5
A0
330
1F
100
AcDbEntity
  8
0-2
  6
Continuous
 62
     7
370
    13
100
AcDbLine
 10
-185.0081572661529
 20
-180.2696516707135
 30
0.0
 11
-108.7979290936443
 21
-224.2696483715159
 31
0.0
  0
LINE
  5
A1
330
1F
100
AcDbEntity
  8
0-2
  6
Continuous
 62
     7
370
    13
100
AcDbLine
 10
-197.0082463444888
 20
-180.2696516707135
 30
0.0
 11
-120.7978944520693
 21
-224.2696483715159
 31
0.0
  0
LINE
  5
A2
330
1F
100
AcDbEntity
  8
0-2
  6
Continuous
 62
     7
370
    13
100
AcDbLine
 10
-209.0082117029138
 20
-180.2696516707135
 30
0.0
 11
-132.7979835304052
 21
-224.2696483715159
 31
0.0
  0
LINE
  5
A3
330
1F
100
AcDbEntity
  8
0-2
  6
Continuous
 62
     7
370
    13
100
AcDbLine
 10
-221.0081770613385
 20
-180.2696516707135
 30
0.0
 11
-144.7979488888302
 21
-224.2696483715159
 31
0.0
  0
LINE
  5
A4
330
1F
100
AcDbEntity
  8
0-2
  6
Continuous
 62
     7
370
    13
100
AcDbLine
 10
-233.0081424197635
 20
-180.2696516707135
 30
0.0
 11
-156.7979142472549
 21
-224.2696483715159
 31
0.0
  0
LINE
  5
A5
330
1F
100
AcDbEntity
  8
0-2
  6
Continuous
 62
     7
370
    13
100
AcDbLine
 10
-245.0082314980995
 20
-180.2696516707135
 30
0.0
 11
-168.7980033255911
 21
-224.2696483715159
 31
0.0
  0
LINE
  5
A6
330
1F
100
AcDbEntity
  8
0-2
  6
Continuous
 62
     7
370
    13
100
AcDbLine
 10
-257.0081968565245
 20
-180.2696516707135
 30
0.0
 11
-180.7979686840159
 21
-224.2696483715159
 31
0.0
  0
LINE
  5
A7
330
1F
100
AcDbEntity
  8
0-2
  6
Continuous
 62
     7
370
    13
100
AcDbLine
 10
-269.0081622149492
 20
-180.2696516707135
 30
0.0
 11
-192.7979340424409
 21
-224.2696483715159
 31
0.0
  0
LINE
  5
A8
330
1F
100
AcDbEntity
  8
0-2
  6
Continuous
 62
     7
370
    13
100
AcDbLine
 10
-281.0081275733739
 20
-180.2696516707135
 30
0.0
 11
-204.7978994008656
 21
-224.2696483715159
 31
0.0
  0
LINE
  5
A9
330
1F
100
AcDbEntity
  8
0-2
  6
Continuous
 62
     7
370
    13
100
AcDbLine
 10
-293.0082166517101
 20
-180.2696516707135
 30
0.0
 11
-216.7979884792018
 21
-224.2696483715159
 31
0.0
  0
LINE
  5
AA
330
1F
100
AcDbEntity
  8
0-2
  6
Continuous
 62
     7
370
    13
100
AcDbLine
 10
-305.0081820101352
 20
-180.2696516707135
 30
0.0
 11
-228.7979538376266
 21
-224.2696483715159
 31
0.0
  0
LINE
  5
AB
330
1F
100
AcDbEntity
  8
0-2
  6
Continuous
 62
     7
370
    13
100
AcDbLine
 10
-317.0081473685599
 20
-180.2696516707135
 30
0.0
 11
-240.7979191960513
 21
-224.2696483715159
 31
0.0
  0
LINE
  5
AC
330
1F
100
AcDbEntity
  8
0-2
  6
Continuous
 62
     7
370
    13
100
AcDbLine
 10
-329.0082364468961
 20
-180.2696516707135
 30
0.0
 11
-252.7980082743875
 21
-224.2696483715159
 31
0.0
  0
LINE
  5
AD
330
1F
100
AcDbEntity
  8
0-2
  6
Continuous
 62
     7
370
    13
100
AcDbLine
 10
-341.0082018053208
 20
-180.2696516707135
 30
0.0
 11
-264.7979736328125
 21
-224.2696483715159
 31
0.0
  0
LINE
  5
AE
330
1F
100
AcDbEntity
  8
0-2
  6
Continuous
 62
     7
370
    13
100
AcDbLine
 10
-353.0081671637456
 20
-180.2696516707135
 30
0.0
 11
-276.7979389912372
 21
-224.2696483715159
 31
0.0
  0
LINE
  5
AF
330
1F
100
AcDbEntity
  8
0-2
  6
Continuous
 62
     7
370
    13
100
AcDbLine
 10
-365.0081325221706
 20
-180.2696516707135
 30
0.0
 11
-288.797904349662
 21
-224.2696483715159
 31
0.0
  0
LINE
  5
B0
330
1F
100
AcDbEntity
  8
0-2
  6
Continuous
 62
     7
370
    13
100
AcDbLine
 10
-377.0082216005068
 20
-180.2696516707135
 30
0.0
 11
-300.7979934279982
 21
-224.2696483715159
 31
0.0
  0
LINE
  5
B1
330
1F
100
AcDbEntity
  8
0-2
  6
Continuous
 62
     7
370
    13
100
AcDbLine
 10
-389.0081869589315
 20
-180.2696516707135
 30
0.0
 11
-312.7979587864232
 21
-224.2696483715159
 31
0.0
  0
LINE
  5
B2
330
1F
100
AcDbEntity
  8
0-2
  6
Continuous
 62
     7
370
    13
100
AcDbLine
 10
-401.0081523173562
 20
-180.2696516707135
 30
0.0
 11
-324.7979241448479
 21
-224.2696483715159
 31
0.0
  0
LINE
  5
B3
330
1F
100
AcDbEntity
  8
0-2
  6
Continuous
 62
     7
370
    13
100
AcDbLine
 10
-413.0082413956924
 20
-180.2696516707135
 30
0.0
 11
-336.7978895032726
 21
-224.2696483715159
 31
0.0
  0
LINE
  5
B4
330
1F
100
AcDbEntity
  8
0-2
  6
Continuous
 62
     7
370
    13
100
AcDbLine
 10
-425.0082067541172
 20
-180.2696516707135
 30
0.0
 11
-348.7979785816088
 21
-224.2696483715159
 31
0.0
  0
LINE
  5
B5
330
1F
100
AcDbEntity
  8
0-2
  6
Continuous
 62
     7
370
    13
100
AcDbLine
 10
-437.0081721125422
 20
-180.2696516707135
 30
0.0
 11
-360.7979439400336
 21
-224.2696483715159
 31
0.0
  0
LINE
  5
B6
330
1F
100
AcDbEntity
  8
0-2
  6
Continuous
 62
     7
370
    13
100
AcDbLine
 10
-449.0081374709669
 20
-180.2696516707135
 30
0.0
 11
-372.7979092984586
 21
-224.2696483715159
 31
0.0
  0
LINE
  5
B7
330
1F
100
AcDbEntity
  8
0-2
  6
Continuous
 62
     7
370
    13
100
AcDbLine
 10
-443.447546056799
 20
-224.2696483715159
 30
0.0
 11
-367.2373178842903
 21
-180.2696516707135
 31
0.0
  0
LINE
  5
B8
330
1F
100
AcDbEntity
  8
0-2
  6
Continuous
 62
     7
370
    13
100
AcDbLine
 10
-431.4475806983739
 20
-224.2696483715159
 30
0.0
 11
-355.2373525258656
 21
-180.2696516707135
 31
0.0
  0
LINE
  5
B9
330
1F
100
AcDbEntity
  8
0-2
  6
Continuous
 62
     7
370
    13
100
AcDbLine
 10
-419.4476153399492
 20
-224.2696483715159
 30
0.0
 11
-343.2373871674409
 21
-180.2696516707135
 31
0.0
  0
LINE
  5
BA
330
1F
100
AcDbEntity
  8
0-2
  6
Continuous
 62
     7
370
    13
100
AcDbLine
 10
-407.4476499815245
 20
-224.2696483715159
 30
0.0
 11
-331.2372980891047
 21
-180.2696516707135
 31
0.0
  0
LINE
  5
BB
330
1F
100
AcDbEntity
  8
0-2
  6
Continuous
 62
     7
370
    13
100
AcDbLine
 10
-395.4475609031883
 20
-224.2696483715159
 30
0.0
 11
-319.2373327306797
 21
-180.2696516707135
 31
0.0
  0
LINE
  5
BC
330
1F
100
AcDbEntity
  8
0-2
  6
Continuous
 62
     7
370
    13
100
AcDbLine
 10
-383.4475955447635
 20
-224.2696483715159
 30
0.0
 11
-307.2373673722549
 21
-180.2696516707135
 31
0.0
  0
LINE
  5
BD
330
1F
100
AcDbEntity
  8
0-2
  6
Continuous
 62
     7
370
    13
100
AcDbLine
 10
-371.4476301863385
 20
-224.2696483715159
 30
0.0
 11
-295.2374020138302
 21
-180.2696516707135
 31
0.0
  0
LINE
  5
BE
330
1F
100
AcDbEntity
  8
0-2
  6
Continuous
 62
     7
370
    13
100
AcDbLine
 10
-359.4475411080023
 20
-224.2696483715159
 30
0.0
 11
-283.237312935494
 21
-180.2696516707135
 31
0.0
  0
LINE
  5
BF
330
1F
100
AcDbEntity
  8
0-2
  6
Continuous
 62
     7
370
    13
100
AcDbLine
 10
-347.4475757495776
 20
-224.2696483715159
 30
0.0
 11
-271.2373475770693
 21
-180.2696516707135
 31
0.0
  0
LINE
  5
C0
330
1F
100
AcDbEntity
  8
0-2
  6
Continuous
 62
     7
370
    13
100
AcDbLine
 10
-335.4476103911529
 20
-224.2696483715159
 30
0.0
 11
-259.2373822186443
 21
-180.2696516707135
 31
0.0
  0
LINE
  5
C1
330
1F
100
AcDbEntity
  8
0-2
  6
Continuous
 62
     7
370
    13
100
AcDbLine
 10
-323.4476450327278
 20
-224.2696483715159
 30
0.0
 11
-247.2372931403081
 21
-180.2696516707135
 31
0.0
  0
LINE
  5
C2
330
1F
100
AcDbEntity
  8
0-2
  6
Continuous
 62
     7
370
    13
100
AcDbLine
 10
-311.4475559543919
 20
-224.2696483715159
 30
0.0
 11
-235.2373277818833
 21
-180.2696516707135
 31
0.0
  0
LINE
  5
C3
330
1F
100
AcDbEntity
  8
0-2
  6
Continuous
 62
     7
370
    13
100
AcDbLine
 10
-299.4475905959669
 20
-224.2696483715159
 30
0.0
 11
-223.2373624234586
 21
-180.2696516707135
 31
0.0
  0
LINE
  5
C4
330
1F
100
AcDbEntity
  8
0-2
  6
Continuous
 62
     7
370
    13
100
AcDbLine
 10
-287.4476252375422
 20
-224.2696483715159
 30
0.0
 11
-211.2373970650336
 21
-180.2696516707135
 31
0.0
  0
LINE
  5
C5
330
1F
100
AcDbEntity
  8
0-2
  6
Continuous
 62
     7
370
    13
100
AcDbLine
 10
-275.447536159206
 20
-224.2696483715159
 30
0.0
 11
-199.2373079866977
 21
-180.2696516707135
 31
0.0
  0
LINE
  5
C6
330
1F
100
AcDbEntity
  8
0-2
  6
Continuous
 62
     7
370
    13
100
AcDbLine
 10
-263.4475708007812
 20
-224.2696483715159
 30
0.0
 11
-187.2373426282726
 21
-180.2696516707135
 31
0.0
  0
LINE
  5
C7
330
1F
100
AcDbEntity
  8
0-2
  6
Continuous
 62
     7
370
    13
100
AcDbLine
 10
-251.4476054423562
 20
-224.2696483715159
 30
0.0
 11
-175.2373772698479
 21
-180.2696516707135
 31
0.0
  0
LINE
  5
C8
330
1F
100
AcDbEntity
  8
0-2
  6
Continuous
 62
     7
370
    13
100
AcDbLine
 10
-239.4476400839315
 20
-224.2696483715159
 30
0.0
 11
-163.2374119114229
 21
-180.2696516707135
 31
0.0
  0
LINE
  5
C9
330
1F
100
AcDbEntity
  8
0-2
  6
Continuous
 62
     7
370
    13
100
AcDbLine
 10
-227.4475510055953
 20
-224.2696483715159
 30
0.0
 11
-151.237322833087
 21
-180.2696516707135
 31
0.0
  0
LINE
  5
CA
330
1F
100
AcDbEntity
  8
0-2
  6
Continuous
 62
     7
370
    13
100
AcDbLine
 10
-215.4475856471706
 20
-224.2696483715159
 30
0.0
 11
-139.237357474662
 21
-180.2696516707135
 31
0.0
  0
LINE
  5
CB
330
1F
100
AcDbEntity
  8
0-2
  6
Continuous
 62
     7
370
    13
100
AcDbLine
 10
-203.4476202887456
 20
-224.2696483715159
 30
0.0
 11
-127.2373921162372
 21
-180.2696516707135
 31
0.0
  0
LINE
  5
CC
330
1F
100
AcDbEntity
  8
0-2
  6
Continuous
 62
     7
370
    13
100
AcDbLine
 10
-191.4475312104096
 20
-224.2696483715159
 30
0.0
 11
-115.237303037901
 21
-180.2696516707135
 31
0.0
  0
LINE
  5
CD
330
1F
100
AcDbEntity
  8
0-2
  6
Continuous
 62
     7
370
    13
100
AcDbLine
 10
-179.4475658519846
 20
-224.2696483715159
 30
0.0
 11
-103.2373376794763
 21
-180.2696516707135
 31
0.0
  0
LINE
  5
CE
330
1F
100
AcDbEntity
  8
0-2
  6
Continuous
 62
     7
370
    13
100
AcDbLine
 10
-167.4476004935599
 20
-224.2696483715159
 30
0.0
 11
-91.23737232105128
 21
-180.2696516707135
 31
0.0
  0
LINE
  5
CF
330
1F
100
AcDbEntity
  8
0-2
  6
Continuous
 62
     7
370
    13
100
AcDbLine
 10
-155.4476351351352
 20
-224.2696483715159
 30
0.0
 11
-79.23740696262655
 21
-180.2696516707135
 31
0.0
  0
LINE
  5
D0
330
1F
100
AcDbEntity
  8
0-2
  6
Continuous
 62
     7
370
    13
100
AcDbLine
 10
-143.447546056799
 20
-224.2696483715159
 30
0.0
 11
-67.23731788429035
 21
-180.2696516707135
 31
0.0
  0
LINE
  5
D1
330
1F
100
AcDbEntity
  8
0-2
  6
Continuous
 62
     7
370
    13
100
AcDbLine
 10
-55.63622551995337
 20
-224.2696483715159
 30
0.0
 11
-55.63622551995337
 21
-180.2696516707135
 31
0.0
  0
LINE
  5
D2
330
1F
100
AcDbEntity
  8
0-2
  6
Continuous
 62
     7
370
    13
100
AcDbLine
 10
-455.6361842799831
 20
-180.2696516707135
 30
0.0
 11
-455.6361842799831
 21
-224.2696483715159
 31
0.0
  0
LINE
  5
D3
330
1F
100
AcDbEntity
  8
0-2
  6
Continuous
 62
     7
370
    13
100
AcDbLine
 10
-455.6361842799831
 20
-182.8093740102406
 30
0.0
 11
-451.237322833087
 21
-180.2696516707135
 31
0.0
  0
LINE
  5
D4
330
1F
100
AcDbEntity
  8
0-2
  6
Continuous
 62
     7
370
    13
100
AcDbLine
 10
-455.6361842799831
 20
-183.3711861275336
 30
0.0
 11
-384.7979983767948
 21
-224.2696483715159
 31
0.0
  0
LINE
  5
D5
330
1F
100
AcDbEntity
  8
0-2
  6
Continuous
 62
     7
370
    13
100
AcDbLine
 10
-455.6361842799831
 20
-189.737565324113
 30
0.0
 11
-439.237357474662
 21
-180.2696516707135
 31
0.0
  0
LINE
  5
D6
330
1F
100
AcDbEntity
  8
0-2
  6
Continuous
 62
     7
370
    13
100
AcDbLine
 10
-455.6361842799831
 20
-190.2993774414062
 30
0.0
 11
-396.7979637352195
 21
-224.2696483715159
 31
0.0
  0
LINE
  5
D7
330
1F
100
AcDbEntity
  8
0-2
  6
Continuous
 62
     7
370
    13
100
AcDbLine
 10
-455.6361842799831
 20
-196.6657566379857
 30
0.0
 11
-427.2373921162372
 21
-180.2696516707135
 31
0.0
  0
LINE
  5
D8
330
1F
100
AcDbEntity
  8
0-2
  6
Continuous
 62
     7
370
    13
100
AcDbLine
 10
-455.6361842799831
 20
-197.2275687552786
 30
0.0
 11
-408.7979290936443
 21
-224.2696483715159
 31
0.0
  0
LINE
  5
D9
330
1F
100
AcDbEntity
  8
0-2
  6
Continuous
 62
     7
370
    13
100
AcDbLine
 10
-455.6361842799831
 20
-203.5939479518581
 30
0.0
 11
-415.237303037901
 21
-180.2696516707135
 31
0.0
  0
LINE
  5
DA
330
1F
100
AcDbEntity
  8
0-2
  6
Continuous
 62
     7
370
    13
100
AcDbLine
 10
-455.6361842799831
 20
-210.5221392657305
 30
0.0
 11
-403.2373376794763
 21
-180.2696516707135
 31
0.0
  0
LINE
  5
DB
330
1F
100
AcDbEntity
  8
0-2
  6
Continuous
 62
     7
370
    13
100
AcDbLine
 10
-455.6361842799831
 20
-211.0839513830237
 30
0.0
 11
-432.7979835304052
 21
-224.2696483715159
 31
0.0
  0
LINE
  5
DC
330
1F
100
AcDbEntity
  8
0-2
  6
Continuous
 62
     7
370
    13
100
AcDbLine
 10
-455.6361842799831
 20
-218.0121426968961
 30
0.0
 11
-444.7979488888302
 21
-224.2696483715159
 31
0.0
  0
LINE
  5
DD
330
1F
100
AcDbEntity
  8
0-2
  6
Continuous
 62
     7
370
    13
100
AcDbLine
 10
-455.6361842799831
 20
-217.4503305796028
 30
0.0
 11
-391.2373723210516
 21
-180.2696516707135
 31
0.0
  0
LINE
  5
DE
330
1F
100
AcDbEntity
  8
0-2
  6
Continuous
 62
     7
370
    13
100
AcDbLine
 10
-455.6361842799831
 20
-204.155760069151
 30
0.0
 11
-420.7978944520693
 21
-224.2696483715159
 31
0.0
  0
LINE
  5
DF
330
1F
100
AcDbEntity
  8
0-2
  6
Continuous
 62
     7
370
    13
100
AcDbLine
 10
-455.6361842799831
 20
-224.3785218934755
 30
0.0
 11
-379.2374069626266
 21
-180.2696516707135
 31
0.0
  0
LINE
  5
E0
330
1F
100
AcDbEntity
  8
0-2
  6
Continuous
 62
     7
370
    13
100
AcDbLine
 10
-131.4475806983739
 20
-224.2696483715159
 30
0.0
 11
-55.63622551995337
 21
-180.500018145587
 31
0.0
  0
LINE
  5
E1
330
1F
100
AcDbEntity
  8
0-2
  6
Continuous
 62
     7
370
    13
100
AcDbLine
 10
-65.00813252217057
 20
-180.2696516707135
 30
0.0
 11
-55.63622551995337
 21
-185.6805419921875
 31
0.0
  0
LINE
  5
E2
330
1F
100
AcDbEntity
  8
0-2
  6
Continuous
 62
     7
370
    13
100
AcDbLine
 10
-119.4476153399492
 20
-224.2696483715159
 30
0.0
 11
-55.63622551995337
 21
-187.4280857395482
 31
0.0
  0
LINE
  5
E3
330
1F
100
AcDbEntity
  8
0-2
  6
Continuous
 62
     7
370
    13
100
AcDbLine
 10
-77.00822160050677
 20
-180.2696516707135
 30
0.0
 11
-55.63622551995337
 21
-192.6088570259711
 31
0.0
  0
LINE
  5
E4
330
1F
100
AcDbEntity
  8
0-2
  6
Continuous
 62
     7
370
    13
100
AcDbLine
 10
-107.4476499815245
 20
-224.2696483715159
 30
0.0
 11
-55.63622551995337
 21
-194.3562770534206
 31
0.0
  0
LINE
  5
E5
330
1F
100
AcDbEntity
  8
0-2
  6
Continuous
 62
     7
370
    13
100
AcDbLine
 10
-89.0081869589315
 20
-180.2696516707135
 30
0.0
 11
-55.63622551995337
 21
-199.5369246199323
 31
0.0
  0
LINE
  5
E6
330
1F
100
AcDbEntity
  8
0-2
  6
Continuous
 62
     7
370
    13
100
AcDbLine
 10
-83.44759554476326
 20
-224.2696483715159
 30
0.0
 11
-55.63622551995337
 21
-208.2127834010768
 31
0.0
  0
LINE
  5
E7
330
1F
100
AcDbEntity
  8
0-2
  6
Continuous
 62
     7
370
    13
100
AcDbLine
 10
-125.0082067541172
 20
-180.2696516707135
 30
0.0
 11
-55.63622551995337
 21
-220.3216222814612
 31
0.0
  0
LINE
  5
E8
330
1F
100
AcDbEntity
  8
0-2
  6
Continuous
 62
     7
370
    13
100
AcDbLine
 10
-59.44754110800233
 20
-224.2696483715159
 30
0.0
 11
-55.63622551995337
 21
-222.0691660288216
 31
0.0
  0
LINE
  5
E9
330
1F
100
AcDbEntity
  8
0-2
  6
Continuous
 62
     7
370
    13
100
AcDbLine
 10
-71.44763018633853
 20
-224.2696483715159
 30
0.0
 11
-55.63622551995337
 21
-215.1409747149492
 31
0.0
  0
LINE
  5
EA
330
1F
100
AcDbEntity
  8
0-2
  6
Continuous
 62
     7
370
    13
100
AcDbLine
 10
-113.0082413956924
 20
-180.2696516707135
 30
0.0
 11
-55.63622551995337
 21
-213.3934309675885
 31
0.0
  0
LINE
  5
EB
330
1F
100
AcDbEntity
  8
0-2
  6
Continuous
 62
     7
370
    13
100
AcDbLine
 10
-101.0081523173562
 20
-180.2696516707135
 30
0.0
 11
-55.63622551995337
 21
-206.465115933805
 31
0.0
  0
LINE
  5
EC
330
1F
100
AcDbEntity
  8
0-2
  6
Continuous
 62
     7
370
    13
100
AcDbLine
 10
-95.44756090318828
 20
-224.2696483715159
 30
0.0
 11
-55.63622551995337
 21
-201.284468367293
 31
0.0
  0
TEXT
  5
ED
330
1F
100
AcDbEntity
  8
0-4
  6
Continuous
 62
     2
370
    13
100
AcDbText
 10
490.8346423669766
 20
43.23031038851369
 30
0.0
 40
30.48
  1
300
 50
90.0
 41
1.083333333333333
  7
ＭＳ ゴシック
100
AcDbText
  0
TEXT
  5
EE
330
1F
100
AcDbEntity
  8
F-4
  6
Continuous
 62
     6
370
    13
100
AcDbText
 10
-55.59597860800245
 20
-1130.177190634238
 30
0.0
 40
30.48
  1
足掛金物　　　　　　ＦＱ　３００×３００
 41
0.7974999999999999
  7
ＭＳ ゴシック
100
AcDbText
  0
ENDSEC
  0
SECTION
  2
OBJECTS
  0
DICTIONARY
  5
C
330
0
100
AcDbDictionary
281
     1
  3
ACAD_GROUP
350
D
  3
ACAD_LAYOUT
350
1A
  3
ACAD_MLEADERSTYLE
350
F0
  3
ACAD_MLINESTYLE
350
17
  3
ACAD_PLOTSETTINGS
350
19
  3
ACAD_PLOTSTYLENAME
350
E
  3
ACAD_TABLESTYLE
350
EF
  3
ACAD_VISUALSTYLE
350
2A
  0
DICTIONARY
  5
D
102
{ACAD_REACTORS
330
C
102
}
330
C
100
AcDbDictionary
281
     1
  0
DICTIONARY
  5
1A
102
{ACAD_REACTORS
330
C
102
}
330
C
100
AcDbDictionary
281
     1
  3
Layout1
350
1E
  3
Layout2
350
26
  3
Model
350
22
  0
DICTIONARY
  5
F0
102
{ACAD_REACTORS
330
C
102
}
330
C
100
AcDbDictionary
281
     1
  0
DICTIONARY
  5
17
102
{ACAD_REACTORS
330
C
102
}
330
C
100
AcDbDictionary
281
     1
  3
Standard
350
18
  0
DICTIONARY
  5
19
102
{ACAD_REACTORS
330
C
102
}
330
C
100
AcDbDictionary
281
     1
  0
ACDBDICTIONARYWDFLT
  5
E
102
{ACAD_REACTORS
330
C
102
}
330
C
100
AcDbDictionary
281
     1
  3
Normal
350
F
100
AcDbDictionaryWithDefault
340
F
  0
DICTIONARY
  5
EF
102
{ACAD_REACTORS
330
C
102
}
330
C
100
AcDbDictionary
281
     1
  0
DICTIONARY
  5
2A
102
{ACAD_REACTORS
330
C
102
}
330
C
100
AcDbDictionary
281
     1
  3
2dWireframe
350
2F
  3
3D Hidden
350
31
  3
3dWireframe
350
30
  3
Basic
350
32
  3
Brighten
350
36
  3
ColorChange
350
3A
  3
Conceptual
350
34
  3
Dim
350
35
  3
Facepattern
350
39
  3
Flat
350
2B
  3
FlatWithEdges
350
2C
  3
Gouraud
350
2D
  3
GouraudWithEdges
350
2E
  3
Linepattern
350
38
  3
Realistic
350
33
  3
Thicken
350
37
  0
LAYOUT
  5
1E
102
{ACAD_REACTORS
330
1A
102
}
330
1A
100
AcDbPlotSettings
  1

  2
none_device
  4

  6

 40
0.0
 41
0.0
 42
0.0
 43
0.0
 44
0.0
 45
0.0
 46
0.0
 47
0.0
 48
0.0
 49
0.0
140
0.0
141
0.0
142
1.0
143
1.0
 70
   688
 72
     0
 73
     0
 74
     5
  7

 75
    16
 76
     0
 77
     5
 78
   300
147
1.0
148
0.0
149
0.0
100
AcDbLayout
  1
Layout1
 70
     1
 71
     1
 10
0.0
 20
0.0
 11
420.0
 21
297.0
 12
0.0
 22
0.0
 32
0.0
 14
1.000000000000000E+20
 24
1.000000000000000E+20
 34
1.000000000000000E+20
 15
-1.000000000000000E+20
 25
-1.000000000000000E+20
 35
-1.000000000000000E+20
146
0.0
 13
0.0
 23
0.0
 33
0.0
 16
1.0
 26
0.0
 36
0.0
 17
0.0
 27
1.0
 37
0.0
 76
     0
330
1B
  0
LAYOUT
  5
26
102
{ACAD_REACTORS
330
1A
102
}
330
1A
100
AcDbPlotSettings
  1

  2
none_device
  4

  6

 40
0.0
 41
0.0
 42
0.0
 43
0.0
 44
0.0
 45
0.0
 46
0.0
 47
0.0
 48
0.0
 49
0.0
140
0.0
141
0.0
142
1.0
143
1.0
 70
   688
 72
     0
 73
     0
 74
     5
  7

 75
    16
 76
     0
 77
     5
 78
   300
147
1.0
148
0.0
149
0.0
100
AcDbLayout
  1
Layout2
 70
     1
 71
     2
 10
0.0
 20
0.0
 11
0.0
 21
0.0
 12
0.0
 22
0.0
 32
0.0
 14
0.0
 24
0.0
 34
0.0
 15
0.0
 25
0.0
 35
0.0
146
0.0
 13
0.0
 23
0.0
 33
0.0
 16
1.0
 26
0.0
 36
0.0
 17
0.0
 27
1.0
 37
0.0
 76
     0
330
23
  0
LAYOUT
  5
22
102
{ACAD_REACTORS
330
1A
102
}
330
1A
100
AcDbPlotSettings
  1

  2
none_device
  4

  6

 40
0.0
 41
0.0
 42
0.0
 43
0.0
 44
0.0
 45
0.0
 46
0.0
 47
0.0
 48
0.0
 49
0.0
140
0.0
141
0.0
142
1.0
143
1.0
 70
  1712
 72
     0
 73
     0
 74
     0
  7

 75
     0
 76
     0
 77
     5
 78
   300
147
1.0
148
0.0
149
0.0
100
AcDbLayout
  1
Model
 70
     1
 71
     0
 10
-2100.0
 20
-1485.0
 11
2100.0
 21
1485.0
 12
0.0
 22
0.0
 32
0.0
 14
-2100.0
 24
-1485.0
 34
0.0
 15
2100.0
 25
1485.0
 35
0.0
146
0.0
 13
0.0
 23
0.0
 33
0.0
 16
1.0
 26
0.0
 36
0.0
 17
0.0
 27
1.0
 37
0.0
 76
     0
330
1F
331
29
  0
MLINESTYLE
  5
18
102
{ACAD_REACTORS
330
17
102
}
330
17
100
AcDbMlineStyle
  2
Standard
 70
     0
  3

 62
   256
 51
90.0
 52
90.0
 71
     2
 49
0.5
 62
   256
  6
BYLAYER
 49
-0.5
 62
   256
  6
BYLAYER
  0
ACDBPLACEHOLDER
  5
F
102
{ACAD_REACTORS
330
E
102
}
330
E
  0
VISUALSTYLE
  5
2F
102
{ACAD_REACTORS
330
2A
102
}
330
2A
100
AcDbVisualStyle
  2
2dWireframe
 70
     4
 71
     0
 72
     2
 73
     0
 90
        0
 40
-0.6
 41
-30.0
 62
     5
 63
     7
421
 16777215
 74
     1
 91
        4
 64
     7
 65
   257
 75
     1
175
     1
 42
1.0
 92
        0
 66
   257
 43
1.0
 76
     1
 77
     6
 78
     2
 67
     7
 79
     5
170
     0
171
     0
290
     0
174
     0
 93
        1
 44
0.0
173
     0
291
     0
 45
0.0
1001
ACAD
1000
AcDbSavedByObjectVersion
1070
     0
  0
VISUALSTYLE
  5
31
102
{ACAD_REACTORS
330
2A
102
}
330
2A
100
AcDbVisualStyle
  2
3D Hidden
 70
     6
 71
     1
 72
     2
 73
     2
 90
        0
 40
-0.6
 41
-30.0
 62
     5
 63
     7
421
 16777215
 74
     2
 91
        2
 64
     7
 65
   257
 75
     2
175
     1
 42
40.0
 92
        0
 66
   257
 43
1.0
 76
     1
 77
     6
 78
     2
 67
     7
 79
     3
170
     0
171
     0
290
     0
174
     0
 93
        1
 44
0.0
173
     0
291
     0
 45
0.0
1001
ACAD
1000
AcDbSavedByObjectVersion
1070
     0
  0
VISUALSTYLE
  5
30
102
{ACAD_REACTORS
330
2A
102
}
330
2A
100
AcDbVisualStyle
  2
3dWireframe
 70
     5
 71
     0
 72
     2
 73
     0
 90
        0
 40
-0.6
 41
-30.0
 62
     5
 63
     7
421
 16777215
 74
     1
 91
        4
 64
     7
 65
   257
 75
     1
175
     1
 42
1.0
 92
        0
 66
   257
 43
1.0
 76
     1
 77
     6
 78
     2
 67
     7
 79
     5
170
     0
171
     0
290
     0
174
     0
 93
        1
 44
0.0
173
     0
291
     0
 45
0.0
1001
ACAD
1000
AcDbSavedByObjectVersion
1070
     0
  0
VISUALSTYLE
  5
32
102
{ACAD_REACTORS
330
2A
102
}
330
2A
100
AcDbVisualStyle
  2
Basic
 70
     7
 71
     1
 72
     0
 73
     1
 90
        0
 40
-0.6
 41
-30.0
 62
     5
 63
     7
421
 16777215
 74
     0
 91
        4
 64
     7
 65
   257
 75
     1
175
     1
 42
1.0
 92
        8
 66
     7
 43
1.0
 76
     1
 77
     6
 78
     2
 67
     7
 79
     5
170
     0
171
     0
290
     0
174
     0
 93
        1
 44
0.0
173
     0
291
     1
 45
0.0
1001
ACAD
1000
AcDbSavedByObjectVersion
1070
     0
  0
VISUALSTYLE
  5
36
102
{ACAD_REACTORS
330
2A
102
}
330
2A
100
AcDbVisualStyle
  2
Brighten
 70
    12
 71
     2
 72
     2
 73
     0
 90
        0
 40
-0.6
 41
-30.0
 62
     5
 63
     7
421
 16777215
 74
     1
 91
        4
 64
     7
 65
   257
 75
     1
175
     1
 42
1.0
 92
        8
 66
     7
 43
1.0
 76
     1
 77
     6
 78
     2
 67
     7
 79
     5
170
     0
171
     0
290
     0
174
     0
 93
        1
 44
50.0
173
     0
291
     1
 45
0.0
1001
ACAD
1000
AcDbSavedByObjectVersion
1070
     0
  0
VISUALSTYLE
  5
3A
102
{ACAD_REACTORS
330
2A
102
}
330
2A
100
AcDbVisualStyle
  2
ColorChange
 70
    16
 71
     2
 72
     2
 73
     3
 90
        0
 40
-0.6
 41
-30.0
 62
     5
 63
     8
421
  8421504
 74
     1
 91
        4
 64
     7
 65
   257
 75
     1
175
     1
 42
1.0
 92
        8
 66
     8
424
  8421504
 43
1.0
 76
     1
 77
     6
 78
     2
 67
     7
 79
     5
170
     0
171
     0
290
     0
174
     0
 93
        1
 44
0.0
173
     0
291
     1
 45
0.0
1001
ACAD
1000
AcDbSavedByObjectVersion
1070
     0
  0
VISUALSTYLE
  5
34
102
{ACAD_REACTORS
330
2A
102
}
330
2A
100
AcDbVisualStyle
  2
Conceptual
 70
     9
 71
     3
 72
     2
 73
     0
 90
        0
 40
-0.6
 41
-30.0
 62
     5
 63
     7
421
 16777215
 74
     2
 91
        2
 64
     7
 65
   257
 75
     1
175
     1
 42
40.0
 92
        8
 66
     7
 43
1.0
 76
     1
 77
     6
 78
     2
 67
     7
 79
     3
170
     0
171
     0
290
     0
174
     0
 93
        1
 44
0.0
173
     0
291
     0
 45
0.0
1001
ACAD
1000
AcDbSavedByObjectVersion
1070
     0
  0
VISUALSTYLE
  5
35
102
{ACAD_REACTORS
330
2A
102
}
330
2A
100
AcDbVisualStyle
  2
Dim
 70
    11
 71
     2
 72
     2
 73
     0
 90
        0
 40
-0.6
 41
-30.0
 62
     5
 63
     7
421
 16777215
 74
     1
 91
        4
 64
     7
 65
   257
 75
     1
175
     1
 42
1.0
 92
        8
 66
     7
 43
1.0
 76
     1
 77
     6
 78
     2
 67
     7
 79
     5
170
     0
171
     0
290
     0
174
     0
 93
        1
 44
-50.0
173
     0
291
     1
 45
0.0
1001
ACAD
1000
AcDbSavedByObjectVersion
1070
     0
  0
VISUALSTYLE
  5
39
102
{ACAD_REACTORS
330
2A
102
}
330
2A
100
AcDbVisualStyle
  2
Facepattern
 70
    15
 71
     2
 72
     2
 73
     0
 90
        0
 40
-0.6
 41
-30.0
 62
     5
 63
     7
421
 16777215
 74
     1
 91
        4
 64
     7
 65
   257
 75
     1
175
     1
 42
1.0
 92
        8
 66
     7
 43
1.0
 76
     1
 77
     6
 78
     2
 67
     7
 79
     5
170
     0
171
     0
290
     0
174
     0
 93
        1
 44
0.0
173
     0
291
     1
 45
0.0
1001
ACAD
1000
AcDbSavedByObjectVersion
1070
     0
  0
VISUALSTYLE
  5
2B
102
{ACAD_REACTORS
330
2A
102
}
330
2A
100
AcDbVisualStyle
  2
Flat
 70
     0
 71
     2
 72
     1
 73
     1
 90
        2
 40
-0.6
 41
30.0
 62
     5
 63
     7
421
 16777215
 74
     0
 91
        4
 64
     7
 65
   257
 75
     1
175
     1
 42
1.0
 92
        8
 66
     7
 43
1.0
 76
     1
 77
     6
 78
     2
 67
     7
 79
     5
170
     0
171
     0
290
     0
174
     0
 93
       13
 44
0.0
173
     0
291
     1
 45
0.0
1001
ACAD
1000
AcDbSavedByObjectVersion
1070
     0
  0
VISUALSTYLE
  5
2C
102
{ACAD_REACTORS
330
2A
102
}
330
2A
100
AcDbVisualStyle
  2
FlatWithEdges
 70
     1
 71
     2
 72
     1
 73
     1
 90
        2
 40
-0.6
 41
30.0
 62
     5
 63
     7
421
 16777215
 74
     1
 91
        4
 64
     7
 65
   257
 75
     1
175
     1
 42
1.0
 92
        0
 66
   257
 43
1.0
 76
     1
 77
     6
 78
     2
 67
     7
 79
     5
170
     0
171
     0
290
     0
174
     0
 93
       13
 44
0.0
173
     0
291
     1
 45
0.0
1001
ACAD
1000
AcDbSavedByObjectVersion
1070
     0
  0
VISUALSTYLE
  5
2D
102
{ACAD_REACTORS
330
2A
102
}
330
2A
100
AcDbVisualStyle
  2
Gouraud
 70
     2
 71
     2
 72
     2
 73
     1
 90
        2
 40
-0.6
 41
30.0
 62
     5
 63
     7
421
 16777215
 74
     0
 91
        4
 64
     7
 65
   257
 75
     1
175
     1
 42
1.0
 92
        0
 66
     7
 43
1.0
 76
     1
 77
     6
 78
     2
 67
     7
 79
     5
170
     0
171
     0
290
     0
174
     0
 93
       13
 44
0.0
173
     0
291
     1
 45
0.0
1001
ACAD
1000
AcDbSavedByObjectVersion
1070
     0
  0
VISUALSTYLE
  5
2E
102
{ACAD_REACTORS
330
2A
102
}
330
2A
100
AcDbVisualStyle
  2
GouraudWithEdges
 70
     3
 71
     2
 72
     2
 73
     1
 90
        2
 40
-0.6
 41
30.0
 62
     5
 63
     7
421
 16777215
 74
     1
 91
        4
 64
     7
 65
   257
 75
     1
175
     1
 42
1.0
 92
        0
 66
   257
 43
1.0
 76
     1
 77
     6
 78
     2
 67
     7
 79
     5
170
     0
171
     0
290
     0
174
     0
 93
       13
 44
0.0
173
     0
291
     1
 45
0.0
1001
ACAD
1000
AcDbSavedByObjectVersion
1070
     0
  0
VISUALSTYLE
  5
38
102
{ACAD_REACTORS
330
2A
102
}
330
2A
100
AcDbVisualStyle
  2
Linepattern
 70
    14
 71
     2
 72
     2
 73
     0
 90
        0
 40
-0.6
 41
-30.0
 62
     5
 63
     7
421
 16777215
 74
     1
 91
        4
 64
     7
 65
   257
 75
     7
175
     7
 42
1.0
 92
        8
 66
     7
 43
1.0
 76
     1
 77
     6
 78
     2
 67
     7
 79
     5
170
     0
171
     0
290
     0
174
     0
 93
        1
 44
0.0
173
     0
291
     1
 45
0.0
1001
ACAD
1000
AcDbSavedByObjectVersion
1070
     0
  0
VISUALSTYLE
  5
33
102
{ACAD_REACTORS
330
2A
102
}
330
2A
100
AcDbVisualStyle
  2
Realistic
 70
     8
 71
     2
 72
     2
 73
     0
 90
        0
 40
-0.6
 41
-30.0
 62
     5
 63
     7
421
 16777215
 74
     1
 91
        0
 64
     7
 65
   257
 75
     1
175
     1
 42
1.0
 92
        8
 66
     8
424
  7895160
 43
1.0
 76
     1
 77
     6
 78
     2
 67
     7
 79
     5
170
     0
171
     0
290
     0
174
     0
 93
       13
 44
0.0
173
     0
291
     0
 45
0.0
1001
ACAD
1000
AcDbSavedByObjectVersion
1070
     0
  0
VISUALSTYLE
  5
37
102
{ACAD_REACTORS
330
2A
102
}
330
2A
100
AcDbVisualStyle
  2
Thicken
 70
    13
 71
     2
 72
     2
 73
     0
 90
        0
 40
-0.6
 41
-30.0
 62
     5
 63
     7
421
 16777215
 74
     1
 91
        4
 64
     7
 65
   257
 75
     1
175
     1
 42
1.0
 92
       12
 66
     7
 43
1.0
 76
     1
 77
     6
 78
     2
 67
     7
 79
     5
170
     0
171
     0
290
     0
174
     0
 93
        1
 44
0.0
173
     0
291
     1
 45
0.0
1001
ACAD
1000
AcDbSavedByObjectVersion
1070
     0
  0
ENDSEC
  0
EOF
