  0
SECTION
  2
HEADER
  9
$ACADVER
  1
AC1018
  9
$ACADMAINTVER
 70
     0
  9
$DWGCODEPAGE
  3
ANSI_932
  9
$INSBASE
 10
0.0
 20
0.0
 30
0.0
  9
$EXTMIN
 10
-630.0
 20
-445.5
 30
0.0
  9
$EXTMAX
 10
630.0
 20
445.5
 30
0.0
  9
$LIMMIN
 10
-630.0
 20
-445.5
  9
$LIMMAX
 10
630.0
 20
445.5
  9
$ORTHOMODE
 70
     0
  9
$REGENMODE
 70
     1
  9
$FILLMODE
 70
     1
  9
$QTEXTMODE
 70
     0
  9
$MIRRTEXT
 70
     1
  9
$LTSCALE
 40
3.0
  9
$ATTMODE
 70
     1
  9
$TEXTSIZE
 40
2.5
  9
$TRACEWID
 40
1.0
  9
$TEXTSTYLE
  7
Standard
  9
$CLAYER
  8
0
  9
$CELTYPE
  6
ByLayer
  9
$CECOLOR
 62
   256
  9
$CELTSCALE
 40
1.0
  9
$DISPSILH
 70
     0
  9
$DIMSCALE
 40
1.0
  9
$DIMASZ
 40
2.5
  9
$DIMEXO
 40
0.625
  9
$DIMDLI
 40
3.75
  9
$DIMRND
 40
0.0
  9
$DIMDLE
 40
0.0
  9
$DIMEXE
 40
1.25
  9
$DIMTP
 40
0.0
  9
$DIMTM
 40
0.0
  9
$DIMTXT
 40
2.5
  9
$DIMCEN
 40
2.5
  9
$DIMTSZ
 40
0.0
  9
$DIMTOL
 70
     0
  9
$DIMLIM
 70
     0
  9
$DIMTIH
 70
     0
  9
$DIMTOH
 70
     0
  9
$DIMSE1
 70
     0
  9
$DIMSE2
 70
     0
  9
$DIMTAD
 70
     1
  9
$DIMZIN
 70
     8
  9
$DIMBLK
  1

  9
$DIMASO
 70
     1
  9
$DIMSHO
 70
     1
  9
$DIMPOST
  1

  9
$DIMAPOST
  1

  9
$DIMALT
 70
     0
  9
$DIMALTD
 70
     3
  9
$DIMALTF
 40
0.03937007874016
  9
$DIMLFAC
 40
1.0
  9
$DIMTOFL
 70
     1
  9
$DIMTVP
 40
0.0
  9
$DIMTIX
 70
     0
  9
$DIMSOXD
 70
     0
  9
$DIMSAH
 70
     0
  9
$DIMBLK1
  1

  9
$DIMBLK2
  1

  9
$DIMSTYLE
  2
ISO-25
  9
$DIMCLRD
 70
     0
  9
$DIMCLRE
 70
     0
  9
$DIMCLRT
 70
     0
  9
$DIMTFAC
 40
1.0
  9
$DIMGAP
 40
0.625
  9
$DIMJUST
 70
     0
  9
$DIMSD1
 70
     0
  9
$DIMSD2
 70
     0
  9
$DIMTOLJ
 70
     0
  9
$DIMTZIN
 70
     8
  9
$DIMALTZ
 70
     0
  9
$DIMALTTZ
 70
     0
  9
$DIMUPT
 70
     0
  9
$DIMDEC
 70
     2
  9
$DIMTDEC
 70
     2
  9
$DIMALTU
 70
     2
  9
$DIMALTTD
 70
     3
  9
$DIMTXSTY
  7
Standard
  9
$DIMAUNIT
 70
     0
  9
$DIMADEC
 70
     0
  9
$DIMALTRND
 40
0.0
  9
$DIMAZIN
 70
     0
  9
$DIMDSEP
 70
    44
  9
$DIMATFIT
 70
     3
  9
$DIMFRAC
 70
     0
  9
$DIMLDRBLK
  1

  9
$DIMLUNIT
 70
     2
  9
$DIMLWD
 70
    -2
  9
$DIMLWE
 70
    -2
  9
$DIMTMOVE
 70
     0
  9
$LUNITS
 70
     2
  9
$LUPREC
 70
     4
  9
$SKETCHINC
 40
1.0
  9
$FILLETRAD
 40
10.0
  9
$AUNITS
 70
     0
  9
$AUPREC
 70
     0
  9
$MENU
  1
.
  9
$ELEVATION
 40
0.0
  9
$PELEVATION
 40
0.0
  9
$THICKNESS
 40
0.0
  9
$LIMCHECK
 70
     0
  9
$CHAMFERA
 40
10.0
  9
$CHAMFERB
 40
10.0
  9
$CHAMFERC
 40
20.0
  9
$CHAMFERD
 40
0.0
  9
$SKPOLY
 70
     0
  9
$TDCREATE
 40
2456498.823218877
  9
$TDUCREATE
 40
2456498.448218877
  9
$TDUPDATE
 40
2456498.823218889
  9
$TDUUPDATE
 40
2456498.448218889
  9
$TDINDWG
 40
0.0000000116
  9
$TDUSRTIMER
 40
0.0000000116
  9
$USRTIMER
 70
     1
  9
$ANGBASE
 50
0.0
  9
$ANGDIR
 70
     0
  9
$PDMODE
 70
     0
  9
$PDSIZE
 40
0.0
  9
$PLINEWID
 40
0.0
  9
$SPLFRAME
 70
     0
  9
$SPLINETYPE
 70
     6
  9
$SPLINESEGS
 70
     8
  9
$HANDSEED
  5
36C
  9
$SURFTAB1
 70
     6
  9
$SURFTAB2
 70
     6
  9
$SURFTYPE
 70
     6
  9
$SURFU
 70
     6
  9
$SURFV
 70
     6
  9
$UCSBASE
  2

  9
$UCSNAME
  2

  9
$UCSORG
 10
0.0
 20
0.0
 30
0.0
  9
$UCSXDIR
 10
1.0
 20
0.0
 30
0.0
  9
$UCSYDIR
 10
0.0
 20
1.0
 30
0.0
  9
$UCSORTHOREF
  2

  9
$UCSORTHOVIEW
 70
     0
  9
$UCSORGTOP
 10
0.0
 20
0.0
 30
0.0
  9
$UCSORGBOTTOM
 10
0.0
 20
0.0
 30
0.0
  9
$UCSORGLEFT
 10
0.0
 20
0.0
 30
0.0
  9
$UCSORGRIGHT
 10
0.0
 20
0.0
 30
0.0
  9
$UCSORGFRONT
 10
0.0
 20
0.0
 30
0.0
  9
$UCSORGBACK
 10
0.0
 20
0.0
 30
0.0
  9
$PUCSBASE
  2

  9
$PUCSNAME
  2

  9
$PUCSORG
 10
0.0
 20
0.0
 30
0.0
  9
$PUCSXDIR
 10
1.0
 20
0.0
 30
0.0
  9
$PUCSYDIR
 10
0.0
 20
1.0
 30
0.0
  9
$PUCSORTHOREF
  2

  9
$PUCSORTHOVIEW
 70
     0
  9
$PUCSORGTOP
 10
0.0
 20
0.0
 30
0.0
  9
$PUCSORGBOTTOM
 10
0.0
 20
0.0
 30
0.0
  9
$PUCSORGLEFT
 10
0.0
 20
0.0
 30
0.0
  9
$PUCSORGRIGHT
 10
0.0
 20
0.0
 30
0.0
  9
$PUCSORGFRONT
 10
0.0
 20
0.0
 30
0.0
  9
$PUCSORGBACK
 10
0.0
 20
0.0
 30
0.0
  9
$USERI1
 70
     0
  9
$USERI2
 70
     0
  9
$USERI3
 70
     0
  9
$USERI4
 70
     0
  9
$USERI5
 70
     0
  9
$USERR1
 40
0.0
  9
$USERR2
 40
0.0
  9
$USERR3
 40
0.0
  9
$USERR4
 40
0.0
  9
$USERR5
 40
0.0
  9
$WORLDVIEW
 70
     1
  9
$SHADEDGE
 70
     3
  9
$SHADEDIF
 70
    70
  9
$TILEMODE
 70
     1
  9
$MAXACTVP
 70
    64
  9
$PINSBASE
 10
0.0
 20
0.0
 30
0.0
  9
$PLIMCHECK
 70
     0
  9
$PEXTMIN
 10
1.000000000000000E+20
 20
1.000000000000000E+20
 30
1.000000000000000E+20
  9
$PEXTMAX
 10
-1.000000000000000E+20
 20
-1.000000000000000E+20
 30
-1.000000000000000E+20
  9
$PLIMMIN
 10
0.0
 20
0.0
  9
$PLIMMAX
 10
420.0
 20
297.0
  9
$UNITMODE
 70
     0
  9
$VISRETAIN
 70
     1
  9
$PLINEGEN
 70
     0
  9
$PSLTSCALE
 70
     1
  9
$TREEDEPTH
 70
  3020
  9
$CMLSTYLE
  2
Standard
  9
$CMLJUST
 70
     0
  9
$CMLSCALE
 40
20.0
  9
$PROXYGRAPHICS
 70
     1
  9
$MEASUREMENT
 70
     1
  9
$CELWEIGHT
370
    -1
  9
$ENDCAPS
280
     0
  9
$JOINSTYLE
280
     0
  9
$LWDISPLAY
290
     0
  9
$INSUNITS
 70
     4
  9
$HYPERLINKBASE
  1

  9
$STYLESHEET
  1

  9
$XEDIT
290
     1
  9
$CEPSNTYPE
380
     0
  9
$PSTYLEMODE
290
     1
  9
$FINGERPRINTGUID
  2
{24D13B1C-E02F-47A9-8548-737654D54311}
  9
$VERSIONGUID
  2
{FAEB1C32-E019-11D5-929B-00C0DF256EC4}
  9
$EXTNAMES
290
     1
  9
$PSVPSCALE
 40
0.0
  9
$OLESTARTUP
290
     0
  9
$SORTENTS
280
   127
  9
$INDEXCTL
280
     0
  9
$HIDETEXT
280
     1
  9
$XCLIPFRAME
290
     0
  9
$HALOGAP
280
     0
  9
$OBSCOLOR
 70
   257
  9
$OBSLTYPE
280
     0
  9
$INTERSECTIONDISPLAY
280
     0
  9
$INTERSECTIONCOLOR
 70
   257
  9
$DIMASSOC
280
     2
  9
$PROJECTNAME
  1

  0
ENDSEC
  0
SECTION
  2
CLASSES
  0
CLASS
  1
ACDBDICTIONARYWDFLT
  2
AcDbDictionaryWithDefault
  3
ObjectDBX Classes
 90
        0
 91
        4
280
     0
281
     0
  0
CLASS
  1
VISUALSTYLE
  2
AcDbVisualStyle
  3
ObjectDBX Classes
 90
     4095
 91
        4
280
     0
281
     0
  0
ENDSEC
  0
SECTION
  2
TABLES
  0
TABLE
  2
VPORT
  5
8
330
0
100
AcDbSymbolTable
 70
     1
  0
VPORT
  5
29
330
8
100
AcDbSymbolTableRecord
100
AcDbViewportTableRecord
  2
*Active
 70
     0
 10
0.0
 20
0.0
 11
1.0
 21
1.0
 12
0.0
 22
0.0
 13
0.0
 23
0.0
 14
10.0
 24
10.0
 15
10.0
 25
10.0
 16
0.0
 26
0.0
 36
1.0
 17
0.0
 27
0.0
 37
0.0
 40
980.1
 41
1.414141414141414
 42
50.0
 43
0.0
 44
0.0
 50
0.0
 51
0.0
 71
     0
 72
 10000
 73
     1
 74
     3
 75
     0
 76
     0
 77
     0
 78
     0
281
     0
 65
     1
110
0.0
120
0.0
130
0.0
111
1.0
121
0.0
131
0.0
112
0.0
122
1.0
132
0.0
 79
     0
146
0.0
  0
ENDTAB
  0
TABLE
  2
LTYPE
  5
5
330
0
100
AcDbSymbolTable
 70
     2
  0
LTYPE
  5
14
330
5
100
AcDbSymbolTableRecord
100
AcDbLinetypeTableRecord
  2
ByBlock
 70
     0
  3

 72
    65
 73
     0
 40
0.0
  0
LTYPE
  5
15
330
5
100
AcDbSymbolTableRecord
100
AcDbLinetypeTableRecord
  2
ByLayer
 70
     0
  3

 72
    65
 73
     0
 40
0.0
  0
LTYPE
  5
16
330
5
100
AcDbSymbolTableRecord
100
AcDbLinetypeTableRecord
  2
Continuous
 70
     0
  3
Solid line
 72
    65
 73
     0
 40
0.0
  0
LTYPE
  5
3C
330
5
100
AcDbSymbolTableRecord
100
AcDbLinetypeTableRecord
  2
JWW_CENTER1
 70
     0
  3
-----  --  ----------  --  -----
 72
    65
 73
     4
 40
6.773333333333333
 49
4.233333333333333
 74
     0
 49
-0.8466666666666667
 74
     0
 49
0.8466666666666667
 74
     0
 49
-0.8466666666666667
 74
     0
  0
ENDTAB
  0
TABLE
  2
LAYER
  5
2
330
0
100
AcDbSymbolTable
 70
     4
  0
LAYER
  5
10
330
2
100
AcDbSymbolTableRecord
100
AcDbLayerTableRecord
  2
0
 70
     0
 62
     7
  6
Continuous
370
    -3
390
F
  0
LAYER
  5
3D
330
2
100
AcDbSymbolTableRecord
100
AcDbLayerTableRecord
  2
0-0
 70
     0
 62
     7
  6
Continuous
370
    -3
390
F
  0
LAYER
  5
3E
330
2
100
AcDbSymbolTableRecord
100
AcDbLayerTableRecord
  2
0-F
 70
     0
 62
     7
  6
Continuous
370
    -3
390
F
  0
LAYER
  5
3F
330
2
100
AcDbSymbolTableRecord
100
AcDbLayerTableRecord
  2
F-5
 70
     0
 62
     7
  6
Continuous
370
    -3
390
F
  0
ENDTAB
  0
TABLE
  2
STYLE
  5
3
330
0
100
AcDbSymbolTable
 70
     2
  0
STYLE
  5
11
330
3
100
AcDbSymbolTableRecord
100
AcDbTextStyleTableRecord
  2
Standard
 70
     0
 40
0.0
 41
1.0
 50
0.0
 71
     0
 42
2.5
  3
txt
  4

1001
ACAD
1000

1071
        0
  0
STYLE
  5
3B
330
3
100
AcDbSymbolTableRecord
100
AcDbTextStyleTableRecord
  2
ＭＳ ゴシック
 70
     0
 40
1.0
 41
1.0
 50
0.0
 71
     0
 42
10.0
  3

  4

1001
ACAD
1000
MS Gothic
1071
    32817
  0
ENDTAB
  0
TABLE
  2
VIEW
  5
6
330
0
100
AcDbSymbolTable
 70
     0
  0
ENDTAB
  0
TABLE
  2
UCS
  5
7
330
0
100
AcDbSymbolTable
 70
     0
  0
ENDTAB
  0
TABLE
  2
APPID
  5
9
330
0
100
AcDbSymbolTable
 70
     1
  0
APPID
  5
12
330
9
100
AcDbSymbolTableRecord
100
AcDbRegAppTableRecord
  2
ACAD
 70
     0
  0
ENDTAB
  0
TABLE
  2
DIMSTYLE
  5
A
330
0
100
AcDbSymbolTable
 70
     1
100
AcDbDimStyleTable
  0
DIMSTYLE
105
27
330
A
100
AcDbSymbolTableRecord
100
AcDbDimStyleTableRecord
  2
ISO-25
 70
     0
 41
2.5
 42
0.625
 43
3.75
 44
1.25
 73
     0
 74
     0
 77
     1
 78
     8
140
2.5
141
2.5
143
0.03937007874016
147
0.625
171
     3
172
     1
271
     2
272
     2
274
     3
278
    44
283
     0
284
     8
340
11
  0
ENDTAB
  0
TABLE
  2
BLOCK_RECORD
  5
1
330
0
100
AcDbSymbolTable
 70
     1
  0
BLOCK_RECORD
  5
1F
330
1
100
AcDbSymbolTableRecord
100
AcDbBlockTableRecord
  2
*Model_Space
340
22
  0
BLOCK_RECORD
  5
1B
330
1
100
AcDbSymbolTableRecord
100
AcDbBlockTableRecord
  2
*Paper_Space
340
1E
  0
BLOCK_RECORD
  5
23
330
1
100
AcDbSymbolTableRecord
100
AcDbBlockTableRecord
  2
*Paper_Space0
340
26
  0
ENDTAB
  0
ENDSEC
  0
SECTION
  2
BLOCKS
  0
BLOCK
  5
20
330
1F
100
AcDbEntity
  8
0
100
AcDbBlockBegin
  2
*Model_Space
 70
     0
 10
0.0
 20
0.0
 30
0.0
  3
*Model_Space
  1

  0
ENDBLK
  5
21
330
1F
100
AcDbEntity
  8
0
100
AcDbBlockEnd
  0
BLOCK
  5
1C
330
1B
100
AcDbEntity
 67
     1
  8
0
100
AcDbBlockBegin
  2
*Paper_Space
 70
     0
 10
0.0
 20
0.0
 30
0.0
  3
*Paper_Space
  1

  0
ENDBLK
  5
1D
330
1B
100
AcDbEntity
 67
     1
  8
0
100
AcDbBlockEnd
  0
BLOCK
  5
24
330
23
100
AcDbEntity
  8
0
100
AcDbBlockBegin
  2
*Paper_Space0
 70
     0
 10
0.0
 20
0.0
 30
0.0
  3
*Paper_Space0
  1

  0
ENDBLK
  5
25
330
23
100
AcDbEntity
  8
0
100
AcDbBlockEnd
  0
ENDSEC
  0
SECTION
  2
ENTITIES
  0
LINE
  5
40
330
1F
100
AcDbEntity
  8
0-0
  6
Continuous
 62
     3
370
     9
100
AcDbLine
 10
-30.92845298148484
 20
112.479719832137
 30
0.0
 11
-30.92845298148484
 21
136.9797511745145
 31
0.0
  0
LINE
  5
41
330
1F
100
AcDbEntity
  8
0-0
  6
Continuous
 62
     3
370
     9
100
AcDbLine
 10
267.3215536169105
 20
283.2297511745145
 30
0.0
 11
267.3215536169105
 21
83.22973467852638
 31
0.0
  0
LINE
  5
42
330
1F
100
AcDbEntity
  8
0-0
  6
Continuous
 62
     3
370
     9
100
AcDbLine
 10
-56.92845215668547
 20
138.4797190073376
 30
0.0
 11
-32.42845793028133
 21
138.4797190073376
 31
0.0
  0
LINE
  5
43
330
1F
100
AcDbEntity
  8
0-0
  6
Continuous
 62
     3
370
     9
100
AcDbLine
 10
292.3216113528689
 20
278.821561246305
 30
0.0
 11
292.3216113528689
 21
83.22973467852638
 31
0.0
  0
LINE
  5
44
330
1F
100
AcDbEntity
  8
0-0
  6
Continuous
 62
     3
370
     9
100
AcDbLine
 10
279.321593207282
 20
265.0957031250002
 30
0.0
 11
279.321593207282
 21
83.22973467852638
 31
0.0
  0
LINE
  5
45
330
1F
100
AcDbEntity
  8
0-0
  6
Continuous
 62
     3
370
     9
100
AcDbLine
 10
-58.42845710548195
 20
112.479719832137
 30
0.0
 11
-58.42845710548195
 21
136.9797511745145
 31
0.0
  0
LINE
  5
46
330
1F
100
AcDbEntity
  8
0-0
  6
Continuous
 62
     3
370
     9
100
AcDbLine
 10
-56.92845215668547
 20
110.9797519993139
 30
0.0
 11
-32.42845793028133
 21
110.9797519993139
 31
0.0
  0
LINE
  5
47
330
1F
100
AcDbEntity
  8
0-0
  6
Continuous
 62
     3
370
     9
100
AcDbLine
 10
267.3215536169105
 20
283.2297511745145
 30
0.0
 11
292.3216113528689
 21
278.821561246305
 31
0.0
  0
LINE
  5
48
330
1F
100
AcDbEntity
  8
0-0
  6
Continuous
 62
     3
370
     9
100
AcDbLine
 10
267.3215536169105
 20
235.4797544737121
 30
0.0
 11
279.321593207282
 21
233.3638470623945
 31
0.0
  0
LINE
  5
49
330
1F
100
AcDbEntity
  8
0-0
  6
Continuous
 62
     3
370
     9
100
AcDbLine
 10
267.3215536169105
 20
262.9797214817358
 30
0.0
 11
292.3216113528689
 21
267.3879114099452
 31
0.0
  0
LINE
  5
4A
330
1F
100
AcDbEntity
  8
0-0
  6
Continuous
 62
     3
370
     9
100
AcDbLine
 10
267.3215536169105
 20
221.4797577729098
 30
0.0
 11
279.321593207282
 21
223.5956651842274
 31
0.0
  0
LINE
  5
4B
330
1F
100
AcDbEntity
  8
0-0
  6
Continuous
 62
     3
370
     9
100
AcDbLine
 10
267.3215536169105
 20
179.979719832137
 30
0.0
 11
279.321593207282
 21
182.0957014754013
 31
0.0
  0
LINE
  5
4C
330
1F
100
AcDbEntity
  8
0-0
  6
Continuous
 62
     3
370
     9
100
AcDbLine
 10
267.3215536169105
 20
193.9797165329393
 30
0.0
 11
279.321593207282
 21
191.8638091216217
 31
0.0
  0
LINE
  5
4D
330
1F
100
AcDbEntity
  8
0-0
  6
Continuous
 62
     3
370
     9
100
AcDbLine
 10
267.3215536169105
 20
152.4797528241133
 30
0.0
 11
279.321593207282
 21
150.3638454127957
 31
0.0
  0
LINE
  5
4E
330
1F
100
AcDbEntity
  8
0-0
  6
Continuous
 62
     3
370
     9
100
AcDbLine
 10
267.3215536169105
 20
138.4797190073376
 30
0.0
 11
279.321593207282
 21
140.5957006506019
 31
0.0
  0
LINE
  5
4F
330
1F
100
AcDbEntity
  8
0-0
  6
Continuous
 62
     3
370
     9
100
AcDbLine
 10
267.3215536169105
 20
96.97971818253814
 30
0.0
 11
279.321593207282
 21
99.09569982580251
 31
0.0
  0
LINE
  5
50
330
1F
100
AcDbEntity
  8
0-0
  6
Continuous
 62
     3
370
     9
100
AcDbLine
 10
267.3215536169105
 20
110.9797519993139
 30
0.0
 11
279.321593207282
 21
108.8638445879964
 31
0.0
  0
LINE
  5
51
330
1F
100
AcDbEntity
  8
0-0
  6
Continuous
 62
     3
370
     9
100
AcDbLine
 10
267.3215536169105
 20
55.47971735773876
 30
0.0
 11
279.321593207282
 21
57.59569900100306
 31
0.0
  0
LINE
  5
52
330
1F
100
AcDbEntity
  8
0-0
  6
Continuous
 62
     3
370
     9
100
AcDbLine
 10
267.3215536169105
 20
69.4797511745145
 30
0.0
 11
279.321593207282
 21
67.36384376319688
 31
0.0
  0
LINE
  5
53
330
1F
100
AcDbEntity
  8
0-0
  6
Continuous
 62
     3
370
     9
100
AcDbLine
 10
267.3215536169105
 20
27.97975034971518
 30
0.0
 11
279.321593207282
 21
25.86384293839751
 31
0.0
  0
LINE
  5
54
330
1F
100
AcDbEntity
  8
0-0
  6
Continuous
 62
     3
370
     9
100
AcDbLine
 10
267.3215536169105
 20
13.97975364891275
 30
0.0
 11
279.321593207282
 21
16.09569817620368
 31
0.0
  0
LINE
  5
55
330
1F
100
AcDbEntity
  8
0-0
  6
Continuous
 62
     3
370
     9
100
AcDbLine
 10
267.3215536169105
 20
-27.52024717588671
 30
0.0
 11
279.321593207282
 21
-25.40430264859577
 31
0.0
  0
LINE
  5
56
330
1F
100
AcDbEntity
  8
0-0
  6
Continuous
 62
     3
370
     9
100
AcDbLine
 10
267.3215536169105
 20
-13.52025047508437
 30
0.0
 11
279.321593207282
 21
-15.63615788640186
 31
0.0
  0
LINE
  5
57
330
1F
100
AcDbEntity
  8
0-0
  6
Continuous
 62
     3
370
     9
100
AcDbLine
 10
267.3215536169105
 20
-55.02025129988374
 30
0.0
 11
279.321593207282
 21
-57.13615871120132
 31
0.0
  0
LINE
  5
58
330
1F
100
AcDbEntity
  8
0-0
  6
Continuous
 62
     3
370
     9
100
AcDbLine
 10
267.3215536169105
 20
-96.52025212468311
 30
0.0
 11
292.3216113528689
 21
-100.9284049369192
 31
0.0
  0
LINE
  5
59
330
1F
100
AcDbEntity
  8
0-0
  6
Continuous
 62
     3
370
     9
100
AcDbLine
 10
267.3215536169105
 20
-69.02024800068608
 30
0.0
 11
279.321593207282
 21
-66.90430347339515
 31
0.0
  0
LINE
  5
5A
330
1F
100
AcDbEntity
  8
0-0
  6
Continuous
 62
     3
370
     9
100
AcDbLine
 10
267.3215536169105
 20
-116.7702447014884
 30
0.0
 11
292.3216113528689
 21
-112.3620547732791
 31
0.0
  0
LINE
  5
5B
330
1F
100
AcDbEntity
  8
0-0
  6
Continuous
 62
     3
370
     9
100
AcDbLine
 10
279.321593207282
 20
-98.63615953600069
 30
0.0
 11
279.321593207282
 21
83.22973467852638
 31
0.0
  0
LINE
  5
5C
330
1F
100
AcDbEntity
  8
0-0
  6
Continuous
 62
     3
370
     9
100
AcDbLine
 10
292.3216113528689
 20
-112.3620547732791
 30
0.0
 11
292.3216113528689
 21
83.22973467852638
 31
0.0
  0
LINE
  5
5D
330
1F
100
AcDbEntity
  8
0-0
  6
Continuous
 62
     3
370
     9
100
AcDbLine
 10
267.3215536169105
 20
-116.7702447014884
 30
0.0
 11
267.3215536169105
 21
83.22973467852638
 31
0.0
  0
LINE
  5
5E
330
1F
100
AcDbEntity
  8
0-0
  6
Continuous
 62
     3
370
     9
100
AcDbLine
 10
-15.42845133188601
 20
110.9797519993139
 30
0.0
 11
9.071580010491488
 21
110.9797519993139
 31
0.0
  0
LINE
  5
5F
330
1F
100
AcDbEntity
  8
0-0
  6
Continuous
 62
     3
370
     9
100
AcDbLine
 10
-16.92845628068258
 20
112.479719832137
 30
0.0
 11
-16.92845628068258
 21
136.9797511745145
 31
0.0
  0
LINE
  5
60
330
1F
100
AcDbEntity
  8
0-0
  6
Continuous
 62
     3
370
     9
100
AcDbLine
 10
-15.42845133188601
 20
138.4797190073376
 30
0.0
 11
9.071580010491488
 21
138.4797190073376
 31
0.0
  0
LINE
  5
61
330
1F
100
AcDbEntity
  8
0-0
  6
Continuous
 62
     3
370
     9
100
AcDbLine
 10
10.57151072734118
 20
112.479719832137
 30
0.0
 11
10.57151072734118
 21
136.9797511745145
 31
0.0
  0
LINE
  5
62
330
1F
100
AcDbEntity
  8
0-0
  6
Continuous
 62
     3
370
     9
100
AcDbLine
 10
52.07154866811399
 20
112.479719832137
 30
0.0
 11
52.07154866811399
 21
136.9797511745145
 31
0.0
  0
LINE
  5
63
330
1F
100
AcDbEntity
  8
0-0
  6
Continuous
 62
     3
370
     9
100
AcDbLine
 10
26.0715866088868
 20
138.4797190073376
 30
0.0
 11
50.57154371931742
 21
138.4797190073376
 31
0.0
  0
LINE
  5
64
330
1F
100
AcDbEntity
  8
0-0
  6
Continuous
 62
     3
370
     9
100
AcDbLine
 10
24.57150742814343
 20
112.479719832137
 30
0.0
 11
24.57150742814343
 21
136.9797511745145
 31
0.0
  0
LINE
  5
65
330
1F
100
AcDbEntity
  8
0-0
  6
Continuous
 62
     3
370
     9
100
AcDbLine
 10
26.0715866088868
 20
110.9797519993139
 30
0.0
 11
50.57154371931742
 21
110.9797519993139
 31
0.0
  0
LINE
  5
66
330
1F
100
AcDbEntity
  8
0-0
  6
Continuous
 62
     3
370
     9
100
AcDbLine
 10
-72.42845380628438
 20
153.9797206569364
 30
0.0
 11
-72.42845380628438
 21
178.4797148833405
 31
0.0
  0
LINE
  5
67
330
1F
100
AcDbEntity
  8
0-0
  6
Continuous
 62
     3
370
     9
100
AcDbLine
 10
-98.42845298148484
 20
179.979719832137
 30
0.0
 11
-73.9284587550807
 21
179.979719832137
 31
0.0
  0
LINE
  5
68
330
1F
100
AcDbEntity
  8
0-0
  6
Continuous
 62
     3
370
     9
100
AcDbLine
 10
-99.92845793028133
 20
153.9797206569364
 30
0.0
 11
-99.92845793028133
 21
178.4797148833405
 31
0.0
  0
LINE
  5
69
330
1F
100
AcDbEntity
  8
0-0
  6
Continuous
 62
     3
370
     9
100
AcDbLine
 10
-98.42845298148484
 20
152.4797528241133
 30
0.0
 11
-73.9284587550807
 21
152.4797528241133
 31
0.0
  0
LINE
  5
6A
330
1F
100
AcDbEntity
  8
0-0
  6
Continuous
 62
     3
370
     9
100
AcDbLine
 10
26.0715866088868
 20
152.4797528241133
 30
0.0
 11
50.57154371931742
 21
152.4797528241133
 31
0.0
  0
LINE
  5
6B
330
1F
100
AcDbEntity
  8
0-0
  6
Continuous
 62
     3
370
     9
100
AcDbLine
 10
24.57150742814343
 20
153.9797206569364
 30
0.0
 11
24.57150742814343
 21
178.4797148833405
 31
0.0
  0
LINE
  5
6C
330
1F
100
AcDbEntity
  8
0-0
  6
Continuous
 62
     3
370
     9
100
AcDbLine
 10
26.0715866088868
 20
179.979719832137
 30
0.0
 11
50.57154371931742
 21
179.979719832137
 31
0.0
  0
LINE
  5
6D
330
1F
100
AcDbEntity
  8
0-0
  6
Continuous
 62
     3
370
     9
100
AcDbLine
 10
52.07154866811399
 20
153.9797206569364
 30
0.0
 11
52.07154866811399
 21
178.4797148833405
 31
0.0
  0
LINE
  5
6E
330
1F
100
AcDbEntity
  8
0-0
  6
Continuous
 62
     3
370
     9
100
AcDbLine
 10
10.57151072734118
 20
153.9797206569364
 30
0.0
 11
10.57151072734118
 21
178.4797148833405
 31
0.0
  0
LINE
  5
6F
330
1F
100
AcDbEntity
  8
0-0
  6
Continuous
 62
     3
370
     9
100
AcDbLine
 10
-15.42845133188601
 20
179.979719832137
 30
0.0
 11
9.071580010491488
 21
179.979719832137
 31
0.0
  0
LINE
  5
70
330
1F
100
AcDbEntity
  8
0-0
  6
Continuous
 62
     3
370
     9
100
AcDbLine
 10
-16.92845628068258
 20
153.9797206569364
 30
0.0
 11
-16.92845628068258
 21
178.4797148833405
 31
0.0
  0
LINE
  5
71
330
1F
100
AcDbEntity
  8
0-0
  6
Continuous
 62
     3
370
     9
100
AcDbLine
 10
-15.42845133188601
 20
152.4797528241133
 30
0.0
 11
9.071580010491488
 21
152.4797528241133
 31
0.0
  0
LINE
  5
72
330
1F
100
AcDbEntity
  8
0-0
  6
Continuous
 62
     3
370
     9
100
AcDbLine
 10
-56.92845215668547
 20
152.4797528241133
 30
0.0
 11
-32.42845793028133
 21
152.4797528241133
 31
0.0
  0
LINE
  5
73
330
1F
100
AcDbEntity
  8
0-0
  6
Continuous
 62
     3
370
     9
100
AcDbLine
 10
-58.42845710548195
 20
153.9797206569364
 30
0.0
 11
-58.42845710548195
 21
178.4797148833405
 31
0.0
  0
LINE
  5
74
330
1F
100
AcDbEntity
  8
0-0
  6
Continuous
 62
     3
370
     9
100
AcDbLine
 10
-56.92845215668547
 20
179.979719832137
 30
0.0
 11
-32.42845793028133
 21
179.979719832137
 31
0.0
  0
LINE
  5
75
330
1F
100
AcDbEntity
  8
0-0
  6
Continuous
 62
     3
370
     9
100
AcDbLine
 10
-30.92845298148484
 20
153.9797206569364
 30
0.0
 11
-30.92845298148484
 21
178.4797148833405
 31
0.0
  0
LINE
  5
76
330
1F
100
AcDbEntity
  8
0-0
  6
Continuous
 62
     3
370
     9
100
AcDbLine
 10
-30.92845298148484
 20
195.4797214817358
 30
0.0
 11
-30.92845298148484
 21
219.9797528241133
 31
0.0
  0
LINE
  5
77
330
1F
100
AcDbEntity
  8
0-0
  6
Continuous
 62
     3
370
     9
100
AcDbLine
 10
-56.92845215668547
 20
221.4797577729098
 30
0.0
 11
-32.42845793028133
 21
221.4797577729098
 31
0.0
  0
LINE
  5
78
330
1F
100
AcDbEntity
  8
0-0
  6
Continuous
 62
     3
370
     9
100
AcDbLine
 10
-58.42845710548195
 20
195.4797214817358
 30
0.0
 11
-58.42845710548195
 21
219.9797528241133
 31
0.0
  0
LINE
  5
79
330
1F
100
AcDbEntity
  8
0-0
  6
Continuous
 62
     3
370
     9
100
AcDbLine
 10
-56.92845215668547
 20
193.9797165329393
 30
0.0
 11
-32.42845793028133
 21
193.9797165329393
 31
0.0
  0
LINE
  5
7A
330
1F
100
AcDbEntity
  8
0-0
  6
Continuous
 62
     3
370
     9
100
AcDbLine
 10
-15.42845133188601
 20
193.9797165329393
 30
0.0
 11
9.071580010491488
 21
193.9797165329393
 31
0.0
  0
LINE
  5
7B
330
1F
100
AcDbEntity
  8
0-0
  6
Continuous
 62
     3
370
     9
100
AcDbLine
 10
-16.92845628068258
 20
195.4797214817358
 30
0.0
 11
-16.92845628068258
 21
219.9797528241133
 31
0.0
  0
LINE
  5
7C
330
1F
100
AcDbEntity
  8
0-0
  6
Continuous
 62
     3
370
     9
100
AcDbLine
 10
-15.42845133188601
 20
221.4797577729098
 30
0.0
 11
9.071580010491488
 21
221.4797577729098
 31
0.0
  0
LINE
  5
7D
330
1F
100
AcDbEntity
  8
0-0
  6
Continuous
 62
     3
370
     9
100
AcDbLine
 10
10.57151072734118
 20
195.4797214817358
 30
0.0
 11
10.57151072734118
 21
219.9797528241133
 31
0.0
  0
LINE
  5
7E
330
1F
100
AcDbEntity
  8
0-0
  6
Continuous
 62
     3
370
     9
100
AcDbLine
 10
52.07154866811399
 20
195.4797214817358
 30
0.0
 11
52.07154866811399
 21
219.9797528241133
 31
0.0
  0
LINE
  5
7F
330
1F
100
AcDbEntity
  8
0-0
  6
Continuous
 62
     3
370
     9
100
AcDbLine
 10
26.0715866088868
 20
221.4797577729098
 30
0.0
 11
50.57154371931742
 21
221.4797577729098
 31
0.0
  0
LINE
  5
80
330
1F
100
AcDbEntity
  8
0-0
  6
Continuous
 62
     3
370
     9
100
AcDbLine
 10
24.57150742814343
 20
195.4797214817358
 30
0.0
 11
24.57150742814343
 21
219.9797528241133
 31
0.0
  0
LINE
  5
81
330
1F
100
AcDbEntity
  8
0-0
  6
Continuous
 62
     3
370
     9
100
AcDbLine
 10
26.0715866088868
 20
193.9797165329393
 30
0.0
 11
50.57154371931742
 21
193.9797165329393
 31
0.0
  0
LINE
  5
82
330
1F
100
AcDbEntity
  8
0-0
  6
Continuous
 62
     3
370
     9
100
AcDbLine
 10
-98.42845298148484
 20
193.9797165329393
 30
0.0
 11
-73.9284587550807
 21
193.9797165329393
 31
0.0
  0
LINE
  5
83
330
1F
100
AcDbEntity
  8
0-0
  6
Continuous
 62
     3
370
     9
100
AcDbLine
 10
-99.92845793028133
 20
195.4797214817358
 30
0.0
 11
-99.92845793028133
 21
219.9797528241133
 31
0.0
  0
LINE
  5
84
330
1F
100
AcDbEntity
  8
0-0
  6
Continuous
 62
     3
370
     9
100
AcDbLine
 10
-98.42845298148484
 20
221.4797577729098
 30
0.0
 11
-73.9284587550807
 21
221.4797577729098
 31
0.0
  0
LINE
  5
85
330
1F
100
AcDbEntity
  8
0-0
  6
Continuous
 62
     3
370
     9
100
AcDbLine
 10
-72.42845380628438
 20
195.4797214817358
 30
0.0
 11
-72.42845380628438
 21
219.9797528241133
 31
0.0
  0
LINE
  5
86
330
1F
100
AcDbEntity
  8
0-0
  6
Continuous
 62
     3
370
     9
100
AcDbLine
 10
-72.42845380628438
 20
236.9797594225086
 30
0.0
 11
-72.42845380628438
 21
261.4797165329393
 31
0.0
  0
LINE
  5
87
330
1F
100
AcDbEntity
  8
0-0
  6
Continuous
 62
     3
370
     9
100
AcDbLine
 10
-98.42845298148484
 20
262.9797214817358
 30
0.0
 11
-73.9284587550807
 21
262.9797214817358
 31
0.0
  0
LINE
  5
88
330
1F
100
AcDbEntity
  8
0-0
  6
Continuous
 62
     3
370
     9
100
AcDbLine
 10
-99.92845793028133
 20
236.9797594225086
 30
0.0
 11
-99.92845793028133
 21
261.4797165329393
 31
0.0
  0
LINE
  5
89
330
1F
100
AcDbEntity
  8
0-0
  6
Continuous
 62
     3
370
     9
100
AcDbLine
 10
-98.42845298148484
 20
235.4797544737121
 30
0.0
 11
-73.9284587550807
 21
235.4797544737121
 31
0.0
  0
LINE
  5
8A
330
1F
100
AcDbEntity
  8
0-0
  6
Continuous
 62
     3
370
     9
100
AcDbLine
 10
26.0715866088868
 20
235.4797544737121
 30
0.0
 11
50.57154371931742
 21
235.4797544737121
 31
0.0
  0
LINE
  5
8B
330
1F
100
AcDbEntity
  8
0-0
  6
Continuous
 62
     3
370
     9
100
AcDbLine
 10
24.57150742814343
 20
236.9797594225086
 30
0.0
 11
24.57150742814343
 21
261.4797165329393
 31
0.0
  0
LINE
  5
8C
330
1F
100
AcDbEntity
  8
0-0
  6
Continuous
 62
     3
370
     9
100
AcDbLine
 10
26.0715866088868
 20
262.9797214817358
 30
0.0
 11
50.57154371931742
 21
262.9797214817358
 31
0.0
  0
LINE
  5
8D
330
1F
100
AcDbEntity
  8
0-0
  6
Continuous
 62
     3
370
     9
100
AcDbLine
 10
52.07154866811399
 20
236.9797594225086
 30
0.0
 11
52.07154866811399
 21
261.4797165329393
 31
0.0
  0
LINE
  5
8E
330
1F
100
AcDbEntity
  8
0-0
  6
Continuous
 62
     3
370
     9
100
AcDbLine
 10
10.57151072734118
 20
236.9797594225086
 30
0.0
 11
10.57151072734118
 21
261.4797165329393
 31
0.0
  0
LINE
  5
8F
330
1F
100
AcDbEntity
  8
0-0
  6
Continuous
 62
     3
370
     9
100
AcDbLine
 10
-15.42845133188601
 20
262.9797214817358
 30
0.0
 11
9.071580010491488
 21
262.9797214817358
 31
0.0
  0
LINE
  5
90
330
1F
100
AcDbEntity
  8
0-0
  6
Continuous
 62
     3
370
     9
100
AcDbLine
 10
-16.92845628068258
 20
236.9797594225086
 30
0.0
 11
-16.92845628068258
 21
261.4797165329393
 31
0.0
  0
LINE
  5
91
330
1F
100
AcDbEntity
  8
0-0
  6
Continuous
 62
     3
370
     9
100
AcDbLine
 10
-15.42845133188601
 20
235.4797544737121
 30
0.0
 11
9.071580010491488
 21
235.4797544737121
 31
0.0
  0
LINE
  5
92
330
1F
100
AcDbEntity
  8
0-0
  6
Continuous
 62
     3
370
     9
100
AcDbLine
 10
-56.92845215668547
 20
235.4797544737121
 30
0.0
 11
-32.42845793028133
 21
235.4797544737121
 31
0.0
  0
LINE
  5
93
330
1F
100
AcDbEntity
  8
0-0
  6
Continuous
 62
     3
370
     9
100
AcDbLine
 10
-58.42845710548195
 20
236.9797594225086
 30
0.0
 11
-58.42845710548195
 21
261.4797165329393
 31
0.0
  0
LINE
  5
94
330
1F
100
AcDbEntity
  8
0-0
  6
Continuous
 62
     3
370
     9
100
AcDbLine
 10
-56.92845215668547
 20
262.9797214817358
 30
0.0
 11
-32.42845793028133
 21
262.9797214817358
 31
0.0
  0
LINE
  5
95
330
1F
100
AcDbEntity
  8
0-0
  6
Continuous
 62
     3
370
     9
100
AcDbLine
 10
-30.92845298148484
 20
236.9797594225086
 30
0.0
 11
-30.92845298148484
 21
261.4797165329393
 31
0.0
  0
LINE
  5
96
330
1F
100
AcDbEntity
  8
0-0
  6
Continuous
 62
     3
370
     9
100
AcDbLine
 10
-72.42845380628438
 20
53.97974952491563
 30
0.0
 11
-72.42845380628438
 21
29.47975529851149
 31
0.0
  0
LINE
  5
97
330
1F
100
AcDbEntity
  8
0-0
  6
Continuous
 62
     3
370
     9
100
AcDbLine
 10
-98.42845298148484
 20
27.97975034971518
 30
0.0
 11
-73.9284587550807
 21
27.97975034971518
 31
0.0
  0
LINE
  5
98
330
1F
100
AcDbEntity
  8
0-0
  6
Continuous
 62
     3
370
     9
100
AcDbLine
 10
-99.92845793028133
 20
53.97974952491563
 30
0.0
 11
-99.92845793028133
 21
29.47975529851149
 31
0.0
  0
LINE
  5
99
330
1F
100
AcDbEntity
  8
0-0
  6
Continuous
 62
     3
370
     9
100
AcDbLine
 10
-98.42845298148484
 20
55.47971735773876
 30
0.0
 11
-73.9284587550807
 21
55.47971735773876
 31
0.0
  0
LINE
  5
9A
330
1F
100
AcDbEntity
  8
0-0
  6
Continuous
 62
     3
370
     9
100
AcDbLine
 10
-30.92845298148484
 20
-70.52025294948257
 30
0.0
 11
-30.92845298148484
 21
-95.02024717588671
 31
0.0
  0
LINE
  5
9B
330
1F
100
AcDbEntity
  8
0-0
  6
Continuous
 62
     3
370
     9
100
AcDbLine
 10
-56.92845215668547
 20
-96.52025212468311
 30
0.0
 11
-32.42845793028133
 21
-96.52025212468311
 31
0.0
  0
LINE
  5
9C
330
1F
100
AcDbEntity
  8
0-0
  6
Continuous
 62
     3
370
     9
100
AcDbLine
 10
-58.42845710548195
 20
-70.52025294948257
 30
0.0
 11
-58.42845710548195
 21
-95.02024717588671
 31
0.0
  0
LINE
  5
9D
330
1F
100
AcDbEntity
  8
0-0
  6
Continuous
 62
     3
370
     9
100
AcDbLine
 10
-56.92845215668547
 20
-69.02024800068608
 30
0.0
 11
-32.42845793028133
 21
-69.02024800068608
 31
0.0
  0
LINE
  5
9E
330
1F
100
AcDbEntity
  8
0-0
  6
Continuous
 62
     3
370
     9
100
AcDbLine
 10
-15.42845133188601
 20
-69.02024800068608
 30
0.0
 11
9.071580010491488
 21
-69.02024800068608
 31
0.0
  0
LINE
  5
9F
330
1F
100
AcDbEntity
  8
0-0
  6
Continuous
 62
     3
370
     9
100
AcDbLine
 10
-16.92845628068258
 20
-70.52025294948257
 30
0.0
 11
-16.92845628068258
 21
-95.02024717588671
 31
0.0
  0
LINE
  5
A0
330
1F
100
AcDbEntity
  8
0-0
  6
Continuous
 62
     3
370
     9
100
AcDbLine
 10
-15.42845133188601
 20
-96.52025212468311
 30
0.0
 11
9.071580010491488
 21
-96.52025212468311
 31
0.0
  0
LINE
  5
A1
330
1F
100
AcDbEntity
  8
0-0
  6
Continuous
 62
     3
370
     9
100
AcDbLine
 10
10.57151072734118
 20
-70.52025294948257
 30
0.0
 11
10.57151072734118
 21
-95.02024717588671
 31
0.0
  0
LINE
  5
A2
330
1F
100
AcDbEntity
  8
0-0
  6
Continuous
 62
     3
370
     9
100
AcDbLine
 10
52.07154866811399
 20
-70.52025294948257
 30
0.0
 11
52.07154866811399
 21
-95.02024717588671
 31
0.0
  0
LINE
  5
A3
330
1F
100
AcDbEntity
  8
0-0
  6
Continuous
 62
     3
370
     9
100
AcDbLine
 10
26.0715866088868
 20
-96.52025212468311
 30
0.0
 11
50.57154371931742
 21
-96.52025212468311
 31
0.0
  0
LINE
  5
A4
330
1F
100
AcDbEntity
  8
0-0
  6
Continuous
 62
     3
370
     9
100
AcDbLine
 10
24.57150742814343
 20
-70.52025294948257
 30
0.0
 11
24.57150742814343
 21
-95.02024717588671
 31
0.0
  0
LINE
  5
A5
330
1F
100
AcDbEntity
  8
0-0
  6
Continuous
 62
     3
370
     9
100
AcDbLine
 10
26.0715866088868
 20
-69.02024800068608
 30
0.0
 11
50.57154371931742
 21
-69.02024800068608
 31
0.0
  0
LINE
  5
A6
330
1F
100
AcDbEntity
  8
0-0
  6
Continuous
 62
     3
370
     9
100
AcDbLine
 10
-98.42845298148484
 20
-69.02024800068608
 30
0.0
 11
-73.9284587550807
 21
-69.02024800068608
 31
0.0
  0
LINE
  5
A7
330
1F
100
AcDbEntity
  8
0-0
  6
Continuous
 62
     3
370
     9
100
AcDbLine
 10
-99.92845793028133
 20
-70.52025294948257
 30
0.0
 11
-99.92845793028133
 21
-95.02024717588671
 31
0.0
  0
LINE
  5
A8
330
1F
100
AcDbEntity
  8
0-0
  6
Continuous
 62
     3
370
     9
100
AcDbLine
 10
-98.42845298148484
 20
-96.52025212468311
 30
0.0
 11
-73.9284587550807
 21
-96.52025212468311
 31
0.0
  0
LINE
  5
A9
330
1F
100
AcDbEntity
  8
0-0
  6
Continuous
 62
     3
370
     9
100
AcDbLine
 10
-72.42845380628438
 20
-70.52025294948257
 30
0.0
 11
-72.42845380628438
 21
-95.02024717588671
 31
0.0
  0
LINE
  5
AA
330
1F
100
AcDbEntity
  8
0-0
  6
Continuous
 62
     3
370
     9
100
AcDbLine
 10
-72.42845380628438
 20
-29.02025212468311
 30
0.0
 11
-72.42845380628438
 21
-53.52024635108734
 31
0.0
  0
LINE
  5
AB
330
1F
100
AcDbEntity
  8
0-0
  6
Continuous
 62
     3
370
     9
100
AcDbLine
 10
-98.42845298148484
 20
-55.02025129988374
 30
0.0
 11
-73.9284587550807
 21
-55.02025129988374
 31
0.0
  0
LINE
  5
AC
330
1F
100
AcDbEntity
  8
0-0
  6
Continuous
 62
     3
370
     9
100
AcDbLine
 10
-99.92845793028133
 20
-29.02025212468311
 30
0.0
 11
-99.92845793028133
 21
-53.52024635108734
 31
0.0
  0
LINE
  5
AD
330
1F
100
AcDbEntity
  8
0-0
  6
Continuous
 62
     3
370
     9
100
AcDbLine
 10
-98.42845298148484
 20
-27.52024717588671
 30
0.0
 11
-73.9284587550807
 21
-27.52024717588671
 31
0.0
  0
LINE
  5
AE
330
1F
100
AcDbEntity
  8
0-0
  6
Continuous
 62
     3
370
     9
100
AcDbLine
 10
26.0715866088868
 20
-27.52024717588671
 30
0.0
 11
50.57154371931742
 21
-27.52024717588671
 31
0.0
  0
LINE
  5
AF
330
1F
100
AcDbEntity
  8
0-0
  6
Continuous
 62
     3
370
     9
100
AcDbLine
 10
24.57150742814343
 20
-29.02025212468311
 30
0.0
 11
24.57150742814343
 21
-53.52024635108734
 31
0.0
  0
LINE
  5
B0
330
1F
100
AcDbEntity
  8
0-0
  6
Continuous
 62
     3
370
     9
100
AcDbLine
 10
26.0715866088868
 20
-55.02025129988374
 30
0.0
 11
50.57154371931742
 21
-55.02025129988374
 31
0.0
  0
LINE
  5
B1
330
1F
100
AcDbEntity
  8
0-0
  6
Continuous
 62
     3
370
     9
100
AcDbLine
 10
52.07154866811399
 20
-29.02025212468311
 30
0.0
 11
52.07154866811399
 21
-53.52024635108734
 31
0.0
  0
LINE
  5
B2
330
1F
100
AcDbEntity
  8
0-0
  6
Continuous
 62
     3
370
     9
100
AcDbLine
 10
10.57151072734118
 20
-29.02025212468311
 30
0.0
 11
10.57151072734118
 21
-53.52024635108734
 31
0.0
  0
LINE
  5
B3
330
1F
100
AcDbEntity
  8
0-0
  6
Continuous
 62
     3
370
     9
100
AcDbLine
 10
-15.42845133188601
 20
-55.02025129988374
 30
0.0
 11
9.071580010491488
 21
-55.02025129988374
 31
0.0
  0
LINE
  5
B4
330
1F
100
AcDbEntity
  8
0-0
  6
Continuous
 62
     3
370
     9
100
AcDbLine
 10
-16.92845628068258
 20
-29.02025212468311
 30
0.0
 11
-16.92845628068258
 21
-53.52024635108734
 31
0.0
  0
LINE
  5
B5
330
1F
100
AcDbEntity
  8
0-0
  6
Continuous
 62
     3
370
     9
100
AcDbLine
 10
-15.42845133188601
 20
-27.52024717588671
 30
0.0
 11
9.071580010491488
 21
-27.52024717588671
 31
0.0
  0
LINE
  5
B6
330
1F
100
AcDbEntity
  8
0-0
  6
Continuous
 62
     3
370
     9
100
AcDbLine
 10
-56.92845215668547
 20
-27.52024717588671
 30
0.0
 11
-32.42845793028133
 21
-27.52024717588671
 31
0.0
  0
LINE
  5
B7
330
1F
100
AcDbEntity
  8
0-0
  6
Continuous
 62
     3
370
     9
100
AcDbLine
 10
-58.42845710548195
 20
-29.02025212468311
 30
0.0
 11
-58.42845710548195
 21
-53.52024635108734
 31
0.0
  0
LINE
  5
B8
330
1F
100
AcDbEntity
  8
0-0
  6
Continuous
 62
     3
370
     9
100
AcDbLine
 10
-56.92845215668547
 20
-55.02025129988374
 30
0.0
 11
-32.42845793028133
 21
-55.02025129988374
 31
0.0
  0
LINE
  5
B9
330
1F
100
AcDbEntity
  8
0-0
  6
Continuous
 62
     3
370
     9
100
AcDbLine
 10
-30.92845298148484
 20
-29.02025212468311
 30
0.0
 11
-30.92845298148484
 21
-53.52024635108734
 31
0.0
  0
LINE
  5
BA
330
1F
100
AcDbEntity
  8
0-0
  6
Continuous
 62
     3
370
     9
100
AcDbLine
 10
-30.92845298148484
 20
12.47974870011626
 30
0.0
 11
-30.92845298148484
 21
-12.02024552628788
 31
0.0
  0
LINE
  5
BB
330
1F
100
AcDbEntity
  8
0-0
  6
Continuous
 62
     3
370
     9
100
AcDbLine
 10
-56.92845215668547
 20
-13.52025047508437
 30
0.0
 11
-32.42845793028133
 21
-13.52025047508437
 31
0.0
  0
LINE
  5
BC
330
1F
100
AcDbEntity
  8
0-0
  6
Continuous
 62
     3
370
     9
100
AcDbLine
 10
-58.42845710548195
 20
12.47974870011626
 30
0.0
 11
-58.42845710548195
 21
-12.02024552628788
 31
0.0
  0
LINE
  5
BD
330
1F
100
AcDbEntity
  8
0-0
  6
Continuous
 62
     3
370
     9
100
AcDbLine
 10
-56.92845215668547
 20
13.97975364891275
 30
0.0
 11
-32.42845793028133
 21
13.97975364891275
 31
0.0
  0
LINE
  5
BE
330
1F
100
AcDbEntity
  8
0-0
  6
Continuous
 62
     3
370
     9
100
AcDbLine
 10
-15.42845133188601
 20
13.97975364891275
 30
0.0
 11
9.071580010491488
 21
13.97975364891275
 31
0.0
  0
LINE
  5
BF
330
1F
100
AcDbEntity
  8
0-0
  6
Continuous
 62
     3
370
     9
100
AcDbLine
 10
-16.92845628068258
 20
12.47974870011626
 30
0.0
 11
-16.92845628068258
 21
-12.02024552628788
 31
0.0
  0
LINE
  5
C0
330
1F
100
AcDbEntity
  8
0-0
  6
Continuous
 62
     3
370
     9
100
AcDbLine
 10
-15.42845133188601
 20
-13.52025047508437
 30
0.0
 11
9.071580010491488
 21
-13.52025047508437
 31
0.0
  0
LINE
  5
C1
330
1F
100
AcDbEntity
  8
0-0
  6
Continuous
 62
     3
370
     9
100
AcDbLine
 10
10.57151072734118
 20
12.47974870011626
 30
0.0
 11
10.57151072734118
 21
-12.02024552628788
 31
0.0
  0
LINE
  5
C2
330
1F
100
AcDbEntity
  8
0-0
  6
Continuous
 62
     3
370
     9
100
AcDbLine
 10
52.07154866811399
 20
12.47974870011626
 30
0.0
 11
52.07154866811399
 21
-12.02024552628788
 31
0.0
  0
LINE
  5
C3
330
1F
100
AcDbEntity
  8
0-0
  6
Continuous
 62
     3
370
     9
100
AcDbLine
 10
26.0715866088868
 20
-13.52025047508437
 30
0.0
 11
50.57154371931742
 21
-13.52025047508437
 31
0.0
  0
LINE
  5
C4
330
1F
100
AcDbEntity
  8
0-0
  6
Continuous
 62
     3
370
     9
100
AcDbLine
 10
24.57150742814343
 20
12.47974870011626
 30
0.0
 11
24.57150742814343
 21
-12.02024552628788
 31
0.0
  0
LINE
  5
C5
330
1F
100
AcDbEntity
  8
0-0
  6
Continuous
 62
     3
370
     9
100
AcDbLine
 10
26.0715866088868
 20
13.97975364891275
 30
0.0
 11
50.57154371931742
 21
13.97975364891275
 31
0.0
  0
LINE
  5
C6
330
1F
100
AcDbEntity
  8
0-0
  6
Continuous
 62
     3
370
     9
100
AcDbLine
 10
-98.42845298148484
 20
13.97975364891275
 30
0.0
 11
-73.9284587550807
 21
13.97975364891275
 31
0.0
  0
LINE
  5
C7
330
1F
100
AcDbEntity
  8
0-0
  6
Continuous
 62
     3
370
     9
100
AcDbLine
 10
-99.92845793028133
 20
12.47974870011626
 30
0.0
 11
-99.92845793028133
 21
-12.02024552628788
 31
0.0
  0
LINE
  5
C8
330
1F
100
AcDbEntity
  8
0-0
  6
Continuous
 62
     3
370
     9
100
AcDbLine
 10
-98.42845298148484
 20
-13.52025047508437
 30
0.0
 11
-73.9284587550807
 21
-13.52025047508437
 31
0.0
  0
LINE
  5
C9
330
1F
100
AcDbEntity
  8
0-0
  6
Continuous
 62
     3
370
     9
100
AcDbLine
 10
-72.42845380628438
 20
12.47974870011626
 30
0.0
 11
-72.42845380628438
 21
-12.02024552628788
 31
0.0
  0
LINE
  5
CA
330
1F
100
AcDbEntity
  8
0-0
  6
Continuous
 62
     3
370
     9
100
AcDbLine
 10
26.0715866088868
 20
55.47971735773876
 30
0.0
 11
50.57154371931742
 21
55.47971735773876
 31
0.0
  0
LINE
  5
CB
330
1F
100
AcDbEntity
  8
0-0
  6
Continuous
 62
     3
370
     9
100
AcDbLine
 10
24.57150742814343
 20
53.97974952491563
 30
0.0
 11
24.57150742814343
 21
29.47975529851149
 31
0.0
  0
LINE
  5
CC
330
1F
100
AcDbEntity
  8
0-0
  6
Continuous
 62
     3
370
     9
100
AcDbLine
 10
26.0715866088868
 20
27.97975034971518
 30
0.0
 11
50.57154371931742
 21
27.97975034971518
 31
0.0
  0
LINE
  5
CD
330
1F
100
AcDbEntity
  8
0-0
  6
Continuous
 62
     3
370
     9
100
AcDbLine
 10
52.07154866811399
 20
53.97974952491563
 30
0.0
 11
52.07154866811399
 21
29.47975529851149
 31
0.0
  0
LINE
  5
CE
330
1F
100
AcDbEntity
  8
0-0
  6
Continuous
 62
     3
370
     9
100
AcDbLine
 10
10.57151072734118
 20
53.97974952491563
 30
0.0
 11
10.57151072734118
 21
29.47975529851149
 31
0.0
  0
LINE
  5
CF
330
1F
100
AcDbEntity
  8
0-0
  6
Continuous
 62
     3
370
     9
100
AcDbLine
 10
-15.42845133188601
 20
27.97975034971518
 30
0.0
 11
9.071580010491488
 21
27.97975034971518
 31
0.0
  0
LINE
  5
D0
330
1F
100
AcDbEntity
  8
0-0
  6
Continuous
 62
     3
370
     9
100
AcDbLine
 10
-16.92845628068258
 20
53.97974952491563
 30
0.0
 11
-16.92845628068258
 21
29.47975529851149
 31
0.0
  0
LINE
  5
D1
330
1F
100
AcDbEntity
  8
0-0
  6
Continuous
 62
     3
370
     9
100
AcDbLine
 10
-15.42845133188601
 20
55.47971735773876
 30
0.0
 11
9.071580010491488
 21
55.47971735773876
 31
0.0
  0
LINE
  5
D2
330
1F
100
AcDbEntity
  8
0-0
  6
Continuous
 62
     3
370
     9
100
AcDbLine
 10
-56.92845215668547
 20
55.47971735773876
 30
0.0
 11
-32.42845793028133
 21
55.47971735773876
 31
0.0
  0
LINE
  5
D3
330
1F
100
AcDbEntity
  8
0-0
  6
Continuous
 62
     3
370
     9
100
AcDbLine
 10
-58.42845710548195
 20
53.97974952491563
 30
0.0
 11
-58.42845710548195
 21
29.47975529851149
 31
0.0
  0
LINE
  5
D4
330
1F
100
AcDbEntity
  8
0-0
  6
Continuous
 62
     3
370
     9
100
AcDbLine
 10
-56.92845215668547
 20
27.97975034971518
 30
0.0
 11
-32.42845793028133
 21
27.97975034971518
 31
0.0
  0
LINE
  5
D5
330
1F
100
AcDbEntity
  8
0-0
  6
Continuous
 62
     3
370
     9
100
AcDbLine
 10
-30.92845298148484
 20
53.97974952491563
 30
0.0
 11
-30.92845298148484
 21
29.47975529851149
 31
0.0
  0
LINE
  5
D6
330
1F
100
AcDbEntity
  8
0-0
  6
Continuous
 62
     3
370
     9
100
AcDbLine
 10
-224.4284604046795
 20
53.97974952491563
 30
0.0
 11
-224.4284604046795
 21
29.47975529851149
 31
0.0
  0
LINE
  5
D7
330
1F
100
AcDbEntity
  8
0-0
  6
Continuous
 62
     3
370
     9
100
AcDbLine
 10
-198.428461229479
 20
27.97975034971518
 30
0.0
 11
-222.9284554558831
 21
27.97975034971518
 31
0.0
  0
LINE
  5
D8
330
1F
100
AcDbEntity
  8
0-0
  6
Continuous
 62
     3
370
     9
100
AcDbLine
 10
-196.9284562806825
 20
53.97974952491563
 30
0.0
 11
-196.9284562806825
 21
29.47975529851149
 31
0.0
  0
LINE
  5
D9
330
1F
100
AcDbEntity
  8
0-0
  6
Continuous
 62
     3
370
     9
100
AcDbLine
 10
-198.428461229479
 20
55.47971735773876
 30
0.0
 11
-222.9284554558831
 21
55.47971735773876
 31
0.0
  0
LINE
  5
DA
330
1F
100
AcDbEntity
  8
0-0
  6
Continuous
 62
     3
370
     9
100
AcDbLine
 10
-239.9284620542784
 20
55.47971735773876
 30
0.0
 11
-264.4284562806825
 21
55.47971735773876
 31
0.0
  0
LINE
  5
DB
330
1F
100
AcDbEntity
  8
0-0
  6
Continuous
 62
     3
370
     9
100
AcDbLine
 10
-238.428457105482
 20
53.97974952491563
 30
0.0
 11
-238.428457105482
 21
29.47975529851149
 31
0.0
  0
LINE
  5
DC
330
1F
100
AcDbEntity
  8
0-0
  6
Continuous
 62
     3
370
     9
100
AcDbLine
 10
-239.9284620542784
 20
27.97975034971518
 30
0.0
 11
-264.4284562806825
 21
27.97975034971518
 31
0.0
  0
LINE
  5
DD
330
1F
100
AcDbEntity
  8
0-0
  6
Continuous
 62
     3
370
     9
100
AcDbLine
 10
-265.928461229479
 20
53.97974952491563
 30
0.0
 11
-265.928461229479
 21
29.47975529851149
 31
0.0
  0
LINE
  5
DE
330
1F
100
AcDbEntity
  8
0-0
  6
Continuous
 62
     3
370
     9
100
AcDbLine
 10
-307.4284620542784
 20
53.97974952491563
 30
0.0
 11
-307.4284620542784
 21
29.47975529851149
 31
0.0
  0
LINE
  5
DF
330
1F
100
AcDbEntity
  8
0-0
  6
Continuous
 62
     3
370
     9
100
AcDbLine
 10
-281.4284628790778
 20
27.97975034971518
 30
0.0
 11
-305.9284571054819
 21
27.97975034971518
 31
0.0
  0
LINE
  5
E0
330
1F
100
AcDbEntity
  8
0-0
  6
Continuous
 62
     3
370
     9
100
AcDbLine
 10
-279.9284579302813
 20
53.97974952491563
 30
0.0
 11
-279.9284579302813
 21
29.47975529851149
 31
0.0
  0
LINE
  5
E1
330
1F
100
AcDbEntity
  8
0-0
  6
Continuous
 62
     3
370
     9
100
AcDbLine
 10
-281.4284628790778
 20
55.47971735773876
 30
0.0
 11
-305.9284571054819
 21
55.47971735773876
 31
0.0
  0
LINE
  5
E2
330
1F
100
AcDbEntity
  8
0-0
  6
Continuous
 62
     3
370
     9
100
AcDbLine
 10
-182.9284595798802
 20
12.47974870011626
 30
0.0
 11
-182.9284595798802
 21
-12.02024552628788
 31
0.0
  0
LINE
  5
E3
330
1F
100
AcDbEntity
  8
0-0
  6
Continuous
 62
     3
370
     9
100
AcDbLine
 10
-156.9284604046795
 20
-13.52025047508437
 30
0.0
 11
-181.4284546310838
 21
-13.52025047508437
 31
0.0
  0
LINE
  5
E4
330
1F
100
AcDbEntity
  8
0-0
  6
Continuous
 62
     3
370
     9
100
AcDbLine
 10
-155.4284554558831
 20
12.47974870011626
 30
0.0
 11
-155.4284554558831
 21
-12.02024552628788
 31
0.0
  0
LINE
  5
E5
330
1F
100
AcDbEntity
  8
0-0
  6
Continuous
 62
     3
370
     9
100
AcDbLine
 10
-156.9284604046795
 20
13.97975364891275
 30
0.0
 11
-181.4284546310838
 21
13.97975364891275
 31
0.0
  0
LINE
  5
E6
330
1F
100
AcDbEntity
  8
0-0
  6
Continuous
 62
     3
370
     9
100
AcDbLine
 10
-281.4284628790778
 20
13.97975364891275
 30
0.0
 11
-305.9284571054819
 21
13.97975364891275
 31
0.0
  0
LINE
  5
E7
330
1F
100
AcDbEntity
  8
0-0
  6
Continuous
 62
     3
370
     9
100
AcDbLine
 10
-279.9284579302813
 20
12.47974870011626
 30
0.0
 11
-279.9284579302813
 21
-12.02024552628788
 31
0.0
  0
LINE
  5
E8
330
1F
100
AcDbEntity
  8
0-0
  6
Continuous
 62
     3
370
     9
100
AcDbLine
 10
-281.4284628790778
 20
-13.52025047508437
 30
0.0
 11
-305.9284571054819
 21
-13.52025047508437
 31
0.0
  0
LINE
  5
E9
330
1F
100
AcDbEntity
  8
0-0
  6
Continuous
 62
     3
370
     9
100
AcDbLine
 10
-307.4284620542784
 20
12.47974870011626
 30
0.0
 11
-307.4284620542784
 21
-12.02024552628788
 31
0.0
  0
LINE
  5
EA
330
1F
100
AcDbEntity
  8
0-0
  6
Continuous
 62
     3
370
     9
100
AcDbLine
 10
-265.928461229479
 20
12.47974870011626
 30
0.0
 11
-265.928461229479
 21
-12.02024552628788
 31
0.0
  0
LINE
  5
EB
330
1F
100
AcDbEntity
  8
0-0
  6
Continuous
 62
     3
370
     9
100
AcDbLine
 10
-239.9284620542784
 20
-13.52025047508437
 30
0.0
 11
-264.4284562806825
 21
-13.52025047508437
 31
0.0
  0
LINE
  5
EC
330
1F
100
AcDbEntity
  8
0-0
  6
Continuous
 62
     3
370
     9
100
AcDbLine
 10
-238.428457105482
 20
12.47974870011626
 30
0.0
 11
-238.428457105482
 21
-12.02024552628788
 31
0.0
  0
LINE
  5
ED
330
1F
100
AcDbEntity
  8
0-0
  6
Continuous
 62
     3
370
     9
100
AcDbLine
 10
-239.9284620542784
 20
13.97975364891275
 30
0.0
 11
-264.4284562806825
 21
13.97975364891275
 31
0.0
  0
LINE
  5
EE
330
1F
100
AcDbEntity
  8
0-0
  6
Continuous
 62
     3
370
     9
100
AcDbLine
 10
-198.428461229479
 20
13.97975364891275
 30
0.0
 11
-222.9284554558831
 21
13.97975364891275
 31
0.0
  0
LINE
  5
EF
330
1F
100
AcDbEntity
  8
0-0
  6
Continuous
 62
     3
370
     9
100
AcDbLine
 10
-196.9284562806825
 20
12.47974870011626
 30
0.0
 11
-196.9284562806825
 21
-12.02024552628788
 31
0.0
  0
LINE
  5
F0
330
1F
100
AcDbEntity
  8
0-0
  6
Continuous
 62
     3
370
     9
100
AcDbLine
 10
-198.428461229479
 20
-13.52025047508437
 30
0.0
 11
-222.9284554558831
 21
-13.52025047508437
 31
0.0
  0
LINE
  5
F1
330
1F
100
AcDbEntity
  8
0-0
  6
Continuous
 62
     3
370
     9
100
AcDbLine
 10
-224.4284604046795
 20
12.47974870011626
 30
0.0
 11
-224.4284604046795
 21
-12.02024552628788
 31
0.0
  0
LINE
  5
F2
330
1F
100
AcDbEntity
  8
0-0
  6
Continuous
 62
     3
370
     9
100
AcDbLine
 10
-224.4284604046795
 20
-29.02025212468311
 30
0.0
 11
-224.4284604046795
 21
-53.52024635108734
 31
0.0
  0
LINE
  5
F3
330
1F
100
AcDbEntity
  8
0-0
  6
Continuous
 62
     3
370
     9
100
AcDbLine
 10
-198.428461229479
 20
-55.02025129988374
 30
0.0
 11
-222.9284554558831
 21
-55.02025129988374
 31
0.0
  0
LINE
  5
F4
330
1F
100
AcDbEntity
  8
0-0
  6
Continuous
 62
     3
370
     9
100
AcDbLine
 10
-196.9284562806825
 20
-29.02025212468311
 30
0.0
 11
-196.9284562806825
 21
-53.52024635108734
 31
0.0
  0
LINE
  5
F5
330
1F
100
AcDbEntity
  8
0-0
  6
Continuous
 62
     3
370
     9
100
AcDbLine
 10
-198.428461229479
 20
-27.52024717588671
 30
0.0
 11
-222.9284554558831
 21
-27.52024717588671
 31
0.0
  0
LINE
  5
F6
330
1F
100
AcDbEntity
  8
0-0
  6
Continuous
 62
     3
370
     9
100
AcDbLine
 10
-239.9284620542784
 20
-27.52024717588671
 30
0.0
 11
-264.4284562806825
 21
-27.52024717588671
 31
0.0
  0
LINE
  5
F7
330
1F
100
AcDbEntity
  8
0-0
  6
Continuous
 62
     3
370
     9
100
AcDbLine
 10
-238.428457105482
 20
-29.02025212468311
 30
0.0
 11
-238.428457105482
 21
-53.52024635108734
 31
0.0
  0
LINE
  5
F8
330
1F
100
AcDbEntity
  8
0-0
  6
Continuous
 62
     3
370
     9
100
AcDbLine
 10
-239.9284620542784
 20
-55.02025129988374
 30
0.0
 11
-264.4284562806825
 21
-55.02025129988374
 31
0.0
  0
LINE
  5
F9
330
1F
100
AcDbEntity
  8
0-0
  6
Continuous
 62
     3
370
     9
100
AcDbLine
 10
-265.928461229479
 20
-29.02025212468311
 30
0.0
 11
-265.928461229479
 21
-53.52024635108734
 31
0.0
  0
LINE
  5
FA
330
1F
100
AcDbEntity
  8
0-0
  6
Continuous
 62
     3
370
     9
100
AcDbLine
 10
-307.4284620542784
 20
-29.02025212468311
 30
0.0
 11
-307.4284620542784
 21
-53.52024635108734
 31
0.0
  0
LINE
  5
FB
330
1F
100
AcDbEntity
  8
0-0
  6
Continuous
 62
     3
370
     9
100
AcDbLine
 10
-281.4284628790778
 20
-55.02025129988374
 30
0.0
 11
-305.9284571054819
 21
-55.02025129988374
 31
0.0
  0
LINE
  5
FC
330
1F
100
AcDbEntity
  8
0-0
  6
Continuous
 62
     3
370
     9
100
AcDbLine
 10
-279.9284579302813
 20
-29.02025212468311
 30
0.0
 11
-279.9284579302813
 21
-53.52024635108734
 31
0.0
  0
LINE
  5
FD
330
1F
100
AcDbEntity
  8
0-0
  6
Continuous
 62
     3
370
     9
100
AcDbLine
 10
-281.4284628790778
 20
-27.52024717588671
 30
0.0
 11
-305.9284571054819
 21
-27.52024717588671
 31
0.0
  0
LINE
  5
FE
330
1F
100
AcDbEntity
  8
0-0
  6
Continuous
 62
     3
370
     9
100
AcDbLine
 10
-156.9284604046795
 20
-27.52024717588671
 30
0.0
 11
-181.4284546310838
 21
-27.52024717588671
 31
0.0
  0
LINE
  5
FF
330
1F
100
AcDbEntity
  8
0-0
  6
Continuous
 62
     3
370
     9
100
AcDbLine
 10
-155.4284554558831
 20
-29.02025212468311
 30
0.0
 11
-155.4284554558831
 21
-53.52024635108734
 31
0.0
  0
LINE
  5
100
330
1F
100
AcDbEntity
  8
0-0
  6
Continuous
 62
     3
370
     9
100
AcDbLine
 10
-156.9284604046795
 20
-55.02025129988374
 30
0.0
 11
-181.4284546310838
 21
-55.02025129988374
 31
0.0
  0
LINE
  5
101
330
1F
100
AcDbEntity
  8
0-0
  6
Continuous
 62
     3
370
     9
100
AcDbLine
 10
-182.9284595798802
 20
-29.02025212468311
 30
0.0
 11
-182.9284595798802
 21
-53.52024635108734
 31
0.0
  0
LINE
  5
102
330
1F
100
AcDbEntity
  8
0-0
  6
Continuous
 62
     3
370
     9
100
AcDbLine
 10
-182.9284595798802
 20
-70.52025294948257
 30
0.0
 11
-182.9284595798802
 21
-95.02024717588671
 31
0.0
  0
LINE
  5
103
330
1F
100
AcDbEntity
  8
0-0
  6
Continuous
 62
     3
370
     9
100
AcDbLine
 10
-156.9284604046795
 20
-96.52025212468311
 30
0.0
 11
-181.4284546310838
 21
-96.52025212468311
 31
0.0
  0
LINE
  5
104
330
1F
100
AcDbEntity
  8
0-0
  6
Continuous
 62
     3
370
     9
100
AcDbLine
 10
-155.4284554558831
 20
-70.52025294948257
 30
0.0
 11
-155.4284554558831
 21
-95.02024717588671
 31
0.0
  0
LINE
  5
105
330
1F
100
AcDbEntity
  8
0-0
  6
Continuous
 62
     3
370
     9
100
AcDbLine
 10
-156.9284604046795
 20
-69.02024800068608
 30
0.0
 11
-181.4284546310838
 21
-69.02024800068608
 31
0.0
  0
LINE
  5
106
330
1F
100
AcDbEntity
  8
0-0
  6
Continuous
 62
     3
370
     9
100
AcDbLine
 10
-281.4284628790778
 20
-69.02024800068608
 30
0.0
 11
-305.9284571054819
 21
-69.02024800068608
 31
0.0
  0
LINE
  5
107
330
1F
100
AcDbEntity
  8
0-0
  6
Continuous
 62
     3
370
     9
100
AcDbLine
 10
-279.9284579302813
 20
-70.52025294948257
 30
0.0
 11
-279.9284579302813
 21
-95.02024717588671
 31
0.0
  0
LINE
  5
108
330
1F
100
AcDbEntity
  8
0-0
  6
Continuous
 62
     3
370
     9
100
AcDbLine
 10
-281.4284628790778
 20
-96.52025212468311
 30
0.0
 11
-305.9284571054819
 21
-96.52025212468311
 31
0.0
  0
LINE
  5
109
330
1F
100
AcDbEntity
  8
0-0
  6
Continuous
 62
     3
370
     9
100
AcDbLine
 10
-307.4284620542784
 20
-70.52025294948257
 30
0.0
 11
-307.4284620542784
 21
-95.02024717588671
 31
0.0
  0
LINE
  5
10A
330
1F
100
AcDbEntity
  8
0-0
  6
Continuous
 62
     3
370
     9
100
AcDbLine
 10
-265.928461229479
 20
-70.52025294948257
 30
0.0
 11
-265.928461229479
 21
-95.02024717588671
 31
0.0
  0
LINE
  5
10B
330
1F
100
AcDbEntity
  8
0-0
  6
Continuous
 62
     3
370
     9
100
AcDbLine
 10
-239.9284620542784
 20
-96.52025212468311
 30
0.0
 11
-264.4284562806825
 21
-96.52025212468311
 31
0.0
  0
LINE
  5
10C
330
1F
100
AcDbEntity
  8
0-0
  6
Continuous
 62
     3
370
     9
100
AcDbLine
 10
-238.428457105482
 20
-70.52025294948257
 30
0.0
 11
-238.428457105482
 21
-95.02024717588671
 31
0.0
  0
LINE
  5
10D
330
1F
100
AcDbEntity
  8
0-0
  6
Continuous
 62
     3
370
     9
100
AcDbLine
 10
-239.9284620542784
 20
-69.02024800068608
 30
0.0
 11
-264.4284562806825
 21
-69.02024800068608
 31
0.0
  0
LINE
  5
10E
330
1F
100
AcDbEntity
  8
0-0
  6
Continuous
 62
     3
370
     9
100
AcDbLine
 10
-198.428461229479
 20
-69.02024800068608
 30
0.0
 11
-222.9284554558831
 21
-69.02024800068608
 31
0.0
  0
LINE
  5
10F
330
1F
100
AcDbEntity
  8
0-0
  6
Continuous
 62
     3
370
     9
100
AcDbLine
 10
-196.9284562806825
 20
-70.52025294948257
 30
0.0
 11
-196.9284562806825
 21
-95.02024717588671
 31
0.0
  0
LINE
  5
110
330
1F
100
AcDbEntity
  8
0-0
  6
Continuous
 62
     3
370
     9
100
AcDbLine
 10
-198.428461229479
 20
-96.52025212468311
 30
0.0
 11
-222.9284554558831
 21
-96.52025212468311
 31
0.0
  0
LINE
  5
111
330
1F
100
AcDbEntity
  8
0-0
  6
Continuous
 62
     3
370
     9
100
AcDbLine
 10
-224.4284604046795
 20
-70.52025294948257
 30
0.0
 11
-224.4284604046795
 21
-95.02024717588671
 31
0.0
  0
LINE
  5
112
330
1F
100
AcDbEntity
  8
0-0
  6
Continuous
 62
     3
370
     9
100
AcDbLine
 10
-156.9284604046795
 20
55.47971735773876
 30
0.0
 11
-181.4284546310838
 21
55.47971735773876
 31
0.0
  0
LINE
  5
113
330
1F
100
AcDbEntity
  8
0-0
  6
Continuous
 62
     3
370
     9
100
AcDbLine
 10
-155.4284554558831
 20
53.97974952491563
 30
0.0
 11
-155.4284554558831
 21
29.47975529851149
 31
0.0
  0
LINE
  5
114
330
1F
100
AcDbEntity
  8
0-0
  6
Continuous
 62
     3
370
     9
100
AcDbLine
 10
-156.9284604046795
 20
27.97975034971518
 30
0.0
 11
-181.4284546310838
 21
27.97975034971518
 31
0.0
  0
LINE
  5
115
330
1F
100
AcDbEntity
  8
0-0
  6
Continuous
 62
     3
370
     9
100
AcDbLine
 10
-182.9284595798802
 20
53.97974952491563
 30
0.0
 11
-182.9284595798802
 21
29.47975529851149
 31
0.0
  0
LINE
  5
116
330
1F
100
AcDbEntity
  8
0-0
  6
Continuous
 62
     3
370
     9
100
AcDbLine
 10
-182.9284595798802
 20
112.479719832137
 30
0.0
 11
-182.9284595798802
 21
136.9797511745145
 31
0.0
  0
LINE
  5
117
330
1F
100
AcDbEntity
  8
0-0
  6
Continuous
 62
     3
370
     9
100
AcDbLine
 10
-156.9284604046795
 20
138.4797190073376
 30
0.0
 11
-181.4284546310838
 21
138.4797190073376
 31
0.0
  0
LINE
  5
118
330
1F
100
AcDbEntity
  8
0-0
  6
Continuous
 62
     3
370
     9
100
AcDbLine
 10
-155.4284554558831
 20
112.479719832137
 30
0.0
 11
-155.4284554558831
 21
136.9797511745145
 31
0.0
  0
LINE
  5
119
330
1F
100
AcDbEntity
  8
0-0
  6
Continuous
 62
     3
370
     9
100
AcDbLine
 10
-156.9284604046795
 20
110.9797519993139
 30
0.0
 11
-181.4284546310838
 21
110.9797519993139
 31
0.0
  0
LINE
  5
11A
330
1F
100
AcDbEntity
  8
0-0
  6
Continuous
 62
     3
370
     9
100
AcDbLine
 10
-224.4284604046795
 20
236.9797594225086
 30
0.0
 11
-224.4284604046795
 21
261.4797165329393
 31
0.0
  0
LINE
  5
11B
330
1F
100
AcDbEntity
  8
0-0
  6
Continuous
 62
     3
370
     9
100
AcDbLine
 10
-198.428461229479
 20
262.9797214817358
 30
0.0
 11
-222.9284554558831
 21
262.9797214817358
 31
0.0
  0
LINE
  5
11C
330
1F
100
AcDbEntity
  8
0-0
  6
Continuous
 62
     3
370
     9
100
AcDbLine
 10
-196.9284562806825
 20
236.9797594225086
 30
0.0
 11
-196.9284562806825
 21
261.4797165329393
 31
0.0
  0
LINE
  5
11D
330
1F
100
AcDbEntity
  8
0-0
  6
Continuous
 62
     3
370
     9
100
AcDbLine
 10
-198.428461229479
 20
235.4797544737121
 30
0.0
 11
-222.9284554558831
 21
235.4797544737121
 31
0.0
  0
LINE
  5
11E
330
1F
100
AcDbEntity
  8
0-0
  6
Continuous
 62
     3
370
     9
100
AcDbLine
 10
-239.9284620542784
 20
235.4797544737121
 30
0.0
 11
-264.4284562806825
 21
235.4797544737121
 31
0.0
  0
LINE
  5
11F
330
1F
100
AcDbEntity
  8
0-0
  6
Continuous
 62
     3
370
     9
100
AcDbLine
 10
-238.428457105482
 20
236.9797594225086
 30
0.0
 11
-238.428457105482
 21
261.4797165329393
 31
0.0
  0
LINE
  5
120
330
1F
100
AcDbEntity
  8
0-0
  6
Continuous
 62
     3
370
     9
100
AcDbLine
 10
-239.9284620542784
 20
262.9797214817358
 30
0.0
 11
-264.4284562806825
 21
262.9797214817358
 31
0.0
  0
LINE
  5
121
330
1F
100
AcDbEntity
  8
0-0
  6
Continuous
 62
     3
370
     9
100
AcDbLine
 10
-265.928461229479
 20
236.9797594225086
 30
0.0
 11
-265.928461229479
 21
261.4797165329393
 31
0.0
  0
LINE
  5
122
330
1F
100
AcDbEntity
  8
0-0
  6
Continuous
 62
     3
370
     9
100
AcDbLine
 10
-307.4284620542784
 20
236.9797594225086
 30
0.0
 11
-307.4284620542784
 21
261.4797165329393
 31
0.0
  0
LINE
  5
123
330
1F
100
AcDbEntity
  8
0-0
  6
Continuous
 62
     3
370
     9
100
AcDbLine
 10
-281.4284628790778
 20
262.9797214817358
 30
0.0
 11
-305.9284571054819
 21
262.9797214817358
 31
0.0
  0
LINE
  5
124
330
1F
100
AcDbEntity
  8
0-0
  6
Continuous
 62
     3
370
     9
100
AcDbLine
 10
-279.9284579302813
 20
236.9797594225086
 30
0.0
 11
-279.9284579302813
 21
261.4797165329393
 31
0.0
  0
LINE
  5
125
330
1F
100
AcDbEntity
  8
0-0
  6
Continuous
 62
     3
370
     9
100
AcDbLine
 10
-281.4284628790778
 20
235.4797544737121
 30
0.0
 11
-305.9284571054819
 21
235.4797544737121
 31
0.0
  0
LINE
  5
126
330
1F
100
AcDbEntity
  8
0-0
  6
Continuous
 62
     3
370
     9
100
AcDbLine
 10
-156.9284604046795
 20
235.4797544737121
 30
0.0
 11
-181.4284546310838
 21
235.4797544737121
 31
0.0
  0
LINE
  5
127
330
1F
100
AcDbEntity
  8
0-0
  6
Continuous
 62
     3
370
     9
100
AcDbLine
 10
-155.4284554558831
 20
236.9797594225086
 30
0.0
 11
-155.4284554558831
 21
261.4797165329393
 31
0.0
  0
LINE
  5
128
330
1F
100
AcDbEntity
  8
0-0
  6
Continuous
 62
     3
370
     9
100
AcDbLine
 10
-156.9284604046795
 20
262.9797214817358
 30
0.0
 11
-181.4284546310838
 21
262.9797214817358
 31
0.0
  0
LINE
  5
129
330
1F
100
AcDbEntity
  8
0-0
  6
Continuous
 62
     3
370
     9
100
AcDbLine
 10
-182.9284595798802
 20
236.9797594225086
 30
0.0
 11
-182.9284595798802
 21
261.4797165329393
 31
0.0
  0
LINE
  5
12A
330
1F
100
AcDbEntity
  8
0-0
  6
Continuous
 62
     3
370
     9
100
AcDbLine
 10
-182.9284595798802
 20
195.4797214817358
 30
0.0
 11
-182.9284595798802
 21
219.9797528241133
 31
0.0
  0
LINE
  5
12B
330
1F
100
AcDbEntity
  8
0-0
  6
Continuous
 62
     3
370
     9
100
AcDbLine
 10
-156.9284604046795
 20
221.4797577729098
 30
0.0
 11
-181.4284546310838
 21
221.4797577729098
 31
0.0
  0
LINE
  5
12C
330
1F
100
AcDbEntity
  8
0-0
  6
Continuous
 62
     3
370
     9
100
AcDbLine
 10
-155.4284554558831
 20
195.4797214817358
 30
0.0
 11
-155.4284554558831
 21
219.9797528241133
 31
0.0
  0
LINE
  5
12D
330
1F
100
AcDbEntity
  8
0-0
  6
Continuous
 62
     3
370
     9
100
AcDbLine
 10
-156.9284604046795
 20
193.9797165329393
 30
0.0
 11
-181.4284546310838
 21
193.9797165329393
 31
0.0
  0
LINE
  5
12E
330
1F
100
AcDbEntity
  8
0-0
  6
Continuous
 62
     3
370
     9
100
AcDbLine
 10
-281.4284628790778
 20
193.9797165329393
 30
0.0
 11
-305.9284571054819
 21
193.9797165329393
 31
0.0
  0
LINE
  5
12F
330
1F
100
AcDbEntity
  8
0-0
  6
Continuous
 62
     3
370
     9
100
AcDbLine
 10
-279.9284579302813
 20
195.4797214817358
 30
0.0
 11
-279.9284579302813
 21
219.9797528241133
 31
0.0
  0
LINE
  5
130
330
1F
100
AcDbEntity
  8
0-0
  6
Continuous
 62
     3
370
     9
100
AcDbLine
 10
-281.4284628790778
 20
221.4797577729098
 30
0.0
 11
-305.9284571054819
 21
221.4797577729098
 31
0.0
  0
LINE
  5
131
330
1F
100
AcDbEntity
  8
0-0
  6
Continuous
 62
     3
370
     9
100
AcDbLine
 10
-307.4284620542784
 20
195.4797214817358
 30
0.0
 11
-307.4284620542784
 21
219.9797528241133
 31
0.0
  0
LINE
  5
132
330
1F
100
AcDbEntity
  8
0-0
  6
Continuous
 62
     3
370
     9
100
AcDbLine
 10
-265.928461229479
 20
195.4797214817358
 30
0.0
 11
-265.928461229479
 21
219.9797528241133
 31
0.0
  0
LINE
  5
133
330
1F
100
AcDbEntity
  8
0-0
  6
Continuous
 62
     3
370
     9
100
AcDbLine
 10
-239.9284620542784
 20
221.4797577729098
 30
0.0
 11
-264.4284562806825
 21
221.4797577729098
 31
0.0
  0
LINE
  5
134
330
1F
100
AcDbEntity
  8
0-0
  6
Continuous
 62
     3
370
     9
100
AcDbLine
 10
-238.428457105482
 20
195.4797214817358
 30
0.0
 11
-238.428457105482
 21
219.9797528241133
 31
0.0
  0
LINE
  5
135
330
1F
100
AcDbEntity
  8
0-0
  6
Continuous
 62
     3
370
     9
100
AcDbLine
 10
-239.9284620542784
 20
193.9797165329393
 30
0.0
 11
-264.4284562806825
 21
193.9797165329393
 31
0.0
  0
LINE
  5
136
330
1F
100
AcDbEntity
  8
0-0
  6
Continuous
 62
     3
370
     9
100
AcDbLine
 10
-198.428461229479
 20
193.9797165329393
 30
0.0
 11
-222.9284554558831
 21
193.9797165329393
 31
0.0
  0
LINE
  5
137
330
1F
100
AcDbEntity
  8
0-0
  6
Continuous
 62
     3
370
     9
100
AcDbLine
 10
-196.9284562806825
 20
195.4797214817358
 30
0.0
 11
-196.9284562806825
 21
219.9797528241133
 31
0.0
  0
LINE
  5
138
330
1F
100
AcDbEntity
  8
0-0
  6
Continuous
 62
     3
370
     9
100
AcDbLine
 10
-198.428461229479
 20
221.4797577729098
 30
0.0
 11
-222.9284554558831
 21
221.4797577729098
 31
0.0
  0
LINE
  5
139
330
1F
100
AcDbEntity
  8
0-0
  6
Continuous
 62
     3
370
     9
100
AcDbLine
 10
-224.4284604046795
 20
195.4797214817358
 30
0.0
 11
-224.4284604046795
 21
219.9797528241133
 31
0.0
  0
LINE
  5
13A
330
1F
100
AcDbEntity
  8
0-0
  6
Continuous
 62
     3
370
     9
100
AcDbLine
 10
-224.4284604046795
 20
153.9797206569364
 30
0.0
 11
-224.4284604046795
 21
178.4797148833405
 31
0.0
  0
LINE
  5
13B
330
1F
100
AcDbEntity
  8
0-0
  6
Continuous
 62
     3
370
     9
100
AcDbLine
 10
-198.428461229479
 20
179.979719832137
 30
0.0
 11
-222.9284554558831
 21
179.979719832137
 31
0.0
  0
LINE
  5
13C
330
1F
100
AcDbEntity
  8
0-0
  6
Continuous
 62
     3
370
     9
100
AcDbLine
 10
-196.9284562806825
 20
153.9797206569364
 30
0.0
 11
-196.9284562806825
 21
178.4797148833405
 31
0.0
  0
LINE
  5
13D
330
1F
100
AcDbEntity
  8
0-0
  6
Continuous
 62
     3
370
     9
100
AcDbLine
 10
-198.428461229479
 20
152.4797528241133
 30
0.0
 11
-222.9284554558831
 21
152.4797528241133
 31
0.0
  0
LINE
  5
13E
330
1F
100
AcDbEntity
  8
0-0
  6
Continuous
 62
     3
370
     9
100
AcDbLine
 10
-239.9284620542784
 20
152.4797528241133
 30
0.0
 11
-264.4284562806825
 21
152.4797528241133
 31
0.0
  0
LINE
  5
13F
330
1F
100
AcDbEntity
  8
0-0
  6
Continuous
 62
     3
370
     9
100
AcDbLine
 10
-238.428457105482
 20
153.9797206569364
 30
0.0
 11
-238.428457105482
 21
178.4797148833405
 31
0.0
  0
LINE
  5
140
330
1F
100
AcDbEntity
  8
0-0
  6
Continuous
 62
     3
370
     9
100
AcDbLine
 10
-239.9284620542784
 20
179.979719832137
 30
0.0
 11
-264.4284562806825
 21
179.979719832137
 31
0.0
  0
LINE
  5
141
330
1F
100
AcDbEntity
  8
0-0
  6
Continuous
 62
     3
370
     9
100
AcDbLine
 10
-265.928461229479
 20
153.9797206569364
 30
0.0
 11
-265.928461229479
 21
178.4797148833405
 31
0.0
  0
LINE
  5
142
330
1F
100
AcDbEntity
  8
0-0
  6
Continuous
 62
     3
370
     9
100
AcDbLine
 10
-307.4284620542784
 20
153.9797206569364
 30
0.0
 11
-307.4284620542784
 21
178.4797148833405
 31
0.0
  0
LINE
  5
143
330
1F
100
AcDbEntity
  8
0-0
  6
Continuous
 62
     3
370
     9
100
AcDbLine
 10
-281.4284628790778
 20
179.979719832137
 30
0.0
 11
-305.9284571054819
 21
179.979719832137
 31
0.0
  0
LINE
  5
144
330
1F
100
AcDbEntity
  8
0-0
  6
Continuous
 62
     3
370
     9
100
AcDbLine
 10
-279.9284579302813
 20
153.9797206569364
 30
0.0
 11
-279.9284579302813
 21
178.4797148833405
 31
0.0
  0
LINE
  5
145
330
1F
100
AcDbEntity
  8
0-0
  6
Continuous
 62
     3
370
     9
100
AcDbLine
 10
-281.4284628790778
 20
152.4797528241133
 30
0.0
 11
-305.9284571054819
 21
152.4797528241133
 31
0.0
  0
LINE
  5
146
330
1F
100
AcDbEntity
  8
0-0
  6
Continuous
 62
     3
370
     9
100
AcDbLine
 10
-127.6784752510689
 20
283.2297511745145
 30
0.0
 11
72.32150412894586
 21
283.2297511745145
 31
0.0
  0
LINE
  5
147
330
1F
100
AcDbEntity
  8
0-0
  6
Continuous
 62
     3
370
     9
100
AcDbLine
 10
72.32150412894586
 20
83.22973467852638
 30
0.0
 11
72.32150412894586
 21
283.2297511745145
 31
0.0
  0
LINE
  5
148
330
1F
100
AcDbEntity
  8
0-0
  6
Continuous
 62
     3
370
     9
100
AcDbLine
 10
-156.9284604046795
 20
152.4797528241133
 30
0.0
 11
-181.4284546310838
 21
152.4797528241133
 31
0.0
  0
LINE
  5
149
330
1F
100
AcDbEntity
  8
0-0
  6
Continuous
 62
     3
370
     9
100
AcDbLine
 10
-155.4284554558831
 20
153.9797206569364
 30
0.0
 11
-155.4284554558831
 21
178.4797148833405
 31
0.0
  0
LINE
  5
14A
330
1F
100
AcDbEntity
  8
0-0
  6
Continuous
 62
     3
370
     9
100
AcDbLine
 10
-156.9284604046795
 20
179.979719832137
 30
0.0
 11
-181.4284546310838
 21
179.979719832137
 31
0.0
  0
LINE
  5
14B
330
1F
100
AcDbEntity
  8
0-0
  6
Continuous
 62
     3
370
     9
100
AcDbLine
 10
-182.9284595798802
 20
153.9797206569364
 30
0.0
 11
-182.9284595798802
 21
178.4797148833405
 31
0.0
  0
LINE
  5
14C
330
1F
100
AcDbEntity
  8
0-0
  6
Continuous
 62
     3
370
     9
100
AcDbLine
 10
-281.4284628790778
 20
110.9797519993139
 30
0.0
 11
-305.9284571054819
 21
110.9797519993139
 31
0.0
  0
LINE
  5
14D
330
1F
100
AcDbEntity
  8
0-0
  6
Continuous
 62
     3
370
     9
100
AcDbLine
 10
-279.9284579302813
 20
112.479719832137
 30
0.0
 11
-279.9284579302813
 21
136.9797511745145
 31
0.0
  0
LINE
  5
14E
330
1F
100
AcDbEntity
  8
0-0
  6
Continuous
 62
     3
370
     9
100
AcDbLine
 10
-281.4284628790778
 20
138.4797190073376
 30
0.0
 11
-305.9284571054819
 21
138.4797190073376
 31
0.0
  0
LINE
  5
14F
330
1F
100
AcDbEntity
  8
0-0
  6
Continuous
 62
     3
370
     9
100
AcDbLine
 10
-307.4284620542784
 20
112.479719832137
 30
0.0
 11
-307.4284620542784
 21
136.9797511745145
 31
0.0
  0
LINE
  5
150
330
1F
100
AcDbEntity
  8
0-0
  6
Continuous
 62
     3
370
     9
100
AcDbLine
 10
-265.928461229479
 20
112.479719832137
 30
0.0
 11
-265.928461229479
 21
136.9797511745145
 31
0.0
  0
LINE
  5
151
330
1F
100
AcDbEntity
  8
0-0
  6
Continuous
 62
     3
370
     9
100
AcDbLine
 10
-239.9284620542784
 20
138.4797190073376
 30
0.0
 11
-264.4284562806825
 21
138.4797190073376
 31
0.0
  0
LINE
  5
152
330
1F
100
AcDbEntity
  8
0-0
  6
Continuous
 62
     3
370
     9
100
AcDbLine
 10
-238.428457105482
 20
112.479719832137
 30
0.0
 11
-238.428457105482
 21
136.9797511745145
 31
0.0
  0
LINE
  5
153
330
1F
100
AcDbEntity
  8
0-0
  6
Continuous
 62
     3
370
     9
100
AcDbLine
 10
-239.9284620542784
 20
110.9797519993139
 30
0.0
 11
-264.4284562806825
 21
110.9797519993139
 31
0.0
  0
LINE
  5
154
330
1F
100
AcDbEntity
  8
0-0
  6
Continuous
 62
     3
370
     9
100
AcDbLine
 10
-127.6784752510689
 20
283.2297511745145
 30
0.0
 11
72.32150412894586
 21
283.2297511745145
 31
0.0
  0
LINE
  5
155
330
1F
100
AcDbEntity
  8
0-0
  6
Continuous
 62
     3
370
     9
100
AcDbLine
 10
-98.42845298148484
 20
110.9797519993139
 30
0.0
 11
-73.9284587550807
 21
110.9797519993139
 31
0.0
  0
LINE
  5
156
330
1F
100
AcDbEntity
  8
0-0
  6
Continuous
 62
     3
370
     9
100
AcDbLine
 10
-99.92845793028133
 20
112.479719832137
 30
0.0
 11
-99.92845793028133
 21
136.9797511745145
 31
0.0
  0
LINE
  5
157
330
1F
100
AcDbEntity
  8
0-0
  6
Continuous
 62
     3
370
     9
100
AcDbLine
 10
-98.42845298148484
 20
138.4797190073376
 30
0.0
 11
-73.9284587550807
 21
138.4797190073376
 31
0.0
  0
LINE
  5
158
330
1F
100
AcDbEntity
  8
0-0
  6
Continuous
 62
     3
370
     9
100
AcDbLine
 10
-72.42845380628438
 20
112.479719832137
 30
0.0
 11
-72.42845380628438
 21
136.9797511745145
 31
0.0
  0
LINE
  5
159
330
1F
100
AcDbEntity
  8
0-0
  6
Continuous
 62
     3
370
     9
100
AcDbLine
 10
-198.428461229479
 20
110.9797519993139
 30
0.0
 11
-222.9284554558831
 21
110.9797519993139
 31
0.0
  0
LINE
  5
15A
330
1F
100
AcDbEntity
  8
0-0
  6
Continuous
 62
     3
370
     9
100
AcDbLine
 10
-196.9284562806825
 20
112.479719832137
 30
0.0
 11
-196.9284562806825
 21
136.9797511745145
 31
0.0
  0
LINE
  5
15B
330
1F
100
AcDbEntity
  8
0-0
  6
Continuous
 62
     3
370
     9
100
AcDbLine
 10
-198.428461229479
 20
138.4797190073376
 30
0.0
 11
-222.9284554558831
 21
138.4797190073376
 31
0.0
  0
LINE
  5
15C
330
1F
100
AcDbEntity
  8
0-0
  6
Continuous
 62
     3
370
     9
100
AcDbLine
 10
-224.4284604046795
 20
112.479719832137
 30
0.0
 11
-224.4284604046795
 21
136.9797511745145
 31
0.0
  0
LINE
  5
15D
330
1F
100
AcDbEntity
  8
0-0
  6
Continuous
 62
     3
370
     9
100
AcDbLine
 10
-98.42845298148484
 20
138.4797190073376
 30
0.0
 11
-73.9284587550807
 21
138.4797190073376
 31
0.0
  0
LINE
  5
15E
330
1F
100
AcDbEntity
  8
0-0
  6
Continuous
 62
     3
370
     9
100
AcDbLine
 10
-99.92845793028133
 20
112.479719832137
 30
0.0
 11
-99.92845793028133
 21
136.9797511745145
 31
0.0
  0
LINE
  5
15F
330
1F
100
AcDbEntity
  8
0-0
  6
Continuous
 62
     3
370
     9
100
AcDbLine
 10
-98.42845298148484
 20
110.9797519993139
 30
0.0
 11
-73.9284587550807
 21
110.9797519993139
 31
0.0
  0
LINE
  5
160
330
1F
100
AcDbEntity
  8
0-0
  6
Continuous
 62
     3
370
     9
100
AcDbLine
 10
-98.42845298148484
 20
235.4797544737121
 30
0.0
 11
-73.9284587550807
 21
235.4797544737121
 31
0.0
  0
LINE
  5
161
330
1F
100
AcDbEntity
  8
0-0
  6
Continuous
 62
     3
370
     9
100
AcDbLine
 10
-99.92845793028133
 20
236.9797594225086
 30
0.0
 11
-99.92845793028133
 21
261.4797165329393
 31
0.0
  0
LINE
  5
162
330
1F
100
AcDbEntity
  8
0-0
  6
Continuous
 62
     3
370
     9
100
AcDbLine
 10
-98.42845298148484
 20
262.9797214817358
 30
0.0
 11
-73.9284587550807
 21
262.9797214817358
 31
0.0
  0
LINE
  5
163
330
1F
100
AcDbEntity
  8
0-0
  6
Continuous
 62
     3
370
     9
100
AcDbLine
 10
-72.42845380628438
 20
236.9797594225086
 30
0.0
 11
-72.42845380628438
 21
261.4797165329393
 31
0.0
  0
LINE
  5
164
330
1F
100
AcDbEntity
  8
0-0
  6
Continuous
 62
     3
370
     9
100
AcDbLine
 10
-72.42845380628438
 20
195.4797214817358
 30
0.0
 11
-72.42845380628438
 21
219.9797528241133
 31
0.0
  0
LINE
  5
165
330
1F
100
AcDbEntity
  8
0-0
  6
Continuous
 62
     3
370
     9
100
AcDbLine
 10
-98.42845298148484
 20
221.4797577729098
 30
0.0
 11
-73.9284587550807
 21
221.4797577729098
 31
0.0
  0
LINE
  5
166
330
1F
100
AcDbEntity
  8
0-0
  6
Continuous
 62
     3
370
     9
100
AcDbLine
 10
-99.92845793028133
 20
195.4797214817358
 30
0.0
 11
-99.92845793028133
 21
219.9797528241133
 31
0.0
  0
LINE
  5
167
330
1F
100
AcDbEntity
  8
0-0
  6
Continuous
 62
     3
370
     9
100
AcDbLine
 10
-98.42845298148484
 20
193.9797165329393
 30
0.0
 11
-73.9284587550807
 21
193.9797165329393
 31
0.0
  0
LINE
  5
168
330
1F
100
AcDbEntity
  8
0-0
  6
Continuous
 62
     3
370
     9
100
AcDbLine
 10
-98.42845298148484
 20
152.4797528241133
 30
0.0
 11
-73.9284587550807
 21
152.4797528241133
 31
0.0
  0
LINE
  5
169
330
1F
100
AcDbEntity
  8
0-0
  6
Continuous
 62
     3
370
     9
100
AcDbLine
 10
-99.92845793028133
 20
153.9797206569364
 30
0.0
 11
-99.92845793028133
 21
178.4797148833405
 31
0.0
  0
LINE
  5
16A
330
1F
100
AcDbEntity
  8
0-0
  6
Continuous
 62
     3
370
     9
100
AcDbLine
 10
-98.42845298148484
 20
179.979719832137
 30
0.0
 11
-73.9284587550807
 21
179.979719832137
 31
0.0
  0
LINE
  5
16B
330
1F
100
AcDbEntity
  8
0-0
  6
Continuous
 62
     3
370
     9
100
AcDbLine
 10
-72.42845380628438
 20
153.9797206569364
 30
0.0
 11
-72.42845380628438
 21
178.4797148833405
 31
0.0
  0
LINE
  5
16C
330
1F
100
AcDbEntity
  8
0-0
  6
Continuous
 62
     3
370
     9
100
AcDbLine
 10
-113.9284546310838
 20
153.9797206569364
 30
0.0
 11
-113.9284546310838
 21
178.4797148833405
 31
0.0
  0
LINE
  5
16D
330
1F
100
AcDbEntity
  8
0-0
  6
Continuous
 62
     3
370
     9
100
AcDbLine
 10
-139.9284538062844
 20
179.979719832137
 30
0.0
 11
-115.4284595798802
 21
179.979719832137
 31
0.0
  0
LINE
  5
16E
330
1F
100
AcDbEntity
  8
0-0
  6
Continuous
 62
     3
370
     9
100
AcDbLine
 10
-141.4284587550807
 20
153.9797206569364
 30
0.0
 11
-141.4284587550807
 21
178.4797148833405
 31
0.0
  0
LINE
  5
16F
330
1F
100
AcDbEntity
  8
0-0
  6
Continuous
 62
     3
370
     9
100
AcDbLine
 10
-139.9284538062844
 20
152.4797528241133
 30
0.0
 11
-115.4284595798802
 21
152.4797528241133
 31
0.0
  0
LINE
  5
170
330
1F
100
AcDbEntity
  8
0-0
  6
Continuous
 62
     3
370
     9
100
AcDbLine
 10
-139.9284538062844
 20
193.9797165329393
 30
0.0
 11
-115.4284595798802
 21
193.9797165329393
 31
0.0
  0
LINE
  5
171
330
1F
100
AcDbEntity
  8
0-0
  6
Continuous
 62
     3
370
     9
100
AcDbLine
 10
-141.4284587550807
 20
195.4797214817358
 30
0.0
 11
-141.4284587550807
 21
219.9797528241133
 31
0.0
  0
LINE
  5
172
330
1F
100
AcDbEntity
  8
0-0
  6
Continuous
 62
     3
370
     9
100
AcDbLine
 10
-139.9284538062844
 20
221.4797577729098
 30
0.0
 11
-115.4284595798802
 21
221.4797577729098
 31
0.0
  0
LINE
  5
173
330
1F
100
AcDbEntity
  8
0-0
  6
Continuous
 62
     3
370
     9
100
AcDbLine
 10
-113.9284546310838
 20
195.4797214817358
 30
0.0
 11
-113.9284546310838
 21
219.9797528241133
 31
0.0
  0
LINE
  5
174
330
1F
100
AcDbEntity
  8
0-0
  6
Continuous
 62
     3
370
     9
100
AcDbLine
 10
-113.9284546310838
 20
236.9797594225086
 30
0.0
 11
-113.9284546310838
 21
261.4797165329393
 31
0.0
  0
LINE
  5
175
330
1F
100
AcDbEntity
  8
0-0
  6
Continuous
 62
     3
370
     9
100
AcDbLine
 10
-139.9284538062844
 20
262.9797214817358
 30
0.0
 11
-115.4284595798802
 21
262.9797214817358
 31
0.0
  0
LINE
  5
176
330
1F
100
AcDbEntity
  8
0-0
  6
Continuous
 62
     3
370
     9
100
AcDbLine
 10
-141.4284587550807
 20
236.9797594225086
 30
0.0
 11
-141.4284587550807
 21
261.4797165329393
 31
0.0
  0
LINE
  5
177
330
1F
100
AcDbEntity
  8
0-0
  6
Continuous
 62
     3
370
     9
100
AcDbLine
 10
-139.9284538062844
 20
235.4797544737121
 30
0.0
 11
-115.4284595798802
 21
235.4797544737121
 31
0.0
  0
LINE
  5
178
330
1F
100
AcDbEntity
  8
0-0
  6
Continuous
 62
     3
370
     9
100
AcDbLine
 10
-139.9284538062844
 20
110.9797519993139
 30
0.0
 11
-115.4284595798802
 21
110.9797519993139
 31
0.0
  0
LINE
  5
179
330
1F
100
AcDbEntity
  8
0-0
  6
Continuous
 62
     3
370
     9
100
AcDbLine
 10
-141.4284587550807
 20
112.479719832137
 30
0.0
 11
-141.4284587550807
 21
136.9797511745145
 31
0.0
  0
LINE
  5
17A
330
1F
100
AcDbEntity
  8
0-0
  6
Continuous
 62
     3
370
     9
100
AcDbLine
 10
-139.9284538062844
 20
138.4797190073376
 30
0.0
 11
-115.4284595798802
 21
138.4797190073376
 31
0.0
  0
LINE
  5
17B
330
1F
100
AcDbEntity
  8
0-0
  6
Continuous
 62
     3
370
     9
100
AcDbLine
 10
-113.9284546310838
 20
112.479719832137
 30
0.0
 11
-113.9284546310838
 21
136.9797511745145
 31
0.0
  0
LINE
  5
17C
330
1F
100
AcDbEntity
  8
0-0
  6
Continuous
 62
     3
370
     9
100
AcDbLine
 10
-139.9284538062844
 20
138.4797190073376
 30
0.0
 11
-115.4284595798802
 21
138.4797190073376
 31
0.0
  0
LINE
  5
17D
330
1F
100
AcDbEntity
  8
0-0
  6
Continuous
 62
     3
370
     9
100
AcDbLine
 10
-141.4284587550807
 20
112.479719832137
 30
0.0
 11
-141.4284587550807
 21
136.9797511745145
 31
0.0
  0
LINE
  5
17E
330
1F
100
AcDbEntity
  8
0-0
  6
Continuous
 62
     3
370
     9
100
AcDbLine
 10
-139.9284538062844
 20
110.9797519993139
 30
0.0
 11
-115.4284595798802
 21
110.9797519993139
 31
0.0
  0
LINE
  5
17F
330
1F
100
AcDbEntity
  8
0-0
  6
Continuous
 62
     3
370
     9
100
AcDbLine
 10
-139.9284538062844
 20
235.4797544737121
 30
0.0
 11
-115.4284595798802
 21
235.4797544737121
 31
0.0
  0
LINE
  5
180
330
1F
100
AcDbEntity
  8
0-0
  6
Continuous
 62
     3
370
     9
100
AcDbLine
 10
-141.4284587550807
 20
236.9797594225086
 30
0.0
 11
-141.4284587550807
 21
261.4797165329393
 31
0.0
  0
LINE
  5
181
330
1F
100
AcDbEntity
  8
0-0
  6
Continuous
 62
     3
370
     9
100
AcDbLine
 10
-139.9284538062844
 20
262.9797214817358
 30
0.0
 11
-115.4284595798802
 21
262.9797214817358
 31
0.0
  0
LINE
  5
182
330
1F
100
AcDbEntity
  8
0-0
  6
Continuous
 62
     3
370
     9
100
AcDbLine
 10
-113.9284546310838
 20
236.9797594225086
 30
0.0
 11
-113.9284546310838
 21
261.4797165329393
 31
0.0
  0
LINE
  5
183
330
1F
100
AcDbEntity
  8
0-0
  6
Continuous
 62
     3
370
     9
100
AcDbLine
 10
-113.9284546310838
 20
195.4797214817358
 30
0.0
 11
-113.9284546310838
 21
219.9797528241133
 31
0.0
  0
LINE
  5
184
330
1F
100
AcDbEntity
  8
0-0
  6
Continuous
 62
     3
370
     9
100
AcDbLine
 10
-139.9284538062844
 20
221.4797577729098
 30
0.0
 11
-115.4284595798802
 21
221.4797577729098
 31
0.0
  0
LINE
  5
185
330
1F
100
AcDbEntity
  8
0-0
  6
Continuous
 62
     3
370
     9
100
AcDbLine
 10
-141.4284587550807
 20
195.4797214817358
 30
0.0
 11
-141.4284587550807
 21
219.9797528241133
 31
0.0
  0
LINE
  5
186
330
1F
100
AcDbEntity
  8
0-0
  6
Continuous
 62
     3
370
     9
100
AcDbLine
 10
-139.9284538062844
 20
193.9797165329393
 30
0.0
 11
-115.4284595798802
 21
193.9797165329393
 31
0.0
  0
LINE
  5
187
330
1F
100
AcDbEntity
  8
0-0
  6
Continuous
 62
     3
370
     9
100
AcDbLine
 10
-139.9284538062844
 20
152.4797528241133
 30
0.0
 11
-115.4284595798802
 21
152.4797528241133
 31
0.0
  0
LINE
  5
188
330
1F
100
AcDbEntity
  8
0-0
  6
Continuous
 62
     3
370
     9
100
AcDbLine
 10
-141.4284587550807
 20
153.9797206569364
 30
0.0
 11
-141.4284587550807
 21
178.4797148833405
 31
0.0
  0
LINE
  5
189
330
1F
100
AcDbEntity
  8
0-0
  6
Continuous
 62
     3
370
     9
100
AcDbLine
 10
-139.9284538062844
 20
179.979719832137
 30
0.0
 11
-115.4284595798802
 21
179.979719832137
 31
0.0
  0
LINE
  5
18A
330
1F
100
AcDbEntity
  8
0-0
  6
Continuous
 62
     3
370
     9
100
AcDbLine
 10
-113.9284546310838
 20
153.9797206569364
 30
0.0
 11
-113.9284546310838
 21
178.4797148833405
 31
0.0
  0
LINE
  5
18B
330
1F
100
AcDbEntity
  8
0-F
  6
Continuous
 62
     7
370
     9
100
AcDbLine
 10
-131.8634497152792
 20
-191.7702323294973
 30
0.0
 11
-327.6784917470571
 21
-191.7702323294973
 31
0.0
  0
LINE
  5
18C
330
1F
100
AcDbEntity
  8
0-F
  6
Continuous
 62
     7
370
     9
100
AcDbLine
 10
267.3215536169105
 20
-124.2702323294973
 30
0.0
 11
267.3215536169105
 21
-169.2702323294973
 31
0.0
  0
LINE
  5
18D
330
1F
100
AcDbEntity
  8
0-0
  6
Continuous
 62
     3
370
     9
100
AcDbLine
 10
-113.9284546310838
 20
12.47974870011626
 30
0.0
 11
-113.9284546310838
 21
-12.02024552628788
 31
0.0
  0
LINE
  5
18E
330
1F
100
AcDbEntity
  8
0-0
  6
Continuous
 62
     3
370
     9
100
AcDbLine
 10
-139.9284538062844
 20
-13.52025047508437
 30
0.0
 11
-115.4284595798802
 21
-13.52025047508437
 31
0.0
  0
LINE
  5
18F
330
1F
100
AcDbEntity
  8
0-0
  6
Continuous
 62
     3
370
     9
100
AcDbLine
 10
-141.4284587550807
 20
12.47974870011626
 30
0.0
 11
-141.4284587550807
 21
-12.02024552628788
 31
0.0
  0
LINE
  5
190
330
1F
100
AcDbEntity
  8
0-0
  6
Continuous
 62
     3
370
     9
100
AcDbLine
 10
-139.9284538062844
 20
13.97975364891275
 30
0.0
 11
-115.4284595798802
 21
13.97975364891275
 31
0.0
  0
LINE
  5
191
330
1F
100
AcDbEntity
  8
0-0
  6
Continuous
 62
     3
370
     9
100
AcDbLine
 10
-139.9284538062844
 20
-27.52024717588671
 30
0.0
 11
-115.4284595798802
 21
-27.52024717588671
 31
0.0
  0
LINE
  5
192
330
1F
100
AcDbEntity
  8
0-0
  6
Continuous
 62
     3
370
     9
100
AcDbLine
 10
-141.4284587550807
 20
-29.02025212468311
 30
0.0
 11
-141.4284587550807
 21
-53.52024635108734
 31
0.0
  0
LINE
  5
193
330
1F
100
AcDbEntity
  8
0-0
  6
Continuous
 62
     3
370
     9
100
AcDbLine
 10
-139.9284538062844
 20
-55.02025129988374
 30
0.0
 11
-115.4284595798802
 21
-55.02025129988374
 31
0.0
  0
LINE
  5
194
330
1F
100
AcDbEntity
  8
0-0
  6
Continuous
 62
     3
370
     9
100
AcDbLine
 10
-113.9284546310838
 20
-29.02025212468311
 30
0.0
 11
-113.9284546310838
 21
-53.52024635108734
 31
0.0
  0
LINE
  5
195
330
1F
100
AcDbEntity
  8
0-0
  6
Continuous
 62
     3
370
     9
100
AcDbLine
 10
-113.9284546310838
 20
-70.52025294948257
 30
0.0
 11
-113.9284546310838
 21
-95.02024717588671
 31
0.0
  0
LINE
  5
196
330
1F
100
AcDbEntity
  8
0-0
  6
Continuous
 62
     3
370
     9
100
AcDbLine
 10
-139.9284538062844
 20
-96.52025212468311
 30
0.0
 11
-115.4284595798802
 21
-96.52025212468311
 31
0.0
  0
LINE
  5
197
330
1F
100
AcDbEntity
  8
0-0
  6
Continuous
 62
     3
370
     9
100
AcDbLine
 10
-141.4284587550807
 20
-70.52025294948257
 30
0.0
 11
-141.4284587550807
 21
-95.02024717588671
 31
0.0
  0
LINE
  5
198
330
1F
100
AcDbEntity
  8
0-0
  6
Continuous
 62
     3
370
     9
100
AcDbLine
 10
-139.9284538062844
 20
-69.02024800068608
 30
0.0
 11
-115.4284595798802
 21
-69.02024800068608
 31
0.0
  0
LINE
  5
199
330
1F
100
AcDbEntity
  8
0-0
  6
Continuous
 62
     3
370
     9
100
AcDbLine
 10
-139.9284538062844
 20
55.47971735773876
 30
0.0
 11
-115.4284595798802
 21
55.47971735773876
 31
0.0
  0
LINE
  5
19A
330
1F
100
AcDbEntity
  8
0-0
  6
Continuous
 62
     3
370
     9
100
AcDbLine
 10
-141.4284587550807
 20
53.97974952491563
 30
0.0
 11
-141.4284587550807
 21
29.47975529851149
 31
0.0
  0
LINE
  5
19B
330
1F
100
AcDbEntity
  8
0-0
  6
Continuous
 62
     3
370
     9
100
AcDbLine
 10
-139.9284538062844
 20
27.97975034971518
 30
0.0
 11
-115.4284595798802
 21
27.97975034971518
 31
0.0
  0
LINE
  5
19C
330
1F
100
AcDbEntity
  8
0-0
  6
Continuous
 62
     3
370
     9
100
AcDbLine
 10
-113.9284546310838
 20
53.97974952491563
 30
0.0
 11
-113.9284546310838
 21
29.47975529851149
 31
0.0
  0
LINE
  5
19D
330
1F
100
AcDbEntity
  8
0-0
  6
Continuous
 62
     3
370
     9
100
AcDbLine
 10
-113.9284546310838
 20
95.47975034971513
 30
0.0
 11
-113.9284546310838
 21
70.97971900733751
 31
0.0
  0
LINE
  5
19E
330
1F
100
AcDbEntity
  8
0-0
  6
Continuous
 62
     3
370
     9
100
AcDbLine
 10
-139.9284538062844
 20
69.4797511745145
 30
0.0
 11
-115.4284595798802
 21
69.4797511745145
 31
0.0
  0
LINE
  5
19F
330
1F
100
AcDbEntity
  8
0-0
  6
Continuous
 62
     3
370
     9
100
AcDbLine
 10
-141.4284587550807
 20
95.47975034971513
 30
0.0
 11
-141.4284587550807
 21
70.97971900733751
 31
0.0
  0
LINE
  5
1A0
330
1F
100
AcDbEntity
  8
0-0
  6
Continuous
 62
     3
370
     9
100
AcDbLine
 10
-139.9284538062844
 20
96.97971818253814
 30
0.0
 11
-115.4284595798802
 21
96.97971818253814
 31
0.0
  0
LINE
  5
1A1
330
1F
100
AcDbEntity
  8
0-0
  6
Continuous
 62
     3
370
     9
100
AcDbLine
 10
-182.9284595798802
 20
95.47975034971513
 30
0.0
 11
-182.9284595798802
 21
70.97971900733751
 31
0.0
  0
LINE
  5
1A2
330
1F
100
AcDbEntity
  8
0-0
  6
Continuous
 62
     3
370
     9
100
AcDbLine
 10
-156.9284604046795
 20
69.4797511745145
 30
0.0
 11
-181.4284546310838
 21
69.4797511745145
 31
0.0
  0
LINE
  5
1A3
330
1F
100
AcDbEntity
  8
0-0
  6
Continuous
 62
     3
370
     9
100
AcDbLine
 10
-155.4284554558831
 20
95.47975034971513
 30
0.0
 11
-155.4284554558831
 21
70.97971900733751
 31
0.0
  0
LINE
  5
1A4
330
1F
100
AcDbEntity
  8
0-0
  6
Continuous
 62
     3
370
     9
100
AcDbLine
 10
-156.9284604046795
 20
96.97971818253814
 30
0.0
 11
-181.4284546310838
 21
96.97971818253814
 31
0.0
  0
LINE
  5
1A5
330
1F
100
AcDbEntity
  8
0-0
  6
Continuous
 62
     3
370
     9
100
AcDbLine
 10
-281.4284628790778
 20
96.97971818253814
 30
0.0
 11
-305.9284571054819
 21
96.97971818253814
 31
0.0
  0
LINE
  5
1A6
330
1F
100
AcDbEntity
  8
0-0
  6
Continuous
 62
     3
370
     9
100
AcDbLine
 10
-279.9284579302813
 20
95.47975034971513
 30
0.0
 11
-279.9284579302813
 21
70.97971900733751
 31
0.0
  0
LINE
  5
1A7
330
1F
100
AcDbEntity
  8
0-0
  6
Continuous
 62
     3
370
     9
100
AcDbLine
 10
-281.4284628790778
 20
69.4797511745145
 30
0.0
 11
-305.9284571054819
 21
69.4797511745145
 31
0.0
  0
LINE
  5
1A8
330
1F
100
AcDbEntity
  8
0-0
  6
Continuous
 62
     3
370
     9
100
AcDbLine
 10
-307.4284620542784
 20
95.47975034971513
 30
0.0
 11
-307.4284620542784
 21
70.97971900733751
 31
0.0
  0
LINE
  5
1A9
330
1F
100
AcDbEntity
  8
0-0
  6
Continuous
 62
     3
370
     9
100
AcDbLine
 10
-265.928461229479
 20
95.47975034971513
 30
0.0
 11
-265.928461229479
 21
70.97971900733751
 31
0.0
  0
LINE
  5
1AA
330
1F
100
AcDbEntity
  8
0-0
  6
Continuous
 62
     3
370
     9
100
AcDbLine
 10
-239.9284620542784
 20
69.4797511745145
 30
0.0
 11
-264.4284562806825
 21
69.4797511745145
 31
0.0
  0
LINE
  5
1AB
330
1F
100
AcDbEntity
  8
0-0
  6
Continuous
 62
     3
370
     9
100
AcDbLine
 10
-127.6784752510689
 20
-116.7702447014884
 30
0.0
 11
72.32150412894586
 21
-116.7702447014884
 31
0.0
  0
LINE
  5
1AC
330
1F
100
AcDbEntity
  8
0-0
  6
Continuous
 62
     3
370
     9
100
AcDbLine
 10
72.32150412894586
 20
83.22973467852638
 30
0.0
 11
72.32150412894586
 21
-116.7702447014884
 31
0.0
  0
LINE
  5
1AD
330
1F
100
AcDbEntity
  8
0-0
  6
Continuous
 62
     3
370
     9
100
AcDbLine
 10
-127.6784752510689
 20
-116.7702447014884
 30
0.0
 11
72.32150412894586
 21
-116.7702447014884
 31
0.0
  0
LINE
  5
1AE
330
1F
100
AcDbEntity
  8
0-0
  6
Continuous
 62
     3
370
     9
100
AcDbLine
 10
-127.6784752510689
 20
-116.7702447014884
 30
0.0
 11
-327.6784917470571
 21
-116.7702447014884
 31
0.0
  0
LINE
  5
1AF
330
1F
100
AcDbEntity
  8
0-0
  6
Continuous
 62
     3
370
     9
100
AcDbLine
 10
-327.6784917470571
 20
83.22973467852638
 30
0.0
 11
-327.6784917470571
 21
-116.7702447014884
 31
0.0
  0
LINE
  5
1B0
330
1F
100
AcDbEntity
  8
0-0
  6
Continuous
 62
     3
370
     9
100
AcDbLine
 10
-127.6784752510689
 20
-116.7702447014884
 30
0.0
 11
-327.6784917470571
 21
-116.7702447014884
 31
0.0
  0
LINE
  5
1B1
330
1F
100
AcDbEntity
  8
0-0
  6
Continuous
 62
     3
370
     9
100
AcDbLine
 10
-238.428457105482
 20
95.47975034971513
 30
0.0
 11
-238.428457105482
 21
70.97971900733751
 31
0.0
  0
LINE
  5
1B2
330
1F
100
AcDbEntity
  8
0-0
  6
Continuous
 62
     3
370
     9
100
AcDbLine
 10
-239.9284620542784
 20
96.97971818253814
 30
0.0
 11
-264.4284562806825
 21
96.97971818253814
 31
0.0
  0
LINE
  5
1B3
330
1F
100
AcDbEntity
  8
0-0
  6
Continuous
 62
     3
370
     9
100
AcDbLine
 10
-198.428461229479
 20
96.97971818253814
 30
0.0
 11
-222.9284554558831
 21
96.97971818253814
 31
0.0
  0
LINE
  5
1B4
330
1F
100
AcDbEntity
  8
0-0
  6
Continuous
 62
     3
370
     9
100
AcDbLine
 10
-196.9284562806825
 20
95.47975034971513
 30
0.0
 11
-196.9284562806825
 21
70.97971900733751
 31
0.0
  0
LINE
  5
1B5
330
1F
100
AcDbEntity
  8
0-0
  6
Continuous
 62
     3
370
     9
100
AcDbLine
 10
-198.428461229479
 20
69.4797511745145
 30
0.0
 11
-222.9284554558831
 21
69.4797511745145
 31
0.0
  0
LINE
  5
1B6
330
1F
100
AcDbEntity
  8
0-0
  6
Continuous
 62
     3
370
     9
100
AcDbLine
 10
-224.4284604046795
 20
95.47975034971513
 30
0.0
 11
-224.4284604046795
 21
70.97971900733751
 31
0.0
  0
LINE
  5
1B7
330
1F
100
AcDbEntity
  8
0-0
  6
Continuous
 62
     3
370
     9
100
AcDbLine
 10
-30.92845298148484
 20
95.47975034971513
 30
0.0
 11
-30.92845298148484
 21
70.97971900733751
 31
0.0
  0
LINE
  5
1B8
330
1F
100
AcDbEntity
  8
0-0
  6
Continuous
 62
     3
370
     9
100
AcDbLine
 10
-56.92845215668547
 20
69.4797511745145
 30
0.0
 11
-32.42845793028133
 21
69.4797511745145
 31
0.0
  0
LINE
  5
1B9
330
1F
100
AcDbEntity
  8
0-0
  6
Continuous
 62
     3
370
     9
100
AcDbLine
 10
-58.42845710548195
 20
95.47975034971513
 30
0.0
 11
-58.42845710548195
 21
70.97971900733751
 31
0.0
  0
LINE
  5
1BA
330
1F
100
AcDbEntity
  8
0-0
  6
Continuous
 62
     3
370
     9
100
AcDbLine
 10
-56.92845215668547
 20
96.97971818253814
 30
0.0
 11
-32.42845793028133
 21
96.97971818253814
 31
0.0
  0
LINE
  5
1BB
330
1F
100
AcDbEntity
  8
0-0
  6
Continuous
 62
     3
370
     9
100
AcDbLine
 10
-15.42845133188601
 20
96.97971818253814
 30
0.0
 11
9.071580010491488
 21
96.97971818253814
 31
0.0
  0
LINE
  5
1BC
330
1F
100
AcDbEntity
  8
0-0
  6
Continuous
 62
     3
370
     9
100
AcDbLine
 10
-16.92845628068258
 20
95.47975034971513
 30
0.0
 11
-16.92845628068258
 21
70.97971900733751
 31
0.0
  0
LINE
  5
1BD
330
1F
100
AcDbEntity
  8
0-0
  6
Continuous
 62
     3
370
     9
100
AcDbLine
 10
-15.42845133188601
 20
69.4797511745145
 30
0.0
 11
9.071580010491488
 21
69.4797511745145
 31
0.0
  0
LINE
  5
1BE
330
1F
100
AcDbEntity
  8
0-0
  6
Continuous
 62
     3
370
     9
100
AcDbLine
 10
10.57151072734118
 20
95.47975034971513
 30
0.0
 11
10.57151072734118
 21
70.97971900733751
 31
0.0
  0
LINE
  5
1BF
330
1F
100
AcDbEntity
  8
0-0
  6
Continuous
 62
     3
370
     9
100
AcDbLine
 10
52.07154866811399
 20
95.47975034971513
 30
0.0
 11
52.07154866811399
 21
70.97971900733751
 31
0.0
  0
LINE
  5
1C0
330
1F
100
AcDbEntity
  8
0-0
  6
Continuous
 62
     3
370
     9
100
AcDbLine
 10
26.0715866088868
 20
69.4797511745145
 30
0.0
 11
50.57154371931742
 21
69.4797511745145
 31
0.0
  0
LINE
  5
1C1
330
1F
100
AcDbEntity
  8
0-0
  6
Continuous
 62
     3
370
     9
100
AcDbLine
 10
24.57150742814343
 20
95.47975034971513
 30
0.0
 11
24.57150742814343
 21
70.97971900733751
 31
0.0
  0
LINE
  5
1C2
330
1F
100
AcDbEntity
  8
0-0
  6
Continuous
 62
     3
370
     9
100
AcDbLine
 10
26.0715866088868
 20
96.97971818253814
 30
0.0
 11
50.57154371931742
 21
96.97971818253814
 31
0.0
  0
LINE
  5
1C3
330
1F
100
AcDbEntity
  8
0-0
  6
Continuous
 62
     3
370
     9
100
AcDbLine
 10
-98.42845298148484
 20
96.97971818253814
 30
0.0
 11
-73.9284587550807
 21
96.97971818253814
 31
0.0
  0
LINE
  5
1C4
330
1F
100
AcDbEntity
  8
0-0
  6
Continuous
 62
     3
370
     9
100
AcDbLine
 10
-99.92845793028133
 20
95.47975034971513
 30
0.0
 11
-99.92845793028133
 21
70.97971900733751
 31
0.0
  0
LINE
  5
1C5
330
1F
100
AcDbEntity
  8
0-0
  6
Continuous
 62
     3
370
     9
100
AcDbLine
 10
-98.42845298148484
 20
69.4797511745145
 30
0.0
 11
-73.9284587550807
 21
69.4797511745145
 31
0.0
  0
LINE
  5
1C6
330
1F
100
AcDbEntity
  8
0-0
  6
Continuous
 62
     3
370
     9
100
AcDbLine
 10
-72.42845380628438
 20
95.47975034971513
 30
0.0
 11
-72.42845380628438
 21
70.97971900733751
 31
0.0
  0
LINE
  5
1C7
330
1F
100
AcDbEntity
  8
0-0
  6
Continuous
 62
     3
370
     9
100
AcDbLine
 10
-127.6784752510689
 20
283.2297511745145
 30
0.0
 11
-327.6784917470571
 21
283.2297511745145
 31
0.0
  0
LINE
  5
1C8
330
1F
100
AcDbEntity
  8
0-0
  6
Continuous
 62
     3
370
     9
100
AcDbLine
 10
-327.6784917470571
 20
83.22973467852638
 30
0.0
 11
-327.6784917470571
 21
283.2297511745145
 31
0.0
  0
LINE
  5
1C9
330
1F
100
AcDbEntity
  8
0-0
  6
Continuous
 62
     3
370
     9
100
AcDbLine
 10
-127.6784752510689
 20
283.2297511745145
 30
0.0
 11
-327.6784917470571
 21
283.2297511745145
 31
0.0
  0
LINE
  5
1CA
330
1F
100
AcDbEntity
  8
0-F
  6
Continuous
 62
     7
370
     9
100
AcDbLine
 10
-327.6784917470571
 20
-191.7702323294973
 30
0.0
 11
-320.2426405210753
 21
-190.7912614152237
 31
0.0
  0
LINE
  5
1CB
330
1F
100
AcDbEntity
  8
0-F
  6
Continuous
 62
     7
370
     9
100
AcDbLine
 10
-327.6784917470571
 20
-191.7702323294973
 30
0.0
 11
-320.2426405210753
 21
-192.749203243771
 31
0.0
  0
LINE
  5
1CC
330
1F
100
AcDbEntity
  8
0-F
  6
Continuous
 62
     7
370
     9
100
AcDbLine
 10
-131.8634497152792
 20
-191.7702323294973
 30
0.0
 11
72.32150412894586
 21
-191.7702323294973
 31
0.0
  0
LINE
  5
1CD
330
1F
100
AcDbEntity
  8
0-F
  6
Continuous
 62
     7
370
     9
100
AcDbLine
 10
72.32150412894586
 20
-191.7702323294973
 30
0.0
 11
64.88569001893742
 21
-192.749203243771
 31
0.0
  0
LINE
  5
1CE
330
1F
100
AcDbEntity
  8
0-F
  6
Continuous
 62
     7
370
     9
100
AcDbLine
 10
72.32150412894586
 20
-191.7702323294973
 30
0.0
 11
64.88569001893742
 21
-190.7912614152237
 31
0.0
  0
LINE
  5
1CF
330
1F
100
AcDbEntity
  8
0-F
  6
Continuous
 62
     7
370
     9
100
AcDbLine
 10
267.3215536169105
 20
-161.7702447014884
 30
0.0
 11
259.885739506902
 21
-162.7491970577754
 31
0.0
  0
LINE
  5
1D0
330
1F
100
AcDbEntity
  8
0-F
  6
Continuous
 62
     7
370
     9
100
AcDbLine
 10
267.3215536169105
 20
-161.7702447014884
 30
0.0
 11
259.885739506902
 21
-160.7912923452016
 31
0.0
  0
LINE
  5
1D1
330
1F
100
AcDbEntity
  8
0-F
  6
Continuous
 62
     7
370
     9
100
AcDbLine
 10
279.321593207282
 20
-161.7702447014884
 30
0.0
 11
286.7574073172905
 21
-160.7912923452016
 31
0.0
  0
LINE
  5
1D2
330
1F
100
AcDbEntity
  8
0-F
  6
Continuous
 62
     7
370
     9
100
AcDbLine
 10
279.321593207282
 20
-161.7702447014884
 30
0.0
 11
286.7574073172905
 21
-162.7491970577754
 31
0.0
  0
LINE
  5
1D3
330
1F
100
AcDbEntity
  8
0-F
  6
Continuous
 62
     7
370
     9
100
AcDbLine
 10
267.3215536169105
 20
-191.7702508874841
 30
0.0
 11
259.885739506902
 21
-192.7492218017576
 31
0.0
  0
LINE
  5
1D4
330
1F
100
AcDbEntity
  8
0-F
  6
Continuous
 62
     7
370
     9
100
AcDbLine
 10
267.3215536169105
 20
-191.7702508874841
 30
0.0
 11
259.885739506902
 21
-190.7912799732104
 31
0.0
  0
LINE
  5
1D5
330
1F
100
AcDbEntity
  8
0-F
  6
Continuous
 62
     7
370
     9
100
AcDbLine
 10
292.3216113528689
 20
-191.7702508874841
 30
0.0
 11
299.7574254628773
 21
-190.7912799732104
 31
0.0
  0
LINE
  5
1D6
330
1F
100
AcDbEntity
  8
0-F
  6
Continuous
 62
     7
370
     9
100
AcDbLine
 10
292.3216113528689
 20
-191.7702508874841
 30
0.0
 11
299.7574254628773
 21
-192.7492218017576
 31
0.0
  0
LINE
  5
1D7
330
1F
100
AcDbEntity
  8
0-F
  6
Continuous
 62
     7
370
     9
100
AcDbLine
 10
241.6123580932617
 20
-191.7702508874841
 30
0.0
 11
302.4910911353858
 21
-191.7702508874841
 31
0.0
  0
LINE
  5
1D8
330
1F
100
AcDbEntity
  8
0-F
  6
Continuous
 62
     7
370
     9
100
AcDbLine
 10
-327.6784917470571
 20
-119.770217483108
 30
0.0
 11
-327.6784917470571
 21
-192.4198360958613
 31
0.0
  0
LINE
  5
1D9
330
1F
100
AcDbEntity
  8
0-F
  6
Continuous
 62
     7
370
     9
100
AcDbLine
 10
-113.9284546310838
 20
-99.52026202227609
 30
0.0
 11
-113.9284546310838
 21
-163.1838807801941
 31
0.0
  0
LINE
  5
1DA
330
1F
100
AcDbEntity
  8
0-F
  6
Continuous
 62
     7
370
     9
100
AcDbLine
 10
-72.42845380628438
 20
-99.52026202227609
 30
0.0
 11
-72.42845380628438
 21
-163.4444720294023
 31
0.0
  0
LINE
  5
1DB
330
1F
100
AcDbEntity
  8
0-F
  6
Continuous
 62
     7
370
     9
100
AcDbLine
 10
-99.92845793028133
 20
-99.52026202227609
 30
0.0
 11
-99.92845793028133
 21
-164.1582493137667
 31
0.0
  0
LINE
  5
1DC
330
1F
100
AcDbEntity
  8
0-F
  6
Continuous
 62
     7
370
     9
100
AcDbLine
 10
72.32150412894586
 20
-119.770217483108
 30
0.0
 11
72.32150412894586
 21
-192.6822460277659
 31
0.0
  0
LINE
  5
1DD
330
1F
100
AcDbEntity
  8
0-F
  6
Continuous
 62
     7
370
     9
100
AcDbLine
 10
241.6123580932617
 20
-161.7702447014884
 30
0.0
 11
290.0140370549383
 21
-161.7702447014884
 31
0.0
  0
LINE
  5
1DE
330
1F
100
AcDbEntity
  8
0-F
  6
Continuous
 62
     7
370
     9
100
AcDbLine
 10
267.3215536169105
 20
-119.7702360410947
 30
0.0
 11
267.3215536169105
 21
-192.6822645857526
 31
0.0
  0
LINE
  5
1DF
330
1F
100
AcDbEntity
  8
0-F
  6
Continuous
 62
     7
370
     9
100
AcDbLine
 10
292.3216113528689
 20
-115.3620646708719
 30
0.0
 11
292.3216113528689
 21
-192.6822645857526
 31
0.0
  0
LINE
  5
1E0
330
1F
100
AcDbEntity
  8
0-F
  6
Continuous
 62
     7
370
     9
100
AcDbLine
 10
279.321593207282
 20
-101.6361694335936
 30
0.0
 11
279.321593207282
 21
-163.4444720294023
 31
0.0
  0
LINE
  5
1E1
330
1F
100
AcDbEntity
  8
0-F
  6
Continuous
 62
     7
370
     9
100
AcDbLine
 10
147.3215288729281
 20
79.04479733028938
 30
0.0
 11
147.3215288729281
 21
-116.7702447014884
 31
0.0
  0
LINE
  5
1E2
330
1F
100
AcDbEntity
  8
0-F
  6
Continuous
 62
     7
370
     9
100
AcDbLine
 10
117.3215041289459
 20
138.4797932392843
 30
0.0
 11
116.3425332146722
 21
145.9156444652662
 31
0.0
  0
LINE
  5
1E3
330
1F
100
AcDbEntity
  8
0-F
  6
Continuous
 62
     7
370
     9
100
AcDbLine
 10
117.3215041289459
 20
138.4797932392843
 30
0.0
 11
118.3004750432196
 21
145.9156444652662
 31
0.0
  0
LINE
  5
1E4
330
1F
100
AcDbEntity
  8
0-F
  6
Continuous
 62
     7
370
     9
100
AcDbLine
 10
117.3215041289459
 20
96.97979241448493
 30
0.0
 11
118.3004750432196
 21
89.54394118850306
 31
0.0
  0
LINE
  5
1E5
330
1F
100
AcDbEntity
  8
0-F
  6
Continuous
 62
     7
370
     9
100
AcDbLine
 10
117.3215041289459
 20
96.97979241448493
 30
0.0
 11
116.3425332146722
 21
89.54394118850306
 31
0.0
  0
LINE
  5
1E6
330
1F
100
AcDbEntity
  8
0-F
  6
Continuous
 62
     7
370
     9
100
AcDbLine
 10
117.3215041289459
 20
177.2521411792653
 30
0.0
 11
117.3215041289459
 21
110.9797891152873
 31
0.0
  0
LINE
  5
1E7
330
1F
100
AcDbEntity
  8
0-F
  6
Continuous
 62
     7
370
     9
100
AcDbLine
 10
117.3215041289459
 20
72.92055037214962
 30
0.0
 11
117.3215041289459
 21
110.9797891152873
 31
0.0
  0
LINE
  5
1E8
330
1F
100
AcDbEntity
  8
0-F
  6
Continuous
 62
     7
370
     9
100
AcDbLine
 10
147.3215288729281
 20
-116.7702447014884
 30
0.0
 11
146.3425579586544
 21
-109.3343934755066
 31
0.0
  0
LINE
  5
1E9
330
1F
100
AcDbEntity
  8
0-F
  6
Continuous
 62
     7
370
     9
100
AcDbLine
 10
147.3215288729281
 20
-116.7702447014884
 30
0.0
 11
148.3004997872018
 21
-109.3343934755066
 31
0.0
  0
LINE
  5
1EA
330
1F
100
AcDbEntity
  8
0-F
  6
Continuous
 62
     7
370
     9
100
AcDbLine
 10
147.3215288729281
 20
79.04479733028938
 30
0.0
 11
147.3215288729281
 21
283.2297511745145
 31
0.0
  0
LINE
  5
1EB
330
1F
100
AcDbEntity
  8
0-F
  6
Continuous
 62
     7
370
     9
100
AcDbLine
 10
147.3215288729281
 20
283.2297511745145
 30
0.0
 11
148.3004997872018
 21
275.7939370645061
 31
0.0
  0
LINE
  5
1EC
330
1F
100
AcDbEntity
  8
0-F
  6
Continuous
 62
     7
370
     9
100
AcDbLine
 10
147.3215288729281
 20
283.2297511745145
 30
0.0
 11
146.3425579586544
 21
275.7939370645061
 31
0.0
  0
LINE
  5
1ED
330
1F
100
AcDbEntity
  8
0-F
  6
Continuous
 62
     7
370
     9
100
AcDbLine
 10
75.32151402653875
 20
-116.7702447014884
 30
0.0
 11
147.9711326392921
 21
-116.7702447014884
 31
0.0
  0
LINE
  5
1EE
330
1F
100
AcDbEntity
  8
0-F
  6
Continuous
 62
     7
370
     9
100
AcDbLine
 10
55.07148433376
 20
96.97979241448493
 30
0.0
 11
118.7351030916781
 21
96.97979241448493
 31
0.0
  0
LINE
  5
1EF
330
1F
100
AcDbEntity
  8
0-F
  6
Continuous
 62
     7
370
     9
100
AcDbLine
 10
55.07148433376
 20
138.4797932392843
 30
0.0
 11
118.9957314568597
 21
138.4797932392843
 31
0.0
  0
LINE
  5
1F0
330
1F
100
AcDbEntity
  8
0-F
  6
Continuous
 62
     7
370
     9
100
AcDbLine
 10
55.07148433376
 20
110.9797891152873
 30
0.0
 11
119.7094716252509
 21
110.9797891152873
 31
0.0
  0
LINE
  5
1F1
330
1F
100
AcDbEntity
  8
0-F
  6
Continuous
 62
     7
370
     9
100
AcDbLine
 10
75.32151402653875
 20
283.2297511745145
 30
0.0
 11
148.2335425711968
 21
283.2297511745145
 31
0.0
  0
LINE
  5
1F2
330
1F
100
AcDbEntity
  8
0-0
  6
JWW_CENTER1
 62
     3
370
     9
100
AcDbLine
 10
252.3215783608927
 20
83.22973467852638
 30
0.0
 11
307.3215866088867
 21
83.22973467852638
 31
0.0
  0
LINE
  5
1F3
330
1F
100
AcDbEntity
  8
0-0
  6
JWW_CENTER1
 62
     3
370
     9
100
AcDbLine
 10
-127.6784752510689
 20
-131.7702570734795
 30
0.0
 11
-127.6784752510689
 21
298.2297264305323
 31
0.0
  0
LINE
  5
1F4
330
1F
100
AcDbEntity
  8
0-0
  6
JWW_CENTER1
 62
     3
370
     9
100
AcDbLine
 10
-342.6785041190482
 20
83.22973467852638
 30
0.0
 11
87.3214793849636
 21
83.22973467852638
 31
0.0
  0
ARC
  5
1F5
330
1F
100
AcDbEntity
  8
0-0
  6
Continuous
 62
     3
370
     9
100
AcDbCircle
 10
-98.42845298148484
 20
136.9797511745145
 30
0.0
 40
1.500000019331236
100
AcDbArc
 50
90.0
 51
179.999984741211
  0
ARC
  5
1F6
330
1F
100
AcDbEntity
  8
0-0
  6
Continuous
 62
     3
370
     9
100
AcDbCircle
 10
-73.9284587550807
 20
136.9797511745145
 30
0.0
 40
1.500000019331236
100
AcDbArc
 50
0.0
 51
90.0
  0
ARC
  5
1F7
330
1F
100
AcDbEntity
  8
0-0
  6
Continuous
 62
     3
370
     9
100
AcDbCircle
 10
-73.9284587550807
 20
112.479719832137
 30
0.0
 40
1.500000019331236
100
AcDbArc
 50
270.0
 51
0.0
  0
ARC
  5
1F8
330
1F
100
AcDbEntity
  8
0-0
  6
Continuous
 62
     3
370
     9
100
AcDbCircle
 10
-98.42845298148484
 20
112.479719832137
 30
0.0
 40
1.500000019331236
100
AcDbArc
 50
180.0
 51
270.0
  0
ARC
  5
1F9
330
1F
100
AcDbEntity
  8
0-0
  6
Continuous
 62
     3
370
     9
100
AcDbCircle
 10
-56.92845215668547
 20
112.479719832137
 30
0.0
 40
1.500000019331236
100
AcDbArc
 50
180.0
 51
270.0
  0
ARC
  5
1FA
330
1F
100
AcDbEntity
  8
0-0
  6
Continuous
 62
     3
370
     9
100
AcDbCircle
 10
-32.42845793028133
 20
112.479719832137
 30
0.0
 40
1.500000019331236
100
AcDbArc
 50
270.0
 51
0.0
  0
ARC
  5
1FB
330
1F
100
AcDbEntity
  8
0-0
  6
Continuous
 62
     3
370
     9
100
AcDbCircle
 10
-32.42845793028133
 20
136.9797511745145
 30
0.0
 40
1.500000019331236
100
AcDbArc
 50
0.0
 51
90.0
  0
ARC
  5
1FC
330
1F
100
AcDbEntity
  8
0-0
  6
Continuous
 62
     3
370
     9
100
AcDbCircle
 10
-56.92845215668547
 20
136.9797511745145
 30
0.0
 40
1.500000019331236
100
AcDbArc
 50
90.0
 51
179.999984741211
  0
ARC
  5
1FD
330
1F
100
AcDbEntity
  8
0-0
  6
Continuous
 62
     3
370
     9
100
AcDbCircle
 10
-15.42845133188601
 20
136.9797511745145
 30
0.0
 40
1.500000019331236
100
AcDbArc
 50
90.0
 51
179.999984741211
  0
ARC
  5
1FE
330
1F
100
AcDbEntity
  8
0-0
  6
Continuous
 62
     3
370
     9
100
AcDbCircle
 10
9.071580010491488
 20
136.9797511745145
 30
0.0
 40
1.500000019331236
100
AcDbArc
 50
0.0
 51
90.0
  0
ARC
  5
1FF
330
1F
100
AcDbEntity
  8
0-0
  6
Continuous
 62
     3
370
     9
100
AcDbCircle
 10
9.071580010491488
 20
112.479719832137
 30
0.0
 40
1.500000019331236
100
AcDbArc
 50
270.0
 51
0.0
  0
ARC
  5
200
330
1F
100
AcDbEntity
  8
0-0
  6
Continuous
 62
     3
370
     9
100
AcDbCircle
 10
-15.42845133188601
 20
112.479719832137
 30
0.0
 40
1.500000019331236
100
AcDbArc
 50
180.0
 51
270.0
  0
ARC
  5
201
330
1F
100
AcDbEntity
  8
0-0
  6
Continuous
 62
     3
370
     9
100
AcDbCircle
 10
26.0715866088868
 20
112.479719832137
 30
0.0
 40
1.500000019331236
100
AcDbArc
 50
180.0
 51
270.0
  0
ARC
  5
202
330
1F
100
AcDbEntity
  8
0-0
  6
Continuous
 62
     3
370
     9
100
AcDbCircle
 10
50.57154371931742
 20
112.479719832137
 30
0.0
 40
1.500000019331236
100
AcDbArc
 50
270.0
 51
0.0
  0
ARC
  5
203
330
1F
100
AcDbEntity
  8
0-0
  6
Continuous
 62
     3
370
     9
100
AcDbCircle
 10
50.57154371931742
 20
136.9797511745145
 30
0.0
 40
1.500000019331236
100
AcDbArc
 50
0.0
 51
90.0
  0
ARC
  5
204
330
1F
100
AcDbEntity
  8
0-0
  6
Continuous
 62
     3
370
     9
100
AcDbCircle
 10
26.0715866088868
 20
136.9797511745145
 30
0.0
 40
1.500000019331236
100
AcDbArc
 50
90.0
 51
179.999984741211
  0
ARC
  5
205
330
1F
100
AcDbEntity
  8
0-0
  6
Continuous
 62
     3
370
     9
100
AcDbCircle
 10
26.0715866088868
 20
178.4797148833405
 30
0.0
 40
1.500000019331236
100
AcDbArc
 50
90.0
 51
179.999984741211
  0
ARC
  5
206
330
1F
100
AcDbEntity
  8
0-0
  6
Continuous
 62
     3
370
     9
100
AcDbCircle
 10
50.57154371931742
 20
178.4797148833405
 30
0.0
 40
1.500000019331236
100
AcDbArc
 50
0.0
 51
90.0
  0
ARC
  5
207
330
1F
100
AcDbEntity
  8
0-0
  6
Continuous
 62
     3
370
     9
100
AcDbCircle
 10
50.57154371931742
 20
153.9797206569364
 30
0.0
 40
1.500000019331236
100
AcDbArc
 50
270.0
 51
0.0
  0
ARC
  5
208
330
1F
100
AcDbEntity
  8
0-0
  6
Continuous
 62
     3
370
     9
100
AcDbCircle
 10
26.0715866088868
 20
153.9797206569364
 30
0.0
 40
1.500000019331236
100
AcDbArc
 50
180.0
 51
270.0
  0
ARC
  5
209
330
1F
100
AcDbEntity
  8
0-0
  6
Continuous
 62
     3
370
     9
100
AcDbCircle
 10
-15.42845133188601
 20
153.9797206569364
 30
0.0
 40
1.500000019331236
100
AcDbArc
 50
180.0
 51
270.0
  0
ARC
  5
20A
330
1F
100
AcDbEntity
  8
0-0
  6
Continuous
 62
     3
370
     9
100
AcDbCircle
 10
9.071580010491488
 20
153.9797206569364
 30
0.0
 40
1.500000019331236
100
AcDbArc
 50
270.0
 51
0.0
  0
ARC
  5
20B
330
1F
100
AcDbEntity
  8
0-0
  6
Continuous
 62
     3
370
     9
100
AcDbCircle
 10
9.071580010491488
 20
178.4797148833405
 30
0.0
 40
1.500000019331236
100
AcDbArc
 50
0.0
 51
90.0
  0
ARC
  5
20C
330
1F
100
AcDbEntity
  8
0-0
  6
Continuous
 62
     3
370
     9
100
AcDbCircle
 10
-15.42845133188601
 20
178.4797148833405
 30
0.0
 40
1.500000019331236
100
AcDbArc
 50
90.0
 51
179.999984741211
  0
ARC
  5
20D
330
1F
100
AcDbEntity
  8
0-0
  6
Continuous
 62
     3
370
     9
100
AcDbCircle
 10
-56.92845215668547
 20
178.4797148833405
 30
0.0
 40
1.500000019331236
100
AcDbArc
 50
90.0
 51
179.999984741211
  0
ARC
  5
20E
330
1F
100
AcDbEntity
  8
0-0
  6
Continuous
 62
     3
370
     9
100
AcDbCircle
 10
-32.42845793028133
 20
178.4797148833405
 30
0.0
 40
1.500000019331236
100
AcDbArc
 50
0.0
 51
90.0
  0
ARC
  5
20F
330
1F
100
AcDbEntity
  8
0-0
  6
Continuous
 62
     3
370
     9
100
AcDbCircle
 10
-32.42845793028133
 20
153.9797206569364
 30
0.0
 40
1.500000019331236
100
AcDbArc
 50
270.0
 51
0.0
  0
ARC
  5
210
330
1F
100
AcDbEntity
  8
0-0
  6
Continuous
 62
     3
370
     9
100
AcDbCircle
 10
-56.92845215668547
 20
153.9797206569364
 30
0.0
 40
1.500000019331236
100
AcDbArc
 50
180.0
 51
270.0
  0
ARC
  5
211
330
1F
100
AcDbEntity
  8
0-0
  6
Continuous
 62
     3
370
     9
100
AcDbCircle
 10
-98.42845298148484
 20
153.9797206569364
 30
0.0
 40
1.500000019331236
100
AcDbArc
 50
180.0
 51
270.0
  0
ARC
  5
212
330
1F
100
AcDbEntity
  8
0-0
  6
Continuous
 62
     3
370
     9
100
AcDbCircle
 10
-73.9284587550807
 20
153.9797206569364
 30
0.0
 40
1.500000019331236
100
AcDbArc
 50
270.0
 51
0.0
  0
ARC
  5
213
330
1F
100
AcDbEntity
  8
0-0
  6
Continuous
 62
     3
370
     9
100
AcDbCircle
 10
-73.9284587550807
 20
178.4797148833405
 30
0.0
 40
1.500000019331236
100
AcDbArc
 50
0.0
 51
90.0
  0
ARC
  5
214
330
1F
100
AcDbEntity
  8
0-0
  6
Continuous
 62
     3
370
     9
100
AcDbCircle
 10
-98.42845298148484
 20
178.4797148833405
 30
0.0
 40
1.500000019331236
100
AcDbArc
 50
90.0
 51
179.999984741211
  0
ARC
  5
215
330
1F
100
AcDbEntity
  8
0-0
  6
Continuous
 62
     3
370
     9
100
AcDbCircle
 10
-98.42845298148484
 20
219.9797528241133
 30
0.0
 40
1.500000019331236
100
AcDbArc
 50
90.0
 51
179.999984741211
  0
ARC
  5
216
330
1F
100
AcDbEntity
  8
0-0
  6
Continuous
 62
     3
370
     9
100
AcDbCircle
 10
-73.9284587550807
 20
219.9797528241133
 30
0.0
 40
1.500000019331236
100
AcDbArc
 50
0.0
 51
90.0
  0
ARC
  5
217
330
1F
100
AcDbEntity
  8
0-0
  6
Continuous
 62
     3
370
     9
100
AcDbCircle
 10
-73.9284587550807
 20
195.4797214817358
 30
0.0
 40
1.500000019331236
100
AcDbArc
 50
270.0
 51
0.0
  0
ARC
  5
218
330
1F
100
AcDbEntity
  8
0-0
  6
Continuous
 62
     3
370
     9
100
AcDbCircle
 10
-98.42845298148484
 20
195.4797214817358
 30
0.0
 40
1.500000019331236
100
AcDbArc
 50
180.0
 51
270.0
  0
ARC
  5
219
330
1F
100
AcDbEntity
  8
0-0
  6
Continuous
 62
     3
370
     9
100
AcDbCircle
 10
-56.92845215668547
 20
195.4797214817358
 30
0.0
 40
1.500000019331236
100
AcDbArc
 50
180.0
 51
270.0
  0
ARC
  5
21A
330
1F
100
AcDbEntity
  8
0-0
  6
Continuous
 62
     3
370
     9
100
AcDbCircle
 10
-32.42845793028133
 20
195.4797214817358
 30
0.0
 40
1.500000019331236
100
AcDbArc
 50
270.0
 51
0.0
  0
ARC
  5
21B
330
1F
100
AcDbEntity
  8
0-0
  6
Continuous
 62
     3
370
     9
100
AcDbCircle
 10
-32.42845793028133
 20
219.9797528241133
 30
0.0
 40
1.500000019331236
100
AcDbArc
 50
0.0
 51
90.0
  0
ARC
  5
21C
330
1F
100
AcDbEntity
  8
0-0
  6
Continuous
 62
     3
370
     9
100
AcDbCircle
 10
-56.92845215668547
 20
219.9797528241133
 30
0.0
 40
1.500000019331236
100
AcDbArc
 50
90.0
 51
179.999984741211
  0
ARC
  5
21D
330
1F
100
AcDbEntity
  8
0-0
  6
Continuous
 62
     3
370
     9
100
AcDbCircle
 10
-15.42845133188601
 20
219.9797528241133
 30
0.0
 40
1.500000019331236
100
AcDbArc
 50
90.0
 51
179.999984741211
  0
ARC
  5
21E
330
1F
100
AcDbEntity
  8
0-0
  6
Continuous
 62
     3
370
     9
100
AcDbCircle
 10
9.071580010491488
 20
219.9797528241133
 30
0.0
 40
1.500000019331236
100
AcDbArc
 50
0.0
 51
90.0
  0
ARC
  5
21F
330
1F
100
AcDbEntity
  8
0-0
  6
Continuous
 62
     3
370
     9
100
AcDbCircle
 10
9.071580010491488
 20
195.4797214817358
 30
0.0
 40
1.500000019331236
100
AcDbArc
 50
270.0
 51
0.0
  0
ARC
  5
220
330
1F
100
AcDbEntity
  8
0-0
  6
Continuous
 62
     3
370
     9
100
AcDbCircle
 10
-15.42845133188601
 20
195.4797214817358
 30
0.0
 40
1.500000019331236
100
AcDbArc
 50
180.0
 51
270.0
  0
ARC
  5
221
330
1F
100
AcDbEntity
  8
0-0
  6
Continuous
 62
     3
370
     9
100
AcDbCircle
 10
26.0715866088868
 20
195.4797214817358
 30
0.0
 40
1.500000019331236
100
AcDbArc
 50
180.0
 51
270.0
  0
ARC
  5
222
330
1F
100
AcDbEntity
  8
0-0
  6
Continuous
 62
     3
370
     9
100
AcDbCircle
 10
50.57154371931742
 20
195.4797214817358
 30
0.0
 40
1.500000019331236
100
AcDbArc
 50
270.0
 51
0.0
  0
ARC
  5
223
330
1F
100
AcDbEntity
  8
0-0
  6
Continuous
 62
     3
370
     9
100
AcDbCircle
 10
50.57154371931742
 20
219.9797528241133
 30
0.0
 40
1.500000019331236
100
AcDbArc
 50
0.0
 51
90.0
  0
ARC
  5
224
330
1F
100
AcDbEntity
  8
0-0
  6
Continuous
 62
     3
370
     9
100
AcDbCircle
 10
26.0715866088868
 20
219.9797528241133
 30
0.0
 40
1.500000019331236
100
AcDbArc
 50
90.0
 51
179.999984741211
  0
ARC
  5
225
330
1F
100
AcDbEntity
  8
0-0
  6
Continuous
 62
     3
370
     9
100
AcDbCircle
 10
26.0715866088868
 20
261.4797165329393
 30
0.0
 40
1.500000019331236
100
AcDbArc
 50
90.0
 51
179.999984741211
  0
ARC
  5
226
330
1F
100
AcDbEntity
  8
0-0
  6
Continuous
 62
     3
370
     9
100
AcDbCircle
 10
50.57154371931742
 20
261.4797165329393
 30
0.0
 40
1.500000019331236
100
AcDbArc
 50
0.0
 51
90.0
  0
ARC
  5
227
330
1F
100
AcDbEntity
  8
0-0
  6
Continuous
 62
     3
370
     9
100
AcDbCircle
 10
50.57154371931742
 20
236.9797594225086
 30
0.0
 40
1.500000019331236
100
AcDbArc
 50
270.0
 51
0.0
  0
ARC
  5
228
330
1F
100
AcDbEntity
  8
0-0
  6
Continuous
 62
     3
370
     9
100
AcDbCircle
 10
26.0715866088868
 20
236.9797594225086
 30
0.0
 40
1.500000019331236
100
AcDbArc
 50
180.0
 51
270.0
  0
ARC
  5
229
330
1F
100
AcDbEntity
  8
0-0
  6
Continuous
 62
     3
370
     9
100
AcDbCircle
 10
-15.42845133188601
 20
236.9797594225086
 30
0.0
 40
1.500000019331236
100
AcDbArc
 50
180.0
 51
270.0
  0
ARC
  5
22A
330
1F
100
AcDbEntity
  8
0-0
  6
Continuous
 62
     3
370
     9
100
AcDbCircle
 10
9.071580010491488
 20
236.9797594225086
 30
0.0
 40
1.500000019331236
100
AcDbArc
 50
270.0
 51
0.0
  0
ARC
  5
22B
330
1F
100
AcDbEntity
  8
0-0
  6
Continuous
 62
     3
370
     9
100
AcDbCircle
 10
9.071580010491488
 20
261.4797165329393
 30
0.0
 40
1.500000019331236
100
AcDbArc
 50
0.0
 51
90.0
  0
ARC
  5
22C
330
1F
100
AcDbEntity
  8
0-0
  6
Continuous
 62
     3
370
     9
100
AcDbCircle
 10
-15.42845133188601
 20
261.4797165329393
 30
0.0
 40
1.500000019331236
100
AcDbArc
 50
90.0
 51
179.999984741211
  0
ARC
  5
22D
330
1F
100
AcDbEntity
  8
0-0
  6
Continuous
 62
     3
370
     9
100
AcDbCircle
 10
-56.92845215668547
 20
261.4797165329393
 30
0.0
 40
1.500000019331236
100
AcDbArc
 50
90.0
 51
179.999984741211
  0
ARC
  5
22E
330
1F
100
AcDbEntity
  8
0-0
  6
Continuous
 62
     3
370
     9
100
AcDbCircle
 10
-32.42845793028133
 20
261.4797165329393
 30
0.0
 40
1.500000019331236
100
AcDbArc
 50
0.0
 51
90.0
  0
ARC
  5
22F
330
1F
100
AcDbEntity
  8
0-0
  6
Continuous
 62
     3
370
     9
100
AcDbCircle
 10
-32.42845793028133
 20
236.9797594225086
 30
0.0
 40
1.500000019331236
100
AcDbArc
 50
270.0
 51
0.0
  0
ARC
  5
230
330
1F
100
AcDbEntity
  8
0-0
  6
Continuous
 62
     3
370
     9
100
AcDbCircle
 10
-56.92845215668547
 20
236.9797594225086
 30
0.0
 40
1.500000019331236
100
AcDbArc
 50
180.0
 51
270.0
  0
ARC
  5
231
330
1F
100
AcDbEntity
  8
0-0
  6
Continuous
 62
     3
370
     9
100
AcDbCircle
 10
-98.42845298148484
 20
236.9797594225086
 30
0.0
 40
1.500000019331236
100
AcDbArc
 50
180.0
 51
270.0
  0
ARC
  5
232
330
1F
100
AcDbEntity
  8
0-0
  6
Continuous
 62
     3
370
     9
100
AcDbCircle
 10
-73.9284587550807
 20
236.9797594225086
 30
0.0
 40
1.500000019331236
100
AcDbArc
 50
270.0
 51
0.0
  0
ARC
  5
233
330
1F
100
AcDbEntity
  8
0-0
  6
Continuous
 62
     3
370
     9
100
AcDbCircle
 10
-73.9284587550807
 20
261.4797165329393
 30
0.0
 40
1.500000019331236
100
AcDbArc
 50
0.0
 51
90.0
  0
ARC
  5
234
330
1F
100
AcDbEntity
  8
0-0
  6
Continuous
 62
     3
370
     9
100
AcDbCircle
 10
-98.42845298148484
 20
261.4797165329393
 30
0.0
 40
1.500000019331236
100
AcDbArc
 50
90.0
 51
179.999984741211
  0
ARC
  5
235
330
1F
100
AcDbEntity
  8
0-0
  6
Continuous
 62
     3
370
     9
100
AcDbCircle
 10
-98.42845298148484
 20
-95.02024717588671
 30
0.0
 40
1.500000019331236
100
AcDbArc
 50
180.0
 51
270.0
  0
ARC
  5
236
330
1F
100
AcDbEntity
  8
0-0
  6
Continuous
 62
     3
370
     9
100
AcDbCircle
 10
-73.9284587550807
 20
-95.02024717588671
 30
0.0
 40
1.500000019331236
100
AcDbArc
 50
270.0
 51
0.0
  0
ARC
  5
237
330
1F
100
AcDbEntity
  8
0-0
  6
Continuous
 62
     3
370
     9
100
AcDbCircle
 10
-73.9284587550807
 20
-70.52025294948257
 30
0.0
 40
1.500000019331236
100
AcDbArc
 50
359.9999847412109
 51
89.99999999999997
  0
ARC
  5
238
330
1F
100
AcDbEntity
  8
0-0
  6
Continuous
 62
     3
370
     9
100
AcDbCircle
 10
-98.42845298148484
 20
-70.52025294948257
 30
0.0
 40
1.500000019331236
100
AcDbArc
 50
90.0
 51
180.0
  0
ARC
  5
239
330
1F
100
AcDbEntity
  8
0-0
  6
Continuous
 62
     3
370
     9
100
AcDbCircle
 10
-56.92845215668547
 20
-70.52025294948257
 30
0.0
 40
1.500000019331236
100
AcDbArc
 50
90.0
 51
180.0
  0
ARC
  5
23A
330
1F
100
AcDbEntity
  8
0-0
  6
Continuous
 62
     3
370
     9
100
AcDbCircle
 10
-32.42845793028133
 20
-70.52025294948257
 30
0.0
 40
1.500000019331236
100
AcDbArc
 50
359.9999847412109
 51
89.99999999999997
  0
ARC
  5
23B
330
1F
100
AcDbEntity
  8
0-0
  6
Continuous
 62
     3
370
     9
100
AcDbCircle
 10
-32.42845793028133
 20
-95.02024717588671
 30
0.0
 40
1.500000019331236
100
AcDbArc
 50
270.0
 51
0.0
  0
ARC
  5
23C
330
1F
100
AcDbEntity
  8
0-0
  6
Continuous
 62
     3
370
     9
100
AcDbCircle
 10
-56.92845215668547
 20
-95.02024717588671
 30
0.0
 40
1.500000019331236
100
AcDbArc
 50
180.0
 51
270.0
  0
ARC
  5
23D
330
1F
100
AcDbEntity
  8
0-0
  6
Continuous
 62
     3
370
     9
100
AcDbCircle
 10
-15.42845133188601
 20
-95.02024717588671
 30
0.0
 40
1.500000019331236
100
AcDbArc
 50
180.0
 51
270.0
  0
ARC
  5
23E
330
1F
100
AcDbEntity
  8
0-0
  6
Continuous
 62
     3
370
     9
100
AcDbCircle
 10
9.071580010491488
 20
-95.02024717588671
 30
0.0
 40
1.500000019331236
100
AcDbArc
 50
270.0
 51
0.0
  0
ARC
  5
23F
330
1F
100
AcDbEntity
  8
0-0
  6
Continuous
 62
     3
370
     9
100
AcDbCircle
 10
9.071580010491488
 20
-70.52025294948257
 30
0.0
 40
1.500000019331236
100
AcDbArc
 50
359.9999847412109
 51
89.99999999999997
  0
ARC
  5
240
330
1F
100
AcDbEntity
  8
0-0
  6
Continuous
 62
     3
370
     9
100
AcDbCircle
 10
-15.42845133188601
 20
-70.52025294948257
 30
0.0
 40
1.500000019331236
100
AcDbArc
 50
90.0
 51
180.0
  0
ARC
  5
241
330
1F
100
AcDbEntity
  8
0-0
  6
Continuous
 62
     3
370
     9
100
AcDbCircle
 10
26.0715866088868
 20
-70.52025294948257
 30
0.0
 40
1.500000019331236
100
AcDbArc
 50
90.0
 51
180.0
  0
ARC
  5
242
330
1F
100
AcDbEntity
  8
0-0
  6
Continuous
 62
     3
370
     9
100
AcDbCircle
 10
50.57154371931742
 20
-70.52025294948257
 30
0.0
 40
1.500000019331236
100
AcDbArc
 50
359.9999847412109
 51
89.99999999999997
  0
ARC
  5
243
330
1F
100
AcDbEntity
  8
0-0
  6
Continuous
 62
     3
370
     9
100
AcDbCircle
 10
50.57154371931742
 20
-95.02024717588671
 30
0.0
 40
1.500000019331236
100
AcDbArc
 50
270.0
 51
0.0
  0
ARC
  5
244
330
1F
100
AcDbEntity
  8
0-0
  6
Continuous
 62
     3
370
     9
100
AcDbCircle
 10
26.0715866088868
 20
-95.02024717588671
 30
0.0
 40
1.500000019331236
100
AcDbArc
 50
180.0
 51
270.0
  0
ARC
  5
245
330
1F
100
AcDbEntity
  8
0-0
  6
Continuous
 62
     3
370
     9
100
AcDbCircle
 10
26.0715866088868
 20
-53.52024635108734
 30
0.0
 40
1.500000019331236
100
AcDbArc
 50
180.0
 51
270.0
  0
ARC
  5
246
330
1F
100
AcDbEntity
  8
0-0
  6
Continuous
 62
     3
370
     9
100
AcDbCircle
 10
50.57154371931742
 20
-53.52024635108734
 30
0.0
 40
1.500000019331236
100
AcDbArc
 50
270.0
 51
0.0
  0
ARC
  5
247
330
1F
100
AcDbEntity
  8
0-0
  6
Continuous
 62
     3
370
     9
100
AcDbCircle
 10
50.57154371931742
 20
-29.02025212468311
 30
0.0
 40
1.500000019331236
100
AcDbArc
 50
359.9999847412109
 51
89.99999999999997
  0
ARC
  5
248
330
1F
100
AcDbEntity
  8
0-0
  6
Continuous
 62
     3
370
     9
100
AcDbCircle
 10
26.0715866088868
 20
-29.02025212468311
 30
0.0
 40
1.500000019331236
100
AcDbArc
 50
90.0
 51
180.0
  0
ARC
  5
249
330
1F
100
AcDbEntity
  8
0-0
  6
Continuous
 62
     3
370
     9
100
AcDbCircle
 10
-15.42845133188601
 20
-29.02025212468311
 30
0.0
 40
1.500000019331236
100
AcDbArc
 50
90.0
 51
180.0
  0
ARC
  5
24A
330
1F
100
AcDbEntity
  8
0-0
  6
Continuous
 62
     3
370
     9
100
AcDbCircle
 10
9.071580010491488
 20
-29.02025212468311
 30
0.0
 40
1.500000019331236
100
AcDbArc
 50
359.9999847412109
 51
89.99999999999997
  0
ARC
  5
24B
330
1F
100
AcDbEntity
  8
0-0
  6
Continuous
 62
     3
370
     9
100
AcDbCircle
 10
9.071580010491488
 20
-53.52024635108734
 30
0.0
 40
1.500000019331236
100
AcDbArc
 50
270.0
 51
0.0
  0
ARC
  5
24C
330
1F
100
AcDbEntity
  8
0-0
  6
Continuous
 62
     3
370
     9
100
AcDbCircle
 10
-15.42845133188601
 20
-53.52024635108734
 30
0.0
 40
1.500000019331236
100
AcDbArc
 50
180.0
 51
270.0
  0
ARC
  5
24D
330
1F
100
AcDbEntity
  8
0-0
  6
Continuous
 62
     3
370
     9
100
AcDbCircle
 10
-56.92845215668547
 20
-53.52024635108734
 30
0.0
 40
1.500000019331236
100
AcDbArc
 50
180.0
 51
270.0
  0
ARC
  5
24E
330
1F
100
AcDbEntity
  8
0-0
  6
Continuous
 62
     3
370
     9
100
AcDbCircle
 10
-32.42845793028133
 20
-53.52024635108734
 30
0.0
 40
1.500000019331236
100
AcDbArc
 50
270.0
 51
0.0
  0
ARC
  5
24F
330
1F
100
AcDbEntity
  8
0-0
  6
Continuous
 62
     3
370
     9
100
AcDbCircle
 10
-32.42845793028133
 20
-29.02025212468311
 30
0.0
 40
1.500000019331236
100
AcDbArc
 50
359.9999847412109
 51
89.99999999999997
  0
ARC
  5
250
330
1F
100
AcDbEntity
  8
0-0
  6
Continuous
 62
     3
370
     9
100
AcDbCircle
 10
-56.92845215668547
 20
-29.02025212468311
 30
0.0
 40
1.500000019331236
100
AcDbArc
 50
90.0
 51
180.0
  0
ARC
  5
251
330
1F
100
AcDbEntity
  8
0-0
  6
Continuous
 62
     3
370
     9
100
AcDbCircle
 10
-98.42845298148484
 20
-29.02025212468311
 30
0.0
 40
1.500000019331236
100
AcDbArc
 50
90.0
 51
180.0
  0
ARC
  5
252
330
1F
100
AcDbEntity
  8
0-0
  6
Continuous
 62
     3
370
     9
100
AcDbCircle
 10
-73.9284587550807
 20
-29.02025212468311
 30
0.0
 40
1.500000019331236
100
AcDbArc
 50
359.9999847412109
 51
89.99999999999997
  0
ARC
  5
253
330
1F
100
AcDbEntity
  8
0-0
  6
Continuous
 62
     3
370
     9
100
AcDbCircle
 10
-73.9284587550807
 20
-53.52024635108734
 30
0.0
 40
1.500000019331236
100
AcDbArc
 50
270.0
 51
0.0
  0
ARC
  5
254
330
1F
100
AcDbEntity
  8
0-0
  6
Continuous
 62
     3
370
     9
100
AcDbCircle
 10
-98.42845298148484
 20
-53.52024635108734
 30
0.0
 40
1.500000019331236
100
AcDbArc
 50
180.0
 51
270.0
  0
ARC
  5
255
330
1F
100
AcDbEntity
  8
0-0
  6
Continuous
 62
     3
370
     9
100
AcDbCircle
 10
-98.42845298148484
 20
-12.02024552628788
 30
0.0
 40
1.500000019331236
100
AcDbArc
 50
180.0
 51
270.0
  0
ARC
  5
256
330
1F
100
AcDbEntity
  8
0-0
  6
Continuous
 62
     3
370
     9
100
AcDbCircle
 10
-73.9284587550807
 20
-12.02024552628788
 30
0.0
 40
1.500000019331236
100
AcDbArc
 50
270.0
 51
0.0
  0
ARC
  5
257
330
1F
100
AcDbEntity
  8
0-0
  6
Continuous
 62
     3
370
     9
100
AcDbCircle
 10
-73.9284587550807
 20
12.47974870011626
 30
0.0
 40
1.500000019331236
100
AcDbArc
 50
359.9999847412109
 51
89.99999999999997
  0
ARC
  5
258
330
1F
100
AcDbEntity
  8
0-0
  6
Continuous
 62
     3
370
     9
100
AcDbCircle
 10
-98.42845298148484
 20
12.47974870011626
 30
0.0
 40
1.500000019331236
100
AcDbArc
 50
90.0
 51
180.0
  0
ARC
  5
259
330
1F
100
AcDbEntity
  8
0-0
  6
Continuous
 62
     3
370
     9
100
AcDbCircle
 10
-56.92845215668547
 20
12.47974870011626
 30
0.0
 40
1.500000019331236
100
AcDbArc
 50
90.0
 51
180.0
  0
ARC
  5
25A
330
1F
100
AcDbEntity
  8
0-0
  6
Continuous
 62
     3
370
     9
100
AcDbCircle
 10
-32.42845793028133
 20
12.47974870011626
 30
0.0
 40
1.500000019331236
100
AcDbArc
 50
359.9999847412109
 51
89.99999999999997
  0
ARC
  5
25B
330
1F
100
AcDbEntity
  8
0-0
  6
Continuous
 62
     3
370
     9
100
AcDbCircle
 10
-32.42845793028133
 20
-12.02024552628788
 30
0.0
 40
1.500000019331236
100
AcDbArc
 50
270.0
 51
0.0
  0
ARC
  5
25C
330
1F
100
AcDbEntity
  8
0-0
  6
Continuous
 62
     3
370
     9
100
AcDbCircle
 10
-56.92845215668547
 20
-12.02024552628788
 30
0.0
 40
1.500000019331236
100
AcDbArc
 50
180.0
 51
270.0
  0
ARC
  5
25D
330
1F
100
AcDbEntity
  8
0-0
  6
Continuous
 62
     3
370
     9
100
AcDbCircle
 10
-15.42845133188601
 20
-12.02024552628788
 30
0.0
 40
1.500000019331236
100
AcDbArc
 50
180.0
 51
270.0
  0
ARC
  5
25E
330
1F
100
AcDbEntity
  8
0-0
  6
Continuous
 62
     3
370
     9
100
AcDbCircle
 10
9.071580010491488
 20
-12.02024552628788
 30
0.0
 40
1.500000019331236
100
AcDbArc
 50
270.0
 51
0.0
  0
ARC
  5
25F
330
1F
100
AcDbEntity
  8
0-0
  6
Continuous
 62
     3
370
     9
100
AcDbCircle
 10
9.071580010491488
 20
12.47974870011626
 30
0.0
 40
1.500000019331236
100
AcDbArc
 50
359.9999847412109
 51
89.99999999999997
  0
ARC
  5
260
330
1F
100
AcDbEntity
  8
0-0
  6
Continuous
 62
     3
370
     9
100
AcDbCircle
 10
-15.42845133188601
 20
12.47974870011626
 30
0.0
 40
1.500000019331236
100
AcDbArc
 50
90.0
 51
180.0
  0
ARC
  5
261
330
1F
100
AcDbEntity
  8
0-0
  6
Continuous
 62
     3
370
     9
100
AcDbCircle
 10
26.0715866088868
 20
12.47974870011626
 30
0.0
 40
1.500000019331236
100
AcDbArc
 50
90.0
 51
180.0
  0
ARC
  5
262
330
1F
100
AcDbEntity
  8
0-0
  6
Continuous
 62
     3
370
     9
100
AcDbCircle
 10
50.57154371931742
 20
12.47974870011626
 30
0.0
 40
1.500000019331236
100
AcDbArc
 50
359.9999847412109
 51
89.99999999999997
  0
ARC
  5
263
330
1F
100
AcDbEntity
  8
0-0
  6
Continuous
 62
     3
370
     9
100
AcDbCircle
 10
50.57154371931742
 20
-12.02024552628788
 30
0.0
 40
1.500000019331236
100
AcDbArc
 50
270.0
 51
0.0
  0
ARC
  5
264
330
1F
100
AcDbEntity
  8
0-0
  6
Continuous
 62
     3
370
     9
100
AcDbCircle
 10
26.0715866088868
 20
-12.02024552628788
 30
0.0
 40
1.500000019331236
100
AcDbArc
 50
180.0
 51
270.0
  0
ARC
  5
265
330
1F
100
AcDbEntity
  8
0-0
  6
Continuous
 62
     3
370
     9
100
AcDbCircle
 10
26.0715866088868
 20
29.47975529851149
 30
0.0
 40
1.500000019331236
100
AcDbArc
 50
180.0
 51
270.0
  0
ARC
  5
266
330
1F
100
AcDbEntity
  8
0-0
  6
Continuous
 62
     3
370
     9
100
AcDbCircle
 10
50.57154371931742
 20
29.47975529851149
 30
0.0
 40
1.500000019331236
100
AcDbArc
 50
270.0
 51
0.0
  0
ARC
  5
267
330
1F
100
AcDbEntity
  8
0-0
  6
Continuous
 62
     3
370
     9
100
AcDbCircle
 10
50.57154371931742
 20
53.97974952491563
 30
0.0
 40
1.500000019331236
100
AcDbArc
 50
359.9999847412109
 51
89.99999999999997
  0
ARC
  5
268
330
1F
100
AcDbEntity
  8
0-0
  6
Continuous
 62
     3
370
     9
100
AcDbCircle
 10
26.0715866088868
 20
53.97974952491563
 30
0.0
 40
1.500000019331236
100
AcDbArc
 50
90.0
 51
180.0
  0
ARC
  5
269
330
1F
100
AcDbEntity
  8
0-0
  6
Continuous
 62
     3
370
     9
100
AcDbCircle
 10
-15.42845133188601
 20
53.97974952491563
 30
0.0
 40
1.500000019331236
100
AcDbArc
 50
90.0
 51
180.0
  0
ARC
  5
26A
330
1F
100
AcDbEntity
  8
0-0
  6
Continuous
 62
     3
370
     9
100
AcDbCircle
 10
9.071580010491488
 20
53.97974952491563
 30
0.0
 40
1.500000019331236
100
AcDbArc
 50
359.9999847412109
 51
89.99999999999997
  0
ARC
  5
26B
330
1F
100
AcDbEntity
  8
0-0
  6
Continuous
 62
     3
370
     9
100
AcDbCircle
 10
9.071580010491488
 20
29.47975529851149
 30
0.0
 40
1.500000019331236
100
AcDbArc
 50
270.0
 51
0.0
  0
ARC
  5
26C
330
1F
100
AcDbEntity
  8
0-0
  6
Continuous
 62
     3
370
     9
100
AcDbCircle
 10
-15.42845133188601
 20
29.47975529851149
 30
0.0
 40
1.500000019331236
100
AcDbArc
 50
180.0
 51
270.0
  0
ARC
  5
26D
330
1F
100
AcDbEntity
  8
0-0
  6
Continuous
 62
     3
370
     9
100
AcDbCircle
 10
-56.92845215668547
 20
29.47975529851149
 30
0.0
 40
1.500000019331236
100
AcDbArc
 50
180.0
 51
270.0
  0
ARC
  5
26E
330
1F
100
AcDbEntity
  8
0-0
  6
Continuous
 62
     3
370
     9
100
AcDbCircle
 10
-32.42845793028133
 20
29.47975529851149
 30
0.0
 40
1.500000019331236
100
AcDbArc
 50
270.0
 51
0.0
  0
ARC
  5
26F
330
1F
100
AcDbEntity
  8
0-0
  6
Continuous
 62
     3
370
     9
100
AcDbCircle
 10
-32.42845793028133
 20
53.97974952491563
 30
0.0
 40
1.500000019331236
100
AcDbArc
 50
359.9999847412109
 51
89.99999999999997
  0
ARC
  5
270
330
1F
100
AcDbEntity
  8
0-0
  6
Continuous
 62
     3
370
     9
100
AcDbCircle
 10
-56.92845215668547
 20
53.97974952491563
 30
0.0
 40
1.500000019331236
100
AcDbArc
 50
90.0
 51
180.0
  0
ARC
  5
271
330
1F
100
AcDbEntity
  8
0-0
  6
Continuous
 62
     3
370
     9
100
AcDbCircle
 10
-98.42845298148484
 20
53.97974952491563
 30
0.0
 40
1.500000019331236
100
AcDbArc
 50
90.0
 51
180.0
  0
ARC
  5
272
330
1F
100
AcDbEntity
  8
0-0
  6
Continuous
 62
     3
370
     9
100
AcDbCircle
 10
-73.9284587550807
 20
53.97974952491563
 30
0.0
 40
1.500000019331236
100
AcDbArc
 50
359.9999847412109
 51
89.99999999999997
  0
ARC
  5
273
330
1F
100
AcDbEntity
  8
0-0
  6
Continuous
 62
     3
370
     9
100
AcDbCircle
 10
-73.9284587550807
 20
29.47975529851149
 30
0.0
 40
1.500000019331236
100
AcDbArc
 50
270.0
 51
0.0
  0
ARC
  5
274
330
1F
100
AcDbEntity
  8
0-0
  6
Continuous
 62
     3
370
     9
100
AcDbCircle
 10
-98.42845298148484
 20
29.47975529851149
 30
0.0
 40
1.500000019331236
100
AcDbArc
 50
180.0
 51
270.0
  0
ARC
  5
275
330
1F
100
AcDbEntity
  8
0-0
  6
Continuous
 62
     3
370
     9
100
AcDbCircle
 10
-156.9284604046795
 20
29.47975529851149
 30
0.0
 40
1.500000019331236
100
AcDbArc
 50
270.0
 51
359.9999847412109
  0
ARC
  5
276
330
1F
100
AcDbEntity
  8
0-0
  6
Continuous
 62
     3
370
     9
100
AcDbCircle
 10
-181.4284546310838
 20
29.47975529851149
 30
0.0
 40
1.500000019331236
100
AcDbArc
 50
180.0
 51
270.0
  0
ARC
  5
277
330
1F
100
AcDbEntity
  8
0-0
  6
Continuous
 62
     3
370
     9
100
AcDbCircle
 10
-181.4284546310838
 20
53.97974952491563
 30
0.0
 40
1.500000019331236
100
AcDbArc
 50
90.0
 51
180.0
  0
ARC
  5
278
330
1F
100
AcDbEntity
  8
0-0
  6
Continuous
 62
     3
370
     9
100
AcDbCircle
 10
-156.9284604046795
 20
53.97974952491563
 30
0.0
 40
1.500000019331236
100
AcDbArc
 50
7.016464233398438
 51
90.0
  0
ARC
  5
279
330
1F
100
AcDbEntity
  8
0-0
  6
Continuous
 62
     3
370
     9
100
AcDbCircle
 10
-198.428461229479
 20
53.97974952491563
 30
0.0
 40
1.500000019331236
100
AcDbArc
 50
7.016464233398438
 51
90.0
  0
ARC
  5
27A
330
1F
100
AcDbEntity
  8
0-0
  6
Continuous
 62
     3
370
     9
100
AcDbCircle
 10
-222.9284554558831
 20
53.97974952491563
 30
0.0
 40
1.500000019331236
100
AcDbArc
 50
90.0
 51
180.0
  0
ARC
  5
27B
330
1F
100
AcDbEntity
  8
0-0
  6
Continuous
 62
     3
370
     9
100
AcDbCircle
 10
-222.9284554558831
 20
29.47975529851149
 30
0.0
 40
1.500000019331236
100
AcDbArc
 50
180.0
 51
270.0
  0
ARC
  5
27C
330
1F
100
AcDbEntity
  8
0-0
  6
Continuous
 62
     3
370
     9
100
AcDbCircle
 10
-198.428461229479
 20
29.47975529851149
 30
0.0
 40
1.500000019331236
100
AcDbArc
 50
270.0
 51
359.9999847412109
  0
ARC
  5
27D
330
1F
100
AcDbEntity
  8
0-0
  6
Continuous
 62
     3
370
     9
100
AcDbCircle
 10
-239.9284620542784
 20
29.47975529851149
 30
0.0
 40
1.500000019331236
100
AcDbArc
 50
270.0
 51
359.9999847412109
  0
ARC
  5
27E
330
1F
100
AcDbEntity
  8
0-0
  6
Continuous
 62
     3
370
     9
100
AcDbCircle
 10
-264.4284562806825
 20
29.47975529851149
 30
0.0
 40
1.500000019331236
100
AcDbArc
 50
180.0
 51
270.0
  0
ARC
  5
27F
330
1F
100
AcDbEntity
  8
0-0
  6
Continuous
 62
     3
370
     9
100
AcDbCircle
 10
-264.4284562806825
 20
53.97974952491563
 30
0.0
 40
1.500000019331236
100
AcDbArc
 50
90.0
 51
180.0
  0
ARC
  5
280
330
1F
100
AcDbEntity
  8
0-0
  6
Continuous
 62
     3
370
     9
100
AcDbCircle
 10
-239.9284620542784
 20
53.97974952491563
 30
0.0
 40
1.500000019331236
100
AcDbArc
 50
7.016464233398438
 51
90.0
  0
ARC
  5
281
330
1F
100
AcDbEntity
  8
0-0
  6
Continuous
 62
     3
370
     9
100
AcDbCircle
 10
-281.4284628790778
 20
53.97974952491563
 30
0.0
 40
1.500000019331236
100
AcDbArc
 50
7.016464233398438
 51
90.0
  0
ARC
  5
282
330
1F
100
AcDbEntity
  8
0-0
  6
Continuous
 62
     3
370
     9
100
AcDbCircle
 10
-305.9284571054819
 20
53.97974952491563
 30
0.0
 40
1.500000019331236
100
AcDbArc
 50
90.0
 51
180.0
  0
ARC
  5
283
330
1F
100
AcDbEntity
  8
0-0
  6
Continuous
 62
     3
370
     9
100
AcDbCircle
 10
-305.9284571054819
 20
29.47975529851149
 30
0.0
 40
1.500000019331236
100
AcDbArc
 50
180.0
 51
270.0
  0
ARC
  5
284
330
1F
100
AcDbEntity
  8
0-0
  6
Continuous
 62
     3
370
     9
100
AcDbCircle
 10
-281.4284628790778
 20
29.47975529851149
 30
0.0
 40
1.500000019331236
100
AcDbArc
 50
270.0
 51
359.9999847412109
  0
ARC
  5
285
330
1F
100
AcDbEntity
  8
0-0
  6
Continuous
 62
     3
370
     9
100
AcDbCircle
 10
-281.4284628790778
 20
-12.02024552628788
 30
0.0
 40
1.500000019331236
100
AcDbArc
 50
270.0
 51
359.9999847412109
  0
ARC
  5
286
330
1F
100
AcDbEntity
  8
0-0
  6
Continuous
 62
     3
370
     9
100
AcDbCircle
 10
-305.9284571054819
 20
-12.02024552628788
 30
0.0
 40
1.500000019331236
100
AcDbArc
 50
180.0
 51
270.0
  0
ARC
  5
287
330
1F
100
AcDbEntity
  8
0-0
  6
Continuous
 62
     3
370
     9
100
AcDbCircle
 10
-305.9284571054819
 20
12.47974870011626
 30
0.0
 40
1.500000019331236
100
AcDbArc
 50
90.0
 51
180.0
  0
ARC
  5
288
330
1F
100
AcDbEntity
  8
0-0
  6
Continuous
 62
     3
370
     9
100
AcDbCircle
 10
-281.4284628790778
 20
12.47974870011626
 30
0.0
 40
1.500000019331236
100
AcDbArc
 50
7.016464233398438
 51
90.0
  0
ARC
  5
289
330
1F
100
AcDbEntity
  8
0-0
  6
Continuous
 62
     3
370
     9
100
AcDbCircle
 10
-239.9284620542784
 20
12.47974870011626
 30
0.0
 40
1.500000019331236
100
AcDbArc
 50
7.016464233398438
 51
90.0
  0
ARC
  5
28A
330
1F
100
AcDbEntity
  8
0-0
  6
Continuous
 62
     3
370
     9
100
AcDbCircle
 10
-264.4284562806825
 20
12.47974870011626
 30
0.0
 40
1.500000019331236
100
AcDbArc
 50
90.0
 51
180.0
  0
ARC
  5
28B
330
1F
100
AcDbEntity
  8
0-0
  6
Continuous
 62
     3
370
     9
100
AcDbCircle
 10
-264.4284562806825
 20
-12.02024552628788
 30
0.0
 40
1.500000019331236
100
AcDbArc
 50
180.0
 51
270.0
  0
ARC
  5
28C
330
1F
100
AcDbEntity
  8
0-0
  6
Continuous
 62
     3
370
     9
100
AcDbCircle
 10
-239.9284620542784
 20
-12.02024552628788
 30
0.0
 40
1.500000019331236
100
AcDbArc
 50
270.0
 51
359.9999847412109
  0
ARC
  5
28D
330
1F
100
AcDbEntity
  8
0-0
  6
Continuous
 62
     3
370
     9
100
AcDbCircle
 10
-198.428461229479
 20
-12.02024552628788
 30
0.0
 40
1.500000019331236
100
AcDbArc
 50
270.0
 51
359.9999847412109
  0
ARC
  5
28E
330
1F
100
AcDbEntity
  8
0-0
  6
Continuous
 62
     3
370
     9
100
AcDbCircle
 10
-222.9284554558831
 20
-12.02024552628788
 30
0.0
 40
1.500000019331236
100
AcDbArc
 50
180.0
 51
270.0
  0
ARC
  5
28F
330
1F
100
AcDbEntity
  8
0-0
  6
Continuous
 62
     3
370
     9
100
AcDbCircle
 10
-222.9284554558831
 20
12.47974870011626
 30
0.0
 40
1.500000019331236
100
AcDbArc
 50
90.0
 51
180.0
  0
ARC
  5
290
330
1F
100
AcDbEntity
  8
0-0
  6
Continuous
 62
     3
370
     9
100
AcDbCircle
 10
-198.428461229479
 20
12.47974870011626
 30
0.0
 40
1.500000019331236
100
AcDbArc
 50
7.016464233398438
 51
90.0
  0
ARC
  5
291
330
1F
100
AcDbEntity
  8
0-0
  6
Continuous
 62
     3
370
     9
100
AcDbCircle
 10
-156.9284604046795
 20
12.47974870011626
 30
0.0
 40
1.500000019331236
100
AcDbArc
 50
7.016464233398438
 51
90.0
  0
ARC
  5
292
330
1F
100
AcDbEntity
  8
0-0
  6
Continuous
 62
     3
370
     9
100
AcDbCircle
 10
-181.4284546310838
 20
12.47974870011626
 30
0.0
 40
1.500000019331236
100
AcDbArc
 50
90.0
 51
180.0
  0
ARC
  5
293
330
1F
100
AcDbEntity
  8
0-0
  6
Continuous
 62
     3
370
     9
100
AcDbCircle
 10
-181.4284546310838
 20
-12.02024552628788
 30
0.0
 40
1.500000019331236
100
AcDbArc
 50
180.0
 51
270.0
  0
ARC
  5
294
330
1F
100
AcDbEntity
  8
0-0
  6
Continuous
 62
     3
370
     9
100
AcDbCircle
 10
-156.9284604046795
 20
-12.02024552628788
 30
0.0
 40
1.500000019331236
100
AcDbArc
 50
270.0
 51
359.9999847412109
  0
ARC
  5
295
330
1F
100
AcDbEntity
  8
0-0
  6
Continuous
 62
     3
370
     9
100
AcDbCircle
 10
-156.9284604046795
 20
-53.52024635108734
 30
0.0
 40
1.500000019331236
100
AcDbArc
 50
270.0
 51
359.9999847412109
  0
ARC
  5
296
330
1F
100
AcDbEntity
  8
0-0
  6
Continuous
 62
     3
370
     9
100
AcDbCircle
 10
-181.4284546310838
 20
-53.52024635108734
 30
0.0
 40
1.500000019331236
100
AcDbArc
 50
180.0
 51
270.0
  0
ARC
  5
297
330
1F
100
AcDbEntity
  8
0-0
  6
Continuous
 62
     3
370
     9
100
AcDbCircle
 10
-181.4284546310838
 20
-29.02025212468311
 30
0.0
 40
1.500000019331236
100
AcDbArc
 50
90.0
 51
180.0
  0
ARC
  5
298
330
1F
100
AcDbEntity
  8
0-0
  6
Continuous
 62
     3
370
     9
100
AcDbCircle
 10
-156.9284604046795
 20
-29.02025212468311
 30
0.0
 40
1.500000019331236
100
AcDbArc
 50
7.016464233398438
 51
90.0
  0
ARC
  5
299
330
1F
100
AcDbEntity
  8
0-0
  6
Continuous
 62
     3
370
     9
100
AcDbCircle
 10
-198.428461229479
 20
-29.02025212468311
 30
0.0
 40
1.500000019331236
100
AcDbArc
 50
7.016464233398438
 51
90.0
  0
ARC
  5
29A
330
1F
100
AcDbEntity
  8
0-0
  6
Continuous
 62
     3
370
     9
100
AcDbCircle
 10
-222.9284554558831
 20
-29.02025212468311
 30
0.0
 40
1.500000019331236
100
AcDbArc
 50
90.0
 51
180.0
  0
ARC
  5
29B
330
1F
100
AcDbEntity
  8
0-0
  6
Continuous
 62
     3
370
     9
100
AcDbCircle
 10
-222.9284554558831
 20
-53.52024635108734
 30
0.0
 40
1.500000019331236
100
AcDbArc
 50
180.0
 51
270.0
  0
ARC
  5
29C
330
1F
100
AcDbEntity
  8
0-0
  6
Continuous
 62
     3
370
     9
100
AcDbCircle
 10
-198.428461229479
 20
-53.52024635108734
 30
0.0
 40
1.500000019331236
100
AcDbArc
 50
270.0
 51
359.9999847412109
  0
ARC
  5
29D
330
1F
100
AcDbEntity
  8
0-0
  6
Continuous
 62
     3
370
     9
100
AcDbCircle
 10
-239.9284620542784
 20
-53.52024635108734
 30
0.0
 40
1.500000019331236
100
AcDbArc
 50
270.0
 51
359.9999847412109
  0
ARC
  5
29E
330
1F
100
AcDbEntity
  8
0-0
  6
Continuous
 62
     3
370
     9
100
AcDbCircle
 10
-264.4284562806825
 20
-53.52024635108734
 30
0.0
 40
1.500000019331236
100
AcDbArc
 50
180.0
 51
270.0
  0
ARC
  5
29F
330
1F
100
AcDbEntity
  8
0-0
  6
Continuous
 62
     3
370
     9
100
AcDbCircle
 10
-264.4284562806825
 20
-29.02025212468311
 30
0.0
 40
1.500000019331236
100
AcDbArc
 50
90.0
 51
180.0
  0
ARC
  5
2A0
330
1F
100
AcDbEntity
  8
0-0
  6
Continuous
 62
     3
370
     9
100
AcDbCircle
 10
-239.9284620542784
 20
-29.02025212468311
 30
0.0
 40
1.500000019331236
100
AcDbArc
 50
7.016464233398438
 51
90.0
  0
ARC
  5
2A1
330
1F
100
AcDbEntity
  8
0-0
  6
Continuous
 62
     3
370
     9
100
AcDbCircle
 10
-281.4284628790778
 20
-29.02025212468311
 30
0.0
 40
1.500000019331236
100
AcDbArc
 50
7.016464233398438
 51
90.0
  0
ARC
  5
2A2
330
1F
100
AcDbEntity
  8
0-0
  6
Continuous
 62
     3
370
     9
100
AcDbCircle
 10
-305.9284571054819
 20
-29.02025212468311
 30
0.0
 40
1.500000019331236
100
AcDbArc
 50
90.0
 51
180.0
  0
ARC
  5
2A3
330
1F
100
AcDbEntity
  8
0-0
  6
Continuous
 62
     3
370
     9
100
AcDbCircle
 10
-305.9284571054819
 20
-53.52024635108734
 30
0.0
 40
1.500000019331236
100
AcDbArc
 50
180.0
 51
270.0
  0
ARC
  5
2A4
330
1F
100
AcDbEntity
  8
0-0
  6
Continuous
 62
     3
370
     9
100
AcDbCircle
 10
-281.4284628790778
 20
-53.52024635108734
 30
0.0
 40
1.500000019331236
100
AcDbArc
 50
270.0
 51
359.9999847412109
  0
ARC
  5
2A5
330
1F
100
AcDbEntity
  8
0-0
  6
Continuous
 62
     3
370
     9
100
AcDbCircle
 10
-281.4284628790778
 20
-95.02024717588671
 30
0.0
 40
1.500000019331236
100
AcDbArc
 50
270.0
 51
359.9999847412109
  0
ARC
  5
2A6
330
1F
100
AcDbEntity
  8
0-0
  6
Continuous
 62
     3
370
     9
100
AcDbCircle
 10
-305.9284571054819
 20
-95.02024717588671
 30
0.0
 40
1.500000019331236
100
AcDbArc
 50
180.0
 51
270.0
  0
ARC
  5
2A7
330
1F
100
AcDbEntity
  8
0-0
  6
Continuous
 62
     3
370
     9
100
AcDbCircle
 10
-305.9284571054819
 20
-70.52025294948257
 30
0.0
 40
1.500000019331236
100
AcDbArc
 50
90.0
 51
180.0
  0
ARC
  5
2A8
330
1F
100
AcDbEntity
  8
0-0
  6
Continuous
 62
     3
370
     9
100
AcDbCircle
 10
-281.4284628790778
 20
-70.52025294948257
 30
0.0
 40
1.500000019331236
100
AcDbArc
 50
7.016464233398438
 51
90.0
  0
ARC
  5
2A9
330
1F
100
AcDbEntity
  8
0-0
  6
Continuous
 62
     3
370
     9
100
AcDbCircle
 10
-239.9284620542784
 20
-70.52025294948257
 30
0.0
 40
1.500000019331236
100
AcDbArc
 50
7.016464233398438
 51
90.0
  0
ARC
  5
2AA
330
1F
100
AcDbEntity
  8
0-0
  6
Continuous
 62
     3
370
     9
100
AcDbCircle
 10
-264.4284562806825
 20
-70.52025294948257
 30
0.0
 40
1.500000019331236
100
AcDbArc
 50
90.0
 51
180.0
  0
ARC
  5
2AB
330
1F
100
AcDbEntity
  8
0-0
  6
Continuous
 62
     3
370
     9
100
AcDbCircle
 10
-264.4284562806825
 20
-95.02024717588671
 30
0.0
 40
1.500000019331236
100
AcDbArc
 50
180.0
 51
270.0
  0
ARC
  5
2AC
330
1F
100
AcDbEntity
  8
0-0
  6
Continuous
 62
     3
370
     9
100
AcDbCircle
 10
-239.9284620542784
 20
-95.02024717588671
 30
0.0
 40
1.500000019331236
100
AcDbArc
 50
270.0
 51
359.9999847412109
  0
ARC
  5
2AD
330
1F
100
AcDbEntity
  8
0-0
  6
Continuous
 62
     3
370
     9
100
AcDbCircle
 10
-198.428461229479
 20
-95.02024717588671
 30
0.0
 40
1.500000019331236
100
AcDbArc
 50
270.0
 51
359.9999847412109
  0
ARC
  5
2AE
330
1F
100
AcDbEntity
  8
0-0
  6
Continuous
 62
     3
370
     9
100
AcDbCircle
 10
-222.9284554558831
 20
-95.02024717588671
 30
0.0
 40
1.500000019331236
100
AcDbArc
 50
180.0
 51
270.0
  0
ARC
  5
2AF
330
1F
100
AcDbEntity
  8
0-0
  6
Continuous
 62
     3
370
     9
100
AcDbCircle
 10
-222.9284554558831
 20
-70.52025294948257
 30
0.0
 40
1.500000019331236
100
AcDbArc
 50
90.0
 51
180.0
  0
ARC
  5
2B0
330
1F
100
AcDbEntity
  8
0-0
  6
Continuous
 62
     3
370
     9
100
AcDbCircle
 10
-198.428461229479
 20
-70.52025294948257
 30
0.0
 40
1.500000019331236
100
AcDbArc
 50
7.016464233398438
 51
90.0
  0
ARC
  5
2B1
330
1F
100
AcDbEntity
  8
0-0
  6
Continuous
 62
     3
370
     9
100
AcDbCircle
 10
-156.9284604046795
 20
-70.52025294948257
 30
0.0
 40
1.500000019331236
100
AcDbArc
 50
7.016464233398438
 51
90.0
  0
ARC
  5
2B2
330
1F
100
AcDbEntity
  8
0-0
  6
Continuous
 62
     3
370
     9
100
AcDbCircle
 10
-181.4284546310838
 20
-70.52025294948257
 30
0.0
 40
1.500000019331236
100
AcDbArc
 50
90.0
 51
180.0
  0
ARC
  5
2B3
330
1F
100
AcDbEntity
  8
0-0
  6
Continuous
 62
     3
370
     9
100
AcDbCircle
 10
-181.4284546310838
 20
-95.02024717588671
 30
0.0
 40
1.500000019331236
100
AcDbArc
 50
180.0
 51
270.0
  0
ARC
  5
2B4
330
1F
100
AcDbEntity
  8
0-0
  6
Continuous
 62
     3
370
     9
100
AcDbCircle
 10
-156.9284604046795
 20
-95.02024717588671
 30
0.0
 40
1.500000019331236
100
AcDbArc
 50
270.0
 51
359.9999847412109
  0
ARC
  5
2B5
330
1F
100
AcDbEntity
  8
0-0
  6
Continuous
 62
     3
370
     9
100
AcDbCircle
 10
-156.9284604046795
 20
261.4797165329393
 30
0.0
 40
1.500000019331236
100
AcDbArc
 50
8.665130615234375
 51
90.0
  0
ARC
  5
2B6
330
1F
100
AcDbEntity
  8
0-0
  6
Continuous
 62
     3
370
     9
100
AcDbCircle
 10
-181.4284546310838
 20
261.4797165329393
 30
0.0
 40
1.500000019331236
100
AcDbArc
 50
90.0
 51
180.0
  0
ARC
  5
2B7
330
1F
100
AcDbEntity
  8
0-0
  6
Continuous
 62
     3
370
     9
100
AcDbCircle
 10
-181.4284546310838
 20
236.9797594225086
 30
0.0
 40
1.500000019331236
100
AcDbArc
 50
179.9999847412109
 51
270.0
  0
ARC
  5
2B8
330
1F
100
AcDbEntity
  8
0-0
  6
Continuous
 62
     3
370
     9
100
AcDbCircle
 10
-156.9284604046795
 20
236.9797594225086
 30
0.0
 40
1.500000019331236
100
AcDbArc
 50
270.0
 51
0.0
  0
ARC
  5
2B9
330
1F
100
AcDbEntity
  8
0-0
  6
Continuous
 62
     3
370
     9
100
AcDbCircle
 10
-198.428461229479
 20
236.9797594225086
 30
0.0
 40
1.500000019331236
100
AcDbArc
 50
270.0
 51
0.0
  0
ARC
  5
2BA
330
1F
100
AcDbEntity
  8
0-0
  6
Continuous
 62
     3
370
     9
100
AcDbCircle
 10
-222.9284554558831
 20
236.9797594225086
 30
0.0
 40
1.500000019331236
100
AcDbArc
 50
179.9999847412109
 51
270.0
  0
ARC
  5
2BB
330
1F
100
AcDbEntity
  8
0-0
  6
Continuous
 62
     3
370
     9
100
AcDbCircle
 10
-222.9284554558831
 20
261.4797165329393
 30
0.0
 40
1.500000019331236
100
AcDbArc
 50
90.0
 51
180.0
  0
ARC
  5
2BC
330
1F
100
AcDbEntity
  8
0-0
  6
Continuous
 62
     3
370
     9
100
AcDbCircle
 10
-198.428461229479
 20
261.4797165329393
 30
0.0
 40
1.500000019331236
100
AcDbArc
 50
8.665130615234375
 51
90.0
  0
ARC
  5
2BD
330
1F
100
AcDbEntity
  8
0-0
  6
Continuous
 62
     3
370
     9
100
AcDbCircle
 10
-239.9284620542784
 20
261.4797165329393
 30
0.0
 40
1.500000019331236
100
AcDbArc
 50
8.665130615234375
 51
90.0
  0
ARC
  5
2BE
330
1F
100
AcDbEntity
  8
0-0
  6
Continuous
 62
     3
370
     9
100
AcDbCircle
 10
-264.4284562806825
 20
261.4797165329393
 30
0.0
 40
1.500000019331236
100
AcDbArc
 50
90.0
 51
180.0
  0
ARC
  5
2BF
330
1F
100
AcDbEntity
  8
0-0
  6
Continuous
 62
     3
370
     9
100
AcDbCircle
 10
-264.4284562806825
 20
236.9797594225086
 30
0.0
 40
1.500000019331236
100
AcDbArc
 50
179.9999847412109
 51
270.0
  0
ARC
  5
2C0
330
1F
100
AcDbEntity
  8
0-0
  6
Continuous
 62
     3
370
     9
100
AcDbCircle
 10
-239.9284620542784
 20
236.9797594225086
 30
0.0
 40
1.500000019331236
100
AcDbArc
 50
270.0
 51
0.0
  0
ARC
  5
2C1
330
1F
100
AcDbEntity
  8
0-0
  6
Continuous
 62
     3
370
     9
100
AcDbCircle
 10
-281.4284628790778
 20
236.9797594225086
 30
0.0
 40
1.500000019331236
100
AcDbArc
 50
270.0
 51
0.0
  0
ARC
  5
2C2
330
1F
100
AcDbEntity
  8
0-0
  6
Continuous
 62
     3
370
     9
100
AcDbCircle
 10
-305.9284571054819
 20
236.9797594225086
 30
0.0
 40
1.500000019331236
100
AcDbArc
 50
179.9999847412109
 51
270.0
  0
ARC
  5
2C3
330
1F
100
AcDbEntity
  8
0-0
  6
Continuous
 62
     3
370
     9
100
AcDbCircle
 10
-305.9284571054819
 20
261.4797165329393
 30
0.0
 40
1.500000019331236
100
AcDbArc
 50
90.0
 51
180.0
  0
ARC
  5
2C4
330
1F
100
AcDbEntity
  8
0-0
  6
Continuous
 62
     3
370
     9
100
AcDbCircle
 10
-281.4284628790778
 20
261.4797165329393
 30
0.0
 40
1.500000019331236
100
AcDbArc
 50
8.665130615234375
 51
90.0
  0
ARC
  5
2C5
330
1F
100
AcDbEntity
  8
0-0
  6
Continuous
 62
     3
370
     9
100
AcDbCircle
 10
-281.4284628790778
 20
219.9797528241133
 30
0.0
 40
1.500000019331236
100
AcDbArc
 50
8.665130615234375
 51
90.0
  0
ARC
  5
2C6
330
1F
100
AcDbEntity
  8
0-0
  6
Continuous
 62
     3
370
     9
100
AcDbCircle
 10
-305.9284571054819
 20
219.9797528241133
 30
0.0
 40
1.500000019331236
100
AcDbArc
 50
90.0
 51
180.0
  0
ARC
  5
2C7
330
1F
100
AcDbEntity
  8
0-0
  6
Continuous
 62
     3
370
     9
100
AcDbCircle
 10
-305.9284571054819
 20
195.4797214817358
 30
0.0
 40
1.500000019331236
100
AcDbArc
 50
179.9999847412109
 51
270.0
  0
ARC
  5
2C8
330
1F
100
AcDbEntity
  8
0-0
  6
Continuous
 62
     3
370
     9
100
AcDbCircle
 10
-281.4284628790778
 20
195.4797214817358
 30
0.0
 40
1.500000019331236
100
AcDbArc
 50
270.0
 51
0.0
  0
ARC
  5
2C9
330
1F
100
AcDbEntity
  8
0-0
  6
Continuous
 62
     3
370
     9
100
AcDbCircle
 10
-239.9284620542784
 20
195.4797214817358
 30
0.0
 40
1.500000019331236
100
AcDbArc
 50
270.0
 51
0.0
  0
ARC
  5
2CA
330
1F
100
AcDbEntity
  8
0-0
  6
Continuous
 62
     3
370
     9
100
AcDbCircle
 10
-264.4284562806825
 20
195.4797214817358
 30
0.0
 40
1.500000019331236
100
AcDbArc
 50
179.9999847412109
 51
270.0
  0
ARC
  5
2CB
330
1F
100
AcDbEntity
  8
0-0
  6
Continuous
 62
     3
370
     9
100
AcDbCircle
 10
-264.4284562806825
 20
219.9797528241133
 30
0.0
 40
1.500000019331236
100
AcDbArc
 50
90.0
 51
180.0
  0
ARC
  5
2CC
330
1F
100
AcDbEntity
  8
0-0
  6
Continuous
 62
     3
370
     9
100
AcDbCircle
 10
-239.9284620542784
 20
219.9797528241133
 30
0.0
 40
1.500000019331236
100
AcDbArc
 50
8.665130615234375
 51
90.0
  0
ARC
  5
2CD
330
1F
100
AcDbEntity
  8
0-0
  6
Continuous
 62
     3
370
     9
100
AcDbCircle
 10
-198.428461229479
 20
219.9797528241133
 30
0.0
 40
1.500000019331236
100
AcDbArc
 50
8.665130615234375
 51
90.0
  0
ARC
  5
2CE
330
1F
100
AcDbEntity
  8
0-0
  6
Continuous
 62
     3
370
     9
100
AcDbCircle
 10
-222.9284554558831
 20
219.9797528241133
 30
0.0
 40
1.500000019331236
100
AcDbArc
 50
90.0
 51
180.0
  0
ARC
  5
2CF
330
1F
100
AcDbEntity
  8
0-0
  6
Continuous
 62
     3
370
     9
100
AcDbCircle
 10
-222.9284554558831
 20
195.4797214817358
 30
0.0
 40
1.500000019331236
100
AcDbArc
 50
179.9999847412109
 51
270.0
  0
ARC
  5
2D0
330
1F
100
AcDbEntity
  8
0-0
  6
Continuous
 62
     3
370
     9
100
AcDbCircle
 10
-198.428461229479
 20
195.4797214817358
 30
0.0
 40
1.500000019331236
100
AcDbArc
 50
270.0
 51
0.0
  0
ARC
  5
2D1
330
1F
100
AcDbEntity
  8
0-0
  6
Continuous
 62
     3
370
     9
100
AcDbCircle
 10
-156.9284604046795
 20
195.4797214817358
 30
0.0
 40
1.500000019331236
100
AcDbArc
 50
270.0
 51
0.0
  0
ARC
  5
2D2
330
1F
100
AcDbEntity
  8
0-0
  6
Continuous
 62
     3
370
     9
100
AcDbCircle
 10
-181.4284546310838
 20
195.4797214817358
 30
0.0
 40
1.500000019331236
100
AcDbArc
 50
179.9999847412109
 51
270.0
  0
ARC
  5
2D3
330
1F
100
AcDbEntity
  8
0-0
  6
Continuous
 62
     3
370
     9
100
AcDbCircle
 10
-181.4284546310838
 20
219.9797528241133
 30
0.0
 40
1.500000019331236
100
AcDbArc
 50
90.0
 51
180.0
  0
ARC
  5
2D4
330
1F
100
AcDbEntity
  8
0-0
  6
Continuous
 62
     3
370
     9
100
AcDbCircle
 10
-156.9284604046795
 20
219.9797528241133
 30
0.0
 40
1.500000019331236
100
AcDbArc
 50
8.665130615234375
 51
90.0
  0
ARC
  5
2D5
330
1F
100
AcDbEntity
  8
0-0
  6
Continuous
 62
     3
370
     9
100
AcDbCircle
 10
-156.9284604046795
 20
178.4797148833405
 30
0.0
 40
1.500000019331236
100
AcDbArc
 50
8.665130615234375
 51
90.0
  0
ARC
  5
2D6
330
1F
100
AcDbEntity
  8
0-0
  6
Continuous
 62
     3
370
     9
100
AcDbCircle
 10
-181.4284546310838
 20
178.4797148833405
 30
0.0
 40
1.500000019331236
100
AcDbArc
 50
90.0
 51
180.0
  0
ARC
  5
2D7
330
1F
100
AcDbEntity
  8
0-0
  6
Continuous
 62
     3
370
     9
100
AcDbCircle
 10
-181.4284546310838
 20
153.9797206569364
 30
0.0
 40
1.500000019331236
100
AcDbArc
 50
179.9999847412109
 51
270.0
  0
ARC
  5
2D8
330
1F
100
AcDbEntity
  8
0-0
  6
Continuous
 62
     3
370
     9
100
AcDbCircle
 10
-156.9284604046795
 20
153.9797206569364
 30
0.0
 40
1.500000019331236
100
AcDbArc
 50
270.0
 51
0.0
  0
ARC
  5
2D9
330
1F
100
AcDbEntity
  8
0-0
  6
Continuous
 62
     3
370
     9
100
AcDbCircle
 10
-198.428461229479
 20
153.9797206569364
 30
0.0
 40
1.500000019331236
100
AcDbArc
 50
270.0
 51
0.0
  0
ARC
  5
2DA
330
1F
100
AcDbEntity
  8
0-0
  6
Continuous
 62
     3
370
     9
100
AcDbCircle
 10
-222.9284554558831
 20
153.9797206569364
 30
0.0
 40
1.500000019331236
100
AcDbArc
 50
179.9999847412109
 51
270.0
  0
ARC
  5
2DB
330
1F
100
AcDbEntity
  8
0-0
  6
Continuous
 62
     3
370
     9
100
AcDbCircle
 10
-222.9284554558831
 20
178.4797148833405
 30
0.0
 40
1.500000019331236
100
AcDbArc
 50
90.0
 51
180.0
  0
ARC
  5
2DC
330
1F
100
AcDbEntity
  8
0-0
  6
Continuous
 62
     3
370
     9
100
AcDbCircle
 10
-198.428461229479
 20
178.4797148833405
 30
0.0
 40
1.500000019331236
100
AcDbArc
 50
8.665130615234375
 51
90.0
  0
ARC
  5
2DD
330
1F
100
AcDbEntity
  8
0-0
  6
Continuous
 62
     3
370
     9
100
AcDbCircle
 10
-239.9284620542784
 20
178.4797148833405
 30
0.0
 40
1.500000019331236
100
AcDbArc
 50
8.665130615234375
 51
90.0
  0
ARC
  5
2DE
330
1F
100
AcDbEntity
  8
0-0
  6
Continuous
 62
     3
370
     9
100
AcDbCircle
 10
-264.4284562806825
 20
178.4797148833405
 30
0.0
 40
1.500000019331236
100
AcDbArc
 50
90.0
 51
180.0
  0
ARC
  5
2DF
330
1F
100
AcDbEntity
  8
0-0
  6
Continuous
 62
     3
370
     9
100
AcDbCircle
 10
-264.4284562806825
 20
153.9797206569364
 30
0.0
 40
1.500000019331236
100
AcDbArc
 50
179.9999847412109
 51
270.0
  0
ARC
  5
2E0
330
1F
100
AcDbEntity
  8
0-0
  6
Continuous
 62
     3
370
     9
100
AcDbCircle
 10
-239.9284620542784
 20
153.9797206569364
 30
0.0
 40
1.500000019331236
100
AcDbArc
 50
270.0
 51
0.0
  0
ARC
  5
2E1
330
1F
100
AcDbEntity
  8
0-0
  6
Continuous
 62
     3
370
     9
100
AcDbCircle
 10
-281.4284628790778
 20
153.9797206569364
 30
0.0
 40
1.500000019331236
100
AcDbArc
 50
270.0
 51
0.0
  0
ARC
  5
2E2
330
1F
100
AcDbEntity
  8
0-0
  6
Continuous
 62
     3
370
     9
100
AcDbCircle
 10
-305.9284571054819
 20
153.9797206569364
 30
0.0
 40
1.500000019331236
100
AcDbArc
 50
179.9999847412109
 51
270.0
  0
ARC
  5
2E3
330
1F
100
AcDbEntity
  8
0-0
  6
Continuous
 62
     3
370
     9
100
AcDbCircle
 10
-305.9284571054819
 20
178.4797148833405
 30
0.0
 40
1.500000019331236
100
AcDbArc
 50
90.0
 51
180.0
  0
ARC
  5
2E4
330
1F
100
AcDbEntity
  8
0-0
  6
Continuous
 62
     3
370
     9
100
AcDbCircle
 10
-281.4284628790778
 20
178.4797148833405
 30
0.0
 40
1.500000019331236
100
AcDbArc
 50
8.665130615234375
 51
90.0
  0
ARC
  5
2E5
330
1F
100
AcDbEntity
  8
0-0
  6
Continuous
 62
     3
370
     9
100
AcDbCircle
 10
-281.4284628790778
 20
136.9797511745145
 30
0.0
 40
1.500000019331236
100
AcDbArc
 50
8.665130615234375
 51
90.0
  0
ARC
  5
2E6
330
1F
100
AcDbEntity
  8
0-0
  6
Continuous
 62
     3
370
     9
100
AcDbCircle
 10
-305.9284571054819
 20
136.9797511745145
 30
0.0
 40
1.500000019331236
100
AcDbArc
 50
90.0
 51
180.0
  0
ARC
  5
2E7
330
1F
100
AcDbEntity
  8
0-0
  6
Continuous
 62
     3
370
     9
100
AcDbCircle
 10
-305.9284571054819
 20
112.479719832137
 30
0.0
 40
1.500000019331236
100
AcDbArc
 50
179.9999847412109
 51
270.0
  0
ARC
  5
2E8
330
1F
100
AcDbEntity
  8
0-0
  6
Continuous
 62
     3
370
     9
100
AcDbCircle
 10
-281.4284628790778
 20
112.479719832137
 30
0.0
 40
1.500000019331236
100
AcDbArc
 50
270.0
 51
0.0
  0
ARC
  5
2E9
330
1F
100
AcDbEntity
  8
0-0
  6
Continuous
 62
     3
370
     9
100
AcDbCircle
 10
-239.9284620542784
 20
112.479719832137
 30
0.0
 40
1.500000019331236
100
AcDbArc
 50
270.0
 51
0.0
  0
ARC
  5
2EA
330
1F
100
AcDbEntity
  8
0-0
  6
Continuous
 62
     3
370
     9
100
AcDbCircle
 10
-264.4284562806825
 20
112.479719832137
 30
0.0
 40
1.500000019331236
100
AcDbArc
 50
179.9999847412109
 51
270.0
  0
ARC
  5
2EB
330
1F
100
AcDbEntity
  8
0-0
  6
Continuous
 62
     3
370
     9
100
AcDbCircle
 10
-264.4284562806825
 20
136.9797511745145
 30
0.0
 40
1.500000019331236
100
AcDbArc
 50
90.0
 51
180.0
  0
ARC
  5
2EC
330
1F
100
AcDbEntity
  8
0-0
  6
Continuous
 62
     3
370
     9
100
AcDbCircle
 10
-239.9284620542784
 20
136.9797511745145
 30
0.0
 40
1.500000019331236
100
AcDbArc
 50
8.665130615234375
 51
90.0
  0
ARC
  5
2ED
330
1F
100
AcDbEntity
  8
0-0
  6
Continuous
 62
     3
370
     9
100
AcDbCircle
 10
-198.428461229479
 20
136.9797511745145
 30
0.0
 40
1.500000019331236
100
AcDbArc
 50
8.665130615234375
 51
90.0
  0
ARC
  5
2EE
330
1F
100
AcDbEntity
  8
0-0
  6
Continuous
 62
     3
370
     9
100
AcDbCircle
 10
-222.9284554558831
 20
136.9797511745145
 30
0.0
 40
1.500000019331236
100
AcDbArc
 50
90.0
 51
180.0
  0
ARC
  5
2EF
330
1F
100
AcDbEntity
  8
0-0
  6
Continuous
 62
     3
370
     9
100
AcDbCircle
 10
-222.9284554558831
 20
112.479719832137
 30
0.0
 40
1.500000019331236
100
AcDbArc
 50
179.9999847412109
 51
270.0
  0
ARC
  5
2F0
330
1F
100
AcDbEntity
  8
0-0
  6
Continuous
 62
     3
370
     9
100
AcDbCircle
 10
-198.428461229479
 20
112.479719832137
 30
0.0
 40
1.500000019331236
100
AcDbArc
 50
270.0
 51
0.0
  0
ARC
  5
2F1
330
1F
100
AcDbEntity
  8
0-0
  6
Continuous
 62
     3
370
     9
100
AcDbCircle
 10
-156.9284604046795
 20
112.479719832137
 30
0.0
 40
1.500000019331236
100
AcDbArc
 50
270.0
 51
0.0
  0
ARC
  5
2F2
330
1F
100
AcDbEntity
  8
0-0
  6
Continuous
 62
     3
370
     9
100
AcDbCircle
 10
-181.4284546310838
 20
112.479719832137
 30
0.0
 40
1.500000019331236
100
AcDbArc
 50
179.9999847412109
 51
270.0
  0
ARC
  5
2F3
330
1F
100
AcDbEntity
  8
0-0
  6
Continuous
 62
     3
370
     9
100
AcDbCircle
 10
-181.4284546310838
 20
136.9797511745145
 30
0.0
 40
1.500000019331236
100
AcDbArc
 50
90.0
 51
180.0
  0
ARC
  5
2F4
330
1F
100
AcDbEntity
  8
0-0
  6
Continuous
 62
     3
370
     9
100
AcDbCircle
 10
-156.9284604046795
 20
136.9797511745145
 30
0.0
 40
1.500000019331236
100
AcDbArc
 50
8.665130615234375
 51
90.0
  0
ARC
  5
2F5
330
1F
100
AcDbEntity
  8
0-0
  6
Continuous
 62
     3
370
     9
100
AcDbCircle
 10
-139.9284538062844
 20
136.9797511745145
 30
0.0
 40
1.500000019331236
100
AcDbArc
 50
90.0
 51
179.999984741211
  0
ARC
  5
2F6
330
1F
100
AcDbEntity
  8
0-0
  6
Continuous
 62
     3
370
     9
100
AcDbCircle
 10
-98.42845298148484
 20
261.4797165329393
 30
0.0
 40
1.500000019331236
100
AcDbArc
 50
90.0
 51
179.999984741211
  0
ARC
  5
2F7
330
1F
100
AcDbEntity
  8
0-0
  6
Continuous
 62
     3
370
     9
100
AcDbCircle
 10
-73.9284587550807
 20
261.4797165329393
 30
0.0
 40
1.500000019331236
100
AcDbArc
 50
0.0
 51
90.0
  0
ARC
  5
2F8
330
1F
100
AcDbEntity
  8
0-0
  6
Continuous
 62
     3
370
     9
100
AcDbCircle
 10
-73.9284587550807
 20
236.9797594225086
 30
0.0
 40
1.500000019331236
100
AcDbArc
 50
270.0
 51
0.0
  0
ARC
  5
2F9
330
1F
100
AcDbEntity
  8
0-0
  6
Continuous
 62
     3
370
     9
100
AcDbCircle
 10
-98.42845298148484
 20
236.9797594225086
 30
0.0
 40
1.500000019331236
100
AcDbArc
 50
180.0
 51
270.0
  0
ARC
  5
2FA
330
1F
100
AcDbEntity
  8
0-0
  6
Continuous
 62
     3
370
     9
100
AcDbCircle
 10
-98.42845298148484
 20
195.4797214817358
 30
0.0
 40
1.500000019331236
100
AcDbArc
 50
180.0
 51
270.0
  0
ARC
  5
2FB
330
1F
100
AcDbEntity
  8
0-0
  6
Continuous
 62
     3
370
     9
100
AcDbCircle
 10
-73.9284587550807
 20
195.4797214817358
 30
0.0
 40
1.500000019331236
100
AcDbArc
 50
270.0
 51
0.0
  0
ARC
  5
2FC
330
1F
100
AcDbEntity
  8
0-0
  6
Continuous
 62
     3
370
     9
100
AcDbCircle
 10
-73.9284587550807
 20
219.9797528241133
 30
0.0
 40
1.500000019331236
100
AcDbArc
 50
0.0
 51
90.0
  0
ARC
  5
2FD
330
1F
100
AcDbEntity
  8
0-0
  6
Continuous
 62
     3
370
     9
100
AcDbCircle
 10
-98.42845298148484
 20
219.9797528241133
 30
0.0
 40
1.500000019331236
100
AcDbArc
 50
90.0
 51
179.999984741211
  0
ARC
  5
2FE
330
1F
100
AcDbEntity
  8
0-0
  6
Continuous
 62
     3
370
     9
100
AcDbCircle
 10
-98.42845298148484
 20
178.4797148833405
 30
0.0
 40
1.500000019331236
100
AcDbArc
 50
90.0
 51
179.999984741211
  0
ARC
  5
2FF
330
1F
100
AcDbEntity
  8
0-0
  6
Continuous
 62
     3
370
     9
100
AcDbCircle
 10
-73.9284587550807
 20
178.4797148833405
 30
0.0
 40
1.500000019331236
100
AcDbArc
 50
0.0
 51
90.0
  0
ARC
  5
300
330
1F
100
AcDbEntity
  8
0-0
  6
Continuous
 62
     3
370
     9
100
AcDbCircle
 10
-73.9284587550807
 20
153.9797206569364
 30
0.0
 40
1.500000019331236
100
AcDbArc
 50
270.0
 51
0.0
  0
ARC
  5
301
330
1F
100
AcDbEntity
  8
0-0
  6
Continuous
 62
     3
370
     9
100
AcDbCircle
 10
-98.42845298148484
 20
153.9797206569364
 30
0.0
 40
1.500000019331236
100
AcDbArc
 50
180.0
 51
270.0
  0
ARC
  5
302
330
1F
100
AcDbEntity
  8
0-0
  6
Continuous
 62
     3
370
     9
100
AcDbCircle
 10
-98.42845298148484
 20
112.479719832137
 30
0.0
 40
1.500000019331236
100
AcDbArc
 50
180.0
 51
270.0
  0
ARC
  5
303
330
1F
100
AcDbEntity
  8
0-0
  6
Continuous
 62
     3
370
     9
100
AcDbCircle
 10
-73.9284587550807
 20
112.479719832137
 30
0.0
 40
1.500000019331236
100
AcDbArc
 50
270.0
 51
0.0
  0
ARC
  5
304
330
1F
100
AcDbEntity
  8
0-0
  6
Continuous
 62
     3
370
     9
100
AcDbCircle
 10
-73.9284587550807
 20
136.9797511745145
 30
0.0
 40
1.500000019331236
100
AcDbArc
 50
0.0
 51
90.0
  0
ARC
  5
305
330
1F
100
AcDbEntity
  8
0-0
  6
Continuous
 62
     3
370
     9
100
AcDbCircle
 10
-98.42845298148484
 20
136.9797511745145
 30
0.0
 40
1.500000019331236
100
AcDbArc
 50
90.0
 51
179.999984741211
  0
ARC
  5
306
330
1F
100
AcDbEntity
  8
0-0
  6
Continuous
 62
     3
370
     9
100
AcDbCircle
 10
-115.4284595798802
 20
136.9797511745145
 30
0.0
 40
1.500000019331236
100
AcDbArc
 50
0.0
 51
90.0
  0
ARC
  5
307
330
1F
100
AcDbEntity
  8
0-0
  6
Continuous
 62
     3
370
     9
100
AcDbCircle
 10
-115.4284595798802
 20
112.479719832137
 30
0.0
 40
1.500000019331236
100
AcDbArc
 50
270.0
 51
0.0
  0
ARC
  5
308
330
1F
100
AcDbEntity
  8
0-0
  6
Continuous
 62
     3
370
     9
100
AcDbCircle
 10
-139.9284538062844
 20
112.479719832137
 30
0.0
 40
1.500000019331236
100
AcDbArc
 50
180.0
 51
270.0
  0
ARC
  5
309
330
1F
100
AcDbEntity
  8
0-0
  6
Continuous
 62
     3
370
     9
100
AcDbCircle
 10
-139.9284538062844
 20
153.9797206569364
 30
0.0
 40
1.500000019331236
100
AcDbArc
 50
180.0
 51
270.0
  0
ARC
  5
30A
330
1F
100
AcDbEntity
  8
0-0
  6
Continuous
 62
     3
370
     9
100
AcDbCircle
 10
-115.4284595798802
 20
153.9797206569364
 30
0.0
 40
1.500000019331236
100
AcDbArc
 50
270.0
 51
0.0
  0
ARC
  5
30B
330
1F
100
AcDbEntity
  8
0-0
  6
Continuous
 62
     3
370
     9
100
AcDbCircle
 10
-115.4284595798802
 20
178.4797148833405
 30
0.0
 40
1.500000019331236
100
AcDbArc
 50
0.0
 51
90.0
  0
ARC
  5
30C
330
1F
100
AcDbEntity
  8
0-0
  6
Continuous
 62
     3
370
     9
100
AcDbCircle
 10
-139.9284538062844
 20
178.4797148833405
 30
0.0
 40
1.500000019331236
100
AcDbArc
 50
90.0
 51
179.999984741211
  0
ARC
  5
30D
330
1F
100
AcDbEntity
  8
0-0
  6
Continuous
 62
     3
370
     9
100
AcDbCircle
 10
-139.9284538062844
 20
219.9797528241133
 30
0.0
 40
1.500000019331236
100
AcDbArc
 50
90.0
 51
179.999984741211
  0
ARC
  5
30E
330
1F
100
AcDbEntity
  8
0-0
  6
Continuous
 62
     3
370
     9
100
AcDbCircle
 10
-115.4284595798802
 20
219.9797528241133
 30
0.0
 40
1.500000019331236
100
AcDbArc
 50
0.0
 51
90.0
  0
ARC
  5
30F
330
1F
100
AcDbEntity
  8
0-0
  6
Continuous
 62
     3
370
     9
100
AcDbCircle
 10
-115.4284595798802
 20
195.4797214817358
 30
0.0
 40
1.500000019331236
100
AcDbArc
 50
270.0
 51
0.0
  0
ARC
  5
310
330
1F
100
AcDbEntity
  8
0-0
  6
Continuous
 62
     3
370
     9
100
AcDbCircle
 10
-139.9284538062844
 20
195.4797214817358
 30
0.0
 40
1.500000019331236
100
AcDbArc
 50
180.0
 51
270.0
  0
ARC
  5
311
330
1F
100
AcDbEntity
  8
0-0
  6
Continuous
 62
     3
370
     9
100
AcDbCircle
 10
-139.9284538062844
 20
236.9797594225086
 30
0.0
 40
1.500000019331236
100
AcDbArc
 50
180.0
 51
270.0
  0
ARC
  5
312
330
1F
100
AcDbEntity
  8
0-0
  6
Continuous
 62
     3
370
     9
100
AcDbCircle
 10
-115.4284595798802
 20
236.9797594225086
 30
0.0
 40
1.500000019331236
100
AcDbArc
 50
270.0
 51
0.0
  0
ARC
  5
313
330
1F
100
AcDbEntity
  8
0-0
  6
Continuous
 62
     3
370
     9
100
AcDbCircle
 10
-115.4284595798802
 20
261.4797165329393
 30
0.0
 40
1.500000019331236
100
AcDbArc
 50
0.0
 51
90.0
  0
ARC
  5
314
330
1F
100
AcDbEntity
  8
0-0
  6
Continuous
 62
     3
370
     9
100
AcDbCircle
 10
-139.9284538062844
 20
261.4797165329393
 30
0.0
 40
1.500000019331236
100
AcDbArc
 50
90.0
 51
179.999984741211
  0
ARC
  5
315
330
1F
100
AcDbEntity
  8
0-0
  6
Continuous
 62
     3
370
     9
100
AcDbCircle
 10
-139.9284538062844
 20
261.4797165329393
 30
0.0
 40
1.500000019331236
100
AcDbArc
 50
90.0
 51
179.999984741211
  0
ARC
  5
316
330
1F
100
AcDbEntity
  8
0-0
  6
Continuous
 62
     3
370
     9
100
AcDbCircle
 10
-115.4284595798802
 20
261.4797165329393
 30
0.0
 40
1.500000019331236
100
AcDbArc
 50
0.0
 51
90.0
  0
ARC
  5
317
330
1F
100
AcDbEntity
  8
0-0
  6
Continuous
 62
     3
370
     9
100
AcDbCircle
 10
-115.4284595798802
 20
236.9797594225086
 30
0.0
 40
1.500000019331236
100
AcDbArc
 50
270.0
 51
0.0
  0
ARC
  5
318
330
1F
100
AcDbEntity
  8
0-0
  6
Continuous
 62
     3
370
     9
100
AcDbCircle
 10
-139.9284538062844
 20
236.9797594225086
 30
0.0
 40
1.500000019331236
100
AcDbArc
 50
180.0
 51
270.0
  0
ARC
  5
319
330
1F
100
AcDbEntity
  8
0-0
  6
Continuous
 62
     3
370
     9
100
AcDbCircle
 10
-139.9284538062844
 20
195.4797214817358
 30
0.0
 40
1.500000019331236
100
AcDbArc
 50
180.0
 51
270.0
  0
ARC
  5
31A
330
1F
100
AcDbEntity
  8
0-0
  6
Continuous
 62
     3
370
     9
100
AcDbCircle
 10
-115.4284595798802
 20
195.4797214817358
 30
0.0
 40
1.500000019331236
100
AcDbArc
 50
270.0
 51
0.0
  0
ARC
  5
31B
330
1F
100
AcDbEntity
  8
0-0
  6
Continuous
 62
     3
370
     9
100
AcDbCircle
 10
-115.4284595798802
 20
219.9797528241133
 30
0.0
 40
1.500000019331236
100
AcDbArc
 50
0.0
 51
90.0
  0
ARC
  5
31C
330
1F
100
AcDbEntity
  8
0-0
  6
Continuous
 62
     3
370
     9
100
AcDbCircle
 10
-139.9284538062844
 20
219.9797528241133
 30
0.0
 40
1.500000019331236
100
AcDbArc
 50
90.0
 51
179.999984741211
  0
ARC
  5
31D
330
1F
100
AcDbEntity
  8
0-0
  6
Continuous
 62
     3
370
     9
100
AcDbCircle
 10
-139.9284538062844
 20
178.4797148833405
 30
0.0
 40
1.500000019331236
100
AcDbArc
 50
90.0
 51
179.999984741211
  0
ARC
  5
31E
330
1F
100
AcDbEntity
  8
0-0
  6
Continuous
 62
     3
370
     9
100
AcDbCircle
 10
-115.4284595798802
 20
178.4797148833405
 30
0.0
 40
1.500000019331236
100
AcDbArc
 50
0.0
 51
90.0
  0
ARC
  5
31F
330
1F
100
AcDbEntity
  8
0-0
  6
Continuous
 62
     3
370
     9
100
AcDbCircle
 10
-115.4284595798802
 20
153.9797206569364
 30
0.0
 40
1.500000019331236
100
AcDbArc
 50
270.0
 51
0.0
  0
ARC
  5
320
330
1F
100
AcDbEntity
  8
0-0
  6
Continuous
 62
     3
370
     9
100
AcDbCircle
 10
-139.9284538062844
 20
153.9797206569364
 30
0.0
 40
1.500000019331236
100
AcDbArc
 50
180.0
 51
270.0
  0
ARC
  5
321
330
1F
100
AcDbEntity
  8
0-0
  6
Continuous
 62
     3
370
     9
100
AcDbCircle
 10
-139.9284538062844
 20
112.479719832137
 30
0.0
 40
1.500000019331236
100
AcDbArc
 50
180.0
 51
270.0
  0
ARC
  5
322
330
1F
100
AcDbEntity
  8
0-0
  6
Continuous
 62
     3
370
     9
100
AcDbCircle
 10
-115.4284595798802
 20
112.479719832137
 30
0.0
 40
1.500000019331236
100
AcDbArc
 50
270.0
 51
0.0
  0
ARC
  5
323
330
1F
100
AcDbEntity
  8
0-0
  6
Continuous
 62
     3
370
     9
100
AcDbCircle
 10
-115.4284595798802
 20
136.9797511745145
 30
0.0
 40
1.500000019331236
100
AcDbArc
 50
0.0
 51
90.0
  0
ARC
  5
324
330
1F
100
AcDbEntity
  8
0-0
  6
Continuous
 62
     3
370
     9
100
AcDbCircle
 10
-139.9284538062844
 20
136.9797511745145
 30
0.0
 40
1.500000019331236
100
AcDbArc
 50
90.0
 51
179.999984741211
  0
ARC
  5
325
330
1F
100
AcDbEntity
  8
0-0
  6
Continuous
 62
     3
370
     9
100
AcDbCircle
 10
-139.9284538062844
 20
29.47975529851149
 30
0.0
 40
1.500000019331236
100
AcDbArc
 50
180.0
 51
270.0
  0
ARC
  5
326
330
1F
100
AcDbEntity
  8
0-0
  6
Continuous
 62
     3
370
     9
100
AcDbCircle
 10
-115.4284595798802
 20
29.47975529851149
 30
0.0
 40
1.500000019331236
100
AcDbArc
 50
270.0
 51
0.0
  0
ARC
  5
327
330
1F
100
AcDbEntity
  8
0-0
  6
Continuous
 62
     3
370
     9
100
AcDbCircle
 10
-115.4284595798802
 20
53.97974952491563
 30
0.0
 40
1.500000019331236
100
AcDbArc
 50
359.9999847412109
 51
89.99999999999997
  0
ARC
  5
328
330
1F
100
AcDbEntity
  8
0-0
  6
Continuous
 62
     3
370
     9
100
AcDbCircle
 10
-139.9284538062844
 20
53.97974952491563
 30
0.0
 40
1.500000019331236
100
AcDbArc
 50
90.0
 51
180.0
  0
ARC
  5
329
330
1F
100
AcDbEntity
  8
0-0
  6
Continuous
 62
     3
370
     9
100
AcDbCircle
 10
-139.9284538062844
 20
12.47974870011626
 30
0.0
 40
1.500000019331236
100
AcDbArc
 50
90.0
 51
180.0
  0
ARC
  5
32A
330
1F
100
AcDbEntity
  8
0-0
  6
Continuous
 62
     3
370
     9
100
AcDbCircle
 10
-115.4284595798802
 20
12.47974870011626
 30
0.0
 40
1.500000019331236
100
AcDbArc
 50
359.9999847412109
 51
89.99999999999997
  0
ARC
  5
32B
330
1F
100
AcDbEntity
  8
0-0
  6
Continuous
 62
     3
370
     9
100
AcDbCircle
 10
-115.4284595798802
 20
-12.02024552628788
 30
0.0
 40
1.500000019331236
100
AcDbArc
 50
270.0
 51
0.0
  0
ARC
  5
32C
330
1F
100
AcDbEntity
  8
0-0
  6
Continuous
 62
     3
370
     9
100
AcDbCircle
 10
-139.9284538062844
 20
-12.02024552628788
 30
0.0
 40
1.500000019331236
100
AcDbArc
 50
180.0
 51
270.0
  0
ARC
  5
32D
330
1F
100
AcDbEntity
  8
0-0
  6
Continuous
 62
     3
370
     9
100
AcDbCircle
 10
-139.9284538062844
 20
-53.52024635108734
 30
0.0
 40
1.500000019331236
100
AcDbArc
 50
180.0
 51
270.0
  0
ARC
  5
32E
330
1F
100
AcDbEntity
  8
0-0
  6
Continuous
 62
     3
370
     9
100
AcDbCircle
 10
-115.4284595798802
 20
-53.52024635108734
 30
0.0
 40
1.500000019331236
100
AcDbArc
 50
270.0
 51
0.0
  0
ARC
  5
32F
330
1F
100
AcDbEntity
  8
0-0
  6
Continuous
 62
     3
370
     9
100
AcDbCircle
 10
-115.4284595798802
 20
-29.02025212468311
 30
0.0
 40
1.500000019331236
100
AcDbArc
 50
359.9999847412109
 51
89.99999999999997
  0
ARC
  5
330
330
1F
100
AcDbEntity
  8
0-0
  6
Continuous
 62
     3
370
     9
100
AcDbCircle
 10
-139.9284538062844
 20
-29.02025212468311
 30
0.0
 40
1.500000019331236
100
AcDbArc
 50
90.0
 51
180.0
  0
ARC
  5
331
330
1F
100
AcDbEntity
  8
0-0
  6
Continuous
 62
     3
370
     9
100
AcDbCircle
 10
-139.9284538062844
 20
-70.52025294948257
 30
0.0
 40
1.500000019331236
100
AcDbArc
 50
90.0
 51
180.0
  0
ARC
  5
332
330
1F
100
AcDbEntity
  8
0-0
  6
Continuous
 62
     3
370
     9
100
AcDbCircle
 10
-115.4284595798802
 20
-70.52025294948257
 30
0.0
 40
1.500000019331236
100
AcDbArc
 50
359.9999847412109
 51
89.99999999999997
  0
ARC
  5
333
330
1F
100
AcDbEntity
  8
0-0
  6
Continuous
 62
     3
370
     9
100
AcDbCircle
 10
-115.4284595798802
 20
-95.02024717588671
 30
0.0
 40
1.500000019331236
100
AcDbArc
 50
270.0
 51
0.0
  0
ARC
  5
334
330
1F
100
AcDbEntity
  8
0-0
  6
Continuous
 62
     3
370
     9
100
AcDbCircle
 10
-139.9284538062844
 20
-95.02024717588671
 30
0.0
 40
1.500000019331236
100
AcDbArc
 50
180.0
 51
270.0
  0
ARC
  5
335
330
1F
100
AcDbEntity
  8
0-0
  6
Continuous
 62
     3
370
     9
100
AcDbCircle
 10
-139.9284538062844
 20
95.47975034971513
 30
0.0
 40
1.500000019331236
100
AcDbArc
 50
90.0
 51
180.0
  0
ARC
  5
336
330
1F
100
AcDbEntity
  8
0-0
  6
Continuous
 62
     3
370
     9
100
AcDbCircle
 10
-115.4284595798802
 20
95.47975034971513
 30
0.0
 40
1.500000019331236
100
AcDbArc
 50
359.9999847412109
 51
89.99999999999997
  0
ARC
  5
337
330
1F
100
AcDbEntity
  8
0-0
  6
Continuous
 62
     3
370
     9
100
AcDbCircle
 10
-115.4284595798802
 20
70.97971900733751
 30
0.0
 40
1.500000019331236
100
AcDbArc
 50
270.0
 51
0.0
  0
ARC
  5
338
330
1F
100
AcDbEntity
  8
0-0
  6
Continuous
 62
     3
370
     9
100
AcDbCircle
 10
-139.9284538062844
 20
70.97971900733751
 30
0.0
 40
1.500000019331236
100
AcDbArc
 50
180.0
 51
270.0
  0
ARC
  5
339
330
1F
100
AcDbEntity
  8
0-0
  6
Continuous
 62
     3
370
     9
100
AcDbCircle
 10
-281.4284628790778
 20
70.97971900733751
 30
0.0
 40
1.500000019331236
100
AcDbArc
 50
270.0
 51
359.9999847412109
  0
ARC
  5
33A
330
1F
100
AcDbEntity
  8
0-0
  6
Continuous
 62
     3
370
     9
100
AcDbCircle
 10
-305.9284571054819
 20
70.97971900733751
 30
0.0
 40
1.500000019331236
100
AcDbArc
 50
180.0
 51
270.0
  0
ARC
  5
33B
330
1F
100
AcDbEntity
  8
0-0
  6
Continuous
 62
     3
370
     9
100
AcDbCircle
 10
-305.9284571054819
 20
95.47975034971513
 30
0.0
 40
1.500000019331236
100
AcDbArc
 50
90.0
 51
180.0
  0
ARC
  5
33C
330
1F
100
AcDbEntity
  8
0-0
  6
Continuous
 62
     3
370
     9
100
AcDbCircle
 10
-281.4284628790778
 20
95.47975034971513
 30
0.0
 40
1.500000019331236
100
AcDbArc
 50
7.016464233398438
 51
90.0
  0
ARC
  5
33D
330
1F
100
AcDbEntity
  8
0-0
  6
Continuous
 62
     3
370
     9
100
AcDbCircle
 10
-239.9284620542784
 20
95.47975034971513
 30
0.0
 40
1.500000019331236
100
AcDbArc
 50
7.016464233398438
 51
90.0
  0
ARC
  5
33E
330
1F
100
AcDbEntity
  8
0-0
  6
Continuous
 62
     3
370
     9
100
AcDbCircle
 10
-264.4284562806825
 20
95.47975034971513
 30
0.0
 40
1.500000019331236
100
AcDbArc
 50
90.0
 51
180.0
  0
ARC
  5
33F
330
1F
100
AcDbEntity
  8
0-0
  6
Continuous
 62
     3
370
     9
100
AcDbCircle
 10
-264.4284562806825
 20
70.97971900733751
 30
0.0
 40
1.500000019331236
100
AcDbArc
 50
180.0
 51
270.0
  0
ARC
  5
340
330
1F
100
AcDbEntity
  8
0-0
  6
Continuous
 62
     3
370
     9
100
AcDbCircle
 10
-239.9284620542784
 20
70.97971900733751
 30
0.0
 40
1.500000019331236
100
AcDbArc
 50
270.0
 51
359.9999847412109
  0
ARC
  5
341
330
1F
100
AcDbEntity
  8
0-0
  6
Continuous
 62
     3
370
     9
100
AcDbCircle
 10
-198.428461229479
 20
70.97971900733751
 30
0.0
 40
1.500000019331236
100
AcDbArc
 50
270.0
 51
359.9999847412109
  0
ARC
  5
342
330
1F
100
AcDbEntity
  8
0-0
  6
Continuous
 62
     3
370
     9
100
AcDbCircle
 10
-222.9284554558831
 20
70.97971900733751
 30
0.0
 40
1.500000019331236
100
AcDbArc
 50
180.0
 51
270.0
  0
ARC
  5
343
330
1F
100
AcDbEntity
  8
0-0
  6
Continuous
 62
     3
370
     9
100
AcDbCircle
 10
-222.9284554558831
 20
95.47975034971513
 30
0.0
 40
1.500000019331236
100
AcDbArc
 50
90.0
 51
180.0
  0
ARC
  5
344
330
1F
100
AcDbEntity
  8
0-0
  6
Continuous
 62
     3
370
     9
100
AcDbCircle
 10
-198.428461229479
 20
95.47975034971513
 30
0.0
 40
1.500000019331236
100
AcDbArc
 50
7.016464233398438
 51
90.0
  0
ARC
  5
345
330
1F
100
AcDbEntity
  8
0-0
  6
Continuous
 62
     3
370
     9
100
AcDbCircle
 10
-156.9284604046795
 20
95.47975034971513
 30
0.0
 40
1.500000019331236
100
AcDbArc
 50
7.016464233398438
 51
90.0
  0
ARC
  5
346
330
1F
100
AcDbEntity
  8
0-0
  6
Continuous
 62
     3
370
     9
100
AcDbCircle
 10
-181.4284546310838
 20
95.47975034971513
 30
0.0
 40
1.500000019331236
100
AcDbArc
 50
90.0
 51
180.0
  0
ARC
  5
347
330
1F
100
AcDbEntity
  8
0-0
  6
Continuous
 62
     3
370
     9
100
AcDbCircle
 10
-181.4284546310838
 20
70.97971900733751
 30
0.0
 40
1.500000019331236
100
AcDbArc
 50
180.0
 51
270.0
  0
ARC
  5
348
330
1F
100
AcDbEntity
  8
0-0
  6
Continuous
 62
     3
370
     9
100
AcDbCircle
 10
-156.9284604046795
 20
70.97971900733751
 30
0.0
 40
1.500000019331236
100
AcDbArc
 50
270.0
 51
359.9999847412109
  0
ARC
  5
349
330
1F
100
AcDbEntity
  8
0-0
  6
Continuous
 62
     3
370
     9
100
AcDbCircle
 10
-98.42845298148484
 20
70.97971900733751
 30
0.0
 40
1.500000019331236
100
AcDbArc
 50
180.0
 51
270.0
  0
ARC
  5
34A
330
1F
100
AcDbEntity
  8
0-0
  6
Continuous
 62
     3
370
     9
100
AcDbCircle
 10
-73.9284587550807
 20
70.97971900733751
 30
0.0
 40
1.500000019331236
100
AcDbArc
 50
270.0
 51
0.0
  0
ARC
  5
34B
330
1F
100
AcDbEntity
  8
0-0
  6
Continuous
 62
     3
370
     9
100
AcDbCircle
 10
-73.9284587550807
 20
95.47975034971513
 30
0.0
 40
1.500000019331236
100
AcDbArc
 50
359.9999847412109
 51
89.99999999999997
  0
ARC
  5
34C
330
1F
100
AcDbEntity
  8
0-0
  6
Continuous
 62
     3
370
     9
100
AcDbCircle
 10
-98.42845298148484
 20
95.47975034971513
 30
0.0
 40
1.500000019331236
100
AcDbArc
 50
90.0
 51
180.0
  0
ARC
  5
34D
330
1F
100
AcDbEntity
  8
0-0
  6
Continuous
 62
     3
370
     9
100
AcDbCircle
 10
-56.92845215668547
 20
95.47975034971513
 30
0.0
 40
1.500000019331236
100
AcDbArc
 50
90.0
 51
180.0
  0
ARC
  5
34E
330
1F
100
AcDbEntity
  8
0-0
  6
Continuous
 62
     3
370
     9
100
AcDbCircle
 10
-32.42845793028133
 20
95.47975034971513
 30
0.0
 40
1.500000019331236
100
AcDbArc
 50
359.9999847412109
 51
89.99999999999997
  0
ARC
  5
34F
330
1F
100
AcDbEntity
  8
0-0
  6
Continuous
 62
     3
370
     9
100
AcDbCircle
 10
-32.42845793028133
 20
70.97971900733751
 30
0.0
 40
1.500000019331236
100
AcDbArc
 50
270.0
 51
0.0
  0
ARC
  5
350
330
1F
100
AcDbEntity
  8
0-0
  6
Continuous
 62
     3
370
     9
100
AcDbCircle
 10
-56.92845215668547
 20
70.97971900733751
 30
0.0
 40
1.500000019331236
100
AcDbArc
 50
180.0
 51
270.0
  0
ARC
  5
351
330
1F
100
AcDbEntity
  8
0-0
  6
Continuous
 62
     3
370
     9
100
AcDbCircle
 10
-15.42845133188601
 20
70.97971900733751
 30
0.0
 40
1.500000019331236
100
AcDbArc
 50
180.0
 51
270.0
  0
ARC
  5
352
330
1F
100
AcDbEntity
  8
0-0
  6
Continuous
 62
     3
370
     9
100
AcDbCircle
 10
9.071580010491488
 20
70.97971900733751
 30
0.0
 40
1.500000019331236
100
AcDbArc
 50
270.0
 51
0.0
  0
ARC
  5
353
330
1F
100
AcDbEntity
  8
0-0
  6
Continuous
 62
     3
370
     9
100
AcDbCircle
 10
9.071580010491488
 20
95.47975034971513
 30
0.0
 40
1.500000019331236
100
AcDbArc
 50
359.9999847412109
 51
89.99999999999997
  0
ARC
  5
354
330
1F
100
AcDbEntity
  8
0-0
  6
Continuous
 62
     3
370
     9
100
AcDbCircle
 10
-15.42845133188601
 20
95.47975034971513
 30
0.0
 40
1.500000019331236
100
AcDbArc
 50
90.0
 51
180.0
  0
ARC
  5
355
330
1F
100
AcDbEntity
  8
0-0
  6
Continuous
 62
     3
370
     9
100
AcDbCircle
 10
26.0715866088868
 20
95.47975034971513
 30
0.0
 40
1.500000019331236
100
AcDbArc
 50
90.0
 51
180.0
  0
ARC
  5
356
330
1F
100
AcDbEntity
  8
0-0
  6
Continuous
 62
     3
370
     9
100
AcDbCircle
 10
50.57154371931742
 20
95.47975034971513
 30
0.0
 40
1.500000019331236
100
AcDbArc
 50
359.9999847412109
 51
89.99999999999997
  0
ARC
  5
357
330
1F
100
AcDbEntity
  8
0-0
  6
Continuous
 62
     3
370
     9
100
AcDbCircle
 10
50.57154371931742
 20
70.97971900733751
 30
0.0
 40
1.500000019331236
100
AcDbArc
 50
270.0
 51
0.0
  0
ARC
  5
358
330
1F
100
AcDbEntity
  8
0-0
  6
Continuous
 62
     3
370
     9
100
AcDbCircle
 10
26.0715866088868
 20
70.97971900733751
 30
0.0
 40
1.500000019331236
100
AcDbArc
 50
180.0
 51
270.0
  0
LWPOLYLINE
  5
359
330
1F
100
AcDbEntity
  8
0-F
  6
Continuous
 62
     7
370
     9
100
AcDbPolyline
 90
        4
 70
     1
 43
0.3
 10
117.4715041289459
 20
110.9797891152873
 42
0.4142135623731
 10
117.3215041289459
 20
111.1297891152873
 42
0.4142135623731
 10
117.1715041289459
 20
110.9797891152873
 42
0.4142135623731
 10
117.3215041289459
 20
110.8297891152873
 42
0.4142135623731
  0
LINE
  5
35A
330
1F
100
AcDbEntity
  8
0-F
  6
Continuous
 62
     7
370
     9
100
AcDbLine
 10
-72.42845380628438
 20
-161.7702447014884
 30
0.0
 11
-64.9926025803025
 21
-160.7913109031882
 31
0.0
  0
LINE
  5
35B
330
1F
100
AcDbEntity
  8
0-F
  6
Continuous
 62
     7
370
     9
100
AcDbLine
 10
-72.42845380628438
 20
-161.7702447014884
 30
0.0
 11
-64.9926025803025
 21
-162.7491784997887
 31
0.0
  0
LINE
  5
35C
330
1F
100
AcDbEntity
  8
0-F
  6
Continuous
 62
     7
370
     9
100
AcDbLine
 10
-113.9284546310838
 20
-161.7702447014884
 30
0.0
 11
-121.3643058570656
 21
-162.7491784997887
 31
0.0
  0
LINE
  5
35D
330
1F
100
AcDbEntity
  8
0-F
  6
Continuous
 62
     7
370
     9
100
AcDbLine
 10
-113.9284546310838
 20
-161.7702447014884
 30
0.0
 11
-121.3643058570656
 21
-160.7913109031882
 31
0.0
  0
LINE
  5
35E
330
1F
100
AcDbEntity
  8
0-F
  6
Continuous
 62
     7
370
     9
100
AcDbLine
 10
-33.65610586630328
 20
-161.7702447014884
 30
0.0
 11
-99.92845793028133
 21
-161.7702447014884
 31
0.0
  0
LINE
  5
35F
330
1F
100
AcDbEntity
  8
0-F
  6
Continuous
 62
     7
370
     9
100
AcDbLine
 10
-137.9876966734191
 20
-161.7702447014884
 30
0.0
 11
-99.92845793028133
 21
-161.7702447014884
 31
0.0
  0
TEXT
  5
360
330
1F
100
AcDbEntity
  8
0-F
  6
Continuous
 62
     2
370
     9
100
AcDbText
 10
-136.2408680271458
 20
-158.4455130318304
 30
0.0
 40
9.144
  1
14
 41
1.0625
  7
ＭＳ ゴシック
100
AcDbText
  0
TEXT
  5
361
330
1F
100
AcDbEntity
  8
0-F
  6
Continuous
 62
     2
370
     9
100
AcDbText
 10
-62.2254149978225
 20
-158.1038233807536
 30
0.0
 40
9.144
  1
27.5
 41
1.09375
  7
ＭＳ ゴシック
100
AcDbText
  0
TEXT
  5
362
330
1F
100
AcDbEntity
  8
0-F
  6
Continuous
 62
     2
370
     9
100
AcDbText
 10
-140.0422192135372
 20
-188.8667669578757
 30
0.0
 40
9.144
  1
400
 41
1.083333333333333
  7
ＭＳ ゴシック
100
AcDbText
  0
LWPOLYLINE
  5
363
330
1F
100
AcDbEntity
  8
0-F
  6
Continuous
 62
     7
370
     9
100
AcDbPolyline
 90
        4
 70
     1
 43
0.3
 10
-99.77845793028133
 20
-161.7702447014884
 42
0.4142135623731
 10
-99.92845793028133
 20
-161.6202447014884
 42
0.4142135623731
 10
-100.0784579302813
 20
-161.7702447014884
 42
0.4142135623731
 10
-99.92845793028133
 20
-161.9202447014884
 42
0.4142135623731
  0
TEXT
  5
364
330
1F
100
AcDbEntity
  8
0-F
  6
Continuous
 62
     2
370
     9
100
AcDbText
 10
242.3968437813423
 20
-158.7411974338839
 30
0.0
 40
9.144
  1
12
 41
1.0625
  7
ＭＳ ゴシック
100
AcDbText
  0
TEXT
  5
365
330
1F
100
AcDbEntity
  8
0-F
  6
Continuous
 62
     2
370
     9
100
AcDbText
 10
243.5844064660973
 20
-188.2567473771378
 30
0.0
 40
9.144
  1
25
 41
1.0625
  7
ＭＳ ゴシック
100
AcDbText
  0
TEXT
  5
366
330
1F
100
AcDbEntity
  8
0-F
  6
Continuous
 62
     2
370
     9
100
AcDbText
 10
144.4180639274924
 20
70.86602775807168
 30
0.0
 40
9.144
  1
400
 50
90.00000250447748
 41
1.083333333333333
  7
ＭＳ ゴシック
100
AcDbText
  0
TEXT
  5
367
330
1F
100
AcDbEntity
  8
0-F
  6
Continuous
 62
     2
370
     9
100
AcDbText
 10
113.9967727379479
 20
74.66737894446312
 30
0.0
 40
9.144
  1
14
 50
90.00000250447752
 41
1.0625
  7
ＭＳ ゴシック
100
AcDbText
  0
TEXT
  5
368
330
1F
100
AcDbEntity
  8
0-F
  6
Continuous
 62
     2
370
     9
100
AcDbText
 10
113.6550833819228
 20
148.6828319737865
 30
0.0
 40
9.144
  1
27.5
 50
90.00000250447745
 41
1.09375
  7
ＭＳ ゴシック
100
AcDbText
  0
TEXT
  5
369
330
1F
100
AcDbEntity
  8
F-5
  6
Continuous
 62
     2
370
     9
100
AcDbText
 10
-223.500086603938
 20
-404.2404887249921
 30
0.0
 40
9.144
  1
格子型鋳鉄製集水桝蓋　ＧＡ－４００角×２５
 41
1.119047619047619
  7
ＭＳ ゴシック
100
AcDbText
  0
ENDSEC
  0
SECTION
  2
OBJECTS
  0
DICTIONARY
  5
C
330
0
100
AcDbDictionary
281
     1
  3
ACAD_GROUP
350
D
  3
ACAD_LAYOUT
350
1A
  3
ACAD_MLEADERSTYLE
350
36B
  3
ACAD_MLINESTYLE
350
17
  3
ACAD_PLOTSETTINGS
350
19
  3
ACAD_PLOTSTYLENAME
350
E
  3
ACAD_TABLESTYLE
350
36A
  3
ACAD_VISUALSTYLE
350
2A
  0
DICTIONARY
  5
D
102
{ACAD_REACTORS
330
C
102
}
330
C
100
AcDbDictionary
281
     1
  0
DICTIONARY
  5
1A
102
{ACAD_REACTORS
330
C
102
}
330
C
100
AcDbDictionary
281
     1
  3
Layout1
350
1E
  3
Layout2
350
26
  3
Model
350
22
  0
DICTIONARY
  5
36B
102
{ACAD_REACTORS
330
C
102
}
330
C
100
AcDbDictionary
281
     1
  0
DICTIONARY
  5
17
102
{ACAD_REACTORS
330
C
102
}
330
C
100
AcDbDictionary
281
     1
  3
Standard
350
18
  0
DICTIONARY
  5
19
102
{ACAD_REACTORS
330
C
102
}
330
C
100
AcDbDictionary
281
     1
  0
ACDBDICTIONARYWDFLT
  5
E
102
{ACAD_REACTORS
330
C
102
}
330
C
100
AcDbDictionary
281
     1
  3
Normal
350
F
100
AcDbDictionaryWithDefault
340
F
  0
DICTIONARY
  5
36A
102
{ACAD_REACTORS
330
C
102
}
330
C
100
AcDbDictionary
281
     1
  0
DICTIONARY
  5
2A
102
{ACAD_REACTORS
330
C
102
}
330
C
100
AcDbDictionary
281
     1
  3
2dWireframe
350
2F
  3
3D Hidden
350
31
  3
3dWireframe
350
30
  3
Basic
350
32
  3
Brighten
350
36
  3
ColorChange
350
3A
  3
Conceptual
350
34
  3
Dim
350
35
  3
Facepattern
350
39
  3
Flat
350
2B
  3
FlatWithEdges
350
2C
  3
Gouraud
350
2D
  3
GouraudWithEdges
350
2E
  3
Linepattern
350
38
  3
Realistic
350
33
  3
Thicken
350
37
  0
LAYOUT
  5
1E
102
{ACAD_REACTORS
330
1A
102
}
330
1A
100
AcDbPlotSettings
  1

  2
none_device
  4

  6

 40
0.0
 41
0.0
 42
0.0
 43
0.0
 44
0.0
 45
0.0
 46
0.0
 47
0.0
 48
0.0
 49
0.0
140
0.0
141
0.0
142
1.0
143
1.0
 70
   688
 72
     0
 73
     0
 74
     5
  7

 75
    16
 76
     0
 77
     5
 78
   300
147
1.0
148
0.0
149
0.0
100
AcDbLayout
  1
Layout1
 70
     1
 71
     1
 10
0.0
 20
0.0
 11
420.0
 21
297.0
 12
0.0
 22
0.0
 32
0.0
 14
1.000000000000000E+20
 24
1.000000000000000E+20
 34
1.000000000000000E+20
 15
-1.000000000000000E+20
 25
-1.000000000000000E+20
 35
-1.000000000000000E+20
146
0.0
 13
0.0
 23
0.0
 33
0.0
 16
1.0
 26
0.0
 36
0.0
 17
0.0
 27
1.0
 37
0.0
 76
     0
330
1B
  0
LAYOUT
  5
26
102
{ACAD_REACTORS
330
1A
102
}
330
1A
100
AcDbPlotSettings
  1

  2
none_device
  4

  6

 40
0.0
 41
0.0
 42
0.0
 43
0.0
 44
0.0
 45
0.0
 46
0.0
 47
0.0
 48
0.0
 49
0.0
140
0.0
141
0.0
142
1.0
143
1.0
 70
   688
 72
     0
 73
     0
 74
     5
  7

 75
    16
 76
     0
 77
     5
 78
   300
147
1.0
148
0.0
149
0.0
100
AcDbLayout
  1
Layout2
 70
     1
 71
     2
 10
0.0
 20
0.0
 11
0.0
 21
0.0
 12
0.0
 22
0.0
 32
0.0
 14
0.0
 24
0.0
 34
0.0
 15
0.0
 25
0.0
 35
0.0
146
0.0
 13
0.0
 23
0.0
 33
0.0
 16
1.0
 26
0.0
 36
0.0
 17
0.0
 27
1.0
 37
0.0
 76
     0
330
23
  0
LAYOUT
  5
22
102
{ACAD_REACTORS
330
1A
102
}
330
1A
100
AcDbPlotSettings
  1

  2
none_device
  4

  6

 40
0.0
 41
0.0
 42
0.0
 43
0.0
 44
0.0
 45
0.0
 46
0.0
 47
0.0
 48
0.0
 49
0.0
140
0.0
141
0.0
142
1.0
143
1.0
 70
  1712
 72
     0
 73
     0
 74
     0
  7

 75
     0
 76
     0
 77
     5
 78
   300
147
1.0
148
0.0
149
0.0
100
AcDbLayout
  1
Model
 70
     1
 71
     0
 10
-630.0
 20
-445.5
 11
630.0
 21
445.5
 12
0.0
 22
0.0
 32
0.0
 14
-630.0
 24
-445.5
 34
0.0
 15
630.0
 25
445.5
 35
0.0
146
0.0
 13
0.0
 23
0.0
 33
0.0
 16
1.0
 26
0.0
 36
0.0
 17
0.0
 27
1.0
 37
0.0
 76
     0
330
1F
331
29
  0
MLINESTYLE
  5
18
102
{ACAD_REACTORS
330
17
102
}
330
17
100
AcDbMlineStyle
  2
Standard
 70
     0
  3

 62
   256
 51
90.0
 52
90.0
 71
     2
 49
0.5
 62
   256
  6
BYLAYER
 49
-0.5
 62
   256
  6
BYLAYER
  0
ACDBPLACEHOLDER
  5
F
102
{ACAD_REACTORS
330
E
102
}
330
E
  0
VISUALSTYLE
  5
2F
102
{ACAD_REACTORS
330
2A
102
}
330
2A
100
AcDbVisualStyle
  2
2dWireframe
 70
     4
 71
     0
 72
     2
 73
     0
 90
        0
 40
-0.6
 41
-30.0
 62
     5
 63
     7
421
 16777215
 74
     1
 91
        4
 64
     7
 65
   257
 75
     1
175
     1
 42
1.0
 92
        0
 66
   257
 43
1.0
 76
     1
 77
     6
 78
     2
 67
     7
 79
     5
170
     0
171
     0
290
     0
174
     0
 93
        1
 44
0.0
173
     0
291
     0
 45
0.0
1001
ACAD
1000
AcDbSavedByObjectVersion
1070
     0
  0
VISUALSTYLE
  5
31
102
{ACAD_REACTORS
330
2A
102
}
330
2A
100
AcDbVisualStyle
  2
3D Hidden
 70
     6
 71
     1
 72
     2
 73
     2
 90
        0
 40
-0.6
 41
-30.0
 62
     5
 63
     7
421
 16777215
 74
     2
 91
        2
 64
     7
 65
   257
 75
     2
175
     1
 42
40.0
 92
        0
 66
   257
 43
1.0
 76
     1
 77
     6
 78
     2
 67
     7
 79
     3
170
     0
171
     0
290
     0
174
     0
 93
        1
 44
0.0
173
     0
291
     0
 45
0.0
1001
ACAD
1000
AcDbSavedByObjectVersion
1070
     0
  0
VISUALSTYLE
  5
30
102
{ACAD_REACTORS
330
2A
102
}
330
2A
100
AcDbVisualStyle
  2
3dWireframe
 70
     5
 71
     0
 72
     2
 73
     0
 90
        0
 40
-0.6
 41
-30.0
 62
     5
 63
     7
421
 16777215
 74
     1
 91
        4
 64
     7
 65
   257
 75
     1
175
     1
 42
1.0
 92
        0
 66
   257
 43
1.0
 76
     1
 77
     6
 78
     2
 67
     7
 79
     5
170
     0
171
     0
290
     0
174
     0
 93
        1
 44
0.0
173
     0
291
     0
 45
0.0
1001
ACAD
1000
AcDbSavedByObjectVersion
1070
     0
  0
VISUALSTYLE
  5
32
102
{ACAD_REACTORS
330
2A
102
}
330
2A
100
AcDbVisualStyle
  2
Basic
 70
     7
 71
     1
 72
     0
 73
     1
 90
        0
 40
-0.6
 41
-30.0
 62
     5
 63
     7
421
 16777215
 74
     0
 91
        4
 64
     7
 65
   257
 75
     1
175
     1
 42
1.0
 92
        8
 66
     7
 43
1.0
 76
     1
 77
     6
 78
     2
 67
     7
 79
     5
170
     0
171
     0
290
     0
174
     0
 93
        1
 44
0.0
173
     0
291
     1
 45
0.0
1001
ACAD
1000
AcDbSavedByObjectVersion
1070
     0
  0
VISUALSTYLE
  5
36
102
{ACAD_REACTORS
330
2A
102
}
330
2A
100
AcDbVisualStyle
  2
Brighten
 70
    12
 71
     2
 72
     2
 73
     0
 90
        0
 40
-0.6
 41
-30.0
 62
     5
 63
     7
421
 16777215
 74
     1
 91
        4
 64
     7
 65
   257
 75
     1
175
     1
 42
1.0
 92
        8
 66
     7
 43
1.0
 76
     1
 77
     6
 78
     2
 67
     7
 79
     5
170
     0
171
     0
290
     0
174
     0
 93
        1
 44
50.0
173
     0
291
     1
 45
0.0
1001
ACAD
1000
AcDbSavedByObjectVersion
1070
     0
  0
VISUALSTYLE
  5
3A
102
{ACAD_REACTORS
330
2A
102
}
330
2A
100
AcDbVisualStyle
  2
ColorChange
 70
    16
 71
     2
 72
     2
 73
     3
 90
        0
 40
-0.6
 41
-30.0
 62
     5
 63
     8
421
  8421504
 74
     1
 91
        4
 64
     7
 65
   257
 75
     1
175
     1
 42
1.0
 92
        8
 66
     8
424
  8421504
 43
1.0
 76
     1
 77
     6
 78
     2
 67
     7
 79
     5
170
     0
171
     0
290
     0
174
     0
 93
        1
 44
0.0
173
     0
291
     1
 45
0.0
1001
ACAD
1000
AcDbSavedByObjectVersion
1070
     0
  0
VISUALSTYLE
  5
34
102
{ACAD_REACTORS
330
2A
102
}
330
2A
100
AcDbVisualStyle
  2
Conceptual
 70
     9
 71
     3
 72
     2
 73
     0
 90
        0
 40
-0.6
 41
-30.0
 62
     5
 63
     7
421
 16777215
 74
     2
 91
        2
 64
     7
 65
   257
 75
     1
175
     1
 42
40.0
 92
        8
 66
     7
 43
1.0
 76
     1
 77
     6
 78
     2
 67
     7
 79
     3
170
     0
171
     0
290
     0
174
     0
 93
        1
 44
0.0
173
     0
291
     0
 45
0.0
1001
ACAD
1000
AcDbSavedByObjectVersion
1070
     0
  0
VISUALSTYLE
  5
35
102
{ACAD_REACTORS
330
2A
102
}
330
2A
100
AcDbVisualStyle
  2
Dim
 70
    11
 71
     2
 72
     2
 73
     0
 90
        0
 40
-0.6
 41
-30.0
 62
     5
 63
     7
421
 16777215
 74
     1
 91
        4
 64
     7
 65
   257
 75
     1
175
     1
 42
1.0
 92
        8
 66
     7
 43
1.0
 76
     1
 77
     6
 78
     2
 67
     7
 79
     5
170
     0
171
     0
290
     0
174
     0
 93
        1
 44
-50.0
173
     0
291
     1
 45
0.0
1001
ACAD
1000
AcDbSavedByObjectVersion
1070
     0
  0
VISUALSTYLE
  5
39
102
{ACAD_REACTORS
330
2A
102
}
330
2A
100
AcDbVisualStyle
  2
Facepattern
 70
    15
 71
     2
 72
     2
 73
     0
 90
        0
 40
-0.6
 41
-30.0
 62
     5
 63
     7
421
 16777215
 74
     1
 91
        4
 64
     7
 65
   257
 75
     1
175
     1
 42
1.0
 92
        8
 66
     7
 43
1.0
 76
     1
 77
     6
 78
     2
 67
     7
 79
     5
170
     0
171
     0
290
     0
174
     0
 93
        1
 44
0.0
173
     0
291
     1
 45
0.0
1001
ACAD
1000
AcDbSavedByObjectVersion
1070
     0
  0
VISUALSTYLE
  5
2B
102
{ACAD_REACTORS
330
2A
102
}
330
2A
100
AcDbVisualStyle
  2
Flat
 70
     0
 71
     2
 72
     1
 73
     1
 90
        2
 40
-0.6
 41
30.0
 62
     5
 63
     7
421
 16777215
 74
     0
 91
        4
 64
     7
 65
   257
 75
     1
175
     1
 42
1.0
 92
        8
 66
     7
 43
1.0
 76
     1
 77
     6
 78
     2
 67
     7
 79
     5
170
     0
171
     0
290
     0
174
     0
 93
       13
 44
0.0
173
     0
291
     1
 45
0.0
1001
ACAD
1000
AcDbSavedByObjectVersion
1070
     0
  0
VISUALSTYLE
  5
2C
102
{ACAD_REACTORS
330
2A
102
}
330
2A
100
AcDbVisualStyle
  2
FlatWithEdges
 70
     1
 71
     2
 72
     1
 73
     1
 90
        2
 40
-0.6
 41
30.0
 62
     5
 63
     7
421
 16777215
 74
     1
 91
        4
 64
     7
 65
   257
 75
     1
175
     1
 42
1.0
 92
        0
 66
   257
 43
1.0
 76
     1
 77
     6
 78
     2
 67
     7
 79
     5
170
     0
171
     0
290
     0
174
     0
 93
       13
 44
0.0
173
     0
291
     1
 45
0.0
1001
ACAD
1000
AcDbSavedByObjectVersion
1070
     0
  0
VISUALSTYLE
  5
2D
102
{ACAD_REACTORS
330
2A
102
}
330
2A
100
AcDbVisualStyle
  2
Gouraud
 70
     2
 71
     2
 72
     2
 73
     1
 90
        2
 40
-0.6
 41
30.0
 62
     5
 63
     7
421
 16777215
 74
     0
 91
        4
 64
     7
 65
   257
 75
     1
175
     1
 42
1.0
 92
        0
 66
     7
 43
1.0
 76
     1
 77
     6
 78
     2
 67
     7
 79
     5
170
     0
171
     0
290
     0
174
     0
 93
       13
 44
0.0
173
     0
291
     1
 45
0.0
1001
ACAD
1000
AcDbSavedByObjectVersion
1070
     0
  0
VISUALSTYLE
  5
2E
102
{ACAD_REACTORS
330
2A
102
}
330
2A
100
AcDbVisualStyle
  2
GouraudWithEdges
 70
     3
 71
     2
 72
     2
 73
     1
 90
        2
 40
-0.6
 41
30.0
 62
     5
 63
     7
421
 16777215
 74
     1
 91
        4
 64
     7
 65
   257
 75
     1
175
     1
 42
1.0
 92
        0
 66
   257
 43
1.0
 76
     1
 77
     6
 78
     2
 67
     7
 79
     5
170
     0
171
     0
290
     0
174
     0
 93
       13
 44
0.0
173
     0
291
     1
 45
0.0
1001
ACAD
1000
AcDbSavedByObjectVersion
1070
     0
  0
VISUALSTYLE
  5
38
102
{ACAD_REACTORS
330
2A
102
}
330
2A
100
AcDbVisualStyle
  2
Linepattern
 70
    14
 71
     2
 72
     2
 73
     0
 90
        0
 40
-0.6
 41
-30.0
 62
     5
 63
     7
421
 16777215
 74
     1
 91
        4
 64
     7
 65
   257
 75
     7
175
     7
 42
1.0
 92
        8
 66
     7
 43
1.0
 76
     1
 77
     6
 78
     2
 67
     7
 79
     5
170
     0
171
     0
290
     0
174
     0
 93
        1
 44
0.0
173
     0
291
     1
 45
0.0
1001
ACAD
1000
AcDbSavedByObjectVersion
1070
     0
  0
VISUALSTYLE
  5
33
102
{ACAD_REACTORS
330
2A
102
}
330
2A
100
AcDbVisualStyle
  2
Realistic
 70
     8
 71
     2
 72
     2
 73
     0
 90
        0
 40
-0.6
 41
-30.0
 62
     5
 63
     7
421
 16777215
 74
     1
 91
        0
 64
     7
 65
   257
 75
     1
175
     1
 42
1.0
 92
        8
 66
     8
424
  7895160
 43
1.0
 76
     1
 77
     6
 78
     2
 67
     7
 79
     5
170
     0
171
     0
290
     0
174
     0
 93
       13
 44
0.0
173
     0
291
     0
 45
0.0
1001
ACAD
1000
AcDbSavedByObjectVersion
1070
     0
  0
VISUALSTYLE
  5
37
102
{ACAD_REACTORS
330
2A
102
}
330
2A
100
AcDbVisualStyle
  2
Thicken
 70
    13
 71
     2
 72
     2
 73
     0
 90
        0
 40
-0.6
 41
-30.0
 62
     5
 63
     7
421
 16777215
 74
     1
 91
        4
 64
     7
 65
   257
 75
     1
175
     1
 42
1.0
 92
       12
 66
     7
 43
1.0
 76
     1
 77
     6
 78
     2
 67
     7
 79
     5
170
     0
171
     0
290
     0
174
     0
 93
        1
 44
0.0
173
     0
291
     1
 45
0.0
1001
ACAD
1000
AcDbSavedByObjectVersion
1070
     0
  0
ENDSEC
  0
EOF
