  0
SECTION
  2
HEADER
  9
$ACADVER
  1
AC1018
  9
$ACADMAINTVER
 70
     0
  9
$DWGCODEPAGE
  3
ANSI_932
  9
$INSBASE
 10
0.0
 20
0.0
 30
0.0
  9
$EXTMIN
 10
-840.0
 20
-594.0
 30
0.0
  9
$EXTMAX
 10
840.0
 20
594.0
 30
0.0
  9
$LIMMIN
 10
-840.0
 20
-594.0
  9
$LIMMAX
 10
840.0
 20
594.0
  9
$ORTHOMODE
 70
     0
  9
$REGENMODE
 70
     1
  9
$FILLMODE
 70
     1
  9
$QTEXTMODE
 70
     0
  9
$MIRRTEXT
 70
     1
  9
$LTSCALE
 40
4.0
  9
$ATTMODE
 70
     1
  9
$TEXTSIZE
 40
2.5
  9
$TRACEWID
 40
1.0
  9
$TEXTSTYLE
  7
Standard
  9
$CLAYER
  8
0
  9
$CELTYPE
  6
ByLayer
  9
$CECOLOR
 62
   256
  9
$CELTSCALE
 40
1.0
  9
$DISPSILH
 70
     0
  9
$DIMSCALE
 40
1.0
  9
$DIMASZ
 40
2.5
  9
$DIMEXO
 40
0.625
  9
$DIMDLI
 40
3.75
  9
$DIMRND
 40
0.0
  9
$DIMDLE
 40
0.0
  9
$DIMEXE
 40
1.25
  9
$DIMTP
 40
0.0
  9
$DIMTM
 40
0.0
  9
$DIMTXT
 40
2.5
  9
$DIMCEN
 40
2.5
  9
$DIMTSZ
 40
0.0
  9
$DIMTOL
 70
     0
  9
$DIMLIM
 70
     0
  9
$DIMTIH
 70
     0
  9
$DIMTOH
 70
     0
  9
$DIMSE1
 70
     0
  9
$DIMSE2
 70
     0
  9
$DIMTAD
 70
     1
  9
$DIMZIN
 70
     8
  9
$DIMBLK
  1

  9
$DIMASO
 70
     1
  9
$DIMSHO
 70
     1
  9
$DIMPOST
  1

  9
$DIMAPOST
  1

  9
$DIMALT
 70
     0
  9
$DIMALTD
 70
     3
  9
$DIMALTF
 40
0.03937007874016
  9
$DIMLFAC
 40
1.0
  9
$DIMTOFL
 70
     1
  9
$DIMTVP
 40
0.0
  9
$DIMTIX
 70
     0
  9
$DIMSOXD
 70
     0
  9
$DIMSAH
 70
     0
  9
$DIMBLK1
  1

  9
$DIMBLK2
  1

  9
$DIMSTYLE
  2
ISO-25
  9
$DIMCLRD
 70
     0
  9
$DIMCLRE
 70
     0
  9
$DIMCLRT
 70
     0
  9
$DIMTFAC
 40
1.0
  9
$DIMGAP
 40
0.625
  9
$DIMJUST
 70
     0
  9
$DIMSD1
 70
     0
  9
$DIMSD2
 70
     0
  9
$DIMTOLJ
 70
     0
  9
$DIMTZIN
 70
     8
  9
$DIMALTZ
 70
     0
  9
$DIMALTTZ
 70
     0
  9
$DIMUPT
 70
     0
  9
$DIMDEC
 70
     2
  9
$DIMTDEC
 70
     2
  9
$DIMALTU
 70
     2
  9
$DIMALTTD
 70
     3
  9
$DIMTXSTY
  7
Standard
  9
$DIMAUNIT
 70
     0
  9
$DIMADEC
 70
     0
  9
$DIMALTRND
 40
0.0
  9
$DIMAZIN
 70
     0
  9
$DIMDSEP
 70
    44
  9
$DIMATFIT
 70
     3
  9
$DIMFRAC
 70
     0
  9
$DIMLDRBLK
  1

  9
$DIMLUNIT
 70
     2
  9
$DIMLWD
 70
    -2
  9
$DIMLWE
 70
    -2
  9
$DIMTMOVE
 70
     0
  9
$LUNITS
 70
     2
  9
$LUPREC
 70
     4
  9
$SKETCHINC
 40
1.0
  9
$FILLETRAD
 40
10.0
  9
$AUNITS
 70
     0
  9
$AUPREC
 70
     0
  9
$MENU
  1
.
  9
$ELEVATION
 40
0.0
  9
$PELEVATION
 40
0.0
  9
$THICKNESS
 40
0.0
  9
$LIMCHECK
 70
     0
  9
$CHAMFERA
 40
10.0
  9
$CHAMFERB
 40
10.0
  9
$CHAMFERC
 40
20.0
  9
$CHAMFERD
 40
0.0
  9
$SKPOLY
 70
     0
  9
$TDCREATE
 40
2456498.823230613
  9
$TDUCREATE
 40
2456498.448230613
  9
$TDUPDATE
 40
2456498.823230625
  9
$TDUUPDATE
 40
2456498.448230625
  9
$TDINDWG
 40
0.0000000116
  9
$TDUSRTIMER
 40
0.0000000116
  9
$USRTIMER
 70
     1
  9
$ANGBASE
 50
0.0
  9
$ANGDIR
 70
     0
  9
$PDMODE
 70
     0
  9
$PDSIZE
 40
0.0
  9
$PLINEWID
 40
0.0
  9
$SPLFRAME
 70
     0
  9
$SPLINETYPE
 70
     6
  9
$SPLINESEGS
 70
     8
  9
$HANDSEED
  5
523
  9
$SURFTAB1
 70
     6
  9
$SURFTAB2
 70
     6
  9
$SURFTYPE
 70
     6
  9
$SURFU
 70
     6
  9
$SURFV
 70
     6
  9
$UCSBASE
  2

  9
$UCSNAME
  2

  9
$UCSORG
 10
0.0
 20
0.0
 30
0.0
  9
$UCSXDIR
 10
1.0
 20
0.0
 30
0.0
  9
$UCSYDIR
 10
0.0
 20
1.0
 30
0.0
  9
$UCSORTHOREF
  2

  9
$UCSORTHOVIEW
 70
     0
  9
$UCSORGTOP
 10
0.0
 20
0.0
 30
0.0
  9
$UCSORGBOTTOM
 10
0.0
 20
0.0
 30
0.0
  9
$UCSORGLEFT
 10
0.0
 20
0.0
 30
0.0
  9
$UCSORGRIGHT
 10
0.0
 20
0.0
 30
0.0
  9
$UCSORGFRONT
 10
0.0
 20
0.0
 30
0.0
  9
$UCSORGBACK
 10
0.0
 20
0.0
 30
0.0
  9
$PUCSBASE
  2

  9
$PUCSNAME
  2

  9
$PUCSORG
 10
0.0
 20
0.0
 30
0.0
  9
$PUCSXDIR
 10
1.0
 20
0.0
 30
0.0
  9
$PUCSYDIR
 10
0.0
 20
1.0
 30
0.0
  9
$PUCSORTHOREF
  2

  9
$PUCSORTHOVIEW
 70
     0
  9
$PUCSORGTOP
 10
0.0
 20
0.0
 30
0.0
  9
$PUCSORGBOTTOM
 10
0.0
 20
0.0
 30
0.0
  9
$PUCSORGLEFT
 10
0.0
 20
0.0
 30
0.0
  9
$PUCSORGRIGHT
 10
0.0
 20
0.0
 30
0.0
  9
$PUCSORGFRONT
 10
0.0
 20
0.0
 30
0.0
  9
$PUCSORGBACK
 10
0.0
 20
0.0
 30
0.0
  9
$USERI1
 70
     0
  9
$USERI2
 70
     0
  9
$USERI3
 70
     0
  9
$USERI4
 70
     0
  9
$USERI5
 70
     0
  9
$USERR1
 40
0.0
  9
$USERR2
 40
0.0
  9
$USERR3
 40
0.0
  9
$USERR4
 40
0.0
  9
$USERR5
 40
0.0
  9
$WORLDVIEW
 70
     1
  9
$SHADEDGE
 70
     3
  9
$SHADEDIF
 70
    70
  9
$TILEMODE
 70
     1
  9
$MAXACTVP
 70
    64
  9
$PINSBASE
 10
0.0
 20
0.0
 30
0.0
  9
$PLIMCHECK
 70
     0
  9
$PEXTMIN
 10
1.000000000000000E+20
 20
1.000000000000000E+20
 30
1.000000000000000E+20
  9
$PEXTMAX
 10
-1.000000000000000E+20
 20
-1.000000000000000E+20
 30
-1.000000000000000E+20
  9
$PLIMMIN
 10
0.0
 20
0.0
  9
$PLIMMAX
 10
420.0
 20
297.0
  9
$UNITMODE
 70
     0
  9
$VISRETAIN
 70
     1
  9
$PLINEGEN
 70
     0
  9
$PSLTSCALE
 70
     1
  9
$TREEDEPTH
 70
  3020
  9
$CMLSTYLE
  2
Standard
  9
$CMLJUST
 70
     0
  9
$CMLSCALE
 40
20.0
  9
$PROXYGRAPHICS
 70
     1
  9
$MEASUREMENT
 70
     1
  9
$CELWEIGHT
370
    -1
  9
$ENDCAPS
280
     0
  9
$JOINSTYLE
280
     0
  9
$LWDISPLAY
290
     0
  9
$INSUNITS
 70
     4
  9
$HYPERLINKBASE
  1

  9
$STYLESHEET
  1

  9
$XEDIT
290
     1
  9
$CEPSNTYPE
380
     0
  9
$PSTYLEMODE
290
     1
  9
$FINGERPRINTGUID
  2
{C8E89ADE-E626-4AFF-AF22-0FDDDA8B9862}
  9
$VERSIONGUID
  2
{FAEB1C32-E019-11D5-929B-00C0DF256EC4}
  9
$EXTNAMES
290
     1
  9
$PSVPSCALE
 40
0.0
  9
$OLESTARTUP
290
     0
  9
$SORTENTS
280
   127
  9
$INDEXCTL
280
     0
  9
$HIDETEXT
280
     1
  9
$XCLIPFRAME
290
     0
  9
$HALOGAP
280
     0
  9
$OBSCOLOR
 70
   257
  9
$OBSLTYPE
280
     0
  9
$INTERSECTIONDISPLAY
280
     0
  9
$INTERSECTIONCOLOR
 70
   257
  9
$DIMASSOC
280
     2
  9
$PROJECTNAME
  1

  0
ENDSEC
  0
SECTION
  2
CLASSES
  0
CLASS
  1
ACDBDICTIONARYWDFLT
  2
AcDbDictionaryWithDefault
  3
ObjectDBX Classes
 90
        0
 91
        4
280
     0
281
     0
  0
CLASS
  1
VISUALSTYLE
  2
AcDbVisualStyle
  3
ObjectDBX Classes
 90
     4095
 91
        4
280
     0
281
     0
  0
ENDSEC
  0
SECTION
  2
TABLES
  0
TABLE
  2
VPORT
  5
8
330
0
100
AcDbSymbolTable
 70
     1
  0
VPORT
  5
29
330
8
100
AcDbSymbolTableRecord
100
AcDbViewportTableRecord
  2
*Active
 70
     0
 10
0.0
 20
0.0
 11
1.0
 21
1.0
 12
0.0
 22
0.0
 13
0.0
 23
0.0
 14
10.0
 24
10.0
 15
10.0
 25
10.0
 16
0.0
 26
0.0
 36
1.0
 17
0.0
 27
0.0
 37
0.0
 40
1306.8
 41
1.414141414141414
 42
50.0
 43
0.0
 44
0.0
 50
0.0
 51
0.0
 71
     0
 72
 10000
 73
     1
 74
     3
 75
     0
 76
     0
 77
     0
 78
     0
281
     0
 65
     1
110
0.0
120
0.0
130
0.0
111
1.0
121
0.0
131
0.0
112
0.0
122
1.0
132
0.0
 79
     0
146
0.0
  0
ENDTAB
  0
TABLE
  2
LTYPE
  5
5
330
0
100
AcDbSymbolTable
 70
     2
  0
LTYPE
  5
14
330
5
100
AcDbSymbolTableRecord
100
AcDbLinetypeTableRecord
  2
ByBlock
 70
     0
  3

 72
    65
 73
     0
 40
0.0
  0
LTYPE
  5
15
330
5
100
AcDbSymbolTableRecord
100
AcDbLinetypeTableRecord
  2
ByLayer
 70
     0
  3

 72
    65
 73
     0
 40
0.0
  0
LTYPE
  5
16
330
5
100
AcDbSymbolTableRecord
100
AcDbLinetypeTableRecord
  2
Continuous
 70
     0
  3
Solid line
 72
    65
 73
     0
 40
0.0
  0
LTYPE
  5
3C
330
5
100
AcDbSymbolTableRecord
100
AcDbLinetypeTableRecord
  2
JWW_CENTER1
 70
     0
  3
-----  --  ----------  --  -----
 72
    65
 73
     4
 40
6.773333333333333
 49
4.233333333333333
 74
     0
 49
-0.8466666666666667
 74
     0
 49
0.8466666666666667
 74
     0
 49
-0.8466666666666667
 74
     0
  0
ENDTAB
  0
TABLE
  2
LAYER
  5
2
330
0
100
AcDbSymbolTable
 70
     4
  0
LAYER
  5
10
330
2
100
AcDbSymbolTableRecord
100
AcDbLayerTableRecord
  2
0
 70
     0
 62
     7
  6
Continuous
370
    -3
390
F
  0
LAYER
  5
3D
330
2
100
AcDbSymbolTableRecord
100
AcDbLayerTableRecord
  2
0-0
 70
     0
 62
     7
  6
Continuous
370
    -3
390
F
  0
LAYER
  5
3E
330
2
100
AcDbSymbolTableRecord
100
AcDbLayerTableRecord
  2
0-F
 70
     0
 62
     7
  6
Continuous
370
    -3
390
F
  0
LAYER
  5
3F
330
2
100
AcDbSymbolTableRecord
100
AcDbLayerTableRecord
  2
F-5
 70
     0
 62
     7
  6
Continuous
370
    -3
390
F
  0
ENDTAB
  0
TABLE
  2
STYLE
  5
3
330
0
100
AcDbSymbolTable
 70
     2
  0
STYLE
  5
11
330
3
100
AcDbSymbolTableRecord
100
AcDbTextStyleTableRecord
  2
Standard
 70
     0
 40
0.0
 41
1.0
 50
0.0
 71
     0
 42
2.5
  3
txt
  4

1001
ACAD
1000

1071
        0
  0
STYLE
  5
3B
330
3
100
AcDbSymbolTableRecord
100
AcDbTextStyleTableRecord
  2
ＭＳ ゴシック
 70
     0
 40
1.0
 41
1.0
 50
0.0
 71
     0
 42
10.0
  3

  4

1001
ACAD
1000
MS Gothic
1071
    32817
  0
ENDTAB
  0
TABLE
  2
VIEW
  5
6
330
0
100
AcDbSymbolTable
 70
     0
  0
ENDTAB
  0
TABLE
  2
UCS
  5
7
330
0
100
AcDbSymbolTable
 70
     0
  0
ENDTAB
  0
TABLE
  2
APPID
  5
9
330
0
100
AcDbSymbolTable
 70
     1
  0
APPID
  5
12
330
9
100
AcDbSymbolTableRecord
100
AcDbRegAppTableRecord
  2
ACAD
 70
     0
  0
ENDTAB
  0
TABLE
  2
DIMSTYLE
  5
A
330
0
100
AcDbSymbolTable
 70
     1
100
AcDbDimStyleTable
  0
DIMSTYLE
105
27
330
A
100
AcDbSymbolTableRecord
100
AcDbDimStyleTableRecord
  2
ISO-25
 70
     0
 41
2.5
 42
0.625
 43
3.75
 44
1.25
 73
     0
 74
     0
 77
     1
 78
     8
140
2.5
141
2.5
143
0.03937007874016
147
0.625
171
     3
172
     1
271
     2
272
     2
274
     3
278
    44
283
     0
284
     8
340
11
  0
ENDTAB
  0
TABLE
  2
BLOCK_RECORD
  5
1
330
0
100
AcDbSymbolTable
 70
     1
  0
BLOCK_RECORD
  5
1F
330
1
100
AcDbSymbolTableRecord
100
AcDbBlockTableRecord
  2
*Model_Space
340
22
  0
BLOCK_RECORD
  5
1B
330
1
100
AcDbSymbolTableRecord
100
AcDbBlockTableRecord
  2
*Paper_Space
340
1E
  0
BLOCK_RECORD
  5
23
330
1
100
AcDbSymbolTableRecord
100
AcDbBlockTableRecord
  2
*Paper_Space0
340
26
  0
ENDTAB
  0
ENDSEC
  0
SECTION
  2
BLOCKS
  0
BLOCK
  5
20
330
1F
100
AcDbEntity
  8
0
100
AcDbBlockBegin
  2
*Model_Space
 70
     0
 10
0.0
 20
0.0
 30
0.0
  3
*Model_Space
  1

  0
ENDBLK
  5
21
330
1F
100
AcDbEntity
  8
0
100
AcDbBlockEnd
  0
BLOCK
  5
1C
330
1B
100
AcDbEntity
 67
     1
  8
0
100
AcDbBlockBegin
  2
*Paper_Space
 70
     0
 10
0.0
 20
0.0
 30
0.0
  3
*Paper_Space
  1

  0
ENDBLK
  5
1D
330
1B
100
AcDbEntity
 67
     1
  8
0
100
AcDbBlockEnd
  0
BLOCK
  5
24
330
23
100
AcDbEntity
  8
0
100
AcDbBlockBegin
  2
*Paper_Space0
 70
     0
 10
0.0
 20
0.0
 30
0.0
  3
*Paper_Space0
  1

  0
ENDBLK
  5
25
330
23
100
AcDbEntity
  8
0
100
AcDbBlockEnd
  0
ENDSEC
  0
SECTION
  2
ENTITIES
  0
LINE
  5
40
330
1F
100
AcDbEntity
  8
0-0
  6
Continuous
 62
     3
370
     9
100
AcDbLine
 10
290.843130575644
 20
-122.5145527607684
 30
0.0
 11
290.843130575644
 21
370.4324390308279
 31
0.0
  0
LINE
  5
41
330
1F
100
AcDbEntity
  8
0-0
  6
Continuous
 62
     3
370
     9
100
AcDbLine
 10
-489.156869424356
 20
373.9589513830239
 30
0.0
 11
10.84309758366771
 21
373.9589513830239
 31
0.0
  0
LINE
  5
42
330
1F
100
AcDbEntity
  8
0-0
  6
Continuous
 62
     3
370
     9
100
AcDbLine
 10
10.84309758366771
 20
-126.0411146009289
 30
0.0
 11
10.84309758366771
 21
373.9589513830239
 31
0.0
  0
LINE
  5
43
330
1F
100
AcDbEntity
  8
0-0
  6
Continuous
 62
     3
370
     9
100
AcDbLine
 10
-232.1569123139252
 20
132.4589216902451
 30
0.0
 11
-232.1569123139252
 21
154.9589216902451
 31
0.0
  0
LINE
  5
44
330
1F
100
AcDbEntity
  8
0-0
  6
Continuous
 62
     3
370
     9
100
AcDbLine
 10
-230.6568826211465
 20
130.958941485431
 30
0.0
 11
-208.1568826211465
 21
130.958941485431
 31
0.0
  0
LINE
  5
45
330
1F
100
AcDbEntity
  8
0-0
  6
Continuous
 62
     3
370
     9
100
AcDbLine
 10
-206.6569024163323
 20
132.4589216902451
 30
0.0
 11
-206.6569024163323
 21
154.9589216902451
 31
0.0
  0
LINE
  5
46
330
1F
100
AcDbEntity
  8
0-0
  6
Continuous
 62
     3
370
     9
100
AcDbLine
 10
-230.6568826211465
 20
156.4589513830239
 30
0.0
 11
-208.1568826211465
 21
156.4589513830239
 31
0.0
  0
LINE
  5
47
330
1F
100
AcDbEntity
  8
0-0
  6
Continuous
 62
     3
370
     9
100
AcDbLine
 10
-191.1568760227512
 20
156.4589513830239
 30
0.0
 11
-168.6568760227512
 21
156.4589513830239
 31
0.0
  0
LINE
  5
48
330
1F
100
AcDbEntity
  8
0-0
  6
Continuous
 62
     3
370
     9
100
AcDbLine
 10
-167.1568958179371
 20
132.4589216902451
 30
0.0
 11
-167.1568958179371
 21
154.9589216902451
 31
0.0
  0
LINE
  5
49
330
1F
100
AcDbEntity
  8
0-0
  6
Continuous
 62
     3
370
     9
100
AcDbLine
 10
-191.1568760227512
 20
130.958941485431
 30
0.0
 11
-168.6568760227512
 21
130.958941485431
 31
0.0
  0
LINE
  5
4A
330
1F
100
AcDbEntity
  8
0-0
  6
Continuous
 62
     3
370
     9
100
AcDbLine
 10
-192.6569057155299
 20
132.4589216902451
 30
0.0
 11
-192.6569057155299
 21
154.9589216902451
 31
0.0
  0
LINE
  5
4B
330
1F
100
AcDbEntity
  8
0-0
  6
Continuous
 62
     3
370
     9
100
AcDbLine
 10
-153.1568991171347
 20
132.4589216902451
 30
0.0
 11
-153.1568991171347
 21
154.9589216902451
 31
0.0
  0
LINE
  5
4C
330
1F
100
AcDbEntity
  8
0-0
  6
Continuous
 62
     3
370
     9
100
AcDbLine
 10
-151.6568694243559
 20
130.958941485431
 30
0.0
 11
-129.1568694243559
 21
130.958941485431
 31
0.0
  0
LINE
  5
4D
330
1F
100
AcDbEntity
  8
0-0
  6
Continuous
 62
     3
370
     9
100
AcDbLine
 10
-127.6568892195418
 20
132.4589216902451
 30
0.0
 11
-127.6568892195418
 21
154.9589216902451
 31
0.0
  0
LINE
  5
4E
330
1F
100
AcDbEntity
  8
0-0
  6
Continuous
 62
     3
370
     9
100
AcDbLine
 10
-151.6568694243559
 20
156.4589513830239
 30
0.0
 11
-129.1568694243559
 21
156.4589513830239
 31
0.0
  0
LINE
  5
4F
330
1F
100
AcDbEntity
  8
0-0
  6
Continuous
 62
     3
370
     9
100
AcDbLine
 10
-112.1569123139252
 20
156.4589513830239
 30
0.0
 11
-89.6569123139252
 21
156.4589513830239
 31
0.0
  0
LINE
  5
50
330
1F
100
AcDbEntity
  8
0-0
  6
Continuous
 62
     3
370
     9
100
AcDbLine
 10
-88.15688262114645
 20
132.4589216902451
 30
0.0
 11
-88.15688262114645
 21
154.9589216902451
 31
0.0
  0
LINE
  5
51
330
1F
100
AcDbEntity
  8
0-0
  6
Continuous
 62
     3
370
     9
100
AcDbLine
 10
-112.1569123139252
 20
130.958941485431
 30
0.0
 11
-89.6569123139252
 21
130.958941485431
 31
0.0
  0
LINE
  5
52
330
1F
100
AcDbEntity
  8
0-0
  6
Continuous
 62
     3
370
     9
100
AcDbLine
 10
-113.6568925187394
 20
132.4589216902451
 30
0.0
 11
-113.6568925187394
 21
154.9589216902451
 31
0.0
  0
LINE
  5
53
330
1F
100
AcDbEntity
  8
0-0
  6
Continuous
 62
     3
370
     9
100
AcDbLine
 10
-74.15688592034417
 20
132.4589216902451
 30
0.0
 11
-74.15688592034417
 21
154.9589216902451
 31
0.0
  0
LINE
  5
54
330
1F
100
AcDbEntity
  8
0-0
  6
Continuous
 62
     3
370
     9
100
AcDbLine
 10
-72.65690571552989
 20
130.958941485431
 30
0.0
 11
-50.15690571552989
 21
130.958941485431
 31
0.0
  0
LINE
  5
55
330
1F
100
AcDbEntity
  8
0-0
  6
Continuous
 62
     3
370
     9
100
AcDbLine
 10
-48.65687602275125
 20
132.4589216902451
 30
0.0
 11
-48.65687602275125
 21
154.9589216902451
 31
0.0
  0
LINE
  5
56
330
1F
100
AcDbEntity
  8
0-0
  6
Continuous
 62
     3
370
     9
100
AcDbLine
 10
-72.65690571552989
 20
156.4589513830239
 30
0.0
 11
-50.15690571552989
 21
156.4589513830239
 31
0.0
  0
LINE
  5
57
330
1F
100
AcDbEntity
  8
0-0
  6
Continuous
 62
     3
370
     9
100
AcDbLine
 10
-33.15694860509916
 20
156.4589513830239
 30
0.0
 11
-10.6568496291701
 21
156.4589513830239
 31
0.0
  0
LINE
  5
58
330
1F
100
AcDbEntity
  8
0-0
  6
Continuous
 62
     3
370
     9
100
AcDbLine
 10
-9.156869424355932
 20
132.4589216902451
 30
0.0
 11
-9.156869424355932
 21
154.9589216902451
 31
0.0
  0
LINE
  5
59
330
1F
100
AcDbEntity
  8
0-0
  6
Continuous
 62
     3
370
     9
100
AcDbLine
 10
-33.15694860509916
 20
130.958941485431
 30
0.0
 11
-10.6568496291701
 21
130.958941485431
 31
0.0
  0
LINE
  5
5A
330
1F
100
AcDbEntity
  8
0-0
  6
Continuous
 62
     3
370
     9
100
AcDbLine
 10
-34.65682983398438
 20
132.4589216902451
 30
0.0
 11
-34.65682983398438
 21
154.9589216902451
 31
0.0
  0
LINE
  5
5B
330
1F
100
AcDbEntity
  8
0-0
  6
Continuous
 62
     3
370
     9
100
AcDbLine
 10
-34.65682983398438
 20
171.9589282886404
 30
0.0
 11
-34.65682983398438
 21
194.4589282886404
 31
0.0
  0
LINE
  5
5C
330
1F
100
AcDbEntity
  8
0-0
  6
Continuous
 62
     3
370
     9
100
AcDbLine
 10
-33.15694860509916
 20
170.4589480838262
 30
0.0
 11
-10.6568496291701
 21
170.4589480838262
 31
0.0
  0
LINE
  5
5D
330
1F
100
AcDbEntity
  8
0-0
  6
Continuous
 62
     3
370
     9
100
AcDbLine
 10
-9.156869424355932
 20
171.9589282886404
 30
0.0
 11
-9.156869424355932
 21
194.4589282886404
 31
0.0
  0
LINE
  5
5E
330
1F
100
AcDbEntity
  8
0-0
  6
Continuous
 62
     3
370
     9
100
AcDbLine
 10
-33.15694860509916
 20
195.9589579814191
 30
0.0
 11
-10.6568496291701
 21
195.9589579814191
 31
0.0
  0
LINE
  5
5F
330
1F
100
AcDbEntity
  8
0-0
  6
Continuous
 62
     3
370
     9
100
AcDbLine
 10
-72.65690571552989
 20
195.9589579814191
 30
0.0
 11
-50.15690571552989
 21
195.9589579814191
 31
0.0
  0
LINE
  5
60
330
1F
100
AcDbEntity
  8
0-0
  6
Continuous
 62
     3
370
     9
100
AcDbLine
 10
-48.65687602275125
 20
171.9589282886404
 30
0.0
 11
-48.65687602275125
 21
194.4589282886404
 31
0.0
  0
LINE
  5
61
330
1F
100
AcDbEntity
  8
0-0
  6
Continuous
 62
     3
370
     9
100
AcDbLine
 10
-72.65690571552989
 20
170.4589480838262
 30
0.0
 11
-50.15690571552989
 21
170.4589480838262
 31
0.0
  0
LINE
  5
62
330
1F
100
AcDbEntity
  8
0-0
  6
Continuous
 62
     3
370
     9
100
AcDbLine
 10
-74.15688592034417
 20
171.9589282886404
 30
0.0
 11
-74.15688592034417
 21
194.4589282886404
 31
0.0
  0
LINE
  5
63
330
1F
100
AcDbEntity
  8
0-0
  6
Continuous
 62
     3
370
     9
100
AcDbLine
 10
-113.6568925187394
 20
171.9589282886404
 30
0.0
 11
-113.6568925187394
 21
194.4589282886404
 31
0.0
  0
LINE
  5
64
330
1F
100
AcDbEntity
  8
0-0
  6
Continuous
 62
     3
370
     9
100
AcDbLine
 10
-112.1569123139252
 20
170.4589480838262
 30
0.0
 11
-89.6569123139252
 21
170.4589480838262
 31
0.0
  0
LINE
  5
65
330
1F
100
AcDbEntity
  8
0-0
  6
Continuous
 62
     3
370
     9
100
AcDbLine
 10
-88.15688262114645
 20
171.9589282886404
 30
0.0
 11
-88.15688262114645
 21
194.4589282886404
 31
0.0
  0
LINE
  5
66
330
1F
100
AcDbEntity
  8
0-0
  6
Continuous
 62
     3
370
     9
100
AcDbLine
 10
-112.1569123139252
 20
195.9589579814191
 30
0.0
 11
-89.6569123139252
 21
195.9589579814191
 31
0.0
  0
LINE
  5
67
330
1F
100
AcDbEntity
  8
0-0
  6
Continuous
 62
     3
370
     9
100
AcDbLine
 10
-151.6568694243559
 20
195.9589579814191
 30
0.0
 11
-129.1568694243559
 21
195.9589579814191
 31
0.0
  0
LINE
  5
68
330
1F
100
AcDbEntity
  8
0-0
  6
Continuous
 62
     3
370
     9
100
AcDbLine
 10
-127.6568892195418
 20
171.9589282886404
 30
0.0
 11
-127.6568892195418
 21
194.4589282886404
 31
0.0
  0
LINE
  5
69
330
1F
100
AcDbEntity
  8
0-0
  6
Continuous
 62
     3
370
     9
100
AcDbLine
 10
-151.6568694243559
 20
170.4589480838262
 30
0.0
 11
-129.1568694243559
 21
170.4589480838262
 31
0.0
  0
LINE
  5
6A
330
1F
100
AcDbEntity
  8
0-0
  6
Continuous
 62
     3
370
     9
100
AcDbLine
 10
-153.1568991171347
 20
171.9589282886404
 30
0.0
 11
-153.1568991171347
 21
194.4589282886404
 31
0.0
  0
LINE
  5
6B
330
1F
100
AcDbEntity
  8
0-0
  6
Continuous
 62
     3
370
     9
100
AcDbLine
 10
-192.6569057155299
 20
171.9589282886404
 30
0.0
 11
-192.6569057155299
 21
194.4589282886404
 31
0.0
  0
LINE
  5
6C
330
1F
100
AcDbEntity
  8
0-0
  6
Continuous
 62
     3
370
     9
100
AcDbLine
 10
-191.1568760227512
 20
170.4589480838262
 30
0.0
 11
-168.6568760227512
 21
170.4589480838262
 31
0.0
  0
LINE
  5
6D
330
1F
100
AcDbEntity
  8
0-0
  6
Continuous
 62
     3
370
     9
100
AcDbLine
 10
-167.1568958179371
 20
171.9589282886404
 30
0.0
 11
-167.1568958179371
 21
194.4589282886404
 31
0.0
  0
LINE
  5
6E
330
1F
100
AcDbEntity
  8
0-0
  6
Continuous
 62
     3
370
     9
100
AcDbLine
 10
-191.1568760227512
 20
195.9589579814191
 30
0.0
 11
-168.6568760227512
 21
195.9589579814191
 31
0.0
  0
LINE
  5
6F
330
1F
100
AcDbEntity
  8
0-0
  6
Continuous
 62
     3
370
     9
100
AcDbLine
 10
-230.6568826211465
 20
195.9589579814191
 30
0.0
 11
-208.1568826211465
 21
195.9589579814191
 31
0.0
  0
LINE
  5
70
330
1F
100
AcDbEntity
  8
0-0
  6
Continuous
 62
     3
370
     9
100
AcDbLine
 10
-206.6569024163323
 20
171.9589282886404
 30
0.0
 11
-206.6569024163323
 21
194.4589282886404
 31
0.0
  0
LINE
  5
71
330
1F
100
AcDbEntity
  8
0-0
  6
Continuous
 62
     3
370
     9
100
AcDbLine
 10
-230.6568826211465
 20
170.4589480838262
 30
0.0
 11
-208.1568826211465
 21
170.4589480838262
 31
0.0
  0
LINE
  5
72
330
1F
100
AcDbEntity
  8
0-0
  6
Continuous
 62
     3
370
     9
100
AcDbLine
 10
-232.1569123139252
 20
171.9589282886404
 30
0.0
 11
-232.1569123139252
 21
194.4589282886404
 31
0.0
  0
LINE
  5
73
330
1F
100
AcDbEntity
  8
0-0
  6
Continuous
 62
     3
370
     9
100
AcDbLine
 10
-232.1569123139252
 20
211.4589348870356
 30
0.0
 11
-232.1569123139252
 21
233.9589348870356
 31
0.0
  0
LINE
  5
74
330
1F
100
AcDbEntity
  8
0-0
  6
Continuous
 62
     3
370
     9
100
AcDbLine
 10
-230.6568826211465
 20
209.9589546822215
 30
0.0
 11
-208.1568826211465
 21
209.9589546822215
 31
0.0
  0
LINE
  5
75
330
1F
100
AcDbEntity
  8
0-0
  6
Continuous
 62
     3
370
     9
100
AcDbLine
 10
-206.6569024163323
 20
211.4589348870356
 30
0.0
 11
-206.6569024163323
 21
233.9589348870356
 31
0.0
  0
LINE
  5
76
330
1F
100
AcDbEntity
  8
0-0
  6
Continuous
 62
     3
370
     9
100
AcDbLine
 10
-230.6568826211465
 20
235.4589150918498
 30
0.0
 11
-208.1568826211465
 21
235.4589150918498
 31
0.0
  0
LINE
  5
77
330
1F
100
AcDbEntity
  8
0-0
  6
Continuous
 62
     3
370
     9
100
AcDbLine
 10
-191.1568760227512
 20
235.4589150918498
 30
0.0
 11
-168.6568760227512
 21
235.4589150918498
 31
0.0
  0
LINE
  5
78
330
1F
100
AcDbEntity
  8
0-0
  6
Continuous
 62
     3
370
     9
100
AcDbLine
 10
-167.1568958179371
 20
211.4589348870356
 30
0.0
 11
-167.1568958179371
 21
233.9589348870356
 31
0.0
  0
LINE
  5
79
330
1F
100
AcDbEntity
  8
0-0
  6
Continuous
 62
     3
370
     9
100
AcDbLine
 10
-191.1568760227512
 20
209.9589546822215
 30
0.0
 11
-168.6568760227512
 21
209.9589546822215
 31
0.0
  0
LINE
  5
7A
330
1F
100
AcDbEntity
  8
0-0
  6
Continuous
 62
     3
370
     9
100
AcDbLine
 10
-192.6569057155299
 20
211.4589348870356
 30
0.0
 11
-192.6569057155299
 21
233.9589348870356
 31
0.0
  0
LINE
  5
7B
330
1F
100
AcDbEntity
  8
0-0
  6
Continuous
 62
     3
370
     9
100
AcDbLine
 10
-153.1568991171347
 20
211.4589348870356
 30
0.0
 11
-153.1568991171347
 21
233.9589348870356
 31
0.0
  0
LINE
  5
7C
330
1F
100
AcDbEntity
  8
0-0
  6
Continuous
 62
     3
370
     9
100
AcDbLine
 10
-151.6568694243559
 20
209.9589546822215
 30
0.0
 11
-129.1568694243559
 21
209.9589546822215
 31
0.0
  0
LINE
  5
7D
330
1F
100
AcDbEntity
  8
0-0
  6
Continuous
 62
     3
370
     9
100
AcDbLine
 10
-127.6568892195418
 20
211.4589348870356
 30
0.0
 11
-127.6568892195418
 21
233.9589348870356
 31
0.0
  0
LINE
  5
7E
330
1F
100
AcDbEntity
  8
0-0
  6
Continuous
 62
     3
370
     9
100
AcDbLine
 10
-151.6568694243559
 20
235.4589150918498
 30
0.0
 11
-129.1568694243559
 21
235.4589150918498
 31
0.0
  0
LINE
  5
7F
330
1F
100
AcDbEntity
  8
0-0
  6
Continuous
 62
     3
370
     9
100
AcDbLine
 10
-112.1569123139252
 20
235.4589150918498
 30
0.0
 11
-89.6569123139252
 21
235.4589150918498
 31
0.0
  0
LINE
  5
80
330
1F
100
AcDbEntity
  8
0-0
  6
Continuous
 62
     3
370
     9
100
AcDbLine
 10
-88.15688262114645
 20
211.4589348870356
 30
0.0
 11
-88.15688262114645
 21
233.9589348870356
 31
0.0
  0
LINE
  5
81
330
1F
100
AcDbEntity
  8
0-0
  6
Continuous
 62
     3
370
     9
100
AcDbLine
 10
-112.1569123139252
 20
209.9589546822215
 30
0.0
 11
-89.6569123139252
 21
209.9589546822215
 31
0.0
  0
LINE
  5
82
330
1F
100
AcDbEntity
  8
0-0
  6
Continuous
 62
     3
370
     9
100
AcDbLine
 10
-113.6568925187394
 20
211.4589348870356
 30
0.0
 11
-113.6568925187394
 21
233.9589348870356
 31
0.0
  0
LINE
  5
83
330
1F
100
AcDbEntity
  8
0-0
  6
Continuous
 62
     3
370
     9
100
AcDbLine
 10
-74.15688592034417
 20
211.4589348870356
 30
0.0
 11
-74.15688592034417
 21
233.9589348870356
 31
0.0
  0
LINE
  5
84
330
1F
100
AcDbEntity
  8
0-0
  6
Continuous
 62
     3
370
     9
100
AcDbLine
 10
-72.65690571552989
 20
209.9589546822215
 30
0.0
 11
-50.15690571552989
 21
209.9589546822215
 31
0.0
  0
LINE
  5
85
330
1F
100
AcDbEntity
  8
0-0
  6
Continuous
 62
     3
370
     9
100
AcDbLine
 10
-48.65687602275125
 20
211.4589348870356
 30
0.0
 11
-48.65687602275125
 21
233.9589348870356
 31
0.0
  0
LINE
  5
86
330
1F
100
AcDbEntity
  8
0-0
  6
Continuous
 62
     3
370
     9
100
AcDbLine
 10
-72.65690571552989
 20
235.4589150918498
 30
0.0
 11
-50.15690571552989
 21
235.4589150918498
 31
0.0
  0
LINE
  5
87
330
1F
100
AcDbEntity
  8
0-0
  6
Continuous
 62
     3
370
     9
100
AcDbLine
 10
-33.15694860509916
 20
235.4589150918498
 30
0.0
 11
-10.6568496291701
 21
235.4589150918498
 31
0.0
  0
LINE
  5
88
330
1F
100
AcDbEntity
  8
0-0
  6
Continuous
 62
     3
370
     9
100
AcDbLine
 10
-9.156869424355932
 20
211.4589348870356
 30
0.0
 11
-9.156869424355932
 21
233.9589348870356
 31
0.0
  0
LINE
  5
89
330
1F
100
AcDbEntity
  8
0-0
  6
Continuous
 62
     3
370
     9
100
AcDbLine
 10
-33.15694860509916
 20
209.9589546822215
 30
0.0
 11
-10.6568496291701
 21
209.9589546822215
 31
0.0
  0
LINE
  5
8A
330
1F
100
AcDbEntity
  8
0-0
  6
Continuous
 62
     3
370
     9
100
AcDbLine
 10
-34.65682983398438
 20
211.4589348870356
 30
0.0
 11
-34.65682983398438
 21
233.9589348870356
 31
0.0
  0
LINE
  5
8B
330
1F
100
AcDbEntity
  8
0-0
  6
Continuous
 62
     3
370
     9
100
AcDbLine
 10
-34.65682983398438
 20
250.9589909733954
 30
0.0
 11
-34.65682983398438
 21
273.4589909733954
 31
0.0
  0
LINE
  5
8C
330
1F
100
AcDbEntity
  8
0-0
  6
Continuous
 62
     3
370
     9
100
AcDbLine
 10
-33.15694860509916
 20
249.4589612806168
 30
0.0
 11
-10.6568496291701
 21
249.4589612806168
 31
0.0
  0
LINE
  5
8D
330
1F
100
AcDbEntity
  8
0-0
  6
Continuous
 62
     3
370
     9
100
AcDbLine
 10
-9.156869424355932
 20
250.9589909733954
 30
0.0
 11
-9.156869424355932
 21
273.4589909733954
 31
0.0
  0
LINE
  5
8E
330
1F
100
AcDbEntity
  8
0-0
  6
Continuous
 62
     3
370
     9
100
AcDbLine
 10
-33.15694860509916
 20
274.9588722022806
 30
0.0
 11
-10.6568496291701
 21
274.9588722022806
 31
0.0
  0
LINE
  5
8F
330
1F
100
AcDbEntity
  8
0-0
  6
Continuous
 62
     3
370
     9
100
AcDbLine
 10
-72.65690571552989
 20
274.9588722022806
 30
0.0
 11
-50.15690571552989
 21
274.9588722022806
 31
0.0
  0
LINE
  5
90
330
1F
100
AcDbEntity
  8
0-0
  6
Continuous
 62
     3
370
     9
100
AcDbLine
 10
-48.65687602275125
 20
250.9589909733954
 30
0.0
 11
-48.65687602275125
 21
273.4589909733954
 31
0.0
  0
LINE
  5
91
330
1F
100
AcDbEntity
  8
0-0
  6
Continuous
 62
     3
370
     9
100
AcDbLine
 10
-72.65690571552989
 20
249.4589612806168
 30
0.0
 11
-50.15690571552989
 21
249.4589612806168
 31
0.0
  0
LINE
  5
92
330
1F
100
AcDbEntity
  8
0-0
  6
Continuous
 62
     3
370
     9
100
AcDbLine
 10
-74.15688592034417
 20
250.9589909733954
 30
0.0
 11
-74.15688592034417
 21
273.4589909733954
 31
0.0
  0
LINE
  5
93
330
1F
100
AcDbEntity
  8
0-0
  6
Continuous
 62
     3
370
     9
100
AcDbLine
 10
-113.6568925187394
 20
250.9589909733954
 30
0.0
 11
-113.6568925187394
 21
273.4589909733954
 31
0.0
  0
LINE
  5
94
330
1F
100
AcDbEntity
  8
0-0
  6
Continuous
 62
     3
370
     9
100
AcDbLine
 10
-112.1569123139252
 20
249.4589612806168
 30
0.0
 11
-89.6569123139252
 21
249.4589612806168
 31
0.0
  0
LINE
  5
95
330
1F
100
AcDbEntity
  8
0-0
  6
Continuous
 62
     3
370
     9
100
AcDbLine
 10
-88.15688262114645
 20
250.9589909733954
 30
0.0
 11
-88.15688262114645
 21
273.4589909733954
 31
0.0
  0
LINE
  5
96
330
1F
100
AcDbEntity
  8
0-0
  6
Continuous
 62
     3
370
     9
100
AcDbLine
 10
-112.1569123139252
 20
274.9588722022806
 30
0.0
 11
-89.6569123139252
 21
274.9588722022806
 31
0.0
  0
LINE
  5
97
330
1F
100
AcDbEntity
  8
0-0
  6
Continuous
 62
     3
370
     9
100
AcDbLine
 10
-151.6568694243559
 20
274.9588722022806
 30
0.0
 11
-129.1568694243559
 21
274.9588722022806
 31
0.0
  0
LINE
  5
98
330
1F
100
AcDbEntity
  8
0-0
  6
Continuous
 62
     3
370
     9
100
AcDbLine
 10
-127.6568892195418
 20
250.9589909733954
 30
0.0
 11
-127.6568892195418
 21
273.4589909733954
 31
0.0
  0
LINE
  5
99
330
1F
100
AcDbEntity
  8
0-0
  6
Continuous
 62
     3
370
     9
100
AcDbLine
 10
-151.6568694243559
 20
249.4589612806168
 30
0.0
 11
-129.1568694243559
 21
249.4589612806168
 31
0.0
  0
LINE
  5
9A
330
1F
100
AcDbEntity
  8
0-0
  6
Continuous
 62
     3
370
     9
100
AcDbLine
 10
-153.1568991171347
 20
250.9589909733954
 30
0.0
 11
-153.1568991171347
 21
273.4589909733954
 31
0.0
  0
LINE
  5
9B
330
1F
100
AcDbEntity
  8
0-0
  6
Continuous
 62
     3
370
     9
100
AcDbLine
 10
-192.6569057155299
 20
250.9589909733954
 30
0.0
 11
-192.6569057155299
 21
273.4589909733954
 31
0.0
  0
LINE
  5
9C
330
1F
100
AcDbEntity
  8
0-0
  6
Continuous
 62
     3
370
     9
100
AcDbLine
 10
-191.1568760227512
 20
249.4589612806168
 30
0.0
 11
-168.6568760227512
 21
249.4589612806168
 31
0.0
  0
LINE
  5
9D
330
1F
100
AcDbEntity
  8
0-0
  6
Continuous
 62
     3
370
     9
100
AcDbLine
 10
-167.1568958179371
 20
250.9589909733954
 30
0.0
 11
-167.1568958179371
 21
273.4589909733954
 31
0.0
  0
LINE
  5
9E
330
1F
100
AcDbEntity
  8
0-0
  6
Continuous
 62
     3
370
     9
100
AcDbLine
 10
-191.1568760227512
 20
274.9588722022806
 30
0.0
 11
-168.6568760227512
 21
274.9588722022806
 31
0.0
  0
LINE
  5
9F
330
1F
100
AcDbEntity
  8
0-0
  6
Continuous
 62
     3
370
     9
100
AcDbLine
 10
-230.6568826211465
 20
274.9588722022806
 30
0.0
 11
-208.1568826211465
 21
274.9588722022806
 31
0.0
  0
LINE
  5
A0
330
1F
100
AcDbEntity
  8
0-0
  6
Continuous
 62
     3
370
     9
100
AcDbLine
 10
-206.6569024163323
 20
250.9589909733954
 30
0.0
 11
-206.6569024163323
 21
273.4589909733954
 31
0.0
  0
LINE
  5
A1
330
1F
100
AcDbEntity
  8
0-0
  6
Continuous
 62
     3
370
     9
100
AcDbLine
 10
-230.6568826211465
 20
249.4589612806168
 30
0.0
 11
-208.1568826211465
 21
249.4589612806168
 31
0.0
  0
LINE
  5
A2
330
1F
100
AcDbEntity
  8
0-0
  6
Continuous
 62
     3
370
     9
100
AcDbLine
 10
-232.1569123139252
 20
250.9589909733954
 30
0.0
 11
-232.1569123139252
 21
273.4589909733954
 31
0.0
  0
LINE
  5
A3
330
1F
100
AcDbEntity
  8
0-0
  6
Continuous
 62
     3
370
     9
100
AcDbLine
 10
-232.1569123139252
 20
290.4588985958617
 30
0.0
 11
-232.1569123139252
 21
312.9588985958617
 31
0.0
  0
LINE
  5
A4
330
1F
100
AcDbEntity
  8
0-0
  6
Continuous
 62
     3
370
     9
100
AcDbLine
 10
-230.6568826211465
 20
288.9590173669766
 30
0.0
 11
-208.1568826211465
 21
288.9590173669766
 31
0.0
  0
LINE
  5
A5
330
1F
100
AcDbEntity
  8
0-0
  6
Continuous
 62
     3
370
     9
100
AcDbLine
 10
-206.6569024163323
 20
290.4588985958617
 30
0.0
 11
-206.6569024163323
 21
312.9588985958617
 31
0.0
  0
LINE
  5
A6
330
1F
100
AcDbEntity
  8
0-0
  6
Continuous
 62
     3
370
     9
100
AcDbLine
 10
-230.6568826211465
 20
314.4589777766049
 30
0.0
 11
-208.1568826211465
 21
314.4589777766049
 31
0.0
  0
LINE
  5
A7
330
1F
100
AcDbEntity
  8
0-0
  6
Continuous
 62
     3
370
     9
100
AcDbLine
 10
-191.1568760227512
 20
314.4589777766049
 30
0.0
 11
-168.6568760227512
 21
314.4589777766049
 31
0.0
  0
LINE
  5
A8
330
1F
100
AcDbEntity
  8
0-0
  6
Continuous
 62
     3
370
     9
100
AcDbLine
 10
-167.1568958179371
 20
290.4588985958617
 30
0.0
 11
-167.1568958179371
 21
312.9588985958617
 31
0.0
  0
LINE
  5
A9
330
1F
100
AcDbEntity
  8
0-0
  6
Continuous
 62
     3
370
     9
100
AcDbLine
 10
-191.1568760227512
 20
288.9590173669766
 30
0.0
 11
-168.6568760227512
 21
288.9590173669766
 31
0.0
  0
LINE
  5
AA
330
1F
100
AcDbEntity
  8
0-0
  6
Continuous
 62
     3
370
     9
100
AcDbLine
 10
-192.6569057155299
 20
290.4588985958617
 30
0.0
 11
-192.6569057155299
 21
312.9588985958617
 31
0.0
  0
LINE
  5
AB
330
1F
100
AcDbEntity
  8
0-0
  6
Continuous
 62
     3
370
     9
100
AcDbLine
 10
-153.1568991171347
 20
290.4588985958617
 30
0.0
 11
-153.1568991171347
 21
312.9588985958617
 31
0.0
  0
LINE
  5
AC
330
1F
100
AcDbEntity
  8
0-0
  6
Continuous
 62
     3
370
     9
100
AcDbLine
 10
-151.6568694243559
 20
288.9590173669766
 30
0.0
 11
-129.1568694243559
 21
288.9590173669766
 31
0.0
  0
LINE
  5
AD
330
1F
100
AcDbEntity
  8
0-0
  6
Continuous
 62
     3
370
     9
100
AcDbLine
 10
-127.6568892195418
 20
290.4588985958617
 30
0.0
 11
-127.6568892195418
 21
312.9588985958617
 31
0.0
  0
LINE
  5
AE
330
1F
100
AcDbEntity
  8
0-0
  6
Continuous
 62
     3
370
     9
100
AcDbLine
 10
-151.6568694243559
 20
314.4589777766049
 30
0.0
 11
-129.1568694243559
 21
314.4589777766049
 31
0.0
  0
LINE
  5
AF
330
1F
100
AcDbEntity
  8
0-0
  6
Continuous
 62
     3
370
     9
100
AcDbLine
 10
-112.1569123139252
 20
314.4589777766049
 30
0.0
 11
-89.6569123139252
 21
314.4589777766049
 31
0.0
  0
LINE
  5
B0
330
1F
100
AcDbEntity
  8
0-0
  6
Continuous
 62
     3
370
     9
100
AcDbLine
 10
-88.15688262114645
 20
290.4588985958617
 30
0.0
 11
-88.15688262114645
 21
312.9588985958617
 31
0.0
  0
LINE
  5
B1
330
1F
100
AcDbEntity
  8
0-0
  6
Continuous
 62
     3
370
     9
100
AcDbLine
 10
-112.1569123139252
 20
288.9590173669766
 30
0.0
 11
-89.6569123139252
 21
288.9590173669766
 31
0.0
  0
LINE
  5
B2
330
1F
100
AcDbEntity
  8
0-0
  6
Continuous
 62
     3
370
     9
100
AcDbLine
 10
-113.6568925187394
 20
290.4588985958617
 30
0.0
 11
-113.6568925187394
 21
312.9588985958617
 31
0.0
  0
LINE
  5
B3
330
1F
100
AcDbEntity
  8
0-0
  6
Continuous
 62
     3
370
     9
100
AcDbLine
 10
-74.15688592034417
 20
290.4588985958617
 30
0.0
 11
-74.15688592034417
 21
312.9588985958617
 31
0.0
  0
LINE
  5
B4
330
1F
100
AcDbEntity
  8
0-0
  6
Continuous
 62
     3
370
     9
100
AcDbLine
 10
-72.65690571552989
 20
288.9590173669766
 30
0.0
 11
-50.15690571552989
 21
288.9590173669766
 31
0.0
  0
LINE
  5
B5
330
1F
100
AcDbEntity
  8
0-0
  6
Continuous
 62
     3
370
     9
100
AcDbLine
 10
-48.65687602275125
 20
290.4588985958617
 30
0.0
 11
-48.65687602275125
 21
312.9588985958617
 31
0.0
  0
LINE
  5
B6
330
1F
100
AcDbEntity
  8
0-0
  6
Continuous
 62
     3
370
     9
100
AcDbLine
 10
-72.65690571552989
 20
314.4589777766049
 30
0.0
 11
-50.15690571552989
 21
314.4589777766049
 31
0.0
  0
LINE
  5
B7
330
1F
100
AcDbEntity
  8
0-0
  6
Continuous
 62
     3
370
     9
100
AcDbLine
 10
-33.15694860509916
 20
314.4589777766049
 30
0.0
 11
-10.6568496291701
 21
314.4589777766049
 31
0.0
  0
LINE
  5
B8
330
1F
100
AcDbEntity
  8
0-0
  6
Continuous
 62
     3
370
     9
100
AcDbLine
 10
-9.156869424355932
 20
290.4588985958617
 30
0.0
 11
-9.156869424355932
 21
312.9588985958617
 31
0.0
  0
LINE
  5
B9
330
1F
100
AcDbEntity
  8
0-0
  6
Continuous
 62
     3
370
     9
100
AcDbLine
 10
-33.15694860509916
 20
288.9590173669766
 30
0.0
 11
-10.6568496291701
 21
288.9590173669766
 31
0.0
  0
LINE
  5
BA
330
1F
100
AcDbEntity
  8
0-0
  6
Continuous
 62
     3
370
     9
100
AcDbLine
 10
-34.65682983398438
 20
290.4588985958617
 30
0.0
 11
-34.65682983398438
 21
312.9588985958617
 31
0.0
  0
LINE
  5
BB
330
1F
100
AcDbEntity
  8
0-0
  6
Continuous
 62
     3
370
     9
100
AcDbLine
 10
-34.65682983398438
 20
329.9590041701859
 30
0.0
 11
-34.65682983398438
 21
352.4590041701859
 31
0.0
  0
LINE
  5
BC
330
1F
100
AcDbEntity
  8
0-0
  6
Continuous
 62
     3
370
     9
100
AcDbLine
 10
-33.15694860509916
 20
328.4589249894427
 30
0.0
 11
-10.6568496291701
 21
328.4589249894427
 31
0.0
  0
LINE
  5
BD
330
1F
100
AcDbEntity
  8
0-0
  6
Continuous
 62
     3
370
     9
100
AcDbLine
 10
-9.156869424355932
 20
329.9590041701859
 30
0.0
 11
-9.156869424355932
 21
352.4590041701859
 31
0.0
  0
LINE
  5
BE
330
1F
100
AcDbEntity
  8
0-0
  6
Continuous
 62
     3
370
     9
100
AcDbLine
 10
-33.15694860509916
 20
353.9588853990712
 30
0.0
 11
-10.6568496291701
 21
353.9588853990712
 31
0.0
  0
LINE
  5
BF
330
1F
100
AcDbEntity
  8
0-0
  6
Continuous
 62
     3
370
     9
100
AcDbLine
 10
-72.65690571552989
 20
353.9588853990712
 30
0.0
 11
-50.15690571552989
 21
353.9588853990712
 31
0.0
  0
LINE
  5
C0
330
1F
100
AcDbEntity
  8
0-0
  6
Continuous
 62
     3
370
     9
100
AcDbLine
 10
-48.65687602275125
 20
329.9590041701859
 30
0.0
 11
-48.65687602275125
 21
352.4590041701859
 31
0.0
  0
LINE
  5
C1
330
1F
100
AcDbEntity
  8
0-0
  6
Continuous
 62
     3
370
     9
100
AcDbLine
 10
-72.65690571552989
 20
328.4589249894427
 30
0.0
 11
-50.15690571552989
 21
328.4589249894427
 31
0.0
  0
LINE
  5
C2
330
1F
100
AcDbEntity
  8
0-0
  6
Continuous
 62
     3
370
     9
100
AcDbLine
 10
-74.15688592034417
 20
329.9590041701859
 30
0.0
 11
-74.15688592034417
 21
352.4590041701859
 31
0.0
  0
LINE
  5
C3
330
1F
100
AcDbEntity
  8
0-0
  6
Continuous
 62
     3
370
     9
100
AcDbLine
 10
-113.6568925187394
 20
329.9590041701859
 30
0.0
 11
-113.6568925187394
 21
352.4590041701859
 31
0.0
  0
LINE
  5
C4
330
1F
100
AcDbEntity
  8
0-0
  6
Continuous
 62
     3
370
     9
100
AcDbLine
 10
-112.1569123139252
 20
328.4589249894427
 30
0.0
 11
-89.6569123139252
 21
328.4589249894427
 31
0.0
  0
LINE
  5
C5
330
1F
100
AcDbEntity
  8
0-0
  6
Continuous
 62
     3
370
     9
100
AcDbLine
 10
-88.15688262114645
 20
329.9590041701859
 30
0.0
 11
-88.15688262114645
 21
352.4590041701859
 31
0.0
  0
LINE
  5
C6
330
1F
100
AcDbEntity
  8
0-0
  6
Continuous
 62
     3
370
     9
100
AcDbLine
 10
-112.1569123139252
 20
353.9588853990712
 30
0.0
 11
-89.6569123139252
 21
353.9588853990712
 31
0.0
  0
LINE
  5
C7
330
1F
100
AcDbEntity
  8
0-0
  6
Continuous
 62
     3
370
     9
100
AcDbLine
 10
-151.6568694243559
 20
353.9588853990712
 30
0.0
 11
-129.1568694243559
 21
353.9588853990712
 31
0.0
  0
LINE
  5
C8
330
1F
100
AcDbEntity
  8
0-0
  6
Continuous
 62
     3
370
     9
100
AcDbLine
 10
-127.6568892195418
 20
329.9590041701859
 30
0.0
 11
-127.6568892195418
 21
352.4590041701859
 31
0.0
  0
LINE
  5
C9
330
1F
100
AcDbEntity
  8
0-0
  6
Continuous
 62
     3
370
     9
100
AcDbLine
 10
-151.6568694243559
 20
328.4589249894427
 30
0.0
 11
-129.1568694243559
 21
328.4589249894427
 31
0.0
  0
LINE
  5
CA
330
1F
100
AcDbEntity
  8
0-0
  6
Continuous
 62
     3
370
     9
100
AcDbLine
 10
-153.1568991171347
 20
329.9590041701859
 30
0.0
 11
-153.1568991171347
 21
352.4590041701859
 31
0.0
  0
LINE
  5
CB
330
1F
100
AcDbEntity
  8
0-0
  6
Continuous
 62
     3
370
     9
100
AcDbLine
 10
-192.6569057155299
 20
329.9590041701859
 30
0.0
 11
-192.6569057155299
 21
352.4590041701859
 31
0.0
  0
LINE
  5
CC
330
1F
100
AcDbEntity
  8
0-0
  6
Continuous
 62
     3
370
     9
100
AcDbLine
 10
-191.1568760227512
 20
328.4589249894427
 30
0.0
 11
-168.6568760227512
 21
328.4589249894427
 31
0.0
  0
LINE
  5
CD
330
1F
100
AcDbEntity
  8
0-0
  6
Continuous
 62
     3
370
     9
100
AcDbLine
 10
-167.1568958179371
 20
329.9590041701859
 30
0.0
 11
-167.1568958179371
 21
352.4590041701859
 31
0.0
  0
LINE
  5
CE
330
1F
100
AcDbEntity
  8
0-0
  6
Continuous
 62
     3
370
     9
100
AcDbLine
 10
-191.1568760227512
 20
353.9588853990712
 30
0.0
 11
-168.6568760227512
 21
353.9588853990712
 31
0.0
  0
LINE
  5
CF
330
1F
100
AcDbEntity
  8
0-0
  6
Continuous
 62
     3
370
     9
100
AcDbLine
 10
-230.6568826211465
 20
353.9588853990712
 30
0.0
 11
-208.1568826211465
 21
353.9588853990712
 31
0.0
  0
LINE
  5
D0
330
1F
100
AcDbEntity
  8
0-0
  6
Continuous
 62
     3
370
     9
100
AcDbLine
 10
-206.6569024163323
 20
329.9590041701859
 30
0.0
 11
-206.6569024163323
 21
352.4590041701859
 31
0.0
  0
LINE
  5
D1
330
1F
100
AcDbEntity
  8
0-0
  6
Continuous
 62
     3
370
     9
100
AcDbLine
 10
-230.6568826211465
 20
328.4589249894427
 30
0.0
 11
-208.1568826211465
 21
328.4589249894427
 31
0.0
  0
LINE
  5
D2
330
1F
100
AcDbEntity
  8
0-0
  6
Continuous
 62
     3
370
     9
100
AcDbLine
 10
-232.1569123139252
 20
329.9590041701859
 30
0.0
 11
-232.1569123139252
 21
352.4590041701859
 31
0.0
  0
LINE
  5
D3
330
1F
100
AcDbEntity
  8
0-0
  6
Continuous
 62
     3
370
     9
100
AcDbLine
 10
270.8431635676206
 20
-126.0411146009289
 30
0.0
 11
270.8431635676206
 21
373.9589513830239
 31
0.0
  0
LINE
  5
D4
330
1F
100
AcDbEntity
  8
0-0
  6
Continuous
 62
     3
370
     9
100
AcDbLine
 10
285.8430645916915
 20
-108.6859823690877
 30
0.0
 11
285.8430645916915
 21
356.6039181271117
 31
0.0
  0
LINE
  5
D5
330
1F
100
AcDbEntity
  8
0-0
  6
Continuous
 62
     3
370
     9
100
AcDbLine
 10
270.8431635676206
 20
195.9589579814191
 30
0.0
 11
285.8430645916915
 21
198.6038422455661
 31
0.0
  0
LINE
  5
D6
330
1F
100
AcDbEntity
  8
0-0
  6
Continuous
 62
     3
370
     9
100
AcDbLine
 10
270.8431635676206
 20
170.4589480838262
 30
0.0
 11
285.8430645916915
 21
167.8140638196793
 31
0.0
  0
LINE
  5
D7
330
1F
100
AcDbEntity
  8
0-0
  6
Continuous
 62
     3
370
     9
100
AcDbLine
 10
270.8431635676206
 20
373.9589513830239
 30
0.0
 11
290.843130575644
 21
370.4324390308279
 31
0.0
  0
LINE
  5
D8
330
1F
100
AcDbEntity
  8
0-0
  6
Continuous
 62
     3
370
     9
100
AcDbLine
 10
270.8431635676206
 20
209.9589546822215
 30
0.0
 11
285.8430645916915
 21
207.31402093011
 31
0.0
  0
LINE
  5
D9
330
1F
100
AcDbEntity
  8
0-0
  6
Continuous
 62
     3
370
     9
100
AcDbLine
 10
270.8431635676206
 20
235.4589150918498
 30
0.0
 11
285.8430645916915
 21
238.1038488439614
 31
0.0
  0
LINE
  5
DA
330
1F
100
AcDbEntity
  8
0-0
  6
Continuous
 62
     3
370
     9
100
AcDbLine
 10
270.8431635676206
 20
274.9588722022806
 30
0.0
 11
285.8430645916915
 21
277.6039049303212
 31
0.0
  0
LINE
  5
DB
330
1F
100
AcDbEntity
  8
0-0
  6
Continuous
 62
     3
370
     9
100
AcDbLine
 10
270.8431635676206
 20
249.4589612806168
 30
0.0
 11
285.8430645916915
 21
246.8140275285052
 31
0.0
  0
LINE
  5
DC
330
1F
100
AcDbEntity
  8
0-0
  6
Continuous
 62
     3
370
     9
100
AcDbLine
 10
270.8431635676206
 20
288.9590173669766
 30
0.0
 11
285.8430645916915
 21
286.3139846389359
 31
0.0
  0
LINE
  5
DD
330
1F
100
AcDbEntity
  8
0-0
  6
Continuous
 62
     3
370
     9
100
AcDbLine
 10
270.8431635676206
 20
314.4589777766049
 30
0.0
 11
285.8430645916915
 21
317.1038125527873
 31
0.0
  0
LINE
  5
DE
330
1F
100
AcDbEntity
  8
0-0
  6
Continuous
 62
     3
370
     9
100
AcDbLine
 10
270.8431635676206
 20
353.9588853990712
 30
0.0
 11
290.843130575644
 21
357.4853977512671
 31
0.0
  0
LINE
  5
DF
330
1F
100
AcDbEntity
  8
0-0
  6
Continuous
 62
     3
370
     9
100
AcDbLine
 10
270.8431635676206
 20
328.4589249894427
 30
0.0
 11
285.8430645916915
 21
325.8140902132603
 31
0.0
  0
LINE
  5
E0
330
1F
100
AcDbEntity
  8
0-0
  6
Continuous
 62
     3
370
     9
100
AcDbLine
 10
270.8431635676206
 20
91.45893488703564
 30
0.0
 11
285.8430645916915
 21
88.81405062288866
 31
0.0
  0
LINE
  5
E1
330
1F
100
AcDbEntity
  8
0-0
  6
Continuous
 62
     3
370
     9
100
AcDbLine
 10
270.8431635676206
 20
116.9589447846286
 30
0.0
 11
285.8430645916915
 21
119.6038290487755
 31
0.0
  0
LINE
  5
E2
330
1F
100
AcDbEntity
  8
0-0
  6
Continuous
 62
     3
370
     9
100
AcDbLine
 10
270.8431635676206
 20
130.958941485431
 30
0.0
 11
285.8430645916915
 21
128.314057221284
 31
0.0
  0
LINE
  5
E3
330
1F
100
AcDbEntity
  8
0-0
  6
Continuous
 62
     3
370
     9
100
AcDbLine
 10
270.8431635676206
 20
156.4589513830239
 30
0.0
 11
285.8430645916915
 21
159.1037861592063
 31
0.0
  0
LINE
  5
E4
330
1F
100
AcDbEntity
  8
0-0
  6
Continuous
 62
     3
370
     9
100
AcDbLine
 10
270.8431635676206
 20
-80.5410882073478
 30
0.0
 11
285.8430645916915
 21
-77.89615445523634
 31
0.0
  0
LINE
  5
E5
330
1F
100
AcDbEntity
  8
0-0
  6
Continuous
 62
     3
370
     9
100
AcDbLine
 10
270.8431635676206
 20
-106.0410486169762
 30
0.0
 11
290.843130575644
 21
-109.5676104571367
 31
0.0
  0
LINE
  5
E6
330
1F
100
AcDbEntity
  8
0-0
  6
Continuous
 62
     3
370
     9
100
AcDbLine
 10
270.8431635676206
 20
-66.5410915065454
 30
0.0
 11
285.8430645916915
 21
-69.18597577069238
 31
0.0
  0
LINE
  5
E7
330
1F
100
AcDbEntity
  8
0-0
  6
Continuous
 62
     3
370
     9
100
AcDbLine
 10
270.8431635676206
 20
-41.04108160895248
 30
0.0
 11
285.8430645916915
 21
-38.39619734480561
 31
0.0
  0
LINE
  5
E8
330
1F
100
AcDbEntity
  8
0-0
  6
Continuous
 62
     3
370
     9
100
AcDbLine
 10
270.8431635676206
 20
-1.541075010557279
 30
0.0
 11
285.8430645916915
 21
1.103809253589702
 31
0.0
  0
LINE
  5
E9
330
1F
100
AcDbEntity
  8
0-0
  6
Continuous
 62
     3
370
     9
100
AcDbLine
 10
270.8431635676206
 20
-27.0410849081502
 30
0.0
 11
285.8430645916915
 21
-29.68596917229718
 31
0.0
  0
LINE
  5
EA
330
1F
100
AcDbEntity
  8
0-0
  6
Continuous
 62
     3
370
     9
100
AcDbLine
 10
270.8431635676206
 20
12.45892169024512
 30
0.0
 11
285.8430645916915
 21
9.814037426098139
 31
0.0
  0
LINE
  5
EB
330
1F
100
AcDbEntity
  8
0-0
  6
Continuous
 62
     3
370
     9
100
AcDbLine
 10
270.8431635676206
 20
37.95893158783804
 30
0.0
 11
285.8430645916915
 21
40.60381585198502
 31
0.0
  0
LINE
  5
EC
330
1F
100
AcDbEntity
  8
0-0
  6
Continuous
 62
     3
370
     9
100
AcDbLine
 10
270.8431635676206
 20
-126.0411146009289
 30
0.0
 11
290.843130575644
 21
-122.5145527607684
 31
0.0
  0
LINE
  5
ED
330
1F
100
AcDbEntity
  8
0-0
  6
Continuous
 62
     3
370
     9
100
AcDbLine
 10
270.8431635676206
 20
77.45893818623324
 30
0.0
 11
285.8430645916915
 21
80.10382245038022
 31
0.0
  0
LINE
  5
EE
330
1F
100
AcDbEntity
  8
0-0
  6
Continuous
 62
     3
370
     9
100
AcDbLine
 10
270.8431635676206
 20
51.95892828864032
 30
0.0
 11
285.8430645916915
 21
49.31404402449346
 31
0.0
  0
LINE
  5
EF
330
1F
100
AcDbEntity
  8
0-0
  6
Continuous
 62
     3
370
     9
100
AcDbLine
 10
-232.1569123139252
 20
-82.04106841216208
 30
0.0
 11
-232.1569123139252
 21
-104.5410684121621
 31
0.0
  0
LINE
  5
F0
330
1F
100
AcDbEntity
  8
0-0
  6
Continuous
 62
     3
370
     9
100
AcDbLine
 10
-230.6568826211465
 20
-80.5410882073478
 30
0.0
 11
-208.1568826211465
 21
-80.5410882073478
 31
0.0
  0
LINE
  5
F1
330
1F
100
AcDbEntity
  8
0-0
  6
Continuous
 62
     3
370
     9
100
AcDbLine
 10
-206.6569024163323
 20
-82.04106841216208
 30
0.0
 11
-206.6569024163323
 21
-104.5410684121621
 31
0.0
  0
LINE
  5
F2
330
1F
100
AcDbEntity
  8
0-0
  6
Continuous
 62
     3
370
     9
100
AcDbLine
 10
-230.6568826211465
 20
-106.0410486169762
 30
0.0
 11
-208.1568826211465
 21
-106.0410486169762
 31
0.0
  0
LINE
  5
F3
330
1F
100
AcDbEntity
  8
0-0
  6
Continuous
 62
     3
370
     9
100
AcDbLine
 10
-191.1568760227512
 20
-106.0410486169762
 30
0.0
 11
-168.6568760227512
 21
-106.0410486169762
 31
0.0
  0
LINE
  5
F4
330
1F
100
AcDbEntity
  8
0-0
  6
Continuous
 62
     3
370
     9
100
AcDbLine
 10
-167.1568958179371
 20
-82.04106841216208
 30
0.0
 11
-167.1568958179371
 21
-104.5410684121621
 31
0.0
  0
LINE
  5
F5
330
1F
100
AcDbEntity
  8
0-0
  6
Continuous
 62
     3
370
     9
100
AcDbLine
 10
-191.1568760227512
 20
-80.5410882073478
 30
0.0
 11
-168.6568760227512
 21
-80.5410882073478
 31
0.0
  0
LINE
  5
F6
330
1F
100
AcDbEntity
  8
0-0
  6
Continuous
 62
     3
370
     9
100
AcDbLine
 10
-192.6569057155299
 20
-82.04106841216208
 30
0.0
 11
-192.6569057155299
 21
-104.5410684121621
 31
0.0
  0
LINE
  5
F7
330
1F
100
AcDbEntity
  8
0-0
  6
Continuous
 62
     3
370
     9
100
AcDbLine
 10
-153.1568991171347
 20
-82.04106841216208
 30
0.0
 11
-153.1568991171347
 21
-104.5410684121621
 31
0.0
  0
LINE
  5
F8
330
1F
100
AcDbEntity
  8
0-0
  6
Continuous
 62
     3
370
     9
100
AcDbLine
 10
-151.6568694243559
 20
-80.5410882073478
 30
0.0
 11
-129.1568694243559
 21
-80.5410882073478
 31
0.0
  0
LINE
  5
F9
330
1F
100
AcDbEntity
  8
0-0
  6
Continuous
 62
     3
370
     9
100
AcDbLine
 10
-127.6568892195418
 20
-82.04106841216208
 30
0.0
 11
-127.6568892195418
 21
-104.5410684121621
 31
0.0
  0
LINE
  5
FA
330
1F
100
AcDbEntity
  8
0-0
  6
Continuous
 62
     3
370
     9
100
AcDbLine
 10
-151.6568694243559
 20
-106.0410486169762
 30
0.0
 11
-129.1568694243559
 21
-106.0410486169762
 31
0.0
  0
LINE
  5
FB
330
1F
100
AcDbEntity
  8
0-0
  6
Continuous
 62
     3
370
     9
100
AcDbLine
 10
-112.1569123139252
 20
-106.0410486169762
 30
0.0
 11
-89.6569123139252
 21
-106.0410486169762
 31
0.0
  0
LINE
  5
FC
330
1F
100
AcDbEntity
  8
0-0
  6
Continuous
 62
     3
370
     9
100
AcDbLine
 10
-88.15688262114645
 20
-82.04106841216208
 30
0.0
 11
-88.15688262114645
 21
-104.5410684121621
 31
0.0
  0
LINE
  5
FD
330
1F
100
AcDbEntity
  8
0-0
  6
Continuous
 62
     3
370
     9
100
AcDbLine
 10
-112.1569123139252
 20
-80.5410882073478
 30
0.0
 11
-89.6569123139252
 21
-80.5410882073478
 31
0.0
  0
LINE
  5
FE
330
1F
100
AcDbEntity
  8
0-0
  6
Continuous
 62
     3
370
     9
100
AcDbLine
 10
-113.6568925187394
 20
-82.04106841216208
 30
0.0
 11
-113.6568925187394
 21
-104.5410684121621
 31
0.0
  0
LINE
  5
FF
330
1F
100
AcDbEntity
  8
0-0
  6
Continuous
 62
     3
370
     9
100
AcDbLine
 10
-74.15688592034417
 20
-82.04106841216208
 30
0.0
 11
-74.15688592034417
 21
-104.5410684121621
 31
0.0
  0
LINE
  5
100
330
1F
100
AcDbEntity
  8
0-0
  6
Continuous
 62
     3
370
     9
100
AcDbLine
 10
-72.65690571552989
 20
-80.5410882073478
 30
0.0
 11
-50.15690571552989
 21
-80.5410882073478
 31
0.0
  0
LINE
  5
101
330
1F
100
AcDbEntity
  8
0-0
  6
Continuous
 62
     3
370
     9
100
AcDbLine
 10
-48.65687602275125
 20
-82.04106841216208
 30
0.0
 11
-48.65687602275125
 21
-104.5410684121621
 31
0.0
  0
LINE
  5
102
330
1F
100
AcDbEntity
  8
0-0
  6
Continuous
 62
     3
370
     9
100
AcDbLine
 10
-72.65690571552989
 20
-106.0410486169762
 30
0.0
 11
-50.15690571552989
 21
-106.0410486169762
 31
0.0
  0
LINE
  5
103
330
1F
100
AcDbEntity
  8
0-0
  6
Continuous
 62
     3
370
     9
100
AcDbLine
 10
-33.15694860509916
 20
-106.0410486169762
 30
0.0
 11
-10.6568496291701
 21
-106.0410486169762
 31
0.0
  0
LINE
  5
104
330
1F
100
AcDbEntity
  8
0-0
  6
Continuous
 62
     3
370
     9
100
AcDbLine
 10
-9.156869424355932
 20
-82.04106841216208
 30
0.0
 11
-9.156869424355932
 21
-104.5410684121621
 31
0.0
  0
LINE
  5
105
330
1F
100
AcDbEntity
  8
0-0
  6
Continuous
 62
     3
370
     9
100
AcDbLine
 10
-33.15694860509916
 20
-80.5410882073478
 30
0.0
 11
-10.6568496291701
 21
-80.5410882073478
 31
0.0
  0
LINE
  5
106
330
1F
100
AcDbEntity
  8
0-0
  6
Continuous
 62
     3
370
     9
100
AcDbLine
 10
-34.65682983398438
 20
-82.04106841216208
 30
0.0
 11
-34.65682983398438
 21
-104.5410684121621
 31
0.0
  0
LINE
  5
107
330
1F
100
AcDbEntity
  8
0-0
  6
Continuous
 62
     3
370
     9
100
AcDbLine
 10
-34.65682983398438
 20
-42.54106181376676
 30
0.0
 11
-34.65682983398438
 21
-65.04106181376665
 31
0.0
  0
LINE
  5
108
330
1F
100
AcDbEntity
  8
0-0
  6
Continuous
 62
     3
370
     9
100
AcDbLine
 10
-33.15694860509916
 20
-41.04108160895248
 30
0.0
 11
-10.6568496291701
 21
-41.04108160895248
 31
0.0
  0
LINE
  5
109
330
1F
100
AcDbEntity
  8
0-0
  6
Continuous
 62
     3
370
     9
100
AcDbLine
 10
-9.156869424355932
 20
-42.54106181376676
 30
0.0
 11
-9.156869424355932
 21
-65.04106181376665
 31
0.0
  0
LINE
  5
10A
330
1F
100
AcDbEntity
  8
0-0
  6
Continuous
 62
     3
370
     9
100
AcDbLine
 10
-33.15694860509916
 20
-66.5410915065454
 30
0.0
 11
-10.6568496291701
 21
-66.5410915065454
 31
0.0
  0
LINE
  5
10B
330
1F
100
AcDbEntity
  8
0-0
  6
Continuous
 62
     3
370
     9
100
AcDbLine
 10
-72.65690571552989
 20
-66.5410915065454
 30
0.0
 11
-50.15690571552989
 21
-66.5410915065454
 31
0.0
  0
LINE
  5
10C
330
1F
100
AcDbEntity
  8
0-0
  6
Continuous
 62
     3
370
     9
100
AcDbLine
 10
-48.65687602275125
 20
-42.54106181376676
 30
0.0
 11
-48.65687602275125
 21
-65.04106181376665
 31
0.0
  0
LINE
  5
10D
330
1F
100
AcDbEntity
  8
0-0
  6
Continuous
 62
     3
370
     9
100
AcDbLine
 10
-72.65690571552989
 20
-41.04108160895248
 30
0.0
 11
-50.15690571552989
 21
-41.04108160895248
 31
0.0
  0
LINE
  5
10E
330
1F
100
AcDbEntity
  8
0-0
  6
Continuous
 62
     3
370
     9
100
AcDbLine
 10
-74.15688592034417
 20
-42.54106181376676
 30
0.0
 11
-74.15688592034417
 21
-65.04106181376665
 31
0.0
  0
LINE
  5
10F
330
1F
100
AcDbEntity
  8
0-0
  6
Continuous
 62
     3
370
     9
100
AcDbLine
 10
-113.6568925187394
 20
-42.54106181376676
 30
0.0
 11
-113.6568925187394
 21
-65.04106181376665
 31
0.0
  0
LINE
  5
110
330
1F
100
AcDbEntity
  8
0-0
  6
Continuous
 62
     3
370
     9
100
AcDbLine
 10
-112.1569123139252
 20
-41.04108160895248
 30
0.0
 11
-89.6569123139252
 21
-41.04108160895248
 31
0.0
  0
LINE
  5
111
330
1F
100
AcDbEntity
  8
0-0
  6
Continuous
 62
     3
370
     9
100
AcDbLine
 10
-88.15688262114645
 20
-42.54106181376676
 30
0.0
 11
-88.15688262114645
 21
-65.04106181376665
 31
0.0
  0
LINE
  5
112
330
1F
100
AcDbEntity
  8
0-0
  6
Continuous
 62
     3
370
     9
100
AcDbLine
 10
-112.1569123139252
 20
-66.5410915065454
 30
0.0
 11
-89.6569123139252
 21
-66.5410915065454
 31
0.0
  0
LINE
  5
113
330
1F
100
AcDbEntity
  8
0-0
  6
Continuous
 62
     3
370
     9
100
AcDbLine
 10
-151.6568694243559
 20
-66.5410915065454
 30
0.0
 11
-129.1568694243559
 21
-66.5410915065454
 31
0.0
  0
LINE
  5
114
330
1F
100
AcDbEntity
  8
0-0
  6
Continuous
 62
     3
370
     9
100
AcDbLine
 10
-127.6568892195418
 20
-42.54106181376676
 30
0.0
 11
-127.6568892195418
 21
-65.04106181376665
 31
0.0
  0
LINE
  5
115
330
1F
100
AcDbEntity
  8
0-0
  6
Continuous
 62
     3
370
     9
100
AcDbLine
 10
-151.6568694243559
 20
-41.04108160895248
 30
0.0
 11
-129.1568694243559
 21
-41.04108160895248
 31
0.0
  0
LINE
  5
116
330
1F
100
AcDbEntity
  8
0-0
  6
Continuous
 62
     3
370
     9
100
AcDbLine
 10
-153.1568991171347
 20
-42.54106181376676
 30
0.0
 11
-153.1568991171347
 21
-65.04106181376665
 31
0.0
  0
LINE
  5
117
330
1F
100
AcDbEntity
  8
0-0
  6
Continuous
 62
     3
370
     9
100
AcDbLine
 10
-192.6569057155299
 20
-42.54106181376676
 30
0.0
 11
-192.6569057155299
 21
-65.04106181376665
 31
0.0
  0
LINE
  5
118
330
1F
100
AcDbEntity
  8
0-0
  6
Continuous
 62
     3
370
     9
100
AcDbLine
 10
-191.1568760227512
 20
-41.04108160895248
 30
0.0
 11
-168.6568760227512
 21
-41.04108160895248
 31
0.0
  0
LINE
  5
119
330
1F
100
AcDbEntity
  8
0-0
  6
Continuous
 62
     3
370
     9
100
AcDbLine
 10
-167.1568958179371
 20
-42.54106181376676
 30
0.0
 11
-167.1568958179371
 21
-65.04106181376665
 31
0.0
  0
LINE
  5
11A
330
1F
100
AcDbEntity
  8
0-0
  6
Continuous
 62
     3
370
     9
100
AcDbLine
 10
-191.1568760227512
 20
-66.5410915065454
 30
0.0
 11
-168.6568760227512
 21
-66.5410915065454
 31
0.0
  0
LINE
  5
11B
330
1F
100
AcDbEntity
  8
0-0
  6
Continuous
 62
     3
370
     9
100
AcDbLine
 10
-230.6568826211465
 20
-66.5410915065454
 30
0.0
 11
-208.1568826211465
 21
-66.5410915065454
 31
0.0
  0
LINE
  5
11C
330
1F
100
AcDbEntity
  8
0-0
  6
Continuous
 62
     3
370
     9
100
AcDbLine
 10
-206.6569024163323
 20
-42.54106181376676
 30
0.0
 11
-206.6569024163323
 21
-65.04106181376665
 31
0.0
  0
LINE
  5
11D
330
1F
100
AcDbEntity
  8
0-0
  6
Continuous
 62
     3
370
     9
100
AcDbLine
 10
-230.6568826211465
 20
-41.04108160895248
 30
0.0
 11
-208.1568826211465
 21
-41.04108160895248
 31
0.0
  0
LINE
  5
11E
330
1F
100
AcDbEntity
  8
0-0
  6
Continuous
 62
     3
370
     9
100
AcDbLine
 10
-232.1569123139252
 20
-42.54106181376676
 30
0.0
 11
-232.1569123139252
 21
-65.04106181376665
 31
0.0
  0
LINE
  5
11F
330
1F
100
AcDbEntity
  8
0-0
  6
Continuous
 62
     3
370
     9
100
AcDbLine
 10
-232.1569123139252
 20
-3.041055215371443
 30
0.0
 11
-232.1569123139252
 21
-25.54105521537144
 31
0.0
  0
LINE
  5
120
330
1F
100
AcDbEntity
  8
0-0
  6
Continuous
 62
     3
370
     9
100
AcDbLine
 10
-230.6568826211465
 20
-1.541075010557279
 30
0.0
 11
-208.1568826211465
 21
-1.541075010557279
 31
0.0
  0
LINE
  5
121
330
1F
100
AcDbEntity
  8
0-0
  6
Continuous
 62
     3
370
     9
100
AcDbLine
 10
-206.6569024163323
 20
-3.041055215371443
 30
0.0
 11
-206.6569024163323
 21
-25.54105521537144
 31
0.0
  0
LINE
  5
122
330
1F
100
AcDbEntity
  8
0-0
  6
Continuous
 62
     3
370
     9
100
AcDbLine
 10
-230.6568826211465
 20
-27.0410849081502
 30
0.0
 11
-208.1568826211465
 21
-27.0410849081502
 31
0.0
  0
LINE
  5
123
330
1F
100
AcDbEntity
  8
0-0
  6
Continuous
 62
     3
370
     9
100
AcDbLine
 10
-191.1568760227512
 20
-27.0410849081502
 30
0.0
 11
-168.6568760227512
 21
-27.0410849081502
 31
0.0
  0
LINE
  5
124
330
1F
100
AcDbEntity
  8
0-0
  6
Continuous
 62
     3
370
     9
100
AcDbLine
 10
-167.1568958179371
 20
-3.041055215371443
 30
0.0
 11
-167.1568958179371
 21
-25.54105521537144
 31
0.0
  0
LINE
  5
125
330
1F
100
AcDbEntity
  8
0-0
  6
Continuous
 62
     3
370
     9
100
AcDbLine
 10
-191.1568760227512
 20
-1.541075010557279
 30
0.0
 11
-168.6568760227512
 21
-1.541075010557279
 31
0.0
  0
LINE
  5
126
330
1F
100
AcDbEntity
  8
0-0
  6
Continuous
 62
     3
370
     9
100
AcDbLine
 10
-192.6569057155299
 20
-3.041055215371443
 30
0.0
 11
-192.6569057155299
 21
-25.54105521537144
 31
0.0
  0
LINE
  5
127
330
1F
100
AcDbEntity
  8
0-0
  6
Continuous
 62
     3
370
     9
100
AcDbLine
 10
-153.1568991171347
 20
-3.041055215371443
 30
0.0
 11
-153.1568991171347
 21
-25.54105521537144
 31
0.0
  0
LINE
  5
128
330
1F
100
AcDbEntity
  8
0-0
  6
Continuous
 62
     3
370
     9
100
AcDbLine
 10
-151.6568694243559
 20
-1.541075010557279
 30
0.0
 11
-129.1568694243559
 21
-1.541075010557279
 31
0.0
  0
LINE
  5
129
330
1F
100
AcDbEntity
  8
0-0
  6
Continuous
 62
     3
370
     9
100
AcDbLine
 10
-127.6568892195418
 20
-3.041055215371443
 30
0.0
 11
-127.6568892195418
 21
-25.54105521537144
 31
0.0
  0
LINE
  5
12A
330
1F
100
AcDbEntity
  8
0-0
  6
Continuous
 62
     3
370
     9
100
AcDbLine
 10
-151.6568694243559
 20
-27.0410849081502
 30
0.0
 11
-129.1568694243559
 21
-27.0410849081502
 31
0.0
  0
LINE
  5
12B
330
1F
100
AcDbEntity
  8
0-0
  6
Continuous
 62
     3
370
     9
100
AcDbLine
 10
-112.1569123139252
 20
-27.0410849081502
 30
0.0
 11
-89.6569123139252
 21
-27.0410849081502
 31
0.0
  0
LINE
  5
12C
330
1F
100
AcDbEntity
  8
0-0
  6
Continuous
 62
     3
370
     9
100
AcDbLine
 10
-88.15688262114645
 20
-3.041055215371443
 30
0.0
 11
-88.15688262114645
 21
-25.54105521537144
 31
0.0
  0
LINE
  5
12D
330
1F
100
AcDbEntity
  8
0-0
  6
Continuous
 62
     3
370
     9
100
AcDbLine
 10
-112.1569123139252
 20
-1.541075010557279
 30
0.0
 11
-89.6569123139252
 21
-1.541075010557279
 31
0.0
  0
LINE
  5
12E
330
1F
100
AcDbEntity
  8
0-0
  6
Continuous
 62
     3
370
     9
100
AcDbLine
 10
-113.6568925187394
 20
-3.041055215371443
 30
0.0
 11
-113.6568925187394
 21
-25.54105521537144
 31
0.0
  0
LINE
  5
12F
330
1F
100
AcDbEntity
  8
0-0
  6
Continuous
 62
     3
370
     9
100
AcDbLine
 10
-74.15688592034417
 20
-3.041055215371443
 30
0.0
 11
-74.15688592034417
 21
-25.54105521537144
 31
0.0
  0
LINE
  5
130
330
1F
100
AcDbEntity
  8
0-0
  6
Continuous
 62
     3
370
     9
100
AcDbLine
 10
-72.65690571552989
 20
-1.541075010557279
 30
0.0
 11
-50.15690571552989
 21
-1.541075010557279
 31
0.0
  0
LINE
  5
131
330
1F
100
AcDbEntity
  8
0-0
  6
Continuous
 62
     3
370
     9
100
AcDbLine
 10
-48.65687602275125
 20
-3.041055215371443
 30
0.0
 11
-48.65687602275125
 21
-25.54105521537144
 31
0.0
  0
LINE
  5
132
330
1F
100
AcDbEntity
  8
0-0
  6
Continuous
 62
     3
370
     9
100
AcDbLine
 10
-72.65690571552989
 20
-27.0410849081502
 30
0.0
 11
-50.15690571552989
 21
-27.0410849081502
 31
0.0
  0
LINE
  5
133
330
1F
100
AcDbEntity
  8
0-0
  6
Continuous
 62
     3
370
     9
100
AcDbLine
 10
-33.15694860509916
 20
-27.0410849081502
 30
0.0
 11
-10.6568496291701
 21
-27.0410849081502
 31
0.0
  0
LINE
  5
134
330
1F
100
AcDbEntity
  8
0-0
  6
Continuous
 62
     3
370
     9
100
AcDbLine
 10
-9.156869424355932
 20
-3.041055215371443
 30
0.0
 11
-9.156869424355932
 21
-25.54105521537144
 31
0.0
  0
LINE
  5
135
330
1F
100
AcDbEntity
  8
0-0
  6
Continuous
 62
     3
370
     9
100
AcDbLine
 10
-33.15694860509916
 20
-1.541075010557279
 30
0.0
 11
-10.6568496291701
 21
-1.541075010557279
 31
0.0
  0
LINE
  5
136
330
1F
100
AcDbEntity
  8
0-0
  6
Continuous
 62
     3
370
     9
100
AcDbLine
 10
-34.65682983398438
 20
-3.041055215371443
 30
0.0
 11
-34.65682983398438
 21
-25.54105521537144
 31
0.0
  0
LINE
  5
137
330
1F
100
AcDbEntity
  8
0-0
  6
Continuous
 62
     3
370
     9
100
AcDbLine
 10
-34.65682983398438
 20
36.45895138302387
 30
0.0
 11
-34.65682983398438
 21
13.95895138302387
 31
0.0
  0
LINE
  5
138
330
1F
100
AcDbEntity
  8
0-0
  6
Continuous
 62
     3
370
     9
100
AcDbLine
 10
-33.15694860509916
 20
37.95893158783804
 30
0.0
 11
-10.6568496291701
 21
37.95893158783804
 31
0.0
  0
LINE
  5
139
330
1F
100
AcDbEntity
  8
0-0
  6
Continuous
 62
     3
370
     9
100
AcDbLine
 10
-9.156869424355932
 20
36.45895138302387
 30
0.0
 11
-9.156869424355932
 21
13.95895138302387
 31
0.0
  0
LINE
  5
13A
330
1F
100
AcDbEntity
  8
0-0
  6
Continuous
 62
     3
370
     9
100
AcDbLine
 10
-33.15694860509916
 20
12.45892169024512
 30
0.0
 11
-10.6568496291701
 21
12.45892169024512
 31
0.0
  0
LINE
  5
13B
330
1F
100
AcDbEntity
  8
0-0
  6
Continuous
 62
     3
370
     9
100
AcDbLine
 10
-72.65690571552989
 20
12.45892169024512
 30
0.0
 11
-50.15690571552989
 21
12.45892169024512
 31
0.0
  0
LINE
  5
13C
330
1F
100
AcDbEntity
  8
0-0
  6
Continuous
 62
     3
370
     9
100
AcDbLine
 10
-48.65687602275125
 20
36.45895138302387
 30
0.0
 11
-48.65687602275125
 21
13.95895138302387
 31
0.0
  0
LINE
  5
13D
330
1F
100
AcDbEntity
  8
0-0
  6
Continuous
 62
     3
370
     9
100
AcDbLine
 10
-72.65690571552989
 20
37.95893158783804
 30
0.0
 11
-50.15690571552989
 21
37.95893158783804
 31
0.0
  0
LINE
  5
13E
330
1F
100
AcDbEntity
  8
0-0
  6
Continuous
 62
     3
370
     9
100
AcDbLine
 10
-74.15688592034417
 20
36.45895138302387
 30
0.0
 11
-74.15688592034417
 21
13.95895138302387
 31
0.0
  0
LINE
  5
13F
330
1F
100
AcDbEntity
  8
0-0
  6
Continuous
 62
     3
370
     9
100
AcDbLine
 10
-113.6568925187394
 20
36.45895138302387
 30
0.0
 11
-113.6568925187394
 21
13.95895138302387
 31
0.0
  0
LINE
  5
140
330
1F
100
AcDbEntity
  8
0-0
  6
Continuous
 62
     3
370
     9
100
AcDbLine
 10
-112.1569123139252
 20
37.95893158783804
 30
0.0
 11
-89.6569123139252
 21
37.95893158783804
 31
0.0
  0
LINE
  5
141
330
1F
100
AcDbEntity
  8
0-0
  6
Continuous
 62
     3
370
     9
100
AcDbLine
 10
-88.15688262114645
 20
36.45895138302387
 30
0.0
 11
-88.15688262114645
 21
13.95895138302387
 31
0.0
  0
LINE
  5
142
330
1F
100
AcDbEntity
  8
0-0
  6
Continuous
 62
     3
370
     9
100
AcDbLine
 10
-112.1569123139252
 20
12.45892169024512
 30
0.0
 11
-89.6569123139252
 21
12.45892169024512
 31
0.0
  0
LINE
  5
143
330
1F
100
AcDbEntity
  8
0-0
  6
Continuous
 62
     3
370
     9
100
AcDbLine
 10
-151.6568694243559
 20
12.45892169024512
 30
0.0
 11
-129.1568694243559
 21
12.45892169024512
 31
0.0
  0
LINE
  5
144
330
1F
100
AcDbEntity
  8
0-0
  6
Continuous
 62
     3
370
     9
100
AcDbLine
 10
-127.6568892195418
 20
36.45895138302387
 30
0.0
 11
-127.6568892195418
 21
13.95895138302387
 31
0.0
  0
LINE
  5
145
330
1F
100
AcDbEntity
  8
0-0
  6
Continuous
 62
     3
370
     9
100
AcDbLine
 10
-151.6568694243559
 20
37.95893158783804
 30
0.0
 11
-129.1568694243559
 21
37.95893158783804
 31
0.0
  0
LINE
  5
146
330
1F
100
AcDbEntity
  8
0-0
  6
Continuous
 62
     3
370
     9
100
AcDbLine
 10
-153.1568991171347
 20
36.45895138302387
 30
0.0
 11
-153.1568991171347
 21
13.95895138302387
 31
0.0
  0
LINE
  5
147
330
1F
100
AcDbEntity
  8
0-0
  6
Continuous
 62
     3
370
     9
100
AcDbLine
 10
-192.6569057155299
 20
36.45895138302387
 30
0.0
 11
-192.6569057155299
 21
13.95895138302387
 31
0.0
  0
LINE
  5
148
330
1F
100
AcDbEntity
  8
0-0
  6
Continuous
 62
     3
370
     9
100
AcDbLine
 10
-191.1568760227512
 20
37.95893158783804
 30
0.0
 11
-168.6568760227512
 21
37.95893158783804
 31
0.0
  0
LINE
  5
149
330
1F
100
AcDbEntity
  8
0-0
  6
Continuous
 62
     3
370
     9
100
AcDbLine
 10
-167.1568958179371
 20
36.45895138302387
 30
0.0
 11
-167.1568958179371
 21
13.95895138302387
 31
0.0
  0
LINE
  5
14A
330
1F
100
AcDbEntity
  8
0-0
  6
Continuous
 62
     3
370
     9
100
AcDbLine
 10
-191.1568760227512
 20
12.45892169024512
 30
0.0
 11
-168.6568760227512
 21
12.45892169024512
 31
0.0
  0
LINE
  5
14B
330
1F
100
AcDbEntity
  8
0-0
  6
Continuous
 62
     3
370
     9
100
AcDbLine
 10
-230.6568826211465
 20
12.45892169024512
 30
0.0
 11
-208.1568826211465
 21
12.45892169024512
 31
0.0
  0
LINE
  5
14C
330
1F
100
AcDbEntity
  8
0-0
  6
Continuous
 62
     3
370
     9
100
AcDbLine
 10
-206.6569024163323
 20
36.45895138302387
 30
0.0
 11
-206.6569024163323
 21
13.95895138302387
 31
0.0
  0
LINE
  5
14D
330
1F
100
AcDbEntity
  8
0-0
  6
Continuous
 62
     3
370
     9
100
AcDbLine
 10
-230.6568826211465
 20
37.95893158783804
 30
0.0
 11
-208.1568826211465
 21
37.95893158783804
 31
0.0
  0
LINE
  5
14E
330
1F
100
AcDbEntity
  8
0-0
  6
Continuous
 62
     3
370
     9
100
AcDbLine
 10
-232.1569123139252
 20
36.45895138302387
 30
0.0
 11
-232.1569123139252
 21
13.95895138302387
 31
0.0
  0
LINE
  5
14F
330
1F
100
AcDbEntity
  8
0-0
  6
Continuous
 62
     3
370
     9
100
AcDbLine
 10
-232.1569123139252
 20
75.9589084934546
 30
0.0
 11
-232.1569123139252
 21
53.4589084934546
 31
0.0
  0
LINE
  5
150
330
1F
100
AcDbEntity
  8
0-0
  6
Continuous
 62
     3
370
     9
100
AcDbLine
 10
-230.6568826211465
 20
77.45893818623324
 30
0.0
 11
-208.1568826211465
 21
77.45893818623324
 31
0.0
  0
LINE
  5
151
330
1F
100
AcDbEntity
  8
0-0
  6
Continuous
 62
     3
370
     9
100
AcDbLine
 10
-206.6569024163323
 20
75.9589084934546
 30
0.0
 11
-206.6569024163323
 21
53.4589084934546
 31
0.0
  0
LINE
  5
152
330
1F
100
AcDbEntity
  8
0-0
  6
Continuous
 62
     3
370
     9
100
AcDbLine
 10
-230.6568826211465
 20
51.95892828864032
 30
0.0
 11
-208.1568826211465
 21
51.95892828864032
 31
0.0
  0
LINE
  5
153
330
1F
100
AcDbEntity
  8
0-0
  6
Continuous
 62
     3
370
     9
100
AcDbLine
 10
-191.1568760227512
 20
51.95892828864032
 30
0.0
 11
-168.6568760227512
 21
51.95892828864032
 31
0.0
  0
LINE
  5
154
330
1F
100
AcDbEntity
  8
0-0
  6
Continuous
 62
     3
370
     9
100
AcDbLine
 10
-167.1568958179371
 20
75.9589084934546
 30
0.0
 11
-167.1568958179371
 21
53.4589084934546
 31
0.0
  0
LINE
  5
155
330
1F
100
AcDbEntity
  8
0-0
  6
Continuous
 62
     3
370
     9
100
AcDbLine
 10
-191.1568760227512
 20
77.45893818623324
 30
0.0
 11
-168.6568760227512
 21
77.45893818623324
 31
0.0
  0
LINE
  5
156
330
1F
100
AcDbEntity
  8
0-0
  6
Continuous
 62
     3
370
     9
100
AcDbLine
 10
-192.6569057155299
 20
75.9589084934546
 30
0.0
 11
-192.6569057155299
 21
53.4589084934546
 31
0.0
  0
LINE
  5
157
330
1F
100
AcDbEntity
  8
0-0
  6
Continuous
 62
     3
370
     9
100
AcDbLine
 10
-153.1568991171347
 20
75.9589084934546
 30
0.0
 11
-153.1568991171347
 21
53.4589084934546
 31
0.0
  0
LINE
  5
158
330
1F
100
AcDbEntity
  8
0-0
  6
Continuous
 62
     3
370
     9
100
AcDbLine
 10
-151.6568694243559
 20
77.45893818623324
 30
0.0
 11
-129.1568694243559
 21
77.45893818623324
 31
0.0
  0
LINE
  5
159
330
1F
100
AcDbEntity
  8
0-0
  6
Continuous
 62
     3
370
     9
100
AcDbLine
 10
-127.6568892195418
 20
75.9589084934546
 30
0.0
 11
-127.6568892195418
 21
53.4589084934546
 31
0.0
  0
LINE
  5
15A
330
1F
100
AcDbEntity
  8
0-0
  6
Continuous
 62
     3
370
     9
100
AcDbLine
 10
-151.6568694243559
 20
51.95892828864032
 30
0.0
 11
-129.1568694243559
 21
51.95892828864032
 31
0.0
  0
LINE
  5
15B
330
1F
100
AcDbEntity
  8
0-0
  6
Continuous
 62
     3
370
     9
100
AcDbLine
 10
-112.1569123139252
 20
51.95892828864032
 30
0.0
 11
-89.6569123139252
 21
51.95892828864032
 31
0.0
  0
LINE
  5
15C
330
1F
100
AcDbEntity
  8
0-0
  6
Continuous
 62
     3
370
     9
100
AcDbLine
 10
-88.15688262114645
 20
75.9589084934546
 30
0.0
 11
-88.15688262114645
 21
53.4589084934546
 31
0.0
  0
LINE
  5
15D
330
1F
100
AcDbEntity
  8
0-0
  6
Continuous
 62
     3
370
     9
100
AcDbLine
 10
-112.1569123139252
 20
77.45893818623324
 30
0.0
 11
-89.6569123139252
 21
77.45893818623324
 31
0.0
  0
LINE
  5
15E
330
1F
100
AcDbEntity
  8
0-0
  6
Continuous
 62
     3
370
     9
100
AcDbLine
 10
-113.6568925187394
 20
75.9589084934546
 30
0.0
 11
-113.6568925187394
 21
53.4589084934546
 31
0.0
  0
LINE
  5
15F
330
1F
100
AcDbEntity
  8
0-0
  6
Continuous
 62
     3
370
     9
100
AcDbLine
 10
-74.15688592034417
 20
75.9589084934546
 30
0.0
 11
-74.15688592034417
 21
53.4589084934546
 31
0.0
  0
LINE
  5
160
330
1F
100
AcDbEntity
  8
0-0
  6
Continuous
 62
     3
370
     9
100
AcDbLine
 10
-72.65690571552989
 20
77.45893818623324
 30
0.0
 11
-50.15690571552989
 21
77.45893818623324
 31
0.0
  0
LINE
  5
161
330
1F
100
AcDbEntity
  8
0-0
  6
Continuous
 62
     3
370
     9
100
AcDbLine
 10
-48.65687602275125
 20
75.9589084934546
 30
0.0
 11
-48.65687602275125
 21
53.4589084934546
 31
0.0
  0
LINE
  5
162
330
1F
100
AcDbEntity
  8
0-0
  6
Continuous
 62
     3
370
     9
100
AcDbLine
 10
-72.65690571552989
 20
51.95892828864032
 30
0.0
 11
-50.15690571552989
 21
51.95892828864032
 31
0.0
  0
LINE
  5
163
330
1F
100
AcDbEntity
  8
0-0
  6
Continuous
 62
     3
370
     9
100
AcDbLine
 10
-33.15694860509916
 20
51.95892828864032
 30
0.0
 11
-10.6568496291701
 21
51.95892828864032
 31
0.0
  0
LINE
  5
164
330
1F
100
AcDbEntity
  8
0-0
  6
Continuous
 62
     3
370
     9
100
AcDbLine
 10
-9.156869424355932
 20
75.9589084934546
 30
0.0
 11
-9.156869424355932
 21
53.4589084934546
 31
0.0
  0
LINE
  5
165
330
1F
100
AcDbEntity
  8
0-0
  6
Continuous
 62
     3
370
     9
100
AcDbLine
 10
-33.15694860509916
 20
77.45893818623324
 30
0.0
 11
-10.6568496291701
 21
77.45893818623324
 31
0.0
  0
LINE
  5
166
330
1F
100
AcDbEntity
  8
0-0
  6
Continuous
 62
     3
370
     9
100
AcDbLine
 10
-34.65682983398438
 20
75.9589084934546
 30
0.0
 11
-34.65682983398438
 21
53.4589084934546
 31
0.0
  0
LINE
  5
167
330
1F
100
AcDbEntity
  8
0-0
  6
Continuous
 62
     3
370
     9
100
AcDbLine
 10
-34.65682983398438
 20
115.4589150918498
 30
0.0
 11
-34.65682983398438
 21
92.9589150918498
 31
0.0
  0
LINE
  5
168
330
1F
100
AcDbEntity
  8
0-0
  6
Continuous
 62
     3
370
     9
100
AcDbLine
 10
-33.15694860509916
 20
116.9589447846286
 30
0.0
 11
-10.6568496291701
 21
116.9589447846286
 31
0.0
  0
LINE
  5
169
330
1F
100
AcDbEntity
  8
0-0
  6
Continuous
 62
     3
370
     9
100
AcDbLine
 10
-9.156869424355932
 20
115.4589150918498
 30
0.0
 11
-9.156869424355932
 21
92.9589150918498
 31
0.0
  0
LINE
  5
16A
330
1F
100
AcDbEntity
  8
0-0
  6
Continuous
 62
     3
370
     9
100
AcDbLine
 10
-33.15694860509916
 20
91.45893488703564
 30
0.0
 11
-10.6568496291701
 21
91.45893488703564
 31
0.0
  0
LINE
  5
16B
330
1F
100
AcDbEntity
  8
0-0
  6
Continuous
 62
     3
370
     9
100
AcDbLine
 10
-72.65690571552989
 20
91.45893488703564
 30
0.0
 11
-50.15690571552989
 21
91.45893488703564
 31
0.0
  0
LINE
  5
16C
330
1F
100
AcDbEntity
  8
0-0
  6
Continuous
 62
     3
370
     9
100
AcDbLine
 10
-48.65687602275125
 20
115.4589150918498
 30
0.0
 11
-48.65687602275125
 21
92.9589150918498
 31
0.0
  0
LINE
  5
16D
330
1F
100
AcDbEntity
  8
0-0
  6
Continuous
 62
     3
370
     9
100
AcDbLine
 10
-72.65690571552989
 20
116.9589447846286
 30
0.0
 11
-50.15690571552989
 21
116.9589447846286
 31
0.0
  0
LINE
  5
16E
330
1F
100
AcDbEntity
  8
0-0
  6
Continuous
 62
     3
370
     9
100
AcDbLine
 10
-74.15688592034417
 20
115.4589150918498
 30
0.0
 11
-74.15688592034417
 21
92.9589150918498
 31
0.0
  0
LINE
  5
16F
330
1F
100
AcDbEntity
  8
0-0
  6
Continuous
 62
     3
370
     9
100
AcDbLine
 10
-113.6568925187394
 20
115.4589150918498
 30
0.0
 11
-113.6568925187394
 21
92.9589150918498
 31
0.0
  0
LINE
  5
170
330
1F
100
AcDbEntity
  8
0-0
  6
Continuous
 62
     3
370
     9
100
AcDbLine
 10
-112.1569123139252
 20
116.9589447846286
 30
0.0
 11
-89.6569123139252
 21
116.9589447846286
 31
0.0
  0
LINE
  5
171
330
1F
100
AcDbEntity
  8
0-0
  6
Continuous
 62
     3
370
     9
100
AcDbLine
 10
-88.15688262114645
 20
115.4589150918498
 30
0.0
 11
-88.15688262114645
 21
92.9589150918498
 31
0.0
  0
LINE
  5
172
330
1F
100
AcDbEntity
  8
0-0
  6
Continuous
 62
     3
370
     9
100
AcDbLine
 10
-112.1569123139252
 20
91.45893488703564
 30
0.0
 11
-89.6569123139252
 21
91.45893488703564
 31
0.0
  0
LINE
  5
173
330
1F
100
AcDbEntity
  8
0-0
  6
Continuous
 62
     3
370
     9
100
AcDbLine
 10
-151.6568694243559
 20
91.45893488703564
 30
0.0
 11
-129.1568694243559
 21
91.45893488703564
 31
0.0
  0
LINE
  5
174
330
1F
100
AcDbEntity
  8
0-0
  6
Continuous
 62
     3
370
     9
100
AcDbLine
 10
-127.6568892195418
 20
115.4589150918498
 30
0.0
 11
-127.6568892195418
 21
92.9589150918498
 31
0.0
  0
LINE
  5
175
330
1F
100
AcDbEntity
  8
0-0
  6
Continuous
 62
     3
370
     9
100
AcDbLine
 10
-151.6568694243559
 20
116.9589447846286
 30
0.0
 11
-129.1568694243559
 21
116.9589447846286
 31
0.0
  0
LINE
  5
176
330
1F
100
AcDbEntity
  8
0-0
  6
Continuous
 62
     3
370
     9
100
AcDbLine
 10
-153.1568991171347
 20
115.4589150918498
 30
0.0
 11
-153.1568991171347
 21
92.9589150918498
 31
0.0
  0
LINE
  5
177
330
1F
100
AcDbEntity
  8
0-0
  6
Continuous
 62
     3
370
     9
100
AcDbLine
 10
-192.6569057155299
 20
115.4589150918498
 30
0.0
 11
-192.6569057155299
 21
92.9589150918498
 31
0.0
  0
LINE
  5
178
330
1F
100
AcDbEntity
  8
0-0
  6
Continuous
 62
     3
370
     9
100
AcDbLine
 10
-191.1568760227512
 20
116.9589447846286
 30
0.0
 11
-168.6568760227512
 21
116.9589447846286
 31
0.0
  0
LINE
  5
179
330
1F
100
AcDbEntity
  8
0-0
  6
Continuous
 62
     3
370
     9
100
AcDbLine
 10
-167.1568958179371
 20
115.4589150918498
 30
0.0
 11
-167.1568958179371
 21
92.9589150918498
 31
0.0
  0
LINE
  5
17A
330
1F
100
AcDbEntity
  8
0-0
  6
Continuous
 62
     3
370
     9
100
AcDbLine
 10
-191.1568760227512
 20
91.45893488703564
 30
0.0
 11
-168.6568760227512
 21
91.45893488703564
 31
0.0
  0
LINE
  5
17B
330
1F
100
AcDbEntity
  8
0-0
  6
Continuous
 62
     3
370
     9
100
AcDbLine
 10
-230.6568826211465
 20
91.45893488703564
 30
0.0
 11
-208.1568826211465
 21
91.45893488703564
 31
0.0
  0
LINE
  5
17C
330
1F
100
AcDbEntity
  8
0-0
  6
Continuous
 62
     3
370
     9
100
AcDbLine
 10
-206.6569024163323
 20
115.4589150918498
 30
0.0
 11
-206.6569024163323
 21
92.9589150918498
 31
0.0
  0
LINE
  5
17D
330
1F
100
AcDbEntity
  8
0-0
  6
Continuous
 62
     3
370
     9
100
AcDbLine
 10
-230.6568826211465
 20
116.9589447846286
 30
0.0
 11
-208.1568826211465
 21
116.9589447846286
 31
0.0
  0
LINE
  5
17E
330
1F
100
AcDbEntity
  8
0-0
  6
Continuous
 62
     3
370
     9
100
AcDbLine
 10
-232.1569123139252
 20
115.4589150918498
 30
0.0
 11
-232.1569123139252
 21
92.9589150918498
 31
0.0
  0
LINE
  5
17F
330
1F
100
AcDbEntity
  8
0-0
  6
Continuous
 62
     3
370
     9
100
AcDbLine
 10
-489.156869424356
 20
-126.0411146009289
 30
0.0
 11
10.84309758366771
 21
-126.0411146009289
 31
0.0
  0
LINE
  5
180
330
1F
100
AcDbEntity
  8
0-0
  6
Continuous
 62
     3
370
     9
100
AcDbLine
 10
-489.156869424356
 20
373.9589513830239
 30
0.0
 11
-489.156869424356
 21
-126.0411146009289
 31
0.0
  0
LINE
  5
181
330
1F
100
AcDbEntity
  8
0-0
  6
Continuous
 62
     3
370
     9
100
AcDbLine
 10
-246.1569090147276
 20
115.4589150918498
 30
0.0
 11
-246.1569090147276
 21
92.9589150918498
 31
0.0
  0
LINE
  5
182
330
1F
100
AcDbEntity
  8
0-0
  6
Continuous
 62
     3
370
     9
100
AcDbLine
 10
-247.6568892195418
 20
116.9589447846286
 30
0.0
 11
-270.1568892195418
 21
116.9589447846286
 31
0.0
  0
LINE
  5
183
330
1F
100
AcDbEntity
  8
0-0
  6
Continuous
 62
     3
370
     9
100
AcDbLine
 10
-271.6568694243559
 20
115.4589150918498
 30
0.0
 11
-271.6568694243559
 21
92.9589150918498
 31
0.0
  0
LINE
  5
184
330
1F
100
AcDbEntity
  8
0-0
  6
Continuous
 62
     3
370
     9
100
AcDbLine
 10
-247.6568892195418
 20
91.45893488703564
 30
0.0
 11
-270.1568892195418
 21
91.45893488703564
 31
0.0
  0
LINE
  5
185
330
1F
100
AcDbEntity
  8
0-0
  6
Continuous
 62
     3
370
     9
100
AcDbLine
 10
-287.1568958179371
 20
91.45893488703564
 30
0.0
 11
-309.6568958179371
 21
91.45893488703564
 31
0.0
  0
LINE
  5
186
330
1F
100
AcDbEntity
  8
0-0
  6
Continuous
 62
     3
370
     9
100
AcDbLine
 10
-311.1568760227512
 20
115.4589150918498
 30
0.0
 11
-311.1568760227512
 21
92.9589150918498
 31
0.0
  0
LINE
  5
187
330
1F
100
AcDbEntity
  8
0-0
  6
Continuous
 62
     3
370
     9
100
AcDbLine
 10
-287.1568958179371
 20
116.9589447846286
 30
0.0
 11
-309.6568958179371
 21
116.9589447846286
 31
0.0
  0
LINE
  5
188
330
1F
100
AcDbEntity
  8
0-0
  6
Continuous
 62
     3
370
     9
100
AcDbLine
 10
-285.6569156131228
 20
115.4589150918498
 30
0.0
 11
-285.6569156131228
 21
92.9589150918498
 31
0.0
  0
LINE
  5
189
330
1F
100
AcDbEntity
  8
0-0
  6
Continuous
 62
     3
370
     9
100
AcDbLine
 10
-325.1569222115181
 20
115.4589150918498
 30
0.0
 11
-325.1569222115181
 21
92.9589150918498
 31
0.0
  0
LINE
  5
18A
330
1F
100
AcDbEntity
  8
0-0
  6
Continuous
 62
     3
370
     9
100
AcDbLine
 10
-326.6569024163323
 20
116.9589447846286
 30
0.0
 11
-349.1569024163323
 21
116.9589447846286
 31
0.0
  0
LINE
  5
18B
330
1F
100
AcDbEntity
  8
0-0
  6
Continuous
 62
     3
370
     9
100
AcDbLine
 10
-350.6568826211465
 20
115.4589150918498
 30
0.0
 11
-350.6568826211465
 21
92.9589150918498
 31
0.0
  0
LINE
  5
18C
330
1F
100
AcDbEntity
  8
0-0
  6
Continuous
 62
     3
370
     9
100
AcDbLine
 10
-326.6569024163323
 20
91.45893488703564
 30
0.0
 11
-349.1569024163323
 21
91.45893488703564
 31
0.0
  0
LINE
  5
18D
330
1F
100
AcDbEntity
  8
0-0
  6
Continuous
 62
     3
370
     9
100
AcDbLine
 10
-366.1569090147276
 20
91.45893488703564
 30
0.0
 11
-388.6569090147276
 21
91.45893488703564
 31
0.0
  0
LINE
  5
18E
330
1F
100
AcDbEntity
  8
0-0
  6
Continuous
 62
     3
370
     9
100
AcDbLine
 10
-390.1568892195418
 20
115.4589150918498
 30
0.0
 11
-390.1568892195418
 21
92.9589150918498
 31
0.0
  0
LINE
  5
18F
330
1F
100
AcDbEntity
  8
0-0
  6
Continuous
 62
     3
370
     9
100
AcDbLine
 10
-366.1569090147276
 20
116.9589447846286
 30
0.0
 11
-388.6569090147276
 21
116.9589447846286
 31
0.0
  0
LINE
  5
190
330
1F
100
AcDbEntity
  8
0-0
  6
Continuous
 62
     3
370
     9
100
AcDbLine
 10
-364.6569288099134
 20
115.4589150918498
 30
0.0
 11
-364.6569288099134
 21
92.9589150918498
 31
0.0
  0
LINE
  5
191
330
1F
100
AcDbEntity
  8
0-0
  6
Continuous
 62
     3
370
     9
100
AcDbLine
 10
-404.1568859203441
 20
115.4589150918498
 30
0.0
 11
-404.1568859203441
 21
92.9589150918498
 31
0.0
  0
LINE
  5
192
330
1F
100
AcDbEntity
  8
0-0
  6
Continuous
 62
     3
370
     9
100
AcDbLine
 10
-405.6569156131229
 20
116.9589447846286
 30
0.0
 11
-428.1569156131229
 21
116.9589447846286
 31
0.0
  0
LINE
  5
193
330
1F
100
AcDbEntity
  8
0-0
  6
Continuous
 62
     3
370
     9
100
AcDbLine
 10
-429.656895817937
 20
115.4589150918498
 30
0.0
 11
-429.656895817937
 21
92.9589150918498
 31
0.0
  0
LINE
  5
194
330
1F
100
AcDbEntity
  8
0-0
  6
Continuous
 62
     3
370
     9
100
AcDbLine
 10
-405.6569156131229
 20
91.45893488703564
 30
0.0
 11
-428.1569156131229
 21
91.45893488703564
 31
0.0
  0
LINE
  5
195
330
1F
100
AcDbEntity
  8
0-0
  6
Continuous
 62
     3
370
     9
100
AcDbLine
 10
-445.1569222115181
 20
91.45893488703564
 30
0.0
 11
-467.6569222115181
 21
91.45893488703564
 31
0.0
  0
LINE
  5
196
330
1F
100
AcDbEntity
  8
0-0
  6
Continuous
 62
     3
370
     9
100
AcDbLine
 10
-469.1569024163323
 20
115.4589150918498
 30
0.0
 11
-469.1569024163323
 21
92.9589150918498
 31
0.0
  0
LINE
  5
197
330
1F
100
AcDbEntity
  8
0-0
  6
Continuous
 62
     3
370
     9
100
AcDbLine
 10
-445.1569222115181
 20
116.9589447846286
 30
0.0
 11
-467.6569222115181
 21
116.9589447846286
 31
0.0
  0
LINE
  5
198
330
1F
100
AcDbEntity
  8
0-0
  6
Continuous
 62
     3
370
     9
100
AcDbLine
 10
-443.6568925187394
 20
115.4589150918498
 30
0.0
 11
-443.6568925187394
 21
92.9589150918498
 31
0.0
  0
LINE
  5
199
330
1F
100
AcDbEntity
  8
0-0
  6
Continuous
 62
     3
370
     9
100
AcDbLine
 10
-443.6568925187394
 20
75.9589084934546
 30
0.0
 11
-443.6568925187394
 21
53.4589084934546
 31
0.0
  0
LINE
  5
19A
330
1F
100
AcDbEntity
  8
0-0
  6
Continuous
 62
     3
370
     9
100
AcDbLine
 10
-445.1569222115181
 20
77.45893818623324
 30
0.0
 11
-467.6569222115181
 21
77.45893818623324
 31
0.0
  0
LINE
  5
19B
330
1F
100
AcDbEntity
  8
0-0
  6
Continuous
 62
     3
370
     9
100
AcDbLine
 10
-469.1569024163323
 20
75.9589084934546
 30
0.0
 11
-469.1569024163323
 21
53.4589084934546
 31
0.0
  0
LINE
  5
19C
330
1F
100
AcDbEntity
  8
0-0
  6
Continuous
 62
     3
370
     9
100
AcDbLine
 10
-445.1569222115181
 20
51.95892828864032
 30
0.0
 11
-467.6569222115181
 21
51.95892828864032
 31
0.0
  0
LINE
  5
19D
330
1F
100
AcDbEntity
  8
0-0
  6
Continuous
 62
     3
370
     9
100
AcDbLine
 10
-405.6569156131229
 20
51.95892828864032
 30
0.0
 11
-428.1569156131229
 21
51.95892828864032
 31
0.0
  0
LINE
  5
19E
330
1F
100
AcDbEntity
  8
0-0
  6
Continuous
 62
     3
370
     9
100
AcDbLine
 10
-429.656895817937
 20
75.9589084934546
 30
0.0
 11
-429.656895817937
 21
53.4589084934546
 31
0.0
  0
LINE
  5
19F
330
1F
100
AcDbEntity
  8
0-0
  6
Continuous
 62
     3
370
     9
100
AcDbLine
 10
-405.6569156131229
 20
77.45893818623324
 30
0.0
 11
-428.1569156131229
 21
77.45893818623324
 31
0.0
  0
LINE
  5
1A0
330
1F
100
AcDbEntity
  8
0-0
  6
Continuous
 62
     3
370
     9
100
AcDbLine
 10
-404.1568859203441
 20
75.9589084934546
 30
0.0
 11
-404.1568859203441
 21
53.4589084934546
 31
0.0
  0
LINE
  5
1A1
330
1F
100
AcDbEntity
  8
0-0
  6
Continuous
 62
     3
370
     9
100
AcDbLine
 10
-364.6569288099134
 20
75.9589084934546
 30
0.0
 11
-364.6569288099134
 21
53.4589084934546
 31
0.0
  0
LINE
  5
1A2
330
1F
100
AcDbEntity
  8
0-0
  6
Continuous
 62
     3
370
     9
100
AcDbLine
 10
-366.1569090147276
 20
77.45893818623324
 30
0.0
 11
-388.6569090147276
 21
77.45893818623324
 31
0.0
  0
LINE
  5
1A3
330
1F
100
AcDbEntity
  8
0-0
  6
Continuous
 62
     3
370
     9
100
AcDbLine
 10
-390.1568892195418
 20
75.9589084934546
 30
0.0
 11
-390.1568892195418
 21
53.4589084934546
 31
0.0
  0
LINE
  5
1A4
330
1F
100
AcDbEntity
  8
0-0
  6
Continuous
 62
     3
370
     9
100
AcDbLine
 10
-366.1569090147276
 20
51.95892828864032
 30
0.0
 11
-388.6569090147276
 21
51.95892828864032
 31
0.0
  0
LINE
  5
1A5
330
1F
100
AcDbEntity
  8
0-0
  6
Continuous
 62
     3
370
     9
100
AcDbLine
 10
-326.6569024163323
 20
51.95892828864032
 30
0.0
 11
-349.1569024163323
 21
51.95892828864032
 31
0.0
  0
LINE
  5
1A6
330
1F
100
AcDbEntity
  8
0-0
  6
Continuous
 62
     3
370
     9
100
AcDbLine
 10
-350.6568826211465
 20
75.9589084934546
 30
0.0
 11
-350.6568826211465
 21
53.4589084934546
 31
0.0
  0
LINE
  5
1A7
330
1F
100
AcDbEntity
  8
0-0
  6
Continuous
 62
     3
370
     9
100
AcDbLine
 10
-326.6569024163323
 20
77.45893818623324
 30
0.0
 11
-349.1569024163323
 21
77.45893818623324
 31
0.0
  0
LINE
  5
1A8
330
1F
100
AcDbEntity
  8
0-0
  6
Continuous
 62
     3
370
     9
100
AcDbLine
 10
-325.1569222115181
 20
75.9589084934546
 30
0.0
 11
-325.1569222115181
 21
53.4589084934546
 31
0.0
  0
LINE
  5
1A9
330
1F
100
AcDbEntity
  8
0-0
  6
Continuous
 62
     3
370
     9
100
AcDbLine
 10
-285.6569156131228
 20
75.9589084934546
 30
0.0
 11
-285.6569156131228
 21
53.4589084934546
 31
0.0
  0
LINE
  5
1AA
330
1F
100
AcDbEntity
  8
0-0
  6
Continuous
 62
     3
370
     9
100
AcDbLine
 10
-287.1568958179371
 20
77.45893818623324
 30
0.0
 11
-309.6568958179371
 21
77.45893818623324
 31
0.0
  0
LINE
  5
1AB
330
1F
100
AcDbEntity
  8
0-0
  6
Continuous
 62
     3
370
     9
100
AcDbLine
 10
-311.1568760227512
 20
75.9589084934546
 30
0.0
 11
-311.1568760227512
 21
53.4589084934546
 31
0.0
  0
LINE
  5
1AC
330
1F
100
AcDbEntity
  8
0-0
  6
Continuous
 62
     3
370
     9
100
AcDbLine
 10
-287.1568958179371
 20
51.95892828864032
 30
0.0
 11
-309.6568958179371
 21
51.95892828864032
 31
0.0
  0
LINE
  5
1AD
330
1F
100
AcDbEntity
  8
0-0
  6
Continuous
 62
     3
370
     9
100
AcDbLine
 10
-247.6568892195418
 20
51.95892828864032
 30
0.0
 11
-270.1568892195418
 21
51.95892828864032
 31
0.0
  0
LINE
  5
1AE
330
1F
100
AcDbEntity
  8
0-0
  6
Continuous
 62
     3
370
     9
100
AcDbLine
 10
-271.6568694243559
 20
75.9589084934546
 30
0.0
 11
-271.6568694243559
 21
53.4589084934546
 31
0.0
  0
LINE
  5
1AF
330
1F
100
AcDbEntity
  8
0-0
  6
Continuous
 62
     3
370
     9
100
AcDbLine
 10
-247.6568892195418
 20
77.45893818623324
 30
0.0
 11
-270.1568892195418
 21
77.45893818623324
 31
0.0
  0
LINE
  5
1B0
330
1F
100
AcDbEntity
  8
0-0
  6
Continuous
 62
     3
370
     9
100
AcDbLine
 10
-246.1569090147276
 20
75.9589084934546
 30
0.0
 11
-246.1569090147276
 21
53.4589084934546
 31
0.0
  0
LINE
  5
1B1
330
1F
100
AcDbEntity
  8
0-0
  6
Continuous
 62
     3
370
     9
100
AcDbLine
 10
-246.1569090147276
 20
36.45895138302387
 30
0.0
 11
-246.1569090147276
 21
13.95895138302387
 31
0.0
  0
LINE
  5
1B2
330
1F
100
AcDbEntity
  8
0-0
  6
Continuous
 62
     3
370
     9
100
AcDbLine
 10
-247.6568892195418
 20
37.95893158783804
 30
0.0
 11
-270.1568892195418
 21
37.95893158783804
 31
0.0
  0
LINE
  5
1B3
330
1F
100
AcDbEntity
  8
0-0
  6
Continuous
 62
     3
370
     9
100
AcDbLine
 10
-271.6568694243559
 20
36.45895138302387
 30
0.0
 11
-271.6568694243559
 21
13.95895138302387
 31
0.0
  0
LINE
  5
1B4
330
1F
100
AcDbEntity
  8
0-0
  6
Continuous
 62
     3
370
     9
100
AcDbLine
 10
-247.6568892195418
 20
12.45892169024512
 30
0.0
 11
-270.1568892195418
 21
12.45892169024512
 31
0.0
  0
LINE
  5
1B5
330
1F
100
AcDbEntity
  8
0-0
  6
Continuous
 62
     3
370
     9
100
AcDbLine
 10
-287.1568958179371
 20
12.45892169024512
 30
0.0
 11
-309.6568958179371
 21
12.45892169024512
 31
0.0
  0
LINE
  5
1B6
330
1F
100
AcDbEntity
  8
0-0
  6
Continuous
 62
     3
370
     9
100
AcDbLine
 10
-311.1568760227512
 20
36.45895138302387
 30
0.0
 11
-311.1568760227512
 21
13.95895138302387
 31
0.0
  0
LINE
  5
1B7
330
1F
100
AcDbEntity
  8
0-0
  6
Continuous
 62
     3
370
     9
100
AcDbLine
 10
-287.1568958179371
 20
37.95893158783804
 30
0.0
 11
-309.6568958179371
 21
37.95893158783804
 31
0.0
  0
LINE
  5
1B8
330
1F
100
AcDbEntity
  8
0-0
  6
Continuous
 62
     3
370
     9
100
AcDbLine
 10
-285.6569156131228
 20
36.45895138302387
 30
0.0
 11
-285.6569156131228
 21
13.95895138302387
 31
0.0
  0
LINE
  5
1B9
330
1F
100
AcDbEntity
  8
0-0
  6
Continuous
 62
     3
370
     9
100
AcDbLine
 10
-325.1569222115181
 20
36.45895138302387
 30
0.0
 11
-325.1569222115181
 21
13.95895138302387
 31
0.0
  0
LINE
  5
1BA
330
1F
100
AcDbEntity
  8
0-0
  6
Continuous
 62
     3
370
     9
100
AcDbLine
 10
-326.6569024163323
 20
37.95893158783804
 30
0.0
 11
-349.1569024163323
 21
37.95893158783804
 31
0.0
  0
LINE
  5
1BB
330
1F
100
AcDbEntity
  8
0-0
  6
Continuous
 62
     3
370
     9
100
AcDbLine
 10
-350.6568826211465
 20
36.45895138302387
 30
0.0
 11
-350.6568826211465
 21
13.95895138302387
 31
0.0
  0
LINE
  5
1BC
330
1F
100
AcDbEntity
  8
0-0
  6
Continuous
 62
     3
370
     9
100
AcDbLine
 10
-326.6569024163323
 20
12.45892169024512
 30
0.0
 11
-349.1569024163323
 21
12.45892169024512
 31
0.0
  0
LINE
  5
1BD
330
1F
100
AcDbEntity
  8
0-0
  6
Continuous
 62
     3
370
     9
100
AcDbLine
 10
-366.1569090147276
 20
12.45892169024512
 30
0.0
 11
-388.6569090147276
 21
12.45892169024512
 31
0.0
  0
LINE
  5
1BE
330
1F
100
AcDbEntity
  8
0-0
  6
Continuous
 62
     3
370
     9
100
AcDbLine
 10
-390.1568892195418
 20
36.45895138302387
 30
0.0
 11
-390.1568892195418
 21
13.95895138302387
 31
0.0
  0
LINE
  5
1BF
330
1F
100
AcDbEntity
  8
0-0
  6
Continuous
 62
     3
370
     9
100
AcDbLine
 10
-366.1569090147276
 20
37.95893158783804
 30
0.0
 11
-388.6569090147276
 21
37.95893158783804
 31
0.0
  0
LINE
  5
1C0
330
1F
100
AcDbEntity
  8
0-0
  6
Continuous
 62
     3
370
     9
100
AcDbLine
 10
-364.6569288099134
 20
36.45895138302387
 30
0.0
 11
-364.6569288099134
 21
13.95895138302387
 31
0.0
  0
LINE
  5
1C1
330
1F
100
AcDbEntity
  8
0-0
  6
Continuous
 62
     3
370
     9
100
AcDbLine
 10
-404.1568859203441
 20
36.45895138302387
 30
0.0
 11
-404.1568859203441
 21
13.95895138302387
 31
0.0
  0
LINE
  5
1C2
330
1F
100
AcDbEntity
  8
0-0
  6
Continuous
 62
     3
370
     9
100
AcDbLine
 10
-405.6569156131229
 20
37.95893158783804
 30
0.0
 11
-428.1569156131229
 21
37.95893158783804
 31
0.0
  0
LINE
  5
1C3
330
1F
100
AcDbEntity
  8
0-0
  6
Continuous
 62
     3
370
     9
100
AcDbLine
 10
-429.656895817937
 20
36.45895138302387
 30
0.0
 11
-429.656895817937
 21
13.95895138302387
 31
0.0
  0
LINE
  5
1C4
330
1F
100
AcDbEntity
  8
0-0
  6
Continuous
 62
     3
370
     9
100
AcDbLine
 10
-405.6569156131229
 20
12.45892169024512
 30
0.0
 11
-428.1569156131229
 21
12.45892169024512
 31
0.0
  0
LINE
  5
1C5
330
1F
100
AcDbEntity
  8
0-0
  6
Continuous
 62
     3
370
     9
100
AcDbLine
 10
-445.1569222115181
 20
12.45892169024512
 30
0.0
 11
-467.6569222115181
 21
12.45892169024512
 31
0.0
  0
LINE
  5
1C6
330
1F
100
AcDbEntity
  8
0-0
  6
Continuous
 62
     3
370
     9
100
AcDbLine
 10
-469.1569024163323
 20
36.45895138302387
 30
0.0
 11
-469.1569024163323
 21
13.95895138302387
 31
0.0
  0
LINE
  5
1C7
330
1F
100
AcDbEntity
  8
0-0
  6
Continuous
 62
     3
370
     9
100
AcDbLine
 10
-445.1569222115181
 20
37.95893158783804
 30
0.0
 11
-467.6569222115181
 21
37.95893158783804
 31
0.0
  0
LINE
  5
1C8
330
1F
100
AcDbEntity
  8
0-0
  6
Continuous
 62
     3
370
     9
100
AcDbLine
 10
-443.6568925187394
 20
36.45895138302387
 30
0.0
 11
-443.6568925187394
 21
13.95895138302387
 31
0.0
  0
LINE
  5
1C9
330
1F
100
AcDbEntity
  8
0-0
  6
Continuous
 62
     3
370
     9
100
AcDbLine
 10
-443.6568925187394
 20
-3.041055215371443
 30
0.0
 11
-443.6568925187394
 21
-25.54105521537144
 31
0.0
  0
LINE
  5
1CA
330
1F
100
AcDbEntity
  8
0-0
  6
Continuous
 62
     3
370
     9
100
AcDbLine
 10
-445.1569222115181
 20
-1.541075010557279
 30
0.0
 11
-467.6569222115181
 21
-1.541075010557279
 31
0.0
  0
LINE
  5
1CB
330
1F
100
AcDbEntity
  8
0-0
  6
Continuous
 62
     3
370
     9
100
AcDbLine
 10
-469.1569024163323
 20
-3.041055215371443
 30
0.0
 11
-469.1569024163323
 21
-25.54105521537144
 31
0.0
  0
LINE
  5
1CC
330
1F
100
AcDbEntity
  8
0-0
  6
Continuous
 62
     3
370
     9
100
AcDbLine
 10
-445.1569222115181
 20
-27.0410849081502
 30
0.0
 11
-467.6569222115181
 21
-27.0410849081502
 31
0.0
  0
LINE
  5
1CD
330
1F
100
AcDbEntity
  8
0-0
  6
Continuous
 62
     3
370
     9
100
AcDbLine
 10
-405.6569156131229
 20
-27.0410849081502
 30
0.0
 11
-428.1569156131229
 21
-27.0410849081502
 31
0.0
  0
LINE
  5
1CE
330
1F
100
AcDbEntity
  8
0-0
  6
Continuous
 62
     3
370
     9
100
AcDbLine
 10
-429.656895817937
 20
-3.041055215371443
 30
0.0
 11
-429.656895817937
 21
-25.54105521537144
 31
0.0
  0
LINE
  5
1CF
330
1F
100
AcDbEntity
  8
0-0
  6
Continuous
 62
     3
370
     9
100
AcDbLine
 10
-405.6569156131229
 20
-1.541075010557279
 30
0.0
 11
-428.1569156131229
 21
-1.541075010557279
 31
0.0
  0
LINE
  5
1D0
330
1F
100
AcDbEntity
  8
0-0
  6
Continuous
 62
     3
370
     9
100
AcDbLine
 10
-404.1568859203441
 20
-3.041055215371443
 30
0.0
 11
-404.1568859203441
 21
-25.54105521537144
 31
0.0
  0
LINE
  5
1D1
330
1F
100
AcDbEntity
  8
0-0
  6
Continuous
 62
     3
370
     9
100
AcDbLine
 10
-364.6569288099134
 20
-3.041055215371443
 30
0.0
 11
-364.6569288099134
 21
-25.54105521537144
 31
0.0
  0
LINE
  5
1D2
330
1F
100
AcDbEntity
  8
0-0
  6
Continuous
 62
     3
370
     9
100
AcDbLine
 10
-366.1569090147276
 20
-1.541075010557279
 30
0.0
 11
-388.6569090147276
 21
-1.541075010557279
 31
0.0
  0
LINE
  5
1D3
330
1F
100
AcDbEntity
  8
0-0
  6
Continuous
 62
     3
370
     9
100
AcDbLine
 10
-390.1568892195418
 20
-3.041055215371443
 30
0.0
 11
-390.1568892195418
 21
-25.54105521537144
 31
0.0
  0
LINE
  5
1D4
330
1F
100
AcDbEntity
  8
0-0
  6
Continuous
 62
     3
370
     9
100
AcDbLine
 10
-366.1569090147276
 20
-27.0410849081502
 30
0.0
 11
-388.6569090147276
 21
-27.0410849081502
 31
0.0
  0
LINE
  5
1D5
330
1F
100
AcDbEntity
  8
0-0
  6
Continuous
 62
     3
370
     9
100
AcDbLine
 10
-326.6569024163323
 20
-27.0410849081502
 30
0.0
 11
-349.1569024163323
 21
-27.0410849081502
 31
0.0
  0
LINE
  5
1D6
330
1F
100
AcDbEntity
  8
0-0
  6
Continuous
 62
     3
370
     9
100
AcDbLine
 10
-350.6568826211465
 20
-3.041055215371443
 30
0.0
 11
-350.6568826211465
 21
-25.54105521537144
 31
0.0
  0
LINE
  5
1D7
330
1F
100
AcDbEntity
  8
0-0
  6
Continuous
 62
     3
370
     9
100
AcDbLine
 10
-326.6569024163323
 20
-1.541075010557279
 30
0.0
 11
-349.1569024163323
 21
-1.541075010557279
 31
0.0
  0
LINE
  5
1D8
330
1F
100
AcDbEntity
  8
0-0
  6
Continuous
 62
     3
370
     9
100
AcDbLine
 10
-325.1569222115181
 20
-3.041055215371443
 30
0.0
 11
-325.1569222115181
 21
-25.54105521537144
 31
0.0
  0
LINE
  5
1D9
330
1F
100
AcDbEntity
  8
0-0
  6
Continuous
 62
     3
370
     9
100
AcDbLine
 10
-285.6569156131228
 20
-3.041055215371443
 30
0.0
 11
-285.6569156131228
 21
-25.54105521537144
 31
0.0
  0
LINE
  5
1DA
330
1F
100
AcDbEntity
  8
0-0
  6
Continuous
 62
     3
370
     9
100
AcDbLine
 10
-287.1568958179371
 20
-1.541075010557279
 30
0.0
 11
-309.6568958179371
 21
-1.541075010557279
 31
0.0
  0
LINE
  5
1DB
330
1F
100
AcDbEntity
  8
0-0
  6
Continuous
 62
     3
370
     9
100
AcDbLine
 10
-311.1568760227512
 20
-3.041055215371443
 30
0.0
 11
-311.1568760227512
 21
-25.54105521537144
 31
0.0
  0
LINE
  5
1DC
330
1F
100
AcDbEntity
  8
0-0
  6
Continuous
 62
     3
370
     9
100
AcDbLine
 10
-287.1568958179371
 20
-27.0410849081502
 30
0.0
 11
-309.6568958179371
 21
-27.0410849081502
 31
0.0
  0
LINE
  5
1DD
330
1F
100
AcDbEntity
  8
0-0
  6
Continuous
 62
     3
370
     9
100
AcDbLine
 10
-247.6568892195418
 20
-27.0410849081502
 30
0.0
 11
-270.1568892195418
 21
-27.0410849081502
 31
0.0
  0
LINE
  5
1DE
330
1F
100
AcDbEntity
  8
0-0
  6
Continuous
 62
     3
370
     9
100
AcDbLine
 10
-271.6568694243559
 20
-3.041055215371443
 30
0.0
 11
-271.6568694243559
 21
-25.54105521537144
 31
0.0
  0
LINE
  5
1DF
330
1F
100
AcDbEntity
  8
0-0
  6
Continuous
 62
     3
370
     9
100
AcDbLine
 10
-247.6568892195418
 20
-1.541075010557279
 30
0.0
 11
-270.1568892195418
 21
-1.541075010557279
 31
0.0
  0
LINE
  5
1E0
330
1F
100
AcDbEntity
  8
0-0
  6
Continuous
 62
     3
370
     9
100
AcDbLine
 10
-246.1569090147276
 20
-3.041055215371443
 30
0.0
 11
-246.1569090147276
 21
-25.54105521537144
 31
0.0
  0
LINE
  5
1E1
330
1F
100
AcDbEntity
  8
0-0
  6
Continuous
 62
     3
370
     9
100
AcDbLine
 10
-246.1569090147276
 20
-42.54106181376676
 30
0.0
 11
-246.1569090147276
 21
-65.04106181376665
 31
0.0
  0
LINE
  5
1E2
330
1F
100
AcDbEntity
  8
0-0
  6
Continuous
 62
     3
370
     9
100
AcDbLine
 10
-247.6568892195418
 20
-41.04108160895248
 30
0.0
 11
-270.1568892195418
 21
-41.04108160895248
 31
0.0
  0
LINE
  5
1E3
330
1F
100
AcDbEntity
  8
0-0
  6
Continuous
 62
     3
370
     9
100
AcDbLine
 10
-271.6568694243559
 20
-42.54106181376676
 30
0.0
 11
-271.6568694243559
 21
-65.04106181376665
 31
0.0
  0
LINE
  5
1E4
330
1F
100
AcDbEntity
  8
0-0
  6
Continuous
 62
     3
370
     9
100
AcDbLine
 10
-247.6568892195418
 20
-66.5410915065454
 30
0.0
 11
-270.1568892195418
 21
-66.5410915065454
 31
0.0
  0
LINE
  5
1E5
330
1F
100
AcDbEntity
  8
0-0
  6
Continuous
 62
     3
370
     9
100
AcDbLine
 10
-287.1568958179371
 20
-66.5410915065454
 30
0.0
 11
-309.6568958179371
 21
-66.5410915065454
 31
0.0
  0
LINE
  5
1E6
330
1F
100
AcDbEntity
  8
0-0
  6
Continuous
 62
     3
370
     9
100
AcDbLine
 10
-311.1568760227512
 20
-42.54106181376676
 30
0.0
 11
-311.1568760227512
 21
-65.04106181376665
 31
0.0
  0
LINE
  5
1E7
330
1F
100
AcDbEntity
  8
0-0
  6
Continuous
 62
     3
370
     9
100
AcDbLine
 10
-287.1568958179371
 20
-41.04108160895248
 30
0.0
 11
-309.6568958179371
 21
-41.04108160895248
 31
0.0
  0
LINE
  5
1E8
330
1F
100
AcDbEntity
  8
0-0
  6
Continuous
 62
     3
370
     9
100
AcDbLine
 10
-285.6569156131228
 20
-42.54106181376676
 30
0.0
 11
-285.6569156131228
 21
-65.04106181376665
 31
0.0
  0
LINE
  5
1E9
330
1F
100
AcDbEntity
  8
0-0
  6
Continuous
 62
     3
370
     9
100
AcDbLine
 10
-325.1569222115181
 20
-42.54106181376676
 30
0.0
 11
-325.1569222115181
 21
-65.04106181376665
 31
0.0
  0
LINE
  5
1EA
330
1F
100
AcDbEntity
  8
0-0
  6
Continuous
 62
     3
370
     9
100
AcDbLine
 10
-326.6569024163323
 20
-41.04108160895248
 30
0.0
 11
-349.1569024163323
 21
-41.04108160895248
 31
0.0
  0
LINE
  5
1EB
330
1F
100
AcDbEntity
  8
0-0
  6
Continuous
 62
     3
370
     9
100
AcDbLine
 10
-350.6568826211465
 20
-42.54106181376676
 30
0.0
 11
-350.6568826211465
 21
-65.04106181376665
 31
0.0
  0
LINE
  5
1EC
330
1F
100
AcDbEntity
  8
0-0
  6
Continuous
 62
     3
370
     9
100
AcDbLine
 10
-326.6569024163323
 20
-66.5410915065454
 30
0.0
 11
-349.1569024163323
 21
-66.5410915065454
 31
0.0
  0
LINE
  5
1ED
330
1F
100
AcDbEntity
  8
0-0
  6
Continuous
 62
     3
370
     9
100
AcDbLine
 10
-366.1569090147276
 20
-66.5410915065454
 30
0.0
 11
-388.6569090147276
 21
-66.5410915065454
 31
0.0
  0
LINE
  5
1EE
330
1F
100
AcDbEntity
  8
0-0
  6
Continuous
 62
     3
370
     9
100
AcDbLine
 10
-390.1568892195418
 20
-42.54106181376676
 30
0.0
 11
-390.1568892195418
 21
-65.04106181376665
 31
0.0
  0
LINE
  5
1EF
330
1F
100
AcDbEntity
  8
0-0
  6
Continuous
 62
     3
370
     9
100
AcDbLine
 10
-366.1569090147276
 20
-41.04108160895248
 30
0.0
 11
-388.6569090147276
 21
-41.04108160895248
 31
0.0
  0
LINE
  5
1F0
330
1F
100
AcDbEntity
  8
0-0
  6
Continuous
 62
     3
370
     9
100
AcDbLine
 10
-364.6569288099134
 20
-42.54106181376676
 30
0.0
 11
-364.6569288099134
 21
-65.04106181376665
 31
0.0
  0
LINE
  5
1F1
330
1F
100
AcDbEntity
  8
0-0
  6
Continuous
 62
     3
370
     9
100
AcDbLine
 10
-404.1568859203441
 20
-42.54106181376676
 30
0.0
 11
-404.1568859203441
 21
-65.04106181376665
 31
0.0
  0
LINE
  5
1F2
330
1F
100
AcDbEntity
  8
0-0
  6
Continuous
 62
     3
370
     9
100
AcDbLine
 10
-405.6569156131229
 20
-41.04108160895248
 30
0.0
 11
-428.1569156131229
 21
-41.04108160895248
 31
0.0
  0
LINE
  5
1F3
330
1F
100
AcDbEntity
  8
0-0
  6
Continuous
 62
     3
370
     9
100
AcDbLine
 10
-429.656895817937
 20
-42.54106181376676
 30
0.0
 11
-429.656895817937
 21
-65.04106181376665
 31
0.0
  0
LINE
  5
1F4
330
1F
100
AcDbEntity
  8
0-0
  6
Continuous
 62
     3
370
     9
100
AcDbLine
 10
-405.6569156131229
 20
-66.5410915065454
 30
0.0
 11
-428.1569156131229
 21
-66.5410915065454
 31
0.0
  0
LINE
  5
1F5
330
1F
100
AcDbEntity
  8
0-0
  6
Continuous
 62
     3
370
     9
100
AcDbLine
 10
-445.1569222115181
 20
-66.5410915065454
 30
0.0
 11
-467.6569222115181
 21
-66.5410915065454
 31
0.0
  0
LINE
  5
1F6
330
1F
100
AcDbEntity
  8
0-0
  6
Continuous
 62
     3
370
     9
100
AcDbLine
 10
-469.1569024163323
 20
-42.54106181376676
 30
0.0
 11
-469.1569024163323
 21
-65.04106181376665
 31
0.0
  0
LINE
  5
1F7
330
1F
100
AcDbEntity
  8
0-0
  6
Continuous
 62
     3
370
     9
100
AcDbLine
 10
-445.1569222115181
 20
-41.04108160895248
 30
0.0
 11
-467.6569222115181
 21
-41.04108160895248
 31
0.0
  0
LINE
  5
1F8
330
1F
100
AcDbEntity
  8
0-0
  6
Continuous
 62
     3
370
     9
100
AcDbLine
 10
-443.6568925187394
 20
-42.54106181376676
 30
0.0
 11
-443.6568925187394
 21
-65.04106181376665
 31
0.0
  0
LINE
  5
1F9
330
1F
100
AcDbEntity
  8
0-0
  6
Continuous
 62
     3
370
     9
100
AcDbLine
 10
-443.6568925187394
 20
-82.04106841216208
 30
0.0
 11
-443.6568925187394
 21
-104.5410684121621
 31
0.0
  0
LINE
  5
1FA
330
1F
100
AcDbEntity
  8
0-0
  6
Continuous
 62
     3
370
     9
100
AcDbLine
 10
-445.1569222115181
 20
-80.5410882073478
 30
0.0
 11
-467.6569222115181
 21
-80.5410882073478
 31
0.0
  0
LINE
  5
1FB
330
1F
100
AcDbEntity
  8
0-0
  6
Continuous
 62
     3
370
     9
100
AcDbLine
 10
-469.1569024163323
 20
-82.04106841216208
 30
0.0
 11
-469.1569024163323
 21
-104.5410684121621
 31
0.0
  0
LINE
  5
1FC
330
1F
100
AcDbEntity
  8
0-0
  6
Continuous
 62
     3
370
     9
100
AcDbLine
 10
-445.1569222115181
 20
-106.0410486169762
 30
0.0
 11
-467.6569222115181
 21
-106.0410486169762
 31
0.0
  0
LINE
  5
1FD
330
1F
100
AcDbEntity
  8
0-0
  6
Continuous
 62
     3
370
     9
100
AcDbLine
 10
-405.6569156131229
 20
-106.0410486169762
 30
0.0
 11
-428.1569156131229
 21
-106.0410486169762
 31
0.0
  0
LINE
  5
1FE
330
1F
100
AcDbEntity
  8
0-0
  6
Continuous
 62
     3
370
     9
100
AcDbLine
 10
-429.656895817937
 20
-82.04106841216208
 30
0.0
 11
-429.656895817937
 21
-104.5410684121621
 31
0.0
  0
LINE
  5
1FF
330
1F
100
AcDbEntity
  8
0-0
  6
Continuous
 62
     3
370
     9
100
AcDbLine
 10
-405.6569156131229
 20
-80.5410882073478
 30
0.0
 11
-428.1569156131229
 21
-80.5410882073478
 31
0.0
  0
LINE
  5
200
330
1F
100
AcDbEntity
  8
0-0
  6
Continuous
 62
     3
370
     9
100
AcDbLine
 10
-404.1568859203441
 20
-82.04106841216208
 30
0.0
 11
-404.1568859203441
 21
-104.5410684121621
 31
0.0
  0
LINE
  5
201
330
1F
100
AcDbEntity
  8
0-0
  6
Continuous
 62
     3
370
     9
100
AcDbLine
 10
-364.6569288099134
 20
-82.04106841216208
 30
0.0
 11
-364.6569288099134
 21
-104.5410684121621
 31
0.0
  0
LINE
  5
202
330
1F
100
AcDbEntity
  8
0-0
  6
Continuous
 62
     3
370
     9
100
AcDbLine
 10
-366.1569090147276
 20
-80.5410882073478
 30
0.0
 11
-388.6569090147276
 21
-80.5410882073478
 31
0.0
  0
LINE
  5
203
330
1F
100
AcDbEntity
  8
0-0
  6
Continuous
 62
     3
370
     9
100
AcDbLine
 10
-390.1568892195418
 20
-82.04106841216208
 30
0.0
 11
-390.1568892195418
 21
-104.5410684121621
 31
0.0
  0
LINE
  5
204
330
1F
100
AcDbEntity
  8
0-0
  6
Continuous
 62
     3
370
     9
100
AcDbLine
 10
-366.1569090147276
 20
-106.0410486169762
 30
0.0
 11
-388.6569090147276
 21
-106.0410486169762
 31
0.0
  0
LINE
  5
205
330
1F
100
AcDbEntity
  8
0-0
  6
Continuous
 62
     3
370
     9
100
AcDbLine
 10
-326.6569024163323
 20
-106.0410486169762
 30
0.0
 11
-349.1569024163323
 21
-106.0410486169762
 31
0.0
  0
LINE
  5
206
330
1F
100
AcDbEntity
  8
0-0
  6
Continuous
 62
     3
370
     9
100
AcDbLine
 10
-350.6568826211465
 20
-82.04106841216208
 30
0.0
 11
-350.6568826211465
 21
-104.5410684121621
 31
0.0
  0
LINE
  5
207
330
1F
100
AcDbEntity
  8
0-0
  6
Continuous
 62
     3
370
     9
100
AcDbLine
 10
-326.6569024163323
 20
-80.5410882073478
 30
0.0
 11
-349.1569024163323
 21
-80.5410882073478
 31
0.0
  0
LINE
  5
208
330
1F
100
AcDbEntity
  8
0-0
  6
Continuous
 62
     3
370
     9
100
AcDbLine
 10
-325.1569222115181
 20
-82.04106841216208
 30
0.0
 11
-325.1569222115181
 21
-104.5410684121621
 31
0.0
  0
LINE
  5
209
330
1F
100
AcDbEntity
  8
0-0
  6
Continuous
 62
     3
370
     9
100
AcDbLine
 10
-285.6569156131228
 20
-82.04106841216208
 30
0.0
 11
-285.6569156131228
 21
-104.5410684121621
 31
0.0
  0
LINE
  5
20A
330
1F
100
AcDbEntity
  8
0-0
  6
Continuous
 62
     3
370
     9
100
AcDbLine
 10
-287.1568958179371
 20
-80.5410882073478
 30
0.0
 11
-309.6568958179371
 21
-80.5410882073478
 31
0.0
  0
LINE
  5
20B
330
1F
100
AcDbEntity
  8
0-0
  6
Continuous
 62
     3
370
     9
100
AcDbLine
 10
-311.1568760227512
 20
-82.04106841216208
 30
0.0
 11
-311.1568760227512
 21
-104.5410684121621
 31
0.0
  0
LINE
  5
20C
330
1F
100
AcDbEntity
  8
0-0
  6
Continuous
 62
     3
370
     9
100
AcDbLine
 10
-287.1568958179371
 20
-106.0410486169762
 30
0.0
 11
-309.6568958179371
 21
-106.0410486169762
 31
0.0
  0
LINE
  5
20D
330
1F
100
AcDbEntity
  8
0-0
  6
Continuous
 62
     3
370
     9
100
AcDbLine
 10
-247.6568892195418
 20
-106.0410486169762
 30
0.0
 11
-270.1568892195418
 21
-106.0410486169762
 31
0.0
  0
LINE
  5
20E
330
1F
100
AcDbEntity
  8
0-0
  6
Continuous
 62
     3
370
     9
100
AcDbLine
 10
-271.6568694243559
 20
-82.04106841216208
 30
0.0
 11
-271.6568694243559
 21
-104.5410684121621
 31
0.0
  0
LINE
  5
20F
330
1F
100
AcDbEntity
  8
0-0
  6
Continuous
 62
     3
370
     9
100
AcDbLine
 10
-247.6568892195418
 20
-80.5410882073478
 30
0.0
 11
-270.1568892195418
 21
-80.5410882073478
 31
0.0
  0
LINE
  5
210
330
1F
100
AcDbEntity
  8
0-0
  6
Continuous
 62
     3
370
     9
100
AcDbLine
 10
-246.1569090147276
 20
-82.04106841216208
 30
0.0
 11
-246.1569090147276
 21
-104.5410684121621
 31
0.0
  0
LINE
  5
211
330
1F
100
AcDbEntity
  8
0-0
  6
Continuous
 62
     3
370
     9
100
AcDbLine
 10
-246.1569090147276
 20
329.9590041701859
 30
0.0
 11
-246.1569090147276
 21
352.4590041701859
 31
0.0
  0
LINE
  5
212
330
1F
100
AcDbEntity
  8
0-0
  6
Continuous
 62
     3
370
     9
100
AcDbLine
 10
-247.6568892195418
 20
328.4589249894427
 30
0.0
 11
-270.1568892195418
 21
328.4589249894427
 31
0.0
  0
LINE
  5
213
330
1F
100
AcDbEntity
  8
0-0
  6
Continuous
 62
     3
370
     9
100
AcDbLine
 10
-271.6568694243559
 20
329.9590041701859
 30
0.0
 11
-271.6568694243559
 21
352.4590041701859
 31
0.0
  0
LINE
  5
214
330
1F
100
AcDbEntity
  8
0-0
  6
Continuous
 62
     3
370
     9
100
AcDbLine
 10
-247.6568892195418
 20
353.9588853990712
 30
0.0
 11
-270.1568892195418
 21
353.9588853990712
 31
0.0
  0
LINE
  5
215
330
1F
100
AcDbEntity
  8
0-0
  6
Continuous
 62
     3
370
     9
100
AcDbLine
 10
-287.1568958179371
 20
353.9588853990712
 30
0.0
 11
-309.6568958179371
 21
353.9588853990712
 31
0.0
  0
LINE
  5
216
330
1F
100
AcDbEntity
  8
0-0
  6
Continuous
 62
     3
370
     9
100
AcDbLine
 10
-311.1568760227512
 20
329.9590041701859
 30
0.0
 11
-311.1568760227512
 21
352.4590041701859
 31
0.0
  0
LINE
  5
217
330
1F
100
AcDbEntity
  8
0-0
  6
Continuous
 62
     3
370
     9
100
AcDbLine
 10
-287.1568958179371
 20
328.4589249894427
 30
0.0
 11
-309.6568958179371
 21
328.4589249894427
 31
0.0
  0
LINE
  5
218
330
1F
100
AcDbEntity
  8
0-0
  6
Continuous
 62
     3
370
     9
100
AcDbLine
 10
-285.6569156131228
 20
329.9590041701859
 30
0.0
 11
-285.6569156131228
 21
352.4590041701859
 31
0.0
  0
LINE
  5
219
330
1F
100
AcDbEntity
  8
0-0
  6
Continuous
 62
     3
370
     9
100
AcDbLine
 10
-325.1569222115181
 20
329.9590041701859
 30
0.0
 11
-325.1569222115181
 21
352.4590041701859
 31
0.0
  0
LINE
  5
21A
330
1F
100
AcDbEntity
  8
0-0
  6
Continuous
 62
     3
370
     9
100
AcDbLine
 10
-326.6569024163323
 20
328.4589249894427
 30
0.0
 11
-349.1569024163323
 21
328.4589249894427
 31
0.0
  0
LINE
  5
21B
330
1F
100
AcDbEntity
  8
0-0
  6
Continuous
 62
     3
370
     9
100
AcDbLine
 10
-350.6568826211465
 20
329.9590041701859
 30
0.0
 11
-350.6568826211465
 21
352.4590041701859
 31
0.0
  0
LINE
  5
21C
330
1F
100
AcDbEntity
  8
0-0
  6
Continuous
 62
     3
370
     9
100
AcDbLine
 10
-326.6569024163323
 20
353.9588853990712
 30
0.0
 11
-349.1569024163323
 21
353.9588853990712
 31
0.0
  0
LINE
  5
21D
330
1F
100
AcDbEntity
  8
0-0
  6
Continuous
 62
     3
370
     9
100
AcDbLine
 10
-366.1569090147276
 20
353.9588853990712
 30
0.0
 11
-388.6569090147276
 21
353.9588853990712
 31
0.0
  0
LINE
  5
21E
330
1F
100
AcDbEntity
  8
0-0
  6
Continuous
 62
     3
370
     9
100
AcDbLine
 10
-390.1568892195418
 20
329.9590041701859
 30
0.0
 11
-390.1568892195418
 21
352.4590041701859
 31
0.0
  0
LINE
  5
21F
330
1F
100
AcDbEntity
  8
0-0
  6
Continuous
 62
     3
370
     9
100
AcDbLine
 10
-366.1569090147276
 20
328.4589249894427
 30
0.0
 11
-388.6569090147276
 21
328.4589249894427
 31
0.0
  0
LINE
  5
220
330
1F
100
AcDbEntity
  8
0-0
  6
Continuous
 62
     3
370
     9
100
AcDbLine
 10
-364.6569288099134
 20
329.9590041701859
 30
0.0
 11
-364.6569288099134
 21
352.4590041701859
 31
0.0
  0
LINE
  5
221
330
1F
100
AcDbEntity
  8
0-0
  6
Continuous
 62
     3
370
     9
100
AcDbLine
 10
-404.1568859203441
 20
329.9590041701859
 30
0.0
 11
-404.1568859203441
 21
352.4590041701859
 31
0.0
  0
LINE
  5
222
330
1F
100
AcDbEntity
  8
0-0
  6
Continuous
 62
     3
370
     9
100
AcDbLine
 10
-405.6569156131229
 20
328.4589249894427
 30
0.0
 11
-428.1569156131229
 21
328.4589249894427
 31
0.0
  0
LINE
  5
223
330
1F
100
AcDbEntity
  8
0-0
  6
Continuous
 62
     3
370
     9
100
AcDbLine
 10
-429.656895817937
 20
329.9590041701859
 30
0.0
 11
-429.656895817937
 21
352.4590041701859
 31
0.0
  0
LINE
  5
224
330
1F
100
AcDbEntity
  8
0-0
  6
Continuous
 62
     3
370
     9
100
AcDbLine
 10
-405.6569156131229
 20
353.9588853990712
 30
0.0
 11
-428.1569156131229
 21
353.9588853990712
 31
0.0
  0
LINE
  5
225
330
1F
100
AcDbEntity
  8
0-0
  6
Continuous
 62
     3
370
     9
100
AcDbLine
 10
-445.1569222115181
 20
353.9588853990712
 30
0.0
 11
-467.6569222115181
 21
353.9588853990712
 31
0.0
  0
LINE
  5
226
330
1F
100
AcDbEntity
  8
0-0
  6
Continuous
 62
     3
370
     9
100
AcDbLine
 10
-469.1569024163323
 20
329.9590041701859
 30
0.0
 11
-469.1569024163323
 21
352.4590041701859
 31
0.0
  0
LINE
  5
227
330
1F
100
AcDbEntity
  8
0-0
  6
Continuous
 62
     3
370
     9
100
AcDbLine
 10
-445.1569222115181
 20
328.4589249894427
 30
0.0
 11
-467.6569222115181
 21
328.4589249894427
 31
0.0
  0
LINE
  5
228
330
1F
100
AcDbEntity
  8
0-0
  6
Continuous
 62
     3
370
     9
100
AcDbLine
 10
-443.6568925187394
 20
329.9590041701859
 30
0.0
 11
-443.6568925187394
 21
352.4590041701859
 31
0.0
  0
LINE
  5
229
330
1F
100
AcDbEntity
  8
0-0
  6
Continuous
 62
     3
370
     9
100
AcDbLine
 10
-443.6568925187394
 20
290.4588985958617
 30
0.0
 11
-443.6568925187394
 21
312.9588985958617
 31
0.0
  0
LINE
  5
22A
330
1F
100
AcDbEntity
  8
0-0
  6
Continuous
 62
     3
370
     9
100
AcDbLine
 10
-445.1569222115181
 20
288.9590173669766
 30
0.0
 11
-467.6569222115181
 21
288.9590173669766
 31
0.0
  0
LINE
  5
22B
330
1F
100
AcDbEntity
  8
0-0
  6
Continuous
 62
     3
370
     9
100
AcDbLine
 10
-469.1569024163323
 20
290.4588985958617
 30
0.0
 11
-469.1569024163323
 21
312.9588985958617
 31
0.0
  0
LINE
  5
22C
330
1F
100
AcDbEntity
  8
0-0
  6
Continuous
 62
     3
370
     9
100
AcDbLine
 10
-445.1569222115181
 20
314.4589777766049
 30
0.0
 11
-467.6569222115181
 21
314.4589777766049
 31
0.0
  0
LINE
  5
22D
330
1F
100
AcDbEntity
  8
0-0
  6
Continuous
 62
     3
370
     9
100
AcDbLine
 10
-405.6569156131229
 20
314.4589777766049
 30
0.0
 11
-428.1569156131229
 21
314.4589777766049
 31
0.0
  0
LINE
  5
22E
330
1F
100
AcDbEntity
  8
0-0
  6
Continuous
 62
     3
370
     9
100
AcDbLine
 10
-429.656895817937
 20
290.4588985958617
 30
0.0
 11
-429.656895817937
 21
312.9588985958617
 31
0.0
  0
LINE
  5
22F
330
1F
100
AcDbEntity
  8
0-0
  6
Continuous
 62
     3
370
     9
100
AcDbLine
 10
-405.6569156131229
 20
288.9590173669766
 30
0.0
 11
-428.1569156131229
 21
288.9590173669766
 31
0.0
  0
LINE
  5
230
330
1F
100
AcDbEntity
  8
0-0
  6
Continuous
 62
     3
370
     9
100
AcDbLine
 10
-404.1568859203441
 20
290.4588985958617
 30
0.0
 11
-404.1568859203441
 21
312.9588985958617
 31
0.0
  0
LINE
  5
231
330
1F
100
AcDbEntity
  8
0-0
  6
Continuous
 62
     3
370
     9
100
AcDbLine
 10
-364.6569288099134
 20
290.4588985958617
 30
0.0
 11
-364.6569288099134
 21
312.9588985958617
 31
0.0
  0
LINE
  5
232
330
1F
100
AcDbEntity
  8
0-0
  6
Continuous
 62
     3
370
     9
100
AcDbLine
 10
-366.1569090147276
 20
288.9590173669766
 30
0.0
 11
-388.6569090147276
 21
288.9590173669766
 31
0.0
  0
LINE
  5
233
330
1F
100
AcDbEntity
  8
0-0
  6
Continuous
 62
     3
370
     9
100
AcDbLine
 10
-390.1568892195418
 20
290.4588985958617
 30
0.0
 11
-390.1568892195418
 21
312.9588985958617
 31
0.0
  0
LINE
  5
234
330
1F
100
AcDbEntity
  8
0-0
  6
Continuous
 62
     3
370
     9
100
AcDbLine
 10
-366.1569090147276
 20
314.4589777766049
 30
0.0
 11
-388.6569090147276
 21
314.4589777766049
 31
0.0
  0
LINE
  5
235
330
1F
100
AcDbEntity
  8
0-0
  6
Continuous
 62
     3
370
     9
100
AcDbLine
 10
-326.6569024163323
 20
314.4589777766049
 30
0.0
 11
-349.1569024163323
 21
314.4589777766049
 31
0.0
  0
LINE
  5
236
330
1F
100
AcDbEntity
  8
0-0
  6
Continuous
 62
     3
370
     9
100
AcDbLine
 10
-350.6568826211465
 20
290.4588985958617
 30
0.0
 11
-350.6568826211465
 21
312.9588985958617
 31
0.0
  0
LINE
  5
237
330
1F
100
AcDbEntity
  8
0-0
  6
Continuous
 62
     3
370
     9
100
AcDbLine
 10
-326.6569024163323
 20
288.9590173669766
 30
0.0
 11
-349.1569024163323
 21
288.9590173669766
 31
0.0
  0
LINE
  5
238
330
1F
100
AcDbEntity
  8
0-0
  6
Continuous
 62
     3
370
     9
100
AcDbLine
 10
-325.1569222115181
 20
290.4588985958617
 30
0.0
 11
-325.1569222115181
 21
312.9588985958617
 31
0.0
  0
LINE
  5
239
330
1F
100
AcDbEntity
  8
0-0
  6
Continuous
 62
     3
370
     9
100
AcDbLine
 10
-285.6569156131228
 20
290.4588985958617
 30
0.0
 11
-285.6569156131228
 21
312.9588985958617
 31
0.0
  0
LINE
  5
23A
330
1F
100
AcDbEntity
  8
0-0
  6
Continuous
 62
     3
370
     9
100
AcDbLine
 10
-287.1568958179371
 20
288.9590173669766
 30
0.0
 11
-309.6568958179371
 21
288.9590173669766
 31
0.0
  0
LINE
  5
23B
330
1F
100
AcDbEntity
  8
0-0
  6
Continuous
 62
     3
370
     9
100
AcDbLine
 10
-311.1568760227512
 20
290.4588985958617
 30
0.0
 11
-311.1568760227512
 21
312.9588985958617
 31
0.0
  0
LINE
  5
23C
330
1F
100
AcDbEntity
  8
0-0
  6
Continuous
 62
     3
370
     9
100
AcDbLine
 10
-287.1568958179371
 20
314.4589777766049
 30
0.0
 11
-309.6568958179371
 21
314.4589777766049
 31
0.0
  0
LINE
  5
23D
330
1F
100
AcDbEntity
  8
0-0
  6
Continuous
 62
     3
370
     9
100
AcDbLine
 10
-247.6568892195418
 20
314.4589777766049
 30
0.0
 11
-270.1568892195418
 21
314.4589777766049
 31
0.0
  0
LINE
  5
23E
330
1F
100
AcDbEntity
  8
0-0
  6
Continuous
 62
     3
370
     9
100
AcDbLine
 10
-271.6568694243559
 20
290.4588985958617
 30
0.0
 11
-271.6568694243559
 21
312.9588985958617
 31
0.0
  0
LINE
  5
23F
330
1F
100
AcDbEntity
  8
0-0
  6
Continuous
 62
     3
370
     9
100
AcDbLine
 10
-247.6568892195418
 20
288.9590173669766
 30
0.0
 11
-270.1568892195418
 21
288.9590173669766
 31
0.0
  0
LINE
  5
240
330
1F
100
AcDbEntity
  8
0-0
  6
Continuous
 62
     3
370
     9
100
AcDbLine
 10
-246.1569090147276
 20
290.4588985958617
 30
0.0
 11
-246.1569090147276
 21
312.9588985958617
 31
0.0
  0
LINE
  5
241
330
1F
100
AcDbEntity
  8
0-0
  6
Continuous
 62
     3
370
     9
100
AcDbLine
 10
-246.1569090147276
 20
250.9589909733954
 30
0.0
 11
-246.1569090147276
 21
273.4589909733954
 31
0.0
  0
LINE
  5
242
330
1F
100
AcDbEntity
  8
0-0
  6
Continuous
 62
     3
370
     9
100
AcDbLine
 10
-247.6568892195418
 20
249.4589612806168
 30
0.0
 11
-270.1568892195418
 21
249.4589612806168
 31
0.0
  0
LINE
  5
243
330
1F
100
AcDbEntity
  8
0-0
  6
Continuous
 62
     3
370
     9
100
AcDbLine
 10
-271.6568694243559
 20
250.9589909733954
 30
0.0
 11
-271.6568694243559
 21
273.4589909733954
 31
0.0
  0
LINE
  5
244
330
1F
100
AcDbEntity
  8
0-0
  6
Continuous
 62
     3
370
     9
100
AcDbLine
 10
-247.6568892195418
 20
274.9588722022806
 30
0.0
 11
-270.1568892195418
 21
274.9588722022806
 31
0.0
  0
LINE
  5
245
330
1F
100
AcDbEntity
  8
0-0
  6
Continuous
 62
     3
370
     9
100
AcDbLine
 10
-287.1568958179371
 20
274.9588722022806
 30
0.0
 11
-309.6568958179371
 21
274.9588722022806
 31
0.0
  0
LINE
  5
246
330
1F
100
AcDbEntity
  8
0-0
  6
Continuous
 62
     3
370
     9
100
AcDbLine
 10
-311.1568760227512
 20
250.9589909733954
 30
0.0
 11
-311.1568760227512
 21
273.4589909733954
 31
0.0
  0
LINE
  5
247
330
1F
100
AcDbEntity
  8
0-0
  6
Continuous
 62
     3
370
     9
100
AcDbLine
 10
-287.1568958179371
 20
249.4589612806168
 30
0.0
 11
-309.6568958179371
 21
249.4589612806168
 31
0.0
  0
LINE
  5
248
330
1F
100
AcDbEntity
  8
0-0
  6
Continuous
 62
     3
370
     9
100
AcDbLine
 10
-285.6569156131228
 20
250.9589909733954
 30
0.0
 11
-285.6569156131228
 21
273.4589909733954
 31
0.0
  0
LINE
  5
249
330
1F
100
AcDbEntity
  8
0-0
  6
Continuous
 62
     3
370
     9
100
AcDbLine
 10
-325.1569222115181
 20
250.9589909733954
 30
0.0
 11
-325.1569222115181
 21
273.4589909733954
 31
0.0
  0
LINE
  5
24A
330
1F
100
AcDbEntity
  8
0-0
  6
Continuous
 62
     3
370
     9
100
AcDbLine
 10
-326.6569024163323
 20
249.4589612806168
 30
0.0
 11
-349.1569024163323
 21
249.4589612806168
 31
0.0
  0
LINE
  5
24B
330
1F
100
AcDbEntity
  8
0-0
  6
Continuous
 62
     3
370
     9
100
AcDbLine
 10
-350.6568826211465
 20
250.9589909733954
 30
0.0
 11
-350.6568826211465
 21
273.4589909733954
 31
0.0
  0
LINE
  5
24C
330
1F
100
AcDbEntity
  8
0-0
  6
Continuous
 62
     3
370
     9
100
AcDbLine
 10
-326.6569024163323
 20
274.9588722022806
 30
0.0
 11
-349.1569024163323
 21
274.9588722022806
 31
0.0
  0
LINE
  5
24D
330
1F
100
AcDbEntity
  8
0-0
  6
Continuous
 62
     3
370
     9
100
AcDbLine
 10
-366.1569090147276
 20
274.9588722022806
 30
0.0
 11
-388.6569090147276
 21
274.9588722022806
 31
0.0
  0
LINE
  5
24E
330
1F
100
AcDbEntity
  8
0-0
  6
Continuous
 62
     3
370
     9
100
AcDbLine
 10
-390.1568892195418
 20
250.9589909733954
 30
0.0
 11
-390.1568892195418
 21
273.4589909733954
 31
0.0
  0
LINE
  5
24F
330
1F
100
AcDbEntity
  8
0-0
  6
Continuous
 62
     3
370
     9
100
AcDbLine
 10
-366.1569090147276
 20
249.4589612806168
 30
0.0
 11
-388.6569090147276
 21
249.4589612806168
 31
0.0
  0
LINE
  5
250
330
1F
100
AcDbEntity
  8
0-0
  6
Continuous
 62
     3
370
     9
100
AcDbLine
 10
-364.6569288099134
 20
250.9589909733954
 30
0.0
 11
-364.6569288099134
 21
273.4589909733954
 31
0.0
  0
LINE
  5
251
330
1F
100
AcDbEntity
  8
0-0
  6
Continuous
 62
     3
370
     9
100
AcDbLine
 10
-404.1568859203441
 20
250.9589909733954
 30
0.0
 11
-404.1568859203441
 21
273.4589909733954
 31
0.0
  0
LINE
  5
252
330
1F
100
AcDbEntity
  8
0-0
  6
Continuous
 62
     3
370
     9
100
AcDbLine
 10
-405.6569156131229
 20
249.4589612806168
 30
0.0
 11
-428.1569156131229
 21
249.4589612806168
 31
0.0
  0
LINE
  5
253
330
1F
100
AcDbEntity
  8
0-0
  6
Continuous
 62
     3
370
     9
100
AcDbLine
 10
-429.656895817937
 20
250.9589909733954
 30
0.0
 11
-429.656895817937
 21
273.4589909733954
 31
0.0
  0
LINE
  5
254
330
1F
100
AcDbEntity
  8
0-0
  6
Continuous
 62
     3
370
     9
100
AcDbLine
 10
-405.6569156131229
 20
274.9588722022806
 30
0.0
 11
-428.1569156131229
 21
274.9588722022806
 31
0.0
  0
LINE
  5
255
330
1F
100
AcDbEntity
  8
0-0
  6
Continuous
 62
     3
370
     9
100
AcDbLine
 10
-445.1569222115181
 20
274.9588722022806
 30
0.0
 11
-467.6569222115181
 21
274.9588722022806
 31
0.0
  0
LINE
  5
256
330
1F
100
AcDbEntity
  8
0-0
  6
Continuous
 62
     3
370
     9
100
AcDbLine
 10
-469.1569024163323
 20
250.9589909733954
 30
0.0
 11
-469.1569024163323
 21
273.4589909733954
 31
0.0
  0
LINE
  5
257
330
1F
100
AcDbEntity
  8
0-0
  6
Continuous
 62
     3
370
     9
100
AcDbLine
 10
-445.1569222115181
 20
249.4589612806168
 30
0.0
 11
-467.6569222115181
 21
249.4589612806168
 31
0.0
  0
LINE
  5
258
330
1F
100
AcDbEntity
  8
0-0
  6
Continuous
 62
     3
370
     9
100
AcDbLine
 10
-443.6568925187394
 20
250.9589909733954
 30
0.0
 11
-443.6568925187394
 21
273.4589909733954
 31
0.0
  0
LINE
  5
259
330
1F
100
AcDbEntity
  8
0-0
  6
Continuous
 62
     3
370
     9
100
AcDbLine
 10
-443.6568925187394
 20
211.4589348870356
 30
0.0
 11
-443.6568925187394
 21
233.9589348870356
 31
0.0
  0
LINE
  5
25A
330
1F
100
AcDbEntity
  8
0-0
  6
Continuous
 62
     3
370
     9
100
AcDbLine
 10
-445.1569222115181
 20
209.9589546822215
 30
0.0
 11
-467.6569222115181
 21
209.9589546822215
 31
0.0
  0
LINE
  5
25B
330
1F
100
AcDbEntity
  8
0-0
  6
Continuous
 62
     3
370
     9
100
AcDbLine
 10
-469.1569024163323
 20
211.4589348870356
 30
0.0
 11
-469.1569024163323
 21
233.9589348870356
 31
0.0
  0
LINE
  5
25C
330
1F
100
AcDbEntity
  8
0-0
  6
Continuous
 62
     3
370
     9
100
AcDbLine
 10
-445.1569222115181
 20
235.4589150918498
 30
0.0
 11
-467.6569222115181
 21
235.4589150918498
 31
0.0
  0
LINE
  5
25D
330
1F
100
AcDbEntity
  8
0-0
  6
Continuous
 62
     3
370
     9
100
AcDbLine
 10
-405.6569156131229
 20
235.4589150918498
 30
0.0
 11
-428.1569156131229
 21
235.4589150918498
 31
0.0
  0
LINE
  5
25E
330
1F
100
AcDbEntity
  8
0-0
  6
Continuous
 62
     3
370
     9
100
AcDbLine
 10
-429.656895817937
 20
211.4589348870356
 30
0.0
 11
-429.656895817937
 21
233.9589348870356
 31
0.0
  0
LINE
  5
25F
330
1F
100
AcDbEntity
  8
0-0
  6
Continuous
 62
     3
370
     9
100
AcDbLine
 10
-405.6569156131229
 20
209.9589546822215
 30
0.0
 11
-428.1569156131229
 21
209.9589546822215
 31
0.0
  0
LINE
  5
260
330
1F
100
AcDbEntity
  8
0-0
  6
Continuous
 62
     3
370
     9
100
AcDbLine
 10
-404.1568859203441
 20
211.4589348870356
 30
0.0
 11
-404.1568859203441
 21
233.9589348870356
 31
0.0
  0
LINE
  5
261
330
1F
100
AcDbEntity
  8
0-0
  6
Continuous
 62
     3
370
     9
100
AcDbLine
 10
-364.6569288099134
 20
211.4589348870356
 30
0.0
 11
-364.6569288099134
 21
233.9589348870356
 31
0.0
  0
LINE
  5
262
330
1F
100
AcDbEntity
  8
0-0
  6
Continuous
 62
     3
370
     9
100
AcDbLine
 10
-366.1569090147276
 20
209.9589546822215
 30
0.0
 11
-388.6569090147276
 21
209.9589546822215
 31
0.0
  0
LINE
  5
263
330
1F
100
AcDbEntity
  8
0-0
  6
Continuous
 62
     3
370
     9
100
AcDbLine
 10
-390.1568892195418
 20
211.4589348870356
 30
0.0
 11
-390.1568892195418
 21
233.9589348870356
 31
0.0
  0
LINE
  5
264
330
1F
100
AcDbEntity
  8
0-0
  6
Continuous
 62
     3
370
     9
100
AcDbLine
 10
-366.1569090147276
 20
235.4589150918498
 30
0.0
 11
-388.6569090147276
 21
235.4589150918498
 31
0.0
  0
LINE
  5
265
330
1F
100
AcDbEntity
  8
0-0
  6
Continuous
 62
     3
370
     9
100
AcDbLine
 10
-326.6569024163323
 20
235.4589150918498
 30
0.0
 11
-349.1569024163323
 21
235.4589150918498
 31
0.0
  0
LINE
  5
266
330
1F
100
AcDbEntity
  8
0-0
  6
Continuous
 62
     3
370
     9
100
AcDbLine
 10
-350.6568826211465
 20
211.4589348870356
 30
0.0
 11
-350.6568826211465
 21
233.9589348870356
 31
0.0
  0
LINE
  5
267
330
1F
100
AcDbEntity
  8
0-0
  6
Continuous
 62
     3
370
     9
100
AcDbLine
 10
-326.6569024163323
 20
209.9589546822215
 30
0.0
 11
-349.1569024163323
 21
209.9589546822215
 31
0.0
  0
LINE
  5
268
330
1F
100
AcDbEntity
  8
0-0
  6
Continuous
 62
     3
370
     9
100
AcDbLine
 10
-325.1569222115181
 20
211.4589348870356
 30
0.0
 11
-325.1569222115181
 21
233.9589348870356
 31
0.0
  0
LINE
  5
269
330
1F
100
AcDbEntity
  8
0-0
  6
Continuous
 62
     3
370
     9
100
AcDbLine
 10
-285.6569156131228
 20
211.4589348870356
 30
0.0
 11
-285.6569156131228
 21
233.9589348870356
 31
0.0
  0
LINE
  5
26A
330
1F
100
AcDbEntity
  8
0-0
  6
Continuous
 62
     3
370
     9
100
AcDbLine
 10
-287.1568958179371
 20
209.9589546822215
 30
0.0
 11
-309.6568958179371
 21
209.9589546822215
 31
0.0
  0
LINE
  5
26B
330
1F
100
AcDbEntity
  8
0-0
  6
Continuous
 62
     3
370
     9
100
AcDbLine
 10
-311.1568760227512
 20
211.4589348870356
 30
0.0
 11
-311.1568760227512
 21
233.9589348870356
 31
0.0
  0
LINE
  5
26C
330
1F
100
AcDbEntity
  8
0-0
  6
Continuous
 62
     3
370
     9
100
AcDbLine
 10
-287.1568958179371
 20
235.4589150918498
 30
0.0
 11
-309.6568958179371
 21
235.4589150918498
 31
0.0
  0
LINE
  5
26D
330
1F
100
AcDbEntity
  8
0-0
  6
Continuous
 62
     3
370
     9
100
AcDbLine
 10
-247.6568892195418
 20
235.4589150918498
 30
0.0
 11
-270.1568892195418
 21
235.4589150918498
 31
0.0
  0
LINE
  5
26E
330
1F
100
AcDbEntity
  8
0-0
  6
Continuous
 62
     3
370
     9
100
AcDbLine
 10
-271.6568694243559
 20
211.4589348870356
 30
0.0
 11
-271.6568694243559
 21
233.9589348870356
 31
0.0
  0
LINE
  5
26F
330
1F
100
AcDbEntity
  8
0-0
  6
Continuous
 62
     3
370
     9
100
AcDbLine
 10
-247.6568892195418
 20
209.9589546822215
 30
0.0
 11
-270.1568892195418
 21
209.9589546822215
 31
0.0
  0
LINE
  5
270
330
1F
100
AcDbEntity
  8
0-0
  6
Continuous
 62
     3
370
     9
100
AcDbLine
 10
-246.1569090147276
 20
211.4589348870356
 30
0.0
 11
-246.1569090147276
 21
233.9589348870356
 31
0.0
  0
LINE
  5
271
330
1F
100
AcDbEntity
  8
0-0
  6
Continuous
 62
     3
370
     9
100
AcDbLine
 10
-246.1569090147276
 20
171.9589282886404
 30
0.0
 11
-246.1569090147276
 21
194.4589282886404
 31
0.0
  0
LINE
  5
272
330
1F
100
AcDbEntity
  8
0-0
  6
Continuous
 62
     3
370
     9
100
AcDbLine
 10
-247.6568892195418
 20
170.4589480838262
 30
0.0
 11
-270.1568892195418
 21
170.4589480838262
 31
0.0
  0
LINE
  5
273
330
1F
100
AcDbEntity
  8
0-0
  6
Continuous
 62
     3
370
     9
100
AcDbLine
 10
-271.6568694243559
 20
171.9589282886404
 30
0.0
 11
-271.6568694243559
 21
194.4589282886404
 31
0.0
  0
LINE
  5
274
330
1F
100
AcDbEntity
  8
0-0
  6
Continuous
 62
     3
370
     9
100
AcDbLine
 10
-247.6568892195418
 20
195.9589579814191
 30
0.0
 11
-270.1568892195418
 21
195.9589579814191
 31
0.0
  0
LINE
  5
275
330
1F
100
AcDbEntity
  8
0-0
  6
Continuous
 62
     3
370
     9
100
AcDbLine
 10
-287.1568958179371
 20
195.9589579814191
 30
0.0
 11
-309.6568958179371
 21
195.9589579814191
 31
0.0
  0
LINE
  5
276
330
1F
100
AcDbEntity
  8
0-0
  6
Continuous
 62
     3
370
     9
100
AcDbLine
 10
-311.1568760227512
 20
171.9589282886404
 30
0.0
 11
-311.1568760227512
 21
194.4589282886404
 31
0.0
  0
LINE
  5
277
330
1F
100
AcDbEntity
  8
0-0
  6
Continuous
 62
     3
370
     9
100
AcDbLine
 10
-287.1568958179371
 20
170.4589480838262
 30
0.0
 11
-309.6568958179371
 21
170.4589480838262
 31
0.0
  0
LINE
  5
278
330
1F
100
AcDbEntity
  8
0-0
  6
Continuous
 62
     3
370
     9
100
AcDbLine
 10
-285.6569156131228
 20
171.9589282886404
 30
0.0
 11
-285.6569156131228
 21
194.4589282886404
 31
0.0
  0
LINE
  5
279
330
1F
100
AcDbEntity
  8
0-0
  6
Continuous
 62
     3
370
     9
100
AcDbLine
 10
-325.1569222115181
 20
171.9589282886404
 30
0.0
 11
-325.1569222115181
 21
194.4589282886404
 31
0.0
  0
LINE
  5
27A
330
1F
100
AcDbEntity
  8
0-0
  6
Continuous
 62
     3
370
     9
100
AcDbLine
 10
-326.6569024163323
 20
170.4589480838262
 30
0.0
 11
-349.1569024163323
 21
170.4589480838262
 31
0.0
  0
LINE
  5
27B
330
1F
100
AcDbEntity
  8
0-0
  6
Continuous
 62
     3
370
     9
100
AcDbLine
 10
-350.6568826211465
 20
171.9589282886404
 30
0.0
 11
-350.6568826211465
 21
194.4589282886404
 31
0.0
  0
LINE
  5
27C
330
1F
100
AcDbEntity
  8
0-0
  6
Continuous
 62
     3
370
     9
100
AcDbLine
 10
-326.6569024163323
 20
195.9589579814191
 30
0.0
 11
-349.1569024163323
 21
195.9589579814191
 31
0.0
  0
LINE
  5
27D
330
1F
100
AcDbEntity
  8
0-0
  6
Continuous
 62
     3
370
     9
100
AcDbLine
 10
-366.1569090147276
 20
195.9589579814191
 30
0.0
 11
-388.6569090147276
 21
195.9589579814191
 31
0.0
  0
LINE
  5
27E
330
1F
100
AcDbEntity
  8
0-0
  6
Continuous
 62
     3
370
     9
100
AcDbLine
 10
-390.1568892195418
 20
171.9589282886404
 30
0.0
 11
-390.1568892195418
 21
194.4589282886404
 31
0.0
  0
LINE
  5
27F
330
1F
100
AcDbEntity
  8
0-0
  6
Continuous
 62
     3
370
     9
100
AcDbLine
 10
-366.1569090147276
 20
170.4589480838262
 30
0.0
 11
-388.6569090147276
 21
170.4589480838262
 31
0.0
  0
LINE
  5
280
330
1F
100
AcDbEntity
  8
0-0
  6
Continuous
 62
     3
370
     9
100
AcDbLine
 10
-364.6569288099134
 20
171.9589282886404
 30
0.0
 11
-364.6569288099134
 21
194.4589282886404
 31
0.0
  0
LINE
  5
281
330
1F
100
AcDbEntity
  8
0-0
  6
Continuous
 62
     3
370
     9
100
AcDbLine
 10
-404.1568859203441
 20
171.9589282886404
 30
0.0
 11
-404.1568859203441
 21
194.4589282886404
 31
0.0
  0
LINE
  5
282
330
1F
100
AcDbEntity
  8
0-0
  6
Continuous
 62
     3
370
     9
100
AcDbLine
 10
-405.6569156131229
 20
170.4589480838262
 30
0.0
 11
-428.1569156131229
 21
170.4589480838262
 31
0.0
  0
LINE
  5
283
330
1F
100
AcDbEntity
  8
0-0
  6
Continuous
 62
     3
370
     9
100
AcDbLine
 10
-429.656895817937
 20
171.9589282886404
 30
0.0
 11
-429.656895817937
 21
194.4589282886404
 31
0.0
  0
LINE
  5
284
330
1F
100
AcDbEntity
  8
0-0
  6
Continuous
 62
     3
370
     9
100
AcDbLine
 10
-405.6569156131229
 20
195.9589579814191
 30
0.0
 11
-428.1569156131229
 21
195.9589579814191
 31
0.0
  0
LINE
  5
285
330
1F
100
AcDbEntity
  8
0-0
  6
Continuous
 62
     3
370
     9
100
AcDbLine
 10
-445.1569222115181
 20
195.9589579814191
 30
0.0
 11
-467.6569222115181
 21
195.9589579814191
 31
0.0
  0
LINE
  5
286
330
1F
100
AcDbEntity
  8
0-0
  6
Continuous
 62
     3
370
     9
100
AcDbLine
 10
-469.1569024163323
 20
171.9589282886404
 30
0.0
 11
-469.1569024163323
 21
194.4589282886404
 31
0.0
  0
LINE
  5
287
330
1F
100
AcDbEntity
  8
0-0
  6
Continuous
 62
     3
370
     9
100
AcDbLine
 10
-445.1569222115181
 20
170.4589480838262
 30
0.0
 11
-467.6569222115181
 21
170.4589480838262
 31
0.0
  0
LINE
  5
288
330
1F
100
AcDbEntity
  8
0-0
  6
Continuous
 62
     3
370
     9
100
AcDbLine
 10
-443.6568925187394
 20
171.9589282886404
 30
0.0
 11
-443.6568925187394
 21
194.4589282886404
 31
0.0
  0
LINE
  5
289
330
1F
100
AcDbEntity
  8
0-0
  6
Continuous
 62
     3
370
     9
100
AcDbLine
 10
-443.6568925187394
 20
132.4589216902451
 30
0.0
 11
-443.6568925187394
 21
154.9589216902451
 31
0.0
  0
LINE
  5
28A
330
1F
100
AcDbEntity
  8
0-0
  6
Continuous
 62
     3
370
     9
100
AcDbLine
 10
-445.1569222115181
 20
130.958941485431
 30
0.0
 11
-467.6569222115181
 21
130.958941485431
 31
0.0
  0
LINE
  5
28B
330
1F
100
AcDbEntity
  8
0-0
  6
Continuous
 62
     3
370
     9
100
AcDbLine
 10
-469.1569024163323
 20
132.4589216902451
 30
0.0
 11
-469.1569024163323
 21
154.9589216902451
 31
0.0
  0
LINE
  5
28C
330
1F
100
AcDbEntity
  8
0-0
  6
Continuous
 62
     3
370
     9
100
AcDbLine
 10
-445.1569222115181
 20
156.4589513830239
 30
0.0
 11
-467.6569222115181
 21
156.4589513830239
 31
0.0
  0
LINE
  5
28D
330
1F
100
AcDbEntity
  8
0-0
  6
Continuous
 62
     3
370
     9
100
AcDbLine
 10
-405.6569156131229
 20
156.4589513830239
 30
0.0
 11
-428.1569156131229
 21
156.4589513830239
 31
0.0
  0
LINE
  5
28E
330
1F
100
AcDbEntity
  8
0-0
  6
Continuous
 62
     3
370
     9
100
AcDbLine
 10
-429.656895817937
 20
132.4589216902451
 30
0.0
 11
-429.656895817937
 21
154.9589216902451
 31
0.0
  0
LINE
  5
28F
330
1F
100
AcDbEntity
  8
0-0
  6
Continuous
 62
     3
370
     9
100
AcDbLine
 10
-405.6569156131229
 20
130.958941485431
 30
0.0
 11
-428.1569156131229
 21
130.958941485431
 31
0.0
  0
LINE
  5
290
330
1F
100
AcDbEntity
  8
0-0
  6
Continuous
 62
     3
370
     9
100
AcDbLine
 10
-404.1568859203441
 20
132.4589216902451
 30
0.0
 11
-404.1568859203441
 21
154.9589216902451
 31
0.0
  0
LINE
  5
291
330
1F
100
AcDbEntity
  8
0-0
  6
Continuous
 62
     3
370
     9
100
AcDbLine
 10
-364.6569288099134
 20
132.4589216902451
 30
0.0
 11
-364.6569288099134
 21
154.9589216902451
 31
0.0
  0
LINE
  5
292
330
1F
100
AcDbEntity
  8
0-0
  6
Continuous
 62
     3
370
     9
100
AcDbLine
 10
-366.1569090147276
 20
130.958941485431
 30
0.0
 11
-388.6569090147276
 21
130.958941485431
 31
0.0
  0
LINE
  5
293
330
1F
100
AcDbEntity
  8
0-0
  6
Continuous
 62
     3
370
     9
100
AcDbLine
 10
-390.1568892195418
 20
132.4589216902451
 30
0.0
 11
-390.1568892195418
 21
154.9589216902451
 31
0.0
  0
LINE
  5
294
330
1F
100
AcDbEntity
  8
0-0
  6
Continuous
 62
     3
370
     9
100
AcDbLine
 10
-366.1569090147276
 20
156.4589513830239
 30
0.0
 11
-388.6569090147276
 21
156.4589513830239
 31
0.0
  0
LINE
  5
295
330
1F
100
AcDbEntity
  8
0-0
  6
Continuous
 62
     3
370
     9
100
AcDbLine
 10
-326.6569024163323
 20
156.4589513830239
 30
0.0
 11
-349.1569024163323
 21
156.4589513830239
 31
0.0
  0
LINE
  5
296
330
1F
100
AcDbEntity
  8
0-0
  6
Continuous
 62
     3
370
     9
100
AcDbLine
 10
-350.6568826211465
 20
132.4589216902451
 30
0.0
 11
-350.6568826211465
 21
154.9589216902451
 31
0.0
  0
LINE
  5
297
330
1F
100
AcDbEntity
  8
0-0
  6
Continuous
 62
     3
370
     9
100
AcDbLine
 10
-326.6569024163323
 20
130.958941485431
 30
0.0
 11
-349.1569024163323
 21
130.958941485431
 31
0.0
  0
LINE
  5
298
330
1F
100
AcDbEntity
  8
0-0
  6
Continuous
 62
     3
370
     9
100
AcDbLine
 10
-325.1569222115181
 20
132.4589216902451
 30
0.0
 11
-325.1569222115181
 21
154.9589216902451
 31
0.0
  0
LINE
  5
299
330
1F
100
AcDbEntity
  8
0-0
  6
Continuous
 62
     3
370
     9
100
AcDbLine
 10
-285.6569156131228
 20
132.4589216902451
 30
0.0
 11
-285.6569156131228
 21
154.9589216902451
 31
0.0
  0
LINE
  5
29A
330
1F
100
AcDbEntity
  8
0-0
  6
Continuous
 62
     3
370
     9
100
AcDbLine
 10
-287.1568958179371
 20
130.958941485431
 30
0.0
 11
-309.6568958179371
 21
130.958941485431
 31
0.0
  0
LINE
  5
29B
330
1F
100
AcDbEntity
  8
0-0
  6
Continuous
 62
     3
370
     9
100
AcDbLine
 10
-311.1568760227512
 20
132.4589216902451
 30
0.0
 11
-311.1568760227512
 21
154.9589216902451
 31
0.0
  0
LINE
  5
29C
330
1F
100
AcDbEntity
  8
0-0
  6
Continuous
 62
     3
370
     9
100
AcDbLine
 10
-287.1568958179371
 20
156.4589513830239
 30
0.0
 11
-309.6568958179371
 21
156.4589513830239
 31
0.0
  0
LINE
  5
29D
330
1F
100
AcDbEntity
  8
0-0
  6
Continuous
 62
     3
370
     9
100
AcDbLine
 10
-247.6568892195418
 20
156.4589513830239
 30
0.0
 11
-270.1568892195418
 21
156.4589513830239
 31
0.0
  0
LINE
  5
29E
330
1F
100
AcDbEntity
  8
0-0
  6
Continuous
 62
     3
370
     9
100
AcDbLine
 10
-271.6568694243559
 20
132.4589216902451
 30
0.0
 11
-271.6568694243559
 21
154.9589216902451
 31
0.0
  0
LINE
  5
29F
330
1F
100
AcDbEntity
  8
0-0
  6
Continuous
 62
     3
370
     9
100
AcDbLine
 10
-247.6568892195418
 20
130.958941485431
 30
0.0
 11
-270.1568892195418
 21
130.958941485431
 31
0.0
  0
LINE
  5
2A0
330
1F
100
AcDbEntity
  8
0-0
  6
Continuous
 62
     3
370
     9
100
AcDbLine
 10
-246.1569090147276
 20
132.4589216902451
 30
0.0
 11
-246.1569090147276
 21
154.9589216902451
 31
0.0
  0
LINE
  5
2A1
330
1F
100
AcDbEntity
  8
0-F
  6
Continuous
 62
     7
370
     9
100
AcDbLine
 10
-232.1569123139252
 20
-110.0410618137666
 30
0.0
 11
-232.1569123139252
 21
-187.2410987647802
 31
0.0
  0
LINE
  5
2A2
330
1F
100
AcDbEntity
  8
0-F
  6
Continuous
 62
     7
370
     9
100
AcDbLine
 10
-206.6569024163323
 20
-110.0410618137666
 30
0.0
 11
-206.6569024163323
 21
-187.2410987647802
 31
0.0
  0
LINE
  5
2A3
330
1F
100
AcDbEntity
  8
0-F
  6
Continuous
 62
     7
370
     9
100
AcDbLine
 10
-192.6569057155299
 20
-110.0410618137666
 30
0.0
 11
-192.6569057155299
 21
-187.2410987647802
 31
0.0
  0
LINE
  5
2A4
330
1F
100
AcDbEntity
  8
0-F
  6
Continuous
 62
     7
370
     9
100
AcDbLine
 10
-489.156869424356
 20
-226.0411475929052
 30
0.0
 11
10.84309758366771
 21
-226.0411475929052
 31
0.0
  0
LINE
  5
2A5
330
1F
100
AcDbEntity
  8
0-F
  6
Continuous
 62
     7
370
     9
100
AcDbLine
 10
-489.156869424356
 20
-130.0411277977194
 30
0.0
 11
-489.156869424356
 21
-227.2411317567567
 31
0.0
  0
LINE
  5
2A6
330
1F
100
AcDbEntity
  8
0-F
  6
Continuous
 62
     7
370
     9
100
AcDbLine
 10
10.84309758366771
 20
-130.0411277977194
 30
0.0
 11
10.84309758366771
 21
-227.2411317567567
 31
0.0
  0
LINE
  5
2A7
330
1F
100
AcDbEntity
  8
0-F
  6
Continuous
 62
     7
370
     9
100
AcDbLine
 10
-489.156869424356
 20
-226.0411475929052
 30
0.0
 11
-479.2424506110113
 21
-224.7358530405404
 31
0.0
  0
LINE
  5
2A8
330
1F
100
AcDbEntity
  8
0-F
  6
Continuous
 62
     7
370
     9
100
AcDbLine
 10
-489.156869424356
 20
-226.0411475929052
 30
0.0
 11
-479.2424506110113
 21
-227.3463926573056
 31
0.0
  0
LINE
  5
2A9
330
1F
100
AcDbEntity
  8
0-F
  6
Continuous
 62
     7
370
     9
100
AcDbLine
 10
70.84309758366771
 20
130.9588425095019
 30
0.0
 11
70.84309758366771
 21
156.4588524070948
 31
0.0
  0
LINE
  5
2AA
330
1F
100
AcDbEntity
  8
0-F
  6
Continuous
 62
     7
370
     9
100
AcDbLine
 10
-5.156955203494476
 20
130.9588425095019
 30
0.0
 11
72.04308174751907
 21
130.9588425095019
 31
0.0
  0
LINE
  5
2AB
330
1F
100
AcDbEntity
  8
0-F
  6
Continuous
 62
     7
370
     9
100
AcDbLine
 10
-5.156955203494476
 20
156.4588524070948
 30
0.0
 11
72.04308174751907
 21
156.4588524070948
 31
0.0
  0
LINE
  5
2AC
330
1F
100
AcDbEntity
  8
0-F
  6
Continuous
 62
     7
370
     9
100
AcDbLine
 10
70.84309758366771
 20
156.4588524070948
 30
0.0
 11
70.84309758366771
 21
170.4588491078971
 31
0.0
  0
LINE
  5
2AD
330
1F
100
AcDbEntity
  8
0-F
  6
Continuous
 62
     7
370
     9
100
AcDbLine
 10
-5.156955203494476
 20
170.4588491078971
 30
0.0
 11
72.04308174751907
 21
170.4588491078971
 31
0.0
  0
LINE
  5
2AE
330
1F
100
AcDbEntity
  8
0-F
  6
Continuous
 62
     7
370
     9
100
AcDbLine
 10
70.84309758366771
 20
130.9588425095019
 30
0.0
 11
72.14839213603261
 21
121.0443742081927
 31
0.0
  0
LINE
  5
2AF
330
1F
100
AcDbEntity
  8
0-F
  6
Continuous
 62
     7
370
     9
100
AcDbLine
 10
70.84309758366771
 20
130.9588425095019
 30
0.0
 11
69.53780303130281
 21
121.0443742081927
 31
0.0
  0
LINE
  5
2B0
330
1F
100
AcDbEntity
  8
0-F
  6
Continuous
 62
     7
370
     9
100
AcDbLine
 10
70.84309758366771
 20
170.4588491078971
 30
0.0
 11
69.53780303130281
 21
180.3733174092063
 31
0.0
  0
LINE
  5
2B1
330
1F
100
AcDbEntity
  8
0-F
  6
Continuous
 62
     7
370
     9
100
AcDbLine
 10
70.84309758366771
 20
170.4588491078971
 30
0.0
 11
72.14839213603261
 21
180.3733174092063
 31
0.0
  0
LINE
  5
2B2
330
1F
100
AcDbEntity
  8
0-F
  6
Continuous
 62
     7
370
     9
100
AcDbLine
 10
70.84309758366771
 20
170.4588491078971
 30
0.0
 11
70.84309758366771
 21
192.1075076541387
 31
0.0
  0
LINE
  5
2B3
330
1F
100
AcDbEntity
  8
0-F
  6
Continuous
 62
     7
370
     9
100
AcDbLine
 10
70.84309758366771
 20
130.9588425095019
 30
0.0
 11
70.84309758366771
 21
88.12943412162178
 31
0.0
  0
LINE
  5
2B4
330
1F
100
AcDbEntity
  8
0-F
  6
Continuous
 62
     7
370
     9
100
AcDbLine
 10
110.8431305756441
 20
-126.0411146009289
 30
0.0
 11
110.8431305756441
 21
373.9588524070948
 31
0.0
  0
LINE
  5
2B5
330
1F
100
AcDbEntity
  8
0-F
  6
Continuous
 62
     7
370
     9
100
AcDbLine
 10
14.84311078045823
 20
-126.0411146009289
 30
0.0
 11
112.0431147394954
 21
-126.0411146009289
 31
0.0
  0
LINE
  5
2B6
330
1F
100
AcDbEntity
  8
0-F
  6
Continuous
 62
     7
370
     9
100
AcDbLine
 10
14.84311078045823
 20
373.9588524070948
 30
0.0
 11
112.0431147394954
 21
373.9588524070948
 31
0.0
  0
LINE
  5
2B7
330
1F
100
AcDbEntity
  8
0-F
  6
Continuous
 62
     7
370
     9
100
AcDbLine
 10
110.8431305756441
 20
-126.0411146009289
 30
0.0
 11
109.5378360232792
 21
-116.1266957875844
 31
0.0
  0
LINE
  5
2B8
330
1F
100
AcDbEntity
  8
0-F
  6
Continuous
 62
     7
370
     9
100
AcDbLine
 10
110.8431305756441
 20
-126.0411146009289
 30
0.0
 11
112.1483261520799
 21
-116.1266957875844
 31
0.0
  0
LINE
  5
2B9
330
1F
100
AcDbEntity
  8
0-F
  6
Continuous
 62
     7
370
     9
100
AcDbLine
 10
110.8431305756441
 20
373.9588524070948
 30
0.0
 11
109.5378360232792
 21
364.0444335937502
 31
0.0
  0
LINE
  5
2BA
330
1F
100
AcDbEntity
  8
0-F
  6
Continuous
 62
     7
370
     9
100
AcDbLine
 10
110.8431305756441
 20
373.9588524070948
 30
0.0
 11
112.1483261520799
 21
364.0444335937502
 31
0.0
  0
LINE
  5
2BB
330
1F
100
AcDbEntity
  8
0-F
  6
Continuous
 62
     7
370
     9
100
AcDbLine
 10
270.8431635676206
 20
-130.0411277977194
 30
0.0
 11
270.8431635676206
 21
-187.2410987647802
 31
0.0
  0
LINE
  5
2BC
330
1F
100
AcDbEntity
  8
0-F
  6
Continuous
 62
     7
370
     9
100
AcDbLine
 10
270.8431635676206
 20
-130.0411277977194
 30
0.0
 11
270.8431635676206
 21
-227.2411317567567
 31
0.0
  0
LINE
  5
2BD
330
1F
100
AcDbEntity
  8
0-F
  6
Continuous
 62
     7
370
     9
100
AcDbLine
 10
290.843130575644
 20
-126.5145659575589
 30
0.0
 11
290.843130575644
 21
-227.2411317567567
 31
0.0
  0
LINE
  5
2BE
330
1F
100
AcDbEntity
  8
0-F
  6
Continuous
 62
     7
370
     9
100
AcDbLine
 10
285.8430645916915
 20
-112.6859460779137
 30
0.0
 11
285.8430645916915
 21
-187.2410987647802
 31
0.0
  0
LINE
  5
2BF
330
1F
100
AcDbEntity
  8
0-0
  6
JWW_CENTER1
 62
     3
370
     9
100
AcDbLine
 10
-239.1568859203442
 20
-146.0411310969171
 30
0.0
 11
-239.1568859203442
 21
393.9589183910475
 31
0.0
  0
LINE
  5
2C0
330
1F
100
AcDbEntity
  8
0-0
  6
JWW_CENTER1
 62
     3
370
     9
100
AcDbLine
 10
250.8431965595968
 20
123.9589183910475
 30
0.0
 11
310.8430975836677
 21
123.9589183910475
 31
0.0
  0
LINE
  5
2C1
330
1F
100
AcDbEntity
  8
0-0
  6
JWW_CENTER1
 62
     3
370
     9
100
AcDbLine
 10
-509.1568364323796
 20
123.9589183910475
 30
0.0
 11
30.84306459169136
 21
123.9589183910475
 31
0.0
  0
ARC
  5
2C2
330
1F
100
AcDbEntity
  8
0-0
  6
Continuous
 62
     3
370
     9
100
AcDbCircle
 10
-208.1568826211465
 20
132.4589216902451
 30
0.0
 40
1.500000019331236
100
AcDbArc
 50
270.0
 51
0.0
  0
ARC
  5
2C3
330
1F
100
AcDbEntity
  8
0-0
  6
Continuous
 62
     3
370
     9
100
AcDbCircle
 10
-208.1568826211465
 20
154.9589216902451
 30
0.0
 40
1.500000019331236
100
AcDbArc
 50
0.0
 51
90.0
  0
ARC
  5
2C4
330
1F
100
AcDbEntity
  8
0-0
  6
Continuous
 62
     3
370
     9
100
AcDbCircle
 10
-230.6568826211465
 20
154.9589216902451
 30
0.0
 40
1.500000019331236
100
AcDbArc
 50
89.99998474121094
 51
180.0
  0
ARC
  5
2C5
330
1F
100
AcDbEntity
  8
0-0
  6
Continuous
 62
     3
370
     9
100
AcDbCircle
 10
-230.6568826211465
 20
132.4589216902451
 30
0.0
 40
1.500000019331236
100
AcDbArc
 50
180.0
 51
270.0
  0
ARC
  5
2C6
330
1F
100
AcDbEntity
  8
0-0
  6
Continuous
 62
     3
370
     9
100
AcDbCircle
 10
-191.1568760227512
 20
132.4589216902451
 30
0.0
 40
1.500000019331236
100
AcDbArc
 50
180.0
 51
270.0
  0
ARC
  5
2C7
330
1F
100
AcDbEntity
  8
0-0
  6
Continuous
 62
     3
370
     9
100
AcDbCircle
 10
-191.1568760227512
 20
154.9589216902451
 30
0.0
 40
1.500000019331236
100
AcDbArc
 50
89.99998474121094
 51
180.0
  0
ARC
  5
2C8
330
1F
100
AcDbEntity
  8
0-0
  6
Continuous
 62
     3
370
     9
100
AcDbCircle
 10
-168.6568760227512
 20
154.9589216902451
 30
0.0
 40
1.500000019331236
100
AcDbArc
 50
0.0
 51
90.0
  0
ARC
  5
2C9
330
1F
100
AcDbEntity
  8
0-0
  6
Continuous
 62
     3
370
     9
100
AcDbCircle
 10
-168.6568760227512
 20
132.4589216902451
 30
0.0
 40
1.500000019331236
100
AcDbArc
 50
270.0
 51
0.0
  0
ARC
  5
2CA
330
1F
100
AcDbEntity
  8
0-0
  6
Continuous
 62
     3
370
     9
100
AcDbCircle
 10
-129.1568694243559
 20
132.4589216902451
 30
0.0
 40
1.500000019331236
100
AcDbArc
 50
270.0
 51
0.0
  0
ARC
  5
2CB
330
1F
100
AcDbEntity
  8
0-0
  6
Continuous
 62
     3
370
     9
100
AcDbCircle
 10
-129.1568694243559
 20
154.9589216902451
 30
0.0
 40
1.500000019331236
100
AcDbArc
 50
0.0
 51
90.0
  0
ARC
  5
2CC
330
1F
100
AcDbEntity
  8
0-0
  6
Continuous
 62
     3
370
     9
100
AcDbCircle
 10
-151.6568694243559
 20
154.9589216902451
 30
0.0
 40
1.500000019331236
100
AcDbArc
 50
89.99998474121094
 51
180.0
  0
ARC
  5
2CD
330
1F
100
AcDbEntity
  8
0-0
  6
Continuous
 62
     3
370
     9
100
AcDbCircle
 10
-151.6568694243559
 20
132.4589216902451
 30
0.0
 40
1.500000019331236
100
AcDbArc
 50
180.0
 51
270.0
  0
ARC
  5
2CE
330
1F
100
AcDbEntity
  8
0-0
  6
Continuous
 62
     3
370
     9
100
AcDbCircle
 10
-112.1569123139252
 20
132.4589216902451
 30
0.0
 40
1.500000019331236
100
AcDbArc
 50
180.0
 51
270.0
  0
ARC
  5
2CF
330
1F
100
AcDbEntity
  8
0-0
  6
Continuous
 62
     3
370
     9
100
AcDbCircle
 10
-112.1569123139252
 20
154.9589216902451
 30
0.0
 40
1.500000019331236
100
AcDbArc
 50
89.99998474121094
 51
180.0
  0
ARC
  5
2D0
330
1F
100
AcDbEntity
  8
0-0
  6
Continuous
 62
     3
370
     9
100
AcDbCircle
 10
-89.6569123139252
 20
154.9589216902451
 30
0.0
 40
1.500000019331236
100
AcDbArc
 50
0.0
 51
90.0
  0
ARC
  5
2D1
330
1F
100
AcDbEntity
  8
0-0
  6
Continuous
 62
     3
370
     9
100
AcDbCircle
 10
-89.6569123139252
 20
132.4589216902451
 30
0.0
 40
1.500000019331236
100
AcDbArc
 50
270.0
 51
0.0
  0
ARC
  5
2D2
330
1F
100
AcDbEntity
  8
0-0
  6
Continuous
 62
     3
370
     9
100
AcDbCircle
 10
-50.15690571552989
 20
132.4589216902451
 30
0.0
 40
1.500000019331236
100
AcDbArc
 50
270.0
 51
0.0
  0
ARC
  5
2D3
330
1F
100
AcDbEntity
  8
0-0
  6
Continuous
 62
     3
370
     9
100
AcDbCircle
 10
-50.15690571552989
 20
154.9589216902451
 30
0.0
 40
1.500000019331236
100
AcDbArc
 50
0.0
 51
90.0
  0
ARC
  5
2D4
330
1F
100
AcDbEntity
  8
0-0
  6
Continuous
 62
     3
370
     9
100
AcDbCircle
 10
-72.65690571552989
 20
154.9589216902451
 30
0.0
 40
1.500000019331236
100
AcDbArc
 50
89.99998474121094
 51
180.0
  0
ARC
  5
2D5
330
1F
100
AcDbEntity
  8
0-0
  6
Continuous
 62
     3
370
     9
100
AcDbCircle
 10
-72.65690571552989
 20
132.4589216902451
 30
0.0
 40
1.500000019331236
100
AcDbArc
 50
180.0
 51
270.0
  0
ARC
  5
2D6
330
1F
100
AcDbEntity
  8
0-0
  6
Continuous
 62
     3
370
     9
100
AcDbCircle
 10
-33.15694860509916
 20
132.4589216902451
 30
0.0
 40
1.500000019331236
100
AcDbArc
 50
180.0
 51
270.0
  0
ARC
  5
2D7
330
1F
100
AcDbEntity
  8
0-0
  6
Continuous
 62
     3
370
     9
100
AcDbCircle
 10
-33.15694860509916
 20
154.9589216902451
 30
0.0
 40
1.500000019331236
100
AcDbArc
 50
89.99998474121094
 51
180.0
  0
ARC
  5
2D8
330
1F
100
AcDbEntity
  8
0-0
  6
Continuous
 62
     3
370
     9
100
AcDbCircle
 10
-10.6568496291701
 20
154.9589216902451
 30
0.0
 40
1.500000019331236
100
AcDbArc
 50
0.0
 51
90.0
  0
ARC
  5
2D9
330
1F
100
AcDbEntity
  8
0-0
  6
Continuous
 62
     3
370
     9
100
AcDbCircle
 10
-10.6568496291701
 20
132.4589216902451
 30
0.0
 40
1.500000019331236
100
AcDbArc
 50
270.0
 51
0.0
  0
ARC
  5
2DA
330
1F
100
AcDbEntity
  8
0-0
  6
Continuous
 62
     3
370
     9
100
AcDbCircle
 10
-10.6568496291701
 20
171.9589282886404
 30
0.0
 40
1.500000019331236
100
AcDbArc
 50
270.0
 51
0.0
  0
ARC
  5
2DB
330
1F
100
AcDbEntity
  8
0-0
  6
Continuous
 62
     3
370
     9
100
AcDbCircle
 10
-10.6568496291701
 20
194.4589282886404
 30
0.0
 40
1.500000019331236
100
AcDbArc
 50
0.0
 51
90.0
  0
ARC
  5
2DC
330
1F
100
AcDbEntity
  8
0-0
  6
Continuous
 62
     3
370
     9
100
AcDbCircle
 10
-33.15694860509916
 20
194.4589282886404
 30
0.0
 40
1.500000019331236
100
AcDbArc
 50
89.99998474121094
 51
180.0
  0
ARC
  5
2DD
330
1F
100
AcDbEntity
  8
0-0
  6
Continuous
 62
     3
370
     9
100
AcDbCircle
 10
-33.15694860509916
 20
171.9589282886404
 30
0.0
 40
1.500000019331236
100
AcDbArc
 50
180.0
 51
270.0
  0
ARC
  5
2DE
330
1F
100
AcDbEntity
  8
0-0
  6
Continuous
 62
     3
370
     9
100
AcDbCircle
 10
-72.65690571552989
 20
171.9589282886404
 30
0.0
 40
1.500000019331236
100
AcDbArc
 50
180.0
 51
270.0
  0
ARC
  5
2DF
330
1F
100
AcDbEntity
  8
0-0
  6
Continuous
 62
     3
370
     9
100
AcDbCircle
 10
-72.65690571552989
 20
194.4589282886404
 30
0.0
 40
1.500000019331236
100
AcDbArc
 50
89.99998474121094
 51
180.0
  0
ARC
  5
2E0
330
1F
100
AcDbEntity
  8
0-0
  6
Continuous
 62
     3
370
     9
100
AcDbCircle
 10
-50.15690571552989
 20
194.4589282886404
 30
0.0
 40
1.500000019331236
100
AcDbArc
 50
0.0
 51
90.0
  0
ARC
  5
2E1
330
1F
100
AcDbEntity
  8
0-0
  6
Continuous
 62
     3
370
     9
100
AcDbCircle
 10
-50.15690571552989
 20
171.9589282886404
 30
0.0
 40
1.500000019331236
100
AcDbArc
 50
270.0
 51
0.0
  0
ARC
  5
2E2
330
1F
100
AcDbEntity
  8
0-0
  6
Continuous
 62
     3
370
     9
100
AcDbCircle
 10
-89.6569123139252
 20
171.9589282886404
 30
0.0
 40
1.500000019331236
100
AcDbArc
 50
270.0
 51
0.0
  0
ARC
  5
2E3
330
1F
100
AcDbEntity
  8
0-0
  6
Continuous
 62
     3
370
     9
100
AcDbCircle
 10
-89.6569123139252
 20
194.4589282886404
 30
0.0
 40
1.500000019331236
100
AcDbArc
 50
0.0
 51
90.0
  0
ARC
  5
2E4
330
1F
100
AcDbEntity
  8
0-0
  6
Continuous
 62
     3
370
     9
100
AcDbCircle
 10
-112.1569123139252
 20
194.4589282886404
 30
0.0
 40
1.500000019331236
100
AcDbArc
 50
89.99998474121094
 51
180.0
  0
ARC
  5
2E5
330
1F
100
AcDbEntity
  8
0-0
  6
Continuous
 62
     3
370
     9
100
AcDbCircle
 10
-112.1569123139252
 20
171.9589282886404
 30
0.0
 40
1.500000019331236
100
AcDbArc
 50
180.0
 51
270.0
  0
ARC
  5
2E6
330
1F
100
AcDbEntity
  8
0-0
  6
Continuous
 62
     3
370
     9
100
AcDbCircle
 10
-151.6568694243559
 20
171.9589282886404
 30
0.0
 40
1.500000019331236
100
AcDbArc
 50
180.0
 51
270.0
  0
ARC
  5
2E7
330
1F
100
AcDbEntity
  8
0-0
  6
Continuous
 62
     3
370
     9
100
AcDbCircle
 10
-151.6568694243559
 20
194.4589282886404
 30
0.0
 40
1.500000019331236
100
AcDbArc
 50
89.99998474121094
 51
180.0
  0
ARC
  5
2E8
330
1F
100
AcDbEntity
  8
0-0
  6
Continuous
 62
     3
370
     9
100
AcDbCircle
 10
-129.1568694243559
 20
194.4589282886404
 30
0.0
 40
1.500000019331236
100
AcDbArc
 50
0.0
 51
90.0
  0
ARC
  5
2E9
330
1F
100
AcDbEntity
  8
0-0
  6
Continuous
 62
     3
370
     9
100
AcDbCircle
 10
-129.1568694243559
 20
171.9589282886404
 30
0.0
 40
1.500000019331236
100
AcDbArc
 50
270.0
 51
0.0
  0
ARC
  5
2EA
330
1F
100
AcDbEntity
  8
0-0
  6
Continuous
 62
     3
370
     9
100
AcDbCircle
 10
-168.6568760227512
 20
171.9589282886404
 30
0.0
 40
1.500000019331236
100
AcDbArc
 50
270.0
 51
0.0
  0
ARC
  5
2EB
330
1F
100
AcDbEntity
  8
0-0
  6
Continuous
 62
     3
370
     9
100
AcDbCircle
 10
-168.6568760227512
 20
194.4589282886404
 30
0.0
 40
1.500000019331236
100
AcDbArc
 50
0.0
 51
90.0
  0
ARC
  5
2EC
330
1F
100
AcDbEntity
  8
0-0
  6
Continuous
 62
     3
370
     9
100
AcDbCircle
 10
-191.1568760227512
 20
194.4589282886404
 30
0.0
 40
1.500000019331236
100
AcDbArc
 50
89.99998474121094
 51
180.0
  0
ARC
  5
2ED
330
1F
100
AcDbEntity
  8
0-0
  6
Continuous
 62
     3
370
     9
100
AcDbCircle
 10
-191.1568760227512
 20
171.9589282886404
 30
0.0
 40
1.500000019331236
100
AcDbArc
 50
180.0
 51
270.0
  0
ARC
  5
2EE
330
1F
100
AcDbEntity
  8
0-0
  6
Continuous
 62
     3
370
     9
100
AcDbCircle
 10
-230.6568826211465
 20
171.9589282886404
 30
0.0
 40
1.500000019331236
100
AcDbArc
 50
180.0
 51
270.0
  0
ARC
  5
2EF
330
1F
100
AcDbEntity
  8
0-0
  6
Continuous
 62
     3
370
     9
100
AcDbCircle
 10
-230.6568826211465
 20
194.4589282886404
 30
0.0
 40
1.500000019331236
100
AcDbArc
 50
89.99998474121094
 51
180.0
  0
ARC
  5
2F0
330
1F
100
AcDbEntity
  8
0-0
  6
Continuous
 62
     3
370
     9
100
AcDbCircle
 10
-208.1568826211465
 20
194.4589282886404
 30
0.0
 40
1.500000019331236
100
AcDbArc
 50
0.0
 51
90.0
  0
ARC
  5
2F1
330
1F
100
AcDbEntity
  8
0-0
  6
Continuous
 62
     3
370
     9
100
AcDbCircle
 10
-208.1568826211465
 20
171.9589282886404
 30
0.0
 40
1.500000019331236
100
AcDbArc
 50
270.0
 51
0.0
  0
ARC
  5
2F2
330
1F
100
AcDbEntity
  8
0-0
  6
Continuous
 62
     3
370
     9
100
AcDbCircle
 10
-208.1568826211465
 20
211.4589348870356
 30
0.0
 40
1.500000019331236
100
AcDbArc
 50
270.0
 51
0.0
  0
ARC
  5
2F3
330
1F
100
AcDbEntity
  8
0-0
  6
Continuous
 62
     3
370
     9
100
AcDbCircle
 10
-208.1568826211465
 20
233.9589348870356
 30
0.0
 40
1.500000019331236
100
AcDbArc
 50
0.0
 51
90.0
  0
ARC
  5
2F4
330
1F
100
AcDbEntity
  8
0-0
  6
Continuous
 62
     3
370
     9
100
AcDbCircle
 10
-230.6568826211465
 20
233.9589348870356
 30
0.0
 40
1.500000019331236
100
AcDbArc
 50
89.99998474121094
 51
180.0
  0
ARC
  5
2F5
330
1F
100
AcDbEntity
  8
0-0
  6
Continuous
 62
     3
370
     9
100
AcDbCircle
 10
-230.6568826211465
 20
211.4589348870356
 30
0.0
 40
1.500000019331236
100
AcDbArc
 50
180.0
 51
270.0
  0
ARC
  5
2F6
330
1F
100
AcDbEntity
  8
0-0
  6
Continuous
 62
     3
370
     9
100
AcDbCircle
 10
-191.1568760227512
 20
211.4589348870356
 30
0.0
 40
1.500000019331236
100
AcDbArc
 50
180.0
 51
270.0
  0
ARC
  5
2F7
330
1F
100
AcDbEntity
  8
0-0
  6
Continuous
 62
     3
370
     9
100
AcDbCircle
 10
-191.1568760227512
 20
233.9589348870356
 30
0.0
 40
1.500000019331236
100
AcDbArc
 50
89.99998474121094
 51
180.0
  0
ARC
  5
2F8
330
1F
100
AcDbEntity
  8
0-0
  6
Continuous
 62
     3
370
     9
100
AcDbCircle
 10
-168.6568760227512
 20
233.9589348870356
 30
0.0
 40
1.500000019331236
100
AcDbArc
 50
0.0
 51
90.0
  0
ARC
  5
2F9
330
1F
100
AcDbEntity
  8
0-0
  6
Continuous
 62
     3
370
     9
100
AcDbCircle
 10
-168.6568760227512
 20
211.4589348870356
 30
0.0
 40
1.500000019331236
100
AcDbArc
 50
270.0
 51
0.0
  0
ARC
  5
2FA
330
1F
100
AcDbEntity
  8
0-0
  6
Continuous
 62
     3
370
     9
100
AcDbCircle
 10
-129.1568694243559
 20
211.4589348870356
 30
0.0
 40
1.500000019331236
100
AcDbArc
 50
270.0
 51
0.0
  0
ARC
  5
2FB
330
1F
100
AcDbEntity
  8
0-0
  6
Continuous
 62
     3
370
     9
100
AcDbCircle
 10
-129.1568694243559
 20
233.9589348870356
 30
0.0
 40
1.500000019331236
100
AcDbArc
 50
0.0
 51
90.0
  0
ARC
  5
2FC
330
1F
100
AcDbEntity
  8
0-0
  6
Continuous
 62
     3
370
     9
100
AcDbCircle
 10
-151.6568694243559
 20
233.9589348870356
 30
0.0
 40
1.500000019331236
100
AcDbArc
 50
89.99998474121094
 51
180.0
  0
ARC
  5
2FD
330
1F
100
AcDbEntity
  8
0-0
  6
Continuous
 62
     3
370
     9
100
AcDbCircle
 10
-151.6568694243559
 20
211.4589348870356
 30
0.0
 40
1.500000019331236
100
AcDbArc
 50
180.0
 51
270.0
  0
ARC
  5
2FE
330
1F
100
AcDbEntity
  8
0-0
  6
Continuous
 62
     3
370
     9
100
AcDbCircle
 10
-112.1569123139252
 20
211.4589348870356
 30
0.0
 40
1.500000019331236
100
AcDbArc
 50
180.0
 51
270.0
  0
ARC
  5
2FF
330
1F
100
AcDbEntity
  8
0-0
  6
Continuous
 62
     3
370
     9
100
AcDbCircle
 10
-112.1569123139252
 20
233.9589348870356
 30
0.0
 40
1.500000019331236
100
AcDbArc
 50
89.99998474121094
 51
180.0
  0
ARC
  5
300
330
1F
100
AcDbEntity
  8
0-0
  6
Continuous
 62
     3
370
     9
100
AcDbCircle
 10
-89.6569123139252
 20
233.9589348870356
 30
0.0
 40
1.500000019331236
100
AcDbArc
 50
0.0
 51
90.0
  0
ARC
  5
301
330
1F
100
AcDbEntity
  8
0-0
  6
Continuous
 62
     3
370
     9
100
AcDbCircle
 10
-89.6569123139252
 20
211.4589348870356
 30
0.0
 40
1.500000019331236
100
AcDbArc
 50
270.0
 51
0.0
  0
ARC
  5
302
330
1F
100
AcDbEntity
  8
0-0
  6
Continuous
 62
     3
370
     9
100
AcDbCircle
 10
-50.15690571552989
 20
211.4589348870356
 30
0.0
 40
1.500000019331236
100
AcDbArc
 50
270.0
 51
0.0
  0
ARC
  5
303
330
1F
100
AcDbEntity
  8
0-0
  6
Continuous
 62
     3
370
     9
100
AcDbCircle
 10
-50.15690571552989
 20
233.9589348870356
 30
0.0
 40
1.500000019331236
100
AcDbArc
 50
0.0
 51
90.0
  0
ARC
  5
304
330
1F
100
AcDbEntity
  8
0-0
  6
Continuous
 62
     3
370
     9
100
AcDbCircle
 10
-72.65690571552989
 20
233.9589348870356
 30
0.0
 40
1.500000019331236
100
AcDbArc
 50
89.99998474121094
 51
180.0
  0
ARC
  5
305
330
1F
100
AcDbEntity
  8
0-0
  6
Continuous
 62
     3
370
     9
100
AcDbCircle
 10
-72.65690571552989
 20
211.4589348870356
 30
0.0
 40
1.500000019331236
100
AcDbArc
 50
180.0
 51
270.0
  0
ARC
  5
306
330
1F
100
AcDbEntity
  8
0-0
  6
Continuous
 62
     3
370
     9
100
AcDbCircle
 10
-33.15694860509916
 20
211.4589348870356
 30
0.0
 40
1.500000019331236
100
AcDbArc
 50
180.0
 51
270.0
  0
ARC
  5
307
330
1F
100
AcDbEntity
  8
0-0
  6
Continuous
 62
     3
370
     9
100
AcDbCircle
 10
-33.15694860509916
 20
233.9589348870356
 30
0.0
 40
1.500000019331236
100
AcDbArc
 50
89.99998474121094
 51
180.0
  0
ARC
  5
308
330
1F
100
AcDbEntity
  8
0-0
  6
Continuous
 62
     3
370
     9
100
AcDbCircle
 10
-10.6568496291701
 20
233.9589348870356
 30
0.0
 40
1.500000019331236
100
AcDbArc
 50
0.0
 51
90.0
  0
ARC
  5
309
330
1F
100
AcDbEntity
  8
0-0
  6
Continuous
 62
     3
370
     9
100
AcDbCircle
 10
-10.6568496291701
 20
211.4589348870356
 30
0.0
 40
1.500000019331236
100
AcDbArc
 50
270.0
 51
0.0
  0
ARC
  5
30A
330
1F
100
AcDbEntity
  8
0-0
  6
Continuous
 62
     3
370
     9
100
AcDbCircle
 10
-10.6568496291701
 20
250.9589909733954
 30
0.0
 40
1.500000019331236
100
AcDbArc
 50
270.0
 51
0.0
  0
ARC
  5
30B
330
1F
100
AcDbEntity
  8
0-0
  6
Continuous
 62
     3
370
     9
100
AcDbCircle
 10
-10.6568496291701
 20
273.4589909733954
 30
0.0
 40
1.500000019331236
100
AcDbArc
 50
0.0
 51
90.0
  0
ARC
  5
30C
330
1F
100
AcDbEntity
  8
0-0
  6
Continuous
 62
     3
370
     9
100
AcDbCircle
 10
-33.15694860509916
 20
273.4589909733954
 30
0.0
 40
1.500000019331236
100
AcDbArc
 50
89.99998474121094
 51
180.0
  0
ARC
  5
30D
330
1F
100
AcDbEntity
  8
0-0
  6
Continuous
 62
     3
370
     9
100
AcDbCircle
 10
-33.15694860509916
 20
250.9589909733954
 30
0.0
 40
1.500000019331236
100
AcDbArc
 50
180.0
 51
270.0
  0
ARC
  5
30E
330
1F
100
AcDbEntity
  8
0-0
  6
Continuous
 62
     3
370
     9
100
AcDbCircle
 10
-72.65690571552989
 20
250.9589909733954
 30
0.0
 40
1.500000019331236
100
AcDbArc
 50
180.0
 51
270.0
  0
ARC
  5
30F
330
1F
100
AcDbEntity
  8
0-0
  6
Continuous
 62
     3
370
     9
100
AcDbCircle
 10
-72.65690571552989
 20
273.4589909733954
 30
0.0
 40
1.500000019331236
100
AcDbArc
 50
89.99998474121094
 51
180.0
  0
ARC
  5
310
330
1F
100
AcDbEntity
  8
0-0
  6
Continuous
 62
     3
370
     9
100
AcDbCircle
 10
-50.15690571552989
 20
273.4589909733954
 30
0.0
 40
1.500000019331236
100
AcDbArc
 50
0.0
 51
90.0
  0
ARC
  5
311
330
1F
100
AcDbEntity
  8
0-0
  6
Continuous
 62
     3
370
     9
100
AcDbCircle
 10
-50.15690571552989
 20
250.9589909733954
 30
0.0
 40
1.500000019331236
100
AcDbArc
 50
270.0
 51
0.0
  0
ARC
  5
312
330
1F
100
AcDbEntity
  8
0-0
  6
Continuous
 62
     3
370
     9
100
AcDbCircle
 10
-89.6569123139252
 20
250.9589909733954
 30
0.0
 40
1.500000019331236
100
AcDbArc
 50
270.0
 51
0.0
  0
ARC
  5
313
330
1F
100
AcDbEntity
  8
0-0
  6
Continuous
 62
     3
370
     9
100
AcDbCircle
 10
-89.6569123139252
 20
273.4589909733954
 30
0.0
 40
1.500000019331236
100
AcDbArc
 50
0.0
 51
90.0
  0
ARC
  5
314
330
1F
100
AcDbEntity
  8
0-0
  6
Continuous
 62
     3
370
     9
100
AcDbCircle
 10
-112.1569123139252
 20
273.4589909733954
 30
0.0
 40
1.500000019331236
100
AcDbArc
 50
89.99998474121094
 51
180.0
  0
ARC
  5
315
330
1F
100
AcDbEntity
  8
0-0
  6
Continuous
 62
     3
370
     9
100
AcDbCircle
 10
-112.1569123139252
 20
250.9589909733954
 30
0.0
 40
1.500000019331236
100
AcDbArc
 50
180.0
 51
270.0
  0
ARC
  5
316
330
1F
100
AcDbEntity
  8
0-0
  6
Continuous
 62
     3
370
     9
100
AcDbCircle
 10
-151.6568694243559
 20
250.9589909733954
 30
0.0
 40
1.500000019331236
100
AcDbArc
 50
180.0
 51
270.0
  0
ARC
  5
317
330
1F
100
AcDbEntity
  8
0-0
  6
Continuous
 62
     3
370
     9
100
AcDbCircle
 10
-151.6568694243559
 20
273.4589909733954
 30
0.0
 40
1.500000019331236
100
AcDbArc
 50
89.99998474121094
 51
180.0
  0
ARC
  5
318
330
1F
100
AcDbEntity
  8
0-0
  6
Continuous
 62
     3
370
     9
100
AcDbCircle
 10
-129.1568694243559
 20
273.4589909733954
 30
0.0
 40
1.500000019331236
100
AcDbArc
 50
0.0
 51
90.0
  0
ARC
  5
319
330
1F
100
AcDbEntity
  8
0-0
  6
Continuous
 62
     3
370
     9
100
AcDbCircle
 10
-129.1568694243559
 20
250.9589909733954
 30
0.0
 40
1.500000019331236
100
AcDbArc
 50
270.0
 51
0.0
  0
ARC
  5
31A
330
1F
100
AcDbEntity
  8
0-0
  6
Continuous
 62
     3
370
     9
100
AcDbCircle
 10
-168.6568760227512
 20
250.9589909733954
 30
0.0
 40
1.500000019331236
100
AcDbArc
 50
270.0
 51
0.0
  0
ARC
  5
31B
330
1F
100
AcDbEntity
  8
0-0
  6
Continuous
 62
     3
370
     9
100
AcDbCircle
 10
-168.6568760227512
 20
273.4589909733954
 30
0.0
 40
1.500000019331236
100
AcDbArc
 50
0.0
 51
90.0
  0
ARC
  5
31C
330
1F
100
AcDbEntity
  8
0-0
  6
Continuous
 62
     3
370
     9
100
AcDbCircle
 10
-191.1568760227512
 20
273.4589909733954
 30
0.0
 40
1.500000019331236
100
AcDbArc
 50
89.99998474121094
 51
180.0
  0
ARC
  5
31D
330
1F
100
AcDbEntity
  8
0-0
  6
Continuous
 62
     3
370
     9
100
AcDbCircle
 10
-191.1568760227512
 20
250.9589909733954
 30
0.0
 40
1.500000019331236
100
AcDbArc
 50
180.0
 51
270.0
  0
ARC
  5
31E
330
1F
100
AcDbEntity
  8
0-0
  6
Continuous
 62
     3
370
     9
100
AcDbCircle
 10
-230.6568826211465
 20
250.9589909733954
 30
0.0
 40
1.500000019331236
100
AcDbArc
 50
180.0
 51
270.0
  0
ARC
  5
31F
330
1F
100
AcDbEntity
  8
0-0
  6
Continuous
 62
     3
370
     9
100
AcDbCircle
 10
-230.6568826211465
 20
273.4589909733954
 30
0.0
 40
1.500000019331236
100
AcDbArc
 50
89.99998474121094
 51
180.0
  0
ARC
  5
320
330
1F
100
AcDbEntity
  8
0-0
  6
Continuous
 62
     3
370
     9
100
AcDbCircle
 10
-208.1568826211465
 20
273.4589909733954
 30
0.0
 40
1.500000019331236
100
AcDbArc
 50
0.0
 51
90.0
  0
ARC
  5
321
330
1F
100
AcDbEntity
  8
0-0
  6
Continuous
 62
     3
370
     9
100
AcDbCircle
 10
-208.1568826211465
 20
250.9589909733954
 30
0.0
 40
1.500000019331236
100
AcDbArc
 50
270.0
 51
0.0
  0
ARC
  5
322
330
1F
100
AcDbEntity
  8
0-0
  6
Continuous
 62
     3
370
     9
100
AcDbCircle
 10
-208.1568826211465
 20
290.4588985958617
 30
0.0
 40
1.500000019331236
100
AcDbArc
 50
270.0
 51
0.0
  0
ARC
  5
323
330
1F
100
AcDbEntity
  8
0-0
  6
Continuous
 62
     3
370
     9
100
AcDbCircle
 10
-208.1568826211465
 20
312.9588985958617
 30
0.0
 40
1.500000019331236
100
AcDbArc
 50
0.0
 51
90.0
  0
ARC
  5
324
330
1F
100
AcDbEntity
  8
0-0
  6
Continuous
 62
     3
370
     9
100
AcDbCircle
 10
-230.6568826211465
 20
312.9588985958617
 30
0.0
 40
1.500000019331236
100
AcDbArc
 50
89.99998474121094
 51
180.0
  0
ARC
  5
325
330
1F
100
AcDbEntity
  8
0-0
  6
Continuous
 62
     3
370
     9
100
AcDbCircle
 10
-230.6568826211465
 20
290.4588985958617
 30
0.0
 40
1.500000019331236
100
AcDbArc
 50
180.0
 51
270.0
  0
ARC
  5
326
330
1F
100
AcDbEntity
  8
0-0
  6
Continuous
 62
     3
370
     9
100
AcDbCircle
 10
-191.1568760227512
 20
290.4588985958617
 30
0.0
 40
1.500000019331236
100
AcDbArc
 50
180.0
 51
270.0
  0
ARC
  5
327
330
1F
100
AcDbEntity
  8
0-0
  6
Continuous
 62
     3
370
     9
100
AcDbCircle
 10
-191.1568760227512
 20
312.9588985958617
 30
0.0
 40
1.500000019331236
100
AcDbArc
 50
89.99998474121094
 51
180.0
  0
ARC
  5
328
330
1F
100
AcDbEntity
  8
0-0
  6
Continuous
 62
     3
370
     9
100
AcDbCircle
 10
-168.6568760227512
 20
312.9588985958617
 30
0.0
 40
1.500000019331236
100
AcDbArc
 50
0.0
 51
90.0
  0
ARC
  5
329
330
1F
100
AcDbEntity
  8
0-0
  6
Continuous
 62
     3
370
     9
100
AcDbCircle
 10
-168.6568760227512
 20
290.4588985958617
 30
0.0
 40
1.500000019331236
100
AcDbArc
 50
270.0
 51
0.0
  0
ARC
  5
32A
330
1F
100
AcDbEntity
  8
0-0
  6
Continuous
 62
     3
370
     9
100
AcDbCircle
 10
-129.1568694243559
 20
290.4588985958617
 30
0.0
 40
1.500000019331236
100
AcDbArc
 50
270.0
 51
0.0
  0
ARC
  5
32B
330
1F
100
AcDbEntity
  8
0-0
  6
Continuous
 62
     3
370
     9
100
AcDbCircle
 10
-129.1568694243559
 20
312.9588985958617
 30
0.0
 40
1.500000019331236
100
AcDbArc
 50
0.0
 51
90.0
  0
ARC
  5
32C
330
1F
100
AcDbEntity
  8
0-0
  6
Continuous
 62
     3
370
     9
100
AcDbCircle
 10
-151.6568694243559
 20
312.9588985958617
 30
0.0
 40
1.500000019331236
100
AcDbArc
 50
89.99998474121094
 51
180.0
  0
ARC
  5
32D
330
1F
100
AcDbEntity
  8
0-0
  6
Continuous
 62
     3
370
     9
100
AcDbCircle
 10
-151.6568694243559
 20
290.4588985958617
 30
0.0
 40
1.500000019331236
100
AcDbArc
 50
180.0
 51
270.0
  0
ARC
  5
32E
330
1F
100
AcDbEntity
  8
0-0
  6
Continuous
 62
     3
370
     9
100
AcDbCircle
 10
-112.1569123139252
 20
290.4588985958617
 30
0.0
 40
1.500000019331236
100
AcDbArc
 50
180.0
 51
270.0
  0
ARC
  5
32F
330
1F
100
AcDbEntity
  8
0-0
  6
Continuous
 62
     3
370
     9
100
AcDbCircle
 10
-112.1569123139252
 20
312.9588985958617
 30
0.0
 40
1.500000019331236
100
AcDbArc
 50
89.99998474121094
 51
180.0
  0
ARC
  5
330
330
1F
100
AcDbEntity
  8
0-0
  6
Continuous
 62
     3
370
     9
100
AcDbCircle
 10
-89.6569123139252
 20
312.9588985958617
 30
0.0
 40
1.500000019331236
100
AcDbArc
 50
0.0
 51
90.0
  0
ARC
  5
331
330
1F
100
AcDbEntity
  8
0-0
  6
Continuous
 62
     3
370
     9
100
AcDbCircle
 10
-89.6569123139252
 20
290.4588985958617
 30
0.0
 40
1.500000019331236
100
AcDbArc
 50
270.0
 51
0.0
  0
ARC
  5
332
330
1F
100
AcDbEntity
  8
0-0
  6
Continuous
 62
     3
370
     9
100
AcDbCircle
 10
-50.15690571552989
 20
290.4588985958617
 30
0.0
 40
1.500000019331236
100
AcDbArc
 50
270.0
 51
0.0
  0
ARC
  5
333
330
1F
100
AcDbEntity
  8
0-0
  6
Continuous
 62
     3
370
     9
100
AcDbCircle
 10
-50.15690571552989
 20
312.9588985958617
 30
0.0
 40
1.500000019331236
100
AcDbArc
 50
0.0
 51
90.0
  0
ARC
  5
334
330
1F
100
AcDbEntity
  8
0-0
  6
Continuous
 62
     3
370
     9
100
AcDbCircle
 10
-72.65690571552989
 20
312.9588985958617
 30
0.0
 40
1.500000019331236
100
AcDbArc
 50
89.99998474121094
 51
180.0
  0
ARC
  5
335
330
1F
100
AcDbEntity
  8
0-0
  6
Continuous
 62
     3
370
     9
100
AcDbCircle
 10
-72.65690571552989
 20
290.4588985958617
 30
0.0
 40
1.500000019331236
100
AcDbArc
 50
180.0
 51
270.0
  0
ARC
  5
336
330
1F
100
AcDbEntity
  8
0-0
  6
Continuous
 62
     3
370
     9
100
AcDbCircle
 10
-33.15694860509916
 20
290.4588985958617
 30
0.0
 40
1.500000019331236
100
AcDbArc
 50
180.0
 51
270.0
  0
ARC
  5
337
330
1F
100
AcDbEntity
  8
0-0
  6
Continuous
 62
     3
370
     9
100
AcDbCircle
 10
-33.15694860509916
 20
312.9588985958617
 30
0.0
 40
1.500000019331236
100
AcDbArc
 50
89.99998474121094
 51
180.0
  0
ARC
  5
338
330
1F
100
AcDbEntity
  8
0-0
  6
Continuous
 62
     3
370
     9
100
AcDbCircle
 10
-10.6568496291701
 20
312.9588985958617
 30
0.0
 40
1.500000019331236
100
AcDbArc
 50
0.0
 51
90.0
  0
ARC
  5
339
330
1F
100
AcDbEntity
  8
0-0
  6
Continuous
 62
     3
370
     9
100
AcDbCircle
 10
-10.6568496291701
 20
290.4588985958617
 30
0.0
 40
1.500000019331236
100
AcDbArc
 50
270.0
 51
0.0
  0
ARC
  5
33A
330
1F
100
AcDbEntity
  8
0-0
  6
Continuous
 62
     3
370
     9
100
AcDbCircle
 10
-10.6568496291701
 20
329.9590041701859
 30
0.0
 40
1.500000019331236
100
AcDbArc
 50
270.0
 51
0.0
  0
ARC
  5
33B
330
1F
100
AcDbEntity
  8
0-0
  6
Continuous
 62
     3
370
     9
100
AcDbCircle
 10
-10.6568496291701
 20
352.4590041701859
 30
0.0
 40
1.500000019331236
100
AcDbArc
 50
0.0
 51
90.0
  0
ARC
  5
33C
330
1F
100
AcDbEntity
  8
0-0
  6
Continuous
 62
     3
370
     9
100
AcDbCircle
 10
-33.15694860509916
 20
352.4590041701859
 30
0.0
 40
1.500000019331236
100
AcDbArc
 50
89.99998474121094
 51
180.0
  0
ARC
  5
33D
330
1F
100
AcDbEntity
  8
0-0
  6
Continuous
 62
     3
370
     9
100
AcDbCircle
 10
-33.15694860509916
 20
329.9590041701859
 30
0.0
 40
1.500000019331236
100
AcDbArc
 50
180.0
 51
270.0
  0
ARC
  5
33E
330
1F
100
AcDbEntity
  8
0-0
  6
Continuous
 62
     3
370
     9
100
AcDbCircle
 10
-72.65690571552989
 20
329.9590041701859
 30
0.0
 40
1.500000019331236
100
AcDbArc
 50
180.0
 51
270.0
  0
ARC
  5
33F
330
1F
100
AcDbEntity
  8
0-0
  6
Continuous
 62
     3
370
     9
100
AcDbCircle
 10
-72.65690571552989
 20
352.4590041701859
 30
0.0
 40
1.500000019331236
100
AcDbArc
 50
89.99998474121094
 51
180.0
  0
ARC
  5
340
330
1F
100
AcDbEntity
  8
0-0
  6
Continuous
 62
     3
370
     9
100
AcDbCircle
 10
-50.15690571552989
 20
352.4590041701859
 30
0.0
 40
1.500000019331236
100
AcDbArc
 50
0.0
 51
90.0
  0
ARC
  5
341
330
1F
100
AcDbEntity
  8
0-0
  6
Continuous
 62
     3
370
     9
100
AcDbCircle
 10
-50.15690571552989
 20
329.9590041701859
 30
0.0
 40
1.500000019331236
100
AcDbArc
 50
270.0
 51
0.0
  0
ARC
  5
342
330
1F
100
AcDbEntity
  8
0-0
  6
Continuous
 62
     3
370
     9
100
AcDbCircle
 10
-89.6569123139252
 20
329.9590041701859
 30
0.0
 40
1.500000019331236
100
AcDbArc
 50
270.0
 51
0.0
  0
ARC
  5
343
330
1F
100
AcDbEntity
  8
0-0
  6
Continuous
 62
     3
370
     9
100
AcDbCircle
 10
-89.6569123139252
 20
352.4590041701859
 30
0.0
 40
1.500000019331236
100
AcDbArc
 50
0.0
 51
90.0
  0
ARC
  5
344
330
1F
100
AcDbEntity
  8
0-0
  6
Continuous
 62
     3
370
     9
100
AcDbCircle
 10
-112.1569123139252
 20
352.4590041701859
 30
0.0
 40
1.500000019331236
100
AcDbArc
 50
89.99998474121094
 51
180.0
  0
ARC
  5
345
330
1F
100
AcDbEntity
  8
0-0
  6
Continuous
 62
     3
370
     9
100
AcDbCircle
 10
-112.1569123139252
 20
329.9590041701859
 30
0.0
 40
1.500000019331236
100
AcDbArc
 50
180.0
 51
270.0
  0
ARC
  5
346
330
1F
100
AcDbEntity
  8
0-0
  6
Continuous
 62
     3
370
     9
100
AcDbCircle
 10
-151.6568694243559
 20
329.9590041701859
 30
0.0
 40
1.500000019331236
100
AcDbArc
 50
180.0
 51
270.0
  0
ARC
  5
347
330
1F
100
AcDbEntity
  8
0-0
  6
Continuous
 62
     3
370
     9
100
AcDbCircle
 10
-151.6568694243559
 20
352.4590041701859
 30
0.0
 40
1.500000019331236
100
AcDbArc
 50
89.99998474121094
 51
180.0
  0
ARC
  5
348
330
1F
100
AcDbEntity
  8
0-0
  6
Continuous
 62
     3
370
     9
100
AcDbCircle
 10
-129.1568694243559
 20
352.4590041701859
 30
0.0
 40
1.500000019331236
100
AcDbArc
 50
0.0
 51
90.0
  0
ARC
  5
349
330
1F
100
AcDbEntity
  8
0-0
  6
Continuous
 62
     3
370
     9
100
AcDbCircle
 10
-129.1568694243559
 20
329.9590041701859
 30
0.0
 40
1.500000019331236
100
AcDbArc
 50
270.0
 51
0.0
  0
ARC
  5
34A
330
1F
100
AcDbEntity
  8
0-0
  6
Continuous
 62
     3
370
     9
100
AcDbCircle
 10
-168.6568760227512
 20
329.9590041701859
 30
0.0
 40
1.500000019331236
100
AcDbArc
 50
270.0
 51
0.0
  0
ARC
  5
34B
330
1F
100
AcDbEntity
  8
0-0
  6
Continuous
 62
     3
370
     9
100
AcDbCircle
 10
-168.6568760227512
 20
352.4590041701859
 30
0.0
 40
1.500000019331236
100
AcDbArc
 50
0.0
 51
90.0
  0
ARC
  5
34C
330
1F
100
AcDbEntity
  8
0-0
  6
Continuous
 62
     3
370
     9
100
AcDbCircle
 10
-191.1568760227512
 20
352.4590041701859
 30
0.0
 40
1.500000019331236
100
AcDbArc
 50
89.99998474121094
 51
180.0
  0
ARC
  5
34D
330
1F
100
AcDbEntity
  8
0-0
  6
Continuous
 62
     3
370
     9
100
AcDbCircle
 10
-191.1568760227512
 20
329.9590041701859
 30
0.0
 40
1.500000019331236
100
AcDbArc
 50
180.0
 51
270.0
  0
ARC
  5
34E
330
1F
100
AcDbEntity
  8
0-0
  6
Continuous
 62
     3
370
     9
100
AcDbCircle
 10
-230.6568826211465
 20
329.9590041701859
 30
0.0
 40
1.500000019331236
100
AcDbArc
 50
180.0
 51
270.0
  0
ARC
  5
34F
330
1F
100
AcDbEntity
  8
0-0
  6
Continuous
 62
     3
370
     9
100
AcDbCircle
 10
-230.6568826211465
 20
352.4590041701859
 30
0.0
 40
1.500000019331236
100
AcDbArc
 50
89.99998474121094
 51
180.0
  0
ARC
  5
350
330
1F
100
AcDbEntity
  8
0-0
  6
Continuous
 62
     3
370
     9
100
AcDbCircle
 10
-208.1568826211465
 20
352.4590041701859
 30
0.0
 40
1.500000019331236
100
AcDbArc
 50
0.0
 51
90.0
  0
ARC
  5
351
330
1F
100
AcDbEntity
  8
0-0
  6
Continuous
 62
     3
370
     9
100
AcDbCircle
 10
-208.1568826211465
 20
329.9590041701859
 30
0.0
 40
1.500000019331236
100
AcDbArc
 50
270.0
 51
0.0
  0
ARC
  5
352
330
1F
100
AcDbEntity
  8
0-0
  6
Continuous
 62
     3
370
     9
100
AcDbCircle
 10
-208.1568826211465
 20
-82.04106841216208
 30
0.0
 40
1.500000019331236
100
AcDbArc
 50
1.403289794921875
 51
90.0
  0
ARC
  5
353
330
1F
100
AcDbEntity
  8
0-0
  6
Continuous
 62
     3
370
     9
100
AcDbCircle
 10
-208.1568826211465
 20
-104.5410684121621
 30
0.0
 40
1.500000019331236
100
AcDbArc
 50
270.0
 51
0.0
  0
ARC
  5
354
330
1F
100
AcDbEntity
  8
0-0
  6
Continuous
 62
     3
370
     9
100
AcDbCircle
 10
-230.6568826211465
 20
-104.5410684121621
 30
0.0
 40
1.500000019331236
100
AcDbArc
 50
180.0
 51
270.0
  0
ARC
  5
355
330
1F
100
AcDbEntity
  8
0-0
  6
Continuous
 62
     3
370
     9
100
AcDbCircle
 10
-230.6568826211465
 20
-82.04106841216208
 30
0.0
 40
1.500000019331236
100
AcDbArc
 50
90.0
 51
180.0
  0
ARC
  5
356
330
1F
100
AcDbEntity
  8
0-0
  6
Continuous
 62
     3
370
     9
100
AcDbCircle
 10
-191.1568760227512
 20
-82.04106841216208
 30
0.0
 40
1.500000019331236
100
AcDbArc
 50
90.0
 51
180.0
  0
ARC
  5
357
330
1F
100
AcDbEntity
  8
0-0
  6
Continuous
 62
     3
370
     9
100
AcDbCircle
 10
-191.1568760227512
 20
-104.5410684121621
 30
0.0
 40
1.500000019331236
100
AcDbArc
 50
180.0
 51
270.0
  0
ARC
  5
358
330
1F
100
AcDbEntity
  8
0-0
  6
Continuous
 62
     3
370
     9
100
AcDbCircle
 10
-168.6568760227512
 20
-104.5410684121621
 30
0.0
 40
1.500000019331236
100
AcDbArc
 50
270.0
 51
0.0
  0
ARC
  5
359
330
1F
100
AcDbEntity
  8
0-0
  6
Continuous
 62
     3
370
     9
100
AcDbCircle
 10
-168.6568760227512
 20
-82.04106841216208
 30
0.0
 40
1.500000019331236
100
AcDbArc
 50
1.403289794921875
 51
90.0
  0
ARC
  5
35A
330
1F
100
AcDbEntity
  8
0-0
  6
Continuous
 62
     3
370
     9
100
AcDbCircle
 10
-129.1568694243559
 20
-82.04106841216208
 30
0.0
 40
1.500000019331236
100
AcDbArc
 50
1.403289794921875
 51
90.0
  0
ARC
  5
35B
330
1F
100
AcDbEntity
  8
0-0
  6
Continuous
 62
     3
370
     9
100
AcDbCircle
 10
-129.1568694243559
 20
-104.5410684121621
 30
0.0
 40
1.500000019331236
100
AcDbArc
 50
270.0
 51
0.0
  0
ARC
  5
35C
330
1F
100
AcDbEntity
  8
0-0
  6
Continuous
 62
     3
370
     9
100
AcDbCircle
 10
-151.6568694243559
 20
-104.5410684121621
 30
0.0
 40
1.500000019331236
100
AcDbArc
 50
180.0
 51
270.0
  0
ARC
  5
35D
330
1F
100
AcDbEntity
  8
0-0
  6
Continuous
 62
     3
370
     9
100
AcDbCircle
 10
-151.6568694243559
 20
-82.04106841216208
 30
0.0
 40
1.500000019331236
100
AcDbArc
 50
90.0
 51
180.0
  0
ARC
  5
35E
330
1F
100
AcDbEntity
  8
0-0
  6
Continuous
 62
     3
370
     9
100
AcDbCircle
 10
-112.1569123139252
 20
-82.04106841216208
 30
0.0
 40
1.500000019331236
100
AcDbArc
 50
90.0
 51
180.0
  0
ARC
  5
35F
330
1F
100
AcDbEntity
  8
0-0
  6
Continuous
 62
     3
370
     9
100
AcDbCircle
 10
-112.1569123139252
 20
-104.5410684121621
 30
0.0
 40
1.500000019331236
100
AcDbArc
 50
180.0
 51
270.0
  0
ARC
  5
360
330
1F
100
AcDbEntity
  8
0-0
  6
Continuous
 62
     3
370
     9
100
AcDbCircle
 10
-89.6569123139252
 20
-104.5410684121621
 30
0.0
 40
1.500000019331236
100
AcDbArc
 50
270.0
 51
0.0
  0
ARC
  5
361
330
1F
100
AcDbEntity
  8
0-0
  6
Continuous
 62
     3
370
     9
100
AcDbCircle
 10
-89.6569123139252
 20
-82.04106841216208
 30
0.0
 40
1.500000019331236
100
AcDbArc
 50
1.403289794921875
 51
90.0
  0
ARC
  5
362
330
1F
100
AcDbEntity
  8
0-0
  6
Continuous
 62
     3
370
     9
100
AcDbCircle
 10
-50.15690571552989
 20
-82.04106841216208
 30
0.0
 40
1.500000019331236
100
AcDbArc
 50
1.403289794921875
 51
90.0
  0
ARC
  5
363
330
1F
100
AcDbEntity
  8
0-0
  6
Continuous
 62
     3
370
     9
100
AcDbCircle
 10
-50.15690571552989
 20
-104.5410684121621
 30
0.0
 40
1.500000019331236
100
AcDbArc
 50
270.0
 51
0.0
  0
ARC
  5
364
330
1F
100
AcDbEntity
  8
0-0
  6
Continuous
 62
     3
370
     9
100
AcDbCircle
 10
-72.65690571552989
 20
-104.5410684121621
 30
0.0
 40
1.500000019331236
100
AcDbArc
 50
180.0
 51
270.0
  0
ARC
  5
365
330
1F
100
AcDbEntity
  8
0-0
  6
Continuous
 62
     3
370
     9
100
AcDbCircle
 10
-72.65690571552989
 20
-82.04106841216208
 30
0.0
 40
1.500000019331236
100
AcDbArc
 50
90.0
 51
180.0
  0
ARC
  5
366
330
1F
100
AcDbEntity
  8
0-0
  6
Continuous
 62
     3
370
     9
100
AcDbCircle
 10
-33.15694860509916
 20
-82.04106841216208
 30
0.0
 40
1.500000019331236
100
AcDbArc
 50
90.0
 51
180.0
  0
ARC
  5
367
330
1F
100
AcDbEntity
  8
0-0
  6
Continuous
 62
     3
370
     9
100
AcDbCircle
 10
-33.15694860509916
 20
-104.5410684121621
 30
0.0
 40
1.500000019331236
100
AcDbArc
 50
180.0
 51
270.0
  0
ARC
  5
368
330
1F
100
AcDbEntity
  8
0-0
  6
Continuous
 62
     3
370
     9
100
AcDbCircle
 10
-10.6568496291701
 20
-104.5410684121621
 30
0.0
 40
1.500000019331236
100
AcDbArc
 50
270.0
 51
0.0
  0
ARC
  5
369
330
1F
100
AcDbEntity
  8
0-0
  6
Continuous
 62
     3
370
     9
100
AcDbCircle
 10
-10.6568496291701
 20
-82.04106841216208
 30
0.0
 40
1.500000019331236
100
AcDbArc
 50
1.403289794921875
 51
90.0
  0
ARC
  5
36A
330
1F
100
AcDbEntity
  8
0-0
  6
Continuous
 62
     3
370
     9
100
AcDbCircle
 10
-10.6568496291701
 20
-42.54106181376676
 30
0.0
 40
1.500000019331236
100
AcDbArc
 50
1.403289794921875
 51
90.0
  0
ARC
  5
36B
330
1F
100
AcDbEntity
  8
0-0
  6
Continuous
 62
     3
370
     9
100
AcDbCircle
 10
-10.6568496291701
 20
-65.04106181376665
 30
0.0
 40
1.500000019331236
100
AcDbArc
 50
270.0
 51
0.0
  0
ARC
  5
36C
330
1F
100
AcDbEntity
  8
0-0
  6
Continuous
 62
     3
370
     9
100
AcDbCircle
 10
-33.15694860509916
 20
-65.04106181376665
 30
0.0
 40
1.500000019331236
100
AcDbArc
 50
180.0
 51
270.0
  0
ARC
  5
36D
330
1F
100
AcDbEntity
  8
0-0
  6
Continuous
 62
     3
370
     9
100
AcDbCircle
 10
-33.15694860509916
 20
-42.54106181376676
 30
0.0
 40
1.500000019331236
100
AcDbArc
 50
90.0
 51
180.0
  0
ARC
  5
36E
330
1F
100
AcDbEntity
  8
0-0
  6
Continuous
 62
     3
370
     9
100
AcDbCircle
 10
-72.65690571552989
 20
-42.54106181376676
 30
0.0
 40
1.500000019331236
100
AcDbArc
 50
90.0
 51
180.0
  0
ARC
  5
36F
330
1F
100
AcDbEntity
  8
0-0
  6
Continuous
 62
     3
370
     9
100
AcDbCircle
 10
-72.65690571552989
 20
-65.04106181376665
 30
0.0
 40
1.500000019331236
100
AcDbArc
 50
180.0
 51
270.0
  0
ARC
  5
370
330
1F
100
AcDbEntity
  8
0-0
  6
Continuous
 62
     3
370
     9
100
AcDbCircle
 10
-50.15690571552989
 20
-65.04106181376665
 30
0.0
 40
1.500000019331236
100
AcDbArc
 50
270.0
 51
0.0
  0
ARC
  5
371
330
1F
100
AcDbEntity
  8
0-0
  6
Continuous
 62
     3
370
     9
100
AcDbCircle
 10
-50.15690571552989
 20
-42.54106181376676
 30
0.0
 40
1.500000019331236
100
AcDbArc
 50
1.403289794921875
 51
90.0
  0
ARC
  5
372
330
1F
100
AcDbEntity
  8
0-0
  6
Continuous
 62
     3
370
     9
100
AcDbCircle
 10
-89.6569123139252
 20
-42.54106181376676
 30
0.0
 40
1.500000019331236
100
AcDbArc
 50
1.403289794921875
 51
90.0
  0
ARC
  5
373
330
1F
100
AcDbEntity
  8
0-0
  6
Continuous
 62
     3
370
     9
100
AcDbCircle
 10
-89.6569123139252
 20
-65.04106181376665
 30
0.0
 40
1.500000019331236
100
AcDbArc
 50
270.0
 51
0.0
  0
ARC
  5
374
330
1F
100
AcDbEntity
  8
0-0
  6
Continuous
 62
     3
370
     9
100
AcDbCircle
 10
-112.1569123139252
 20
-65.04106181376665
 30
0.0
 40
1.500000019331236
100
AcDbArc
 50
180.0
 51
270.0
  0
ARC
  5
375
330
1F
100
AcDbEntity
  8
0-0
  6
Continuous
 62
     3
370
     9
100
AcDbCircle
 10
-112.1569123139252
 20
-42.54106181376676
 30
0.0
 40
1.500000019331236
100
AcDbArc
 50
90.0
 51
180.0
  0
ARC
  5
376
330
1F
100
AcDbEntity
  8
0-0
  6
Continuous
 62
     3
370
     9
100
AcDbCircle
 10
-151.6568694243559
 20
-42.54106181376676
 30
0.0
 40
1.500000019331236
100
AcDbArc
 50
90.0
 51
180.0
  0
ARC
  5
377
330
1F
100
AcDbEntity
  8
0-0
  6
Continuous
 62
     3
370
     9
100
AcDbCircle
 10
-151.6568694243559
 20
-65.04106181376665
 30
0.0
 40
1.500000019331236
100
AcDbArc
 50
180.0
 51
270.0
  0
ARC
  5
378
330
1F
100
AcDbEntity
  8
0-0
  6
Continuous
 62
     3
370
     9
100
AcDbCircle
 10
-129.1568694243559
 20
-65.04106181376665
 30
0.0
 40
1.500000019331236
100
AcDbArc
 50
270.0
 51
0.0
  0
ARC
  5
379
330
1F
100
AcDbEntity
  8
0-0
  6
Continuous
 62
     3
370
     9
100
AcDbCircle
 10
-129.1568694243559
 20
-42.54106181376676
 30
0.0
 40
1.500000019331236
100
AcDbArc
 50
1.403289794921875
 51
90.0
  0
ARC
  5
37A
330
1F
100
AcDbEntity
  8
0-0
  6
Continuous
 62
     3
370
     9
100
AcDbCircle
 10
-168.6568760227512
 20
-42.54106181376676
 30
0.0
 40
1.500000019331236
100
AcDbArc
 50
1.403289794921875
 51
90.0
  0
ARC
  5
37B
330
1F
100
AcDbEntity
  8
0-0
  6
Continuous
 62
     3
370
     9
100
AcDbCircle
 10
-168.6568760227512
 20
-65.04106181376665
 30
0.0
 40
1.500000019331236
100
AcDbArc
 50
270.0
 51
0.0
  0
ARC
  5
37C
330
1F
100
AcDbEntity
  8
0-0
  6
Continuous
 62
     3
370
     9
100
AcDbCircle
 10
-191.1568760227512
 20
-65.04106181376665
 30
0.0
 40
1.500000019331236
100
AcDbArc
 50
180.0
 51
270.0
  0
ARC
  5
37D
330
1F
100
AcDbEntity
  8
0-0
  6
Continuous
 62
     3
370
     9
100
AcDbCircle
 10
-191.1568760227512
 20
-42.54106181376676
 30
0.0
 40
1.500000019331236
100
AcDbArc
 50
90.0
 51
180.0
  0
ARC
  5
37E
330
1F
100
AcDbEntity
  8
0-0
  6
Continuous
 62
     3
370
     9
100
AcDbCircle
 10
-230.6568826211465
 20
-42.54106181376676
 30
0.0
 40
1.500000019331236
100
AcDbArc
 50
90.0
 51
180.0
  0
ARC
  5
37F
330
1F
100
AcDbEntity
  8
0-0
  6
Continuous
 62
     3
370
     9
100
AcDbCircle
 10
-230.6568826211465
 20
-65.04106181376665
 30
0.0
 40
1.500000019331236
100
AcDbArc
 50
180.0
 51
270.0
  0
ARC
  5
380
330
1F
100
AcDbEntity
  8
0-0
  6
Continuous
 62
     3
370
     9
100
AcDbCircle
 10
-208.1568826211465
 20
-65.04106181376665
 30
0.0
 40
1.500000019331236
100
AcDbArc
 50
270.0
 51
0.0
  0
ARC
  5
381
330
1F
100
AcDbEntity
  8
0-0
  6
Continuous
 62
     3
370
     9
100
AcDbCircle
 10
-208.1568826211465
 20
-42.54106181376676
 30
0.0
 40
1.500000019331236
100
AcDbArc
 50
1.403289794921875
 51
90.0
  0
ARC
  5
382
330
1F
100
AcDbEntity
  8
0-0
  6
Continuous
 62
     3
370
     9
100
AcDbCircle
 10
-208.1568826211465
 20
-3.041055215371443
 30
0.0
 40
1.500000019331236
100
AcDbArc
 50
1.403289794921875
 51
90.0
  0
ARC
  5
383
330
1F
100
AcDbEntity
  8
0-0
  6
Continuous
 62
     3
370
     9
100
AcDbCircle
 10
-208.1568826211465
 20
-25.54105521537144
 30
0.0
 40
1.500000019331236
100
AcDbArc
 50
270.0
 51
0.0
  0
ARC
  5
384
330
1F
100
AcDbEntity
  8
0-0
  6
Continuous
 62
     3
370
     9
100
AcDbCircle
 10
-230.6568826211465
 20
-25.54105521537144
 30
0.0
 40
1.500000019331236
100
AcDbArc
 50
180.0
 51
270.0
  0
ARC
  5
385
330
1F
100
AcDbEntity
  8
0-0
  6
Continuous
 62
     3
370
     9
100
AcDbCircle
 10
-230.6568826211465
 20
-3.041055215371443
 30
0.0
 40
1.500000019331236
100
AcDbArc
 50
90.0
 51
180.0
  0
ARC
  5
386
330
1F
100
AcDbEntity
  8
0-0
  6
Continuous
 62
     3
370
     9
100
AcDbCircle
 10
-191.1568760227512
 20
-3.041055215371443
 30
0.0
 40
1.500000019331236
100
AcDbArc
 50
90.0
 51
180.0
  0
ARC
  5
387
330
1F
100
AcDbEntity
  8
0-0
  6
Continuous
 62
     3
370
     9
100
AcDbCircle
 10
-191.1568760227512
 20
-25.54105521537144
 30
0.0
 40
1.500000019331236
100
AcDbArc
 50
180.0
 51
270.0
  0
ARC
  5
388
330
1F
100
AcDbEntity
  8
0-0
  6
Continuous
 62
     3
370
     9
100
AcDbCircle
 10
-168.6568760227512
 20
-25.54105521537144
 30
0.0
 40
1.500000019331236
100
AcDbArc
 50
270.0
 51
0.0
  0
ARC
  5
389
330
1F
100
AcDbEntity
  8
0-0
  6
Continuous
 62
     3
370
     9
100
AcDbCircle
 10
-168.6568760227512
 20
-3.041055215371443
 30
0.0
 40
1.500000019331236
100
AcDbArc
 50
1.403289794921875
 51
90.0
  0
ARC
  5
38A
330
1F
100
AcDbEntity
  8
0-0
  6
Continuous
 62
     3
370
     9
100
AcDbCircle
 10
-129.1568694243559
 20
-3.041055215371443
 30
0.0
 40
1.500000019331236
100
AcDbArc
 50
1.403289794921875
 51
90.0
  0
ARC
  5
38B
330
1F
100
AcDbEntity
  8
0-0
  6
Continuous
 62
     3
370
     9
100
AcDbCircle
 10
-129.1568694243559
 20
-25.54105521537144
 30
0.0
 40
1.500000019331236
100
AcDbArc
 50
270.0
 51
0.0
  0
ARC
  5
38C
330
1F
100
AcDbEntity
  8
0-0
  6
Continuous
 62
     3
370
     9
100
AcDbCircle
 10
-151.6568694243559
 20
-25.54105521537144
 30
0.0
 40
1.500000019331236
100
AcDbArc
 50
180.0
 51
270.0
  0
ARC
  5
38D
330
1F
100
AcDbEntity
  8
0-0
  6
Continuous
 62
     3
370
     9
100
AcDbCircle
 10
-151.6568694243559
 20
-3.041055215371443
 30
0.0
 40
1.500000019331236
100
AcDbArc
 50
90.0
 51
180.0
  0
ARC
  5
38E
330
1F
100
AcDbEntity
  8
0-0
  6
Continuous
 62
     3
370
     9
100
AcDbCircle
 10
-112.1569123139252
 20
-3.041055215371443
 30
0.0
 40
1.500000019331236
100
AcDbArc
 50
90.0
 51
180.0
  0
ARC
  5
38F
330
1F
100
AcDbEntity
  8
0-0
  6
Continuous
 62
     3
370
     9
100
AcDbCircle
 10
-112.1569123139252
 20
-25.54105521537144
 30
0.0
 40
1.500000019331236
100
AcDbArc
 50
180.0
 51
270.0
  0
ARC
  5
390
330
1F
100
AcDbEntity
  8
0-0
  6
Continuous
 62
     3
370
     9
100
AcDbCircle
 10
-89.6569123139252
 20
-25.54105521537144
 30
0.0
 40
1.500000019331236
100
AcDbArc
 50
270.0
 51
0.0
  0
ARC
  5
391
330
1F
100
AcDbEntity
  8
0-0
  6
Continuous
 62
     3
370
     9
100
AcDbCircle
 10
-89.6569123139252
 20
-3.041055215371443
 30
0.0
 40
1.500000019331236
100
AcDbArc
 50
1.403289794921875
 51
90.0
  0
ARC
  5
392
330
1F
100
AcDbEntity
  8
0-0
  6
Continuous
 62
     3
370
     9
100
AcDbCircle
 10
-50.15690571552989
 20
-3.041055215371443
 30
0.0
 40
1.500000019331236
100
AcDbArc
 50
1.403289794921875
 51
90.0
  0
ARC
  5
393
330
1F
100
AcDbEntity
  8
0-0
  6
Continuous
 62
     3
370
     9
100
AcDbCircle
 10
-50.15690571552989
 20
-25.54105521537144
 30
0.0
 40
1.500000019331236
100
AcDbArc
 50
270.0
 51
0.0
  0
ARC
  5
394
330
1F
100
AcDbEntity
  8
0-0
  6
Continuous
 62
     3
370
     9
100
AcDbCircle
 10
-72.65690571552989
 20
-25.54105521537144
 30
0.0
 40
1.500000019331236
100
AcDbArc
 50
180.0
 51
270.0
  0
ARC
  5
395
330
1F
100
AcDbEntity
  8
0-0
  6
Continuous
 62
     3
370
     9
100
AcDbCircle
 10
-72.65690571552989
 20
-3.041055215371443
 30
0.0
 40
1.500000019331236
100
AcDbArc
 50
90.0
 51
180.0
  0
ARC
  5
396
330
1F
100
AcDbEntity
  8
0-0
  6
Continuous
 62
     3
370
     9
100
AcDbCircle
 10
-33.15694860509916
 20
-3.041055215371443
 30
0.0
 40
1.500000019331236
100
AcDbArc
 50
90.0
 51
180.0
  0
ARC
  5
397
330
1F
100
AcDbEntity
  8
0-0
  6
Continuous
 62
     3
370
     9
100
AcDbCircle
 10
-33.15694860509916
 20
-25.54105521537144
 30
0.0
 40
1.500000019331236
100
AcDbArc
 50
180.0
 51
270.0
  0
ARC
  5
398
330
1F
100
AcDbEntity
  8
0-0
  6
Continuous
 62
     3
370
     9
100
AcDbCircle
 10
-10.6568496291701
 20
-25.54105521537144
 30
0.0
 40
1.500000019331236
100
AcDbArc
 50
270.0
 51
0.0
  0
ARC
  5
399
330
1F
100
AcDbEntity
  8
0-0
  6
Continuous
 62
     3
370
     9
100
AcDbCircle
 10
-10.6568496291701
 20
-3.041055215371443
 30
0.0
 40
1.500000019331236
100
AcDbArc
 50
1.403289794921875
 51
90.0
  0
ARC
  5
39A
330
1F
100
AcDbEntity
  8
0-0
  6
Continuous
 62
     3
370
     9
100
AcDbCircle
 10
-10.6568496291701
 20
36.45895138302387
 30
0.0
 40
1.500000019331236
100
AcDbArc
 50
1.403289794921875
 51
90.0
  0
ARC
  5
39B
330
1F
100
AcDbEntity
  8
0-0
  6
Continuous
 62
     3
370
     9
100
AcDbCircle
 10
-10.6568496291701
 20
13.95895138302387
 30
0.0
 40
1.500000019331236
100
AcDbArc
 50
270.0
 51
0.0
  0
ARC
  5
39C
330
1F
100
AcDbEntity
  8
0-0
  6
Continuous
 62
     3
370
     9
100
AcDbCircle
 10
-33.15694860509916
 20
13.95895138302387
 30
0.0
 40
1.500000019331236
100
AcDbArc
 50
180.0
 51
270.0
  0
ARC
  5
39D
330
1F
100
AcDbEntity
  8
0-0
  6
Continuous
 62
     3
370
     9
100
AcDbCircle
 10
-33.15694860509916
 20
36.45895138302387
 30
0.0
 40
1.500000019331236
100
AcDbArc
 50
90.0
 51
180.0
  0
ARC
  5
39E
330
1F
100
AcDbEntity
  8
0-0
  6
Continuous
 62
     3
370
     9
100
AcDbCircle
 10
-72.65690571552989
 20
36.45895138302387
 30
0.0
 40
1.500000019331236
100
AcDbArc
 50
90.0
 51
180.0
  0
ARC
  5
39F
330
1F
100
AcDbEntity
  8
0-0
  6
Continuous
 62
     3
370
     9
100
AcDbCircle
 10
-72.65690571552989
 20
13.95895138302387
 30
0.0
 40
1.500000019331236
100
AcDbArc
 50
180.0
 51
270.0
  0
ARC
  5
3A0
330
1F
100
AcDbEntity
  8
0-0
  6
Continuous
 62
     3
370
     9
100
AcDbCircle
 10
-50.15690571552989
 20
13.95895138302387
 30
0.0
 40
1.500000019331236
100
AcDbArc
 50
270.0
 51
0.0
  0
ARC
  5
3A1
330
1F
100
AcDbEntity
  8
0-0
  6
Continuous
 62
     3
370
     9
100
AcDbCircle
 10
-50.15690571552989
 20
36.45895138302387
 30
0.0
 40
1.500000019331236
100
AcDbArc
 50
1.403289794921875
 51
90.0
  0
ARC
  5
3A2
330
1F
100
AcDbEntity
  8
0-0
  6
Continuous
 62
     3
370
     9
100
AcDbCircle
 10
-89.6569123139252
 20
36.45895138302387
 30
0.0
 40
1.500000019331236
100
AcDbArc
 50
1.403289794921875
 51
90.0
  0
ARC
  5
3A3
330
1F
100
AcDbEntity
  8
0-0
  6
Continuous
 62
     3
370
     9
100
AcDbCircle
 10
-89.6569123139252
 20
13.95895138302387
 30
0.0
 40
1.500000019331236
100
AcDbArc
 50
270.0
 51
0.0
  0
ARC
  5
3A4
330
1F
100
AcDbEntity
  8
0-0
  6
Continuous
 62
     3
370
     9
100
AcDbCircle
 10
-112.1569123139252
 20
13.95895138302387
 30
0.0
 40
1.500000019331236
100
AcDbArc
 50
180.0
 51
270.0
  0
ARC
  5
3A5
330
1F
100
AcDbEntity
  8
0-0
  6
Continuous
 62
     3
370
     9
100
AcDbCircle
 10
-112.1569123139252
 20
36.45895138302387
 30
0.0
 40
1.500000019331236
100
AcDbArc
 50
90.0
 51
180.0
  0
ARC
  5
3A6
330
1F
100
AcDbEntity
  8
0-0
  6
Continuous
 62
     3
370
     9
100
AcDbCircle
 10
-151.6568694243559
 20
36.45895138302387
 30
0.0
 40
1.500000019331236
100
AcDbArc
 50
90.0
 51
180.0
  0
ARC
  5
3A7
330
1F
100
AcDbEntity
  8
0-0
  6
Continuous
 62
     3
370
     9
100
AcDbCircle
 10
-151.6568694243559
 20
13.95895138302387
 30
0.0
 40
1.500000019331236
100
AcDbArc
 50
180.0
 51
270.0
  0
ARC
  5
3A8
330
1F
100
AcDbEntity
  8
0-0
  6
Continuous
 62
     3
370
     9
100
AcDbCircle
 10
-129.1568694243559
 20
13.95895138302387
 30
0.0
 40
1.500000019331236
100
AcDbArc
 50
270.0
 51
0.0
  0
ARC
  5
3A9
330
1F
100
AcDbEntity
  8
0-0
  6
Continuous
 62
     3
370
     9
100
AcDbCircle
 10
-129.1568694243559
 20
36.45895138302387
 30
0.0
 40
1.500000019331236
100
AcDbArc
 50
1.403289794921875
 51
90.0
  0
ARC
  5
3AA
330
1F
100
AcDbEntity
  8
0-0
  6
Continuous
 62
     3
370
     9
100
AcDbCircle
 10
-168.6568760227512
 20
36.45895138302387
 30
0.0
 40
1.500000019331236
100
AcDbArc
 50
1.403289794921875
 51
90.0
  0
ARC
  5
3AB
330
1F
100
AcDbEntity
  8
0-0
  6
Continuous
 62
     3
370
     9
100
AcDbCircle
 10
-168.6568760227512
 20
13.95895138302387
 30
0.0
 40
1.500000019331236
100
AcDbArc
 50
270.0
 51
0.0
  0
ARC
  5
3AC
330
1F
100
AcDbEntity
  8
0-0
  6
Continuous
 62
     3
370
     9
100
AcDbCircle
 10
-191.1568760227512
 20
13.95895138302387
 30
0.0
 40
1.500000019331236
100
AcDbArc
 50
180.0
 51
270.0
  0
ARC
  5
3AD
330
1F
100
AcDbEntity
  8
0-0
  6
Continuous
 62
     3
370
     9
100
AcDbCircle
 10
-191.1568760227512
 20
36.45895138302387
 30
0.0
 40
1.500000019331236
100
AcDbArc
 50
90.0
 51
180.0
  0
ARC
  5
3AE
330
1F
100
AcDbEntity
  8
0-0
  6
Continuous
 62
     3
370
     9
100
AcDbCircle
 10
-230.6568826211465
 20
36.45895138302387
 30
0.0
 40
1.500000019331236
100
AcDbArc
 50
90.0
 51
180.0
  0
ARC
  5
3AF
330
1F
100
AcDbEntity
  8
0-0
  6
Continuous
 62
     3
370
     9
100
AcDbCircle
 10
-230.6568826211465
 20
13.95895138302387
 30
0.0
 40
1.500000019331236
100
AcDbArc
 50
180.0
 51
270.0
  0
ARC
  5
3B0
330
1F
100
AcDbEntity
  8
0-0
  6
Continuous
 62
     3
370
     9
100
AcDbCircle
 10
-208.1568826211465
 20
13.95895138302387
 30
0.0
 40
1.500000019331236
100
AcDbArc
 50
270.0
 51
0.0
  0
ARC
  5
3B1
330
1F
100
AcDbEntity
  8
0-0
  6
Continuous
 62
     3
370
     9
100
AcDbCircle
 10
-208.1568826211465
 20
36.45895138302387
 30
0.0
 40
1.500000019331236
100
AcDbArc
 50
1.403289794921875
 51
90.0
  0
ARC
  5
3B2
330
1F
100
AcDbEntity
  8
0-0
  6
Continuous
 62
     3
370
     9
100
AcDbCircle
 10
-208.1568826211465
 20
75.9589084934546
 30
0.0
 40
1.500000019331236
100
AcDbArc
 50
1.403289794921875
 51
90.0
  0
ARC
  5
3B3
330
1F
100
AcDbEntity
  8
0-0
  6
Continuous
 62
     3
370
     9
100
AcDbCircle
 10
-208.1568826211465
 20
53.4589084934546
 30
0.0
 40
1.500000019331236
100
AcDbArc
 50
270.0
 51
0.0
  0
ARC
  5
3B4
330
1F
100
AcDbEntity
  8
0-0
  6
Continuous
 62
     3
370
     9
100
AcDbCircle
 10
-230.6568826211465
 20
53.4589084934546
 30
0.0
 40
1.500000019331236
100
AcDbArc
 50
180.0
 51
270.0
  0
ARC
  5
3B5
330
1F
100
AcDbEntity
  8
0-0
  6
Continuous
 62
     3
370
     9
100
AcDbCircle
 10
-230.6568826211465
 20
75.9589084934546
 30
0.0
 40
1.500000019331236
100
AcDbArc
 50
90.0
 51
180.0
  0
ARC
  5
3B6
330
1F
100
AcDbEntity
  8
0-0
  6
Continuous
 62
     3
370
     9
100
AcDbCircle
 10
-191.1568760227512
 20
75.9589084934546
 30
0.0
 40
1.500000019331236
100
AcDbArc
 50
90.0
 51
180.0
  0
ARC
  5
3B7
330
1F
100
AcDbEntity
  8
0-0
  6
Continuous
 62
     3
370
     9
100
AcDbCircle
 10
-191.1568760227512
 20
53.4589084934546
 30
0.0
 40
1.500000019331236
100
AcDbArc
 50
180.0
 51
270.0
  0
ARC
  5
3B8
330
1F
100
AcDbEntity
  8
0-0
  6
Continuous
 62
     3
370
     9
100
AcDbCircle
 10
-168.6568760227512
 20
53.4589084934546
 30
0.0
 40
1.500000019331236
100
AcDbArc
 50
270.0
 51
0.0
  0
ARC
  5
3B9
330
1F
100
AcDbEntity
  8
0-0
  6
Continuous
 62
     3
370
     9
100
AcDbCircle
 10
-168.6568760227512
 20
75.9589084934546
 30
0.0
 40
1.500000019331236
100
AcDbArc
 50
1.403289794921875
 51
90.0
  0
ARC
  5
3BA
330
1F
100
AcDbEntity
  8
0-0
  6
Continuous
 62
     3
370
     9
100
AcDbCircle
 10
-129.1568694243559
 20
75.9589084934546
 30
0.0
 40
1.500000019331236
100
AcDbArc
 50
1.403289794921875
 51
90.0
  0
ARC
  5
3BB
330
1F
100
AcDbEntity
  8
0-0
  6
Continuous
 62
     3
370
     9
100
AcDbCircle
 10
-129.1568694243559
 20
53.4589084934546
 30
0.0
 40
1.500000019331236
100
AcDbArc
 50
270.0
 51
0.0
  0
ARC
  5
3BC
330
1F
100
AcDbEntity
  8
0-0
  6
Continuous
 62
     3
370
     9
100
AcDbCircle
 10
-151.6568694243559
 20
53.4589084934546
 30
0.0
 40
1.500000019331236
100
AcDbArc
 50
180.0
 51
270.0
  0
ARC
  5
3BD
330
1F
100
AcDbEntity
  8
0-0
  6
Continuous
 62
     3
370
     9
100
AcDbCircle
 10
-151.6568694243559
 20
75.9589084934546
 30
0.0
 40
1.500000019331236
100
AcDbArc
 50
90.0
 51
180.0
  0
ARC
  5
3BE
330
1F
100
AcDbEntity
  8
0-0
  6
Continuous
 62
     3
370
     9
100
AcDbCircle
 10
-112.1569123139252
 20
75.9589084934546
 30
0.0
 40
1.500000019331236
100
AcDbArc
 50
90.0
 51
180.0
  0
ARC
  5
3BF
330
1F
100
AcDbEntity
  8
0-0
  6
Continuous
 62
     3
370
     9
100
AcDbCircle
 10
-112.1569123139252
 20
53.4589084934546
 30
0.0
 40
1.500000019331236
100
AcDbArc
 50
180.0
 51
270.0
  0
ARC
  5
3C0
330
1F
100
AcDbEntity
  8
0-0
  6
Continuous
 62
     3
370
     9
100
AcDbCircle
 10
-89.6569123139252
 20
53.4589084934546
 30
0.0
 40
1.500000019331236
100
AcDbArc
 50
270.0
 51
0.0
  0
ARC
  5
3C1
330
1F
100
AcDbEntity
  8
0-0
  6
Continuous
 62
     3
370
     9
100
AcDbCircle
 10
-89.6569123139252
 20
75.9589084934546
 30
0.0
 40
1.500000019331236
100
AcDbArc
 50
1.403289794921875
 51
90.0
  0
ARC
  5
3C2
330
1F
100
AcDbEntity
  8
0-0
  6
Continuous
 62
     3
370
     9
100
AcDbCircle
 10
-50.15690571552989
 20
75.9589084934546
 30
0.0
 40
1.500000019331236
100
AcDbArc
 50
1.403289794921875
 51
90.0
  0
ARC
  5
3C3
330
1F
100
AcDbEntity
  8
0-0
  6
Continuous
 62
     3
370
     9
100
AcDbCircle
 10
-50.15690571552989
 20
53.4589084934546
 30
0.0
 40
1.500000019331236
100
AcDbArc
 50
270.0
 51
0.0
  0
ARC
  5
3C4
330
1F
100
AcDbEntity
  8
0-0
  6
Continuous
 62
     3
370
     9
100
AcDbCircle
 10
-72.65690571552989
 20
53.4589084934546
 30
0.0
 40
1.500000019331236
100
AcDbArc
 50
180.0
 51
270.0
  0
ARC
  5
3C5
330
1F
100
AcDbEntity
  8
0-0
  6
Continuous
 62
     3
370
     9
100
AcDbCircle
 10
-72.65690571552989
 20
75.9589084934546
 30
0.0
 40
1.500000019331236
100
AcDbArc
 50
90.0
 51
180.0
  0
ARC
  5
3C6
330
1F
100
AcDbEntity
  8
0-0
  6
Continuous
 62
     3
370
     9
100
AcDbCircle
 10
-33.15694860509916
 20
75.9589084934546
 30
0.0
 40
1.500000019331236
100
AcDbArc
 50
90.0
 51
180.0
  0
ARC
  5
3C7
330
1F
100
AcDbEntity
  8
0-0
  6
Continuous
 62
     3
370
     9
100
AcDbCircle
 10
-33.15694860509916
 20
53.4589084934546
 30
0.0
 40
1.500000019331236
100
AcDbArc
 50
180.0
 51
270.0
  0
ARC
  5
3C8
330
1F
100
AcDbEntity
  8
0-0
  6
Continuous
 62
     3
370
     9
100
AcDbCircle
 10
-10.6568496291701
 20
53.4589084934546
 30
0.0
 40
1.500000019331236
100
AcDbArc
 50
270.0
 51
0.0
  0
ARC
  5
3C9
330
1F
100
AcDbEntity
  8
0-0
  6
Continuous
 62
     3
370
     9
100
AcDbCircle
 10
-10.6568496291701
 20
75.9589084934546
 30
0.0
 40
1.500000019331236
100
AcDbArc
 50
1.403289794921875
 51
90.0
  0
ARC
  5
3CA
330
1F
100
AcDbEntity
  8
0-0
  6
Continuous
 62
     3
370
     9
100
AcDbCircle
 10
-10.6568496291701
 20
115.4589150918498
 30
0.0
 40
1.500000019331236
100
AcDbArc
 50
1.403289794921875
 51
90.0
  0
ARC
  5
3CB
330
1F
100
AcDbEntity
  8
0-0
  6
Continuous
 62
     3
370
     9
100
AcDbCircle
 10
-10.6568496291701
 20
92.9589150918498
 30
0.0
 40
1.500000019331236
100
AcDbArc
 50
270.0
 51
0.0
  0
ARC
  5
3CC
330
1F
100
AcDbEntity
  8
0-0
  6
Continuous
 62
     3
370
     9
100
AcDbCircle
 10
-33.15694860509916
 20
92.9589150918498
 30
0.0
 40
1.500000019331236
100
AcDbArc
 50
180.0
 51
270.0
  0
ARC
  5
3CD
330
1F
100
AcDbEntity
  8
0-0
  6
Continuous
 62
     3
370
     9
100
AcDbCircle
 10
-33.15694860509916
 20
115.4589150918498
 30
0.0
 40
1.500000019331236
100
AcDbArc
 50
90.0
 51
180.0
  0
ARC
  5
3CE
330
1F
100
AcDbEntity
  8
0-0
  6
Continuous
 62
     3
370
     9
100
AcDbCircle
 10
-72.65690571552989
 20
115.4589150918498
 30
0.0
 40
1.500000019331236
100
AcDbArc
 50
90.0
 51
180.0
  0
ARC
  5
3CF
330
1F
100
AcDbEntity
  8
0-0
  6
Continuous
 62
     3
370
     9
100
AcDbCircle
 10
-72.65690571552989
 20
92.9589150918498
 30
0.0
 40
1.500000019331236
100
AcDbArc
 50
180.0
 51
270.0
  0
ARC
  5
3D0
330
1F
100
AcDbEntity
  8
0-0
  6
Continuous
 62
     3
370
     9
100
AcDbCircle
 10
-50.15690571552989
 20
92.9589150918498
 30
0.0
 40
1.500000019331236
100
AcDbArc
 50
270.0
 51
0.0
  0
ARC
  5
3D1
330
1F
100
AcDbEntity
  8
0-0
  6
Continuous
 62
     3
370
     9
100
AcDbCircle
 10
-50.15690571552989
 20
115.4589150918498
 30
0.0
 40
1.500000019331236
100
AcDbArc
 50
1.403289794921875
 51
90.0
  0
ARC
  5
3D2
330
1F
100
AcDbEntity
  8
0-0
  6
Continuous
 62
     3
370
     9
100
AcDbCircle
 10
-89.6569123139252
 20
115.4589150918498
 30
0.0
 40
1.500000019331236
100
AcDbArc
 50
1.403289794921875
 51
90.0
  0
ARC
  5
3D3
330
1F
100
AcDbEntity
  8
0-0
  6
Continuous
 62
     3
370
     9
100
AcDbCircle
 10
-89.6569123139252
 20
92.9589150918498
 30
0.0
 40
1.500000019331236
100
AcDbArc
 50
270.0
 51
0.0
  0
ARC
  5
3D4
330
1F
100
AcDbEntity
  8
0-0
  6
Continuous
 62
     3
370
     9
100
AcDbCircle
 10
-112.1569123139252
 20
92.9589150918498
 30
0.0
 40
1.500000019331236
100
AcDbArc
 50
180.0
 51
270.0
  0
ARC
  5
3D5
330
1F
100
AcDbEntity
  8
0-0
  6
Continuous
 62
     3
370
     9
100
AcDbCircle
 10
-112.1569123139252
 20
115.4589150918498
 30
0.0
 40
1.500000019331236
100
AcDbArc
 50
90.0
 51
180.0
  0
ARC
  5
3D6
330
1F
100
AcDbEntity
  8
0-0
  6
Continuous
 62
     3
370
     9
100
AcDbCircle
 10
-151.6568694243559
 20
115.4589150918498
 30
0.0
 40
1.500000019331236
100
AcDbArc
 50
90.0
 51
180.0
  0
ARC
  5
3D7
330
1F
100
AcDbEntity
  8
0-0
  6
Continuous
 62
     3
370
     9
100
AcDbCircle
 10
-151.6568694243559
 20
92.9589150918498
 30
0.0
 40
1.500000019331236
100
AcDbArc
 50
180.0
 51
270.0
  0
ARC
  5
3D8
330
1F
100
AcDbEntity
  8
0-0
  6
Continuous
 62
     3
370
     9
100
AcDbCircle
 10
-129.1568694243559
 20
92.9589150918498
 30
0.0
 40
1.500000019331236
100
AcDbArc
 50
270.0
 51
0.0
  0
ARC
  5
3D9
330
1F
100
AcDbEntity
  8
0-0
  6
Continuous
 62
     3
370
     9
100
AcDbCircle
 10
-129.1568694243559
 20
115.4589150918498
 30
0.0
 40
1.500000019331236
100
AcDbArc
 50
1.403289794921875
 51
90.0
  0
ARC
  5
3DA
330
1F
100
AcDbEntity
  8
0-0
  6
Continuous
 62
     3
370
     9
100
AcDbCircle
 10
-168.6568760227512
 20
115.4589150918498
 30
0.0
 40
1.500000019331236
100
AcDbArc
 50
1.403289794921875
 51
90.0
  0
ARC
  5
3DB
330
1F
100
AcDbEntity
  8
0-0
  6
Continuous
 62
     3
370
     9
100
AcDbCircle
 10
-168.6568760227512
 20
92.9589150918498
 30
0.0
 40
1.500000019331236
100
AcDbArc
 50
270.0
 51
0.0
  0
ARC
  5
3DC
330
1F
100
AcDbEntity
  8
0-0
  6
Continuous
 62
     3
370
     9
100
AcDbCircle
 10
-191.1568760227512
 20
92.9589150918498
 30
0.0
 40
1.500000019331236
100
AcDbArc
 50
180.0
 51
270.0
  0
ARC
  5
3DD
330
1F
100
AcDbEntity
  8
0-0
  6
Continuous
 62
     3
370
     9
100
AcDbCircle
 10
-191.1568760227512
 20
115.4589150918498
 30
0.0
 40
1.500000019331236
100
AcDbArc
 50
90.0
 51
180.0
  0
ARC
  5
3DE
330
1F
100
AcDbEntity
  8
0-0
  6
Continuous
 62
     3
370
     9
100
AcDbCircle
 10
-230.6568826211465
 20
115.4589150918498
 30
0.0
 40
1.500000019331236
100
AcDbArc
 50
90.0
 51
180.0
  0
ARC
  5
3DF
330
1F
100
AcDbEntity
  8
0-0
  6
Continuous
 62
     3
370
     9
100
AcDbCircle
 10
-230.6568826211465
 20
92.9589150918498
 30
0.0
 40
1.500000019331236
100
AcDbArc
 50
180.0
 51
270.0
  0
ARC
  5
3E0
330
1F
100
AcDbEntity
  8
0-0
  6
Continuous
 62
     3
370
     9
100
AcDbCircle
 10
-208.1568826211465
 20
92.9589150918498
 30
0.0
 40
1.500000019331236
100
AcDbArc
 50
270.0
 51
0.0
  0
ARC
  5
3E1
330
1F
100
AcDbEntity
  8
0-0
  6
Continuous
 62
     3
370
     9
100
AcDbCircle
 10
-208.1568826211465
 20
115.4589150918498
 30
0.0
 40
1.500000019331236
100
AcDbArc
 50
1.403289794921875
 51
90.0
  0
ARC
  5
3E2
330
1F
100
AcDbEntity
  8
0-0
  6
Continuous
 62
     3
370
     9
100
AcDbCircle
 10
-270.1568892195418
 20
115.4589150918498
 30
0.0
 40
1.500000019331236
100
AcDbArc
 50
90.0
 51
180.0
  0
ARC
  5
3E3
330
1F
100
AcDbEntity
  8
0-0
  6
Continuous
 62
     3
370
     9
100
AcDbCircle
 10
-270.1568892195418
 20
92.9589150918498
 30
0.0
 40
1.500000019331236
100
AcDbArc
 50
180.0
 51
270.0
  0
ARC
  5
3E4
330
1F
100
AcDbEntity
  8
0-0
  6
Continuous
 62
     3
370
     9
100
AcDbCircle
 10
-247.6568892195418
 20
92.9589150918498
 30
0.0
 40
1.500000019331236
100
AcDbArc
 50
270.0
 51
0.0
  0
ARC
  5
3E5
330
1F
100
AcDbEntity
  8
0-0
  6
Continuous
 62
     3
370
     9
100
AcDbCircle
 10
-247.6568892195418
 20
115.4589150918498
 30
0.0
 40
1.500000019331236
100
AcDbArc
 50
7.016464233398438
 51
90.0
  0
ARC
  5
3E6
330
1F
100
AcDbEntity
  8
0-0
  6
Continuous
 62
     3
370
     9
100
AcDbCircle
 10
-287.1568958179371
 20
115.4589150918498
 30
0.0
 40
1.500000019331236
100
AcDbArc
 50
7.016464233398438
 51
90.0
  0
ARC
  5
3E7
330
1F
100
AcDbEntity
  8
0-0
  6
Continuous
 62
     3
370
     9
100
AcDbCircle
 10
-287.1568958179371
 20
92.9589150918498
 30
0.0
 40
1.500000019331236
100
AcDbArc
 50
270.0
 51
0.0
  0
ARC
  5
3E8
330
1F
100
AcDbEntity
  8
0-0
  6
Continuous
 62
     3
370
     9
100
AcDbCircle
 10
-309.6568958179371
 20
92.9589150918498
 30
0.0
 40
1.500000019331236
100
AcDbArc
 50
180.0
 51
270.0
  0
ARC
  5
3E9
330
1F
100
AcDbEntity
  8
0-0
  6
Continuous
 62
     3
370
     9
100
AcDbCircle
 10
-309.6568958179371
 20
115.4589150918498
 30
0.0
 40
1.500000019331236
100
AcDbArc
 50
90.0
 51
180.0
  0
ARC
  5
3EA
330
1F
100
AcDbEntity
  8
0-0
  6
Continuous
 62
     3
370
     9
100
AcDbCircle
 10
-349.1569024163323
 20
115.4589150918498
 30
0.0
 40
1.500000019331236
100
AcDbArc
 50
90.0
 51
180.0
  0
ARC
  5
3EB
330
1F
100
AcDbEntity
  8
0-0
  6
Continuous
 62
     3
370
     9
100
AcDbCircle
 10
-349.1569024163323
 20
92.9589150918498
 30
0.0
 40
1.500000019331236
100
AcDbArc
 50
180.0
 51
270.0
  0
ARC
  5
3EC
330
1F
100
AcDbEntity
  8
0-0
  6
Continuous
 62
     3
370
     9
100
AcDbCircle
 10
-326.6569024163323
 20
92.9589150918498
 30
0.0
 40
1.500000019331236
100
AcDbArc
 50
270.0
 51
0.0
  0
ARC
  5
3ED
330
1F
100
AcDbEntity
  8
0-0
  6
Continuous
 62
     3
370
     9
100
AcDbCircle
 10
-326.6569024163323
 20
115.4589150918498
 30
0.0
 40
1.500000019331236
100
AcDbArc
 50
7.016464233398438
 51
90.0
  0
ARC
  5
3EE
330
1F
100
AcDbEntity
  8
0-0
  6
Continuous
 62
     3
370
     9
100
AcDbCircle
 10
-366.1569090147276
 20
115.4589150918498
 30
0.0
 40
1.500000019331236
100
AcDbArc
 50
7.016464233398438
 51
90.0
  0
ARC
  5
3EF
330
1F
100
AcDbEntity
  8
0-0
  6
Continuous
 62
     3
370
     9
100
AcDbCircle
 10
-366.1569090147276
 20
92.9589150918498
 30
0.0
 40
1.500000019331236
100
AcDbArc
 50
270.0
 51
0.0
  0
ARC
  5
3F0
330
1F
100
AcDbEntity
  8
0-0
  6
Continuous
 62
     3
370
     9
100
AcDbCircle
 10
-388.6569090147276
 20
92.9589150918498
 30
0.0
 40
1.500000019331236
100
AcDbArc
 50
180.0
 51
270.0
  0
ARC
  5
3F1
330
1F
100
AcDbEntity
  8
0-0
  6
Continuous
 62
     3
370
     9
100
AcDbCircle
 10
-388.6569090147276
 20
115.4589150918498
 30
0.0
 40
1.500000019331236
100
AcDbArc
 50
90.0
 51
180.0
  0
ARC
  5
3F2
330
1F
100
AcDbEntity
  8
0-0
  6
Continuous
 62
     3
370
     9
100
AcDbCircle
 10
-428.1569156131229
 20
115.4589150918498
 30
0.0
 40
1.500000019331236
100
AcDbArc
 50
90.0
 51
180.0
  0
ARC
  5
3F3
330
1F
100
AcDbEntity
  8
0-0
  6
Continuous
 62
     3
370
     9
100
AcDbCircle
 10
-428.1569156131229
 20
92.9589150918498
 30
0.0
 40
1.500000019331236
100
AcDbArc
 50
180.0
 51
270.0
  0
ARC
  5
3F4
330
1F
100
AcDbEntity
  8
0-0
  6
Continuous
 62
     3
370
     9
100
AcDbCircle
 10
-405.6569156131229
 20
92.9589150918498
 30
0.0
 40
1.500000019331236
100
AcDbArc
 50
270.0
 51
0.0
  0
ARC
  5
3F5
330
1F
100
AcDbEntity
  8
0-0
  6
Continuous
 62
     3
370
     9
100
AcDbCircle
 10
-405.6569156131229
 20
115.4589150918498
 30
0.0
 40
1.500000019331236
100
AcDbArc
 50
7.016464233398438
 51
90.0
  0
ARC
  5
3F6
330
1F
100
AcDbEntity
  8
0-0
  6
Continuous
 62
     3
370
     9
100
AcDbCircle
 10
-445.1569222115181
 20
115.4589150918498
 30
0.0
 40
1.500000019331236
100
AcDbArc
 50
7.016464233398438
 51
90.0
  0
ARC
  5
3F7
330
1F
100
AcDbEntity
  8
0-0
  6
Continuous
 62
     3
370
     9
100
AcDbCircle
 10
-445.1569222115181
 20
92.9589150918498
 30
0.0
 40
1.500000019331236
100
AcDbArc
 50
270.0
 51
0.0
  0
ARC
  5
3F8
330
1F
100
AcDbEntity
  8
0-0
  6
Continuous
 62
     3
370
     9
100
AcDbCircle
 10
-467.6569222115181
 20
92.9589150918498
 30
0.0
 40
1.500000019331236
100
AcDbArc
 50
180.0
 51
270.0
  0
ARC
  5
3F9
330
1F
100
AcDbEntity
  8
0-0
  6
Continuous
 62
     3
370
     9
100
AcDbCircle
 10
-467.6569222115181
 20
115.4589150918498
 30
0.0
 40
1.500000019331236
100
AcDbArc
 50
90.0
 51
180.0
  0
ARC
  5
3FA
330
1F
100
AcDbEntity
  8
0-0
  6
Continuous
 62
     3
370
     9
100
AcDbCircle
 10
-467.6569222115181
 20
75.9589084934546
 30
0.0
 40
1.500000019331236
100
AcDbArc
 50
90.0
 51
180.0
  0
ARC
  5
3FB
330
1F
100
AcDbEntity
  8
0-0
  6
Continuous
 62
     3
370
     9
100
AcDbCircle
 10
-467.6569222115181
 20
53.4589084934546
 30
0.0
 40
1.500000019331236
100
AcDbArc
 50
180.0
 51
270.0
  0
ARC
  5
3FC
330
1F
100
AcDbEntity
  8
0-0
  6
Continuous
 62
     3
370
     9
100
AcDbCircle
 10
-445.1569222115181
 20
53.4589084934546
 30
0.0
 40
1.500000019331236
100
AcDbArc
 50
270.0
 51
0.0
  0
ARC
  5
3FD
330
1F
100
AcDbEntity
  8
0-0
  6
Continuous
 62
     3
370
     9
100
AcDbCircle
 10
-445.1569222115181
 20
75.9589084934546
 30
0.0
 40
1.500000019331236
100
AcDbArc
 50
7.016464233398438
 51
90.0
  0
ARC
  5
3FE
330
1F
100
AcDbEntity
  8
0-0
  6
Continuous
 62
     3
370
     9
100
AcDbCircle
 10
-405.6569156131229
 20
75.9589084934546
 30
0.0
 40
1.500000019331236
100
AcDbArc
 50
7.016464233398438
 51
90.0
  0
ARC
  5
3FF
330
1F
100
AcDbEntity
  8
0-0
  6
Continuous
 62
     3
370
     9
100
AcDbCircle
 10
-405.6569156131229
 20
53.4589084934546
 30
0.0
 40
1.500000019331236
100
AcDbArc
 50
270.0
 51
0.0
  0
ARC
  5
400
330
1F
100
AcDbEntity
  8
0-0
  6
Continuous
 62
     3
370
     9
100
AcDbCircle
 10
-428.1569156131229
 20
53.4589084934546
 30
0.0
 40
1.500000019331236
100
AcDbArc
 50
180.0
 51
270.0
  0
ARC
  5
401
330
1F
100
AcDbEntity
  8
0-0
  6
Continuous
 62
     3
370
     9
100
AcDbCircle
 10
-428.1569156131229
 20
75.9589084934546
 30
0.0
 40
1.500000019331236
100
AcDbArc
 50
90.0
 51
180.0
  0
ARC
  5
402
330
1F
100
AcDbEntity
  8
0-0
  6
Continuous
 62
     3
370
     9
100
AcDbCircle
 10
-388.6569090147276
 20
75.9589084934546
 30
0.0
 40
1.500000019331236
100
AcDbArc
 50
90.0
 51
180.0
  0
ARC
  5
403
330
1F
100
AcDbEntity
  8
0-0
  6
Continuous
 62
     3
370
     9
100
AcDbCircle
 10
-388.6569090147276
 20
53.4589084934546
 30
0.0
 40
1.500000019331236
100
AcDbArc
 50
180.0
 51
270.0
  0
ARC
  5
404
330
1F
100
AcDbEntity
  8
0-0
  6
Continuous
 62
     3
370
     9
100
AcDbCircle
 10
-366.1569090147276
 20
53.4589084934546
 30
0.0
 40
1.500000019331236
100
AcDbArc
 50
270.0
 51
0.0
  0
ARC
  5
405
330
1F
100
AcDbEntity
  8
0-0
  6
Continuous
 62
     3
370
     9
100
AcDbCircle
 10
-366.1569090147276
 20
75.9589084934546
 30
0.0
 40
1.500000019331236
100
AcDbArc
 50
7.016464233398438
 51
90.0
  0
ARC
  5
406
330
1F
100
AcDbEntity
  8
0-0
  6
Continuous
 62
     3
370
     9
100
AcDbCircle
 10
-326.6569024163323
 20
75.9589084934546
 30
0.0
 40
1.500000019331236
100
AcDbArc
 50
7.016464233398438
 51
90.0
  0
ARC
  5
407
330
1F
100
AcDbEntity
  8
0-0
  6
Continuous
 62
     3
370
     9
100
AcDbCircle
 10
-326.6569024163323
 20
53.4589084934546
 30
0.0
 40
1.500000019331236
100
AcDbArc
 50
270.0
 51
0.0
  0
ARC
  5
408
330
1F
100
AcDbEntity
  8
0-0
  6
Continuous
 62
     3
370
     9
100
AcDbCircle
 10
-349.1569024163323
 20
53.4589084934546
 30
0.0
 40
1.500000019331236
100
AcDbArc
 50
180.0
 51
270.0
  0
ARC
  5
409
330
1F
100
AcDbEntity
  8
0-0
  6
Continuous
 62
     3
370
     9
100
AcDbCircle
 10
-349.1569024163323
 20
75.9589084934546
 30
0.0
 40
1.500000019331236
100
AcDbArc
 50
90.0
 51
180.0
  0
ARC
  5
40A
330
1F
100
AcDbEntity
  8
0-0
  6
Continuous
 62
     3
370
     9
100
AcDbCircle
 10
-309.6568958179371
 20
75.9589084934546
 30
0.0
 40
1.500000019331236
100
AcDbArc
 50
90.0
 51
180.0
  0
ARC
  5
40B
330
1F
100
AcDbEntity
  8
0-0
  6
Continuous
 62
     3
370
     9
100
AcDbCircle
 10
-309.6568958179371
 20
53.4589084934546
 30
0.0
 40
1.500000019331236
100
AcDbArc
 50
180.0
 51
270.0
  0
ARC
  5
40C
330
1F
100
AcDbEntity
  8
0-0
  6
Continuous
 62
     3
370
     9
100
AcDbCircle
 10
-287.1568958179371
 20
53.4589084934546
 30
0.0
 40
1.500000019331236
100
AcDbArc
 50
270.0
 51
0.0
  0
ARC
  5
40D
330
1F
100
AcDbEntity
  8
0-0
  6
Continuous
 62
     3
370
     9
100
AcDbCircle
 10
-287.1568958179371
 20
75.9589084934546
 30
0.0
 40
1.500000019331236
100
AcDbArc
 50
7.016464233398438
 51
90.0
  0
ARC
  5
40E
330
1F
100
AcDbEntity
  8
0-0
  6
Continuous
 62
     3
370
     9
100
AcDbCircle
 10
-247.6568892195418
 20
75.9589084934546
 30
0.0
 40
1.500000019331236
100
AcDbArc
 50
7.016464233398438
 51
90.0
  0
ARC
  5
40F
330
1F
100
AcDbEntity
  8
0-0
  6
Continuous
 62
     3
370
     9
100
AcDbCircle
 10
-247.6568892195418
 20
53.4589084934546
 30
0.0
 40
1.500000019331236
100
AcDbArc
 50
270.0
 51
0.0
  0
ARC
  5
410
330
1F
100
AcDbEntity
  8
0-0
  6
Continuous
 62
     3
370
     9
100
AcDbCircle
 10
-270.1568892195418
 20
53.4589084934546
 30
0.0
 40
1.500000019331236
100
AcDbArc
 50
180.0
 51
270.0
  0
ARC
  5
411
330
1F
100
AcDbEntity
  8
0-0
  6
Continuous
 62
     3
370
     9
100
AcDbCircle
 10
-270.1568892195418
 20
75.9589084934546
 30
0.0
 40
1.500000019331236
100
AcDbArc
 50
90.0
 51
180.0
  0
ARC
  5
412
330
1F
100
AcDbEntity
  8
0-0
  6
Continuous
 62
     3
370
     9
100
AcDbCircle
 10
-270.1568892195418
 20
36.45895138302387
 30
0.0
 40
1.500000019331236
100
AcDbArc
 50
90.0
 51
180.0
  0
ARC
  5
413
330
1F
100
AcDbEntity
  8
0-0
  6
Continuous
 62
     3
370
     9
100
AcDbCircle
 10
-270.1568892195418
 20
13.95895138302387
 30
0.0
 40
1.500000019331236
100
AcDbArc
 50
180.0
 51
270.0
  0
ARC
  5
414
330
1F
100
AcDbEntity
  8
0-0
  6
Continuous
 62
     3
370
     9
100
AcDbCircle
 10
-247.6568892195418
 20
13.95895138302387
 30
0.0
 40
1.500000019331236
100
AcDbArc
 50
270.0
 51
0.0
  0
ARC
  5
415
330
1F
100
AcDbEntity
  8
0-0
  6
Continuous
 62
     3
370
     9
100
AcDbCircle
 10
-247.6568892195418
 20
36.45895138302387
 30
0.0
 40
1.500000019331236
100
AcDbArc
 50
7.016464233398438
 51
90.0
  0
ARC
  5
416
330
1F
100
AcDbEntity
  8
0-0
  6
Continuous
 62
     3
370
     9
100
AcDbCircle
 10
-287.1568958179371
 20
36.45895138302387
 30
0.0
 40
1.500000019331236
100
AcDbArc
 50
7.016464233398438
 51
90.0
  0
ARC
  5
417
330
1F
100
AcDbEntity
  8
0-0
  6
Continuous
 62
     3
370
     9
100
AcDbCircle
 10
-287.1568958179371
 20
13.95895138302387
 30
0.0
 40
1.500000019331236
100
AcDbArc
 50
270.0
 51
0.0
  0
ARC
  5
418
330
1F
100
AcDbEntity
  8
0-0
  6
Continuous
 62
     3
370
     9
100
AcDbCircle
 10
-309.6568958179371
 20
13.95895138302387
 30
0.0
 40
1.500000019331236
100
AcDbArc
 50
180.0
 51
270.0
  0
ARC
  5
419
330
1F
100
AcDbEntity
  8
0-0
  6
Continuous
 62
     3
370
     9
100
AcDbCircle
 10
-309.6568958179371
 20
36.45895138302387
 30
0.0
 40
1.500000019331236
100
AcDbArc
 50
90.0
 51
180.0
  0
ARC
  5
41A
330
1F
100
AcDbEntity
  8
0-0
  6
Continuous
 62
     3
370
     9
100
AcDbCircle
 10
-349.1569024163323
 20
36.45895138302387
 30
0.0
 40
1.500000019331236
100
AcDbArc
 50
90.0
 51
180.0
  0
ARC
  5
41B
330
1F
100
AcDbEntity
  8
0-0
  6
Continuous
 62
     3
370
     9
100
AcDbCircle
 10
-349.1569024163323
 20
13.95895138302387
 30
0.0
 40
1.500000019331236
100
AcDbArc
 50
180.0
 51
270.0
  0
ARC
  5
41C
330
1F
100
AcDbEntity
  8
0-0
  6
Continuous
 62
     3
370
     9
100
AcDbCircle
 10
-326.6569024163323
 20
13.95895138302387
 30
0.0
 40
1.500000019331236
100
AcDbArc
 50
270.0
 51
0.0
  0
ARC
  5
41D
330
1F
100
AcDbEntity
  8
0-0
  6
Continuous
 62
     3
370
     9
100
AcDbCircle
 10
-326.6569024163323
 20
36.45895138302387
 30
0.0
 40
1.500000019331236
100
AcDbArc
 50
7.016464233398438
 51
90.0
  0
ARC
  5
41E
330
1F
100
AcDbEntity
  8
0-0
  6
Continuous
 62
     3
370
     9
100
AcDbCircle
 10
-366.1569090147276
 20
36.45895138302387
 30
0.0
 40
1.500000019331236
100
AcDbArc
 50
7.016464233398438
 51
90.0
  0
ARC
  5
41F
330
1F
100
AcDbEntity
  8
0-0
  6
Continuous
 62
     3
370
     9
100
AcDbCircle
 10
-366.1569090147276
 20
13.95895138302387
 30
0.0
 40
1.500000019331236
100
AcDbArc
 50
270.0
 51
0.0
  0
ARC
  5
420
330
1F
100
AcDbEntity
  8
0-0
  6
Continuous
 62
     3
370
     9
100
AcDbCircle
 10
-388.6569090147276
 20
13.95895138302387
 30
0.0
 40
1.500000019331236
100
AcDbArc
 50
180.0
 51
270.0
  0
ARC
  5
421
330
1F
100
AcDbEntity
  8
0-0
  6
Continuous
 62
     3
370
     9
100
AcDbCircle
 10
-388.6569090147276
 20
36.45895138302387
 30
0.0
 40
1.500000019331236
100
AcDbArc
 50
90.0
 51
180.0
  0
ARC
  5
422
330
1F
100
AcDbEntity
  8
0-0
  6
Continuous
 62
     3
370
     9
100
AcDbCircle
 10
-428.1569156131229
 20
36.45895138302387
 30
0.0
 40
1.500000019331236
100
AcDbArc
 50
90.0
 51
180.0
  0
ARC
  5
423
330
1F
100
AcDbEntity
  8
0-0
  6
Continuous
 62
     3
370
     9
100
AcDbCircle
 10
-428.1569156131229
 20
13.95895138302387
 30
0.0
 40
1.500000019331236
100
AcDbArc
 50
180.0
 51
270.0
  0
ARC
  5
424
330
1F
100
AcDbEntity
  8
0-0
  6
Continuous
 62
     3
370
     9
100
AcDbCircle
 10
-405.6569156131229
 20
13.95895138302387
 30
0.0
 40
1.500000019331236
100
AcDbArc
 50
270.0
 51
0.0
  0
ARC
  5
425
330
1F
100
AcDbEntity
  8
0-0
  6
Continuous
 62
     3
370
     9
100
AcDbCircle
 10
-405.6569156131229
 20
36.45895138302387
 30
0.0
 40
1.500000019331236
100
AcDbArc
 50
7.016464233398438
 51
90.0
  0
ARC
  5
426
330
1F
100
AcDbEntity
  8
0-0
  6
Continuous
 62
     3
370
     9
100
AcDbCircle
 10
-445.1569222115181
 20
36.45895138302387
 30
0.0
 40
1.500000019331236
100
AcDbArc
 50
7.016464233398438
 51
90.0
  0
ARC
  5
427
330
1F
100
AcDbEntity
  8
0-0
  6
Continuous
 62
     3
370
     9
100
AcDbCircle
 10
-445.1569222115181
 20
13.95895138302387
 30
0.0
 40
1.500000019331236
100
AcDbArc
 50
270.0
 51
0.0
  0
ARC
  5
428
330
1F
100
AcDbEntity
  8
0-0
  6
Continuous
 62
     3
370
     9
100
AcDbCircle
 10
-467.6569222115181
 20
13.95895138302387
 30
0.0
 40
1.500000019331236
100
AcDbArc
 50
180.0
 51
270.0
  0
ARC
  5
429
330
1F
100
AcDbEntity
  8
0-0
  6
Continuous
 62
     3
370
     9
100
AcDbCircle
 10
-467.6569222115181
 20
36.45895138302387
 30
0.0
 40
1.500000019331236
100
AcDbArc
 50
90.0
 51
180.0
  0
ARC
  5
42A
330
1F
100
AcDbEntity
  8
0-0
  6
Continuous
 62
     3
370
     9
100
AcDbCircle
 10
-467.6569222115181
 20
-3.041055215371443
 30
0.0
 40
1.500000019331236
100
AcDbArc
 50
90.0
 51
180.0
  0
ARC
  5
42B
330
1F
100
AcDbEntity
  8
0-0
  6
Continuous
 62
     3
370
     9
100
AcDbCircle
 10
-467.6569222115181
 20
-25.54105521537144
 30
0.0
 40
1.500000019331236
100
AcDbArc
 50
180.0
 51
270.0
  0
ARC
  5
42C
330
1F
100
AcDbEntity
  8
0-0
  6
Continuous
 62
     3
370
     9
100
AcDbCircle
 10
-445.1569222115181
 20
-25.54105521537144
 30
0.0
 40
1.500000019331236
100
AcDbArc
 50
270.0
 51
0.0
  0
ARC
  5
42D
330
1F
100
AcDbEntity
  8
0-0
  6
Continuous
 62
     3
370
     9
100
AcDbCircle
 10
-445.1569222115181
 20
-3.041055215371443
 30
0.0
 40
1.500000019331236
100
AcDbArc
 50
7.016464233398438
 51
90.0
  0
ARC
  5
42E
330
1F
100
AcDbEntity
  8
0-0
  6
Continuous
 62
     3
370
     9
100
AcDbCircle
 10
-405.6569156131229
 20
-3.041055215371443
 30
0.0
 40
1.500000019331236
100
AcDbArc
 50
7.016464233398438
 51
90.0
  0
ARC
  5
42F
330
1F
100
AcDbEntity
  8
0-0
  6
Continuous
 62
     3
370
     9
100
AcDbCircle
 10
-405.6569156131229
 20
-25.54105521537144
 30
0.0
 40
1.500000019331236
100
AcDbArc
 50
270.0
 51
0.0
  0
ARC
  5
430
330
1F
100
AcDbEntity
  8
0-0
  6
Continuous
 62
     3
370
     9
100
AcDbCircle
 10
-428.1569156131229
 20
-25.54105521537144
 30
0.0
 40
1.500000019331236
100
AcDbArc
 50
180.0
 51
270.0
  0
ARC
  5
431
330
1F
100
AcDbEntity
  8
0-0
  6
Continuous
 62
     3
370
     9
100
AcDbCircle
 10
-428.1569156131229
 20
-3.041055215371443
 30
0.0
 40
1.500000019331236
100
AcDbArc
 50
90.0
 51
180.0
  0
ARC
  5
432
330
1F
100
AcDbEntity
  8
0-0
  6
Continuous
 62
     3
370
     9
100
AcDbCircle
 10
-388.6569090147276
 20
-3.041055215371443
 30
0.0
 40
1.500000019331236
100
AcDbArc
 50
90.0
 51
180.0
  0
ARC
  5
433
330
1F
100
AcDbEntity
  8
0-0
  6
Continuous
 62
     3
370
     9
100
AcDbCircle
 10
-388.6569090147276
 20
-25.54105521537144
 30
0.0
 40
1.500000019331236
100
AcDbArc
 50
180.0
 51
270.0
  0
ARC
  5
434
330
1F
100
AcDbEntity
  8
0-0
  6
Continuous
 62
     3
370
     9
100
AcDbCircle
 10
-366.1569090147276
 20
-25.54105521537144
 30
0.0
 40
1.500000019331236
100
AcDbArc
 50
270.0
 51
0.0
  0
ARC
  5
435
330
1F
100
AcDbEntity
  8
0-0
  6
Continuous
 62
     3
370
     9
100
AcDbCircle
 10
-366.1569090147276
 20
-3.041055215371443
 30
0.0
 40
1.500000019331236
100
AcDbArc
 50
7.016464233398438
 51
90.0
  0
ARC
  5
436
330
1F
100
AcDbEntity
  8
0-0
  6
Continuous
 62
     3
370
     9
100
AcDbCircle
 10
-326.6569024163323
 20
-3.041055215371443
 30
0.0
 40
1.500000019331236
100
AcDbArc
 50
7.016464233398438
 51
90.0
  0
ARC
  5
437
330
1F
100
AcDbEntity
  8
0-0
  6
Continuous
 62
     3
370
     9
100
AcDbCircle
 10
-326.6569024163323
 20
-25.54105521537144
 30
0.0
 40
1.500000019331236
100
AcDbArc
 50
270.0
 51
0.0
  0
ARC
  5
438
330
1F
100
AcDbEntity
  8
0-0
  6
Continuous
 62
     3
370
     9
100
AcDbCircle
 10
-349.1569024163323
 20
-25.54105521537144
 30
0.0
 40
1.500000019331236
100
AcDbArc
 50
180.0
 51
270.0
  0
ARC
  5
439
330
1F
100
AcDbEntity
  8
0-0
  6
Continuous
 62
     3
370
     9
100
AcDbCircle
 10
-349.1569024163323
 20
-3.041055215371443
 30
0.0
 40
1.500000019331236
100
AcDbArc
 50
90.0
 51
180.0
  0
ARC
  5
43A
330
1F
100
AcDbEntity
  8
0-0
  6
Continuous
 62
     3
370
     9
100
AcDbCircle
 10
-309.6568958179371
 20
-3.041055215371443
 30
0.0
 40
1.500000019331236
100
AcDbArc
 50
90.0
 51
180.0
  0
ARC
  5
43B
330
1F
100
AcDbEntity
  8
0-0
  6
Continuous
 62
     3
370
     9
100
AcDbCircle
 10
-309.6568958179371
 20
-25.54105521537144
 30
0.0
 40
1.500000019331236
100
AcDbArc
 50
180.0
 51
270.0
  0
ARC
  5
43C
330
1F
100
AcDbEntity
  8
0-0
  6
Continuous
 62
     3
370
     9
100
AcDbCircle
 10
-287.1568958179371
 20
-25.54105521537144
 30
0.0
 40
1.500000019331236
100
AcDbArc
 50
270.0
 51
0.0
  0
ARC
  5
43D
330
1F
100
AcDbEntity
  8
0-0
  6
Continuous
 62
     3
370
     9
100
AcDbCircle
 10
-287.1568958179371
 20
-3.041055215371443
 30
0.0
 40
1.500000019331236
100
AcDbArc
 50
7.016464233398438
 51
90.0
  0
ARC
  5
43E
330
1F
100
AcDbEntity
  8
0-0
  6
Continuous
 62
     3
370
     9
100
AcDbCircle
 10
-247.6568892195418
 20
-3.041055215371443
 30
0.0
 40
1.500000019331236
100
AcDbArc
 50
7.016464233398438
 51
90.0
  0
ARC
  5
43F
330
1F
100
AcDbEntity
  8
0-0
  6
Continuous
 62
     3
370
     9
100
AcDbCircle
 10
-247.6568892195418
 20
-25.54105521537144
 30
0.0
 40
1.500000019331236
100
AcDbArc
 50
270.0
 51
0.0
  0
ARC
  5
440
330
1F
100
AcDbEntity
  8
0-0
  6
Continuous
 62
     3
370
     9
100
AcDbCircle
 10
-270.1568892195418
 20
-25.54105521537144
 30
0.0
 40
1.500000019331236
100
AcDbArc
 50
180.0
 51
270.0
  0
ARC
  5
441
330
1F
100
AcDbEntity
  8
0-0
  6
Continuous
 62
     3
370
     9
100
AcDbCircle
 10
-270.1568892195418
 20
-3.041055215371443
 30
0.0
 40
1.500000019331236
100
AcDbArc
 50
90.0
 51
180.0
  0
ARC
  5
442
330
1F
100
AcDbEntity
  8
0-0
  6
Continuous
 62
     3
370
     9
100
AcDbCircle
 10
-270.1568892195418
 20
-42.54106181376676
 30
0.0
 40
1.500000019331236
100
AcDbArc
 50
90.0
 51
180.0
  0
ARC
  5
443
330
1F
100
AcDbEntity
  8
0-0
  6
Continuous
 62
     3
370
     9
100
AcDbCircle
 10
-270.1568892195418
 20
-65.04106181376665
 30
0.0
 40
1.500000019331236
100
AcDbArc
 50
180.0
 51
270.0
  0
ARC
  5
444
330
1F
100
AcDbEntity
  8
0-0
  6
Continuous
 62
     3
370
     9
100
AcDbCircle
 10
-247.6568892195418
 20
-65.04106181376665
 30
0.0
 40
1.500000019331236
100
AcDbArc
 50
270.0
 51
0.0
  0
ARC
  5
445
330
1F
100
AcDbEntity
  8
0-0
  6
Continuous
 62
     3
370
     9
100
AcDbCircle
 10
-247.6568892195418
 20
-42.54106181376676
 30
0.0
 40
1.500000019331236
100
AcDbArc
 50
7.016464233398438
 51
90.0
  0
ARC
  5
446
330
1F
100
AcDbEntity
  8
0-0
  6
Continuous
 62
     3
370
     9
100
AcDbCircle
 10
-287.1568958179371
 20
-42.54106181376676
 30
0.0
 40
1.500000019331236
100
AcDbArc
 50
7.016464233398438
 51
90.0
  0
ARC
  5
447
330
1F
100
AcDbEntity
  8
0-0
  6
Continuous
 62
     3
370
     9
100
AcDbCircle
 10
-287.1568958179371
 20
-65.04106181376665
 30
0.0
 40
1.500000019331236
100
AcDbArc
 50
270.0
 51
0.0
  0
ARC
  5
448
330
1F
100
AcDbEntity
  8
0-0
  6
Continuous
 62
     3
370
     9
100
AcDbCircle
 10
-309.6568958179371
 20
-65.04106181376665
 30
0.0
 40
1.500000019331236
100
AcDbArc
 50
180.0
 51
270.0
  0
ARC
  5
449
330
1F
100
AcDbEntity
  8
0-0
  6
Continuous
 62
     3
370
     9
100
AcDbCircle
 10
-309.6568958179371
 20
-42.54106181376676
 30
0.0
 40
1.500000019331236
100
AcDbArc
 50
90.0
 51
180.0
  0
ARC
  5
44A
330
1F
100
AcDbEntity
  8
0-0
  6
Continuous
 62
     3
370
     9
100
AcDbCircle
 10
-349.1569024163323
 20
-42.54106181376676
 30
0.0
 40
1.500000019331236
100
AcDbArc
 50
90.0
 51
180.0
  0
ARC
  5
44B
330
1F
100
AcDbEntity
  8
0-0
  6
Continuous
 62
     3
370
     9
100
AcDbCircle
 10
-349.1569024163323
 20
-65.04106181376665
 30
0.0
 40
1.500000019331236
100
AcDbArc
 50
180.0
 51
270.0
  0
ARC
  5
44C
330
1F
100
AcDbEntity
  8
0-0
  6
Continuous
 62
     3
370
     9
100
AcDbCircle
 10
-326.6569024163323
 20
-65.04106181376665
 30
0.0
 40
1.500000019331236
100
AcDbArc
 50
270.0
 51
0.0
  0
ARC
  5
44D
330
1F
100
AcDbEntity
  8
0-0
  6
Continuous
 62
     3
370
     9
100
AcDbCircle
 10
-326.6569024163323
 20
-42.54106181376676
 30
0.0
 40
1.500000019331236
100
AcDbArc
 50
7.016464233398438
 51
90.0
  0
ARC
  5
44E
330
1F
100
AcDbEntity
  8
0-0
  6
Continuous
 62
     3
370
     9
100
AcDbCircle
 10
-366.1569090147276
 20
-42.54106181376676
 30
0.0
 40
1.500000019331236
100
AcDbArc
 50
7.016464233398438
 51
90.0
  0
ARC
  5
44F
330
1F
100
AcDbEntity
  8
0-0
  6
Continuous
 62
     3
370
     9
100
AcDbCircle
 10
-366.1569090147276
 20
-65.04106181376665
 30
0.0
 40
1.500000019331236
100
AcDbArc
 50
270.0
 51
0.0
  0
ARC
  5
450
330
1F
100
AcDbEntity
  8
0-0
  6
Continuous
 62
     3
370
     9
100
AcDbCircle
 10
-388.6569090147276
 20
-65.04106181376665
 30
0.0
 40
1.500000019331236
100
AcDbArc
 50
180.0
 51
270.0
  0
ARC
  5
451
330
1F
100
AcDbEntity
  8
0-0
  6
Continuous
 62
     3
370
     9
100
AcDbCircle
 10
-388.6569090147276
 20
-42.54106181376676
 30
0.0
 40
1.500000019331236
100
AcDbArc
 50
90.0
 51
180.0
  0
ARC
  5
452
330
1F
100
AcDbEntity
  8
0-0
  6
Continuous
 62
     3
370
     9
100
AcDbCircle
 10
-428.1569156131229
 20
-42.54106181376676
 30
0.0
 40
1.500000019331236
100
AcDbArc
 50
90.0
 51
180.0
  0
ARC
  5
453
330
1F
100
AcDbEntity
  8
0-0
  6
Continuous
 62
     3
370
     9
100
AcDbCircle
 10
-428.1569156131229
 20
-65.04106181376665
 30
0.0
 40
1.500000019331236
100
AcDbArc
 50
180.0
 51
270.0
  0
ARC
  5
454
330
1F
100
AcDbEntity
  8
0-0
  6
Continuous
 62
     3
370
     9
100
AcDbCircle
 10
-405.6569156131229
 20
-65.04106181376665
 30
0.0
 40
1.500000019331236
100
AcDbArc
 50
270.0
 51
0.0
  0
ARC
  5
455
330
1F
100
AcDbEntity
  8
0-0
  6
Continuous
 62
     3
370
     9
100
AcDbCircle
 10
-405.6569156131229
 20
-42.54106181376676
 30
0.0
 40
1.500000019331236
100
AcDbArc
 50
7.016464233398438
 51
90.0
  0
ARC
  5
456
330
1F
100
AcDbEntity
  8
0-0
  6
Continuous
 62
     3
370
     9
100
AcDbCircle
 10
-445.1569222115181
 20
-42.54106181376676
 30
0.0
 40
1.500000019331236
100
AcDbArc
 50
7.016464233398438
 51
90.0
  0
ARC
  5
457
330
1F
100
AcDbEntity
  8
0-0
  6
Continuous
 62
     3
370
     9
100
AcDbCircle
 10
-445.1569222115181
 20
-65.04106181376665
 30
0.0
 40
1.500000019331236
100
AcDbArc
 50
270.0
 51
0.0
  0
ARC
  5
458
330
1F
100
AcDbEntity
  8
0-0
  6
Continuous
 62
     3
370
     9
100
AcDbCircle
 10
-467.6569222115181
 20
-65.04106181376665
 30
0.0
 40
1.500000019331236
100
AcDbArc
 50
180.0
 51
270.0
  0
ARC
  5
459
330
1F
100
AcDbEntity
  8
0-0
  6
Continuous
 62
     3
370
     9
100
AcDbCircle
 10
-467.6569222115181
 20
-42.54106181376676
 30
0.0
 40
1.500000019331236
100
AcDbArc
 50
90.0
 51
180.0
  0
ARC
  5
45A
330
1F
100
AcDbEntity
  8
0-0
  6
Continuous
 62
     3
370
     9
100
AcDbCircle
 10
-467.6569222115181
 20
-82.04106841216208
 30
0.0
 40
1.500000019331236
100
AcDbArc
 50
90.0
 51
180.0
  0
ARC
  5
45B
330
1F
100
AcDbEntity
  8
0-0
  6
Continuous
 62
     3
370
     9
100
AcDbCircle
 10
-467.6569222115181
 20
-104.5410684121621
 30
0.0
 40
1.500000019331236
100
AcDbArc
 50
180.0
 51
270.0
  0
ARC
  5
45C
330
1F
100
AcDbEntity
  8
0-0
  6
Continuous
 62
     3
370
     9
100
AcDbCircle
 10
-445.1569222115181
 20
-104.5410684121621
 30
0.0
 40
1.500000019331236
100
AcDbArc
 50
270.0
 51
0.0
  0
ARC
  5
45D
330
1F
100
AcDbEntity
  8
0-0
  6
Continuous
 62
     3
370
     9
100
AcDbCircle
 10
-445.1569222115181
 20
-82.04106841216208
 30
0.0
 40
1.500000019331236
100
AcDbArc
 50
7.016464233398438
 51
90.0
  0
ARC
  5
45E
330
1F
100
AcDbEntity
  8
0-0
  6
Continuous
 62
     3
370
     9
100
AcDbCircle
 10
-405.6569156131229
 20
-82.04106841216208
 30
0.0
 40
1.500000019331236
100
AcDbArc
 50
7.016464233398438
 51
90.0
  0
ARC
  5
45F
330
1F
100
AcDbEntity
  8
0-0
  6
Continuous
 62
     3
370
     9
100
AcDbCircle
 10
-405.6569156131229
 20
-104.5410684121621
 30
0.0
 40
1.500000019331236
100
AcDbArc
 50
270.0
 51
0.0
  0
ARC
  5
460
330
1F
100
AcDbEntity
  8
0-0
  6
Continuous
 62
     3
370
     9
100
AcDbCircle
 10
-428.1569156131229
 20
-104.5410684121621
 30
0.0
 40
1.500000019331236
100
AcDbArc
 50
180.0
 51
270.0
  0
ARC
  5
461
330
1F
100
AcDbEntity
  8
0-0
  6
Continuous
 62
     3
370
     9
100
AcDbCircle
 10
-428.1569156131229
 20
-82.04106841216208
 30
0.0
 40
1.500000019331236
100
AcDbArc
 50
90.0
 51
180.0
  0
ARC
  5
462
330
1F
100
AcDbEntity
  8
0-0
  6
Continuous
 62
     3
370
     9
100
AcDbCircle
 10
-388.6569090147276
 20
-82.04106841216208
 30
0.0
 40
1.500000019331236
100
AcDbArc
 50
90.0
 51
180.0
  0
ARC
  5
463
330
1F
100
AcDbEntity
  8
0-0
  6
Continuous
 62
     3
370
     9
100
AcDbCircle
 10
-388.6569090147276
 20
-104.5410684121621
 30
0.0
 40
1.500000019331236
100
AcDbArc
 50
180.0
 51
270.0
  0
ARC
  5
464
330
1F
100
AcDbEntity
  8
0-0
  6
Continuous
 62
     3
370
     9
100
AcDbCircle
 10
-366.1569090147276
 20
-104.5410684121621
 30
0.0
 40
1.500000019331236
100
AcDbArc
 50
270.0
 51
0.0
  0
ARC
  5
465
330
1F
100
AcDbEntity
  8
0-0
  6
Continuous
 62
     3
370
     9
100
AcDbCircle
 10
-366.1569090147276
 20
-82.04106841216208
 30
0.0
 40
1.500000019331236
100
AcDbArc
 50
7.016464233398438
 51
90.0
  0
ARC
  5
466
330
1F
100
AcDbEntity
  8
0-0
  6
Continuous
 62
     3
370
     9
100
AcDbCircle
 10
-326.6569024163323
 20
-82.04106841216208
 30
0.0
 40
1.500000019331236
100
AcDbArc
 50
7.016464233398438
 51
90.0
  0
ARC
  5
467
330
1F
100
AcDbEntity
  8
0-0
  6
Continuous
 62
     3
370
     9
100
AcDbCircle
 10
-326.6569024163323
 20
-104.5410684121621
 30
0.0
 40
1.500000019331236
100
AcDbArc
 50
270.0
 51
0.0
  0
ARC
  5
468
330
1F
100
AcDbEntity
  8
0-0
  6
Continuous
 62
     3
370
     9
100
AcDbCircle
 10
-349.1569024163323
 20
-104.5410684121621
 30
0.0
 40
1.500000019331236
100
AcDbArc
 50
180.0
 51
270.0
  0
ARC
  5
469
330
1F
100
AcDbEntity
  8
0-0
  6
Continuous
 62
     3
370
     9
100
AcDbCircle
 10
-349.1569024163323
 20
-82.04106841216208
 30
0.0
 40
1.500000019331236
100
AcDbArc
 50
90.0
 51
180.0
  0
ARC
  5
46A
330
1F
100
AcDbEntity
  8
0-0
  6
Continuous
 62
     3
370
     9
100
AcDbCircle
 10
-309.6568958179371
 20
-82.04106841216208
 30
0.0
 40
1.500000019331236
100
AcDbArc
 50
90.0
 51
180.0
  0
ARC
  5
46B
330
1F
100
AcDbEntity
  8
0-0
  6
Continuous
 62
     3
370
     9
100
AcDbCircle
 10
-309.6568958179371
 20
-104.5410684121621
 30
0.0
 40
1.500000019331236
100
AcDbArc
 50
180.0
 51
270.0
  0
ARC
  5
46C
330
1F
100
AcDbEntity
  8
0-0
  6
Continuous
 62
     3
370
     9
100
AcDbCircle
 10
-287.1568958179371
 20
-104.5410684121621
 30
0.0
 40
1.500000019331236
100
AcDbArc
 50
270.0
 51
0.0
  0
ARC
  5
46D
330
1F
100
AcDbEntity
  8
0-0
  6
Continuous
 62
     3
370
     9
100
AcDbCircle
 10
-287.1568958179371
 20
-82.04106841216208
 30
0.0
 40
1.500000019331236
100
AcDbArc
 50
7.016464233398438
 51
90.0
  0
ARC
  5
46E
330
1F
100
AcDbEntity
  8
0-0
  6
Continuous
 62
     3
370
     9
100
AcDbCircle
 10
-247.6568892195418
 20
-82.04106841216208
 30
0.0
 40
1.500000019331236
100
AcDbArc
 50
7.016464233398438
 51
90.0
  0
ARC
  5
46F
330
1F
100
AcDbEntity
  8
0-0
  6
Continuous
 62
     3
370
     9
100
AcDbCircle
 10
-247.6568892195418
 20
-104.5410684121621
 30
0.0
 40
1.500000019331236
100
AcDbArc
 50
270.0
 51
0.0
  0
ARC
  5
470
330
1F
100
AcDbEntity
  8
0-0
  6
Continuous
 62
     3
370
     9
100
AcDbCircle
 10
-270.1568892195418
 20
-104.5410684121621
 30
0.0
 40
1.500000019331236
100
AcDbArc
 50
180.0
 51
270.0
  0
ARC
  5
471
330
1F
100
AcDbEntity
  8
0-0
  6
Continuous
 62
     3
370
     9
100
AcDbCircle
 10
-270.1568892195418
 20
-82.04106841216208
 30
0.0
 40
1.500000019331236
100
AcDbArc
 50
90.0
 51
180.0
  0
ARC
  5
472
330
1F
100
AcDbEntity
  8
0-0
  6
Continuous
 62
     3
370
     9
100
AcDbCircle
 10
-270.1568892195418
 20
329.9590041701859
 30
0.0
 40
1.500000019331236
100
AcDbArc
 50
180.0
 51
270.0
  0
ARC
  5
473
330
1F
100
AcDbEntity
  8
0-0
  6
Continuous
 62
     3
370
     9
100
AcDbCircle
 10
-270.1568892195418
 20
352.4590041701859
 30
0.0
 40
1.500000019331236
100
AcDbArc
 50
90.0
 51
180.0
  0
ARC
  5
474
330
1F
100
AcDbEntity
  8
0-0
  6
Continuous
 62
     3
370
     9
100
AcDbCircle
 10
-247.6568892195418
 20
352.4590041701859
 30
0.0
 40
1.500000019331236
100
AcDbArc
 50
1.403289794921875
 51
90.0
  0
ARC
  5
475
330
1F
100
AcDbEntity
  8
0-0
  6
Continuous
 62
     3
370
     9
100
AcDbCircle
 10
-247.6568892195418
 20
329.9590041701859
 30
0.0
 40
1.500000019331236
100
AcDbArc
 50
270.0
 51
0.0
  0
ARC
  5
476
330
1F
100
AcDbEntity
  8
0-0
  6
Continuous
 62
     3
370
     9
100
AcDbCircle
 10
-287.1568958179371
 20
329.9590041701859
 30
0.0
 40
1.500000019331236
100
AcDbArc
 50
270.0
 51
0.0
  0
ARC
  5
477
330
1F
100
AcDbEntity
  8
0-0
  6
Continuous
 62
     3
370
     9
100
AcDbCircle
 10
-287.1568958179371
 20
352.4590041701859
 30
0.0
 40
1.500000019331236
100
AcDbArc
 50
1.403289794921875
 51
90.0
  0
ARC
  5
478
330
1F
100
AcDbEntity
  8
0-0
  6
Continuous
 62
     3
370
     9
100
AcDbCircle
 10
-309.6568958179371
 20
352.4590041701859
 30
0.0
 40
1.500000019331236
100
AcDbArc
 50
90.0
 51
180.0
  0
ARC
  5
479
330
1F
100
AcDbEntity
  8
0-0
  6
Continuous
 62
     3
370
     9
100
AcDbCircle
 10
-309.6568958179371
 20
329.9590041701859
 30
0.0
 40
1.500000019331236
100
AcDbArc
 50
180.0
 51
270.0
  0
ARC
  5
47A
330
1F
100
AcDbEntity
  8
0-0
  6
Continuous
 62
     3
370
     9
100
AcDbCircle
 10
-349.1569024163323
 20
329.9590041701859
 30
0.0
 40
1.500000019331236
100
AcDbArc
 50
180.0
 51
270.0
  0
ARC
  5
47B
330
1F
100
AcDbEntity
  8
0-0
  6
Continuous
 62
     3
370
     9
100
AcDbCircle
 10
-349.1569024163323
 20
352.4590041701859
 30
0.0
 40
1.500000019331236
100
AcDbArc
 50
90.0
 51
180.0
  0
ARC
  5
47C
330
1F
100
AcDbEntity
  8
0-0
  6
Continuous
 62
     3
370
     9
100
AcDbCircle
 10
-326.6569024163323
 20
352.4590041701859
 30
0.0
 40
1.500000019331236
100
AcDbArc
 50
1.403289794921875
 51
90.0
  0
ARC
  5
47D
330
1F
100
AcDbEntity
  8
0-0
  6
Continuous
 62
     3
370
     9
100
AcDbCircle
 10
-326.6569024163323
 20
329.9590041701859
 30
0.0
 40
1.500000019331236
100
AcDbArc
 50
270.0
 51
0.0
  0
ARC
  5
47E
330
1F
100
AcDbEntity
  8
0-0
  6
Continuous
 62
     3
370
     9
100
AcDbCircle
 10
-366.1569090147276
 20
329.9590041701859
 30
0.0
 40
1.500000019331236
100
AcDbArc
 50
270.0
 51
0.0
  0
ARC
  5
47F
330
1F
100
AcDbEntity
  8
0-0
  6
Continuous
 62
     3
370
     9
100
AcDbCircle
 10
-366.1569090147276
 20
352.4590041701859
 30
0.0
 40
1.500000019331236
100
AcDbArc
 50
1.403289794921875
 51
90.0
  0
ARC
  5
480
330
1F
100
AcDbEntity
  8
0-0
  6
Continuous
 62
     3
370
     9
100
AcDbCircle
 10
-388.6569090147276
 20
352.4590041701859
 30
0.0
 40
1.500000019331236
100
AcDbArc
 50
90.0
 51
180.0
  0
ARC
  5
481
330
1F
100
AcDbEntity
  8
0-0
  6
Continuous
 62
     3
370
     9
100
AcDbCircle
 10
-388.6569090147276
 20
329.9590041701859
 30
0.0
 40
1.500000019331236
100
AcDbArc
 50
180.0
 51
270.0
  0
ARC
  5
482
330
1F
100
AcDbEntity
  8
0-0
  6
Continuous
 62
     3
370
     9
100
AcDbCircle
 10
-428.1569156131229
 20
329.9590041701859
 30
0.0
 40
1.500000019331236
100
AcDbArc
 50
180.0
 51
270.0
  0
ARC
  5
483
330
1F
100
AcDbEntity
  8
0-0
  6
Continuous
 62
     3
370
     9
100
AcDbCircle
 10
-428.1569156131229
 20
352.4590041701859
 30
0.0
 40
1.500000019331236
100
AcDbArc
 50
90.0
 51
180.0
  0
ARC
  5
484
330
1F
100
AcDbEntity
  8
0-0
  6
Continuous
 62
     3
370
     9
100
AcDbCircle
 10
-405.6569156131229
 20
352.4590041701859
 30
0.0
 40
1.500000019331236
100
AcDbArc
 50
1.403289794921875
 51
90.0
  0
ARC
  5
485
330
1F
100
AcDbEntity
  8
0-0
  6
Continuous
 62
     3
370
     9
100
AcDbCircle
 10
-405.6569156131229
 20
329.9590041701859
 30
0.0
 40
1.500000019331236
100
AcDbArc
 50
270.0
 51
0.0
  0
ARC
  5
486
330
1F
100
AcDbEntity
  8
0-0
  6
Continuous
 62
     3
370
     9
100
AcDbCircle
 10
-445.1569222115181
 20
329.9590041701859
 30
0.0
 40
1.500000019331236
100
AcDbArc
 50
270.0
 51
0.0
  0
ARC
  5
487
330
1F
100
AcDbEntity
  8
0-0
  6
Continuous
 62
     3
370
     9
100
AcDbCircle
 10
-445.1569222115181
 20
352.4590041701859
 30
0.0
 40
1.500000019331236
100
AcDbArc
 50
1.403289794921875
 51
90.0
  0
ARC
  5
488
330
1F
100
AcDbEntity
  8
0-0
  6
Continuous
 62
     3
370
     9
100
AcDbCircle
 10
-467.6569222115181
 20
352.4590041701859
 30
0.0
 40
1.500000019331236
100
AcDbArc
 50
90.0
 51
180.0
  0
ARC
  5
489
330
1F
100
AcDbEntity
  8
0-0
  6
Continuous
 62
     3
370
     9
100
AcDbCircle
 10
-467.6569222115181
 20
329.9590041701859
 30
0.0
 40
1.500000019331236
100
AcDbArc
 50
180.0
 51
270.0
  0
ARC
  5
48A
330
1F
100
AcDbEntity
  8
0-0
  6
Continuous
 62
     3
370
     9
100
AcDbCircle
 10
-467.6569222115181
 20
290.4588985958617
 30
0.0
 40
1.500000019331236
100
AcDbArc
 50
180.0
 51
270.0
  0
ARC
  5
48B
330
1F
100
AcDbEntity
  8
0-0
  6
Continuous
 62
     3
370
     9
100
AcDbCircle
 10
-467.6569222115181
 20
312.9588985958617
 30
0.0
 40
1.500000019331236
100
AcDbArc
 50
90.0
 51
180.0
  0
ARC
  5
48C
330
1F
100
AcDbEntity
  8
0-0
  6
Continuous
 62
     3
370
     9
100
AcDbCircle
 10
-445.1569222115181
 20
312.9588985958617
 30
0.0
 40
1.500000019331236
100
AcDbArc
 50
1.403289794921875
 51
90.0
  0
ARC
  5
48D
330
1F
100
AcDbEntity
  8
0-0
  6
Continuous
 62
     3
370
     9
100
AcDbCircle
 10
-445.1569222115181
 20
290.4588985958617
 30
0.0
 40
1.500000019331236
100
AcDbArc
 50
270.0
 51
0.0
  0
ARC
  5
48E
330
1F
100
AcDbEntity
  8
0-0
  6
Continuous
 62
     3
370
     9
100
AcDbCircle
 10
-405.6569156131229
 20
290.4588985958617
 30
0.0
 40
1.500000019331236
100
AcDbArc
 50
270.0
 51
0.0
  0
ARC
  5
48F
330
1F
100
AcDbEntity
  8
0-0
  6
Continuous
 62
     3
370
     9
100
AcDbCircle
 10
-405.6569156131229
 20
312.9588985958617
 30
0.0
 40
1.500000019331236
100
AcDbArc
 50
1.403289794921875
 51
90.0
  0
ARC
  5
490
330
1F
100
AcDbEntity
  8
0-0
  6
Continuous
 62
     3
370
     9
100
AcDbCircle
 10
-428.1569156131229
 20
312.9588985958617
 30
0.0
 40
1.500000019331236
100
AcDbArc
 50
90.0
 51
180.0
  0
ARC
  5
491
330
1F
100
AcDbEntity
  8
0-0
  6
Continuous
 62
     3
370
     9
100
AcDbCircle
 10
-428.1569156131229
 20
290.4588985958617
 30
0.0
 40
1.500000019331236
100
AcDbArc
 50
180.0
 51
270.0
  0
ARC
  5
492
330
1F
100
AcDbEntity
  8
0-0
  6
Continuous
 62
     3
370
     9
100
AcDbCircle
 10
-388.6569090147276
 20
290.4588985958617
 30
0.0
 40
1.500000019331236
100
AcDbArc
 50
180.0
 51
270.0
  0
ARC
  5
493
330
1F
100
AcDbEntity
  8
0-0
  6
Continuous
 62
     3
370
     9
100
AcDbCircle
 10
-388.6569090147276
 20
312.9588985958617
 30
0.0
 40
1.500000019331236
100
AcDbArc
 50
90.0
 51
180.0
  0
ARC
  5
494
330
1F
100
AcDbEntity
  8
0-0
  6
Continuous
 62
     3
370
     9
100
AcDbCircle
 10
-366.1569090147276
 20
312.9588985958617
 30
0.0
 40
1.500000019331236
100
AcDbArc
 50
1.403289794921875
 51
90.0
  0
ARC
  5
495
330
1F
100
AcDbEntity
  8
0-0
  6
Continuous
 62
     3
370
     9
100
AcDbCircle
 10
-366.1569090147276
 20
290.4588985958617
 30
0.0
 40
1.500000019331236
100
AcDbArc
 50
270.0
 51
0.0
  0
ARC
  5
496
330
1F
100
AcDbEntity
  8
0-0
  6
Continuous
 62
     3
370
     9
100
AcDbCircle
 10
-326.6569024163323
 20
290.4588985958617
 30
0.0
 40
1.500000019331236
100
AcDbArc
 50
270.0
 51
0.0
  0
ARC
  5
497
330
1F
100
AcDbEntity
  8
0-0
  6
Continuous
 62
     3
370
     9
100
AcDbCircle
 10
-326.6569024163323
 20
312.9588985958617
 30
0.0
 40
1.500000019331236
100
AcDbArc
 50
1.403289794921875
 51
90.0
  0
ARC
  5
498
330
1F
100
AcDbEntity
  8
0-0
  6
Continuous
 62
     3
370
     9
100
AcDbCircle
 10
-349.1569024163323
 20
312.9588985958617
 30
0.0
 40
1.500000019331236
100
AcDbArc
 50
90.0
 51
180.0
  0
ARC
  5
499
330
1F
100
AcDbEntity
  8
0-0
  6
Continuous
 62
     3
370
     9
100
AcDbCircle
 10
-349.1569024163323
 20
290.4588985958617
 30
0.0
 40
1.500000019331236
100
AcDbArc
 50
180.0
 51
270.0
  0
ARC
  5
49A
330
1F
100
AcDbEntity
  8
0-0
  6
Continuous
 62
     3
370
     9
100
AcDbCircle
 10
-309.6568958179371
 20
290.4588985958617
 30
0.0
 40
1.500000019331236
100
AcDbArc
 50
180.0
 51
270.0
  0
ARC
  5
49B
330
1F
100
AcDbEntity
  8
0-0
  6
Continuous
 62
     3
370
     9
100
AcDbCircle
 10
-309.6568958179371
 20
312.9588985958617
 30
0.0
 40
1.500000019331236
100
AcDbArc
 50
90.0
 51
180.0
  0
ARC
  5
49C
330
1F
100
AcDbEntity
  8
0-0
  6
Continuous
 62
     3
370
     9
100
AcDbCircle
 10
-287.1568958179371
 20
312.9588985958617
 30
0.0
 40
1.500000019331236
100
AcDbArc
 50
1.403289794921875
 51
90.0
  0
ARC
  5
49D
330
1F
100
AcDbEntity
  8
0-0
  6
Continuous
 62
     3
370
     9
100
AcDbCircle
 10
-287.1568958179371
 20
290.4588985958617
 30
0.0
 40
1.500000019331236
100
AcDbArc
 50
270.0
 51
0.0
  0
ARC
  5
49E
330
1F
100
AcDbEntity
  8
0-0
  6
Continuous
 62
     3
370
     9
100
AcDbCircle
 10
-247.6568892195418
 20
290.4588985958617
 30
0.0
 40
1.500000019331236
100
AcDbArc
 50
270.0
 51
0.0
  0
ARC
  5
49F
330
1F
100
AcDbEntity
  8
0-0
  6
Continuous
 62
     3
370
     9
100
AcDbCircle
 10
-247.6568892195418
 20
312.9588985958617
 30
0.0
 40
1.500000019331236
100
AcDbArc
 50
1.403289794921875
 51
90.0
  0
ARC
  5
4A0
330
1F
100
AcDbEntity
  8
0-0
  6
Continuous
 62
     3
370
     9
100
AcDbCircle
 10
-270.1568892195418
 20
312.9588985958617
 30
0.0
 40
1.500000019331236
100
AcDbArc
 50
90.0
 51
180.0
  0
ARC
  5
4A1
330
1F
100
AcDbEntity
  8
0-0
  6
Continuous
 62
     3
370
     9
100
AcDbCircle
 10
-270.1568892195418
 20
290.4588985958617
 30
0.0
 40
1.500000019331236
100
AcDbArc
 50
180.0
 51
270.0
  0
ARC
  5
4A2
330
1F
100
AcDbEntity
  8
0-0
  6
Continuous
 62
     3
370
     9
100
AcDbCircle
 10
-270.1568892195418
 20
250.9589909733954
 30
0.0
 40
1.500000019331236
100
AcDbArc
 50
180.0
 51
270.0
  0
ARC
  5
4A3
330
1F
100
AcDbEntity
  8
0-0
  6
Continuous
 62
     3
370
     9
100
AcDbCircle
 10
-270.1568892195418
 20
273.4589909733954
 30
0.0
 40
1.500000019331236
100
AcDbArc
 50
90.0
 51
180.0
  0
ARC
  5
4A4
330
1F
100
AcDbEntity
  8
0-0
  6
Continuous
 62
     3
370
     9
100
AcDbCircle
 10
-247.6568892195418
 20
273.4589909733954
 30
0.0
 40
1.500000019331236
100
AcDbArc
 50
1.403289794921875
 51
90.0
  0
ARC
  5
4A5
330
1F
100
AcDbEntity
  8
0-0
  6
Continuous
 62
     3
370
     9
100
AcDbCircle
 10
-247.6568892195418
 20
250.9589909733954
 30
0.0
 40
1.500000019331236
100
AcDbArc
 50
270.0
 51
0.0
  0
ARC
  5
4A6
330
1F
100
AcDbEntity
  8
0-0
  6
Continuous
 62
     3
370
     9
100
AcDbCircle
 10
-287.1568958179371
 20
250.9589909733954
 30
0.0
 40
1.500000019331236
100
AcDbArc
 50
270.0
 51
0.0
  0
ARC
  5
4A7
330
1F
100
AcDbEntity
  8
0-0
  6
Continuous
 62
     3
370
     9
100
AcDbCircle
 10
-287.1568958179371
 20
273.4589909733954
 30
0.0
 40
1.500000019331236
100
AcDbArc
 50
1.403289794921875
 51
90.0
  0
ARC
  5
4A8
330
1F
100
AcDbEntity
  8
0-0
  6
Continuous
 62
     3
370
     9
100
AcDbCircle
 10
-309.6568958179371
 20
273.4589909733954
 30
0.0
 40
1.500000019331236
100
AcDbArc
 50
90.0
 51
180.0
  0
ARC
  5
4A9
330
1F
100
AcDbEntity
  8
0-0
  6
Continuous
 62
     3
370
     9
100
AcDbCircle
 10
-309.6568958179371
 20
250.9589909733954
 30
0.0
 40
1.500000019331236
100
AcDbArc
 50
180.0
 51
270.0
  0
ARC
  5
4AA
330
1F
100
AcDbEntity
  8
0-0
  6
Continuous
 62
     3
370
     9
100
AcDbCircle
 10
-349.1569024163323
 20
250.9589909733954
 30
0.0
 40
1.500000019331236
100
AcDbArc
 50
180.0
 51
270.0
  0
ARC
  5
4AB
330
1F
100
AcDbEntity
  8
0-0
  6
Continuous
 62
     3
370
     9
100
AcDbCircle
 10
-349.1569024163323
 20
273.4589909733954
 30
0.0
 40
1.500000019331236
100
AcDbArc
 50
90.0
 51
180.0
  0
ARC
  5
4AC
330
1F
100
AcDbEntity
  8
0-0
  6
Continuous
 62
     3
370
     9
100
AcDbCircle
 10
-326.6569024163323
 20
273.4589909733954
 30
0.0
 40
1.500000019331236
100
AcDbArc
 50
1.403289794921875
 51
90.0
  0
ARC
  5
4AD
330
1F
100
AcDbEntity
  8
0-0
  6
Continuous
 62
     3
370
     9
100
AcDbCircle
 10
-326.6569024163323
 20
250.9589909733954
 30
0.0
 40
1.500000019331236
100
AcDbArc
 50
270.0
 51
0.0
  0
ARC
  5
4AE
330
1F
100
AcDbEntity
  8
0-0
  6
Continuous
 62
     3
370
     9
100
AcDbCircle
 10
-366.1569090147276
 20
250.9589909733954
 30
0.0
 40
1.500000019331236
100
AcDbArc
 50
270.0
 51
0.0
  0
ARC
  5
4AF
330
1F
100
AcDbEntity
  8
0-0
  6
Continuous
 62
     3
370
     9
100
AcDbCircle
 10
-366.1569090147276
 20
273.4589909733954
 30
0.0
 40
1.500000019331236
100
AcDbArc
 50
1.403289794921875
 51
90.0
  0
ARC
  5
4B0
330
1F
100
AcDbEntity
  8
0-0
  6
Continuous
 62
     3
370
     9
100
AcDbCircle
 10
-388.6569090147276
 20
273.4589909733954
 30
0.0
 40
1.500000019331236
100
AcDbArc
 50
90.0
 51
180.0
  0
ARC
  5
4B1
330
1F
100
AcDbEntity
  8
0-0
  6
Continuous
 62
     3
370
     9
100
AcDbCircle
 10
-388.6569090147276
 20
250.9589909733954
 30
0.0
 40
1.500000019331236
100
AcDbArc
 50
180.0
 51
270.0
  0
ARC
  5
4B2
330
1F
100
AcDbEntity
  8
0-0
  6
Continuous
 62
     3
370
     9
100
AcDbCircle
 10
-428.1569156131229
 20
250.9589909733954
 30
0.0
 40
1.500000019331236
100
AcDbArc
 50
180.0
 51
270.0
  0
ARC
  5
4B3
330
1F
100
AcDbEntity
  8
0-0
  6
Continuous
 62
     3
370
     9
100
AcDbCircle
 10
-428.1569156131229
 20
273.4589909733954
 30
0.0
 40
1.500000019331236
100
AcDbArc
 50
90.0
 51
180.0
  0
ARC
  5
4B4
330
1F
100
AcDbEntity
  8
0-0
  6
Continuous
 62
     3
370
     9
100
AcDbCircle
 10
-405.6569156131229
 20
273.4589909733954
 30
0.0
 40
1.500000019331236
100
AcDbArc
 50
1.403289794921875
 51
90.0
  0
ARC
  5
4B5
330
1F
100
AcDbEntity
  8
0-0
  6
Continuous
 62
     3
370
     9
100
AcDbCircle
 10
-405.6569156131229
 20
250.9589909733954
 30
0.0
 40
1.500000019331236
100
AcDbArc
 50
270.0
 51
0.0
  0
ARC
  5
4B6
330
1F
100
AcDbEntity
  8
0-0
  6
Continuous
 62
     3
370
     9
100
AcDbCircle
 10
-445.1569222115181
 20
250.9589909733954
 30
0.0
 40
1.500000019331236
100
AcDbArc
 50
270.0
 51
0.0
  0
ARC
  5
4B7
330
1F
100
AcDbEntity
  8
0-0
  6
Continuous
 62
     3
370
     9
100
AcDbCircle
 10
-445.1569222115181
 20
273.4589909733954
 30
0.0
 40
1.500000019331236
100
AcDbArc
 50
1.403289794921875
 51
90.0
  0
ARC
  5
4B8
330
1F
100
AcDbEntity
  8
0-0
  6
Continuous
 62
     3
370
     9
100
AcDbCircle
 10
-467.6569222115181
 20
273.4589909733954
 30
0.0
 40
1.500000019331236
100
AcDbArc
 50
90.0
 51
180.0
  0
ARC
  5
4B9
330
1F
100
AcDbEntity
  8
0-0
  6
Continuous
 62
     3
370
     9
100
AcDbCircle
 10
-467.6569222115181
 20
250.9589909733954
 30
0.0
 40
1.500000019331236
100
AcDbArc
 50
180.0
 51
270.0
  0
ARC
  5
4BA
330
1F
100
AcDbEntity
  8
0-0
  6
Continuous
 62
     3
370
     9
100
AcDbCircle
 10
-467.6569222115181
 20
211.4589348870356
 30
0.0
 40
1.500000019331236
100
AcDbArc
 50
180.0
 51
270.0
  0
ARC
  5
4BB
330
1F
100
AcDbEntity
  8
0-0
  6
Continuous
 62
     3
370
     9
100
AcDbCircle
 10
-467.6569222115181
 20
233.9589348870356
 30
0.0
 40
1.500000019331236
100
AcDbArc
 50
90.0
 51
180.0
  0
ARC
  5
4BC
330
1F
100
AcDbEntity
  8
0-0
  6
Continuous
 62
     3
370
     9
100
AcDbCircle
 10
-445.1569222115181
 20
233.9589348870356
 30
0.0
 40
1.500000019331236
100
AcDbArc
 50
1.403289794921875
 51
90.0
  0
ARC
  5
4BD
330
1F
100
AcDbEntity
  8
0-0
  6
Continuous
 62
     3
370
     9
100
AcDbCircle
 10
-445.1569222115181
 20
211.4589348870356
 30
0.0
 40
1.500000019331236
100
AcDbArc
 50
270.0
 51
0.0
  0
ARC
  5
4BE
330
1F
100
AcDbEntity
  8
0-0
  6
Continuous
 62
     3
370
     9
100
AcDbCircle
 10
-405.6569156131229
 20
211.4589348870356
 30
0.0
 40
1.500000019331236
100
AcDbArc
 50
270.0
 51
0.0
  0
ARC
  5
4BF
330
1F
100
AcDbEntity
  8
0-0
  6
Continuous
 62
     3
370
     9
100
AcDbCircle
 10
-405.6569156131229
 20
233.9589348870356
 30
0.0
 40
1.500000019331236
100
AcDbArc
 50
1.403289794921875
 51
90.0
  0
ARC
  5
4C0
330
1F
100
AcDbEntity
  8
0-0
  6
Continuous
 62
     3
370
     9
100
AcDbCircle
 10
-428.1569156131229
 20
233.9589348870356
 30
0.0
 40
1.500000019331236
100
AcDbArc
 50
90.0
 51
180.0
  0
ARC
  5
4C1
330
1F
100
AcDbEntity
  8
0-0
  6
Continuous
 62
     3
370
     9
100
AcDbCircle
 10
-428.1569156131229
 20
211.4589348870356
 30
0.0
 40
1.500000019331236
100
AcDbArc
 50
180.0
 51
270.0
  0
ARC
  5
4C2
330
1F
100
AcDbEntity
  8
0-0
  6
Continuous
 62
     3
370
     9
100
AcDbCircle
 10
-388.6569090147276
 20
211.4589348870356
 30
0.0
 40
1.500000019331236
100
AcDbArc
 50
180.0
 51
270.0
  0
ARC
  5
4C3
330
1F
100
AcDbEntity
  8
0-0
  6
Continuous
 62
     3
370
     9
100
AcDbCircle
 10
-388.6569090147276
 20
233.9589348870356
 30
0.0
 40
1.500000019331236
100
AcDbArc
 50
90.0
 51
180.0
  0
ARC
  5
4C4
330
1F
100
AcDbEntity
  8
0-0
  6
Continuous
 62
     3
370
     9
100
AcDbCircle
 10
-366.1569090147276
 20
233.9589348870356
 30
0.0
 40
1.500000019331236
100
AcDbArc
 50
1.403289794921875
 51
90.0
  0
ARC
  5
4C5
330
1F
100
AcDbEntity
  8
0-0
  6
Continuous
 62
     3
370
     9
100
AcDbCircle
 10
-366.1569090147276
 20
211.4589348870356
 30
0.0
 40
1.500000019331236
100
AcDbArc
 50
270.0
 51
0.0
  0
ARC
  5
4C6
330
1F
100
AcDbEntity
  8
0-0
  6
Continuous
 62
     3
370
     9
100
AcDbCircle
 10
-326.6569024163323
 20
211.4589348870356
 30
0.0
 40
1.500000019331236
100
AcDbArc
 50
270.0
 51
0.0
  0
ARC
  5
4C7
330
1F
100
AcDbEntity
  8
0-0
  6
Continuous
 62
     3
370
     9
100
AcDbCircle
 10
-326.6569024163323
 20
233.9589348870356
 30
0.0
 40
1.500000019331236
100
AcDbArc
 50
1.403289794921875
 51
90.0
  0
ARC
  5
4C8
330
1F
100
AcDbEntity
  8
0-0
  6
Continuous
 62
     3
370
     9
100
AcDbCircle
 10
-349.1569024163323
 20
233.9589348870356
 30
0.0
 40
1.500000019331236
100
AcDbArc
 50
90.0
 51
180.0
  0
ARC
  5
4C9
330
1F
100
AcDbEntity
  8
0-0
  6
Continuous
 62
     3
370
     9
100
AcDbCircle
 10
-349.1569024163323
 20
211.4589348870356
 30
0.0
 40
1.500000019331236
100
AcDbArc
 50
180.0
 51
270.0
  0
ARC
  5
4CA
330
1F
100
AcDbEntity
  8
0-0
  6
Continuous
 62
     3
370
     9
100
AcDbCircle
 10
-309.6568958179371
 20
211.4589348870356
 30
0.0
 40
1.500000019331236
100
AcDbArc
 50
180.0
 51
270.0
  0
ARC
  5
4CB
330
1F
100
AcDbEntity
  8
0-0
  6
Continuous
 62
     3
370
     9
100
AcDbCircle
 10
-309.6568958179371
 20
233.9589348870356
 30
0.0
 40
1.500000019331236
100
AcDbArc
 50
90.0
 51
180.0
  0
ARC
  5
4CC
330
1F
100
AcDbEntity
  8
0-0
  6
Continuous
 62
     3
370
     9
100
AcDbCircle
 10
-287.1568958179371
 20
233.9589348870356
 30
0.0
 40
1.500000019331236
100
AcDbArc
 50
1.403289794921875
 51
90.0
  0
ARC
  5
4CD
330
1F
100
AcDbEntity
  8
0-0
  6
Continuous
 62
     3
370
     9
100
AcDbCircle
 10
-287.1568958179371
 20
211.4589348870356
 30
0.0
 40
1.500000019331236
100
AcDbArc
 50
270.0
 51
0.0
  0
ARC
  5
4CE
330
1F
100
AcDbEntity
  8
0-0
  6
Continuous
 62
     3
370
     9
100
AcDbCircle
 10
-247.6568892195418
 20
211.4589348870356
 30
0.0
 40
1.500000019331236
100
AcDbArc
 50
270.0
 51
0.0
  0
ARC
  5
4CF
330
1F
100
AcDbEntity
  8
0-0
  6
Continuous
 62
     3
370
     9
100
AcDbCircle
 10
-247.6568892195418
 20
233.9589348870356
 30
0.0
 40
1.500000019331236
100
AcDbArc
 50
1.403289794921875
 51
90.0
  0
ARC
  5
4D0
330
1F
100
AcDbEntity
  8
0-0
  6
Continuous
 62
     3
370
     9
100
AcDbCircle
 10
-270.1568892195418
 20
233.9589348870356
 30
0.0
 40
1.500000019331236
100
AcDbArc
 50
90.0
 51
180.0
  0
ARC
  5
4D1
330
1F
100
AcDbEntity
  8
0-0
  6
Continuous
 62
     3
370
     9
100
AcDbCircle
 10
-270.1568892195418
 20
211.4589348870356
 30
0.0
 40
1.500000019331236
100
AcDbArc
 50
180.0
 51
270.0
  0
ARC
  5
4D2
330
1F
100
AcDbEntity
  8
0-0
  6
Continuous
 62
     3
370
     9
100
AcDbCircle
 10
-270.1568892195418
 20
171.9589282886404
 30
0.0
 40
1.500000019331236
100
AcDbArc
 50
180.0
 51
270.0
  0
ARC
  5
4D3
330
1F
100
AcDbEntity
  8
0-0
  6
Continuous
 62
     3
370
     9
100
AcDbCircle
 10
-270.1568892195418
 20
194.4589282886404
 30
0.0
 40
1.500000019331236
100
AcDbArc
 50
90.0
 51
180.0
  0
ARC
  5
4D4
330
1F
100
AcDbEntity
  8
0-0
  6
Continuous
 62
     3
370
     9
100
AcDbCircle
 10
-247.6568892195418
 20
194.4589282886404
 30
0.0
 40
1.500000019331236
100
AcDbArc
 50
1.403289794921875
 51
90.0
  0
ARC
  5
4D5
330
1F
100
AcDbEntity
  8
0-0
  6
Continuous
 62
     3
370
     9
100
AcDbCircle
 10
-247.6568892195418
 20
171.9589282886404
 30
0.0
 40
1.500000019331236
100
AcDbArc
 50
270.0
 51
0.0
  0
ARC
  5
4D6
330
1F
100
AcDbEntity
  8
0-0
  6
Continuous
 62
     3
370
     9
100
AcDbCircle
 10
-287.1568958179371
 20
171.9589282886404
 30
0.0
 40
1.500000019331236
100
AcDbArc
 50
270.0
 51
0.0
  0
ARC
  5
4D7
330
1F
100
AcDbEntity
  8
0-0
  6
Continuous
 62
     3
370
     9
100
AcDbCircle
 10
-287.1568958179371
 20
194.4589282886404
 30
0.0
 40
1.500000019331236
100
AcDbArc
 50
1.403289794921875
 51
90.0
  0
ARC
  5
4D8
330
1F
100
AcDbEntity
  8
0-0
  6
Continuous
 62
     3
370
     9
100
AcDbCircle
 10
-309.6568958179371
 20
194.4589282886404
 30
0.0
 40
1.500000019331236
100
AcDbArc
 50
90.0
 51
180.0
  0
ARC
  5
4D9
330
1F
100
AcDbEntity
  8
0-0
  6
Continuous
 62
     3
370
     9
100
AcDbCircle
 10
-309.6568958179371
 20
171.9589282886404
 30
0.0
 40
1.500000019331236
100
AcDbArc
 50
180.0
 51
270.0
  0
ARC
  5
4DA
330
1F
100
AcDbEntity
  8
0-0
  6
Continuous
 62
     3
370
     9
100
AcDbCircle
 10
-349.1569024163323
 20
171.9589282886404
 30
0.0
 40
1.500000019331236
100
AcDbArc
 50
180.0
 51
270.0
  0
ARC
  5
4DB
330
1F
100
AcDbEntity
  8
0-0
  6
Continuous
 62
     3
370
     9
100
AcDbCircle
 10
-349.1569024163323
 20
194.4589282886404
 30
0.0
 40
1.500000019331236
100
AcDbArc
 50
90.0
 51
180.0
  0
ARC
  5
4DC
330
1F
100
AcDbEntity
  8
0-0
  6
Continuous
 62
     3
370
     9
100
AcDbCircle
 10
-326.6569024163323
 20
194.4589282886404
 30
0.0
 40
1.500000019331236
100
AcDbArc
 50
1.403289794921875
 51
90.0
  0
ARC
  5
4DD
330
1F
100
AcDbEntity
  8
0-0
  6
Continuous
 62
     3
370
     9
100
AcDbCircle
 10
-326.6569024163323
 20
171.9589282886404
 30
0.0
 40
1.500000019331236
100
AcDbArc
 50
270.0
 51
0.0
  0
ARC
  5
4DE
330
1F
100
AcDbEntity
  8
0-0
  6
Continuous
 62
     3
370
     9
100
AcDbCircle
 10
-366.1569090147276
 20
171.9589282886404
 30
0.0
 40
1.500000019331236
100
AcDbArc
 50
270.0
 51
0.0
  0
ARC
  5
4DF
330
1F
100
AcDbEntity
  8
0-0
  6
Continuous
 62
     3
370
     9
100
AcDbCircle
 10
-366.1569090147276
 20
194.4589282886404
 30
0.0
 40
1.500000019331236
100
AcDbArc
 50
1.403289794921875
 51
90.0
  0
ARC
  5
4E0
330
1F
100
AcDbEntity
  8
0-0
  6
Continuous
 62
     3
370
     9
100
AcDbCircle
 10
-388.6569090147276
 20
194.4589282886404
 30
0.0
 40
1.500000019331236
100
AcDbArc
 50
90.0
 51
180.0
  0
ARC
  5
4E1
330
1F
100
AcDbEntity
  8
0-0
  6
Continuous
 62
     3
370
     9
100
AcDbCircle
 10
-388.6569090147276
 20
171.9589282886404
 30
0.0
 40
1.500000019331236
100
AcDbArc
 50
180.0
 51
270.0
  0
ARC
  5
4E2
330
1F
100
AcDbEntity
  8
0-0
  6
Continuous
 62
     3
370
     9
100
AcDbCircle
 10
-428.1569156131229
 20
171.9589282886404
 30
0.0
 40
1.500000019331236
100
AcDbArc
 50
180.0
 51
270.0
  0
ARC
  5
4E3
330
1F
100
AcDbEntity
  8
0-0
  6
Continuous
 62
     3
370
     9
100
AcDbCircle
 10
-428.1569156131229
 20
194.4589282886404
 30
0.0
 40
1.500000019331236
100
AcDbArc
 50
90.0
 51
180.0
  0
ARC
  5
4E4
330
1F
100
AcDbEntity
  8
0-0
  6
Continuous
 62
     3
370
     9
100
AcDbCircle
 10
-405.6569156131229
 20
194.4589282886404
 30
0.0
 40
1.500000019331236
100
AcDbArc
 50
1.403289794921875
 51
90.0
  0
ARC
  5
4E5
330
1F
100
AcDbEntity
  8
0-0
  6
Continuous
 62
     3
370
     9
100
AcDbCircle
 10
-405.6569156131229
 20
171.9589282886404
 30
0.0
 40
1.500000019331236
100
AcDbArc
 50
270.0
 51
0.0
  0
ARC
  5
4E6
330
1F
100
AcDbEntity
  8
0-0
  6
Continuous
 62
     3
370
     9
100
AcDbCircle
 10
-445.1569222115181
 20
171.9589282886404
 30
0.0
 40
1.500000019331236
100
AcDbArc
 50
270.0
 51
0.0
  0
ARC
  5
4E7
330
1F
100
AcDbEntity
  8
0-0
  6
Continuous
 62
     3
370
     9
100
AcDbCircle
 10
-445.1569222115181
 20
194.4589282886404
 30
0.0
 40
1.500000019331236
100
AcDbArc
 50
1.403289794921875
 51
90.0
  0
ARC
  5
4E8
330
1F
100
AcDbEntity
  8
0-0
  6
Continuous
 62
     3
370
     9
100
AcDbCircle
 10
-467.6569222115181
 20
194.4589282886404
 30
0.0
 40
1.500000019331236
100
AcDbArc
 50
90.0
 51
180.0
  0
ARC
  5
4E9
330
1F
100
AcDbEntity
  8
0-0
  6
Continuous
 62
     3
370
     9
100
AcDbCircle
 10
-467.6569222115181
 20
171.9589282886404
 30
0.0
 40
1.500000019331236
100
AcDbArc
 50
180.0
 51
270.0
  0
ARC
  5
4EA
330
1F
100
AcDbEntity
  8
0-0
  6
Continuous
 62
     3
370
     9
100
AcDbCircle
 10
-467.6569222115181
 20
132.4589216902451
 30
0.0
 40
1.500000019331236
100
AcDbArc
 50
180.0
 51
270.0
  0
ARC
  5
4EB
330
1F
100
AcDbEntity
  8
0-0
  6
Continuous
 62
     3
370
     9
100
AcDbCircle
 10
-467.6569222115181
 20
154.9589216902451
 30
0.0
 40
1.500000019331236
100
AcDbArc
 50
90.0
 51
180.0
  0
ARC
  5
4EC
330
1F
100
AcDbEntity
  8
0-0
  6
Continuous
 62
     3
370
     9
100
AcDbCircle
 10
-445.1569222115181
 20
154.9589216902451
 30
0.0
 40
1.500000019331236
100
AcDbArc
 50
1.403289794921875
 51
90.0
  0
ARC
  5
4ED
330
1F
100
AcDbEntity
  8
0-0
  6
Continuous
 62
     3
370
     9
100
AcDbCircle
 10
-445.1569222115181
 20
132.4589216902451
 30
0.0
 40
1.500000019331236
100
AcDbArc
 50
270.0
 51
0.0
  0
ARC
  5
4EE
330
1F
100
AcDbEntity
  8
0-0
  6
Continuous
 62
     3
370
     9
100
AcDbCircle
 10
-405.6569156131229
 20
132.4589216902451
 30
0.0
 40
1.500000019331236
100
AcDbArc
 50
270.0
 51
0.0
  0
ARC
  5
4EF
330
1F
100
AcDbEntity
  8
0-0
  6
Continuous
 62
     3
370
     9
100
AcDbCircle
 10
-405.6569156131229
 20
154.9589216902451
 30
0.0
 40
1.500000019331236
100
AcDbArc
 50
1.403289794921875
 51
90.0
  0
ARC
  5
4F0
330
1F
100
AcDbEntity
  8
0-0
  6
Continuous
 62
     3
370
     9
100
AcDbCircle
 10
-428.1569156131229
 20
154.9589216902451
 30
0.0
 40
1.500000019331236
100
AcDbArc
 50
90.0
 51
180.0
  0
ARC
  5
4F1
330
1F
100
AcDbEntity
  8
0-0
  6
Continuous
 62
     3
370
     9
100
AcDbCircle
 10
-428.1569156131229
 20
132.4589216902451
 30
0.0
 40
1.500000019331236
100
AcDbArc
 50
180.0
 51
270.0
  0
ARC
  5
4F2
330
1F
100
AcDbEntity
  8
0-0
  6
Continuous
 62
     3
370
     9
100
AcDbCircle
 10
-388.6569090147276
 20
132.4589216902451
 30
0.0
 40
1.500000019331236
100
AcDbArc
 50
180.0
 51
270.0
  0
ARC
  5
4F3
330
1F
100
AcDbEntity
  8
0-0
  6
Continuous
 62
     3
370
     9
100
AcDbCircle
 10
-388.6569090147276
 20
154.9589216902451
 30
0.0
 40
1.500000019331236
100
AcDbArc
 50
90.0
 51
180.0
  0
ARC
  5
4F4
330
1F
100
AcDbEntity
  8
0-0
  6
Continuous
 62
     3
370
     9
100
AcDbCircle
 10
-366.1569090147276
 20
154.9589216902451
 30
0.0
 40
1.500000019331236
100
AcDbArc
 50
1.403289794921875
 51
90.0
  0
ARC
  5
4F5
330
1F
100
AcDbEntity
  8
0-0
  6
Continuous
 62
     3
370
     9
100
AcDbCircle
 10
-366.1569090147276
 20
132.4589216902451
 30
0.0
 40
1.500000019331236
100
AcDbArc
 50
270.0
 51
0.0
  0
ARC
  5
4F6
330
1F
100
AcDbEntity
  8
0-0
  6
Continuous
 62
     3
370
     9
100
AcDbCircle
 10
-326.6569024163323
 20
132.4589216902451
 30
0.0
 40
1.500000019331236
100
AcDbArc
 50
270.0
 51
0.0
  0
ARC
  5
4F7
330
1F
100
AcDbEntity
  8
0-0
  6
Continuous
 62
     3
370
     9
100
AcDbCircle
 10
-326.6569024163323
 20
154.9589216902451
 30
0.0
 40
1.500000019331236
100
AcDbArc
 50
1.403289794921875
 51
90.0
  0
ARC
  5
4F8
330
1F
100
AcDbEntity
  8
0-0
  6
Continuous
 62
     3
370
     9
100
AcDbCircle
 10
-349.1569024163323
 20
154.9589216902451
 30
0.0
 40
1.500000019331236
100
AcDbArc
 50
90.0
 51
180.0
  0
ARC
  5
4F9
330
1F
100
AcDbEntity
  8
0-0
  6
Continuous
 62
     3
370
     9
100
AcDbCircle
 10
-349.1569024163323
 20
132.4589216902451
 30
0.0
 40
1.500000019331236
100
AcDbArc
 50
180.0
 51
270.0
  0
ARC
  5
4FA
330
1F
100
AcDbEntity
  8
0-0
  6
Continuous
 62
     3
370
     9
100
AcDbCircle
 10
-309.6568958179371
 20
132.4589216902451
 30
0.0
 40
1.500000019331236
100
AcDbArc
 50
180.0
 51
270.0
  0
ARC
  5
4FB
330
1F
100
AcDbEntity
  8
0-0
  6
Continuous
 62
     3
370
     9
100
AcDbCircle
 10
-309.6568958179371
 20
154.9589216902451
 30
0.0
 40
1.500000019331236
100
AcDbArc
 50
90.0
 51
180.0
  0
ARC
  5
4FC
330
1F
100
AcDbEntity
  8
0-0
  6
Continuous
 62
     3
370
     9
100
AcDbCircle
 10
-287.1568958179371
 20
154.9589216902451
 30
0.0
 40
1.500000019331236
100
AcDbArc
 50
1.403289794921875
 51
90.0
  0
ARC
  5
4FD
330
1F
100
AcDbEntity
  8
0-0
  6
Continuous
 62
     3
370
     9
100
AcDbCircle
 10
-287.1568958179371
 20
132.4589216902451
 30
0.0
 40
1.500000019331236
100
AcDbArc
 50
270.0
 51
0.0
  0
ARC
  5
4FE
330
1F
100
AcDbEntity
  8
0-0
  6
Continuous
 62
     3
370
     9
100
AcDbCircle
 10
-247.6568892195418
 20
132.4589216902451
 30
0.0
 40
1.500000019331236
100
AcDbArc
 50
270.0
 51
0.0
  0
ARC
  5
4FF
330
1F
100
AcDbEntity
  8
0-0
  6
Continuous
 62
     3
370
     9
100
AcDbCircle
 10
-247.6568892195418
 20
154.9589216902451
 30
0.0
 40
1.500000019331236
100
AcDbArc
 50
1.403289794921875
 51
90.0
  0
ARC
  5
500
330
1F
100
AcDbEntity
  8
0-0
  6
Continuous
 62
     3
370
     9
100
AcDbCircle
 10
-270.1568892195418
 20
154.9589216902451
 30
0.0
 40
1.500000019331236
100
AcDbArc
 50
90.0
 51
180.0
  0
ARC
  5
501
330
1F
100
AcDbEntity
  8
0-0
  6
Continuous
 62
     3
370
     9
100
AcDbCircle
 10
-270.1568892195418
 20
132.4589216902451
 30
0.0
 40
1.500000019331236
100
AcDbArc
 50
180.0
 51
270.0
  0
LWPOLYLINE
  5
502
330
1F
100
AcDbEntity
  8
0-F
  6
Continuous
 62
     7
370
     9
100
AcDbPolyline
 90
        4
 70
     1
 43
0.4
 10
71.04309758366772
 20
156.4588524070948
 42
0.4142135623731
 10
70.84309758366771
 20
156.6588524070948
 42
0.4142135623731
 10
70.64309758366771
 20
156.4588524070948
 42
0.4142135623731
 10
70.84309758366771
 20
156.2588524070948
 42
0.4142135623731
  0
LINE
  5
503
330
1F
100
AcDbEntity
  8
0-F
  6
Continuous
 62
     7
370
     9
100
AcDbLine
 10
-232.1569123139252
 20
-186.0411146009289
 30
0.0
 11
-206.6569024163323
 21
-186.0411146009289
 31
0.0
  0
LINE
  5
504
330
1F
100
AcDbEntity
  8
0-F
  6
Continuous
 62
     7
370
     9
100
AcDbLine
 10
-206.6569024163323
 20
-186.0411146009289
 30
0.0
 11
-192.6569057155299
 21
-186.0411146009289
 31
0.0
  0
LINE
  5
505
330
1F
100
AcDbEntity
  8
0-F
  6
Continuous
 62
     7
370
     9
100
AcDbLine
 10
-232.1569123139252
 20
-186.0411146009289
 30
0.0
 11
-242.0713806152344
 21
-187.3464091532937
 31
0.0
  0
LINE
  5
506
330
1F
100
AcDbEntity
  8
0-F
  6
Continuous
 62
     7
370
     9
100
AcDbLine
 10
-232.1569123139252
 20
-186.0411146009289
 30
0.0
 11
-242.0713806152344
 21
-184.7358200485641
 31
0.0
  0
LINE
  5
507
330
1F
100
AcDbEntity
  8
0-F
  6
Continuous
 62
     7
370
     9
100
AcDbLine
 10
-192.6569057155299
 20
-186.0411146009289
 30
0.0
 11
-182.7424374142208
 21
-184.7358200485641
 31
0.0
  0
LINE
  5
508
330
1F
100
AcDbEntity
  8
0-F
  6
Continuous
 62
     7
370
     9
100
AcDbLine
 10
-192.6569057155299
 20
-186.0411146009289
 30
0.0
 11
-182.7424374142208
 21
-187.3464091532937
 31
0.0
  0
LINE
  5
509
330
1F
100
AcDbEntity
  8
0-F
  6
Continuous
 62
     7
370
     9
100
AcDbLine
 10
-192.6569057155299
 20
-186.0411146009289
 30
0.0
 11
-171.0082471692883
 21
-186.0411146009289
 31
0.0
  0
LINE
  5
50A
330
1F
100
AcDbEntity
  8
0-F
  6
Continuous
 62
     7
370
     9
100
AcDbLine
 10
-232.1569123139252
 20
-186.0411146009289
 30
0.0
 11
-274.9863207018053
 21
-186.0411146009289
 31
0.0
  0
LINE
  5
50B
330
1F
100
AcDbEntity
  8
0-F
  6
Continuous
 62
     7
370
     9
100
AcDbLine
 10
10.84309758366771
 20
-226.0411475929052
 30
0.0
 11
0.9286787703231312
 21
-224.7358530405404
 31
0.0
  0
LINE
  5
50C
330
1F
100
AcDbEntity
  8
0-F
  6
Continuous
 62
     7
370
     9
100
AcDbLine
 10
10.84309758366771
 20
-226.0411475929052
 30
0.0
 11
0.9286787703231312
 21
-227.3463926573056
 31
0.0
  0
LINE
  5
50D
330
1F
100
AcDbEntity
  8
0-F
  6
Continuous
 62
     7
370
     9
100
AcDbLine
 10
285.8430645916915
 20
-186.0411146009289
 30
0.0
 11
295.7574834050361
 21
-184.7358200485641
 31
0.0
  0
LINE
  5
50E
330
1F
100
AcDbEntity
  8
0-F
  6
Continuous
 62
     7
370
     9
100
AcDbLine
 10
285.8430645916915
 20
-186.0411146009289
 30
0.0
 11
295.7574834050361
 21
-187.3464091532937
 31
0.0
  0
LINE
  5
50F
330
1F
100
AcDbEntity
  8
0-F
  6
Continuous
 62
     7
370
     9
100
AcDbLine
 10
270.8431635676206
 20
-186.0411146009289
 30
0.0
 11
260.9287447542756
 21
-184.7358200485641
 31
0.0
  0
LINE
  5
510
330
1F
100
AcDbEntity
  8
0-F
  6
Continuous
 62
     7
370
     9
100
AcDbLine
 10
270.8431635676206
 20
-186.0411146009289
 30
0.0
 11
260.9287447542756
 21
-187.3464091532937
 31
0.0
  0
LINE
  5
511
330
1F
100
AcDbEntity
  8
0-F
  6
Continuous
 62
     7
370
     9
100
AcDbLine
 10
290.843130575644
 20
-226.0411475929052
 30
0.0
 11
300.7575493889885
 21
-227.3463926573056
 31
0.0
  0
LINE
  5
512
330
1F
100
AcDbEntity
  8
0-F
  6
Continuous
 62
     7
370
     9
100
AcDbLine
 10
270.8431635676206
 20
-226.0411475929052
 30
0.0
 11
260.9287447542756
 21
-224.7358530405404
 31
0.0
  0
LINE
  5
513
330
1F
100
AcDbEntity
  8
0-F
  6
Continuous
 62
     7
370
     9
100
AcDbLine
 10
270.8431635676206
 20
-226.0411475929052
 30
0.0
 11
260.9287447542756
 21
-227.3463926573056
 31
0.0
  0
LINE
  5
514
330
1F
100
AcDbEntity
  8
0-F
  6
Continuous
 62
     7
370
     9
100
AcDbLine
 10
290.843130575644
 20
-226.0411475929052
 30
0.0
 11
300.7575493889885
 21
-224.7358530405404
 31
0.0
  0
LINE
  5
515
330
1F
100
AcDbEntity
  8
0-F
  6
Continuous
 62
     7
370
     9
100
AcDbLine
 10
302.6143378180427
 20
-186.0411146009289
 30
0.0
 11
244.6701668404245
 21
-186.0411146009289
 31
0.0
  0
LINE
  5
516
330
1F
100
AcDbEntity
  8
0-F
  6
Continuous
 62
     7
370
     9
100
AcDbLine
 10
306.6192998112861
 20
-226.0411475929052
 30
0.0
 11
244.6701668404245
 21
-226.0411475929052
 31
0.0
  0
TEXT
  5
517
330
1F
100
AcDbEntity
  8
0-F
  6
Continuous
 62
     2
370
     9
100
AcDbText
 10
-271.5694654310071
 20
-181.7851080025336
 30
0.0
 40
12.192
  1
25.5
 41
1.09375
  7
ＭＳ ゴシック
100
AcDbText
  0
TEXT
  5
518
330
1F
100
AcDbEntity
  8
0-F
  6
Continuous
 62
     2
370
     9
100
AcDbText
 10
-189.8151055413323
 20
-181.7851080025336
 30
0.0
 40
12.192
  1
14
 41
1.0625
  7
ＭＳ ゴシック
100
AcDbText
  0
TEXT
  5
519
330
1F
100
AcDbEntity
  8
0-F
  6
Continuous
 62
     2
370
     9
100
AcDbText
 10
-252.1568859203442
 20
-221.78514099451
 30
0.0
 40
12.192
  1
500
 41
1.083333333333333
  7
ＭＳ ゴシック
100
AcDbText
  0
TEXT
  5
51A
330
1F
100
AcDbEntity
  8
0-F
  6
Continuous
 62
     2
370
     9
100
AcDbText
 10
245.6886324495883
 20
-181.7851080025336
 30
0.0
 40
12.192
  1
15
 41
1.0625
  7
ＭＳ ゴシック
100
AcDbText
  0
TEXT
  5
51B
330
1F
100
AcDbEntity
  8
0-F
  6
Continuous
 62
     2
370
     9
100
AcDbText
 10
247.3884450551627
 20
-221.78514099451
 30
0.0
 40
12.192
  1
20
 41
1.0625
  7
ＭＳ ゴシック
100
AcDbText
  0
LWPOLYLINE
  5
51C
330
1F
100
AcDbEntity
  8
0-F
  6
Continuous
 62
     7
370
     9
100
AcDbPolyline
 90
        4
 70
     1
 43
0.4
 10
-206.4569024163323
 20
-186.0411146009289
 42
0.4142135623731
 10
-206.6569024163323
 20
-185.841114600929
 42
0.4142135623731
 10
-206.8569024163323
 20
-186.0411146009289
 42
0.4142135623731
 10
-206.6569024163323
 20
-186.2411146009289
 42
0.4142135623731
  0
TEXT
  5
51D
330
1F
100
AcDbEntity
  8
0-F
  6
Continuous
 62
     2
370
     9
100
AcDbText
 10
66.58709175022156
 20
91.54628929380698
 30
0.0
 40
12.192
  1
25.5
 50
90.00000250447765
 41
1.09375
  7
ＭＳ ゴシック
100
AcDbText
  0
TEXT
  5
51E
330
1F
100
AcDbEntity
  8
0-F
  6
Continuous
 62
     2
370
     9
100
AcDbText
 10
106.5871245454969
 20
110.9588688044702
 30
0.0
 40
12.192
  1
500
 50
90.00000250447873
 41
1.083333333333333
  7
ＭＳ ゴシック
100
AcDbText
  0
TEXT
  5
51F
330
1F
100
AcDbEntity
  8
0-F
  6
Continuous
 62
     2
370
     9
100
AcDbText
 10
66.58709135681917
 20
173.3006491834818
 30
0.0
 40
12.192
  1
14
 50
90.00000250447789
 41
1.062499999999999
  7
ＭＳ ゴシック
100
AcDbText
  0
TEXT
  5
520
330
1F
100
AcDbEntity
  8
F-5
  6
Continuous
 62
     2
370
     9
100
AcDbText
 10
-298.0001154719173
 20
-538.9873182999895
 30
0.0
 40
12.192
  1
格子型鋳鉄製集水桝蓋　ＧＡ－５００角×２０
 41
1.119047619047619
  7
ＭＳ ゴシック
100
AcDbText
  0
ENDSEC
  0
SECTION
  2
OBJECTS
  0
DICTIONARY
  5
C
330
0
100
AcDbDictionary
281
     1
  3
ACAD_GROUP
350
D
  3
ACAD_LAYOUT
350
1A
  3
ACAD_MLEADERSTYLE
350
522
  3
ACAD_MLINESTYLE
350
17
  3
ACAD_PLOTSETTINGS
350
19
  3
ACAD_PLOTSTYLENAME
350
E
  3
ACAD_TABLESTYLE
350
521
  3
ACAD_VISUALSTYLE
350
2A
  0
DICTIONARY
  5
D
102
{ACAD_REACTORS
330
C
102
}
330
C
100
AcDbDictionary
281
     1
  0
DICTIONARY
  5
1A
102
{ACAD_REACTORS
330
C
102
}
330
C
100
AcDbDictionary
281
     1
  3
Layout1
350
1E
  3
Layout2
350
26
  3
Model
350
22
  0
DICTIONARY
  5
522
102
{ACAD_REACTORS
330
C
102
}
330
C
100
AcDbDictionary
281
     1
  0
DICTIONARY
  5
17
102
{ACAD_REACTORS
330
C
102
}
330
C
100
AcDbDictionary
281
     1
  3
Standard
350
18
  0
DICTIONARY
  5
19
102
{ACAD_REACTORS
330
C
102
}
330
C
100
AcDbDictionary
281
     1
  0
ACDBDICTIONARYWDFLT
  5
E
102
{ACAD_REACTORS
330
C
102
}
330
C
100
AcDbDictionary
281
     1
  3
Normal
350
F
100
AcDbDictionaryWithDefault
340
F
  0
DICTIONARY
  5
521
102
{ACAD_REACTORS
330
C
102
}
330
C
100
AcDbDictionary
281
     1
  0
DICTIONARY
  5
2A
102
{ACAD_REACTORS
330
C
102
}
330
C
100
AcDbDictionary
281
     1
  3
2dWireframe
350
2F
  3
3D Hidden
350
31
  3
3dWireframe
350
30
  3
Basic
350
32
  3
Brighten
350
36
  3
ColorChange
350
3A
  3
Conceptual
350
34
  3
Dim
350
35
  3
Facepattern
350
39
  3
Flat
350
2B
  3
FlatWithEdges
350
2C
  3
Gouraud
350
2D
  3
GouraudWithEdges
350
2E
  3
Linepattern
350
38
  3
Realistic
350
33
  3
Thicken
350
37
  0
LAYOUT
  5
1E
102
{ACAD_REACTORS
330
1A
102
}
330
1A
100
AcDbPlotSettings
  1

  2
none_device
  4

  6

 40
0.0
 41
0.0
 42
0.0
 43
0.0
 44
0.0
 45
0.0
 46
0.0
 47
0.0
 48
0.0
 49
0.0
140
0.0
141
0.0
142
1.0
143
1.0
 70
   688
 72
     0
 73
     0
 74
     5
  7

 75
    16
 76
     0
 77
     5
 78
   300
147
1.0
148
0.0
149
0.0
100
AcDbLayout
  1
Layout1
 70
     1
 71
     1
 10
0.0
 20
0.0
 11
420.0
 21
297.0
 12
0.0
 22
0.0
 32
0.0
 14
1.000000000000000E+20
 24
1.000000000000000E+20
 34
1.000000000000000E+20
 15
-1.000000000000000E+20
 25
-1.000000000000000E+20
 35
-1.000000000000000E+20
146
0.0
 13
0.0
 23
0.0
 33
0.0
 16
1.0
 26
0.0
 36
0.0
 17
0.0
 27
1.0
 37
0.0
 76
     0
330
1B
  0
LAYOUT
  5
26
102
{ACAD_REACTORS
330
1A
102
}
330
1A
100
AcDbPlotSettings
  1

  2
none_device
  4

  6

 40
0.0
 41
0.0
 42
0.0
 43
0.0
 44
0.0
 45
0.0
 46
0.0
 47
0.0
 48
0.0
 49
0.0
140
0.0
141
0.0
142
1.0
143
1.0
 70
   688
 72
     0
 73
     0
 74
     5
  7

 75
    16
 76
     0
 77
     5
 78
   300
147
1.0
148
0.0
149
0.0
100
AcDbLayout
  1
Layout2
 70
     1
 71
     2
 10
0.0
 20
0.0
 11
0.0
 21
0.0
 12
0.0
 22
0.0
 32
0.0
 14
0.0
 24
0.0
 34
0.0
 15
0.0
 25
0.0
 35
0.0
146
0.0
 13
0.0
 23
0.0
 33
0.0
 16
1.0
 26
0.0
 36
0.0
 17
0.0
 27
1.0
 37
0.0
 76
     0
330
23
  0
LAYOUT
  5
22
102
{ACAD_REACTORS
330
1A
102
}
330
1A
100
AcDbPlotSettings
  1

  2
none_device
  4

  6

 40
0.0
 41
0.0
 42
0.0
 43
0.0
 44
0.0
 45
0.0
 46
0.0
 47
0.0
 48
0.0
 49
0.0
140
0.0
141
0.0
142
1.0
143
1.0
 70
  1712
 72
     0
 73
     0
 74
     0
  7

 75
     0
 76
     0
 77
     5
 78
   300
147
1.0
148
0.0
149
0.0
100
AcDbLayout
  1
Model
 70
     1
 71
     0
 10
-840.0
 20
-594.0
 11
840.0
 21
594.0
 12
0.0
 22
0.0
 32
0.0
 14
-840.0
 24
-594.0
 34
0.0
 15
840.0
 25
594.0
 35
0.0
146
0.0
 13
0.0
 23
0.0
 33
0.0
 16
1.0
 26
0.0
 36
0.0
 17
0.0
 27
1.0
 37
0.0
 76
     0
330
1F
331
29
  0
MLINESTYLE
  5
18
102
{ACAD_REACTORS
330
17
102
}
330
17
100
AcDbMlineStyle
  2
Standard
 70
     0
  3

 62
   256
 51
90.0
 52
90.0
 71
     2
 49
0.5
 62
   256
  6
BYLAYER
 49
-0.5
 62
   256
  6
BYLAYER
  0
ACDBPLACEHOLDER
  5
F
102
{ACAD_REACTORS
330
E
102
}
330
E
  0
VISUALSTYLE
  5
2F
102
{ACAD_REACTORS
330
2A
102
}
330
2A
100
AcDbVisualStyle
  2
2dWireframe
 70
     4
 71
     0
 72
     2
 73
     0
 90
        0
 40
-0.6
 41
-30.0
 62
     5
 63
     7
421
 16777215
 74
     1
 91
        4
 64
     7
 65
   257
 75
     1
175
     1
 42
1.0
 92
        0
 66
   257
 43
1.0
 76
     1
 77
     6
 78
     2
 67
     7
 79
     5
170
     0
171
     0
290
     0
174
     0
 93
        1
 44
0.0
173
     0
291
     0
 45
0.0
1001
ACAD
1000
AcDbSavedByObjectVersion
1070
     0
  0
VISUALSTYLE
  5
31
102
{ACAD_REACTORS
330
2A
102
}
330
2A
100
AcDbVisualStyle
  2
3D Hidden
 70
     6
 71
     1
 72
     2
 73
     2
 90
        0
 40
-0.6
 41
-30.0
 62
     5
 63
     7
421
 16777215
 74
     2
 91
        2
 64
     7
 65
   257
 75
     2
175
     1
 42
40.0
 92
        0
 66
   257
 43
1.0
 76
     1
 77
     6
 78
     2
 67
     7
 79
     3
170
     0
171
     0
290
     0
174
     0
 93
        1
 44
0.0
173
     0
291
     0
 45
0.0
1001
ACAD
1000
AcDbSavedByObjectVersion
1070
     0
  0
VISUALSTYLE
  5
30
102
{ACAD_REACTORS
330
2A
102
}
330
2A
100
AcDbVisualStyle
  2
3dWireframe
 70
     5
 71
     0
 72
     2
 73
     0
 90
        0
 40
-0.6
 41
-30.0
 62
     5
 63
     7
421
 16777215
 74
     1
 91
        4
 64
     7
 65
   257
 75
     1
175
     1
 42
1.0
 92
        0
 66
   257
 43
1.0
 76
     1
 77
     6
 78
     2
 67
     7
 79
     5
170
     0
171
     0
290
     0
174
     0
 93
        1
 44
0.0
173
     0
291
     0
 45
0.0
1001
ACAD
1000
AcDbSavedByObjectVersion
1070
     0
  0
VISUALSTYLE
  5
32
102
{ACAD_REACTORS
330
2A
102
}
330
2A
100
AcDbVisualStyle
  2
Basic
 70
     7
 71
     1
 72
     0
 73
     1
 90
        0
 40
-0.6
 41
-30.0
 62
     5
 63
     7
421
 16777215
 74
     0
 91
        4
 64
     7
 65
   257
 75
     1
175
     1
 42
1.0
 92
        8
 66
     7
 43
1.0
 76
     1
 77
     6
 78
     2
 67
     7
 79
     5
170
     0
171
     0
290
     0
174
     0
 93
        1
 44
0.0
173
     0
291
     1
 45
0.0
1001
ACAD
1000
AcDbSavedByObjectVersion
1070
     0
  0
VISUALSTYLE
  5
36
102
{ACAD_REACTORS
330
2A
102
}
330
2A
100
AcDbVisualStyle
  2
Brighten
 70
    12
 71
     2
 72
     2
 73
     0
 90
        0
 40
-0.6
 41
-30.0
 62
     5
 63
     7
421
 16777215
 74
     1
 91
        4
 64
     7
 65
   257
 75
     1
175
     1
 42
1.0
 92
        8
 66
     7
 43
1.0
 76
     1
 77
     6
 78
     2
 67
     7
 79
     5
170
     0
171
     0
290
     0
174
     0
 93
        1
 44
50.0
173
     0
291
     1
 45
0.0
1001
ACAD
1000
AcDbSavedByObjectVersion
1070
     0
  0
VISUALSTYLE
  5
3A
102
{ACAD_REACTORS
330
2A
102
}
330
2A
100
AcDbVisualStyle
  2
ColorChange
 70
    16
 71
     2
 72
     2
 73
     3
 90
        0
 40
-0.6
 41
-30.0
 62
     5
 63
     8
421
  8421504
 74
     1
 91
        4
 64
     7
 65
   257
 75
     1
175
     1
 42
1.0
 92
        8
 66
     8
424
  8421504
 43
1.0
 76
     1
 77
     6
 78
     2
 67
     7
 79
     5
170
     0
171
     0
290
     0
174
     0
 93
        1
 44
0.0
173
     0
291
     1
 45
0.0
1001
ACAD
1000
AcDbSavedByObjectVersion
1070
     0
  0
VISUALSTYLE
  5
34
102
{ACAD_REACTORS
330
2A
102
}
330
2A
100
AcDbVisualStyle
  2
Conceptual
 70
     9
 71
     3
 72
     2
 73
     0
 90
        0
 40
-0.6
 41
-30.0
 62
     5
 63
     7
421
 16777215
 74
     2
 91
        2
 64
     7
 65
   257
 75
     1
175
     1
 42
40.0
 92
        8
 66
     7
 43
1.0
 76
     1
 77
     6
 78
     2
 67
     7
 79
     3
170
     0
171
     0
290
     0
174
     0
 93
        1
 44
0.0
173
     0
291
     0
 45
0.0
1001
ACAD
1000
AcDbSavedByObjectVersion
1070
     0
  0
VISUALSTYLE
  5
35
102
{ACAD_REACTORS
330
2A
102
}
330
2A
100
AcDbVisualStyle
  2
Dim
 70
    11
 71
     2
 72
     2
 73
     0
 90
        0
 40
-0.6
 41
-30.0
 62
     5
 63
     7
421
 16777215
 74
     1
 91
        4
 64
     7
 65
   257
 75
     1
175
     1
 42
1.0
 92
        8
 66
     7
 43
1.0
 76
     1
 77
     6
 78
     2
 67
     7
 79
     5
170
     0
171
     0
290
     0
174
     0
 93
        1
 44
-50.0
173
     0
291
     1
 45
0.0
1001
ACAD
1000
AcDbSavedByObjectVersion
1070
     0
  0
VISUALSTYLE
  5
39
102
{ACAD_REACTORS
330
2A
102
}
330
2A
100
AcDbVisualStyle
  2
Facepattern
 70
    15
 71
     2
 72
     2
 73
     0
 90
        0
 40
-0.6
 41
-30.0
 62
     5
 63
     7
421
 16777215
 74
     1
 91
        4
 64
     7
 65
   257
 75
     1
175
     1
 42
1.0
 92
        8
 66
     7
 43
1.0
 76
     1
 77
     6
 78
     2
 67
     7
 79
     5
170
     0
171
     0
290
     0
174
     0
 93
        1
 44
0.0
173
     0
291
     1
 45
0.0
1001
ACAD
1000
AcDbSavedByObjectVersion
1070
     0
  0
VISUALSTYLE
  5
2B
102
{ACAD_REACTORS
330
2A
102
}
330
2A
100
AcDbVisualStyle
  2
Flat
 70
     0
 71
     2
 72
     1
 73
     1
 90
        2
 40
-0.6
 41
30.0
 62
     5
 63
     7
421
 16777215
 74
     0
 91
        4
 64
     7
 65
   257
 75
     1
175
     1
 42
1.0
 92
        8
 66
     7
 43
1.0
 76
     1
 77
     6
 78
     2
 67
     7
 79
     5
170
     0
171
     0
290
     0
174
     0
 93
       13
 44
0.0
173
     0
291
     1
 45
0.0
1001
ACAD
1000
AcDbSavedByObjectVersion
1070
     0
  0
VISUALSTYLE
  5
2C
102
{ACAD_REACTORS
330
2A
102
}
330
2A
100
AcDbVisualStyle
  2
FlatWithEdges
 70
     1
 71
     2
 72
     1
 73
     1
 90
        2
 40
-0.6
 41
30.0
 62
     5
 63
     7
421
 16777215
 74
     1
 91
        4
 64
     7
 65
   257
 75
     1
175
     1
 42
1.0
 92
        0
 66
   257
 43
1.0
 76
     1
 77
     6
 78
     2
 67
     7
 79
     5
170
     0
171
     0
290
     0
174
     0
 93
       13
 44
0.0
173
     0
291
     1
 45
0.0
1001
ACAD
1000
AcDbSavedByObjectVersion
1070
     0
  0
VISUALSTYLE
  5
2D
102
{ACAD_REACTORS
330
2A
102
}
330
2A
100
AcDbVisualStyle
  2
Gouraud
 70
     2
 71
     2
 72
     2
 73
     1
 90
        2
 40
-0.6
 41
30.0
 62
     5
 63
     7
421
 16777215
 74
     0
 91
        4
 64
     7
 65
   257
 75
     1
175
     1
 42
1.0
 92
        0
 66
     7
 43
1.0
 76
     1
 77
     6
 78
     2
 67
     7
 79
     5
170
     0
171
     0
290
     0
174
     0
 93
       13
 44
0.0
173
     0
291
     1
 45
0.0
1001
ACAD
1000
AcDbSavedByObjectVersion
1070
     0
  0
VISUALSTYLE
  5
2E
102
{ACAD_REACTORS
330
2A
102
}
330
2A
100
AcDbVisualStyle
  2
GouraudWithEdges
 70
     3
 71
     2
 72
     2
 73
     1
 90
        2
 40
-0.6
 41
30.0
 62
     5
 63
     7
421
 16777215
 74
     1
 91
        4
 64
     7
 65
   257
 75
     1
175
     1
 42
1.0
 92
        0
 66
   257
 43
1.0
 76
     1
 77
     6
 78
     2
 67
     7
 79
     5
170
     0
171
     0
290
     0
174
     0
 93
       13
 44
0.0
173
     0
291
     1
 45
0.0
1001
ACAD
1000
AcDbSavedByObjectVersion
1070
     0
  0
VISUALSTYLE
  5
38
102
{ACAD_REACTORS
330
2A
102
}
330
2A
100
AcDbVisualStyle
  2
Linepattern
 70
    14
 71
     2
 72
     2
 73
     0
 90
        0
 40
-0.6
 41
-30.0
 62
     5
 63
     7
421
 16777215
 74
     1
 91
        4
 64
     7
 65
   257
 75
     7
175
     7
 42
1.0
 92
        8
 66
     7
 43
1.0
 76
     1
 77
     6
 78
     2
 67
     7
 79
     5
170
     0
171
     0
290
     0
174
     0
 93
        1
 44
0.0
173
     0
291
     1
 45
0.0
1001
ACAD
1000
AcDbSavedByObjectVersion
1070
     0
  0
VISUALSTYLE
  5
33
102
{ACAD_REACTORS
330
2A
102
}
330
2A
100
AcDbVisualStyle
  2
Realistic
 70
     8
 71
     2
 72
     2
 73
     0
 90
        0
 40
-0.6
 41
-30.0
 62
     5
 63
     7
421
 16777215
 74
     1
 91
        0
 64
     7
 65
   257
 75
     1
175
     1
 42
1.0
 92
        8
 66
     8
424
  7895160
 43
1.0
 76
     1
 77
     6
 78
     2
 67
     7
 79
     5
170
     0
171
     0
290
     0
174
     0
 93
       13
 44
0.0
173
     0
291
     0
 45
0.0
1001
ACAD
1000
AcDbSavedByObjectVersion
1070
     0
  0
VISUALSTYLE
  5
37
102
{ACAD_REACTORS
330
2A
102
}
330
2A
100
AcDbVisualStyle
  2
Thicken
 70
    13
 71
     2
 72
     2
 73
     0
 90
        0
 40
-0.6
 41
-30.0
 62
     5
 63
     7
421
 16777215
 74
     1
 91
        4
 64
     7
 65
   257
 75
     1
175
     1
 42
1.0
 92
       12
 66
     7
 43
1.0
 76
     1
 77
     6
 78
     2
 67
     7
 79
     5
170
     0
171
     0
290
     0
174
     0
 93
        1
 44
0.0
173
     0
291
     1
 45
0.0
1001
ACAD
1000
AcDbSavedByObjectVersion
1070
     0
  0
ENDSEC
  0
EOF
