  0
SECTION
  2
HEADER
  9
$ACADVER
  1
AC1018
  9
$ACADMAINTVER
 70
     0
  9
$DWGCODEPAGE
  3
ANSI_932
  9
$INSBASE
 10
0.0
 20
0.0
 30
0.0
  9
$EXTMIN
 10
-840.0
 20
-594.0
 30
0.0
  9
$EXTMAX
 10
840.0
 20
594.0
 30
0.0
  9
$LIMMIN
 10
-840.0
 20
-594.0
  9
$LIMMAX
 10
840.0
 20
594.0
  9
$ORTHOMODE
 70
     0
  9
$REGENMODE
 70
     1
  9
$FILLMODE
 70
     1
  9
$QTEXTMODE
 70
     0
  9
$MIRRTEXT
 70
     1
  9
$LTSCALE
 40
4.0
  9
$ATTMODE
 70
     1
  9
$TEXTSIZE
 40
2.5
  9
$TRACEWID
 40
1.0
  9
$TEXTSTYLE
  7
Standard
  9
$CLAYER
  8
0
  9
$CELTYPE
  6
ByLayer
  9
$CECOLOR
 62
   256
  9
$CELTSCALE
 40
1.0
  9
$DISPSILH
 70
     0
  9
$DIMSCALE
 40
1.0
  9
$DIMASZ
 40
2.5
  9
$DIMEXO
 40
0.625
  9
$DIMDLI
 40
3.75
  9
$DIMRND
 40
0.0
  9
$DIMDLE
 40
0.0
  9
$DIMEXE
 40
1.25
  9
$DIMTP
 40
0.0
  9
$DIMTM
 40
0.0
  9
$DIMTXT
 40
2.5
  9
$DIMCEN
 40
2.5
  9
$DIMTSZ
 40
0.0
  9
$DIMTOL
 70
     0
  9
$DIMLIM
 70
     0
  9
$DIMTIH
 70
     0
  9
$DIMTOH
 70
     0
  9
$DIMSE1
 70
     0
  9
$DIMSE2
 70
     0
  9
$DIMTAD
 70
     1
  9
$DIMZIN
 70
     8
  9
$DIMBLK
  1

  9
$DIMASO
 70
     1
  9
$DIMSHO
 70
     1
  9
$DIMPOST
  1

  9
$DIMAPOST
  1

  9
$DIMALT
 70
     0
  9
$DIMALTD
 70
     3
  9
$DIMALTF
 40
0.03937007874016
  9
$DIMLFAC
 40
1.0
  9
$DIMTOFL
 70
     1
  9
$DIMTVP
 40
0.0
  9
$DIMTIX
 70
     0
  9
$DIMSOXD
 70
     0
  9
$DIMSAH
 70
     0
  9
$DIMBLK1
  1

  9
$DIMBLK2
  1

  9
$DIMSTYLE
  2
ISO-25
  9
$DIMCLRD
 70
     0
  9
$DIMCLRE
 70
     0
  9
$DIMCLRT
 70
     0
  9
$DIMTFAC
 40
1.0
  9
$DIMGAP
 40
0.625
  9
$DIMJUST
 70
     0
  9
$DIMSD1
 70
     0
  9
$DIMSD2
 70
     0
  9
$DIMTOLJ
 70
     0
  9
$DIMTZIN
 70
     8
  9
$DIMALTZ
 70
     0
  9
$DIMALTTZ
 70
     0
  9
$DIMUPT
 70
     0
  9
$DIMDEC
 70
     2
  9
$DIMTDEC
 70
     2
  9
$DIMALTU
 70
     2
  9
$DIMALTTD
 70
     3
  9
$DIMTXSTY
  7
Standard
  9
$DIMAUNIT
 70
     0
  9
$DIMADEC
 70
     0
  9
$DIMALTRND
 40
0.0
  9
$DIMAZIN
 70
     0
  9
$DIMDSEP
 70
    44
  9
$DIMATFIT
 70
     3
  9
$DIMFRAC
 70
     0
  9
$DIMLDRBLK
  1

  9
$DIMLUNIT
 70
     2
  9
$DIMLWD
 70
    -2
  9
$DIMLWE
 70
    -2
  9
$DIMTMOVE
 70
     0
  9
$LUNITS
 70
     2
  9
$LUPREC
 70
     4
  9
$SKETCHINC
 40
1.0
  9
$FILLETRAD
 40
10.0
  9
$AUNITS
 70
     0
  9
$AUPREC
 70
     0
  9
$MENU
  1
.
  9
$ELEVATION
 40
0.0
  9
$PELEVATION
 40
0.0
  9
$THICKNESS
 40
0.0
  9
$LIMCHECK
 70
     0
  9
$CHAMFERA
 40
10.0
  9
$CHAMFERB
 40
10.0
  9
$CHAMFERC
 40
20.0
  9
$CHAMFERD
 40
0.0
  9
$SKPOLY
 70
     0
  9
$TDCREATE
 40
2456498.823234225
  9
$TDUCREATE
 40
2456498.448234225
  9
$TDUPDATE
 40
2456498.823234236
  9
$TDUUPDATE
 40
2456498.448234236
  9
$TDINDWG
 40
0.0000000116
  9
$TDUSRTIMER
 40
0.0000000116
  9
$USRTIMER
 70
     1
  9
$ANGBASE
 50
0.0
  9
$ANGDIR
 70
     0
  9
$PDMODE
 70
     0
  9
$PDSIZE
 40
0.0
  9
$PLINEWID
 40
0.0
  9
$SPLFRAME
 70
     0
  9
$SPLINETYPE
 70
     6
  9
$SPLINESEGS
 70
     8
  9
$HANDSEED
  5
523
  9
$SURFTAB1
 70
     6
  9
$SURFTAB2
 70
     6
  9
$SURFTYPE
 70
     6
  9
$SURFU
 70
     6
  9
$SURFV
 70
     6
  9
$UCSBASE
  2

  9
$UCSNAME
  2

  9
$UCSORG
 10
0.0
 20
0.0
 30
0.0
  9
$UCSXDIR
 10
1.0
 20
0.0
 30
0.0
  9
$UCSYDIR
 10
0.0
 20
1.0
 30
0.0
  9
$UCSORTHOREF
  2

  9
$UCSORTHOVIEW
 70
     0
  9
$UCSORGTOP
 10
0.0
 20
0.0
 30
0.0
  9
$UCSORGBOTTOM
 10
0.0
 20
0.0
 30
0.0
  9
$UCSORGLEFT
 10
0.0
 20
0.0
 30
0.0
  9
$UCSORGRIGHT
 10
0.0
 20
0.0
 30
0.0
  9
$UCSORGFRONT
 10
0.0
 20
0.0
 30
0.0
  9
$UCSORGBACK
 10
0.0
 20
0.0
 30
0.0
  9
$PUCSBASE
  2

  9
$PUCSNAME
  2

  9
$PUCSORG
 10
0.0
 20
0.0
 30
0.0
  9
$PUCSXDIR
 10
1.0
 20
0.0
 30
0.0
  9
$PUCSYDIR
 10
0.0
 20
1.0
 30
0.0
  9
$PUCSORTHOREF
  2

  9
$PUCSORTHOVIEW
 70
     0
  9
$PUCSORGTOP
 10
0.0
 20
0.0
 30
0.0
  9
$PUCSORGBOTTOM
 10
0.0
 20
0.0
 30
0.0
  9
$PUCSORGLEFT
 10
0.0
 20
0.0
 30
0.0
  9
$PUCSORGRIGHT
 10
0.0
 20
0.0
 30
0.0
  9
$PUCSORGFRONT
 10
0.0
 20
0.0
 30
0.0
  9
$PUCSORGBACK
 10
0.0
 20
0.0
 30
0.0
  9
$USERI1
 70
     0
  9
$USERI2
 70
     0
  9
$USERI3
 70
     0
  9
$USERI4
 70
     0
  9
$USERI5
 70
     0
  9
$USERR1
 40
0.0
  9
$USERR2
 40
0.0
  9
$USERR3
 40
0.0
  9
$USERR4
 40
0.0
  9
$USERR5
 40
0.0
  9
$WORLDVIEW
 70
     1
  9
$SHADEDGE
 70
     3
  9
$SHADEDIF
 70
    70
  9
$TILEMODE
 70
     1
  9
$MAXACTVP
 70
    64
  9
$PINSBASE
 10
0.0
 20
0.0
 30
0.0
  9
$PLIMCHECK
 70
     0
  9
$PEXTMIN
 10
1.000000000000000E+20
 20
1.000000000000000E+20
 30
1.000000000000000E+20
  9
$PEXTMAX
 10
-1.000000000000000E+20
 20
-1.000000000000000E+20
 30
-1.000000000000000E+20
  9
$PLIMMIN
 10
0.0
 20
0.0
  9
$PLIMMAX
 10
420.0
 20
297.0
  9
$UNITMODE
 70
     0
  9
$VISRETAIN
 70
     1
  9
$PLINEGEN
 70
     0
  9
$PSLTSCALE
 70
     1
  9
$TREEDEPTH
 70
  3020
  9
$CMLSTYLE
  2
Standard
  9
$CMLJUST
 70
     0
  9
$CMLSCALE
 40
20.0
  9
$PROXYGRAPHICS
 70
     1
  9
$MEASUREMENT
 70
     1
  9
$CELWEIGHT
370
    -1
  9
$ENDCAPS
280
     0
  9
$JOINSTYLE
280
     0
  9
$LWDISPLAY
290
     0
  9
$INSUNITS
 70
     4
  9
$HYPERLINKBASE
  1

  9
$STYLESHEET
  1

  9
$XEDIT
290
     1
  9
$CEPSNTYPE
380
     0
  9
$PSTYLEMODE
290
     1
  9
$FINGERPRINTGUID
  2
{1D71024E-D172-4546-AF50-A9A8763BFAC9}
  9
$VERSIONGUID
  2
{FAEB1C32-E019-11D5-929B-00C0DF256EC4}
  9
$EXTNAMES
290
     1
  9
$PSVPSCALE
 40
0.0
  9
$OLESTARTUP
290
     0
  9
$SORTENTS
280
   127
  9
$INDEXCTL
280
     0
  9
$HIDETEXT
280
     1
  9
$XCLIPFRAME
290
     0
  9
$HALOGAP
280
     0
  9
$OBSCOLOR
 70
   257
  9
$OBSLTYPE
280
     0
  9
$INTERSECTIONDISPLAY
280
     0
  9
$INTERSECTIONCOLOR
 70
   257
  9
$DIMASSOC
280
     2
  9
$PROJECTNAME
  1

  0
ENDSEC
  0
SECTION
  2
CLASSES
  0
CLASS
  1
ACDBDICTIONARYWDFLT
  2
AcDbDictionaryWithDefault
  3
ObjectDBX Classes
 90
        0
 91
        4
280
     0
281
     0
  0
CLASS
  1
VISUALSTYLE
  2
AcDbVisualStyle
  3
ObjectDBX Classes
 90
     4095
 91
        4
280
     0
281
     0
  0
ENDSEC
  0
SECTION
  2
TABLES
  0
TABLE
  2
VPORT
  5
8
330
0
100
AcDbSymbolTable
 70
     1
  0
VPORT
  5
29
330
8
100
AcDbSymbolTableRecord
100
AcDbViewportTableRecord
  2
*Active
 70
     0
 10
0.0
 20
0.0
 11
1.0
 21
1.0
 12
0.0
 22
0.0
 13
0.0
 23
0.0
 14
10.0
 24
10.0
 15
10.0
 25
10.0
 16
0.0
 26
0.0
 36
1.0
 17
0.0
 27
0.0
 37
0.0
 40
1306.8
 41
1.414141414141414
 42
50.0
 43
0.0
 44
0.0
 50
0.0
 51
0.0
 71
     0
 72
 10000
 73
     1
 74
     3
 75
     0
 76
     0
 77
     0
 78
     0
281
     0
 65
     1
110
0.0
120
0.0
130
0.0
111
1.0
121
0.0
131
0.0
112
0.0
122
1.0
132
0.0
 79
     0
146
0.0
  0
ENDTAB
  0
TABLE
  2
LTYPE
  5
5
330
0
100
AcDbSymbolTable
 70
     2
  0
LTYPE
  5
14
330
5
100
AcDbSymbolTableRecord
100
AcDbLinetypeTableRecord
  2
ByBlock
 70
     0
  3

 72
    65
 73
     0
 40
0.0
  0
LTYPE
  5
15
330
5
100
AcDbSymbolTableRecord
100
AcDbLinetypeTableRecord
  2
ByLayer
 70
     0
  3

 72
    65
 73
     0
 40
0.0
  0
LTYPE
  5
16
330
5
100
AcDbSymbolTableRecord
100
AcDbLinetypeTableRecord
  2
Continuous
 70
     0
  3
Solid line
 72
    65
 73
     0
 40
0.0
  0
LTYPE
  5
3C
330
5
100
AcDbSymbolTableRecord
100
AcDbLinetypeTableRecord
  2
JWW_CENTER1
 70
     0
  3
-----  --  ----------  --  -----
 72
    65
 73
     4
 40
6.773333333333333
 49
4.233333333333333
 74
     0
 49
-0.8466666666666667
 74
     0
 49
0.8466666666666667
 74
     0
 49
-0.8466666666666667
 74
     0
  0
ENDTAB
  0
TABLE
  2
LAYER
  5
2
330
0
100
AcDbSymbolTable
 70
     4
  0
LAYER
  5
10
330
2
100
AcDbSymbolTableRecord
100
AcDbLayerTableRecord
  2
0
 70
     0
 62
     7
  6
Continuous
370
    -3
390
F
  0
LAYER
  5
3D
330
2
100
AcDbSymbolTableRecord
100
AcDbLayerTableRecord
  2
0-0
 70
     0
 62
     7
  6
Continuous
370
    -3
390
F
  0
LAYER
  5
3E
330
2
100
AcDbSymbolTableRecord
100
AcDbLayerTableRecord
  2
0-F
 70
     0
 62
     7
  6
Continuous
370
    -3
390
F
  0
LAYER
  5
3F
330
2
100
AcDbSymbolTableRecord
100
AcDbLayerTableRecord
  2
F-5
 70
     0
 62
     7
  6
Continuous
370
    -3
390
F
  0
ENDTAB
  0
TABLE
  2
STYLE
  5
3
330
0
100
AcDbSymbolTable
 70
     2
  0
STYLE
  5
11
330
3
100
AcDbSymbolTableRecord
100
AcDbTextStyleTableRecord
  2
Standard
 70
     0
 40
0.0
 41
1.0
 50
0.0
 71
     0
 42
2.5
  3
txt
  4

1001
ACAD
1000

1071
        0
  0
STYLE
  5
3B
330
3
100
AcDbSymbolTableRecord
100
AcDbTextStyleTableRecord
  2
ＭＳ ゴシック
 70
     0
 40
1.0
 41
1.0
 50
0.0
 71
     0
 42
10.0
  3

  4

1001
ACAD
1000
MS Gothic
1071
    32817
  0
ENDTAB
  0
TABLE
  2
VIEW
  5
6
330
0
100
AcDbSymbolTable
 70
     0
  0
ENDTAB
  0
TABLE
  2
UCS
  5
7
330
0
100
AcDbSymbolTable
 70
     0
  0
ENDTAB
  0
TABLE
  2
APPID
  5
9
330
0
100
AcDbSymbolTable
 70
     1
  0
APPID
  5
12
330
9
100
AcDbSymbolTableRecord
100
AcDbRegAppTableRecord
  2
ACAD
 70
     0
  0
ENDTAB
  0
TABLE
  2
DIMSTYLE
  5
A
330
0
100
AcDbSymbolTable
 70
     1
100
AcDbDimStyleTable
  0
DIMSTYLE
105
27
330
A
100
AcDbSymbolTableRecord
100
AcDbDimStyleTableRecord
  2
ISO-25
 70
     0
 41
2.5
 42
0.625
 43
3.75
 44
1.25
 73
     0
 74
     0
 77
     1
 78
     8
140
2.5
141
2.5
143
0.03937007874016
147
0.625
171
     3
172
     1
271
     2
272
     2
274
     3
278
    44
283
     0
284
     8
340
11
  0
ENDTAB
  0
TABLE
  2
BLOCK_RECORD
  5
1
330
0
100
AcDbSymbolTable
 70
     1
  0
BLOCK_RECORD
  5
1F
330
1
100
AcDbSymbolTableRecord
100
AcDbBlockTableRecord
  2
*Model_Space
340
22
  0
BLOCK_RECORD
  5
1B
330
1
100
AcDbSymbolTableRecord
100
AcDbBlockTableRecord
  2
*Paper_Space
340
1E
  0
BLOCK_RECORD
  5
23
330
1
100
AcDbSymbolTableRecord
100
AcDbBlockTableRecord
  2
*Paper_Space0
340
26
  0
ENDTAB
  0
ENDSEC
  0
SECTION
  2
BLOCKS
  0
BLOCK
  5
20
330
1F
100
AcDbEntity
  8
0
100
AcDbBlockBegin
  2
*Model_Space
 70
     0
 10
0.0
 20
0.0
 30
0.0
  3
*Model_Space
  1

  0
ENDBLK
  5
21
330
1F
100
AcDbEntity
  8
0
100
AcDbBlockEnd
  0
BLOCK
  5
1C
330
1B
100
AcDbEntity
 67
     1
  8
0
100
AcDbBlockBegin
  2
*Paper_Space
 70
     0
 10
0.0
 20
0.0
 30
0.0
  3
*Paper_Space
  1

  0
ENDBLK
  5
1D
330
1B
100
AcDbEntity
 67
     1
  8
0
100
AcDbBlockEnd
  0
BLOCK
  5
24
330
23
100
AcDbEntity
  8
0
100
AcDbBlockBegin
  2
*Paper_Space0
 70
     0
 10
0.0
 20
0.0
 30
0.0
  3
*Paper_Space0
  1

  0
ENDBLK
  5
25
330
23
100
AcDbEntity
  8
0
100
AcDbBlockEnd
  0
ENDSEC
  0
SECTION
  2
ENTITIES
  0
LINE
  5
40
330
1F
100
AcDbEntity
  8
0-0
  6
Continuous
 62
     3
370
     9
100
AcDbLine
 10
-465.3731516245249
 20
393.1351417335306
 30
0.0
 11
34.62681538349875
 21
393.1351417335306
 31
0.0
  0
LINE
  5
41
330
1F
100
AcDbEntity
  8
0-0
  6
Continuous
 62
     3
370
     9
100
AcDbLine
 10
34.62681538349875
 20
-106.8648747624576
 30
0.0
 11
34.62681538349875
 21
393.1351417335306
 31
0.0
  0
LINE
  5
42
330
1F
100
AcDbEntity
  8
0-0
  6
Continuous
 62
     3
370
     9
100
AcDbLine
 10
-208.3731945140942
 20
151.6351615287164
 30
0.0
 11
-208.3731945140942
 21
174.1351615287164
 31
0.0
  0
LINE
  5
43
330
1F
100
AcDbEntity
  8
0-0
  6
Continuous
 62
     3
370
     9
100
AcDbLine
 10
-206.8731648213154
 20
150.1351813239022
 30
0.0
 11
-184.3731648213154
 21
150.1351813239022
 31
0.0
  0
LINE
  5
44
330
1F
100
AcDbEntity
  8
0-0
  6
Continuous
 62
     3
370
     9
100
AcDbLine
 10
-182.8731846165012
 20
151.6351615287164
 30
0.0
 11
-182.8731846165012
 21
174.1351615287164
 31
0.0
  0
LINE
  5
45
330
1F
100
AcDbEntity
  8
0-0
  6
Continuous
 62
     3
370
     9
100
AcDbLine
 10
-206.8731648213154
 20
175.6351912214951
 30
0.0
 11
-184.3731648213154
 21
175.6351912214951
 31
0.0
  0
LINE
  5
46
330
1F
100
AcDbEntity
  8
0-0
  6
Continuous
 62
     3
370
     9
100
AcDbLine
 10
-167.3731582229201
 20
175.6351912214951
 30
0.0
 11
-144.8731582229201
 21
175.6351912214951
 31
0.0
  0
LINE
  5
47
330
1F
100
AcDbEntity
  8
0-0
  6
Continuous
 62
     3
370
     9
100
AcDbLine
 10
-143.3731780181059
 20
151.6351615287164
 30
0.0
 11
-143.3731780181059
 21
174.1351615287164
 31
0.0
  0
LINE
  5
48
330
1F
100
AcDbEntity
  8
0-0
  6
Continuous
 62
     3
370
     9
100
AcDbLine
 10
-167.3731582229201
 20
150.1351813239022
 30
0.0
 11
-144.8731582229201
 21
150.1351813239022
 31
0.0
  0
LINE
  5
49
330
1F
100
AcDbEntity
  8
0-0
  6
Continuous
 62
     3
370
     9
100
AcDbLine
 10
-168.8731879156988
 20
151.6351615287164
 30
0.0
 11
-168.8731879156988
 21
174.1351615287164
 31
0.0
  0
LINE
  5
4A
330
1F
100
AcDbEntity
  8
0-0
  6
Continuous
 62
     3
370
     9
100
AcDbLine
 10
-129.3731813173035
 20
151.6351615287164
 30
0.0
 11
-129.3731813173035
 21
174.1351615287164
 31
0.0
  0
LINE
  5
4B
330
1F
100
AcDbEntity
  8
0-0
  6
Continuous
 62
     3
370
     9
100
AcDbLine
 10
-127.8731516245249
 20
150.1351813239022
 30
0.0
 11
-105.3731516245249
 21
150.1351813239022
 31
0.0
  0
LINE
  5
4C
330
1F
100
AcDbEntity
  8
0-0
  6
Continuous
 62
     3
370
     9
100
AcDbLine
 10
-103.8731714197107
 20
151.6351615287164
 30
0.0
 11
-103.8731714197107
 21
174.1351615287164
 31
0.0
  0
LINE
  5
4D
330
1F
100
AcDbEntity
  8
0-0
  6
Continuous
 62
     3
370
     9
100
AcDbLine
 10
-127.8731516245249
 20
175.6351912214951
 30
0.0
 11
-105.3731516245249
 21
175.6351912214951
 31
0.0
  0
LINE
  5
4E
330
1F
100
AcDbEntity
  8
0-0
  6
Continuous
 62
     3
370
     9
100
AcDbLine
 10
-88.37319451409417
 20
175.6351912214951
 30
0.0
 11
-65.87319451409417
 21
175.6351912214951
 31
0.0
  0
LINE
  5
4F
330
1F
100
AcDbEntity
  8
0-0
  6
Continuous
 62
     3
370
     9
100
AcDbLine
 10
-64.37316482131541
 20
151.6351615287164
 30
0.0
 11
-64.37316482131541
 21
174.1351615287164
 31
0.0
  0
LINE
  5
50
330
1F
100
AcDbEntity
  8
0-0
  6
Continuous
 62
     3
370
     9
100
AcDbLine
 10
-88.37319451409417
 20
150.1351813239022
 30
0.0
 11
-65.87319451409417
 21
150.1351813239022
 31
0.0
  0
LINE
  5
51
330
1F
100
AcDbEntity
  8
0-0
  6
Continuous
 62
     3
370
     9
100
AcDbLine
 10
-89.87317471890833
 20
151.6351615287164
 30
0.0
 11
-89.87317471890833
 21
174.1351615287164
 31
0.0
  0
LINE
  5
52
330
1F
100
AcDbEntity
  8
0-0
  6
Continuous
 62
     3
370
     9
100
AcDbLine
 10
-50.37316812051301
 20
151.6351615287164
 30
0.0
 11
-50.37316812051301
 21
174.1351615287164
 31
0.0
  0
LINE
  5
53
330
1F
100
AcDbEntity
  8
0-0
  6
Continuous
 62
     3
370
     9
100
AcDbLine
 10
-48.87318791569885
 20
150.1351813239022
 30
0.0
 11
-26.37313842773438
 21
150.1351813239022
 31
0.0
  0
LINE
  5
54
330
1F
100
AcDbEntity
  8
0-0
  6
Continuous
 62
     3
370
     9
100
AcDbLine
 10
-24.8731582229201
 20
151.6351615287164
 30
0.0
 11
-24.8731582229201
 21
174.1351615287164
 31
0.0
  0
LINE
  5
55
330
1F
100
AcDbEntity
  8
0-0
  6
Continuous
 62
     3
370
     9
100
AcDbLine
 10
-48.87318791569885
 20
175.6351912214951
 30
0.0
 11
-26.37313842773438
 21
175.6351912214951
 31
0.0
  0
LINE
  5
56
330
1F
100
AcDbEntity
  8
0-0
  6
Continuous
 62
     3
370
     9
100
AcDbLine
 10
-9.373131829339059
 20
175.6351912214951
 30
0.0
 11
13.12686817066094
 21
175.6351912214951
 31
0.0
  0
LINE
  5
57
330
1F
100
AcDbEntity
  8
0-0
  6
Continuous
 62
     3
370
     9
100
AcDbLine
 10
14.62684837547511
 20
151.6351615287164
 30
0.0
 11
14.62684837547511
 21
174.1351615287164
 31
0.0
  0
LINE
  5
58
330
1F
100
AcDbEntity
  8
0-0
  6
Continuous
 62
     3
370
     9
100
AcDbLine
 10
-9.373131829339059
 20
150.1351813239022
 30
0.0
 11
13.12686817066094
 21
150.1351813239022
 31
0.0
  0
LINE
  5
59
330
1F
100
AcDbEntity
  8
0-0
  6
Continuous
 62
     3
370
     9
100
AcDbLine
 10
-10.87321101008229
 20
151.6351615287164
 30
0.0
 11
-10.87321101008229
 21
174.1351615287164
 31
0.0
  0
LINE
  5
5A
330
1F
100
AcDbEntity
  8
0-0
  6
Continuous
 62
     3
370
     9
100
AcDbLine
 10
-10.87321101008229
 20
191.1351681271117
 30
0.0
 11
-10.87321101008229
 21
213.6351681271117
 31
0.0
  0
LINE
  5
5B
330
1F
100
AcDbEntity
  8
0-0
  6
Continuous
 62
     3
370
     9
100
AcDbLine
 10
-9.373131829339059
 20
189.6351879222975
 30
0.0
 11
13.12686817066094
 21
189.6351879222975
 31
0.0
  0
LINE
  5
5C
330
1F
100
AcDbEntity
  8
0-0
  6
Continuous
 62
     3
370
     9
100
AcDbLine
 10
14.62684837547511
 20
191.1351681271117
 30
0.0
 11
14.62684837547511
 21
213.6351681271117
 31
0.0
  0
LINE
  5
5D
330
1F
100
AcDbEntity
  8
0-0
  6
Continuous
 62
     3
370
     9
100
AcDbLine
 10
-9.373131829339059
 20
215.1351483319258
 30
0.0
 11
13.12686817066094
 21
215.1351483319258
 31
0.0
  0
LINE
  5
5E
330
1F
100
AcDbEntity
  8
0-0
  6
Continuous
 62
     3
370
     9
100
AcDbLine
 10
-48.87318791569885
 20
215.1351483319258
 30
0.0
 11
-26.37313842773438
 21
215.1351483319258
 31
0.0
  0
LINE
  5
5F
330
1F
100
AcDbEntity
  8
0-0
  6
Continuous
 62
     3
370
     9
100
AcDbLine
 10
-24.8731582229201
 20
191.1351681271117
 30
0.0
 11
-24.8731582229201
 21
213.6351681271117
 31
0.0
  0
LINE
  5
60
330
1F
100
AcDbEntity
  8
0-0
  6
Continuous
 62
     3
370
     9
100
AcDbLine
 10
-48.87318791569885
 20
189.6351879222975
 30
0.0
 11
-26.37313842773438
 21
189.6351879222975
 31
0.0
  0
LINE
  5
61
330
1F
100
AcDbEntity
  8
0-0
  6
Continuous
 62
     3
370
     9
100
AcDbLine
 10
-50.37316812051301
 20
191.1351681271117
 30
0.0
 11
-50.37316812051301
 21
213.6351681271117
 31
0.0
  0
LINE
  5
62
330
1F
100
AcDbEntity
  8
0-0
  6
Continuous
 62
     3
370
     9
100
AcDbLine
 10
-89.87317471890833
 20
191.1351681271117
 30
0.0
 11
-89.87317471890833
 21
213.6351681271117
 31
0.0
  0
LINE
  5
63
330
1F
100
AcDbEntity
  8
0-0
  6
Continuous
 62
     3
370
     9
100
AcDbLine
 10
-88.37319451409417
 20
189.6351879222975
 30
0.0
 11
-65.87319451409417
 21
189.6351879222975
 31
0.0
  0
LINE
  5
64
330
1F
100
AcDbEntity
  8
0-0
  6
Continuous
 62
     3
370
     9
100
AcDbLine
 10
-64.37316482131541
 20
191.1351681271117
 30
0.0
 11
-64.37316482131541
 21
213.6351681271117
 31
0.0
  0
LINE
  5
65
330
1F
100
AcDbEntity
  8
0-0
  6
Continuous
 62
     3
370
     9
100
AcDbLine
 10
-88.37319451409417
 20
215.1351483319258
 30
0.0
 11
-65.87319451409417
 21
215.1351483319258
 31
0.0
  0
LINE
  5
66
330
1F
100
AcDbEntity
  8
0-0
  6
Continuous
 62
     3
370
     9
100
AcDbLine
 10
-127.8731516245249
 20
215.1351483319258
 30
0.0
 11
-105.3731516245249
 21
215.1351483319258
 31
0.0
  0
LINE
  5
67
330
1F
100
AcDbEntity
  8
0-0
  6
Continuous
 62
     3
370
     9
100
AcDbLine
 10
-103.8731714197107
 20
191.1351681271117
 30
0.0
 11
-103.8731714197107
 21
213.6351681271117
 31
0.0
  0
LINE
  5
68
330
1F
100
AcDbEntity
  8
0-0
  6
Continuous
 62
     3
370
     9
100
AcDbLine
 10
-127.8731516245249
 20
189.6351879222975
 30
0.0
 11
-105.3731516245249
 21
189.6351879222975
 31
0.0
  0
LINE
  5
69
330
1F
100
AcDbEntity
  8
0-0
  6
Continuous
 62
     3
370
     9
100
AcDbLine
 10
-129.3731813173035
 20
191.1351681271117
 30
0.0
 11
-129.3731813173035
 21
213.6351681271117
 31
0.0
  0
LINE
  5
6A
330
1F
100
AcDbEntity
  8
0-0
  6
Continuous
 62
     3
370
     9
100
AcDbLine
 10
-168.8731879156988
 20
191.1351681271117
 30
0.0
 11
-168.8731879156988
 21
213.6351681271117
 31
0.0
  0
LINE
  5
6B
330
1F
100
AcDbEntity
  8
0-0
  6
Continuous
 62
     3
370
     9
100
AcDbLine
 10
-167.3731582229201
 20
189.6351879222975
 30
0.0
 11
-144.8731582229201
 21
189.6351879222975
 31
0.0
  0
LINE
  5
6C
330
1F
100
AcDbEntity
  8
0-0
  6
Continuous
 62
     3
370
     9
100
AcDbLine
 10
-143.3731780181059
 20
191.1351681271117
 30
0.0
 11
-143.3731780181059
 21
213.6351681271117
 31
0.0
  0
LINE
  5
6D
330
1F
100
AcDbEntity
  8
0-0
  6
Continuous
 62
     3
370
     9
100
AcDbLine
 10
-167.3731582229201
 20
215.1351483319258
 30
0.0
 11
-144.8731582229201
 21
215.1351483319258
 31
0.0
  0
LINE
  5
6E
330
1F
100
AcDbEntity
  8
0-0
  6
Continuous
 62
     3
370
     9
100
AcDbLine
 10
-206.8731648213154
 20
215.1351483319258
 30
0.0
 11
-184.3731648213154
 21
215.1351483319258
 31
0.0
  0
LINE
  5
6F
330
1F
100
AcDbEntity
  8
0-0
  6
Continuous
 62
     3
370
     9
100
AcDbLine
 10
-182.8731846165012
 20
191.1351681271117
 30
0.0
 11
-182.8731846165012
 21
213.6351681271117
 31
0.0
  0
LINE
  5
70
330
1F
100
AcDbEntity
  8
0-0
  6
Continuous
 62
     3
370
     9
100
AcDbLine
 10
-206.8731648213154
 20
189.6351879222975
 30
0.0
 11
-184.3731648213154
 21
189.6351879222975
 31
0.0
  0
LINE
  5
71
330
1F
100
AcDbEntity
  8
0-0
  6
Continuous
 62
     3
370
     9
100
AcDbLine
 10
-208.3731945140942
 20
191.1351681271117
 30
0.0
 11
-208.3731945140942
 21
213.6351681271117
 31
0.0
  0
LINE
  5
72
330
1F
100
AcDbEntity
  8
0-0
  6
Continuous
 62
     3
370
     9
100
AcDbLine
 10
-208.3731945140942
 20
230.6351747255069
 30
0.0
 11
-208.3731945140942
 21
253.135174725507
 31
0.0
  0
LINE
  5
73
330
1F
100
AcDbEntity
  8
0-0
  6
Continuous
 62
     3
370
     9
100
AcDbLine
 10
-206.8731648213154
 20
229.1351945206927
 30
0.0
 11
-184.3731648213154
 21
229.1351945206927
 31
0.0
  0
LINE
  5
74
330
1F
100
AcDbEntity
  8
0-0
  6
Continuous
 62
     3
370
     9
100
AcDbLine
 10
-182.8731846165012
 20
230.6351747255069
 30
0.0
 11
-182.8731846165012
 21
253.135174725507
 31
0.0
  0
LINE
  5
75
330
1F
100
AcDbEntity
  8
0-0
  6
Continuous
 62
     3
370
     9
100
AcDbLine
 10
-206.8731648213154
 20
254.6351549303212
 30
0.0
 11
-184.3731648213154
 21
254.6351549303212
 31
0.0
  0
LINE
  5
76
330
1F
100
AcDbEntity
  8
0-0
  6
Continuous
 62
     3
370
     9
100
AcDbLine
 10
-167.3731582229201
 20
254.6351549303212
 30
0.0
 11
-144.8731582229201
 21
254.6351549303212
 31
0.0
  0
LINE
  5
77
330
1F
100
AcDbEntity
  8
0-0
  6
Continuous
 62
     3
370
     9
100
AcDbLine
 10
-143.3731780181059
 20
230.6351747255069
 30
0.0
 11
-143.3731780181059
 21
253.135174725507
 31
0.0
  0
LINE
  5
78
330
1F
100
AcDbEntity
  8
0-0
  6
Continuous
 62
     3
370
     9
100
AcDbLine
 10
-167.3731582229201
 20
229.1351945206927
 30
0.0
 11
-144.8731582229201
 21
229.1351945206927
 31
0.0
  0
LINE
  5
79
330
1F
100
AcDbEntity
  8
0-0
  6
Continuous
 62
     3
370
     9
100
AcDbLine
 10
-168.8731879156988
 20
230.6351747255069
 30
0.0
 11
-168.8731879156988
 21
253.135174725507
 31
0.0
  0
LINE
  5
7A
330
1F
100
AcDbEntity
  8
0-0
  6
Continuous
 62
     3
370
     9
100
AcDbLine
 10
-129.3731813173035
 20
230.6351747255069
 30
0.0
 11
-129.3731813173035
 21
253.135174725507
 31
0.0
  0
LINE
  5
7B
330
1F
100
AcDbEntity
  8
0-0
  6
Continuous
 62
     3
370
     9
100
AcDbLine
 10
-127.8731516245249
 20
229.1351945206927
 30
0.0
 11
-105.3731516245249
 21
229.1351945206927
 31
0.0
  0
LINE
  5
7C
330
1F
100
AcDbEntity
  8
0-0
  6
Continuous
 62
     3
370
     9
100
AcDbLine
 10
-103.8731714197107
 20
230.6351747255069
 30
0.0
 11
-103.8731714197107
 21
253.135174725507
 31
0.0
  0
LINE
  5
7D
330
1F
100
AcDbEntity
  8
0-0
  6
Continuous
 62
     3
370
     9
100
AcDbLine
 10
-127.8731516245249
 20
254.6351549303212
 30
0.0
 11
-105.3731516245249
 21
254.6351549303212
 31
0.0
  0
LINE
  5
7E
330
1F
100
AcDbEntity
  8
0-0
  6
Continuous
 62
     3
370
     9
100
AcDbLine
 10
-88.37319451409417
 20
254.6351549303212
 30
0.0
 11
-65.87319451409417
 21
254.6351549303212
 31
0.0
  0
LINE
  5
7F
330
1F
100
AcDbEntity
  8
0-0
  6
Continuous
 62
     3
370
     9
100
AcDbLine
 10
-64.37316482131541
 20
230.6351747255069
 30
0.0
 11
-64.37316482131541
 21
253.135174725507
 31
0.0
  0
LINE
  5
80
330
1F
100
AcDbEntity
  8
0-0
  6
Continuous
 62
     3
370
     9
100
AcDbLine
 10
-88.37319451409417
 20
229.1351945206927
 30
0.0
 11
-65.87319451409417
 21
229.1351945206927
 31
0.0
  0
LINE
  5
81
330
1F
100
AcDbEntity
  8
0-0
  6
Continuous
 62
     3
370
     9
100
AcDbLine
 10
-89.87317471890833
 20
230.6351747255069
 30
0.0
 11
-89.87317471890833
 21
253.135174725507
 31
0.0
  0
LINE
  5
82
330
1F
100
AcDbEntity
  8
0-0
  6
Continuous
 62
     3
370
     9
100
AcDbLine
 10
-50.37316812051301
 20
230.6351747255069
 30
0.0
 11
-50.37316812051301
 21
253.135174725507
 31
0.0
  0
LINE
  5
83
330
1F
100
AcDbEntity
  8
0-0
  6
Continuous
 62
     3
370
     9
100
AcDbLine
 10
-48.87318791569885
 20
229.1351945206927
 30
0.0
 11
-26.37313842773438
 21
229.1351945206927
 31
0.0
  0
LINE
  5
84
330
1F
100
AcDbEntity
  8
0-0
  6
Continuous
 62
     3
370
     9
100
AcDbLine
 10
-24.8731582229201
 20
230.6351747255069
 30
0.0
 11
-24.8731582229201
 21
253.135174725507
 31
0.0
  0
LINE
  5
85
330
1F
100
AcDbEntity
  8
0-0
  6
Continuous
 62
     3
370
     9
100
AcDbLine
 10
-48.87318791569885
 20
254.6351549303212
 30
0.0
 11
-26.37313842773438
 21
254.6351549303212
 31
0.0
  0
LINE
  5
86
330
1F
100
AcDbEntity
  8
0-0
  6
Continuous
 62
     3
370
     9
100
AcDbLine
 10
-9.373131829339059
 20
254.6351549303212
 30
0.0
 11
13.12686817066094
 21
254.6351549303212
 31
0.0
  0
LINE
  5
87
330
1F
100
AcDbEntity
  8
0-0
  6
Continuous
 62
     3
370
     9
100
AcDbLine
 10
14.62684837547511
 20
230.6351747255069
 30
0.0
 11
14.62684837547511
 21
253.135174725507
 31
0.0
  0
LINE
  5
88
330
1F
100
AcDbEntity
  8
0-0
  6
Continuous
 62
     3
370
     9
100
AcDbLine
 10
-9.373131829339059
 20
229.1351945206927
 30
0.0
 11
13.12686817066094
 21
229.1351945206927
 31
0.0
  0
LINE
  5
89
330
1F
100
AcDbEntity
  8
0-0
  6
Continuous
 62
     3
370
     9
100
AcDbLine
 10
-10.87321101008229
 20
230.6351747255069
 30
0.0
 11
-10.87321101008229
 21
253.135174725507
 31
0.0
  0
LINE
  5
8A
330
1F
100
AcDbEntity
  8
0-0
  6
Continuous
 62
     3
370
     9
100
AcDbLine
 10
-10.87321101008229
 20
270.1351813239022
 30
0.0
 11
-10.87321101008229
 21
292.6351813239022
 31
0.0
  0
LINE
  5
8B
330
1F
100
AcDbEntity
  8
0-0
  6
Continuous
 62
     3
370
     9
100
AcDbLine
 10
-9.373131829339059
 20
268.635201119088
 30
0.0
 11
13.12686817066094
 21
268.635201119088
 31
0.0
  0
LINE
  5
8C
330
1F
100
AcDbEntity
  8
0-0
  6
Continuous
 62
     3
370
     9
100
AcDbLine
 10
14.62684837547511
 20
270.1351813239022
 30
0.0
 11
14.62684837547511
 21
292.6351813239022
 31
0.0
  0
LINE
  5
8D
330
1F
100
AcDbEntity
  8
0-0
  6
Continuous
 62
     3
370
     9
100
AcDbLine
 10
-9.373131829339059
 20
294.1351615287164
 30
0.0
 11
13.12686817066094
 21
294.1351615287164
 31
0.0
  0
LINE
  5
8E
330
1F
100
AcDbEntity
  8
0-0
  6
Continuous
 62
     3
370
     9
100
AcDbLine
 10
-48.87318791569885
 20
294.1351615287164
 30
0.0
 11
-26.37313842773438
 21
294.1351615287164
 31
0.0
  0
LINE
  5
8F
330
1F
100
AcDbEntity
  8
0-0
  6
Continuous
 62
     3
370
     9
100
AcDbLine
 10
-24.8731582229201
 20
270.1351813239022
 30
0.0
 11
-24.8731582229201
 21
292.6351813239022
 31
0.0
  0
LINE
  5
90
330
1F
100
AcDbEntity
  8
0-0
  6
Continuous
 62
     3
370
     9
100
AcDbLine
 10
-48.87318791569885
 20
268.635201119088
 30
0.0
 11
-26.37313842773438
 21
268.635201119088
 31
0.0
  0
LINE
  5
91
330
1F
100
AcDbEntity
  8
0-0
  6
Continuous
 62
     3
370
     9
100
AcDbLine
 10
-50.37316812051301
 20
270.1351813239022
 30
0.0
 11
-50.37316812051301
 21
292.6351813239022
 31
0.0
  0
LINE
  5
92
330
1F
100
AcDbEntity
  8
0-0
  6
Continuous
 62
     3
370
     9
100
AcDbLine
 10
-89.87317471890833
 20
270.1351813239022
 30
0.0
 11
-89.87317471890833
 21
292.6351813239022
 31
0.0
  0
LINE
  5
93
330
1F
100
AcDbEntity
  8
0-0
  6
Continuous
 62
     3
370
     9
100
AcDbLine
 10
-88.37319451409417
 20
268.635201119088
 30
0.0
 11
-65.87319451409417
 21
268.635201119088
 31
0.0
  0
LINE
  5
94
330
1F
100
AcDbEntity
  8
0-0
  6
Continuous
 62
     3
370
     9
100
AcDbLine
 10
-64.37316482131541
 20
270.1351813239022
 30
0.0
 11
-64.37316482131541
 21
292.6351813239022
 31
0.0
  0
LINE
  5
95
330
1F
100
AcDbEntity
  8
0-0
  6
Continuous
 62
     3
370
     9
100
AcDbLine
 10
-88.37319451409417
 20
294.1351615287164
 30
0.0
 11
-65.87319451409417
 21
294.1351615287164
 31
0.0
  0
LINE
  5
96
330
1F
100
AcDbEntity
  8
0-0
  6
Continuous
 62
     3
370
     9
100
AcDbLine
 10
-127.8731516245249
 20
294.1351615287164
 30
0.0
 11
-105.3731516245249
 21
294.1351615287164
 31
0.0
  0
LINE
  5
97
330
1F
100
AcDbEntity
  8
0-0
  6
Continuous
 62
     3
370
     9
100
AcDbLine
 10
-103.8731714197107
 20
270.1351813239022
 30
0.0
 11
-103.8731714197107
 21
292.6351813239022
 31
0.0
  0
LINE
  5
98
330
1F
100
AcDbEntity
  8
0-0
  6
Continuous
 62
     3
370
     9
100
AcDbLine
 10
-127.8731516245249
 20
268.635201119088
 30
0.0
 11
-105.3731516245249
 21
268.635201119088
 31
0.0
  0
LINE
  5
99
330
1F
100
AcDbEntity
  8
0-0
  6
Continuous
 62
     3
370
     9
100
AcDbLine
 10
-129.3731813173035
 20
270.1351813239022
 30
0.0
 11
-129.3731813173035
 21
292.6351813239022
 31
0.0
  0
LINE
  5
9A
330
1F
100
AcDbEntity
  8
0-0
  6
Continuous
 62
     3
370
     9
100
AcDbLine
 10
-168.8731879156988
 20
270.1351813239022
 30
0.0
 11
-168.8731879156988
 21
292.6351813239022
 31
0.0
  0
LINE
  5
9B
330
1F
100
AcDbEntity
  8
0-0
  6
Continuous
 62
     3
370
     9
100
AcDbLine
 10
-167.3731582229201
 20
268.635201119088
 30
0.0
 11
-144.8731582229201
 21
268.635201119088
 31
0.0
  0
LINE
  5
9C
330
1F
100
AcDbEntity
  8
0-0
  6
Continuous
 62
     3
370
     9
100
AcDbLine
 10
-143.3731780181059
 20
270.1351813239022
 30
0.0
 11
-143.3731780181059
 21
292.6351813239022
 31
0.0
  0
LINE
  5
9D
330
1F
100
AcDbEntity
  8
0-0
  6
Continuous
 62
     3
370
     9
100
AcDbLine
 10
-167.3731582229201
 20
294.1351615287164
 30
0.0
 11
-144.8731582229201
 21
294.1351615287164
 31
0.0
  0
LINE
  5
9E
330
1F
100
AcDbEntity
  8
0-0
  6
Continuous
 62
     3
370
     9
100
AcDbLine
 10
-206.8731648213154
 20
294.1351615287164
 30
0.0
 11
-184.3731648213154
 21
294.1351615287164
 31
0.0
  0
LINE
  5
9F
330
1F
100
AcDbEntity
  8
0-0
  6
Continuous
 62
     3
370
     9
100
AcDbLine
 10
-182.8731846165012
 20
270.1351813239022
 30
0.0
 11
-182.8731846165012
 21
292.6351813239022
 31
0.0
  0
LINE
  5
A0
330
1F
100
AcDbEntity
  8
0-0
  6
Continuous
 62
     3
370
     9
100
AcDbLine
 10
-206.8731648213154
 20
268.635201119088
 30
0.0
 11
-184.3731648213154
 21
268.635201119088
 31
0.0
  0
LINE
  5
A1
330
1F
100
AcDbEntity
  8
0-0
  6
Continuous
 62
     3
370
     9
100
AcDbLine
 10
-208.3731945140942
 20
270.1351813239022
 30
0.0
 11
-208.3731945140942
 21
292.6351813239022
 31
0.0
  0
LINE
  5
A2
330
1F
100
AcDbEntity
  8
0-0
  6
Continuous
 62
     3
370
     9
100
AcDbLine
 10
-208.3731945140942
 20
309.6351879222975
 30
0.0
 11
-208.3731945140942
 21
332.1351879222975
 31
0.0
  0
LINE
  5
A3
330
1F
100
AcDbEntity
  8
0-0
  6
Continuous
 62
     3
370
     9
100
AcDbLine
 10
-206.8731648213154
 20
308.1352077174834
 30
0.0
 11
-184.3731648213154
 21
308.1352077174834
 31
0.0
  0
LINE
  5
A4
330
1F
100
AcDbEntity
  8
0-0
  6
Continuous
 62
     3
370
     9
100
AcDbLine
 10
-182.8731846165012
 20
309.6351879222975
 30
0.0
 11
-182.8731846165012
 21
332.1351879222975
 31
0.0
  0
LINE
  5
A5
330
1F
100
AcDbEntity
  8
0-0
  6
Continuous
 62
     3
370
     9
100
AcDbLine
 10
-206.8731648213154
 20
333.6351681271117
 30
0.0
 11
-184.3731648213154
 21
333.6351681271117
 31
0.0
  0
LINE
  5
A6
330
1F
100
AcDbEntity
  8
0-0
  6
Continuous
 62
     3
370
     9
100
AcDbLine
 10
-167.3731582229201
 20
333.6351681271117
 30
0.0
 11
-144.8731582229201
 21
333.6351681271117
 31
0.0
  0
LINE
  5
A7
330
1F
100
AcDbEntity
  8
0-0
  6
Continuous
 62
     3
370
     9
100
AcDbLine
 10
-143.3731780181059
 20
309.6351879222975
 30
0.0
 11
-143.3731780181059
 21
332.1351879222975
 31
0.0
  0
LINE
  5
A8
330
1F
100
AcDbEntity
  8
0-0
  6
Continuous
 62
     3
370
     9
100
AcDbLine
 10
-167.3731582229201
 20
308.1352077174834
 30
0.0
 11
-144.8731582229201
 21
308.1352077174834
 31
0.0
  0
LINE
  5
A9
330
1F
100
AcDbEntity
  8
0-0
  6
Continuous
 62
     3
370
     9
100
AcDbLine
 10
-168.8731879156988
 20
309.6351879222975
 30
0.0
 11
-168.8731879156988
 21
332.1351879222975
 31
0.0
  0
LINE
  5
AA
330
1F
100
AcDbEntity
  8
0-0
  6
Continuous
 62
     3
370
     9
100
AcDbLine
 10
-129.3731813173035
 20
309.6351879222975
 30
0.0
 11
-129.3731813173035
 21
332.1351879222975
 31
0.0
  0
LINE
  5
AB
330
1F
100
AcDbEntity
  8
0-0
  6
Continuous
 62
     3
370
     9
100
AcDbLine
 10
-127.8731516245249
 20
308.1352077174834
 30
0.0
 11
-105.3731516245249
 21
308.1352077174834
 31
0.0
  0
LINE
  5
AC
330
1F
100
AcDbEntity
  8
0-0
  6
Continuous
 62
     3
370
     9
100
AcDbLine
 10
-103.8731714197107
 20
309.6351879222975
 30
0.0
 11
-103.8731714197107
 21
332.1351879222975
 31
0.0
  0
LINE
  5
AD
330
1F
100
AcDbEntity
  8
0-0
  6
Continuous
 62
     3
370
     9
100
AcDbLine
 10
-127.8731516245249
 20
333.6351681271117
 30
0.0
 11
-105.3731516245249
 21
333.6351681271117
 31
0.0
  0
LINE
  5
AE
330
1F
100
AcDbEntity
  8
0-0
  6
Continuous
 62
     3
370
     9
100
AcDbLine
 10
-88.37319451409417
 20
333.6351681271117
 30
0.0
 11
-65.87319451409417
 21
333.6351681271117
 31
0.0
  0
LINE
  5
AF
330
1F
100
AcDbEntity
  8
0-0
  6
Continuous
 62
     3
370
     9
100
AcDbLine
 10
-64.37316482131541
 20
309.6351879222975
 30
0.0
 11
-64.37316482131541
 21
332.1351879222975
 31
0.0
  0
LINE
  5
B0
330
1F
100
AcDbEntity
  8
0-0
  6
Continuous
 62
     3
370
     9
100
AcDbLine
 10
-88.37319451409417
 20
308.1352077174834
 30
0.0
 11
-65.87319451409417
 21
308.1352077174834
 31
0.0
  0
LINE
  5
B1
330
1F
100
AcDbEntity
  8
0-0
  6
Continuous
 62
     3
370
     9
100
AcDbLine
 10
-89.87317471890833
 20
309.6351879222975
 30
0.0
 11
-89.87317471890833
 21
332.1351879222975
 31
0.0
  0
LINE
  5
B2
330
1F
100
AcDbEntity
  8
0-0
  6
Continuous
 62
     3
370
     9
100
AcDbLine
 10
-50.37316812051301
 20
309.6351879222975
 30
0.0
 11
-50.37316812051301
 21
332.1351879222975
 31
0.0
  0
LINE
  5
B3
330
1F
100
AcDbEntity
  8
0-0
  6
Continuous
 62
     3
370
     9
100
AcDbLine
 10
-48.87318791569885
 20
308.1352077174834
 30
0.0
 11
-26.37313842773438
 21
308.1352077174834
 31
0.0
  0
LINE
  5
B4
330
1F
100
AcDbEntity
  8
0-0
  6
Continuous
 62
     3
370
     9
100
AcDbLine
 10
-24.8731582229201
 20
309.6351879222975
 30
0.0
 11
-24.8731582229201
 21
332.1351879222975
 31
0.0
  0
LINE
  5
B5
330
1F
100
AcDbEntity
  8
0-0
  6
Continuous
 62
     3
370
     9
100
AcDbLine
 10
-48.87318791569885
 20
333.6351681271117
 30
0.0
 11
-26.37313842773438
 21
333.6351681271117
 31
0.0
  0
LINE
  5
B6
330
1F
100
AcDbEntity
  8
0-0
  6
Continuous
 62
     3
370
     9
100
AcDbLine
 10
-9.373131829339059
 20
333.6351681271117
 30
0.0
 11
13.12686817066094
 21
333.6351681271117
 31
0.0
  0
LINE
  5
B7
330
1F
100
AcDbEntity
  8
0-0
  6
Continuous
 62
     3
370
     9
100
AcDbLine
 10
14.62684837547511
 20
309.6351879222975
 30
0.0
 11
14.62684837547511
 21
332.1351879222975
 31
0.0
  0
LINE
  5
B8
330
1F
100
AcDbEntity
  8
0-0
  6
Continuous
 62
     3
370
     9
100
AcDbLine
 10
-9.373131829339059
 20
308.1352077174834
 30
0.0
 11
13.12686817066094
 21
308.1352077174834
 31
0.0
  0
LINE
  5
B9
330
1F
100
AcDbEntity
  8
0-0
  6
Continuous
 62
     3
370
     9
100
AcDbLine
 10
-10.87321101008229
 20
309.6351879222975
 30
0.0
 11
-10.87321101008229
 21
332.1351879222975
 31
0.0
  0
LINE
  5
BA
330
1F
100
AcDbEntity
  8
0-0
  6
Continuous
 62
     3
370
     9
100
AcDbLine
 10
-10.87321101008229
 20
349.1351945206927
 30
0.0
 11
-10.87321101008229
 21
371.6351945206927
 31
0.0
  0
LINE
  5
BB
330
1F
100
AcDbEntity
  8
0-0
  6
Continuous
 62
     3
370
     9
100
AcDbLine
 10
-9.373131829339059
 20
347.6352143158786
 30
0.0
 11
13.12686817066094
 21
347.6352143158786
 31
0.0
  0
LINE
  5
BC
330
1F
100
AcDbEntity
  8
0-0
  6
Continuous
 62
     3
370
     9
100
AcDbLine
 10
14.62684837547511
 20
349.1351945206927
 30
0.0
 11
14.62684837547511
 21
371.6351945206927
 31
0.0
  0
LINE
  5
BD
330
1F
100
AcDbEntity
  8
0-0
  6
Continuous
 62
     3
370
     9
100
AcDbLine
 10
-9.373131829339059
 20
373.135174725507
 30
0.0
 11
13.12686817066094
 21
373.135174725507
 31
0.0
  0
LINE
  5
BE
330
1F
100
AcDbEntity
  8
0-0
  6
Continuous
 62
     3
370
     9
100
AcDbLine
 10
-48.87318791569885
 20
373.135174725507
 30
0.0
 11
-26.37313842773438
 21
373.135174725507
 31
0.0
  0
LINE
  5
BF
330
1F
100
AcDbEntity
  8
0-0
  6
Continuous
 62
     3
370
     9
100
AcDbLine
 10
-24.8731582229201
 20
349.1351945206927
 30
0.0
 11
-24.8731582229201
 21
371.6351945206927
 31
0.0
  0
LINE
  5
C0
330
1F
100
AcDbEntity
  8
0-0
  6
Continuous
 62
     3
370
     9
100
AcDbLine
 10
-48.87318791569885
 20
347.6352143158786
 30
0.0
 11
-26.37313842773438
 21
347.6352143158786
 31
0.0
  0
LINE
  5
C1
330
1F
100
AcDbEntity
  8
0-0
  6
Continuous
 62
     3
370
     9
100
AcDbLine
 10
-50.37316812051301
 20
349.1351945206927
 30
0.0
 11
-50.37316812051301
 21
371.6351945206927
 31
0.0
  0
LINE
  5
C2
330
1F
100
AcDbEntity
  8
0-0
  6
Continuous
 62
     3
370
     9
100
AcDbLine
 10
-89.87317471890833
 20
349.1351945206927
 30
0.0
 11
-89.87317471890833
 21
371.6351945206927
 31
0.0
  0
LINE
  5
C3
330
1F
100
AcDbEntity
  8
0-0
  6
Continuous
 62
     3
370
     9
100
AcDbLine
 10
-88.37319451409417
 20
347.6352143158786
 30
0.0
 11
-65.87319451409417
 21
347.6352143158786
 31
0.0
  0
LINE
  5
C4
330
1F
100
AcDbEntity
  8
0-0
  6
Continuous
 62
     3
370
     9
100
AcDbLine
 10
-64.37316482131541
 20
349.1351945206927
 30
0.0
 11
-64.37316482131541
 21
371.6351945206927
 31
0.0
  0
LINE
  5
C5
330
1F
100
AcDbEntity
  8
0-0
  6
Continuous
 62
     3
370
     9
100
AcDbLine
 10
-88.37319451409417
 20
373.135174725507
 30
0.0
 11
-65.87319451409417
 21
373.135174725507
 31
0.0
  0
LINE
  5
C6
330
1F
100
AcDbEntity
  8
0-0
  6
Continuous
 62
     3
370
     9
100
AcDbLine
 10
-127.8731516245249
 20
373.135174725507
 30
0.0
 11
-105.3731516245249
 21
373.135174725507
 31
0.0
  0
LINE
  5
C7
330
1F
100
AcDbEntity
  8
0-0
  6
Continuous
 62
     3
370
     9
100
AcDbLine
 10
-103.8731714197107
 20
349.1351945206927
 30
0.0
 11
-103.8731714197107
 21
371.6351945206927
 31
0.0
  0
LINE
  5
C8
330
1F
100
AcDbEntity
  8
0-0
  6
Continuous
 62
     3
370
     9
100
AcDbLine
 10
-127.8731516245249
 20
347.6352143158786
 30
0.0
 11
-105.3731516245249
 21
347.6352143158786
 31
0.0
  0
LINE
  5
C9
330
1F
100
AcDbEntity
  8
0-0
  6
Continuous
 62
     3
370
     9
100
AcDbLine
 10
-129.3731813173035
 20
349.1351945206927
 30
0.0
 11
-129.3731813173035
 21
371.6351945206927
 31
0.0
  0
LINE
  5
CA
330
1F
100
AcDbEntity
  8
0-0
  6
Continuous
 62
     3
370
     9
100
AcDbLine
 10
-168.8731879156988
 20
349.1351945206927
 30
0.0
 11
-168.8731879156988
 21
371.6351945206927
 31
0.0
  0
LINE
  5
CB
330
1F
100
AcDbEntity
  8
0-0
  6
Continuous
 62
     3
370
     9
100
AcDbLine
 10
-167.3731582229201
 20
347.6352143158786
 30
0.0
 11
-144.8731582229201
 21
347.6352143158786
 31
0.0
  0
LINE
  5
CC
330
1F
100
AcDbEntity
  8
0-0
  6
Continuous
 62
     3
370
     9
100
AcDbLine
 10
-143.3731780181059
 20
349.1351945206927
 30
0.0
 11
-143.3731780181059
 21
371.6351945206927
 31
0.0
  0
LINE
  5
CD
330
1F
100
AcDbEntity
  8
0-0
  6
Continuous
 62
     3
370
     9
100
AcDbLine
 10
-167.3731582229201
 20
373.135174725507
 30
0.0
 11
-144.8731582229201
 21
373.135174725507
 31
0.0
  0
LINE
  5
CE
330
1F
100
AcDbEntity
  8
0-0
  6
Continuous
 62
     3
370
     9
100
AcDbLine
 10
-206.8731648213154
 20
373.135174725507
 30
0.0
 11
-184.3731648213154
 21
373.135174725507
 31
0.0
  0
LINE
  5
CF
330
1F
100
AcDbEntity
  8
0-0
  6
Continuous
 62
     3
370
     9
100
AcDbLine
 10
-182.8731846165012
 20
349.1351945206927
 30
0.0
 11
-182.8731846165012
 21
371.6351945206927
 31
0.0
  0
LINE
  5
D0
330
1F
100
AcDbEntity
  8
0-0
  6
Continuous
 62
     3
370
     9
100
AcDbLine
 10
-206.8731648213154
 20
347.6352143158786
 30
0.0
 11
-184.3731648213154
 21
347.6352143158786
 31
0.0
  0
LINE
  5
D1
330
1F
100
AcDbEntity
  8
0-0
  6
Continuous
 62
     3
370
     9
100
AcDbLine
 10
-208.3731945140942
 20
349.1351945206927
 30
0.0
 11
-208.3731945140942
 21
371.6351945206927
 31
0.0
  0
LINE
  5
D2
330
1F
100
AcDbEntity
  8
0-0
  6
Continuous
 62
     3
370
     9
100
AcDbLine
 10
294.6268813674515
 20
-106.8648747624576
 30
0.0
 11
294.6268813674515
 21
393.1351417335306
 31
0.0
  0
LINE
  5
D3
330
1F
100
AcDbEntity
  8
0-0
  6
Continuous
 62
     3
370
     9
100
AcDbLine
 10
309.6267823915223
 20
-89.50974253061645
 30
0.0
 11
309.6267823915223
 21
375.7801084776185
 31
0.0
  0
LINE
  5
D4
330
1F
100
AcDbEntity
  8
0-0
  6
Continuous
 62
     3
370
     9
100
AcDbLine
 10
294.6268813674515
 20
215.1351483319258
 30
0.0
 11
309.6267823915223
 21
217.7800820840373
 31
0.0
  0
LINE
  5
D5
330
1F
100
AcDbEntity
  8
0-0
  6
Continuous
 62
     3
370
     9
100
AcDbLine
 10
294.6268813674515
 20
189.6351879222975
 30
0.0
 11
309.6267823915223
 21
186.9902541701859
 31
0.0
  0
LINE
  5
D6
330
1F
100
AcDbEntity
  8
0-0
  6
Continuous
 62
     3
370
     9
100
AcDbLine
 10
294.6268813674515
 20
393.1351417335306
 30
0.0
 11
319.626815383499
 21
388.7269518053212
 31
0.0
  0
LINE
  5
D7
330
1F
100
AcDbEntity
  8
0-0
  6
Continuous
 62
     3
370
     9
100
AcDbLine
 10
294.6268813674515
 20
229.1351945206927
 30
0.0
 11
309.6267823915223
 21
226.4902607685813
 31
0.0
  0
LINE
  5
D8
330
1F
100
AcDbEntity
  8
0-0
  6
Continuous
 62
     3
370
     9
100
AcDbLine
 10
294.6268813674515
 20
254.6351549303212
 30
0.0
 11
309.6267823915223
 21
257.2800886824326
 31
0.0
  0
LINE
  5
D9
330
1F
100
AcDbEntity
  8
0-0
  6
Continuous
 62
     3
370
     9
100
AcDbLine
 10
294.6268813674515
 20
294.1351615287164
 30
0.0
 11
309.6267823915223
 21
296.7800952808279
 31
0.0
  0
LINE
  5
DA
330
1F
100
AcDbEntity
  8
0-0
  6
Continuous
 62
     3
370
     9
100
AcDbLine
 10
294.6268813674515
 20
268.635201119088
 30
0.0
 11
309.6267823915223
 21
265.9902673669766
 31
0.0
  0
LINE
  5
DB
330
1F
100
AcDbEntity
  8
0-0
  6
Continuous
 62
     3
370
     9
100
AcDbLine
 10
294.6268813674515
 20
308.1352077174834
 30
0.0
 11
309.6267823915223
 21
305.4902739653718
 31
0.0
  0
LINE
  5
DC
330
1F
100
AcDbEntity
  8
0-0
  6
Continuous
 62
     3
370
     9
100
AcDbLine
 10
294.6268813674515
 20
333.6351681271117
 30
0.0
 11
309.6267823915223
 21
336.2801018792231
 31
0.0
  0
LINE
  5
DD
330
1F
100
AcDbEntity
  8
0-0
  6
Continuous
 62
     3
370
     9
100
AcDbLine
 10
294.6268813674515
 20
373.135174725507
 30
0.0
 11
319.626815383499
 21
377.5432656777873
 31
0.0
  0
LINE
  5
DE
330
1F
100
AcDbEntity
  8
0-0
  6
Continuous
 62
     3
370
     9
100
AcDbLine
 10
294.6268813674515
 20
347.6352143158786
 30
0.0
 11
309.6267823915223
 21
344.9902805637671
 31
0.0
  0
LINE
  5
DF
330
1F
100
AcDbEntity
  8
0-0
  6
Continuous
 62
     3
370
     9
100
AcDbLine
 10
294.6268813674515
 20
110.6351747255069
 30
0.0
 11
309.6267823915223
 21
107.99029046136
 31
0.0
  0
LINE
  5
E0
330
1F
100
AcDbEntity
  8
0-0
  6
Continuous
 62
     3
370
     9
100
AcDbLine
 10
294.6268813674515
 20
136.1351846230998
 30
0.0
 11
309.6267823915223
 21
138.7800688872468
 31
0.0
  0
LINE
  5
E1
330
1F
100
AcDbEntity
  8
0-0
  6
Continuous
 62
     3
370
     9
100
AcDbLine
 10
294.6268813674515
 20
150.1351813239022
 30
0.0
 11
309.6267823915223
 21
147.4902970597552
 31
0.0
  0
LINE
  5
E2
330
1F
100
AcDbEntity
  8
0-0
  6
Continuous
 62
     3
370
     9
100
AcDbLine
 10
294.6268813674515
 20
175.6351912214951
 30
0.0
 11
309.6267823915223
 21
178.2800754856421
 31
0.0
  0
LINE
  5
E3
330
1F
100
AcDbEntity
  8
0-0
  6
Continuous
 62
     3
370
     9
100
AcDbLine
 10
294.6268813674515
 20
-61.36484836887644
 30
0.0
 11
309.6267823915223
 21
-58.71991461676498
 31
0.0
  0
LINE
  5
E4
330
1F
100
AcDbEntity
  8
0-0
  6
Continuous
 62
     3
370
     9
100
AcDbLine
 10
294.6268813674515
 20
-86.86480877850488
 30
0.0
 11
319.626815383499
 21
-91.27304819467895
 31
0.0
  0
LINE
  5
E5
330
1F
100
AcDbEntity
  8
0-0
  6
Continuous
 62
     3
370
     9
100
AcDbLine
 10
294.6268813674515
 20
-47.36485166807415
 30
0.0
 11
309.6267823915223
 21
-50.00973593222113
 31
0.0
  0
LINE
  5
E6
330
1F
100
AcDbEntity
  8
0-0
  6
Continuous
 62
     3
370
     9
100
AcDbLine
 10
294.6268813674515
 20
-21.86484177048123
 30
0.0
 11
309.6267823915223
 21
-19.21995750633425
 31
0.0
  0
LINE
  5
E7
330
1F
100
AcDbEntity
  8
0-0
  6
Continuous
 62
     3
370
     9
100
AcDbLine
 10
294.6268813674515
 20
17.63516482791408
 30
0.0
 11
309.6267823915223
 21
20.28004909206095
 31
0.0
  0
LINE
  5
E8
330
1F
100
AcDbEntity
  8
0-0
  6
Continuous
 62
     3
370
     9
100
AcDbLine
 10
294.6268813674515
 20
-7.864845069678836
 30
0.0
 11
309.6267823915223
 21
-10.50972933382582
 31
0.0
  0
LINE
  5
E9
330
1F
100
AcDbEntity
  8
0-0
  6
Continuous
 62
     3
370
     9
100
AcDbLine
 10
294.6268813674515
 20
31.63516152871637
 30
0.0
 11
309.6267823915223
 21
28.99027726456939
 31
0.0
  0
LINE
  5
EA
330
1F
100
AcDbEntity
  8
0-0
  6
Continuous
 62
     3
370
     9
100
AcDbLine
 10
294.6268813674515
 20
57.13517142630928
 30
0.0
 11
309.6267823915223
 21
59.78005569045627
 31
0.0
  0
LINE
  5
EB
330
1F
100
AcDbEntity
  8
0-0
  6
Continuous
 62
     3
370
     9
100
AcDbLine
 10
294.6268813674515
 20
96.6351780247046
 30
0.0
 11
309.6267823915223
 21
99.28006228885158
 31
0.0
  0
LINE
  5
EC
330
1F
100
AcDbEntity
  8
0-0
  6
Continuous
 62
     3
370
     9
100
AcDbLine
 10
294.6268813674515
 20
71.13516812711168
 30
0.0
 11
309.6267823915223
 21
68.4902838629647
 31
0.0
  0
LINE
  5
ED
330
1F
100
AcDbEntity
  8
0-0
  6
Continuous
 62
     3
370
     9
100
AcDbLine
 10
-208.3731945140942
 20
-62.86482857369072
 30
0.0
 11
-208.3731945140942
 21
-85.36482857369072
 31
0.0
  0
LINE
  5
EE
330
1F
100
AcDbEntity
  8
0-0
  6
Continuous
 62
     3
370
     9
100
AcDbLine
 10
-206.8731648213154
 20
-61.36484836887644
 30
0.0
 11
-184.3731648213154
 21
-61.36484836887644
 31
0.0
  0
LINE
  5
EF
330
1F
100
AcDbEntity
  8
0-0
  6
Continuous
 62
     3
370
     9
100
AcDbLine
 10
-182.8731846165012
 20
-62.86482857369072
 30
0.0
 11
-182.8731846165012
 21
-85.36482857369072
 31
0.0
  0
LINE
  5
F0
330
1F
100
AcDbEntity
  8
0-0
  6
Continuous
 62
     3
370
     9
100
AcDbLine
 10
-206.8731648213154
 20
-86.86480877850488
 30
0.0
 11
-184.3731648213154
 21
-86.86480877850488
 31
0.0
  0
LINE
  5
F1
330
1F
100
AcDbEntity
  8
0-0
  6
Continuous
 62
     3
370
     9
100
AcDbLine
 10
-167.3731582229201
 20
-86.86480877850488
 30
0.0
 11
-144.8731582229201
 21
-86.86480877850488
 31
0.0
  0
LINE
  5
F2
330
1F
100
AcDbEntity
  8
0-0
  6
Continuous
 62
     3
370
     9
100
AcDbLine
 10
-143.3731780181059
 20
-62.86482857369072
 30
0.0
 11
-143.3731780181059
 21
-85.36482857369072
 31
0.0
  0
LINE
  5
F3
330
1F
100
AcDbEntity
  8
0-0
  6
Continuous
 62
     3
370
     9
100
AcDbLine
 10
-167.3731582229201
 20
-61.36484836887644
 30
0.0
 11
-144.8731582229201
 21
-61.36484836887644
 31
0.0
  0
LINE
  5
F4
330
1F
100
AcDbEntity
  8
0-0
  6
Continuous
 62
     3
370
     9
100
AcDbLine
 10
-168.8731879156988
 20
-62.86482857369072
 30
0.0
 11
-168.8731879156988
 21
-85.36482857369072
 31
0.0
  0
LINE
  5
F5
330
1F
100
AcDbEntity
  8
0-0
  6
Continuous
 62
     3
370
     9
100
AcDbLine
 10
-129.3731813173035
 20
-62.86482857369072
 30
0.0
 11
-129.3731813173035
 21
-85.36482857369072
 31
0.0
  0
LINE
  5
F6
330
1F
100
AcDbEntity
  8
0-0
  6
Continuous
 62
     3
370
     9
100
AcDbLine
 10
-127.8731516245249
 20
-61.36484836887644
 30
0.0
 11
-105.3731516245249
 21
-61.36484836887644
 31
0.0
  0
LINE
  5
F7
330
1F
100
AcDbEntity
  8
0-0
  6
Continuous
 62
     3
370
     9
100
AcDbLine
 10
-103.8731714197107
 20
-62.86482857369072
 30
0.0
 11
-103.8731714197107
 21
-85.36482857369072
 31
0.0
  0
LINE
  5
F8
330
1F
100
AcDbEntity
  8
0-0
  6
Continuous
 62
     3
370
     9
100
AcDbLine
 10
-127.8731516245249
 20
-86.86480877850488
 30
0.0
 11
-105.3731516245249
 21
-86.86480877850488
 31
0.0
  0
LINE
  5
F9
330
1F
100
AcDbEntity
  8
0-0
  6
Continuous
 62
     3
370
     9
100
AcDbLine
 10
-88.37319451409417
 20
-86.86480877850488
 30
0.0
 11
-65.87319451409417
 21
-86.86480877850488
 31
0.0
  0
LINE
  5
FA
330
1F
100
AcDbEntity
  8
0-0
  6
Continuous
 62
     3
370
     9
100
AcDbLine
 10
-64.37316482131541
 20
-62.86482857369072
 30
0.0
 11
-64.37316482131541
 21
-85.36482857369072
 31
0.0
  0
LINE
  5
FB
330
1F
100
AcDbEntity
  8
0-0
  6
Continuous
 62
     3
370
     9
100
AcDbLine
 10
-88.37319451409417
 20
-61.36484836887644
 30
0.0
 11
-65.87319451409417
 21
-61.36484836887644
 31
0.0
  0
LINE
  5
FC
330
1F
100
AcDbEntity
  8
0-0
  6
Continuous
 62
     3
370
     9
100
AcDbLine
 10
-89.87317471890833
 20
-62.86482857369072
 30
0.0
 11
-89.87317471890833
 21
-85.36482857369072
 31
0.0
  0
LINE
  5
FD
330
1F
100
AcDbEntity
  8
0-0
  6
Continuous
 62
     3
370
     9
100
AcDbLine
 10
-50.37316812051301
 20
-62.86482857369072
 30
0.0
 11
-50.37316812051301
 21
-85.36482857369072
 31
0.0
  0
LINE
  5
FE
330
1F
100
AcDbEntity
  8
0-0
  6
Continuous
 62
     3
370
     9
100
AcDbLine
 10
-48.87318791569885
 20
-61.36484836887644
 30
0.0
 11
-26.37313842773438
 21
-61.36484836887644
 31
0.0
  0
LINE
  5
FF
330
1F
100
AcDbEntity
  8
0-0
  6
Continuous
 62
     3
370
     9
100
AcDbLine
 10
-24.8731582229201
 20
-62.86482857369072
 30
0.0
 11
-24.8731582229201
 21
-85.36482857369072
 31
0.0
  0
LINE
  5
100
330
1F
100
AcDbEntity
  8
0-0
  6
Continuous
 62
     3
370
     9
100
AcDbLine
 10
-48.87318791569885
 20
-86.86480877850488
 30
0.0
 11
-26.37313842773438
 21
-86.86480877850488
 31
0.0
  0
LINE
  5
101
330
1F
100
AcDbEntity
  8
0-0
  6
Continuous
 62
     3
370
     9
100
AcDbLine
 10
-9.373131829339059
 20
-86.86480877850488
 30
0.0
 11
13.12686817066094
 21
-86.86480877850488
 31
0.0
  0
LINE
  5
102
330
1F
100
AcDbEntity
  8
0-0
  6
Continuous
 62
     3
370
     9
100
AcDbLine
 10
14.62684837547511
 20
-62.86482857369072
 30
0.0
 11
14.62684837547511
 21
-85.36482857369072
 31
0.0
  0
LINE
  5
103
330
1F
100
AcDbEntity
  8
0-0
  6
Continuous
 62
     3
370
     9
100
AcDbLine
 10
-9.373131829339059
 20
-61.36484836887644
 30
0.0
 11
13.12686817066094
 21
-61.36484836887644
 31
0.0
  0
LINE
  5
104
330
1F
100
AcDbEntity
  8
0-0
  6
Continuous
 62
     3
370
     9
100
AcDbLine
 10
-10.87321101008229
 20
-62.86482857369072
 30
0.0
 11
-10.87321101008229
 21
-85.36482857369072
 31
0.0
  0
LINE
  5
105
330
1F
100
AcDbEntity
  8
0-0
  6
Continuous
 62
     3
370
     9
100
AcDbLine
 10
-10.87321101008229
 20
-23.3648219752954
 30
0.0
 11
-10.87321101008229
 21
-45.8648219752954
 31
0.0
  0
LINE
  5
106
330
1F
100
AcDbEntity
  8
0-0
  6
Continuous
 62
     3
370
     9
100
AcDbLine
 10
-9.373131829339059
 20
-21.86484177048123
 30
0.0
 11
13.12686817066094
 21
-21.86484177048123
 31
0.0
  0
LINE
  5
107
330
1F
100
AcDbEntity
  8
0-0
  6
Continuous
 62
     3
370
     9
100
AcDbLine
 10
14.62684837547511
 20
-23.3648219752954
 30
0.0
 11
14.62684837547511
 21
-45.8648219752954
 31
0.0
  0
LINE
  5
108
330
1F
100
AcDbEntity
  8
0-0
  6
Continuous
 62
     3
370
     9
100
AcDbLine
 10
-9.373131829339059
 20
-47.36485166807415
 30
0.0
 11
13.12686817066094
 21
-47.36485166807415
 31
0.0
  0
LINE
  5
109
330
1F
100
AcDbEntity
  8
0-0
  6
Continuous
 62
     3
370
     9
100
AcDbLine
 10
-48.87318791569885
 20
-47.36485166807415
 30
0.0
 11
-26.37313842773438
 21
-47.36485166807415
 31
0.0
  0
LINE
  5
10A
330
1F
100
AcDbEntity
  8
0-0
  6
Continuous
 62
     3
370
     9
100
AcDbLine
 10
-24.8731582229201
 20
-23.3648219752954
 30
0.0
 11
-24.8731582229201
 21
-45.8648219752954
 31
0.0
  0
LINE
  5
10B
330
1F
100
AcDbEntity
  8
0-0
  6
Continuous
 62
     3
370
     9
100
AcDbLine
 10
-48.87318791569885
 20
-21.86484177048123
 30
0.0
 11
-26.37313842773438
 21
-21.86484177048123
 31
0.0
  0
LINE
  5
10C
330
1F
100
AcDbEntity
  8
0-0
  6
Continuous
 62
     3
370
     9
100
AcDbLine
 10
-50.37316812051301
 20
-23.3648219752954
 30
0.0
 11
-50.37316812051301
 21
-45.8648219752954
 31
0.0
  0
LINE
  5
10D
330
1F
100
AcDbEntity
  8
0-0
  6
Continuous
 62
     3
370
     9
100
AcDbLine
 10
-89.87317471890833
 20
-23.3648219752954
 30
0.0
 11
-89.87317471890833
 21
-45.8648219752954
 31
0.0
  0
LINE
  5
10E
330
1F
100
AcDbEntity
  8
0-0
  6
Continuous
 62
     3
370
     9
100
AcDbLine
 10
-88.37319451409417
 20
-21.86484177048123
 30
0.0
 11
-65.87319451409417
 21
-21.86484177048123
 31
0.0
  0
LINE
  5
10F
330
1F
100
AcDbEntity
  8
0-0
  6
Continuous
 62
     3
370
     9
100
AcDbLine
 10
-64.37316482131541
 20
-23.3648219752954
 30
0.0
 11
-64.37316482131541
 21
-45.8648219752954
 31
0.0
  0
LINE
  5
110
330
1F
100
AcDbEntity
  8
0-0
  6
Continuous
 62
     3
370
     9
100
AcDbLine
 10
-88.37319451409417
 20
-47.36485166807415
 30
0.0
 11
-65.87319451409417
 21
-47.36485166807415
 31
0.0
  0
LINE
  5
111
330
1F
100
AcDbEntity
  8
0-0
  6
Continuous
 62
     3
370
     9
100
AcDbLine
 10
-127.8731516245249
 20
-47.36485166807415
 30
0.0
 11
-105.3731516245249
 21
-47.36485166807415
 31
0.0
  0
LINE
  5
112
330
1F
100
AcDbEntity
  8
0-0
  6
Continuous
 62
     3
370
     9
100
AcDbLine
 10
-103.8731714197107
 20
-23.3648219752954
 30
0.0
 11
-103.8731714197107
 21
-45.8648219752954
 31
0.0
  0
LINE
  5
113
330
1F
100
AcDbEntity
  8
0-0
  6
Continuous
 62
     3
370
     9
100
AcDbLine
 10
-127.8731516245249
 20
-21.86484177048123
 30
0.0
 11
-105.3731516245249
 21
-21.86484177048123
 31
0.0
  0
LINE
  5
114
330
1F
100
AcDbEntity
  8
0-0
  6
Continuous
 62
     3
370
     9
100
AcDbLine
 10
-129.3731813173035
 20
-23.3648219752954
 30
0.0
 11
-129.3731813173035
 21
-45.8648219752954
 31
0.0
  0
LINE
  5
115
330
1F
100
AcDbEntity
  8
0-0
  6
Continuous
 62
     3
370
     9
100
AcDbLine
 10
-168.8731879156988
 20
-23.3648219752954
 30
0.0
 11
-168.8731879156988
 21
-45.8648219752954
 31
0.0
  0
LINE
  5
116
330
1F
100
AcDbEntity
  8
0-0
  6
Continuous
 62
     3
370
     9
100
AcDbLine
 10
-167.3731582229201
 20
-21.86484177048123
 30
0.0
 11
-144.8731582229201
 21
-21.86484177048123
 31
0.0
  0
LINE
  5
117
330
1F
100
AcDbEntity
  8
0-0
  6
Continuous
 62
     3
370
     9
100
AcDbLine
 10
-143.3731780181059
 20
-23.3648219752954
 30
0.0
 11
-143.3731780181059
 21
-45.8648219752954
 31
0.0
  0
LINE
  5
118
330
1F
100
AcDbEntity
  8
0-0
  6
Continuous
 62
     3
370
     9
100
AcDbLine
 10
-167.3731582229201
 20
-47.36485166807415
 30
0.0
 11
-144.8731582229201
 21
-47.36485166807415
 31
0.0
  0
LINE
  5
119
330
1F
100
AcDbEntity
  8
0-0
  6
Continuous
 62
     3
370
     9
100
AcDbLine
 10
-206.8731648213154
 20
-47.36485166807415
 30
0.0
 11
-184.3731648213154
 21
-47.36485166807415
 31
0.0
  0
LINE
  5
11A
330
1F
100
AcDbEntity
  8
0-0
  6
Continuous
 62
     3
370
     9
100
AcDbLine
 10
-182.8731846165012
 20
-23.3648219752954
 30
0.0
 11
-182.8731846165012
 21
-45.8648219752954
 31
0.0
  0
LINE
  5
11B
330
1F
100
AcDbEntity
  8
0-0
  6
Continuous
 62
     3
370
     9
100
AcDbLine
 10
-206.8731648213154
 20
-21.86484177048123
 30
0.0
 11
-184.3731648213154
 21
-21.86484177048123
 31
0.0
  0
LINE
  5
11C
330
1F
100
AcDbEntity
  8
0-0
  6
Continuous
 62
     3
370
     9
100
AcDbLine
 10
-208.3731945140942
 20
-23.3648219752954
 30
0.0
 11
-208.3731945140942
 21
-45.8648219752954
 31
0.0
  0
LINE
  5
11D
330
1F
100
AcDbEntity
  8
0-0
  6
Continuous
 62
     3
370
     9
100
AcDbLine
 10
-208.3731945140942
 20
16.1351846230998
 30
0.0
 11
-208.3731945140942
 21
-6.364815376900196
 31
0.0
  0
LINE
  5
11E
330
1F
100
AcDbEntity
  8
0-0
  6
Continuous
 62
     3
370
     9
100
AcDbLine
 10
-206.8731648213154
 20
17.63516482791408
 30
0.0
 11
-184.3731648213154
 21
17.63516482791408
 31
0.0
  0
LINE
  5
11F
330
1F
100
AcDbEntity
  8
0-0
  6
Continuous
 62
     3
370
     9
100
AcDbLine
 10
-182.8731846165012
 20
16.1351846230998
 30
0.0
 11
-182.8731846165012
 21
-6.364815376900196
 31
0.0
  0
LINE
  5
120
330
1F
100
AcDbEntity
  8
0-0
  6
Continuous
 62
     3
370
     9
100
AcDbLine
 10
-206.8731648213154
 20
-7.864845069678836
 30
0.0
 11
-184.3731648213154
 21
-7.864845069678836
 31
0.0
  0
LINE
  5
121
330
1F
100
AcDbEntity
  8
0-0
  6
Continuous
 62
     3
370
     9
100
AcDbLine
 10
-167.3731582229201
 20
-7.864845069678836
 30
0.0
 11
-144.8731582229201
 21
-7.864845069678836
 31
0.0
  0
LINE
  5
122
330
1F
100
AcDbEntity
  8
0-0
  6
Continuous
 62
     3
370
     9
100
AcDbLine
 10
-143.3731780181059
 20
16.1351846230998
 30
0.0
 11
-143.3731780181059
 21
-6.364815376900196
 31
0.0
  0
LINE
  5
123
330
1F
100
AcDbEntity
  8
0-0
  6
Continuous
 62
     3
370
     9
100
AcDbLine
 10
-167.3731582229201
 20
17.63516482791408
 30
0.0
 11
-144.8731582229201
 21
17.63516482791408
 31
0.0
  0
LINE
  5
124
330
1F
100
AcDbEntity
  8
0-0
  6
Continuous
 62
     3
370
     9
100
AcDbLine
 10
-168.8731879156988
 20
16.1351846230998
 30
0.0
 11
-168.8731879156988
 21
-6.364815376900196
 31
0.0
  0
LINE
  5
125
330
1F
100
AcDbEntity
  8
0-0
  6
Continuous
 62
     3
370
     9
100
AcDbLine
 10
-129.3731813173035
 20
16.1351846230998
 30
0.0
 11
-129.3731813173035
 21
-6.364815376900196
 31
0.0
  0
LINE
  5
126
330
1F
100
AcDbEntity
  8
0-0
  6
Continuous
 62
     3
370
     9
100
AcDbLine
 10
-127.8731516245249
 20
17.63516482791408
 30
0.0
 11
-105.3731516245249
 21
17.63516482791408
 31
0.0
  0
LINE
  5
127
330
1F
100
AcDbEntity
  8
0-0
  6
Continuous
 62
     3
370
     9
100
AcDbLine
 10
-103.8731714197107
 20
16.1351846230998
 30
0.0
 11
-103.8731714197107
 21
-6.364815376900196
 31
0.0
  0
LINE
  5
128
330
1F
100
AcDbEntity
  8
0-0
  6
Continuous
 62
     3
370
     9
100
AcDbLine
 10
-127.8731516245249
 20
-7.864845069678836
 30
0.0
 11
-105.3731516245249
 21
-7.864845069678836
 31
0.0
  0
LINE
  5
129
330
1F
100
AcDbEntity
  8
0-0
  6
Continuous
 62
     3
370
     9
100
AcDbLine
 10
-88.37319451409417
 20
-7.864845069678836
 30
0.0
 11
-65.87319451409417
 21
-7.864845069678836
 31
0.0
  0
LINE
  5
12A
330
1F
100
AcDbEntity
  8
0-0
  6
Continuous
 62
     3
370
     9
100
AcDbLine
 10
-64.37316482131541
 20
16.1351846230998
 30
0.0
 11
-64.37316482131541
 21
-6.364815376900196
 31
0.0
  0
LINE
  5
12B
330
1F
100
AcDbEntity
  8
0-0
  6
Continuous
 62
     3
370
     9
100
AcDbLine
 10
-88.37319451409417
 20
17.63516482791408
 30
0.0
 11
-65.87319451409417
 21
17.63516482791408
 31
0.0
  0
LINE
  5
12C
330
1F
100
AcDbEntity
  8
0-0
  6
Continuous
 62
     3
370
     9
100
AcDbLine
 10
-89.87317471890833
 20
16.1351846230998
 30
0.0
 11
-89.87317471890833
 21
-6.364815376900196
 31
0.0
  0
LINE
  5
12D
330
1F
100
AcDbEntity
  8
0-0
  6
Continuous
 62
     3
370
     9
100
AcDbLine
 10
-50.37316812051301
 20
16.1351846230998
 30
0.0
 11
-50.37316812051301
 21
-6.364815376900196
 31
0.0
  0
LINE
  5
12E
330
1F
100
AcDbEntity
  8
0-0
  6
Continuous
 62
     3
370
     9
100
AcDbLine
 10
-48.87318791569885
 20
17.63516482791408
 30
0.0
 11
-26.37313842773438
 21
17.63516482791408
 31
0.0
  0
LINE
  5
12F
330
1F
100
AcDbEntity
  8
0-0
  6
Continuous
 62
     3
370
     9
100
AcDbLine
 10
-24.8731582229201
 20
16.1351846230998
 30
0.0
 11
-24.8731582229201
 21
-6.364815376900196
 31
0.0
  0
LINE
  5
130
330
1F
100
AcDbEntity
  8
0-0
  6
Continuous
 62
     3
370
     9
100
AcDbLine
 10
-48.87318791569885
 20
-7.864845069678836
 30
0.0
 11
-26.37313842773438
 21
-7.864845069678836
 31
0.0
  0
LINE
  5
131
330
1F
100
AcDbEntity
  8
0-0
  6
Continuous
 62
     3
370
     9
100
AcDbLine
 10
-9.373131829339059
 20
-7.864845069678836
 30
0.0
 11
13.12686817066094
 21
-7.864845069678836
 31
0.0
  0
LINE
  5
132
330
1F
100
AcDbEntity
  8
0-0
  6
Continuous
 62
     3
370
     9
100
AcDbLine
 10
14.62684837547511
 20
16.1351846230998
 30
0.0
 11
14.62684837547511
 21
-6.364815376900196
 31
0.0
  0
LINE
  5
133
330
1F
100
AcDbEntity
  8
0-0
  6
Continuous
 62
     3
370
     9
100
AcDbLine
 10
-9.373131829339059
 20
17.63516482791408
 30
0.0
 11
13.12686817066094
 21
17.63516482791408
 31
0.0
  0
LINE
  5
134
330
1F
100
AcDbEntity
  8
0-0
  6
Continuous
 62
     3
370
     9
100
AcDbLine
 10
-10.87321101008229
 20
16.1351846230998
 30
0.0
 11
-10.87321101008229
 21
-6.364815376900196
 31
0.0
  0
LINE
  5
135
330
1F
100
AcDbEntity
  8
0-0
  6
Continuous
 62
     3
370
     9
100
AcDbLine
 10
-10.87321101008229
 20
55.63514173353053
 30
0.0
 11
-10.87321101008229
 21
33.13514173353053
 31
0.0
  0
LINE
  5
136
330
1F
100
AcDbEntity
  8
0-0
  6
Continuous
 62
     3
370
     9
100
AcDbLine
 10
-9.373131829339059
 20
57.13517142630928
 30
0.0
 11
13.12686817066094
 21
57.13517142630928
 31
0.0
  0
LINE
  5
137
330
1F
100
AcDbEntity
  8
0-0
  6
Continuous
 62
     3
370
     9
100
AcDbLine
 10
14.62684837547511
 20
55.63514173353053
 30
0.0
 11
14.62684837547511
 21
33.13514173353053
 31
0.0
  0
LINE
  5
138
330
1F
100
AcDbEntity
  8
0-0
  6
Continuous
 62
     3
370
     9
100
AcDbLine
 10
-9.373131829339059
 20
31.63516152871637
 30
0.0
 11
13.12686817066094
 21
31.63516152871637
 31
0.0
  0
LINE
  5
139
330
1F
100
AcDbEntity
  8
0-0
  6
Continuous
 62
     3
370
     9
100
AcDbLine
 10
-48.87318791569885
 20
31.63516152871637
 30
0.0
 11
-26.37313842773438
 21
31.63516152871637
 31
0.0
  0
LINE
  5
13A
330
1F
100
AcDbEntity
  8
0-0
  6
Continuous
 62
     3
370
     9
100
AcDbLine
 10
-24.8731582229201
 20
55.63514173353053
 30
0.0
 11
-24.8731582229201
 21
33.13514173353053
 31
0.0
  0
LINE
  5
13B
330
1F
100
AcDbEntity
  8
0-0
  6
Continuous
 62
     3
370
     9
100
AcDbLine
 10
-48.87318791569885
 20
57.13517142630928
 30
0.0
 11
-26.37313842773438
 21
57.13517142630928
 31
0.0
  0
LINE
  5
13C
330
1F
100
AcDbEntity
  8
0-0
  6
Continuous
 62
     3
370
     9
100
AcDbLine
 10
-50.37316812051301
 20
55.63514173353053
 30
0.0
 11
-50.37316812051301
 21
33.13514173353053
 31
0.0
  0
LINE
  5
13D
330
1F
100
AcDbEntity
  8
0-0
  6
Continuous
 62
     3
370
     9
100
AcDbLine
 10
-89.87317471890833
 20
55.63514173353053
 30
0.0
 11
-89.87317471890833
 21
33.13514173353053
 31
0.0
  0
LINE
  5
13E
330
1F
100
AcDbEntity
  8
0-0
  6
Continuous
 62
     3
370
     9
100
AcDbLine
 10
-88.37319451409417
 20
57.13517142630928
 30
0.0
 11
-65.87319451409417
 21
57.13517142630928
 31
0.0
  0
LINE
  5
13F
330
1F
100
AcDbEntity
  8
0-0
  6
Continuous
 62
     3
370
     9
100
AcDbLine
 10
-64.37316482131541
 20
55.63514173353053
 30
0.0
 11
-64.37316482131541
 21
33.13514173353053
 31
0.0
  0
LINE
  5
140
330
1F
100
AcDbEntity
  8
0-0
  6
Continuous
 62
     3
370
     9
100
AcDbLine
 10
-88.37319451409417
 20
31.63516152871637
 30
0.0
 11
-65.87319451409417
 21
31.63516152871637
 31
0.0
  0
LINE
  5
141
330
1F
100
AcDbEntity
  8
0-0
  6
Continuous
 62
     3
370
     9
100
AcDbLine
 10
-127.8731516245249
 20
31.63516152871637
 30
0.0
 11
-105.3731516245249
 21
31.63516152871637
 31
0.0
  0
LINE
  5
142
330
1F
100
AcDbEntity
  8
0-0
  6
Continuous
 62
     3
370
     9
100
AcDbLine
 10
-103.8731714197107
 20
55.63514173353053
 30
0.0
 11
-103.8731714197107
 21
33.13514173353053
 31
0.0
  0
LINE
  5
143
330
1F
100
AcDbEntity
  8
0-0
  6
Continuous
 62
     3
370
     9
100
AcDbLine
 10
-127.8731516245249
 20
57.13517142630928
 30
0.0
 11
-105.3731516245249
 21
57.13517142630928
 31
0.0
  0
LINE
  5
144
330
1F
100
AcDbEntity
  8
0-0
  6
Continuous
 62
     3
370
     9
100
AcDbLine
 10
-129.3731813173035
 20
55.63514173353053
 30
0.0
 11
-129.3731813173035
 21
33.13514173353053
 31
0.0
  0
LINE
  5
145
330
1F
100
AcDbEntity
  8
0-0
  6
Continuous
 62
     3
370
     9
100
AcDbLine
 10
-168.8731879156988
 20
55.63514173353053
 30
0.0
 11
-168.8731879156988
 21
33.13514173353053
 31
0.0
  0
LINE
  5
146
330
1F
100
AcDbEntity
  8
0-0
  6
Continuous
 62
     3
370
     9
100
AcDbLine
 10
-167.3731582229201
 20
57.13517142630928
 30
0.0
 11
-144.8731582229201
 21
57.13517142630928
 31
0.0
  0
LINE
  5
147
330
1F
100
AcDbEntity
  8
0-0
  6
Continuous
 62
     3
370
     9
100
AcDbLine
 10
-143.3731780181059
 20
55.63514173353053
 30
0.0
 11
-143.3731780181059
 21
33.13514173353053
 31
0.0
  0
LINE
  5
148
330
1F
100
AcDbEntity
  8
0-0
  6
Continuous
 62
     3
370
     9
100
AcDbLine
 10
-167.3731582229201
 20
31.63516152871637
 30
0.0
 11
-144.8731582229201
 21
31.63516152871637
 31
0.0
  0
LINE
  5
149
330
1F
100
AcDbEntity
  8
0-0
  6
Continuous
 62
     3
370
     9
100
AcDbLine
 10
-206.8731648213154
 20
31.63516152871637
 30
0.0
 11
-184.3731648213154
 21
31.63516152871637
 31
0.0
  0
LINE
  5
14A
330
1F
100
AcDbEntity
  8
0-0
  6
Continuous
 62
     3
370
     9
100
AcDbLine
 10
-182.8731846165012
 20
55.63514173353053
 30
0.0
 11
-182.8731846165012
 21
33.13514173353053
 31
0.0
  0
LINE
  5
14B
330
1F
100
AcDbEntity
  8
0-0
  6
Continuous
 62
     3
370
     9
100
AcDbLine
 10
-206.8731648213154
 20
57.13517142630928
 30
0.0
 11
-184.3731648213154
 21
57.13517142630928
 31
0.0
  0
LINE
  5
14C
330
1F
100
AcDbEntity
  8
0-0
  6
Continuous
 62
     3
370
     9
100
AcDbLine
 10
-208.3731945140942
 20
55.63514173353053
 30
0.0
 11
-208.3731945140942
 21
33.13514173353053
 31
0.0
  0
LINE
  5
14D
330
1F
100
AcDbEntity
  8
0-0
  6
Continuous
 62
     3
370
     9
100
AcDbLine
 10
-208.3731945140942
 20
95.13514833192585
 30
0.0
 11
-208.3731945140942
 21
72.63514833192585
 31
0.0
  0
LINE
  5
14E
330
1F
100
AcDbEntity
  8
0-0
  6
Continuous
 62
     3
370
     9
100
AcDbLine
 10
-206.8731648213154
 20
96.6351780247046
 30
0.0
 11
-184.3731648213154
 21
96.6351780247046
 31
0.0
  0
LINE
  5
14F
330
1F
100
AcDbEntity
  8
0-0
  6
Continuous
 62
     3
370
     9
100
AcDbLine
 10
-182.8731846165012
 20
95.13514833192585
 30
0.0
 11
-182.8731846165012
 21
72.63514833192585
 31
0.0
  0
LINE
  5
150
330
1F
100
AcDbEntity
  8
0-0
  6
Continuous
 62
     3
370
     9
100
AcDbLine
 10
-206.8731648213154
 20
71.13516812711168
 30
0.0
 11
-184.3731648213154
 21
71.13516812711168
 31
0.0
  0
LINE
  5
151
330
1F
100
AcDbEntity
  8
0-0
  6
Continuous
 62
     3
370
     9
100
AcDbLine
 10
-167.3731582229201
 20
71.13516812711168
 30
0.0
 11
-144.8731582229201
 21
71.13516812711168
 31
0.0
  0
LINE
  5
152
330
1F
100
AcDbEntity
  8
0-0
  6
Continuous
 62
     3
370
     9
100
AcDbLine
 10
-143.3731780181059
 20
95.13514833192585
 30
0.0
 11
-143.3731780181059
 21
72.63514833192585
 31
0.0
  0
LINE
  5
153
330
1F
100
AcDbEntity
  8
0-0
  6
Continuous
 62
     3
370
     9
100
AcDbLine
 10
-167.3731582229201
 20
96.6351780247046
 30
0.0
 11
-144.8731582229201
 21
96.6351780247046
 31
0.0
  0
LINE
  5
154
330
1F
100
AcDbEntity
  8
0-0
  6
Continuous
 62
     3
370
     9
100
AcDbLine
 10
-168.8731879156988
 20
95.13514833192585
 30
0.0
 11
-168.8731879156988
 21
72.63514833192585
 31
0.0
  0
LINE
  5
155
330
1F
100
AcDbEntity
  8
0-0
  6
Continuous
 62
     3
370
     9
100
AcDbLine
 10
-129.3731813173035
 20
95.13514833192585
 30
0.0
 11
-129.3731813173035
 21
72.63514833192585
 31
0.0
  0
LINE
  5
156
330
1F
100
AcDbEntity
  8
0-0
  6
Continuous
 62
     3
370
     9
100
AcDbLine
 10
-127.8731516245249
 20
96.6351780247046
 30
0.0
 11
-105.3731516245249
 21
96.6351780247046
 31
0.0
  0
LINE
  5
157
330
1F
100
AcDbEntity
  8
0-0
  6
Continuous
 62
     3
370
     9
100
AcDbLine
 10
-103.8731714197107
 20
95.13514833192585
 30
0.0
 11
-103.8731714197107
 21
72.63514833192585
 31
0.0
  0
LINE
  5
158
330
1F
100
AcDbEntity
  8
0-0
  6
Continuous
 62
     3
370
     9
100
AcDbLine
 10
-127.8731516245249
 20
71.13516812711168
 30
0.0
 11
-105.3731516245249
 21
71.13516812711168
 31
0.0
  0
LINE
  5
159
330
1F
100
AcDbEntity
  8
0-0
  6
Continuous
 62
     3
370
     9
100
AcDbLine
 10
-88.37319451409417
 20
71.13516812711168
 30
0.0
 11
-65.87319451409417
 21
71.13516812711168
 31
0.0
  0
LINE
  5
15A
330
1F
100
AcDbEntity
  8
0-0
  6
Continuous
 62
     3
370
     9
100
AcDbLine
 10
-64.37316482131541
 20
95.13514833192585
 30
0.0
 11
-64.37316482131541
 21
72.63514833192585
 31
0.0
  0
LINE
  5
15B
330
1F
100
AcDbEntity
  8
0-0
  6
Continuous
 62
     3
370
     9
100
AcDbLine
 10
-88.37319451409417
 20
96.6351780247046
 30
0.0
 11
-65.87319451409417
 21
96.6351780247046
 31
0.0
  0
LINE
  5
15C
330
1F
100
AcDbEntity
  8
0-0
  6
Continuous
 62
     3
370
     9
100
AcDbLine
 10
-89.87317471890833
 20
95.13514833192585
 30
0.0
 11
-89.87317471890833
 21
72.63514833192585
 31
0.0
  0
LINE
  5
15D
330
1F
100
AcDbEntity
  8
0-0
  6
Continuous
 62
     3
370
     9
100
AcDbLine
 10
-50.37316812051301
 20
95.13514833192585
 30
0.0
 11
-50.37316812051301
 21
72.63514833192585
 31
0.0
  0
LINE
  5
15E
330
1F
100
AcDbEntity
  8
0-0
  6
Continuous
 62
     3
370
     9
100
AcDbLine
 10
-48.87318791569885
 20
96.6351780247046
 30
0.0
 11
-26.37313842773438
 21
96.6351780247046
 31
0.0
  0
LINE
  5
15F
330
1F
100
AcDbEntity
  8
0-0
  6
Continuous
 62
     3
370
     9
100
AcDbLine
 10
-24.8731582229201
 20
95.13514833192585
 30
0.0
 11
-24.8731582229201
 21
72.63514833192585
 31
0.0
  0
LINE
  5
160
330
1F
100
AcDbEntity
  8
0-0
  6
Continuous
 62
     3
370
     9
100
AcDbLine
 10
-48.87318791569885
 20
71.13516812711168
 30
0.0
 11
-26.37313842773438
 21
71.13516812711168
 31
0.0
  0
LINE
  5
161
330
1F
100
AcDbEntity
  8
0-0
  6
Continuous
 62
     3
370
     9
100
AcDbLine
 10
-9.373131829339059
 20
71.13516812711168
 30
0.0
 11
13.12686817066094
 21
71.13516812711168
 31
0.0
  0
LINE
  5
162
330
1F
100
AcDbEntity
  8
0-0
  6
Continuous
 62
     3
370
     9
100
AcDbLine
 10
14.62684837547511
 20
95.13514833192585
 30
0.0
 11
14.62684837547511
 21
72.63514833192585
 31
0.0
  0
LINE
  5
163
330
1F
100
AcDbEntity
  8
0-0
  6
Continuous
 62
     3
370
     9
100
AcDbLine
 10
-9.373131829339059
 20
96.6351780247046
 30
0.0
 11
13.12686817066094
 21
96.6351780247046
 31
0.0
  0
LINE
  5
164
330
1F
100
AcDbEntity
  8
0-0
  6
Continuous
 62
     3
370
     9
100
AcDbLine
 10
-10.87321101008229
 20
95.13514833192585
 30
0.0
 11
-10.87321101008229
 21
72.63514833192585
 31
0.0
  0
LINE
  5
165
330
1F
100
AcDbEntity
  8
0-0
  6
Continuous
 62
     3
370
     9
100
AcDbLine
 10
-10.87321101008229
 20
134.6351549303212
 30
0.0
 11
-10.87321101008229
 21
112.1351549303212
 31
0.0
  0
LINE
  5
166
330
1F
100
AcDbEntity
  8
0-0
  6
Continuous
 62
     3
370
     9
100
AcDbLine
 10
-9.373131829339059
 20
136.1351846230998
 30
0.0
 11
13.12686817066094
 21
136.1351846230998
 31
0.0
  0
LINE
  5
167
330
1F
100
AcDbEntity
  8
0-0
  6
Continuous
 62
     3
370
     9
100
AcDbLine
 10
14.62684837547511
 20
134.6351549303212
 30
0.0
 11
14.62684837547511
 21
112.1351549303212
 31
0.0
  0
LINE
  5
168
330
1F
100
AcDbEntity
  8
0-0
  6
Continuous
 62
     3
370
     9
100
AcDbLine
 10
-9.373131829339059
 20
110.6351747255069
 30
0.0
 11
13.12686817066094
 21
110.6351747255069
 31
0.0
  0
LINE
  5
169
330
1F
100
AcDbEntity
  8
0-0
  6
Continuous
 62
     3
370
     9
100
AcDbLine
 10
-48.87318791569885
 20
110.6351747255069
 30
0.0
 11
-26.37313842773438
 21
110.6351747255069
 31
0.0
  0
LINE
  5
16A
330
1F
100
AcDbEntity
  8
0-0
  6
Continuous
 62
     3
370
     9
100
AcDbLine
 10
-24.8731582229201
 20
134.6351549303212
 30
0.0
 11
-24.8731582229201
 21
112.1351549303212
 31
0.0
  0
LINE
  5
16B
330
1F
100
AcDbEntity
  8
0-0
  6
Continuous
 62
     3
370
     9
100
AcDbLine
 10
-48.87318791569885
 20
136.1351846230998
 30
0.0
 11
-26.37313842773438
 21
136.1351846230998
 31
0.0
  0
LINE
  5
16C
330
1F
100
AcDbEntity
  8
0-0
  6
Continuous
 62
     3
370
     9
100
AcDbLine
 10
-50.37316812051301
 20
134.6351549303212
 30
0.0
 11
-50.37316812051301
 21
112.1351549303212
 31
0.0
  0
LINE
  5
16D
330
1F
100
AcDbEntity
  8
0-0
  6
Continuous
 62
     3
370
     9
100
AcDbLine
 10
-89.87317471890833
 20
134.6351549303212
 30
0.0
 11
-89.87317471890833
 21
112.1351549303212
 31
0.0
  0
LINE
  5
16E
330
1F
100
AcDbEntity
  8
0-0
  6
Continuous
 62
     3
370
     9
100
AcDbLine
 10
-88.37319451409417
 20
136.1351846230998
 30
0.0
 11
-65.87319451409417
 21
136.1351846230998
 31
0.0
  0
LINE
  5
16F
330
1F
100
AcDbEntity
  8
0-0
  6
Continuous
 62
     3
370
     9
100
AcDbLine
 10
-64.37316482131541
 20
134.6351549303212
 30
0.0
 11
-64.37316482131541
 21
112.1351549303212
 31
0.0
  0
LINE
  5
170
330
1F
100
AcDbEntity
  8
0-0
  6
Continuous
 62
     3
370
     9
100
AcDbLine
 10
-88.37319451409417
 20
110.6351747255069
 30
0.0
 11
-65.87319451409417
 21
110.6351747255069
 31
0.0
  0
LINE
  5
171
330
1F
100
AcDbEntity
  8
0-0
  6
Continuous
 62
     3
370
     9
100
AcDbLine
 10
-127.8731516245249
 20
110.6351747255069
 30
0.0
 11
-105.3731516245249
 21
110.6351747255069
 31
0.0
  0
LINE
  5
172
330
1F
100
AcDbEntity
  8
0-0
  6
Continuous
 62
     3
370
     9
100
AcDbLine
 10
-103.8731714197107
 20
134.6351549303212
 30
0.0
 11
-103.8731714197107
 21
112.1351549303212
 31
0.0
  0
LINE
  5
173
330
1F
100
AcDbEntity
  8
0-0
  6
Continuous
 62
     3
370
     9
100
AcDbLine
 10
-127.8731516245249
 20
136.1351846230998
 30
0.0
 11
-105.3731516245249
 21
136.1351846230998
 31
0.0
  0
LINE
  5
174
330
1F
100
AcDbEntity
  8
0-0
  6
Continuous
 62
     3
370
     9
100
AcDbLine
 10
-129.3731813173035
 20
134.6351549303212
 30
0.0
 11
-129.3731813173035
 21
112.1351549303212
 31
0.0
  0
LINE
  5
175
330
1F
100
AcDbEntity
  8
0-0
  6
Continuous
 62
     3
370
     9
100
AcDbLine
 10
-168.8731879156988
 20
134.6351549303212
 30
0.0
 11
-168.8731879156988
 21
112.1351549303212
 31
0.0
  0
LINE
  5
176
330
1F
100
AcDbEntity
  8
0-0
  6
Continuous
 62
     3
370
     9
100
AcDbLine
 10
-167.3731582229201
 20
136.1351846230998
 30
0.0
 11
-144.8731582229201
 21
136.1351846230998
 31
0.0
  0
LINE
  5
177
330
1F
100
AcDbEntity
  8
0-0
  6
Continuous
 62
     3
370
     9
100
AcDbLine
 10
-143.3731780181059
 20
134.6351549303212
 30
0.0
 11
-143.3731780181059
 21
112.1351549303212
 31
0.0
  0
LINE
  5
178
330
1F
100
AcDbEntity
  8
0-0
  6
Continuous
 62
     3
370
     9
100
AcDbLine
 10
-167.3731582229201
 20
110.6351747255069
 30
0.0
 11
-144.8731582229201
 21
110.6351747255069
 31
0.0
  0
LINE
  5
179
330
1F
100
AcDbEntity
  8
0-0
  6
Continuous
 62
     3
370
     9
100
AcDbLine
 10
-206.8731648213154
 20
110.6351747255069
 30
0.0
 11
-184.3731648213154
 21
110.6351747255069
 31
0.0
  0
LINE
  5
17A
330
1F
100
AcDbEntity
  8
0-0
  6
Continuous
 62
     3
370
     9
100
AcDbLine
 10
-182.8731846165012
 20
134.6351549303212
 30
0.0
 11
-182.8731846165012
 21
112.1351549303212
 31
0.0
  0
LINE
  5
17B
330
1F
100
AcDbEntity
  8
0-0
  6
Continuous
 62
     3
370
     9
100
AcDbLine
 10
-206.8731648213154
 20
136.1351846230998
 30
0.0
 11
-184.3731648213154
 21
136.1351846230998
 31
0.0
  0
LINE
  5
17C
330
1F
100
AcDbEntity
  8
0-0
  6
Continuous
 62
     3
370
     9
100
AcDbLine
 10
-208.3731945140942
 20
134.6351549303212
 30
0.0
 11
-208.3731945140942
 21
112.1351549303212
 31
0.0
  0
LINE
  5
17D
330
1F
100
AcDbEntity
  8
0-0
  6
Continuous
 62
     3
370
     9
100
AcDbLine
 10
-465.3731516245249
 20
-106.8648747624576
 30
0.0
 11
34.62681538349875
 21
-106.8648747624576
 31
0.0
  0
LINE
  5
17E
330
1F
100
AcDbEntity
  8
0-0
  6
Continuous
 62
     3
370
     9
100
AcDbLine
 10
-465.3731516245249
 20
393.1351417335306
 30
0.0
 11
-465.3731516245249
 21
-106.8648747624576
 31
0.0
  0
LINE
  5
17F
330
1F
100
AcDbEntity
  8
0-0
  6
Continuous
 62
     3
370
     9
100
AcDbLine
 10
-222.3731912148965
 20
134.6351549303212
 30
0.0
 11
-222.3731912148965
 21
112.1351549303212
 31
0.0
  0
LINE
  5
180
330
1F
100
AcDbEntity
  8
0-0
  6
Continuous
 62
     3
370
     9
100
AcDbLine
 10
-223.8731714197107
 20
136.1351846230998
 30
0.0
 11
-246.3731714197107
 21
136.1351846230998
 31
0.0
  0
LINE
  5
181
330
1F
100
AcDbEntity
  8
0-0
  6
Continuous
 62
     3
370
     9
100
AcDbLine
 10
-247.8731516245249
 20
134.6351549303212
 30
0.0
 11
-247.8731516245249
 21
112.1351549303212
 31
0.0
  0
LINE
  5
182
330
1F
100
AcDbEntity
  8
0-0
  6
Continuous
 62
     3
370
     9
100
AcDbLine
 10
-223.8731714197107
 20
110.6351747255069
 30
0.0
 11
-246.3731714197107
 21
110.6351747255069
 31
0.0
  0
LINE
  5
183
330
1F
100
AcDbEntity
  8
0-0
  6
Continuous
 62
     3
370
     9
100
AcDbLine
 10
-263.3731780181059
 20
110.6351747255069
 30
0.0
 11
-285.8731780181059
 21
110.6351747255069
 31
0.0
  0
LINE
  5
184
330
1F
100
AcDbEntity
  8
0-0
  6
Continuous
 62
     3
370
     9
100
AcDbLine
 10
-287.3731582229201
 20
134.6351549303212
 30
0.0
 11
-287.3731582229201
 21
112.1351549303212
 31
0.0
  0
LINE
  5
185
330
1F
100
AcDbEntity
  8
0-0
  6
Continuous
 62
     3
370
     9
100
AcDbLine
 10
-263.3731780181059
 20
136.1351846230998
 30
0.0
 11
-285.8731780181059
 21
136.1351846230998
 31
0.0
  0
LINE
  5
186
330
1F
100
AcDbEntity
  8
0-0
  6
Continuous
 62
     3
370
     9
100
AcDbLine
 10
-261.8731978132918
 20
134.6351549303212
 30
0.0
 11
-261.8731978132918
 21
112.1351549303212
 31
0.0
  0
LINE
  5
187
330
1F
100
AcDbEntity
  8
0-0
  6
Continuous
 62
     3
370
     9
100
AcDbLine
 10
-301.3732044116871
 20
134.6351549303212
 30
0.0
 11
-301.3732044116871
 21
112.1351549303212
 31
0.0
  0
LINE
  5
188
330
1F
100
AcDbEntity
  8
0-0
  6
Continuous
 62
     3
370
     9
100
AcDbLine
 10
-302.8731846165012
 20
136.1351846230998
 30
0.0
 11
-325.3731846165012
 21
136.1351846230998
 31
0.0
  0
LINE
  5
189
330
1F
100
AcDbEntity
  8
0-0
  6
Continuous
 62
     3
370
     9
100
AcDbLine
 10
-326.8731648213154
 20
134.6351549303212
 30
0.0
 11
-326.8731648213154
 21
112.1351549303212
 31
0.0
  0
LINE
  5
18A
330
1F
100
AcDbEntity
  8
0-0
  6
Continuous
 62
     3
370
     9
100
AcDbLine
 10
-302.8731846165012
 20
110.6351747255069
 30
0.0
 11
-325.3731846165012
 21
110.6351747255069
 31
0.0
  0
LINE
  5
18B
330
1F
100
AcDbEntity
  8
0-0
  6
Continuous
 62
     3
370
     9
100
AcDbLine
 10
-342.3731912148965
 20
110.6351747255069
 30
0.0
 11
-364.8731912148965
 21
110.6351747255069
 31
0.0
  0
LINE
  5
18C
330
1F
100
AcDbEntity
  8
0-0
  6
Continuous
 62
     3
370
     9
100
AcDbLine
 10
-366.3731714197107
 20
134.6351549303212
 30
0.0
 11
-366.3731714197107
 21
112.1351549303212
 31
0.0
  0
LINE
  5
18D
330
1F
100
AcDbEntity
  8
0-0
  6
Continuous
 62
     3
370
     9
100
AcDbLine
 10
-342.3731912148965
 20
136.1351846230998
 30
0.0
 11
-364.8731912148965
 21
136.1351846230998
 31
0.0
  0
LINE
  5
18E
330
1F
100
AcDbEntity
  8
0-0
  6
Continuous
 62
     3
370
     9
100
AcDbLine
 10
-340.8732110100823
 20
134.6351549303212
 30
0.0
 11
-340.8732110100823
 21
112.1351549303212
 31
0.0
  0
LINE
  5
18F
330
1F
100
AcDbEntity
  8
0-0
  6
Continuous
 62
     3
370
     9
100
AcDbLine
 10
-380.3731681205131
 20
134.6351549303212
 30
0.0
 11
-380.3731681205131
 21
112.1351549303212
 31
0.0
  0
LINE
  5
190
330
1F
100
AcDbEntity
  8
0-0
  6
Continuous
 62
     3
370
     9
100
AcDbLine
 10
-381.8731978132918
 20
136.1351846230998
 30
0.0
 11
-404.3731978132918
 21
136.1351846230998
 31
0.0
  0
LINE
  5
191
330
1F
100
AcDbEntity
  8
0-0
  6
Continuous
 62
     3
370
     9
100
AcDbLine
 10
-405.873178018106
 20
134.6351549303212
 30
0.0
 11
-405.873178018106
 21
112.1351549303212
 31
0.0
  0
LINE
  5
192
330
1F
100
AcDbEntity
  8
0-0
  6
Continuous
 62
     3
370
     9
100
AcDbLine
 10
-381.8731978132918
 20
110.6351747255069
 30
0.0
 11
-404.3731978132918
 21
110.6351747255069
 31
0.0
  0
LINE
  5
193
330
1F
100
AcDbEntity
  8
0-0
  6
Continuous
 62
     3
370
     9
100
AcDbLine
 10
-421.373204411687
 20
110.6351747255069
 30
0.0
 11
-443.873204411687
 21
110.6351747255069
 31
0.0
  0
LINE
  5
194
330
1F
100
AcDbEntity
  8
0-0
  6
Continuous
 62
     3
370
     9
100
AcDbLine
 10
-445.3731846165012
 20
134.6351549303212
 30
0.0
 11
-445.3731846165012
 21
112.1351549303212
 31
0.0
  0
LINE
  5
195
330
1F
100
AcDbEntity
  8
0-0
  6
Continuous
 62
     3
370
     9
100
AcDbLine
 10
-421.373204411687
 20
136.1351846230998
 30
0.0
 11
-443.873204411687
 21
136.1351846230998
 31
0.0
  0
LINE
  5
196
330
1F
100
AcDbEntity
  8
0-0
  6
Continuous
 62
     3
370
     9
100
AcDbLine
 10
-419.8731747189083
 20
134.6351549303212
 30
0.0
 11
-419.8731747189083
 21
112.1351549303212
 31
0.0
  0
LINE
  5
197
330
1F
100
AcDbEntity
  8
0-0
  6
Continuous
 62
     3
370
     9
100
AcDbLine
 10
-419.8731747189083
 20
95.13514833192585
 30
0.0
 11
-419.8731747189083
 21
72.63514833192585
 31
0.0
  0
LINE
  5
198
330
1F
100
AcDbEntity
  8
0-0
  6
Continuous
 62
     3
370
     9
100
AcDbLine
 10
-421.373204411687
 20
96.6351780247046
 30
0.0
 11
-443.873204411687
 21
96.6351780247046
 31
0.0
  0
LINE
  5
199
330
1F
100
AcDbEntity
  8
0-0
  6
Continuous
 62
     3
370
     9
100
AcDbLine
 10
-445.3731846165012
 20
95.13514833192585
 30
0.0
 11
-445.3731846165012
 21
72.63514833192585
 31
0.0
  0
LINE
  5
19A
330
1F
100
AcDbEntity
  8
0-0
  6
Continuous
 62
     3
370
     9
100
AcDbLine
 10
-421.373204411687
 20
71.13516812711168
 30
0.0
 11
-443.873204411687
 21
71.13516812711168
 31
0.0
  0
LINE
  5
19B
330
1F
100
AcDbEntity
  8
0-0
  6
Continuous
 62
     3
370
     9
100
AcDbLine
 10
-381.8731978132918
 20
71.13516812711168
 30
0.0
 11
-404.3731978132918
 21
71.13516812711168
 31
0.0
  0
LINE
  5
19C
330
1F
100
AcDbEntity
  8
0-0
  6
Continuous
 62
     3
370
     9
100
AcDbLine
 10
-405.873178018106
 20
95.13514833192585
 30
0.0
 11
-405.873178018106
 21
72.63514833192585
 31
0.0
  0
LINE
  5
19D
330
1F
100
AcDbEntity
  8
0-0
  6
Continuous
 62
     3
370
     9
100
AcDbLine
 10
-381.8731978132918
 20
96.6351780247046
 30
0.0
 11
-404.3731978132918
 21
96.6351780247046
 31
0.0
  0
LINE
  5
19E
330
1F
100
AcDbEntity
  8
0-0
  6
Continuous
 62
     3
370
     9
100
AcDbLine
 10
-380.3731681205131
 20
95.13514833192585
 30
0.0
 11
-380.3731681205131
 21
72.63514833192585
 31
0.0
  0
LINE
  5
19F
330
1F
100
AcDbEntity
  8
0-0
  6
Continuous
 62
     3
370
     9
100
AcDbLine
 10
-340.8732110100823
 20
95.13514833192585
 30
0.0
 11
-340.8732110100823
 21
72.63514833192585
 31
0.0
  0
LINE
  5
1A0
330
1F
100
AcDbEntity
  8
0-0
  6
Continuous
 62
     3
370
     9
100
AcDbLine
 10
-342.3731912148965
 20
96.6351780247046
 30
0.0
 11
-364.8731912148965
 21
96.6351780247046
 31
0.0
  0
LINE
  5
1A1
330
1F
100
AcDbEntity
  8
0-0
  6
Continuous
 62
     3
370
     9
100
AcDbLine
 10
-366.3731714197107
 20
95.13514833192585
 30
0.0
 11
-366.3731714197107
 21
72.63514833192585
 31
0.0
  0
LINE
  5
1A2
330
1F
100
AcDbEntity
  8
0-0
  6
Continuous
 62
     3
370
     9
100
AcDbLine
 10
-342.3731912148965
 20
71.13516812711168
 30
0.0
 11
-364.8731912148965
 21
71.13516812711168
 31
0.0
  0
LINE
  5
1A3
330
1F
100
AcDbEntity
  8
0-0
  6
Continuous
 62
     3
370
     9
100
AcDbLine
 10
-302.8731846165012
 20
71.13516812711168
 30
0.0
 11
-325.3731846165012
 21
71.13516812711168
 31
0.0
  0
LINE
  5
1A4
330
1F
100
AcDbEntity
  8
0-0
  6
Continuous
 62
     3
370
     9
100
AcDbLine
 10
-326.8731648213154
 20
95.13514833192585
 30
0.0
 11
-326.8731648213154
 21
72.63514833192585
 31
0.0
  0
LINE
  5
1A5
330
1F
100
AcDbEntity
  8
0-0
  6
Continuous
 62
     3
370
     9
100
AcDbLine
 10
-302.8731846165012
 20
96.6351780247046
 30
0.0
 11
-325.3731846165012
 21
96.6351780247046
 31
0.0
  0
LINE
  5
1A6
330
1F
100
AcDbEntity
  8
0-0
  6
Continuous
 62
     3
370
     9
100
AcDbLine
 10
-301.3732044116871
 20
95.13514833192585
 30
0.0
 11
-301.3732044116871
 21
72.63514833192585
 31
0.0
  0
LINE
  5
1A7
330
1F
100
AcDbEntity
  8
0-0
  6
Continuous
 62
     3
370
     9
100
AcDbLine
 10
-261.8731978132918
 20
95.13514833192585
 30
0.0
 11
-261.8731978132918
 21
72.63514833192585
 31
0.0
  0
LINE
  5
1A8
330
1F
100
AcDbEntity
  8
0-0
  6
Continuous
 62
     3
370
     9
100
AcDbLine
 10
-263.3731780181059
 20
96.6351780247046
 30
0.0
 11
-285.8731780181059
 21
96.6351780247046
 31
0.0
  0
LINE
  5
1A9
330
1F
100
AcDbEntity
  8
0-0
  6
Continuous
 62
     3
370
     9
100
AcDbLine
 10
-287.3731582229201
 20
95.13514833192585
 30
0.0
 11
-287.3731582229201
 21
72.63514833192585
 31
0.0
  0
LINE
  5
1AA
330
1F
100
AcDbEntity
  8
0-0
  6
Continuous
 62
     3
370
     9
100
AcDbLine
 10
-263.3731780181059
 20
71.13516812711168
 30
0.0
 11
-285.8731780181059
 21
71.13516812711168
 31
0.0
  0
LINE
  5
1AB
330
1F
100
AcDbEntity
  8
0-0
  6
Continuous
 62
     3
370
     9
100
AcDbLine
 10
-223.8731714197107
 20
71.13516812711168
 30
0.0
 11
-246.3731714197107
 21
71.13516812711168
 31
0.0
  0
LINE
  5
1AC
330
1F
100
AcDbEntity
  8
0-0
  6
Continuous
 62
     3
370
     9
100
AcDbLine
 10
-247.8731516245249
 20
95.13514833192585
 30
0.0
 11
-247.8731516245249
 21
72.63514833192585
 31
0.0
  0
LINE
  5
1AD
330
1F
100
AcDbEntity
  8
0-0
  6
Continuous
 62
     3
370
     9
100
AcDbLine
 10
-223.8731714197107
 20
96.6351780247046
 30
0.0
 11
-246.3731714197107
 21
96.6351780247046
 31
0.0
  0
LINE
  5
1AE
330
1F
100
AcDbEntity
  8
0-0
  6
Continuous
 62
     3
370
     9
100
AcDbLine
 10
-222.3731912148965
 20
95.13514833192585
 30
0.0
 11
-222.3731912148965
 21
72.63514833192585
 31
0.0
  0
LINE
  5
1AF
330
1F
100
AcDbEntity
  8
0-0
  6
Continuous
 62
     3
370
     9
100
AcDbLine
 10
-222.3731912148965
 20
55.63514173353053
 30
0.0
 11
-222.3731912148965
 21
33.13514173353053
 31
0.0
  0
LINE
  5
1B0
330
1F
100
AcDbEntity
  8
0-0
  6
Continuous
 62
     3
370
     9
100
AcDbLine
 10
-223.8731714197107
 20
57.13517142630928
 30
0.0
 11
-246.3731714197107
 21
57.13517142630928
 31
0.0
  0
LINE
  5
1B1
330
1F
100
AcDbEntity
  8
0-0
  6
Continuous
 62
     3
370
     9
100
AcDbLine
 10
-247.8731516245249
 20
55.63514173353053
 30
0.0
 11
-247.8731516245249
 21
33.13514173353053
 31
0.0
  0
LINE
  5
1B2
330
1F
100
AcDbEntity
  8
0-0
  6
Continuous
 62
     3
370
     9
100
AcDbLine
 10
-223.8731714197107
 20
31.63516152871637
 30
0.0
 11
-246.3731714197107
 21
31.63516152871637
 31
0.0
  0
LINE
  5
1B3
330
1F
100
AcDbEntity
  8
0-0
  6
Continuous
 62
     3
370
     9
100
AcDbLine
 10
-263.3731780181059
 20
31.63516152871637
 30
0.0
 11
-285.8731780181059
 21
31.63516152871637
 31
0.0
  0
LINE
  5
1B4
330
1F
100
AcDbEntity
  8
0-0
  6
Continuous
 62
     3
370
     9
100
AcDbLine
 10
-287.3731582229201
 20
55.63514173353053
 30
0.0
 11
-287.3731582229201
 21
33.13514173353053
 31
0.0
  0
LINE
  5
1B5
330
1F
100
AcDbEntity
  8
0-0
  6
Continuous
 62
     3
370
     9
100
AcDbLine
 10
-263.3731780181059
 20
57.13517142630928
 30
0.0
 11
-285.8731780181059
 21
57.13517142630928
 31
0.0
  0
LINE
  5
1B6
330
1F
100
AcDbEntity
  8
0-0
  6
Continuous
 62
     3
370
     9
100
AcDbLine
 10
-261.8731978132918
 20
55.63514173353053
 30
0.0
 11
-261.8731978132918
 21
33.13514173353053
 31
0.0
  0
LINE
  5
1B7
330
1F
100
AcDbEntity
  8
0-0
  6
Continuous
 62
     3
370
     9
100
AcDbLine
 10
-301.3732044116871
 20
55.63514173353053
 30
0.0
 11
-301.3732044116871
 21
33.13514173353053
 31
0.0
  0
LINE
  5
1B8
330
1F
100
AcDbEntity
  8
0-0
  6
Continuous
 62
     3
370
     9
100
AcDbLine
 10
-302.8731846165012
 20
57.13517142630928
 30
0.0
 11
-325.3731846165012
 21
57.13517142630928
 31
0.0
  0
LINE
  5
1B9
330
1F
100
AcDbEntity
  8
0-0
  6
Continuous
 62
     3
370
     9
100
AcDbLine
 10
-326.8731648213154
 20
55.63514173353053
 30
0.0
 11
-326.8731648213154
 21
33.13514173353053
 31
0.0
  0
LINE
  5
1BA
330
1F
100
AcDbEntity
  8
0-0
  6
Continuous
 62
     3
370
     9
100
AcDbLine
 10
-302.8731846165012
 20
31.63516152871637
 30
0.0
 11
-325.3731846165012
 21
31.63516152871637
 31
0.0
  0
LINE
  5
1BB
330
1F
100
AcDbEntity
  8
0-0
  6
Continuous
 62
     3
370
     9
100
AcDbLine
 10
-342.3731912148965
 20
31.63516152871637
 30
0.0
 11
-364.8731912148965
 21
31.63516152871637
 31
0.0
  0
LINE
  5
1BC
330
1F
100
AcDbEntity
  8
0-0
  6
Continuous
 62
     3
370
     9
100
AcDbLine
 10
-366.3731714197107
 20
55.63514173353053
 30
0.0
 11
-366.3731714197107
 21
33.13514173353053
 31
0.0
  0
LINE
  5
1BD
330
1F
100
AcDbEntity
  8
0-0
  6
Continuous
 62
     3
370
     9
100
AcDbLine
 10
-342.3731912148965
 20
57.13517142630928
 30
0.0
 11
-364.8731912148965
 21
57.13517142630928
 31
0.0
  0
LINE
  5
1BE
330
1F
100
AcDbEntity
  8
0-0
  6
Continuous
 62
     3
370
     9
100
AcDbLine
 10
-340.8732110100823
 20
55.63514173353053
 30
0.0
 11
-340.8732110100823
 21
33.13514173353053
 31
0.0
  0
LINE
  5
1BF
330
1F
100
AcDbEntity
  8
0-0
  6
Continuous
 62
     3
370
     9
100
AcDbLine
 10
-380.3731681205131
 20
55.63514173353053
 30
0.0
 11
-380.3731681205131
 21
33.13514173353053
 31
0.0
  0
LINE
  5
1C0
330
1F
100
AcDbEntity
  8
0-0
  6
Continuous
 62
     3
370
     9
100
AcDbLine
 10
-381.8731978132918
 20
57.13517142630928
 30
0.0
 11
-404.3731978132918
 21
57.13517142630928
 31
0.0
  0
LINE
  5
1C1
330
1F
100
AcDbEntity
  8
0-0
  6
Continuous
 62
     3
370
     9
100
AcDbLine
 10
-405.873178018106
 20
55.63514173353053
 30
0.0
 11
-405.873178018106
 21
33.13514173353053
 31
0.0
  0
LINE
  5
1C2
330
1F
100
AcDbEntity
  8
0-0
  6
Continuous
 62
     3
370
     9
100
AcDbLine
 10
-381.8731978132918
 20
31.63516152871637
 30
0.0
 11
-404.3731978132918
 21
31.63516152871637
 31
0.0
  0
LINE
  5
1C3
330
1F
100
AcDbEntity
  8
0-0
  6
Continuous
 62
     3
370
     9
100
AcDbLine
 10
-421.373204411687
 20
31.63516152871637
 30
0.0
 11
-443.873204411687
 21
31.63516152871637
 31
0.0
  0
LINE
  5
1C4
330
1F
100
AcDbEntity
  8
0-0
  6
Continuous
 62
     3
370
     9
100
AcDbLine
 10
-445.3731846165012
 20
55.63514173353053
 30
0.0
 11
-445.3731846165012
 21
33.13514173353053
 31
0.0
  0
LINE
  5
1C5
330
1F
100
AcDbEntity
  8
0-0
  6
Continuous
 62
     3
370
     9
100
AcDbLine
 10
-421.373204411687
 20
57.13517142630928
 30
0.0
 11
-443.873204411687
 21
57.13517142630928
 31
0.0
  0
LINE
  5
1C6
330
1F
100
AcDbEntity
  8
0-0
  6
Continuous
 62
     3
370
     9
100
AcDbLine
 10
-419.8731747189083
 20
55.63514173353053
 30
0.0
 11
-419.8731747189083
 21
33.13514173353053
 31
0.0
  0
LINE
  5
1C7
330
1F
100
AcDbEntity
  8
0-0
  6
Continuous
 62
     3
370
     9
100
AcDbLine
 10
-419.8731747189083
 20
16.1351846230998
 30
0.0
 11
-419.8731747189083
 21
-6.364815376900196
 31
0.0
  0
LINE
  5
1C8
330
1F
100
AcDbEntity
  8
0-0
  6
Continuous
 62
     3
370
     9
100
AcDbLine
 10
-421.373204411687
 20
17.63516482791408
 30
0.0
 11
-443.873204411687
 21
17.63516482791408
 31
0.0
  0
LINE
  5
1C9
330
1F
100
AcDbEntity
  8
0-0
  6
Continuous
 62
     3
370
     9
100
AcDbLine
 10
-445.3731846165012
 20
16.1351846230998
 30
0.0
 11
-445.3731846165012
 21
-6.364815376900196
 31
0.0
  0
LINE
  5
1CA
330
1F
100
AcDbEntity
  8
0-0
  6
Continuous
 62
     3
370
     9
100
AcDbLine
 10
-421.373204411687
 20
-7.864845069678836
 30
0.0
 11
-443.873204411687
 21
-7.864845069678836
 31
0.0
  0
LINE
  5
1CB
330
1F
100
AcDbEntity
  8
0-0
  6
Continuous
 62
     3
370
     9
100
AcDbLine
 10
-381.8731978132918
 20
-7.864845069678836
 30
0.0
 11
-404.3731978132918
 21
-7.864845069678836
 31
0.0
  0
LINE
  5
1CC
330
1F
100
AcDbEntity
  8
0-0
  6
Continuous
 62
     3
370
     9
100
AcDbLine
 10
-405.873178018106
 20
16.1351846230998
 30
0.0
 11
-405.873178018106
 21
-6.364815376900196
 31
0.0
  0
LINE
  5
1CD
330
1F
100
AcDbEntity
  8
0-0
  6
Continuous
 62
     3
370
     9
100
AcDbLine
 10
-381.8731978132918
 20
17.63516482791408
 30
0.0
 11
-404.3731978132918
 21
17.63516482791408
 31
0.0
  0
LINE
  5
1CE
330
1F
100
AcDbEntity
  8
0-0
  6
Continuous
 62
     3
370
     9
100
AcDbLine
 10
-380.3731681205131
 20
16.1351846230998
 30
0.0
 11
-380.3731681205131
 21
-6.364815376900196
 31
0.0
  0
LINE
  5
1CF
330
1F
100
AcDbEntity
  8
0-0
  6
Continuous
 62
     3
370
     9
100
AcDbLine
 10
-340.8732110100823
 20
16.1351846230998
 30
0.0
 11
-340.8732110100823
 21
-6.364815376900196
 31
0.0
  0
LINE
  5
1D0
330
1F
100
AcDbEntity
  8
0-0
  6
Continuous
 62
     3
370
     9
100
AcDbLine
 10
-342.3731912148965
 20
17.63516482791408
 30
0.0
 11
-364.8731912148965
 21
17.63516482791408
 31
0.0
  0
LINE
  5
1D1
330
1F
100
AcDbEntity
  8
0-0
  6
Continuous
 62
     3
370
     9
100
AcDbLine
 10
-366.3731714197107
 20
16.1351846230998
 30
0.0
 11
-366.3731714197107
 21
-6.364815376900196
 31
0.0
  0
LINE
  5
1D2
330
1F
100
AcDbEntity
  8
0-0
  6
Continuous
 62
     3
370
     9
100
AcDbLine
 10
-342.3731912148965
 20
-7.864845069678836
 30
0.0
 11
-364.8731912148965
 21
-7.864845069678836
 31
0.0
  0
LINE
  5
1D3
330
1F
100
AcDbEntity
  8
0-0
  6
Continuous
 62
     3
370
     9
100
AcDbLine
 10
-302.8731846165012
 20
-7.864845069678836
 30
0.0
 11
-325.3731846165012
 21
-7.864845069678836
 31
0.0
  0
LINE
  5
1D4
330
1F
100
AcDbEntity
  8
0-0
  6
Continuous
 62
     3
370
     9
100
AcDbLine
 10
-326.8731648213154
 20
16.1351846230998
 30
0.0
 11
-326.8731648213154
 21
-6.364815376900196
 31
0.0
  0
LINE
  5
1D5
330
1F
100
AcDbEntity
  8
0-0
  6
Continuous
 62
     3
370
     9
100
AcDbLine
 10
-302.8731846165012
 20
17.63516482791408
 30
0.0
 11
-325.3731846165012
 21
17.63516482791408
 31
0.0
  0
LINE
  5
1D6
330
1F
100
AcDbEntity
  8
0-0
  6
Continuous
 62
     3
370
     9
100
AcDbLine
 10
-301.3732044116871
 20
16.1351846230998
 30
0.0
 11
-301.3732044116871
 21
-6.364815376900196
 31
0.0
  0
LINE
  5
1D7
330
1F
100
AcDbEntity
  8
0-0
  6
Continuous
 62
     3
370
     9
100
AcDbLine
 10
-261.8731978132918
 20
16.1351846230998
 30
0.0
 11
-261.8731978132918
 21
-6.364815376900196
 31
0.0
  0
LINE
  5
1D8
330
1F
100
AcDbEntity
  8
0-0
  6
Continuous
 62
     3
370
     9
100
AcDbLine
 10
-263.3731780181059
 20
17.63516482791408
 30
0.0
 11
-285.8731780181059
 21
17.63516482791408
 31
0.0
  0
LINE
  5
1D9
330
1F
100
AcDbEntity
  8
0-0
  6
Continuous
 62
     3
370
     9
100
AcDbLine
 10
-287.3731582229201
 20
16.1351846230998
 30
0.0
 11
-287.3731582229201
 21
-6.364815376900196
 31
0.0
  0
LINE
  5
1DA
330
1F
100
AcDbEntity
  8
0-0
  6
Continuous
 62
     3
370
     9
100
AcDbLine
 10
-263.3731780181059
 20
-7.864845069678836
 30
0.0
 11
-285.8731780181059
 21
-7.864845069678836
 31
0.0
  0
LINE
  5
1DB
330
1F
100
AcDbEntity
  8
0-0
  6
Continuous
 62
     3
370
     9
100
AcDbLine
 10
-223.8731714197107
 20
-7.864845069678836
 30
0.0
 11
-246.3731714197107
 21
-7.864845069678836
 31
0.0
  0
LINE
  5
1DC
330
1F
100
AcDbEntity
  8
0-0
  6
Continuous
 62
     3
370
     9
100
AcDbLine
 10
-247.8731516245249
 20
16.1351846230998
 30
0.0
 11
-247.8731516245249
 21
-6.364815376900196
 31
0.0
  0
LINE
  5
1DD
330
1F
100
AcDbEntity
  8
0-0
  6
Continuous
 62
     3
370
     9
100
AcDbLine
 10
-223.8731714197107
 20
17.63516482791408
 30
0.0
 11
-246.3731714197107
 21
17.63516482791408
 31
0.0
  0
LINE
  5
1DE
330
1F
100
AcDbEntity
  8
0-0
  6
Continuous
 62
     3
370
     9
100
AcDbLine
 10
-222.3731912148965
 20
16.1351846230998
 30
0.0
 11
-222.3731912148965
 21
-6.364815376900196
 31
0.0
  0
LINE
  5
1DF
330
1F
100
AcDbEntity
  8
0-0
  6
Continuous
 62
     3
370
     9
100
AcDbLine
 10
-222.3731912148965
 20
-23.3648219752954
 30
0.0
 11
-222.3731912148965
 21
-45.8648219752954
 31
0.0
  0
LINE
  5
1E0
330
1F
100
AcDbEntity
  8
0-0
  6
Continuous
 62
     3
370
     9
100
AcDbLine
 10
-223.8731714197107
 20
-21.86484177048123
 30
0.0
 11
-246.3731714197107
 21
-21.86484177048123
 31
0.0
  0
LINE
  5
1E1
330
1F
100
AcDbEntity
  8
0-0
  6
Continuous
 62
     3
370
     9
100
AcDbLine
 10
-247.8731516245249
 20
-23.3648219752954
 30
0.0
 11
-247.8731516245249
 21
-45.8648219752954
 31
0.0
  0
LINE
  5
1E2
330
1F
100
AcDbEntity
  8
0-0
  6
Continuous
 62
     3
370
     9
100
AcDbLine
 10
-223.8731714197107
 20
-47.36485166807415
 30
0.0
 11
-246.3731714197107
 21
-47.36485166807415
 31
0.0
  0
LINE
  5
1E3
330
1F
100
AcDbEntity
  8
0-0
  6
Continuous
 62
     3
370
     9
100
AcDbLine
 10
-263.3731780181059
 20
-47.36485166807415
 30
0.0
 11
-285.8731780181059
 21
-47.36485166807415
 31
0.0
  0
LINE
  5
1E4
330
1F
100
AcDbEntity
  8
0-0
  6
Continuous
 62
     3
370
     9
100
AcDbLine
 10
-287.3731582229201
 20
-23.3648219752954
 30
0.0
 11
-287.3731582229201
 21
-45.8648219752954
 31
0.0
  0
LINE
  5
1E5
330
1F
100
AcDbEntity
  8
0-0
  6
Continuous
 62
     3
370
     9
100
AcDbLine
 10
-263.3731780181059
 20
-21.86484177048123
 30
0.0
 11
-285.8731780181059
 21
-21.86484177048123
 31
0.0
  0
LINE
  5
1E6
330
1F
100
AcDbEntity
  8
0-0
  6
Continuous
 62
     3
370
     9
100
AcDbLine
 10
-261.8731978132918
 20
-23.3648219752954
 30
0.0
 11
-261.8731978132918
 21
-45.8648219752954
 31
0.0
  0
LINE
  5
1E7
330
1F
100
AcDbEntity
  8
0-0
  6
Continuous
 62
     3
370
     9
100
AcDbLine
 10
-301.3732044116871
 20
-23.3648219752954
 30
0.0
 11
-301.3732044116871
 21
-45.8648219752954
 31
0.0
  0
LINE
  5
1E8
330
1F
100
AcDbEntity
  8
0-0
  6
Continuous
 62
     3
370
     9
100
AcDbLine
 10
-302.8731846165012
 20
-21.86484177048123
 30
0.0
 11
-325.3731846165012
 21
-21.86484177048123
 31
0.0
  0
LINE
  5
1E9
330
1F
100
AcDbEntity
  8
0-0
  6
Continuous
 62
     3
370
     9
100
AcDbLine
 10
-326.8731648213154
 20
-23.3648219752954
 30
0.0
 11
-326.8731648213154
 21
-45.8648219752954
 31
0.0
  0
LINE
  5
1EA
330
1F
100
AcDbEntity
  8
0-0
  6
Continuous
 62
     3
370
     9
100
AcDbLine
 10
-302.8731846165012
 20
-47.36485166807415
 30
0.0
 11
-325.3731846165012
 21
-47.36485166807415
 31
0.0
  0
LINE
  5
1EB
330
1F
100
AcDbEntity
  8
0-0
  6
Continuous
 62
     3
370
     9
100
AcDbLine
 10
-342.3731912148965
 20
-47.36485166807415
 30
0.0
 11
-364.8731912148965
 21
-47.36485166807415
 31
0.0
  0
LINE
  5
1EC
330
1F
100
AcDbEntity
  8
0-0
  6
Continuous
 62
     3
370
     9
100
AcDbLine
 10
-366.3731714197107
 20
-23.3648219752954
 30
0.0
 11
-366.3731714197107
 21
-45.8648219752954
 31
0.0
  0
LINE
  5
1ED
330
1F
100
AcDbEntity
  8
0-0
  6
Continuous
 62
     3
370
     9
100
AcDbLine
 10
-342.3731912148965
 20
-21.86484177048123
 30
0.0
 11
-364.8731912148965
 21
-21.86484177048123
 31
0.0
  0
LINE
  5
1EE
330
1F
100
AcDbEntity
  8
0-0
  6
Continuous
 62
     3
370
     9
100
AcDbLine
 10
-340.8732110100823
 20
-23.3648219752954
 30
0.0
 11
-340.8732110100823
 21
-45.8648219752954
 31
0.0
  0
LINE
  5
1EF
330
1F
100
AcDbEntity
  8
0-0
  6
Continuous
 62
     3
370
     9
100
AcDbLine
 10
-380.3731681205131
 20
-23.3648219752954
 30
0.0
 11
-380.3731681205131
 21
-45.8648219752954
 31
0.0
  0
LINE
  5
1F0
330
1F
100
AcDbEntity
  8
0-0
  6
Continuous
 62
     3
370
     9
100
AcDbLine
 10
-381.8731978132918
 20
-21.86484177048123
 30
0.0
 11
-404.3731978132918
 21
-21.86484177048123
 31
0.0
  0
LINE
  5
1F1
330
1F
100
AcDbEntity
  8
0-0
  6
Continuous
 62
     3
370
     9
100
AcDbLine
 10
-405.873178018106
 20
-23.3648219752954
 30
0.0
 11
-405.873178018106
 21
-45.8648219752954
 31
0.0
  0
LINE
  5
1F2
330
1F
100
AcDbEntity
  8
0-0
  6
Continuous
 62
     3
370
     9
100
AcDbLine
 10
-381.8731978132918
 20
-47.36485166807415
 30
0.0
 11
-404.3731978132918
 21
-47.36485166807415
 31
0.0
  0
LINE
  5
1F3
330
1F
100
AcDbEntity
  8
0-0
  6
Continuous
 62
     3
370
     9
100
AcDbLine
 10
-421.373204411687
 20
-47.36485166807415
 30
0.0
 11
-443.873204411687
 21
-47.36485166807415
 31
0.0
  0
LINE
  5
1F4
330
1F
100
AcDbEntity
  8
0-0
  6
Continuous
 62
     3
370
     9
100
AcDbLine
 10
-445.3731846165012
 20
-23.3648219752954
 30
0.0
 11
-445.3731846165012
 21
-45.8648219752954
 31
0.0
  0
LINE
  5
1F5
330
1F
100
AcDbEntity
  8
0-0
  6
Continuous
 62
     3
370
     9
100
AcDbLine
 10
-421.373204411687
 20
-21.86484177048123
 30
0.0
 11
-443.873204411687
 21
-21.86484177048123
 31
0.0
  0
LINE
  5
1F6
330
1F
100
AcDbEntity
  8
0-0
  6
Continuous
 62
     3
370
     9
100
AcDbLine
 10
-419.8731747189083
 20
-23.3648219752954
 30
0.0
 11
-419.8731747189083
 21
-45.8648219752954
 31
0.0
  0
LINE
  5
1F7
330
1F
100
AcDbEntity
  8
0-0
  6
Continuous
 62
     3
370
     9
100
AcDbLine
 10
-419.8731747189083
 20
-62.86482857369072
 30
0.0
 11
-419.8731747189083
 21
-85.36482857369072
 31
0.0
  0
LINE
  5
1F8
330
1F
100
AcDbEntity
  8
0-0
  6
Continuous
 62
     3
370
     9
100
AcDbLine
 10
-421.373204411687
 20
-61.36484836887644
 30
0.0
 11
-443.873204411687
 21
-61.36484836887644
 31
0.0
  0
LINE
  5
1F9
330
1F
100
AcDbEntity
  8
0-0
  6
Continuous
 62
     3
370
     9
100
AcDbLine
 10
-445.3731846165012
 20
-62.86482857369072
 30
0.0
 11
-445.3731846165012
 21
-85.36482857369072
 31
0.0
  0
LINE
  5
1FA
330
1F
100
AcDbEntity
  8
0-0
  6
Continuous
 62
     3
370
     9
100
AcDbLine
 10
-421.373204411687
 20
-86.86480877850488
 30
0.0
 11
-443.873204411687
 21
-86.86480877850488
 31
0.0
  0
LINE
  5
1FB
330
1F
100
AcDbEntity
  8
0-0
  6
Continuous
 62
     3
370
     9
100
AcDbLine
 10
-381.8731978132918
 20
-86.86480877850488
 30
0.0
 11
-404.3731978132918
 21
-86.86480877850488
 31
0.0
  0
LINE
  5
1FC
330
1F
100
AcDbEntity
  8
0-0
  6
Continuous
 62
     3
370
     9
100
AcDbLine
 10
-405.873178018106
 20
-62.86482857369072
 30
0.0
 11
-405.873178018106
 21
-85.36482857369072
 31
0.0
  0
LINE
  5
1FD
330
1F
100
AcDbEntity
  8
0-0
  6
Continuous
 62
     3
370
     9
100
AcDbLine
 10
-381.8731978132918
 20
-61.36484836887644
 30
0.0
 11
-404.3731978132918
 21
-61.36484836887644
 31
0.0
  0
LINE
  5
1FE
330
1F
100
AcDbEntity
  8
0-0
  6
Continuous
 62
     3
370
     9
100
AcDbLine
 10
-380.3731681205131
 20
-62.86482857369072
 30
0.0
 11
-380.3731681205131
 21
-85.36482857369072
 31
0.0
  0
LINE
  5
1FF
330
1F
100
AcDbEntity
  8
0-0
  6
Continuous
 62
     3
370
     9
100
AcDbLine
 10
-340.8732110100823
 20
-62.86482857369072
 30
0.0
 11
-340.8732110100823
 21
-85.36482857369072
 31
0.0
  0
LINE
  5
200
330
1F
100
AcDbEntity
  8
0-0
  6
Continuous
 62
     3
370
     9
100
AcDbLine
 10
-342.3731912148965
 20
-61.36484836887644
 30
0.0
 11
-364.8731912148965
 21
-61.36484836887644
 31
0.0
  0
LINE
  5
201
330
1F
100
AcDbEntity
  8
0-0
  6
Continuous
 62
     3
370
     9
100
AcDbLine
 10
-366.3731714197107
 20
-62.86482857369072
 30
0.0
 11
-366.3731714197107
 21
-85.36482857369072
 31
0.0
  0
LINE
  5
202
330
1F
100
AcDbEntity
  8
0-0
  6
Continuous
 62
     3
370
     9
100
AcDbLine
 10
-342.3731912148965
 20
-86.86480877850488
 30
0.0
 11
-364.8731912148965
 21
-86.86480877850488
 31
0.0
  0
LINE
  5
203
330
1F
100
AcDbEntity
  8
0-0
  6
Continuous
 62
     3
370
     9
100
AcDbLine
 10
-302.8731846165012
 20
-86.86480877850488
 30
0.0
 11
-325.3731846165012
 21
-86.86480877850488
 31
0.0
  0
LINE
  5
204
330
1F
100
AcDbEntity
  8
0-0
  6
Continuous
 62
     3
370
     9
100
AcDbLine
 10
-326.8731648213154
 20
-62.86482857369072
 30
0.0
 11
-326.8731648213154
 21
-85.36482857369072
 31
0.0
  0
LINE
  5
205
330
1F
100
AcDbEntity
  8
0-0
  6
Continuous
 62
     3
370
     9
100
AcDbLine
 10
-302.8731846165012
 20
-61.36484836887644
 30
0.0
 11
-325.3731846165012
 21
-61.36484836887644
 31
0.0
  0
LINE
  5
206
330
1F
100
AcDbEntity
  8
0-0
  6
Continuous
 62
     3
370
     9
100
AcDbLine
 10
-301.3732044116871
 20
-62.86482857369072
 30
0.0
 11
-301.3732044116871
 21
-85.36482857369072
 31
0.0
  0
LINE
  5
207
330
1F
100
AcDbEntity
  8
0-0
  6
Continuous
 62
     3
370
     9
100
AcDbLine
 10
-261.8731978132918
 20
-62.86482857369072
 30
0.0
 11
-261.8731978132918
 21
-85.36482857369072
 31
0.0
  0
LINE
  5
208
330
1F
100
AcDbEntity
  8
0-0
  6
Continuous
 62
     3
370
     9
100
AcDbLine
 10
-263.3731780181059
 20
-61.36484836887644
 30
0.0
 11
-285.8731780181059
 21
-61.36484836887644
 31
0.0
  0
LINE
  5
209
330
1F
100
AcDbEntity
  8
0-0
  6
Continuous
 62
     3
370
     9
100
AcDbLine
 10
-287.3731582229201
 20
-62.86482857369072
 30
0.0
 11
-287.3731582229201
 21
-85.36482857369072
 31
0.0
  0
LINE
  5
20A
330
1F
100
AcDbEntity
  8
0-0
  6
Continuous
 62
     3
370
     9
100
AcDbLine
 10
-263.3731780181059
 20
-86.86480877850488
 30
0.0
 11
-285.8731780181059
 21
-86.86480877850488
 31
0.0
  0
LINE
  5
20B
330
1F
100
AcDbEntity
  8
0-0
  6
Continuous
 62
     3
370
     9
100
AcDbLine
 10
-223.8731714197107
 20
-86.86480877850488
 30
0.0
 11
-246.3731714197107
 21
-86.86480877850488
 31
0.0
  0
LINE
  5
20C
330
1F
100
AcDbEntity
  8
0-0
  6
Continuous
 62
     3
370
     9
100
AcDbLine
 10
-247.8731516245249
 20
-62.86482857369072
 30
0.0
 11
-247.8731516245249
 21
-85.36482857369072
 31
0.0
  0
LINE
  5
20D
330
1F
100
AcDbEntity
  8
0-0
  6
Continuous
 62
     3
370
     9
100
AcDbLine
 10
-223.8731714197107
 20
-61.36484836887644
 30
0.0
 11
-246.3731714197107
 21
-61.36484836887644
 31
0.0
  0
LINE
  5
20E
330
1F
100
AcDbEntity
  8
0-0
  6
Continuous
 62
     3
370
     9
100
AcDbLine
 10
-222.3731912148965
 20
-62.86482857369072
 30
0.0
 11
-222.3731912148965
 21
-85.36482857369072
 31
0.0
  0
LINE
  5
20F
330
1F
100
AcDbEntity
  8
0-0
  6
Continuous
 62
     3
370
     9
100
AcDbLine
 10
-222.3731912148965
 20
349.1351945206927
 30
0.0
 11
-222.3731912148965
 21
371.6351945206927
 31
0.0
  0
LINE
  5
210
330
1F
100
AcDbEntity
  8
0-0
  6
Continuous
 62
     3
370
     9
100
AcDbLine
 10
-223.8731714197107
 20
347.6352143158786
 30
0.0
 11
-246.3731714197107
 21
347.6352143158786
 31
0.0
  0
LINE
  5
211
330
1F
100
AcDbEntity
  8
0-0
  6
Continuous
 62
     3
370
     9
100
AcDbLine
 10
-247.8731516245249
 20
349.1351945206927
 30
0.0
 11
-247.8731516245249
 21
371.6351945206927
 31
0.0
  0
LINE
  5
212
330
1F
100
AcDbEntity
  8
0-0
  6
Continuous
 62
     3
370
     9
100
AcDbLine
 10
-223.8731714197107
 20
373.135174725507
 30
0.0
 11
-246.3731714197107
 21
373.135174725507
 31
0.0
  0
LINE
  5
213
330
1F
100
AcDbEntity
  8
0-0
  6
Continuous
 62
     3
370
     9
100
AcDbLine
 10
-263.3731780181059
 20
373.135174725507
 30
0.0
 11
-285.8731780181059
 21
373.135174725507
 31
0.0
  0
LINE
  5
214
330
1F
100
AcDbEntity
  8
0-0
  6
Continuous
 62
     3
370
     9
100
AcDbLine
 10
-287.3731582229201
 20
349.1351945206927
 30
0.0
 11
-287.3731582229201
 21
371.6351945206927
 31
0.0
  0
LINE
  5
215
330
1F
100
AcDbEntity
  8
0-0
  6
Continuous
 62
     3
370
     9
100
AcDbLine
 10
-263.3731780181059
 20
347.6352143158786
 30
0.0
 11
-285.8731780181059
 21
347.6352143158786
 31
0.0
  0
LINE
  5
216
330
1F
100
AcDbEntity
  8
0-0
  6
Continuous
 62
     3
370
     9
100
AcDbLine
 10
-261.8731978132918
 20
349.1351945206927
 30
0.0
 11
-261.8731978132918
 21
371.6351945206927
 31
0.0
  0
LINE
  5
217
330
1F
100
AcDbEntity
  8
0-0
  6
Continuous
 62
     3
370
     9
100
AcDbLine
 10
-301.3732044116871
 20
349.1351945206927
 30
0.0
 11
-301.3732044116871
 21
371.6351945206927
 31
0.0
  0
LINE
  5
218
330
1F
100
AcDbEntity
  8
0-0
  6
Continuous
 62
     3
370
     9
100
AcDbLine
 10
-302.8731846165012
 20
347.6352143158786
 30
0.0
 11
-325.3731846165012
 21
347.6352143158786
 31
0.0
  0
LINE
  5
219
330
1F
100
AcDbEntity
  8
0-0
  6
Continuous
 62
     3
370
     9
100
AcDbLine
 10
-326.8731648213154
 20
349.1351945206927
 30
0.0
 11
-326.8731648213154
 21
371.6351945206927
 31
0.0
  0
LINE
  5
21A
330
1F
100
AcDbEntity
  8
0-0
  6
Continuous
 62
     3
370
     9
100
AcDbLine
 10
-302.8731846165012
 20
373.135174725507
 30
0.0
 11
-325.3731846165012
 21
373.135174725507
 31
0.0
  0
LINE
  5
21B
330
1F
100
AcDbEntity
  8
0-0
  6
Continuous
 62
     3
370
     9
100
AcDbLine
 10
-342.3731912148965
 20
373.135174725507
 30
0.0
 11
-364.8731912148965
 21
373.135174725507
 31
0.0
  0
LINE
  5
21C
330
1F
100
AcDbEntity
  8
0-0
  6
Continuous
 62
     3
370
     9
100
AcDbLine
 10
-366.3731714197107
 20
349.1351945206927
 30
0.0
 11
-366.3731714197107
 21
371.6351945206927
 31
0.0
  0
LINE
  5
21D
330
1F
100
AcDbEntity
  8
0-0
  6
Continuous
 62
     3
370
     9
100
AcDbLine
 10
-342.3731912148965
 20
347.6352143158786
 30
0.0
 11
-364.8731912148965
 21
347.6352143158786
 31
0.0
  0
LINE
  5
21E
330
1F
100
AcDbEntity
  8
0-0
  6
Continuous
 62
     3
370
     9
100
AcDbLine
 10
-340.8732110100823
 20
349.1351945206927
 30
0.0
 11
-340.8732110100823
 21
371.6351945206927
 31
0.0
  0
LINE
  5
21F
330
1F
100
AcDbEntity
  8
0-0
  6
Continuous
 62
     3
370
     9
100
AcDbLine
 10
-380.3731681205131
 20
349.1351945206927
 30
0.0
 11
-380.3731681205131
 21
371.6351945206927
 31
0.0
  0
LINE
  5
220
330
1F
100
AcDbEntity
  8
0-0
  6
Continuous
 62
     3
370
     9
100
AcDbLine
 10
-381.8731978132918
 20
347.6352143158786
 30
0.0
 11
-404.3731978132918
 21
347.6352143158786
 31
0.0
  0
LINE
  5
221
330
1F
100
AcDbEntity
  8
0-0
  6
Continuous
 62
     3
370
     9
100
AcDbLine
 10
-405.873178018106
 20
349.1351945206927
 30
0.0
 11
-405.873178018106
 21
371.6351945206927
 31
0.0
  0
LINE
  5
222
330
1F
100
AcDbEntity
  8
0-0
  6
Continuous
 62
     3
370
     9
100
AcDbLine
 10
-381.8731978132918
 20
373.135174725507
 30
0.0
 11
-404.3731978132918
 21
373.135174725507
 31
0.0
  0
LINE
  5
223
330
1F
100
AcDbEntity
  8
0-0
  6
Continuous
 62
     3
370
     9
100
AcDbLine
 10
-421.373204411687
 20
373.135174725507
 30
0.0
 11
-443.873204411687
 21
373.135174725507
 31
0.0
  0
LINE
  5
224
330
1F
100
AcDbEntity
  8
0-0
  6
Continuous
 62
     3
370
     9
100
AcDbLine
 10
-445.3731846165012
 20
349.1351945206927
 30
0.0
 11
-445.3731846165012
 21
371.6351945206927
 31
0.0
  0
LINE
  5
225
330
1F
100
AcDbEntity
  8
0-0
  6
Continuous
 62
     3
370
     9
100
AcDbLine
 10
-421.373204411687
 20
347.6352143158786
 30
0.0
 11
-443.873204411687
 21
347.6352143158786
 31
0.0
  0
LINE
  5
226
330
1F
100
AcDbEntity
  8
0-0
  6
Continuous
 62
     3
370
     9
100
AcDbLine
 10
-419.8731747189083
 20
349.1351945206927
 30
0.0
 11
-419.8731747189083
 21
371.6351945206927
 31
0.0
  0
LINE
  5
227
330
1F
100
AcDbEntity
  8
0-0
  6
Continuous
 62
     3
370
     9
100
AcDbLine
 10
-419.8731747189083
 20
309.6351879222975
 30
0.0
 11
-419.8731747189083
 21
332.1351879222975
 31
0.0
  0
LINE
  5
228
330
1F
100
AcDbEntity
  8
0-0
  6
Continuous
 62
     3
370
     9
100
AcDbLine
 10
-421.373204411687
 20
308.1352077174834
 30
0.0
 11
-443.873204411687
 21
308.1352077174834
 31
0.0
  0
LINE
  5
229
330
1F
100
AcDbEntity
  8
0-0
  6
Continuous
 62
     3
370
     9
100
AcDbLine
 10
-445.3731846165012
 20
309.6351879222975
 30
0.0
 11
-445.3731846165012
 21
332.1351879222975
 31
0.0
  0
LINE
  5
22A
330
1F
100
AcDbEntity
  8
0-0
  6
Continuous
 62
     3
370
     9
100
AcDbLine
 10
-421.373204411687
 20
333.6351681271117
 30
0.0
 11
-443.873204411687
 21
333.6351681271117
 31
0.0
  0
LINE
  5
22B
330
1F
100
AcDbEntity
  8
0-0
  6
Continuous
 62
     3
370
     9
100
AcDbLine
 10
-381.8731978132918
 20
333.6351681271117
 30
0.0
 11
-404.3731978132918
 21
333.6351681271117
 31
0.0
  0
LINE
  5
22C
330
1F
100
AcDbEntity
  8
0-0
  6
Continuous
 62
     3
370
     9
100
AcDbLine
 10
-405.873178018106
 20
309.6351879222975
 30
0.0
 11
-405.873178018106
 21
332.1351879222975
 31
0.0
  0
LINE
  5
22D
330
1F
100
AcDbEntity
  8
0-0
  6
Continuous
 62
     3
370
     9
100
AcDbLine
 10
-381.8731978132918
 20
308.1352077174834
 30
0.0
 11
-404.3731978132918
 21
308.1352077174834
 31
0.0
  0
LINE
  5
22E
330
1F
100
AcDbEntity
  8
0-0
  6
Continuous
 62
     3
370
     9
100
AcDbLine
 10
-380.3731681205131
 20
309.6351879222975
 30
0.0
 11
-380.3731681205131
 21
332.1351879222975
 31
0.0
  0
LINE
  5
22F
330
1F
100
AcDbEntity
  8
0-0
  6
Continuous
 62
     3
370
     9
100
AcDbLine
 10
-340.8732110100823
 20
309.6351879222975
 30
0.0
 11
-340.8732110100823
 21
332.1351879222975
 31
0.0
  0
LINE
  5
230
330
1F
100
AcDbEntity
  8
0-0
  6
Continuous
 62
     3
370
     9
100
AcDbLine
 10
-342.3731912148965
 20
308.1352077174834
 30
0.0
 11
-364.8731912148965
 21
308.1352077174834
 31
0.0
  0
LINE
  5
231
330
1F
100
AcDbEntity
  8
0-0
  6
Continuous
 62
     3
370
     9
100
AcDbLine
 10
-366.3731714197107
 20
309.6351879222975
 30
0.0
 11
-366.3731714197107
 21
332.1351879222975
 31
0.0
  0
LINE
  5
232
330
1F
100
AcDbEntity
  8
0-0
  6
Continuous
 62
     3
370
     9
100
AcDbLine
 10
-342.3731912148965
 20
333.6351681271117
 30
0.0
 11
-364.8731912148965
 21
333.6351681271117
 31
0.0
  0
LINE
  5
233
330
1F
100
AcDbEntity
  8
0-0
  6
Continuous
 62
     3
370
     9
100
AcDbLine
 10
-302.8731846165012
 20
333.6351681271117
 30
0.0
 11
-325.3731846165012
 21
333.6351681271117
 31
0.0
  0
LINE
  5
234
330
1F
100
AcDbEntity
  8
0-0
  6
Continuous
 62
     3
370
     9
100
AcDbLine
 10
-326.8731648213154
 20
309.6351879222975
 30
0.0
 11
-326.8731648213154
 21
332.1351879222975
 31
0.0
  0
LINE
  5
235
330
1F
100
AcDbEntity
  8
0-0
  6
Continuous
 62
     3
370
     9
100
AcDbLine
 10
-302.8731846165012
 20
308.1352077174834
 30
0.0
 11
-325.3731846165012
 21
308.1352077174834
 31
0.0
  0
LINE
  5
236
330
1F
100
AcDbEntity
  8
0-0
  6
Continuous
 62
     3
370
     9
100
AcDbLine
 10
-301.3732044116871
 20
309.6351879222975
 30
0.0
 11
-301.3732044116871
 21
332.1351879222975
 31
0.0
  0
LINE
  5
237
330
1F
100
AcDbEntity
  8
0-0
  6
Continuous
 62
     3
370
     9
100
AcDbLine
 10
-261.8731978132918
 20
309.6351879222975
 30
0.0
 11
-261.8731978132918
 21
332.1351879222975
 31
0.0
  0
LINE
  5
238
330
1F
100
AcDbEntity
  8
0-0
  6
Continuous
 62
     3
370
     9
100
AcDbLine
 10
-263.3731780181059
 20
308.1352077174834
 30
0.0
 11
-285.8731780181059
 21
308.1352077174834
 31
0.0
  0
LINE
  5
239
330
1F
100
AcDbEntity
  8
0-0
  6
Continuous
 62
     3
370
     9
100
AcDbLine
 10
-287.3731582229201
 20
309.6351879222975
 30
0.0
 11
-287.3731582229201
 21
332.1351879222975
 31
0.0
  0
LINE
  5
23A
330
1F
100
AcDbEntity
  8
0-0
  6
Continuous
 62
     3
370
     9
100
AcDbLine
 10
-263.3731780181059
 20
333.6351681271117
 30
0.0
 11
-285.8731780181059
 21
333.6351681271117
 31
0.0
  0
LINE
  5
23B
330
1F
100
AcDbEntity
  8
0-0
  6
Continuous
 62
     3
370
     9
100
AcDbLine
 10
-223.8731714197107
 20
333.6351681271117
 30
0.0
 11
-246.3731714197107
 21
333.6351681271117
 31
0.0
  0
LINE
  5
23C
330
1F
100
AcDbEntity
  8
0-0
  6
Continuous
 62
     3
370
     9
100
AcDbLine
 10
-247.8731516245249
 20
309.6351879222975
 30
0.0
 11
-247.8731516245249
 21
332.1351879222975
 31
0.0
  0
LINE
  5
23D
330
1F
100
AcDbEntity
  8
0-0
  6
Continuous
 62
     3
370
     9
100
AcDbLine
 10
-223.8731714197107
 20
308.1352077174834
 30
0.0
 11
-246.3731714197107
 21
308.1352077174834
 31
0.0
  0
LINE
  5
23E
330
1F
100
AcDbEntity
  8
0-0
  6
Continuous
 62
     3
370
     9
100
AcDbLine
 10
-222.3731912148965
 20
309.6351879222975
 30
0.0
 11
-222.3731912148965
 21
332.1351879222975
 31
0.0
  0
LINE
  5
23F
330
1F
100
AcDbEntity
  8
0-0
  6
Continuous
 62
     3
370
     9
100
AcDbLine
 10
-222.3731912148965
 20
270.1351813239022
 30
0.0
 11
-222.3731912148965
 21
292.6351813239022
 31
0.0
  0
LINE
  5
240
330
1F
100
AcDbEntity
  8
0-0
  6
Continuous
 62
     3
370
     9
100
AcDbLine
 10
-223.8731714197107
 20
268.635201119088
 30
0.0
 11
-246.3731714197107
 21
268.635201119088
 31
0.0
  0
LINE
  5
241
330
1F
100
AcDbEntity
  8
0-0
  6
Continuous
 62
     3
370
     9
100
AcDbLine
 10
-247.8731516245249
 20
270.1351813239022
 30
0.0
 11
-247.8731516245249
 21
292.6351813239022
 31
0.0
  0
LINE
  5
242
330
1F
100
AcDbEntity
  8
0-0
  6
Continuous
 62
     3
370
     9
100
AcDbLine
 10
-223.8731714197107
 20
294.1351615287164
 30
0.0
 11
-246.3731714197107
 21
294.1351615287164
 31
0.0
  0
LINE
  5
243
330
1F
100
AcDbEntity
  8
0-0
  6
Continuous
 62
     3
370
     9
100
AcDbLine
 10
-263.3731780181059
 20
294.1351615287164
 30
0.0
 11
-285.8731780181059
 21
294.1351615287164
 31
0.0
  0
LINE
  5
244
330
1F
100
AcDbEntity
  8
0-0
  6
Continuous
 62
     3
370
     9
100
AcDbLine
 10
-287.3731582229201
 20
270.1351813239022
 30
0.0
 11
-287.3731582229201
 21
292.6351813239022
 31
0.0
  0
LINE
  5
245
330
1F
100
AcDbEntity
  8
0-0
  6
Continuous
 62
     3
370
     9
100
AcDbLine
 10
-263.3731780181059
 20
268.635201119088
 30
0.0
 11
-285.8731780181059
 21
268.635201119088
 31
0.0
  0
LINE
  5
246
330
1F
100
AcDbEntity
  8
0-0
  6
Continuous
 62
     3
370
     9
100
AcDbLine
 10
-261.8731978132918
 20
270.1351813239022
 30
0.0
 11
-261.8731978132918
 21
292.6351813239022
 31
0.0
  0
LINE
  5
247
330
1F
100
AcDbEntity
  8
0-0
  6
Continuous
 62
     3
370
     9
100
AcDbLine
 10
-301.3732044116871
 20
270.1351813239022
 30
0.0
 11
-301.3732044116871
 21
292.6351813239022
 31
0.0
  0
LINE
  5
248
330
1F
100
AcDbEntity
  8
0-0
  6
Continuous
 62
     3
370
     9
100
AcDbLine
 10
-302.8731846165012
 20
268.635201119088
 30
0.0
 11
-325.3731846165012
 21
268.635201119088
 31
0.0
  0
LINE
  5
249
330
1F
100
AcDbEntity
  8
0-0
  6
Continuous
 62
     3
370
     9
100
AcDbLine
 10
-326.8731648213154
 20
270.1351813239022
 30
0.0
 11
-326.8731648213154
 21
292.6351813239022
 31
0.0
  0
LINE
  5
24A
330
1F
100
AcDbEntity
  8
0-0
  6
Continuous
 62
     3
370
     9
100
AcDbLine
 10
-302.8731846165012
 20
294.1351615287164
 30
0.0
 11
-325.3731846165012
 21
294.1351615287164
 31
0.0
  0
LINE
  5
24B
330
1F
100
AcDbEntity
  8
0-0
  6
Continuous
 62
     3
370
     9
100
AcDbLine
 10
-342.3731912148965
 20
294.1351615287164
 30
0.0
 11
-364.8731912148965
 21
294.1351615287164
 31
0.0
  0
LINE
  5
24C
330
1F
100
AcDbEntity
  8
0-0
  6
Continuous
 62
     3
370
     9
100
AcDbLine
 10
-366.3731714197107
 20
270.1351813239022
 30
0.0
 11
-366.3731714197107
 21
292.6351813239022
 31
0.0
  0
LINE
  5
24D
330
1F
100
AcDbEntity
  8
0-0
  6
Continuous
 62
     3
370
     9
100
AcDbLine
 10
-342.3731912148965
 20
268.635201119088
 30
0.0
 11
-364.8731912148965
 21
268.635201119088
 31
0.0
  0
LINE
  5
24E
330
1F
100
AcDbEntity
  8
0-0
  6
Continuous
 62
     3
370
     9
100
AcDbLine
 10
-340.8732110100823
 20
270.1351813239022
 30
0.0
 11
-340.8732110100823
 21
292.6351813239022
 31
0.0
  0
LINE
  5
24F
330
1F
100
AcDbEntity
  8
0-0
  6
Continuous
 62
     3
370
     9
100
AcDbLine
 10
-380.3731681205131
 20
270.1351813239022
 30
0.0
 11
-380.3731681205131
 21
292.6351813239022
 31
0.0
  0
LINE
  5
250
330
1F
100
AcDbEntity
  8
0-0
  6
Continuous
 62
     3
370
     9
100
AcDbLine
 10
-381.8731978132918
 20
268.635201119088
 30
0.0
 11
-404.3731978132918
 21
268.635201119088
 31
0.0
  0
LINE
  5
251
330
1F
100
AcDbEntity
  8
0-0
  6
Continuous
 62
     3
370
     9
100
AcDbLine
 10
-405.873178018106
 20
270.1351813239022
 30
0.0
 11
-405.873178018106
 21
292.6351813239022
 31
0.0
  0
LINE
  5
252
330
1F
100
AcDbEntity
  8
0-0
  6
Continuous
 62
     3
370
     9
100
AcDbLine
 10
-381.8731978132918
 20
294.1351615287164
 30
0.0
 11
-404.3731978132918
 21
294.1351615287164
 31
0.0
  0
LINE
  5
253
330
1F
100
AcDbEntity
  8
0-0
  6
Continuous
 62
     3
370
     9
100
AcDbLine
 10
-421.373204411687
 20
294.1351615287164
 30
0.0
 11
-443.873204411687
 21
294.1351615287164
 31
0.0
  0
LINE
  5
254
330
1F
100
AcDbEntity
  8
0-0
  6
Continuous
 62
     3
370
     9
100
AcDbLine
 10
-445.3731846165012
 20
270.1351813239022
 30
0.0
 11
-445.3731846165012
 21
292.6351813239022
 31
0.0
  0
LINE
  5
255
330
1F
100
AcDbEntity
  8
0-0
  6
Continuous
 62
     3
370
     9
100
AcDbLine
 10
-421.373204411687
 20
268.635201119088
 30
0.0
 11
-443.873204411687
 21
268.635201119088
 31
0.0
  0
LINE
  5
256
330
1F
100
AcDbEntity
  8
0-0
  6
Continuous
 62
     3
370
     9
100
AcDbLine
 10
-419.8731747189083
 20
270.1351813239022
 30
0.0
 11
-419.8731747189083
 21
292.6351813239022
 31
0.0
  0
LINE
  5
257
330
1F
100
AcDbEntity
  8
0-0
  6
Continuous
 62
     3
370
     9
100
AcDbLine
 10
-419.8731747189083
 20
230.6351747255069
 30
0.0
 11
-419.8731747189083
 21
253.135174725507
 31
0.0
  0
LINE
  5
258
330
1F
100
AcDbEntity
  8
0-0
  6
Continuous
 62
     3
370
     9
100
AcDbLine
 10
-421.373204411687
 20
229.1351945206927
 30
0.0
 11
-443.873204411687
 21
229.1351945206927
 31
0.0
  0
LINE
  5
259
330
1F
100
AcDbEntity
  8
0-0
  6
Continuous
 62
     3
370
     9
100
AcDbLine
 10
-445.3731846165012
 20
230.6351747255069
 30
0.0
 11
-445.3731846165012
 21
253.135174725507
 31
0.0
  0
LINE
  5
25A
330
1F
100
AcDbEntity
  8
0-0
  6
Continuous
 62
     3
370
     9
100
AcDbLine
 10
-421.373204411687
 20
254.6351549303212
 30
0.0
 11
-443.873204411687
 21
254.6351549303212
 31
0.0
  0
LINE
  5
25B
330
1F
100
AcDbEntity
  8
0-0
  6
Continuous
 62
     3
370
     9
100
AcDbLine
 10
-381.8731978132918
 20
254.6351549303212
 30
0.0
 11
-404.3731978132918
 21
254.6351549303212
 31
0.0
  0
LINE
  5
25C
330
1F
100
AcDbEntity
  8
0-0
  6
Continuous
 62
     3
370
     9
100
AcDbLine
 10
-405.873178018106
 20
230.6351747255069
 30
0.0
 11
-405.873178018106
 21
253.135174725507
 31
0.0
  0
LINE
  5
25D
330
1F
100
AcDbEntity
  8
0-0
  6
Continuous
 62
     3
370
     9
100
AcDbLine
 10
-381.8731978132918
 20
229.1351945206927
 30
0.0
 11
-404.3731978132918
 21
229.1351945206927
 31
0.0
  0
LINE
  5
25E
330
1F
100
AcDbEntity
  8
0-0
  6
Continuous
 62
     3
370
     9
100
AcDbLine
 10
-380.3731681205131
 20
230.6351747255069
 30
0.0
 11
-380.3731681205131
 21
253.135174725507
 31
0.0
  0
LINE
  5
25F
330
1F
100
AcDbEntity
  8
0-0
  6
Continuous
 62
     3
370
     9
100
AcDbLine
 10
-340.8732110100823
 20
230.6351747255069
 30
0.0
 11
-340.8732110100823
 21
253.135174725507
 31
0.0
  0
LINE
  5
260
330
1F
100
AcDbEntity
  8
0-0
  6
Continuous
 62
     3
370
     9
100
AcDbLine
 10
-342.3731912148965
 20
229.1351945206927
 30
0.0
 11
-364.8731912148965
 21
229.1351945206927
 31
0.0
  0
LINE
  5
261
330
1F
100
AcDbEntity
  8
0-0
  6
Continuous
 62
     3
370
     9
100
AcDbLine
 10
-366.3731714197107
 20
230.6351747255069
 30
0.0
 11
-366.3731714197107
 21
253.135174725507
 31
0.0
  0
LINE
  5
262
330
1F
100
AcDbEntity
  8
0-0
  6
Continuous
 62
     3
370
     9
100
AcDbLine
 10
-342.3731912148965
 20
254.6351549303212
 30
0.0
 11
-364.8731912148965
 21
254.6351549303212
 31
0.0
  0
LINE
  5
263
330
1F
100
AcDbEntity
  8
0-0
  6
Continuous
 62
     3
370
     9
100
AcDbLine
 10
-302.8731846165012
 20
254.6351549303212
 30
0.0
 11
-325.3731846165012
 21
254.6351549303212
 31
0.0
  0
LINE
  5
264
330
1F
100
AcDbEntity
  8
0-0
  6
Continuous
 62
     3
370
     9
100
AcDbLine
 10
-326.8731648213154
 20
230.6351747255069
 30
0.0
 11
-326.8731648213154
 21
253.135174725507
 31
0.0
  0
LINE
  5
265
330
1F
100
AcDbEntity
  8
0-0
  6
Continuous
 62
     3
370
     9
100
AcDbLine
 10
-302.8731846165012
 20
229.1351945206927
 30
0.0
 11
-325.3731846165012
 21
229.1351945206927
 31
0.0
  0
LINE
  5
266
330
1F
100
AcDbEntity
  8
0-0
  6
Continuous
 62
     3
370
     9
100
AcDbLine
 10
-301.3732044116871
 20
230.6351747255069
 30
0.0
 11
-301.3732044116871
 21
253.135174725507
 31
0.0
  0
LINE
  5
267
330
1F
100
AcDbEntity
  8
0-0
  6
Continuous
 62
     3
370
     9
100
AcDbLine
 10
-261.8731978132918
 20
230.6351747255069
 30
0.0
 11
-261.8731978132918
 21
253.135174725507
 31
0.0
  0
LINE
  5
268
330
1F
100
AcDbEntity
  8
0-0
  6
Continuous
 62
     3
370
     9
100
AcDbLine
 10
-263.3731780181059
 20
229.1351945206927
 30
0.0
 11
-285.8731780181059
 21
229.1351945206927
 31
0.0
  0
LINE
  5
269
330
1F
100
AcDbEntity
  8
0-0
  6
Continuous
 62
     3
370
     9
100
AcDbLine
 10
-287.3731582229201
 20
230.6351747255069
 30
0.0
 11
-287.3731582229201
 21
253.135174725507
 31
0.0
  0
LINE
  5
26A
330
1F
100
AcDbEntity
  8
0-0
  6
Continuous
 62
     3
370
     9
100
AcDbLine
 10
-263.3731780181059
 20
254.6351549303212
 30
0.0
 11
-285.8731780181059
 21
254.6351549303212
 31
0.0
  0
LINE
  5
26B
330
1F
100
AcDbEntity
  8
0-0
  6
Continuous
 62
     3
370
     9
100
AcDbLine
 10
-223.8731714197107
 20
254.6351549303212
 30
0.0
 11
-246.3731714197107
 21
254.6351549303212
 31
0.0
  0
LINE
  5
26C
330
1F
100
AcDbEntity
  8
0-0
  6
Continuous
 62
     3
370
     9
100
AcDbLine
 10
-247.8731516245249
 20
230.6351747255069
 30
0.0
 11
-247.8731516245249
 21
253.135174725507
 31
0.0
  0
LINE
  5
26D
330
1F
100
AcDbEntity
  8
0-0
  6
Continuous
 62
     3
370
     9
100
AcDbLine
 10
-223.8731714197107
 20
229.1351945206927
 30
0.0
 11
-246.3731714197107
 21
229.1351945206927
 31
0.0
  0
LINE
  5
26E
330
1F
100
AcDbEntity
  8
0-0
  6
Continuous
 62
     3
370
     9
100
AcDbLine
 10
-222.3731912148965
 20
230.6351747255069
 30
0.0
 11
-222.3731912148965
 21
253.135174725507
 31
0.0
  0
LINE
  5
26F
330
1F
100
AcDbEntity
  8
0-0
  6
Continuous
 62
     3
370
     9
100
AcDbLine
 10
-222.3731912148965
 20
191.1351681271117
 30
0.0
 11
-222.3731912148965
 21
213.6351681271117
 31
0.0
  0
LINE
  5
270
330
1F
100
AcDbEntity
  8
0-0
  6
Continuous
 62
     3
370
     9
100
AcDbLine
 10
-223.8731714197107
 20
189.6351879222975
 30
0.0
 11
-246.3731714197107
 21
189.6351879222975
 31
0.0
  0
LINE
  5
271
330
1F
100
AcDbEntity
  8
0-0
  6
Continuous
 62
     3
370
     9
100
AcDbLine
 10
-247.8731516245249
 20
191.1351681271117
 30
0.0
 11
-247.8731516245249
 21
213.6351681271117
 31
0.0
  0
LINE
  5
272
330
1F
100
AcDbEntity
  8
0-0
  6
Continuous
 62
     3
370
     9
100
AcDbLine
 10
-223.8731714197107
 20
215.1351483319258
 30
0.0
 11
-246.3731714197107
 21
215.1351483319258
 31
0.0
  0
LINE
  5
273
330
1F
100
AcDbEntity
  8
0-0
  6
Continuous
 62
     3
370
     9
100
AcDbLine
 10
-263.3731780181059
 20
215.1351483319258
 30
0.0
 11
-285.8731780181059
 21
215.1351483319258
 31
0.0
  0
LINE
  5
274
330
1F
100
AcDbEntity
  8
0-0
  6
Continuous
 62
     3
370
     9
100
AcDbLine
 10
-287.3731582229201
 20
191.1351681271117
 30
0.0
 11
-287.3731582229201
 21
213.6351681271117
 31
0.0
  0
LINE
  5
275
330
1F
100
AcDbEntity
  8
0-0
  6
Continuous
 62
     3
370
     9
100
AcDbLine
 10
-263.3731780181059
 20
189.6351879222975
 30
0.0
 11
-285.8731780181059
 21
189.6351879222975
 31
0.0
  0
LINE
  5
276
330
1F
100
AcDbEntity
  8
0-0
  6
Continuous
 62
     3
370
     9
100
AcDbLine
 10
-261.8731978132918
 20
191.1351681271117
 30
0.0
 11
-261.8731978132918
 21
213.6351681271117
 31
0.0
  0
LINE
  5
277
330
1F
100
AcDbEntity
  8
0-0
  6
Continuous
 62
     3
370
     9
100
AcDbLine
 10
-301.3732044116871
 20
191.1351681271117
 30
0.0
 11
-301.3732044116871
 21
213.6351681271117
 31
0.0
  0
LINE
  5
278
330
1F
100
AcDbEntity
  8
0-0
  6
Continuous
 62
     3
370
     9
100
AcDbLine
 10
-302.8731846165012
 20
189.6351879222975
 30
0.0
 11
-325.3731846165012
 21
189.6351879222975
 31
0.0
  0
LINE
  5
279
330
1F
100
AcDbEntity
  8
0-0
  6
Continuous
 62
     3
370
     9
100
AcDbLine
 10
-326.8731648213154
 20
191.1351681271117
 30
0.0
 11
-326.8731648213154
 21
213.6351681271117
 31
0.0
  0
LINE
  5
27A
330
1F
100
AcDbEntity
  8
0-0
  6
Continuous
 62
     3
370
     9
100
AcDbLine
 10
-302.8731846165012
 20
215.1351483319258
 30
0.0
 11
-325.3731846165012
 21
215.1351483319258
 31
0.0
  0
LINE
  5
27B
330
1F
100
AcDbEntity
  8
0-0
  6
Continuous
 62
     3
370
     9
100
AcDbLine
 10
-342.3731912148965
 20
215.1351483319258
 30
0.0
 11
-364.8731912148965
 21
215.1351483319258
 31
0.0
  0
LINE
  5
27C
330
1F
100
AcDbEntity
  8
0-0
  6
Continuous
 62
     3
370
     9
100
AcDbLine
 10
-366.3731714197107
 20
191.1351681271117
 30
0.0
 11
-366.3731714197107
 21
213.6351681271117
 31
0.0
  0
LINE
  5
27D
330
1F
100
AcDbEntity
  8
0-0
  6
Continuous
 62
     3
370
     9
100
AcDbLine
 10
-342.3731912148965
 20
189.6351879222975
 30
0.0
 11
-364.8731912148965
 21
189.6351879222975
 31
0.0
  0
LINE
  5
27E
330
1F
100
AcDbEntity
  8
0-0
  6
Continuous
 62
     3
370
     9
100
AcDbLine
 10
-340.8732110100823
 20
191.1351681271117
 30
0.0
 11
-340.8732110100823
 21
213.6351681271117
 31
0.0
  0
LINE
  5
27F
330
1F
100
AcDbEntity
  8
0-0
  6
Continuous
 62
     3
370
     9
100
AcDbLine
 10
-380.3731681205131
 20
191.1351681271117
 30
0.0
 11
-380.3731681205131
 21
213.6351681271117
 31
0.0
  0
LINE
  5
280
330
1F
100
AcDbEntity
  8
0-0
  6
Continuous
 62
     3
370
     9
100
AcDbLine
 10
-381.8731978132918
 20
189.6351879222975
 30
0.0
 11
-404.3731978132918
 21
189.6351879222975
 31
0.0
  0
LINE
  5
281
330
1F
100
AcDbEntity
  8
0-0
  6
Continuous
 62
     3
370
     9
100
AcDbLine
 10
-405.873178018106
 20
191.1351681271117
 30
0.0
 11
-405.873178018106
 21
213.6351681271117
 31
0.0
  0
LINE
  5
282
330
1F
100
AcDbEntity
  8
0-0
  6
Continuous
 62
     3
370
     9
100
AcDbLine
 10
-381.8731978132918
 20
215.1351483319258
 30
0.0
 11
-404.3731978132918
 21
215.1351483319258
 31
0.0
  0
LINE
  5
283
330
1F
100
AcDbEntity
  8
0-0
  6
Continuous
 62
     3
370
     9
100
AcDbLine
 10
-421.373204411687
 20
215.1351483319258
 30
0.0
 11
-443.873204411687
 21
215.1351483319258
 31
0.0
  0
LINE
  5
284
330
1F
100
AcDbEntity
  8
0-0
  6
Continuous
 62
     3
370
     9
100
AcDbLine
 10
-445.3731846165012
 20
191.1351681271117
 30
0.0
 11
-445.3731846165012
 21
213.6351681271117
 31
0.0
  0
LINE
  5
285
330
1F
100
AcDbEntity
  8
0-0
  6
Continuous
 62
     3
370
     9
100
AcDbLine
 10
-421.373204411687
 20
189.6351879222975
 30
0.0
 11
-443.873204411687
 21
189.6351879222975
 31
0.0
  0
LINE
  5
286
330
1F
100
AcDbEntity
  8
0-0
  6
Continuous
 62
     3
370
     9
100
AcDbLine
 10
-419.8731747189083
 20
191.1351681271117
 30
0.0
 11
-419.8731747189083
 21
213.6351681271117
 31
0.0
  0
LINE
  5
287
330
1F
100
AcDbEntity
  8
0-0
  6
Continuous
 62
     3
370
     9
100
AcDbLine
 10
-419.8731747189083
 20
151.6351615287164
 30
0.0
 11
-419.8731747189083
 21
174.1351615287164
 31
0.0
  0
LINE
  5
288
330
1F
100
AcDbEntity
  8
0-0
  6
Continuous
 62
     3
370
     9
100
AcDbLine
 10
-421.373204411687
 20
150.1351813239022
 30
0.0
 11
-443.873204411687
 21
150.1351813239022
 31
0.0
  0
LINE
  5
289
330
1F
100
AcDbEntity
  8
0-0
  6
Continuous
 62
     3
370
     9
100
AcDbLine
 10
-445.3731846165012
 20
151.6351615287164
 30
0.0
 11
-445.3731846165012
 21
174.1351615287164
 31
0.0
  0
LINE
  5
28A
330
1F
100
AcDbEntity
  8
0-0
  6
Continuous
 62
     3
370
     9
100
AcDbLine
 10
-421.373204411687
 20
175.6351912214951
 30
0.0
 11
-443.873204411687
 21
175.6351912214951
 31
0.0
  0
LINE
  5
28B
330
1F
100
AcDbEntity
  8
0-0
  6
Continuous
 62
     3
370
     9
100
AcDbLine
 10
-381.8731978132918
 20
175.6351912214951
 30
0.0
 11
-404.3731978132918
 21
175.6351912214951
 31
0.0
  0
LINE
  5
28C
330
1F
100
AcDbEntity
  8
0-0
  6
Continuous
 62
     3
370
     9
100
AcDbLine
 10
-405.873178018106
 20
151.6351615287164
 30
0.0
 11
-405.873178018106
 21
174.1351615287164
 31
0.0
  0
LINE
  5
28D
330
1F
100
AcDbEntity
  8
0-0
  6
Continuous
 62
     3
370
     9
100
AcDbLine
 10
-381.8731978132918
 20
150.1351813239022
 30
0.0
 11
-404.3731978132918
 21
150.1351813239022
 31
0.0
  0
LINE
  5
28E
330
1F
100
AcDbEntity
  8
0-0
  6
Continuous
 62
     3
370
     9
100
AcDbLine
 10
-380.3731681205131
 20
151.6351615287164
 30
0.0
 11
-380.3731681205131
 21
174.1351615287164
 31
0.0
  0
LINE
  5
28F
330
1F
100
AcDbEntity
  8
0-0
  6
Continuous
 62
     3
370
     9
100
AcDbLine
 10
-340.8732110100823
 20
151.6351615287164
 30
0.0
 11
-340.8732110100823
 21
174.1351615287164
 31
0.0
  0
LINE
  5
290
330
1F
100
AcDbEntity
  8
0-0
  6
Continuous
 62
     3
370
     9
100
AcDbLine
 10
-342.3731912148965
 20
150.1351813239022
 30
0.0
 11
-364.8731912148965
 21
150.1351813239022
 31
0.0
  0
LINE
  5
291
330
1F
100
AcDbEntity
  8
0-0
  6
Continuous
 62
     3
370
     9
100
AcDbLine
 10
-366.3731714197107
 20
151.6351615287164
 30
0.0
 11
-366.3731714197107
 21
174.1351615287164
 31
0.0
  0
LINE
  5
292
330
1F
100
AcDbEntity
  8
0-0
  6
Continuous
 62
     3
370
     9
100
AcDbLine
 10
-342.3731912148965
 20
175.6351912214951
 30
0.0
 11
-364.8731912148965
 21
175.6351912214951
 31
0.0
  0
LINE
  5
293
330
1F
100
AcDbEntity
  8
0-0
  6
Continuous
 62
     3
370
     9
100
AcDbLine
 10
-302.8731846165012
 20
175.6351912214951
 30
0.0
 11
-325.3731846165012
 21
175.6351912214951
 31
0.0
  0
LINE
  5
294
330
1F
100
AcDbEntity
  8
0-0
  6
Continuous
 62
     3
370
     9
100
AcDbLine
 10
-326.8731648213154
 20
151.6351615287164
 30
0.0
 11
-326.8731648213154
 21
174.1351615287164
 31
0.0
  0
LINE
  5
295
330
1F
100
AcDbEntity
  8
0-0
  6
Continuous
 62
     3
370
     9
100
AcDbLine
 10
-302.8731846165012
 20
150.1351813239022
 30
0.0
 11
-325.3731846165012
 21
150.1351813239022
 31
0.0
  0
LINE
  5
296
330
1F
100
AcDbEntity
  8
0-0
  6
Continuous
 62
     3
370
     9
100
AcDbLine
 10
-301.3732044116871
 20
151.6351615287164
 30
0.0
 11
-301.3732044116871
 21
174.1351615287164
 31
0.0
  0
LINE
  5
297
330
1F
100
AcDbEntity
  8
0-0
  6
Continuous
 62
     3
370
     9
100
AcDbLine
 10
-261.8731978132918
 20
151.6351615287164
 30
0.0
 11
-261.8731978132918
 21
174.1351615287164
 31
0.0
  0
LINE
  5
298
330
1F
100
AcDbEntity
  8
0-0
  6
Continuous
 62
     3
370
     9
100
AcDbLine
 10
-263.3731780181059
 20
150.1351813239022
 30
0.0
 11
-285.8731780181059
 21
150.1351813239022
 31
0.0
  0
LINE
  5
299
330
1F
100
AcDbEntity
  8
0-0
  6
Continuous
 62
     3
370
     9
100
AcDbLine
 10
-287.3731582229201
 20
151.6351615287164
 30
0.0
 11
-287.3731582229201
 21
174.1351615287164
 31
0.0
  0
LINE
  5
29A
330
1F
100
AcDbEntity
  8
0-0
  6
Continuous
 62
     3
370
     9
100
AcDbLine
 10
-263.3731780181059
 20
175.6351912214951
 30
0.0
 11
-285.8731780181059
 21
175.6351912214951
 31
0.0
  0
LINE
  5
29B
330
1F
100
AcDbEntity
  8
0-0
  6
Continuous
 62
     3
370
     9
100
AcDbLine
 10
-223.8731714197107
 20
175.6351912214951
 30
0.0
 11
-246.3731714197107
 21
175.6351912214951
 31
0.0
  0
LINE
  5
29C
330
1F
100
AcDbEntity
  8
0-0
  6
Continuous
 62
     3
370
     9
100
AcDbLine
 10
-247.8731516245249
 20
151.6351615287164
 30
0.0
 11
-247.8731516245249
 21
174.1351615287164
 31
0.0
  0
LINE
  5
29D
330
1F
100
AcDbEntity
  8
0-0
  6
Continuous
 62
     3
370
     9
100
AcDbLine
 10
-223.8731714197107
 20
150.1351813239022
 30
0.0
 11
-246.3731714197107
 21
150.1351813239022
 31
0.0
  0
LINE
  5
29E
330
1F
100
AcDbEntity
  8
0-0
  6
Continuous
 62
     3
370
     9
100
AcDbLine
 10
-222.3731912148965
 20
151.6351615287164
 30
0.0
 11
-222.3731912148965
 21
174.1351615287164
 31
0.0
  0
LINE
  5
29F
330
1F
100
AcDbEntity
  8
0-F
  6
Continuous
 62
     7
370
     9
100
AcDbLine
 10
-208.3731945140942
 20
-90.8648219752954
 30
0.0
 11
-208.3731945140942
 21
-168.0648589263089
 31
0.0
  0
LINE
  5
2A0
330
1F
100
AcDbEntity
  8
0-F
  6
Continuous
 62
     7
370
     9
100
AcDbLine
 10
-182.8731846165012
 20
-90.8648219752954
 30
0.0
 11
-182.8731846165012
 21
-168.0648589263089
 31
0.0
  0
LINE
  5
2A1
330
1F
100
AcDbEntity
  8
0-F
  6
Continuous
 62
     7
370
     9
100
AcDbLine
 10
-168.8731879156988
 20
-90.8648219752954
 30
0.0
 11
-168.8731879156988
 21
-168.0648589263089
 31
0.0
  0
LINE
  5
2A2
330
1F
100
AcDbEntity
  8
0-F
  6
Continuous
 62
     7
370
     9
100
AcDbLine
 10
-465.3731516245249
 20
-206.8648582664694
 30
0.0
 11
34.62691435942781
 21
-206.8648582664694
 31
0.0
  0
LINE
  5
2A3
330
1F
100
AcDbEntity
  8
0-F
  6
Continuous
 62
     7
370
     9
100
AcDbLine
 10
-465.3731516245249
 20
-110.8648879592481
 30
0.0
 11
-465.3731516245249
 21
-208.0648919182853
 31
0.0
  0
LINE
  5
2A4
330
1F
100
AcDbEntity
  8
0-F
  6
Continuous
 62
     7
370
     9
100
AcDbLine
 10
34.62691435942781
 20
-110.8648879592481
 30
0.0
 11
34.62691435942781
 21
-208.0648919182853
 31
0.0
  0
LINE
  5
2A5
330
1F
100
AcDbEntity
  8
0-F
  6
Continuous
 62
     7
370
     9
100
AcDbLine
 10
-465.3731516245249
 20
-206.8648582664694
 30
0.0
 11
-455.4587328111803
 21
-205.5596132020692
 31
0.0
  0
LINE
  5
2A6
330
1F
100
AcDbEntity
  8
0-F
  6
Continuous
 62
     7
370
     9
100
AcDbLine
 10
-465.3731516245249
 20
-206.8648582664694
 30
0.0
 11
-455.4587328111803
 21
-208.1701528188344
 31
0.0
  0
LINE
  5
2A7
330
1F
100
AcDbEntity
  8
0-F
  6
Continuous
 62
     7
370
     9
100
AcDbLine
 10
94.62681538349875
 20
150.1351318359377
 30
0.0
 11
94.62681538349875
 21
175.6351417335305
 31
0.0
  0
LINE
  5
2A8
330
1F
100
AcDbEntity
  8
0-F
  6
Continuous
 62
     7
370
     9
100
AcDbLine
 10
18.62676259633668
 20
150.1351318359377
 30
0.0
 11
95.8267995473501
 21
150.1351318359377
 31
0.0
  0
LINE
  5
2A9
330
1F
100
AcDbEntity
  8
0-F
  6
Continuous
 62
     7
370
     9
100
AcDbLine
 10
18.62676259633668
 20
175.6351417335305
 30
0.0
 11
95.8267995473501
 21
175.6351417335305
 31
0.0
  0
LINE
  5
2AA
330
1F
100
AcDbEntity
  8
0-F
  6
Continuous
 62
     7
370
     9
100
AcDbLine
 10
94.62681538349875
 20
175.6351417335305
 30
0.0
 11
94.62681538349875
 21
189.6351384343329
 31
0.0
  0
LINE
  5
2AB
330
1F
100
AcDbEntity
  8
0-F
  6
Continuous
 62
     7
370
     9
100
AcDbLine
 10
18.62676259633668
 20
189.6351384343329
 30
0.0
 11
95.8267995473501
 21
189.6351384343329
 31
0.0
  0
LINE
  5
2AC
330
1F
100
AcDbEntity
  8
0-F
  6
Continuous
 62
     7
370
     9
100
AcDbLine
 10
94.62681538349875
 20
150.1351318359377
 30
0.0
 11
94.62681538349875
 21
111.4879513302367
 31
0.0
  0
LINE
  5
2AD
330
1F
100
AcDbEntity
  8
0-F
  6
Continuous
 62
     7
370
     9
100
AcDbLine
 10
94.62681538349875
 20
150.1351318359377
 30
0.0
 11
95.93201095993459
 21
140.2206635346286
 31
0.0
  0
LINE
  5
2AE
330
1F
100
AcDbEntity
  8
0-F
  6
Continuous
 62
     7
370
     9
100
AcDbLine
 10
94.62681538349875
 20
150.1351318359377
 30
0.0
 11
93.32161980706303
 21
140.2206635346286
 31
0.0
  0
LINE
  5
2AF
330
1F
100
AcDbEntity
  8
0-F
  6
Continuous
 62
     7
370
     9
100
AcDbLine
 10
94.62681538349875
 20
189.6351384343329
 30
0.0
 11
93.32161980706303
 21
199.5496067356421
 31
0.0
  0
LINE
  5
2B0
330
1F
100
AcDbEntity
  8
0-F
  6
Continuous
 62
     7
370
     9
100
AcDbLine
 10
94.62681538349875
 20
189.6351384343329
 30
0.0
 11
95.93201095993459
 21
199.5496067356421
 31
0.0
  0
LINE
  5
2B1
330
1F
100
AcDbEntity
  8
0-F
  6
Continuous
 62
     7
370
     9
100
AcDbLine
 10
94.62681538349875
 20
189.6351384343329
 30
0.0
 11
94.62681538349875
 21
213.0820411475931
 31
0.0
  0
LINE
  5
2B2
330
1F
100
AcDbEntity
  8
0-F
  6
Continuous
 62
     7
370
     9
100
AcDbLine
 10
134.6268483754751
 20
-106.8648252744931
 30
0.0
 11
134.6268483754751
 21
393.1352407094597
 31
0.0
  0
LINE
  5
2B3
330
1F
100
AcDbEntity
  8
0-F
  6
Continuous
 62
     7
370
     9
100
AcDbLine
 10
38.62682858028938
 20
-106.8648252744931
 30
0.0
 11
135.8268325393265
 21
-106.8648252744931
 31
0.0
  0
LINE
  5
2B4
330
1F
100
AcDbEntity
  8
0-F
  6
Continuous
 62
     7
370
     9
100
AcDbLine
 10
38.62682858028938
 20
393.1352407094597
 30
0.0
 11
135.8268325393265
 21
393.1352407094597
 31
0.0
  0
LINE
  5
2B5
330
1F
100
AcDbEntity
  8
0-F
  6
Continuous
 62
     7
370
     9
100
AcDbLine
 10
134.6268483754751
 20
-106.8648252744931
 30
0.0
 11
133.3215538231103
 21
-96.95040646114853
 31
0.0
  0
LINE
  5
2B6
330
1F
100
AcDbEntity
  8
0-F
  6
Continuous
 62
     7
370
     9
100
AcDbLine
 10
134.6268483754751
 20
-106.8648252744931
 30
0.0
 11
135.93214292784
 21
-96.95040646114853
 31
0.0
  0
LINE
  5
2B7
330
1F
100
AcDbEntity
  8
0-F
  6
Continuous
 62
     7
370
     9
100
AcDbLine
 10
134.6268483754751
 20
393.1352407094597
 30
0.0
 11
133.3215538231103
 21
383.2207229201859
 31
0.0
  0
LINE
  5
2B8
330
1F
100
AcDbEntity
  8
0-F
  6
Continuous
 62
     7
370
     9
100
AcDbLine
 10
134.6268483754751
 20
393.1352407094597
 30
0.0
 11
135.93214292784
 21
383.2207229201859
 31
0.0
  0
LINE
  5
2B9
330
1F
100
AcDbEntity
  8
0-F
  6
Continuous
 62
     7
370
     9
100
AcDbLine
 10
294.6268813674515
 20
-110.8648879592481
 30
0.0
 11
294.6268813674515
 21
-168.0648589263089
 31
0.0
  0
LINE
  5
2BA
330
1F
100
AcDbEntity
  8
0-F
  6
Continuous
 62
     7
370
     9
100
AcDbLine
 10
294.6265844396644
 20
-110.8648879592481
 30
0.0
 11
294.6265844396644
 21
-208.0648919182853
 31
0.0
  0
LINE
  5
2BB
330
1F
100
AcDbEntity
  8
0-F
  6
Continuous
 62
     7
370
     9
100
AcDbLine
 10
309.6267823915223
 20
-93.50975572740685
 30
0.0
 11
309.6267823915223
 21
-168.0648589263089
 31
0.0
  0
LINE
  5
2BC
330
1F
100
AcDbEntity
  8
0-0
  6
Continuous
 62
     3
370
     9
100
AcDbLine
 10
319.626815383499
 20
-102.4566353462836
 30
0.0
 11
319.626815383499
 21
388.8234533361489
 31
0.0
  0
LINE
  5
2BD
330
1F
100
AcDbEntity
  8
0-0
  6
Continuous
 62
     3
370
     9
100
AcDbLine
 10
294.6268813674515
 20
-106.8648747624576
 30
0.0
 11
319.626815383499
 21
-102.4566353462836
 31
0.0
  0
LINE
  5
2BE
330
1F
100
AcDbEntity
  8
0-F
  6
Continuous
 62
     7
370
     9
100
AcDbLine
 10
319.626815383499
 20
-106.4566485430742
 30
0.0
 11
319.626815383499
 21
-208.0648919182853
 31
0.0
  0
LINE
  5
2BF
330
1F
100
AcDbEntity
  8
0-0
  6
JWW_CENTER1
 62
     3
370
     9
100
AcDbLine
 10
-215.373168120513
 20
-126.8648912584458
 30
0.0
 11
-215.373168120513
 21
413.1351087415543
 31
0.0
  0
LINE
  5
2C0
330
1F
100
AcDbEntity
  8
0-0
  6
JWW_CENTER1
 62
     3
370
     9
100
AcDbLine
 10
-485.3731433765308
 20
143.1351582295188
 30
0.0
 11
54.6267823915224
 21
143.1351582295188
 31
0.0
  0
LINE
  5
2C1
330
1F
100
AcDbEntity
  8
0-0
  6
JWW_CENTER1
 62
     3
370
     9
100
AcDbLine
 10
274.6269143594277
 20
143.1351582295188
 30
0.0
 11
339.6267823915223
 21
143.1351582295188
 31
0.0
  0
ARC
  5
2C2
330
1F
100
AcDbEntity
  8
0-0
  6
Continuous
 62
     3
370
     9
100
AcDbCircle
 10
-184.3731648213154
 20
151.6351615287164
 30
0.0
 40
1.500000019331236
100
AcDbArc
 50
270.0
 51
0.0
  0
ARC
  5
2C3
330
1F
100
AcDbEntity
  8
0-0
  6
Continuous
 62
     3
370
     9
100
AcDbCircle
 10
-184.3731648213154
 20
174.1351615287164
 30
0.0
 40
1.500000019331236
100
AcDbArc
 50
0.0
 51
90.0
  0
ARC
  5
2C4
330
1F
100
AcDbEntity
  8
0-0
  6
Continuous
 62
     3
370
     9
100
AcDbCircle
 10
-206.8731648213154
 20
174.1351615287164
 30
0.0
 40
1.500000019331236
100
AcDbArc
 50
89.99998474121094
 51
180.0
  0
ARC
  5
2C5
330
1F
100
AcDbEntity
  8
0-0
  6
Continuous
 62
     3
370
     9
100
AcDbCircle
 10
-206.8731648213154
 20
151.6351615287164
 30
0.0
 40
1.500000019331236
100
AcDbArc
 50
180.0
 51
270.0
  0
ARC
  5
2C6
330
1F
100
AcDbEntity
  8
0-0
  6
Continuous
 62
     3
370
     9
100
AcDbCircle
 10
-167.3731582229201
 20
151.6351615287164
 30
0.0
 40
1.500000019331236
100
AcDbArc
 50
180.0
 51
270.0
  0
ARC
  5
2C7
330
1F
100
AcDbEntity
  8
0-0
  6
Continuous
 62
     3
370
     9
100
AcDbCircle
 10
-167.3731582229201
 20
174.1351615287164
 30
0.0
 40
1.500000019331236
100
AcDbArc
 50
89.99998474121094
 51
180.0
  0
ARC
  5
2C8
330
1F
100
AcDbEntity
  8
0-0
  6
Continuous
 62
     3
370
     9
100
AcDbCircle
 10
-144.8731582229201
 20
174.1351615287164
 30
0.0
 40
1.500000019331236
100
AcDbArc
 50
0.0
 51
90.0
  0
ARC
  5
2C9
330
1F
100
AcDbEntity
  8
0-0
  6
Continuous
 62
     3
370
     9
100
AcDbCircle
 10
-144.8731582229201
 20
151.6351615287164
 30
0.0
 40
1.500000019331236
100
AcDbArc
 50
270.0
 51
0.0
  0
ARC
  5
2CA
330
1F
100
AcDbEntity
  8
0-0
  6
Continuous
 62
     3
370
     9
100
AcDbCircle
 10
-105.3731516245249
 20
151.6351615287164
 30
0.0
 40
1.500000019331236
100
AcDbArc
 50
270.0
 51
0.0
  0
ARC
  5
2CB
330
1F
100
AcDbEntity
  8
0-0
  6
Continuous
 62
     3
370
     9
100
AcDbCircle
 10
-105.3731516245249
 20
174.1351615287164
 30
0.0
 40
1.500000019331236
100
AcDbArc
 50
0.0
 51
90.0
  0
ARC
  5
2CC
330
1F
100
AcDbEntity
  8
0-0
  6
Continuous
 62
     3
370
     9
100
AcDbCircle
 10
-127.8731516245249
 20
174.1351615287164
 30
0.0
 40
1.500000019331236
100
AcDbArc
 50
89.99998474121094
 51
180.0
  0
ARC
  5
2CD
330
1F
100
AcDbEntity
  8
0-0
  6
Continuous
 62
     3
370
     9
100
AcDbCircle
 10
-127.8731516245249
 20
151.6351615287164
 30
0.0
 40
1.500000019331236
100
AcDbArc
 50
180.0
 51
270.0
  0
ARC
  5
2CE
330
1F
100
AcDbEntity
  8
0-0
  6
Continuous
 62
     3
370
     9
100
AcDbCircle
 10
-88.37319451409417
 20
151.6351615287164
 30
0.0
 40
1.500000019331236
100
AcDbArc
 50
180.0
 51
270.0
  0
ARC
  5
2CF
330
1F
100
AcDbEntity
  8
0-0
  6
Continuous
 62
     3
370
     9
100
AcDbCircle
 10
-88.37319451409417
 20
174.1351615287164
 30
0.0
 40
1.500000019331236
100
AcDbArc
 50
89.99998474121094
 51
180.0
  0
ARC
  5
2D0
330
1F
100
AcDbEntity
  8
0-0
  6
Continuous
 62
     3
370
     9
100
AcDbCircle
 10
-65.87319451409417
 20
174.1351615287164
 30
0.0
 40
1.500000019331236
100
AcDbArc
 50
0.0
 51
90.0
  0
ARC
  5
2D1
330
1F
100
AcDbEntity
  8
0-0
  6
Continuous
 62
     3
370
     9
100
AcDbCircle
 10
-65.87319451409417
 20
151.6351615287164
 30
0.0
 40
1.500000019331236
100
AcDbArc
 50
270.0
 51
0.0
  0
ARC
  5
2D2
330
1F
100
AcDbEntity
  8
0-0
  6
Continuous
 62
     3
370
     9
100
AcDbCircle
 10
-26.37313842773438
 20
151.6351615287164
 30
0.0
 40
1.500000019331236
100
AcDbArc
 50
270.0
 51
0.0
  0
ARC
  5
2D3
330
1F
100
AcDbEntity
  8
0-0
  6
Continuous
 62
     3
370
     9
100
AcDbCircle
 10
-26.37313842773438
 20
174.1351615287164
 30
0.0
 40
1.500000019331236
100
AcDbArc
 50
0.0
 51
90.0
  0
ARC
  5
2D4
330
1F
100
AcDbEntity
  8
0-0
  6
Continuous
 62
     3
370
     9
100
AcDbCircle
 10
-48.87318791569885
 20
174.1351615287164
 30
0.0
 40
1.500000019331236
100
AcDbArc
 50
89.99998474121094
 51
180.0
  0
ARC
  5
2D5
330
1F
100
AcDbEntity
  8
0-0
  6
Continuous
 62
     3
370
     9
100
AcDbCircle
 10
-48.87318791569885
 20
151.6351615287164
 30
0.0
 40
1.500000019331236
100
AcDbArc
 50
180.0
 51
270.0
  0
ARC
  5
2D6
330
1F
100
AcDbEntity
  8
0-0
  6
Continuous
 62
     3
370
     9
100
AcDbCircle
 10
-9.373131829339059
 20
151.6351615287164
 30
0.0
 40
1.500000019331236
100
AcDbArc
 50
180.0
 51
270.0
  0
ARC
  5
2D7
330
1F
100
AcDbEntity
  8
0-0
  6
Continuous
 62
     3
370
     9
100
AcDbCircle
 10
-9.373131829339059
 20
174.1351615287164
 30
0.0
 40
1.500000019331236
100
AcDbArc
 50
89.99998474121094
 51
180.0
  0
ARC
  5
2D8
330
1F
100
AcDbEntity
  8
0-0
  6
Continuous
 62
     3
370
     9
100
AcDbCircle
 10
13.12686817066094
 20
174.1351615287164
 30
0.0
 40
1.500000019331236
100
AcDbArc
 50
0.0
 51
90.0
  0
ARC
  5
2D9
330
1F
100
AcDbEntity
  8
0-0
  6
Continuous
 62
     3
370
     9
100
AcDbCircle
 10
13.12686817066094
 20
151.6351615287164
 30
0.0
 40
1.500000019331236
100
AcDbArc
 50
270.0
 51
0.0
  0
ARC
  5
2DA
330
1F
100
AcDbEntity
  8
0-0
  6
Continuous
 62
     3
370
     9
100
AcDbCircle
 10
13.12686817066094
 20
191.1351681271117
 30
0.0
 40
1.500000019331236
100
AcDbArc
 50
270.0
 51
0.0
  0
ARC
  5
2DB
330
1F
100
AcDbEntity
  8
0-0
  6
Continuous
 62
     3
370
     9
100
AcDbCircle
 10
13.12686817066094
 20
213.6351681271117
 30
0.0
 40
1.500000019331236
100
AcDbArc
 50
0.0
 51
90.0
  0
ARC
  5
2DC
330
1F
100
AcDbEntity
  8
0-0
  6
Continuous
 62
     3
370
     9
100
AcDbCircle
 10
-9.373131829339059
 20
213.6351681271117
 30
0.0
 40
1.500000019331236
100
AcDbArc
 50
89.99998474121094
 51
180.0
  0
ARC
  5
2DD
330
1F
100
AcDbEntity
  8
0-0
  6
Continuous
 62
     3
370
     9
100
AcDbCircle
 10
-9.373131829339059
 20
191.1351681271117
 30
0.0
 40
1.500000019331236
100
AcDbArc
 50
180.0
 51
270.0
  0
ARC
  5
2DE
330
1F
100
AcDbEntity
  8
0-0
  6
Continuous
 62
     3
370
     9
100
AcDbCircle
 10
-48.87318791569885
 20
191.1351681271117
 30
0.0
 40
1.500000019331236
100
AcDbArc
 50
180.0
 51
270.0
  0
ARC
  5
2DF
330
1F
100
AcDbEntity
  8
0-0
  6
Continuous
 62
     3
370
     9
100
AcDbCircle
 10
-48.87318791569885
 20
213.6351681271117
 30
0.0
 40
1.500000019331236
100
AcDbArc
 50
89.99998474121094
 51
180.0
  0
ARC
  5
2E0
330
1F
100
AcDbEntity
  8
0-0
  6
Continuous
 62
     3
370
     9
100
AcDbCircle
 10
-26.37313842773438
 20
213.6351681271117
 30
0.0
 40
1.500000019331236
100
AcDbArc
 50
0.0
 51
90.0
  0
ARC
  5
2E1
330
1F
100
AcDbEntity
  8
0-0
  6
Continuous
 62
     3
370
     9
100
AcDbCircle
 10
-26.37313842773438
 20
191.1351681271117
 30
0.0
 40
1.500000019331236
100
AcDbArc
 50
270.0
 51
0.0
  0
ARC
  5
2E2
330
1F
100
AcDbEntity
  8
0-0
  6
Continuous
 62
     3
370
     9
100
AcDbCircle
 10
-65.87319451409417
 20
191.1351681271117
 30
0.0
 40
1.500000019331236
100
AcDbArc
 50
270.0
 51
0.0
  0
ARC
  5
2E3
330
1F
100
AcDbEntity
  8
0-0
  6
Continuous
 62
     3
370
     9
100
AcDbCircle
 10
-65.87319451409417
 20
213.6351681271117
 30
0.0
 40
1.500000019331236
100
AcDbArc
 50
0.0
 51
90.0
  0
ARC
  5
2E4
330
1F
100
AcDbEntity
  8
0-0
  6
Continuous
 62
     3
370
     9
100
AcDbCircle
 10
-88.37319451409417
 20
213.6351681271117
 30
0.0
 40
1.500000019331236
100
AcDbArc
 50
89.99998474121094
 51
180.0
  0
ARC
  5
2E5
330
1F
100
AcDbEntity
  8
0-0
  6
Continuous
 62
     3
370
     9
100
AcDbCircle
 10
-88.37319451409417
 20
191.1351681271117
 30
0.0
 40
1.500000019331236
100
AcDbArc
 50
180.0
 51
270.0
  0
ARC
  5
2E6
330
1F
100
AcDbEntity
  8
0-0
  6
Continuous
 62
     3
370
     9
100
AcDbCircle
 10
-127.8731516245249
 20
191.1351681271117
 30
0.0
 40
1.500000019331236
100
AcDbArc
 50
180.0
 51
270.0
  0
ARC
  5
2E7
330
1F
100
AcDbEntity
  8
0-0
  6
Continuous
 62
     3
370
     9
100
AcDbCircle
 10
-127.8731516245249
 20
213.6351681271117
 30
0.0
 40
1.500000019331236
100
AcDbArc
 50
89.99998474121094
 51
180.0
  0
ARC
  5
2E8
330
1F
100
AcDbEntity
  8
0-0
  6
Continuous
 62
     3
370
     9
100
AcDbCircle
 10
-105.3731516245249
 20
213.6351681271117
 30
0.0
 40
1.500000019331236
100
AcDbArc
 50
0.0
 51
90.0
  0
ARC
  5
2E9
330
1F
100
AcDbEntity
  8
0-0
  6
Continuous
 62
     3
370
     9
100
AcDbCircle
 10
-105.3731516245249
 20
191.1351681271117
 30
0.0
 40
1.500000019331236
100
AcDbArc
 50
270.0
 51
0.0
  0
ARC
  5
2EA
330
1F
100
AcDbEntity
  8
0-0
  6
Continuous
 62
     3
370
     9
100
AcDbCircle
 10
-144.8731582229201
 20
191.1351681271117
 30
0.0
 40
1.500000019331236
100
AcDbArc
 50
270.0
 51
0.0
  0
ARC
  5
2EB
330
1F
100
AcDbEntity
  8
0-0
  6
Continuous
 62
     3
370
     9
100
AcDbCircle
 10
-144.8731582229201
 20
213.6351681271117
 30
0.0
 40
1.500000019331236
100
AcDbArc
 50
0.0
 51
90.0
  0
ARC
  5
2EC
330
1F
100
AcDbEntity
  8
0-0
  6
Continuous
 62
     3
370
     9
100
AcDbCircle
 10
-167.3731582229201
 20
213.6351681271117
 30
0.0
 40
1.500000019331236
100
AcDbArc
 50
89.99998474121094
 51
180.0
  0
ARC
  5
2ED
330
1F
100
AcDbEntity
  8
0-0
  6
Continuous
 62
     3
370
     9
100
AcDbCircle
 10
-167.3731582229201
 20
191.1351681271117
 30
0.0
 40
1.500000019331236
100
AcDbArc
 50
180.0
 51
270.0
  0
ARC
  5
2EE
330
1F
100
AcDbEntity
  8
0-0
  6
Continuous
 62
     3
370
     9
100
AcDbCircle
 10
-206.8731648213154
 20
191.1351681271117
 30
0.0
 40
1.500000019331236
100
AcDbArc
 50
180.0
 51
270.0
  0
ARC
  5
2EF
330
1F
100
AcDbEntity
  8
0-0
  6
Continuous
 62
     3
370
     9
100
AcDbCircle
 10
-206.8731648213154
 20
213.6351681271117
 30
0.0
 40
1.500000019331236
100
AcDbArc
 50
89.99998474121094
 51
180.0
  0
ARC
  5
2F0
330
1F
100
AcDbEntity
  8
0-0
  6
Continuous
 62
     3
370
     9
100
AcDbCircle
 10
-184.3731648213154
 20
213.6351681271117
 30
0.0
 40
1.500000019331236
100
AcDbArc
 50
0.0
 51
90.0
  0
ARC
  5
2F1
330
1F
100
AcDbEntity
  8
0-0
  6
Continuous
 62
     3
370
     9
100
AcDbCircle
 10
-184.3731648213154
 20
191.1351681271117
 30
0.0
 40
1.500000019331236
100
AcDbArc
 50
270.0
 51
0.0
  0
ARC
  5
2F2
330
1F
100
AcDbEntity
  8
0-0
  6
Continuous
 62
     3
370
     9
100
AcDbCircle
 10
-184.3731648213154
 20
230.6351747255069
 30
0.0
 40
1.500000019331236
100
AcDbArc
 50
270.0
 51
0.0
  0
ARC
  5
2F3
330
1F
100
AcDbEntity
  8
0-0
  6
Continuous
 62
     3
370
     9
100
AcDbCircle
 10
-184.3731648213154
 20
253.135174725507
 30
0.0
 40
1.500000019331236
100
AcDbArc
 50
0.0
 51
90.0
  0
ARC
  5
2F4
330
1F
100
AcDbEntity
  8
0-0
  6
Continuous
 62
     3
370
     9
100
AcDbCircle
 10
-206.8731648213154
 20
253.135174725507
 30
0.0
 40
1.500000019331236
100
AcDbArc
 50
89.99998474121094
 51
180.0
  0
ARC
  5
2F5
330
1F
100
AcDbEntity
  8
0-0
  6
Continuous
 62
     3
370
     9
100
AcDbCircle
 10
-206.8731648213154
 20
230.6351747255069
 30
0.0
 40
1.500000019331236
100
AcDbArc
 50
180.0
 51
270.0
  0
ARC
  5
2F6
330
1F
100
AcDbEntity
  8
0-0
  6
Continuous
 62
     3
370
     9
100
AcDbCircle
 10
-167.3731582229201
 20
230.6351747255069
 30
0.0
 40
1.500000019331236
100
AcDbArc
 50
180.0
 51
270.0
  0
ARC
  5
2F7
330
1F
100
AcDbEntity
  8
0-0
  6
Continuous
 62
     3
370
     9
100
AcDbCircle
 10
-167.3731582229201
 20
253.135174725507
 30
0.0
 40
1.500000019331236
100
AcDbArc
 50
89.99998474121094
 51
180.0
  0
ARC
  5
2F8
330
1F
100
AcDbEntity
  8
0-0
  6
Continuous
 62
     3
370
     9
100
AcDbCircle
 10
-144.8731582229201
 20
253.135174725507
 30
0.0
 40
1.500000019331236
100
AcDbArc
 50
0.0
 51
90.0
  0
ARC
  5
2F9
330
1F
100
AcDbEntity
  8
0-0
  6
Continuous
 62
     3
370
     9
100
AcDbCircle
 10
-144.8731582229201
 20
230.6351747255069
 30
0.0
 40
1.500000019331236
100
AcDbArc
 50
270.0
 51
0.0
  0
ARC
  5
2FA
330
1F
100
AcDbEntity
  8
0-0
  6
Continuous
 62
     3
370
     9
100
AcDbCircle
 10
-105.3731516245249
 20
230.6351747255069
 30
0.0
 40
1.500000019331236
100
AcDbArc
 50
270.0
 51
0.0
  0
ARC
  5
2FB
330
1F
100
AcDbEntity
  8
0-0
  6
Continuous
 62
     3
370
     9
100
AcDbCircle
 10
-105.3731516245249
 20
253.135174725507
 30
0.0
 40
1.500000019331236
100
AcDbArc
 50
0.0
 51
90.0
  0
ARC
  5
2FC
330
1F
100
AcDbEntity
  8
0-0
  6
Continuous
 62
     3
370
     9
100
AcDbCircle
 10
-127.8731516245249
 20
253.135174725507
 30
0.0
 40
1.500000019331236
100
AcDbArc
 50
89.99998474121094
 51
180.0
  0
ARC
  5
2FD
330
1F
100
AcDbEntity
  8
0-0
  6
Continuous
 62
     3
370
     9
100
AcDbCircle
 10
-127.8731516245249
 20
230.6351747255069
 30
0.0
 40
1.500000019331236
100
AcDbArc
 50
180.0
 51
270.0
  0
ARC
  5
2FE
330
1F
100
AcDbEntity
  8
0-0
  6
Continuous
 62
     3
370
     9
100
AcDbCircle
 10
-88.37319451409417
 20
230.6351747255069
 30
0.0
 40
1.500000019331236
100
AcDbArc
 50
180.0
 51
270.0
  0
ARC
  5
2FF
330
1F
100
AcDbEntity
  8
0-0
  6
Continuous
 62
     3
370
     9
100
AcDbCircle
 10
-88.37319451409417
 20
253.135174725507
 30
0.0
 40
1.500000019331236
100
AcDbArc
 50
89.99998474121094
 51
180.0
  0
ARC
  5
300
330
1F
100
AcDbEntity
  8
0-0
  6
Continuous
 62
     3
370
     9
100
AcDbCircle
 10
-65.87319451409417
 20
253.135174725507
 30
0.0
 40
1.500000019331236
100
AcDbArc
 50
0.0
 51
90.0
  0
ARC
  5
301
330
1F
100
AcDbEntity
  8
0-0
  6
Continuous
 62
     3
370
     9
100
AcDbCircle
 10
-65.87319451409417
 20
230.6351747255069
 30
0.0
 40
1.500000019331236
100
AcDbArc
 50
270.0
 51
0.0
  0
ARC
  5
302
330
1F
100
AcDbEntity
  8
0-0
  6
Continuous
 62
     3
370
     9
100
AcDbCircle
 10
-26.37313842773438
 20
230.6351747255069
 30
0.0
 40
1.500000019331236
100
AcDbArc
 50
270.0
 51
0.0
  0
ARC
  5
303
330
1F
100
AcDbEntity
  8
0-0
  6
Continuous
 62
     3
370
     9
100
AcDbCircle
 10
-26.37313842773438
 20
253.135174725507
 30
0.0
 40
1.500000019331236
100
AcDbArc
 50
0.0
 51
90.0
  0
ARC
  5
304
330
1F
100
AcDbEntity
  8
0-0
  6
Continuous
 62
     3
370
     9
100
AcDbCircle
 10
-48.87318791569885
 20
253.135174725507
 30
0.0
 40
1.500000019331236
100
AcDbArc
 50
89.99998474121094
 51
180.0
  0
ARC
  5
305
330
1F
100
AcDbEntity
  8
0-0
  6
Continuous
 62
     3
370
     9
100
AcDbCircle
 10
-48.87318791569885
 20
230.6351747255069
 30
0.0
 40
1.500000019331236
100
AcDbArc
 50
180.0
 51
270.0
  0
ARC
  5
306
330
1F
100
AcDbEntity
  8
0-0
  6
Continuous
 62
     3
370
     9
100
AcDbCircle
 10
-9.373131829339059
 20
230.6351747255069
 30
0.0
 40
1.500000019331236
100
AcDbArc
 50
180.0
 51
270.0
  0
ARC
  5
307
330
1F
100
AcDbEntity
  8
0-0
  6
Continuous
 62
     3
370
     9
100
AcDbCircle
 10
-9.373131829339059
 20
253.135174725507
 30
0.0
 40
1.500000019331236
100
AcDbArc
 50
89.99998474121094
 51
180.0
  0
ARC
  5
308
330
1F
100
AcDbEntity
  8
0-0
  6
Continuous
 62
     3
370
     9
100
AcDbCircle
 10
13.12686817066094
 20
253.135174725507
 30
0.0
 40
1.500000019331236
100
AcDbArc
 50
0.0
 51
90.0
  0
ARC
  5
309
330
1F
100
AcDbEntity
  8
0-0
  6
Continuous
 62
     3
370
     9
100
AcDbCircle
 10
13.12686817066094
 20
230.6351747255069
 30
0.0
 40
1.500000019331236
100
AcDbArc
 50
270.0
 51
0.0
  0
ARC
  5
30A
330
1F
100
AcDbEntity
  8
0-0
  6
Continuous
 62
     3
370
     9
100
AcDbCircle
 10
13.12686817066094
 20
270.1351813239022
 30
0.0
 40
1.500000019331236
100
AcDbArc
 50
270.0
 51
0.0
  0
ARC
  5
30B
330
1F
100
AcDbEntity
  8
0-0
  6
Continuous
 62
     3
370
     9
100
AcDbCircle
 10
13.12686817066094
 20
292.6351813239022
 30
0.0
 40
1.500000019331236
100
AcDbArc
 50
0.0
 51
90.0
  0
ARC
  5
30C
330
1F
100
AcDbEntity
  8
0-0
  6
Continuous
 62
     3
370
     9
100
AcDbCircle
 10
-9.373131829339059
 20
292.6351813239022
 30
0.0
 40
1.500000019331236
100
AcDbArc
 50
89.99998474121094
 51
180.0
  0
ARC
  5
30D
330
1F
100
AcDbEntity
  8
0-0
  6
Continuous
 62
     3
370
     9
100
AcDbCircle
 10
-9.373131829339059
 20
270.1351813239022
 30
0.0
 40
1.500000019331236
100
AcDbArc
 50
180.0
 51
270.0
  0
ARC
  5
30E
330
1F
100
AcDbEntity
  8
0-0
  6
Continuous
 62
     3
370
     9
100
AcDbCircle
 10
-48.87318791569885
 20
270.1351813239022
 30
0.0
 40
1.500000019331236
100
AcDbArc
 50
180.0
 51
270.0
  0
ARC
  5
30F
330
1F
100
AcDbEntity
  8
0-0
  6
Continuous
 62
     3
370
     9
100
AcDbCircle
 10
-48.87318791569885
 20
292.6351813239022
 30
0.0
 40
1.500000019331236
100
AcDbArc
 50
89.99998474121094
 51
180.0
  0
ARC
  5
310
330
1F
100
AcDbEntity
  8
0-0
  6
Continuous
 62
     3
370
     9
100
AcDbCircle
 10
-26.37313842773438
 20
292.6351813239022
 30
0.0
 40
1.500000019331236
100
AcDbArc
 50
0.0
 51
90.0
  0
ARC
  5
311
330
1F
100
AcDbEntity
  8
0-0
  6
Continuous
 62
     3
370
     9
100
AcDbCircle
 10
-26.37313842773438
 20
270.1351813239022
 30
0.0
 40
1.500000019331236
100
AcDbArc
 50
270.0
 51
0.0
  0
ARC
  5
312
330
1F
100
AcDbEntity
  8
0-0
  6
Continuous
 62
     3
370
     9
100
AcDbCircle
 10
-65.87319451409417
 20
270.1351813239022
 30
0.0
 40
1.500000019331236
100
AcDbArc
 50
270.0
 51
0.0
  0
ARC
  5
313
330
1F
100
AcDbEntity
  8
0-0
  6
Continuous
 62
     3
370
     9
100
AcDbCircle
 10
-65.87319451409417
 20
292.6351813239022
 30
0.0
 40
1.500000019331236
100
AcDbArc
 50
0.0
 51
90.0
  0
ARC
  5
314
330
1F
100
AcDbEntity
  8
0-0
  6
Continuous
 62
     3
370
     9
100
AcDbCircle
 10
-88.37319451409417
 20
292.6351813239022
 30
0.0
 40
1.500000019331236
100
AcDbArc
 50
89.99998474121094
 51
180.0
  0
ARC
  5
315
330
1F
100
AcDbEntity
  8
0-0
  6
Continuous
 62
     3
370
     9
100
AcDbCircle
 10
-88.37319451409417
 20
270.1351813239022
 30
0.0
 40
1.500000019331236
100
AcDbArc
 50
180.0
 51
270.0
  0
ARC
  5
316
330
1F
100
AcDbEntity
  8
0-0
  6
Continuous
 62
     3
370
     9
100
AcDbCircle
 10
-127.8731516245249
 20
270.1351813239022
 30
0.0
 40
1.500000019331236
100
AcDbArc
 50
180.0
 51
270.0
  0
ARC
  5
317
330
1F
100
AcDbEntity
  8
0-0
  6
Continuous
 62
     3
370
     9
100
AcDbCircle
 10
-127.8731516245249
 20
292.6351813239022
 30
0.0
 40
1.500000019331236
100
AcDbArc
 50
89.99998474121094
 51
180.0
  0
ARC
  5
318
330
1F
100
AcDbEntity
  8
0-0
  6
Continuous
 62
     3
370
     9
100
AcDbCircle
 10
-105.3731516245249
 20
292.6351813239022
 30
0.0
 40
1.500000019331236
100
AcDbArc
 50
0.0
 51
90.0
  0
ARC
  5
319
330
1F
100
AcDbEntity
  8
0-0
  6
Continuous
 62
     3
370
     9
100
AcDbCircle
 10
-105.3731516245249
 20
270.1351813239022
 30
0.0
 40
1.500000019331236
100
AcDbArc
 50
270.0
 51
0.0
  0
ARC
  5
31A
330
1F
100
AcDbEntity
  8
0-0
  6
Continuous
 62
     3
370
     9
100
AcDbCircle
 10
-144.8731582229201
 20
270.1351813239022
 30
0.0
 40
1.500000019331236
100
AcDbArc
 50
270.0
 51
0.0
  0
ARC
  5
31B
330
1F
100
AcDbEntity
  8
0-0
  6
Continuous
 62
     3
370
     9
100
AcDbCircle
 10
-144.8731582229201
 20
292.6351813239022
 30
0.0
 40
1.500000019331236
100
AcDbArc
 50
0.0
 51
90.0
  0
ARC
  5
31C
330
1F
100
AcDbEntity
  8
0-0
  6
Continuous
 62
     3
370
     9
100
AcDbCircle
 10
-167.3731582229201
 20
292.6351813239022
 30
0.0
 40
1.500000019331236
100
AcDbArc
 50
89.99998474121094
 51
180.0
  0
ARC
  5
31D
330
1F
100
AcDbEntity
  8
0-0
  6
Continuous
 62
     3
370
     9
100
AcDbCircle
 10
-167.3731582229201
 20
270.1351813239022
 30
0.0
 40
1.500000019331236
100
AcDbArc
 50
180.0
 51
270.0
  0
ARC
  5
31E
330
1F
100
AcDbEntity
  8
0-0
  6
Continuous
 62
     3
370
     9
100
AcDbCircle
 10
-206.8731648213154
 20
270.1351813239022
 30
0.0
 40
1.500000019331236
100
AcDbArc
 50
180.0
 51
270.0
  0
ARC
  5
31F
330
1F
100
AcDbEntity
  8
0-0
  6
Continuous
 62
     3
370
     9
100
AcDbCircle
 10
-206.8731648213154
 20
292.6351813239022
 30
0.0
 40
1.500000019331236
100
AcDbArc
 50
89.99998474121094
 51
180.0
  0
ARC
  5
320
330
1F
100
AcDbEntity
  8
0-0
  6
Continuous
 62
     3
370
     9
100
AcDbCircle
 10
-184.3731648213154
 20
292.6351813239022
 30
0.0
 40
1.500000019331236
100
AcDbArc
 50
0.0
 51
90.0
  0
ARC
  5
321
330
1F
100
AcDbEntity
  8
0-0
  6
Continuous
 62
     3
370
     9
100
AcDbCircle
 10
-184.3731648213154
 20
270.1351813239022
 30
0.0
 40
1.500000019331236
100
AcDbArc
 50
270.0
 51
0.0
  0
ARC
  5
322
330
1F
100
AcDbEntity
  8
0-0
  6
Continuous
 62
     3
370
     9
100
AcDbCircle
 10
-184.3731648213154
 20
309.6351879222975
 30
0.0
 40
1.500000019331236
100
AcDbArc
 50
270.0
 51
0.0
  0
ARC
  5
323
330
1F
100
AcDbEntity
  8
0-0
  6
Continuous
 62
     3
370
     9
100
AcDbCircle
 10
-184.3731648213154
 20
332.1351879222975
 30
0.0
 40
1.500000019331236
100
AcDbArc
 50
0.0
 51
90.0
  0
ARC
  5
324
330
1F
100
AcDbEntity
  8
0-0
  6
Continuous
 62
     3
370
     9
100
AcDbCircle
 10
-206.8731648213154
 20
332.1351879222975
 30
0.0
 40
1.500000019331236
100
AcDbArc
 50
89.99998474121094
 51
180.0
  0
ARC
  5
325
330
1F
100
AcDbEntity
  8
0-0
  6
Continuous
 62
     3
370
     9
100
AcDbCircle
 10
-206.8731648213154
 20
309.6351879222975
 30
0.0
 40
1.500000019331236
100
AcDbArc
 50
180.0
 51
270.0
  0
ARC
  5
326
330
1F
100
AcDbEntity
  8
0-0
  6
Continuous
 62
     3
370
     9
100
AcDbCircle
 10
-167.3731582229201
 20
309.6351879222975
 30
0.0
 40
1.500000019331236
100
AcDbArc
 50
180.0
 51
270.0
  0
ARC
  5
327
330
1F
100
AcDbEntity
  8
0-0
  6
Continuous
 62
     3
370
     9
100
AcDbCircle
 10
-167.3731582229201
 20
332.1351879222975
 30
0.0
 40
1.500000019331236
100
AcDbArc
 50
89.99998474121094
 51
180.0
  0
ARC
  5
328
330
1F
100
AcDbEntity
  8
0-0
  6
Continuous
 62
     3
370
     9
100
AcDbCircle
 10
-144.8731582229201
 20
332.1351879222975
 30
0.0
 40
1.500000019331236
100
AcDbArc
 50
0.0
 51
90.0
  0
ARC
  5
329
330
1F
100
AcDbEntity
  8
0-0
  6
Continuous
 62
     3
370
     9
100
AcDbCircle
 10
-144.8731582229201
 20
309.6351879222975
 30
0.0
 40
1.500000019331236
100
AcDbArc
 50
270.0
 51
0.0
  0
ARC
  5
32A
330
1F
100
AcDbEntity
  8
0-0
  6
Continuous
 62
     3
370
     9
100
AcDbCircle
 10
-105.3731516245249
 20
309.6351879222975
 30
0.0
 40
1.500000019331236
100
AcDbArc
 50
270.0
 51
0.0
  0
ARC
  5
32B
330
1F
100
AcDbEntity
  8
0-0
  6
Continuous
 62
     3
370
     9
100
AcDbCircle
 10
-105.3731516245249
 20
332.1351879222975
 30
0.0
 40
1.500000019331236
100
AcDbArc
 50
0.0
 51
90.0
  0
ARC
  5
32C
330
1F
100
AcDbEntity
  8
0-0
  6
Continuous
 62
     3
370
     9
100
AcDbCircle
 10
-127.8731516245249
 20
332.1351879222975
 30
0.0
 40
1.500000019331236
100
AcDbArc
 50
89.99998474121094
 51
180.0
  0
ARC
  5
32D
330
1F
100
AcDbEntity
  8
0-0
  6
Continuous
 62
     3
370
     9
100
AcDbCircle
 10
-127.8731516245249
 20
309.6351879222975
 30
0.0
 40
1.500000019331236
100
AcDbArc
 50
180.0
 51
270.0
  0
ARC
  5
32E
330
1F
100
AcDbEntity
  8
0-0
  6
Continuous
 62
     3
370
     9
100
AcDbCircle
 10
-88.37319451409417
 20
309.6351879222975
 30
0.0
 40
1.500000019331236
100
AcDbArc
 50
180.0
 51
270.0
  0
ARC
  5
32F
330
1F
100
AcDbEntity
  8
0-0
  6
Continuous
 62
     3
370
     9
100
AcDbCircle
 10
-88.37319451409417
 20
332.1351879222975
 30
0.0
 40
1.500000019331236
100
AcDbArc
 50
89.99998474121094
 51
180.0
  0
ARC
  5
330
330
1F
100
AcDbEntity
  8
0-0
  6
Continuous
 62
     3
370
     9
100
AcDbCircle
 10
-65.87319451409417
 20
332.1351879222975
 30
0.0
 40
1.500000019331236
100
AcDbArc
 50
0.0
 51
90.0
  0
ARC
  5
331
330
1F
100
AcDbEntity
  8
0-0
  6
Continuous
 62
     3
370
     9
100
AcDbCircle
 10
-65.87319451409417
 20
309.6351879222975
 30
0.0
 40
1.500000019331236
100
AcDbArc
 50
270.0
 51
0.0
  0
ARC
  5
332
330
1F
100
AcDbEntity
  8
0-0
  6
Continuous
 62
     3
370
     9
100
AcDbCircle
 10
-26.37313842773438
 20
309.6351879222975
 30
0.0
 40
1.500000019331236
100
AcDbArc
 50
270.0
 51
0.0
  0
ARC
  5
333
330
1F
100
AcDbEntity
  8
0-0
  6
Continuous
 62
     3
370
     9
100
AcDbCircle
 10
-26.37313842773438
 20
332.1351879222975
 30
0.0
 40
1.500000019331236
100
AcDbArc
 50
0.0
 51
90.0
  0
ARC
  5
334
330
1F
100
AcDbEntity
  8
0-0
  6
Continuous
 62
     3
370
     9
100
AcDbCircle
 10
-48.87318791569885
 20
332.1351879222975
 30
0.0
 40
1.500000019331236
100
AcDbArc
 50
89.99998474121094
 51
180.0
  0
ARC
  5
335
330
1F
100
AcDbEntity
  8
0-0
  6
Continuous
 62
     3
370
     9
100
AcDbCircle
 10
-48.87318791569885
 20
309.6351879222975
 30
0.0
 40
1.500000019331236
100
AcDbArc
 50
180.0
 51
270.0
  0
ARC
  5
336
330
1F
100
AcDbEntity
  8
0-0
  6
Continuous
 62
     3
370
     9
100
AcDbCircle
 10
-9.373131829339059
 20
309.6351879222975
 30
0.0
 40
1.500000019331236
100
AcDbArc
 50
180.0
 51
270.0
  0
ARC
  5
337
330
1F
100
AcDbEntity
  8
0-0
  6
Continuous
 62
     3
370
     9
100
AcDbCircle
 10
-9.373131829339059
 20
332.1351879222975
 30
0.0
 40
1.500000019331236
100
AcDbArc
 50
89.99998474121094
 51
180.0
  0
ARC
  5
338
330
1F
100
AcDbEntity
  8
0-0
  6
Continuous
 62
     3
370
     9
100
AcDbCircle
 10
13.12686817066094
 20
332.1351879222975
 30
0.0
 40
1.500000019331236
100
AcDbArc
 50
0.0
 51
90.0
  0
ARC
  5
339
330
1F
100
AcDbEntity
  8
0-0
  6
Continuous
 62
     3
370
     9
100
AcDbCircle
 10
13.12686817066094
 20
309.6351879222975
 30
0.0
 40
1.500000019331236
100
AcDbArc
 50
270.0
 51
0.0
  0
ARC
  5
33A
330
1F
100
AcDbEntity
  8
0-0
  6
Continuous
 62
     3
370
     9
100
AcDbCircle
 10
13.12686817066094
 20
349.1351945206927
 30
0.0
 40
1.500000019331236
100
AcDbArc
 50
270.0
 51
0.0
  0
ARC
  5
33B
330
1F
100
AcDbEntity
  8
0-0
  6
Continuous
 62
     3
370
     9
100
AcDbCircle
 10
13.12686817066094
 20
371.6351945206927
 30
0.0
 40
1.500000019331236
100
AcDbArc
 50
0.0
 51
90.0
  0
ARC
  5
33C
330
1F
100
AcDbEntity
  8
0-0
  6
Continuous
 62
     3
370
     9
100
AcDbCircle
 10
-9.373131829339059
 20
371.6351945206927
 30
0.0
 40
1.500000019331236
100
AcDbArc
 50
89.99998474121094
 51
180.0
  0
ARC
  5
33D
330
1F
100
AcDbEntity
  8
0-0
  6
Continuous
 62
     3
370
     9
100
AcDbCircle
 10
-9.373131829339059
 20
349.1351945206927
 30
0.0
 40
1.500000019331236
100
AcDbArc
 50
180.0
 51
270.0
  0
ARC
  5
33E
330
1F
100
AcDbEntity
  8
0-0
  6
Continuous
 62
     3
370
     9
100
AcDbCircle
 10
-48.87318791569885
 20
349.1351945206927
 30
0.0
 40
1.500000019331236
100
AcDbArc
 50
180.0
 51
270.0
  0
ARC
  5
33F
330
1F
100
AcDbEntity
  8
0-0
  6
Continuous
 62
     3
370
     9
100
AcDbCircle
 10
-48.87318791569885
 20
371.6351945206927
 30
0.0
 40
1.500000019331236
100
AcDbArc
 50
89.99998474121094
 51
180.0
  0
ARC
  5
340
330
1F
100
AcDbEntity
  8
0-0
  6
Continuous
 62
     3
370
     9
100
AcDbCircle
 10
-26.37313842773438
 20
371.6351945206927
 30
0.0
 40
1.500000019331236
100
AcDbArc
 50
0.0
 51
90.0
  0
ARC
  5
341
330
1F
100
AcDbEntity
  8
0-0
  6
Continuous
 62
     3
370
     9
100
AcDbCircle
 10
-26.37313842773438
 20
349.1351945206927
 30
0.0
 40
1.500000019331236
100
AcDbArc
 50
270.0
 51
0.0
  0
ARC
  5
342
330
1F
100
AcDbEntity
  8
0-0
  6
Continuous
 62
     3
370
     9
100
AcDbCircle
 10
-65.87319451409417
 20
349.1351945206927
 30
0.0
 40
1.500000019331236
100
AcDbArc
 50
270.0
 51
0.0
  0
ARC
  5
343
330
1F
100
AcDbEntity
  8
0-0
  6
Continuous
 62
     3
370
     9
100
AcDbCircle
 10
-65.87319451409417
 20
371.6351945206927
 30
0.0
 40
1.500000019331236
100
AcDbArc
 50
0.0
 51
90.0
  0
ARC
  5
344
330
1F
100
AcDbEntity
  8
0-0
  6
Continuous
 62
     3
370
     9
100
AcDbCircle
 10
-88.37319451409417
 20
371.6351945206927
 30
0.0
 40
1.500000019331236
100
AcDbArc
 50
89.99998474121094
 51
180.0
  0
ARC
  5
345
330
1F
100
AcDbEntity
  8
0-0
  6
Continuous
 62
     3
370
     9
100
AcDbCircle
 10
-88.37319451409417
 20
349.1351945206927
 30
0.0
 40
1.500000019331236
100
AcDbArc
 50
180.0
 51
270.0
  0
ARC
  5
346
330
1F
100
AcDbEntity
  8
0-0
  6
Continuous
 62
     3
370
     9
100
AcDbCircle
 10
-127.8731516245249
 20
349.1351945206927
 30
0.0
 40
1.500000019331236
100
AcDbArc
 50
180.0
 51
270.0
  0
ARC
  5
347
330
1F
100
AcDbEntity
  8
0-0
  6
Continuous
 62
     3
370
     9
100
AcDbCircle
 10
-127.8731516245249
 20
371.6351945206927
 30
0.0
 40
1.500000019331236
100
AcDbArc
 50
89.99998474121094
 51
180.0
  0
ARC
  5
348
330
1F
100
AcDbEntity
  8
0-0
  6
Continuous
 62
     3
370
     9
100
AcDbCircle
 10
-105.3731516245249
 20
371.6351945206927
 30
0.0
 40
1.500000019331236
100
AcDbArc
 50
0.0
 51
90.0
  0
ARC
  5
349
330
1F
100
AcDbEntity
  8
0-0
  6
Continuous
 62
     3
370
     9
100
AcDbCircle
 10
-105.3731516245249
 20
349.1351945206927
 30
0.0
 40
1.500000019331236
100
AcDbArc
 50
270.0
 51
0.0
  0
ARC
  5
34A
330
1F
100
AcDbEntity
  8
0-0
  6
Continuous
 62
     3
370
     9
100
AcDbCircle
 10
-144.8731582229201
 20
349.1351945206927
 30
0.0
 40
1.500000019331236
100
AcDbArc
 50
270.0
 51
0.0
  0
ARC
  5
34B
330
1F
100
AcDbEntity
  8
0-0
  6
Continuous
 62
     3
370
     9
100
AcDbCircle
 10
-144.8731582229201
 20
371.6351945206927
 30
0.0
 40
1.500000019331236
100
AcDbArc
 50
0.0
 51
90.0
  0
ARC
  5
34C
330
1F
100
AcDbEntity
  8
0-0
  6
Continuous
 62
     3
370
     9
100
AcDbCircle
 10
-167.3731582229201
 20
371.6351945206927
 30
0.0
 40
1.500000019331236
100
AcDbArc
 50
89.99998474121094
 51
180.0
  0
ARC
  5
34D
330
1F
100
AcDbEntity
  8
0-0
  6
Continuous
 62
     3
370
     9
100
AcDbCircle
 10
-167.3731582229201
 20
349.1351945206927
 30
0.0
 40
1.500000019331236
100
AcDbArc
 50
180.0
 51
270.0
  0
ARC
  5
34E
330
1F
100
AcDbEntity
  8
0-0
  6
Continuous
 62
     3
370
     9
100
AcDbCircle
 10
-206.8731648213154
 20
349.1351945206927
 30
0.0
 40
1.500000019331236
100
AcDbArc
 50
180.0
 51
270.0
  0
ARC
  5
34F
330
1F
100
AcDbEntity
  8
0-0
  6
Continuous
 62
     3
370
     9
100
AcDbCircle
 10
-206.8731648213154
 20
371.6351945206927
 30
0.0
 40
1.500000019331236
100
AcDbArc
 50
89.99998474121094
 51
180.0
  0
ARC
  5
350
330
1F
100
AcDbEntity
  8
0-0
  6
Continuous
 62
     3
370
     9
100
AcDbCircle
 10
-184.3731648213154
 20
371.6351945206927
 30
0.0
 40
1.500000019331236
100
AcDbArc
 50
0.0
 51
90.0
  0
ARC
  5
351
330
1F
100
AcDbEntity
  8
0-0
  6
Continuous
 62
     3
370
     9
100
AcDbCircle
 10
-184.3731648213154
 20
349.1351945206927
 30
0.0
 40
1.500000019331236
100
AcDbArc
 50
270.0
 51
0.0
  0
ARC
  5
352
330
1F
100
AcDbEntity
  8
0-0
  6
Continuous
 62
     3
370
     9
100
AcDbCircle
 10
-184.3731648213154
 20
-62.86482857369072
 30
0.0
 40
1.500000019331236
100
AcDbArc
 50
1.403289794921875
 51
90.0
  0
ARC
  5
353
330
1F
100
AcDbEntity
  8
0-0
  6
Continuous
 62
     3
370
     9
100
AcDbCircle
 10
-184.3731648213154
 20
-85.36482857369072
 30
0.0
 40
1.500000019331236
100
AcDbArc
 50
270.0
 51
0.0
  0
ARC
  5
354
330
1F
100
AcDbEntity
  8
0-0
  6
Continuous
 62
     3
370
     9
100
AcDbCircle
 10
-206.8731648213154
 20
-85.36482857369072
 30
0.0
 40
1.500000019331236
100
AcDbArc
 50
180.0
 51
270.0
  0
ARC
  5
355
330
1F
100
AcDbEntity
  8
0-0
  6
Continuous
 62
     3
370
     9
100
AcDbCircle
 10
-206.8731648213154
 20
-62.86482857369072
 30
0.0
 40
1.500000019331236
100
AcDbArc
 50
90.0
 51
180.0
  0
ARC
  5
356
330
1F
100
AcDbEntity
  8
0-0
  6
Continuous
 62
     3
370
     9
100
AcDbCircle
 10
-167.3731582229201
 20
-62.86482857369072
 30
0.0
 40
1.500000019331236
100
AcDbArc
 50
90.0
 51
180.0
  0
ARC
  5
357
330
1F
100
AcDbEntity
  8
0-0
  6
Continuous
 62
     3
370
     9
100
AcDbCircle
 10
-167.3731582229201
 20
-85.36482857369072
 30
0.0
 40
1.500000019331236
100
AcDbArc
 50
180.0
 51
270.0
  0
ARC
  5
358
330
1F
100
AcDbEntity
  8
0-0
  6
Continuous
 62
     3
370
     9
100
AcDbCircle
 10
-144.8731582229201
 20
-85.36482857369072
 30
0.0
 40
1.500000019331236
100
AcDbArc
 50
270.0
 51
0.0
  0
ARC
  5
359
330
1F
100
AcDbEntity
  8
0-0
  6
Continuous
 62
     3
370
     9
100
AcDbCircle
 10
-144.8731582229201
 20
-62.86482857369072
 30
0.0
 40
1.500000019331236
100
AcDbArc
 50
1.403289794921875
 51
90.0
  0
ARC
  5
35A
330
1F
100
AcDbEntity
  8
0-0
  6
Continuous
 62
     3
370
     9
100
AcDbCircle
 10
-105.3731516245249
 20
-62.86482857369072
 30
0.0
 40
1.500000019331236
100
AcDbArc
 50
1.403289794921875
 51
90.0
  0
ARC
  5
35B
330
1F
100
AcDbEntity
  8
0-0
  6
Continuous
 62
     3
370
     9
100
AcDbCircle
 10
-105.3731516245249
 20
-85.36482857369072
 30
0.0
 40
1.500000019331236
100
AcDbArc
 50
270.0
 51
0.0
  0
ARC
  5
35C
330
1F
100
AcDbEntity
  8
0-0
  6
Continuous
 62
     3
370
     9
100
AcDbCircle
 10
-127.8731516245249
 20
-85.36482857369072
 30
0.0
 40
1.500000019331236
100
AcDbArc
 50
180.0
 51
270.0
  0
ARC
  5
35D
330
1F
100
AcDbEntity
  8
0-0
  6
Continuous
 62
     3
370
     9
100
AcDbCircle
 10
-127.8731516245249
 20
-62.86482857369072
 30
0.0
 40
1.500000019331236
100
AcDbArc
 50
90.0
 51
180.0
  0
ARC
  5
35E
330
1F
100
AcDbEntity
  8
0-0
  6
Continuous
 62
     3
370
     9
100
AcDbCircle
 10
-88.37319451409417
 20
-62.86482857369072
 30
0.0
 40
1.500000019331236
100
AcDbArc
 50
90.0
 51
180.0
  0
ARC
  5
35F
330
1F
100
AcDbEntity
  8
0-0
  6
Continuous
 62
     3
370
     9
100
AcDbCircle
 10
-88.37319451409417
 20
-85.36482857369072
 30
0.0
 40
1.500000019331236
100
AcDbArc
 50
180.0
 51
270.0
  0
ARC
  5
360
330
1F
100
AcDbEntity
  8
0-0
  6
Continuous
 62
     3
370
     9
100
AcDbCircle
 10
-65.87319451409417
 20
-85.36482857369072
 30
0.0
 40
1.500000019331236
100
AcDbArc
 50
270.0
 51
0.0
  0
ARC
  5
361
330
1F
100
AcDbEntity
  8
0-0
  6
Continuous
 62
     3
370
     9
100
AcDbCircle
 10
-65.87319451409417
 20
-62.86482857369072
 30
0.0
 40
1.500000019331236
100
AcDbArc
 50
1.403289794921875
 51
90.0
  0
ARC
  5
362
330
1F
100
AcDbEntity
  8
0-0
  6
Continuous
 62
     3
370
     9
100
AcDbCircle
 10
-26.37313842773438
 20
-62.86482857369072
 30
0.0
 40
1.500000019331236
100
AcDbArc
 50
1.403289794921875
 51
90.0
  0
ARC
  5
363
330
1F
100
AcDbEntity
  8
0-0
  6
Continuous
 62
     3
370
     9
100
AcDbCircle
 10
-26.37313842773438
 20
-85.36482857369072
 30
0.0
 40
1.500000019331236
100
AcDbArc
 50
270.0
 51
0.0
  0
ARC
  5
364
330
1F
100
AcDbEntity
  8
0-0
  6
Continuous
 62
     3
370
     9
100
AcDbCircle
 10
-48.87318791569885
 20
-85.36482857369072
 30
0.0
 40
1.500000019331236
100
AcDbArc
 50
180.0
 51
270.0
  0
ARC
  5
365
330
1F
100
AcDbEntity
  8
0-0
  6
Continuous
 62
     3
370
     9
100
AcDbCircle
 10
-48.87318791569885
 20
-62.86482857369072
 30
0.0
 40
1.500000019331236
100
AcDbArc
 50
90.0
 51
180.0
  0
ARC
  5
366
330
1F
100
AcDbEntity
  8
0-0
  6
Continuous
 62
     3
370
     9
100
AcDbCircle
 10
-9.373131829339059
 20
-62.86482857369072
 30
0.0
 40
1.500000019331236
100
AcDbArc
 50
90.0
 51
180.0
  0
ARC
  5
367
330
1F
100
AcDbEntity
  8
0-0
  6
Continuous
 62
     3
370
     9
100
AcDbCircle
 10
-9.373131829339059
 20
-85.36482857369072
 30
0.0
 40
1.500000019331236
100
AcDbArc
 50
180.0
 51
270.0
  0
ARC
  5
368
330
1F
100
AcDbEntity
  8
0-0
  6
Continuous
 62
     3
370
     9
100
AcDbCircle
 10
13.12686817066094
 20
-85.36482857369072
 30
0.0
 40
1.500000019331236
100
AcDbArc
 50
270.0
 51
0.0
  0
ARC
  5
369
330
1F
100
AcDbEntity
  8
0-0
  6
Continuous
 62
     3
370
     9
100
AcDbCircle
 10
13.12686817066094
 20
-62.86482857369072
 30
0.0
 40
1.500000019331236
100
AcDbArc
 50
1.403289794921875
 51
90.0
  0
ARC
  5
36A
330
1F
100
AcDbEntity
  8
0-0
  6
Continuous
 62
     3
370
     9
100
AcDbCircle
 10
13.12686817066094
 20
-23.3648219752954
 30
0.0
 40
1.500000019331236
100
AcDbArc
 50
1.403289794921875
 51
90.0
  0
ARC
  5
36B
330
1F
100
AcDbEntity
  8
0-0
  6
Continuous
 62
     3
370
     9
100
AcDbCircle
 10
13.12686817066094
 20
-45.8648219752954
 30
0.0
 40
1.500000019331236
100
AcDbArc
 50
270.0
 51
0.0
  0
ARC
  5
36C
330
1F
100
AcDbEntity
  8
0-0
  6
Continuous
 62
     3
370
     9
100
AcDbCircle
 10
-9.373131829339059
 20
-45.8648219752954
 30
0.0
 40
1.500000019331236
100
AcDbArc
 50
180.0
 51
270.0
  0
ARC
  5
36D
330
1F
100
AcDbEntity
  8
0-0
  6
Continuous
 62
     3
370
     9
100
AcDbCircle
 10
-9.373131829339059
 20
-23.3648219752954
 30
0.0
 40
1.500000019331236
100
AcDbArc
 50
90.0
 51
180.0
  0
ARC
  5
36E
330
1F
100
AcDbEntity
  8
0-0
  6
Continuous
 62
     3
370
     9
100
AcDbCircle
 10
-48.87318791569885
 20
-23.3648219752954
 30
0.0
 40
1.500000019331236
100
AcDbArc
 50
90.0
 51
180.0
  0
ARC
  5
36F
330
1F
100
AcDbEntity
  8
0-0
  6
Continuous
 62
     3
370
     9
100
AcDbCircle
 10
-48.87318791569885
 20
-45.8648219752954
 30
0.0
 40
1.500000019331236
100
AcDbArc
 50
180.0
 51
270.0
  0
ARC
  5
370
330
1F
100
AcDbEntity
  8
0-0
  6
Continuous
 62
     3
370
     9
100
AcDbCircle
 10
-26.37313842773438
 20
-45.8648219752954
 30
0.0
 40
1.500000019331236
100
AcDbArc
 50
270.0
 51
0.0
  0
ARC
  5
371
330
1F
100
AcDbEntity
  8
0-0
  6
Continuous
 62
     3
370
     9
100
AcDbCircle
 10
-26.37313842773438
 20
-23.3648219752954
 30
0.0
 40
1.500000019331236
100
AcDbArc
 50
1.403289794921875
 51
90.0
  0
ARC
  5
372
330
1F
100
AcDbEntity
  8
0-0
  6
Continuous
 62
     3
370
     9
100
AcDbCircle
 10
-65.87319451409417
 20
-23.3648219752954
 30
0.0
 40
1.500000019331236
100
AcDbArc
 50
1.403289794921875
 51
90.0
  0
ARC
  5
373
330
1F
100
AcDbEntity
  8
0-0
  6
Continuous
 62
     3
370
     9
100
AcDbCircle
 10
-65.87319451409417
 20
-45.8648219752954
 30
0.0
 40
1.500000019331236
100
AcDbArc
 50
270.0
 51
0.0
  0
ARC
  5
374
330
1F
100
AcDbEntity
  8
0-0
  6
Continuous
 62
     3
370
     9
100
AcDbCircle
 10
-88.37319451409417
 20
-45.8648219752954
 30
0.0
 40
1.500000019331236
100
AcDbArc
 50
180.0
 51
270.0
  0
ARC
  5
375
330
1F
100
AcDbEntity
  8
0-0
  6
Continuous
 62
     3
370
     9
100
AcDbCircle
 10
-88.37319451409417
 20
-23.3648219752954
 30
0.0
 40
1.500000019331236
100
AcDbArc
 50
90.0
 51
180.0
  0
ARC
  5
376
330
1F
100
AcDbEntity
  8
0-0
  6
Continuous
 62
     3
370
     9
100
AcDbCircle
 10
-127.8731516245249
 20
-23.3648219752954
 30
0.0
 40
1.500000019331236
100
AcDbArc
 50
90.0
 51
180.0
  0
ARC
  5
377
330
1F
100
AcDbEntity
  8
0-0
  6
Continuous
 62
     3
370
     9
100
AcDbCircle
 10
-127.8731516245249
 20
-45.8648219752954
 30
0.0
 40
1.500000019331236
100
AcDbArc
 50
180.0
 51
270.0
  0
ARC
  5
378
330
1F
100
AcDbEntity
  8
0-0
  6
Continuous
 62
     3
370
     9
100
AcDbCircle
 10
-105.3731516245249
 20
-45.8648219752954
 30
0.0
 40
1.500000019331236
100
AcDbArc
 50
270.0
 51
0.0
  0
ARC
  5
379
330
1F
100
AcDbEntity
  8
0-0
  6
Continuous
 62
     3
370
     9
100
AcDbCircle
 10
-105.3731516245249
 20
-23.3648219752954
 30
0.0
 40
1.500000019331236
100
AcDbArc
 50
1.403289794921875
 51
90.0
  0
ARC
  5
37A
330
1F
100
AcDbEntity
  8
0-0
  6
Continuous
 62
     3
370
     9
100
AcDbCircle
 10
-144.8731582229201
 20
-23.3648219752954
 30
0.0
 40
1.500000019331236
100
AcDbArc
 50
1.403289794921875
 51
90.0
  0
ARC
  5
37B
330
1F
100
AcDbEntity
  8
0-0
  6
Continuous
 62
     3
370
     9
100
AcDbCircle
 10
-144.8731582229201
 20
-45.8648219752954
 30
0.0
 40
1.500000019331236
100
AcDbArc
 50
270.0
 51
0.0
  0
ARC
  5
37C
330
1F
100
AcDbEntity
  8
0-0
  6
Continuous
 62
     3
370
     9
100
AcDbCircle
 10
-167.3731582229201
 20
-45.8648219752954
 30
0.0
 40
1.500000019331236
100
AcDbArc
 50
180.0
 51
270.0
  0
ARC
  5
37D
330
1F
100
AcDbEntity
  8
0-0
  6
Continuous
 62
     3
370
     9
100
AcDbCircle
 10
-167.3731582229201
 20
-23.3648219752954
 30
0.0
 40
1.500000019331236
100
AcDbArc
 50
90.0
 51
180.0
  0
ARC
  5
37E
330
1F
100
AcDbEntity
  8
0-0
  6
Continuous
 62
     3
370
     9
100
AcDbCircle
 10
-206.8731648213154
 20
-23.3648219752954
 30
0.0
 40
1.500000019331236
100
AcDbArc
 50
90.0
 51
180.0
  0
ARC
  5
37F
330
1F
100
AcDbEntity
  8
0-0
  6
Continuous
 62
     3
370
     9
100
AcDbCircle
 10
-206.8731648213154
 20
-45.8648219752954
 30
0.0
 40
1.500000019331236
100
AcDbArc
 50
180.0
 51
270.0
  0
ARC
  5
380
330
1F
100
AcDbEntity
  8
0-0
  6
Continuous
 62
     3
370
     9
100
AcDbCircle
 10
-184.3731648213154
 20
-45.8648219752954
 30
0.0
 40
1.500000019331236
100
AcDbArc
 50
270.0
 51
0.0
  0
ARC
  5
381
330
1F
100
AcDbEntity
  8
0-0
  6
Continuous
 62
     3
370
     9
100
AcDbCircle
 10
-184.3731648213154
 20
-23.3648219752954
 30
0.0
 40
1.500000019331236
100
AcDbArc
 50
1.403289794921875
 51
90.0
  0
ARC
  5
382
330
1F
100
AcDbEntity
  8
0-0
  6
Continuous
 62
     3
370
     9
100
AcDbCircle
 10
-184.3731648213154
 20
16.1351846230998
 30
0.0
 40
1.500000019331236
100
AcDbArc
 50
1.403289794921875
 51
90.0
  0
ARC
  5
383
330
1F
100
AcDbEntity
  8
0-0
  6
Continuous
 62
     3
370
     9
100
AcDbCircle
 10
-184.3731648213154
 20
-6.364815376900196
 30
0.0
 40
1.500000019331236
100
AcDbArc
 50
270.0
 51
0.0
  0
ARC
  5
384
330
1F
100
AcDbEntity
  8
0-0
  6
Continuous
 62
     3
370
     9
100
AcDbCircle
 10
-206.8731648213154
 20
-6.364815376900196
 30
0.0
 40
1.500000019331236
100
AcDbArc
 50
180.0
 51
270.0
  0
ARC
  5
385
330
1F
100
AcDbEntity
  8
0-0
  6
Continuous
 62
     3
370
     9
100
AcDbCircle
 10
-206.8731648213154
 20
16.1351846230998
 30
0.0
 40
1.500000019331236
100
AcDbArc
 50
90.0
 51
180.0
  0
ARC
  5
386
330
1F
100
AcDbEntity
  8
0-0
  6
Continuous
 62
     3
370
     9
100
AcDbCircle
 10
-167.3731582229201
 20
16.1351846230998
 30
0.0
 40
1.500000019331236
100
AcDbArc
 50
90.0
 51
180.0
  0
ARC
  5
387
330
1F
100
AcDbEntity
  8
0-0
  6
Continuous
 62
     3
370
     9
100
AcDbCircle
 10
-167.3731582229201
 20
-6.364815376900196
 30
0.0
 40
1.500000019331236
100
AcDbArc
 50
180.0
 51
270.0
  0
ARC
  5
388
330
1F
100
AcDbEntity
  8
0-0
  6
Continuous
 62
     3
370
     9
100
AcDbCircle
 10
-144.8731582229201
 20
-6.364815376900196
 30
0.0
 40
1.500000019331236
100
AcDbArc
 50
270.0
 51
0.0
  0
ARC
  5
389
330
1F
100
AcDbEntity
  8
0-0
  6
Continuous
 62
     3
370
     9
100
AcDbCircle
 10
-144.8731582229201
 20
16.1351846230998
 30
0.0
 40
1.500000019331236
100
AcDbArc
 50
1.403289794921875
 51
90.0
  0
ARC
  5
38A
330
1F
100
AcDbEntity
  8
0-0
  6
Continuous
 62
     3
370
     9
100
AcDbCircle
 10
-105.3731516245249
 20
16.1351846230998
 30
0.0
 40
1.500000019331236
100
AcDbArc
 50
1.403289794921875
 51
90.0
  0
ARC
  5
38B
330
1F
100
AcDbEntity
  8
0-0
  6
Continuous
 62
     3
370
     9
100
AcDbCircle
 10
-105.3731516245249
 20
-6.364815376900196
 30
0.0
 40
1.500000019331236
100
AcDbArc
 50
270.0
 51
0.0
  0
ARC
  5
38C
330
1F
100
AcDbEntity
  8
0-0
  6
Continuous
 62
     3
370
     9
100
AcDbCircle
 10
-127.8731516245249
 20
-6.364815376900196
 30
0.0
 40
1.500000019331236
100
AcDbArc
 50
180.0
 51
270.0
  0
ARC
  5
38D
330
1F
100
AcDbEntity
  8
0-0
  6
Continuous
 62
     3
370
     9
100
AcDbCircle
 10
-127.8731516245249
 20
16.1351846230998
 30
0.0
 40
1.500000019331236
100
AcDbArc
 50
90.0
 51
180.0
  0
ARC
  5
38E
330
1F
100
AcDbEntity
  8
0-0
  6
Continuous
 62
     3
370
     9
100
AcDbCircle
 10
-88.37319451409417
 20
16.1351846230998
 30
0.0
 40
1.500000019331236
100
AcDbArc
 50
90.0
 51
180.0
  0
ARC
  5
38F
330
1F
100
AcDbEntity
  8
0-0
  6
Continuous
 62
     3
370
     9
100
AcDbCircle
 10
-88.37319451409417
 20
-6.364815376900196
 30
0.0
 40
1.500000019331236
100
AcDbArc
 50
180.0
 51
270.0
  0
ARC
  5
390
330
1F
100
AcDbEntity
  8
0-0
  6
Continuous
 62
     3
370
     9
100
AcDbCircle
 10
-65.87319451409417
 20
-6.364815376900196
 30
0.0
 40
1.500000019331236
100
AcDbArc
 50
270.0
 51
0.0
  0
ARC
  5
391
330
1F
100
AcDbEntity
  8
0-0
  6
Continuous
 62
     3
370
     9
100
AcDbCircle
 10
-65.87319451409417
 20
16.1351846230998
 30
0.0
 40
1.500000019331236
100
AcDbArc
 50
1.403289794921875
 51
90.0
  0
ARC
  5
392
330
1F
100
AcDbEntity
  8
0-0
  6
Continuous
 62
     3
370
     9
100
AcDbCircle
 10
-26.37313842773438
 20
16.1351846230998
 30
0.0
 40
1.500000019331236
100
AcDbArc
 50
1.403289794921875
 51
90.0
  0
ARC
  5
393
330
1F
100
AcDbEntity
  8
0-0
  6
Continuous
 62
     3
370
     9
100
AcDbCircle
 10
-26.37313842773438
 20
-6.364815376900196
 30
0.0
 40
1.500000019331236
100
AcDbArc
 50
270.0
 51
0.0
  0
ARC
  5
394
330
1F
100
AcDbEntity
  8
0-0
  6
Continuous
 62
     3
370
     9
100
AcDbCircle
 10
-48.87318791569885
 20
-6.364815376900196
 30
0.0
 40
1.500000019331236
100
AcDbArc
 50
180.0
 51
270.0
  0
ARC
  5
395
330
1F
100
AcDbEntity
  8
0-0
  6
Continuous
 62
     3
370
     9
100
AcDbCircle
 10
-48.87318791569885
 20
16.1351846230998
 30
0.0
 40
1.500000019331236
100
AcDbArc
 50
90.0
 51
180.0
  0
ARC
  5
396
330
1F
100
AcDbEntity
  8
0-0
  6
Continuous
 62
     3
370
     9
100
AcDbCircle
 10
-9.373131829339059
 20
16.1351846230998
 30
0.0
 40
1.500000019331236
100
AcDbArc
 50
90.0
 51
180.0
  0
ARC
  5
397
330
1F
100
AcDbEntity
  8
0-0
  6
Continuous
 62
     3
370
     9
100
AcDbCircle
 10
-9.373131829339059
 20
-6.364815376900196
 30
0.0
 40
1.500000019331236
100
AcDbArc
 50
180.0
 51
270.0
  0
ARC
  5
398
330
1F
100
AcDbEntity
  8
0-0
  6
Continuous
 62
     3
370
     9
100
AcDbCircle
 10
13.12686817066094
 20
-6.364815376900196
 30
0.0
 40
1.500000019331236
100
AcDbArc
 50
270.0
 51
0.0
  0
ARC
  5
399
330
1F
100
AcDbEntity
  8
0-0
  6
Continuous
 62
     3
370
     9
100
AcDbCircle
 10
13.12686817066094
 20
16.1351846230998
 30
0.0
 40
1.500000019331236
100
AcDbArc
 50
1.403289794921875
 51
90.0
  0
ARC
  5
39A
330
1F
100
AcDbEntity
  8
0-0
  6
Continuous
 62
     3
370
     9
100
AcDbCircle
 10
13.12686817066094
 20
55.63514173353053
 30
0.0
 40
1.500000019331236
100
AcDbArc
 50
1.403289794921875
 51
90.0
  0
ARC
  5
39B
330
1F
100
AcDbEntity
  8
0-0
  6
Continuous
 62
     3
370
     9
100
AcDbCircle
 10
13.12686817066094
 20
33.13514173353053
 30
0.0
 40
1.500000019331236
100
AcDbArc
 50
270.0
 51
0.0
  0
ARC
  5
39C
330
1F
100
AcDbEntity
  8
0-0
  6
Continuous
 62
     3
370
     9
100
AcDbCircle
 10
-9.373131829339059
 20
33.13514173353053
 30
0.0
 40
1.500000019331236
100
AcDbArc
 50
180.0
 51
270.0
  0
ARC
  5
39D
330
1F
100
AcDbEntity
  8
0-0
  6
Continuous
 62
     3
370
     9
100
AcDbCircle
 10
-9.373131829339059
 20
55.63514173353053
 30
0.0
 40
1.500000019331236
100
AcDbArc
 50
90.0
 51
180.0
  0
ARC
  5
39E
330
1F
100
AcDbEntity
  8
0-0
  6
Continuous
 62
     3
370
     9
100
AcDbCircle
 10
-48.87318791569885
 20
55.63514173353053
 30
0.0
 40
1.500000019331236
100
AcDbArc
 50
90.0
 51
180.0
  0
ARC
  5
39F
330
1F
100
AcDbEntity
  8
0-0
  6
Continuous
 62
     3
370
     9
100
AcDbCircle
 10
-48.87318791569885
 20
33.13514173353053
 30
0.0
 40
1.500000019331236
100
AcDbArc
 50
180.0
 51
270.0
  0
ARC
  5
3A0
330
1F
100
AcDbEntity
  8
0-0
  6
Continuous
 62
     3
370
     9
100
AcDbCircle
 10
-26.37313842773438
 20
33.13514173353053
 30
0.0
 40
1.500000019331236
100
AcDbArc
 50
270.0
 51
0.0
  0
ARC
  5
3A1
330
1F
100
AcDbEntity
  8
0-0
  6
Continuous
 62
     3
370
     9
100
AcDbCircle
 10
-26.37313842773438
 20
55.63514173353053
 30
0.0
 40
1.500000019331236
100
AcDbArc
 50
1.403289794921875
 51
90.0
  0
ARC
  5
3A2
330
1F
100
AcDbEntity
  8
0-0
  6
Continuous
 62
     3
370
     9
100
AcDbCircle
 10
-65.87319451409417
 20
55.63514173353053
 30
0.0
 40
1.500000019331236
100
AcDbArc
 50
1.403289794921875
 51
90.0
  0
ARC
  5
3A3
330
1F
100
AcDbEntity
  8
0-0
  6
Continuous
 62
     3
370
     9
100
AcDbCircle
 10
-65.87319451409417
 20
33.13514173353053
 30
0.0
 40
1.500000019331236
100
AcDbArc
 50
270.0
 51
0.0
  0
ARC
  5
3A4
330
1F
100
AcDbEntity
  8
0-0
  6
Continuous
 62
     3
370
     9
100
AcDbCircle
 10
-88.37319451409417
 20
33.13514173353053
 30
0.0
 40
1.500000019331236
100
AcDbArc
 50
180.0
 51
270.0
  0
ARC
  5
3A5
330
1F
100
AcDbEntity
  8
0-0
  6
Continuous
 62
     3
370
     9
100
AcDbCircle
 10
-88.37319451409417
 20
55.63514173353053
 30
0.0
 40
1.500000019331236
100
AcDbArc
 50
90.0
 51
180.0
  0
ARC
  5
3A6
330
1F
100
AcDbEntity
  8
0-0
  6
Continuous
 62
     3
370
     9
100
AcDbCircle
 10
-127.8731516245249
 20
55.63514173353053
 30
0.0
 40
1.500000019331236
100
AcDbArc
 50
90.0
 51
180.0
  0
ARC
  5
3A7
330
1F
100
AcDbEntity
  8
0-0
  6
Continuous
 62
     3
370
     9
100
AcDbCircle
 10
-127.8731516245249
 20
33.13514173353053
 30
0.0
 40
1.500000019331236
100
AcDbArc
 50
180.0
 51
270.0
  0
ARC
  5
3A8
330
1F
100
AcDbEntity
  8
0-0
  6
Continuous
 62
     3
370
     9
100
AcDbCircle
 10
-105.3731516245249
 20
33.13514173353053
 30
0.0
 40
1.500000019331236
100
AcDbArc
 50
270.0
 51
0.0
  0
ARC
  5
3A9
330
1F
100
AcDbEntity
  8
0-0
  6
Continuous
 62
     3
370
     9
100
AcDbCircle
 10
-105.3731516245249
 20
55.63514173353053
 30
0.0
 40
1.500000019331236
100
AcDbArc
 50
1.403289794921875
 51
90.0
  0
ARC
  5
3AA
330
1F
100
AcDbEntity
  8
0-0
  6
Continuous
 62
     3
370
     9
100
AcDbCircle
 10
-144.8731582229201
 20
55.63514173353053
 30
0.0
 40
1.500000019331236
100
AcDbArc
 50
1.403289794921875
 51
90.0
  0
ARC
  5
3AB
330
1F
100
AcDbEntity
  8
0-0
  6
Continuous
 62
     3
370
     9
100
AcDbCircle
 10
-144.8731582229201
 20
33.13514173353053
 30
0.0
 40
1.500000019331236
100
AcDbArc
 50
270.0
 51
0.0
  0
ARC
  5
3AC
330
1F
100
AcDbEntity
  8
0-0
  6
Continuous
 62
     3
370
     9
100
AcDbCircle
 10
-167.3731582229201
 20
33.13514173353053
 30
0.0
 40
1.500000019331236
100
AcDbArc
 50
180.0
 51
270.0
  0
ARC
  5
3AD
330
1F
100
AcDbEntity
  8
0-0
  6
Continuous
 62
     3
370
     9
100
AcDbCircle
 10
-167.3731582229201
 20
55.63514173353053
 30
0.0
 40
1.500000019331236
100
AcDbArc
 50
90.0
 51
180.0
  0
ARC
  5
3AE
330
1F
100
AcDbEntity
  8
0-0
  6
Continuous
 62
     3
370
     9
100
AcDbCircle
 10
-206.8731648213154
 20
55.63514173353053
 30
0.0
 40
1.500000019331236
100
AcDbArc
 50
90.0
 51
180.0
  0
ARC
  5
3AF
330
1F
100
AcDbEntity
  8
0-0
  6
Continuous
 62
     3
370
     9
100
AcDbCircle
 10
-206.8731648213154
 20
33.13514173353053
 30
0.0
 40
1.500000019331236
100
AcDbArc
 50
180.0
 51
270.0
  0
ARC
  5
3B0
330
1F
100
AcDbEntity
  8
0-0
  6
Continuous
 62
     3
370
     9
100
AcDbCircle
 10
-184.3731648213154
 20
33.13514173353053
 30
0.0
 40
1.500000019331236
100
AcDbArc
 50
270.0
 51
0.0
  0
ARC
  5
3B1
330
1F
100
AcDbEntity
  8
0-0
  6
Continuous
 62
     3
370
     9
100
AcDbCircle
 10
-184.3731648213154
 20
55.63514173353053
 30
0.0
 40
1.500000019331236
100
AcDbArc
 50
1.403289794921875
 51
90.0
  0
ARC
  5
3B2
330
1F
100
AcDbEntity
  8
0-0
  6
Continuous
 62
     3
370
     9
100
AcDbCircle
 10
-184.3731648213154
 20
95.13514833192585
 30
0.0
 40
1.500000019331236
100
AcDbArc
 50
1.403289794921875
 51
90.0
  0
ARC
  5
3B3
330
1F
100
AcDbEntity
  8
0-0
  6
Continuous
 62
     3
370
     9
100
AcDbCircle
 10
-184.3731648213154
 20
72.63514833192585
 30
0.0
 40
1.500000019331236
100
AcDbArc
 50
270.0
 51
0.0
  0
ARC
  5
3B4
330
1F
100
AcDbEntity
  8
0-0
  6
Continuous
 62
     3
370
     9
100
AcDbCircle
 10
-206.8731648213154
 20
72.63514833192585
 30
0.0
 40
1.500000019331236
100
AcDbArc
 50
180.0
 51
270.0
  0
ARC
  5
3B5
330
1F
100
AcDbEntity
  8
0-0
  6
Continuous
 62
     3
370
     9
100
AcDbCircle
 10
-206.8731648213154
 20
95.13514833192585
 30
0.0
 40
1.500000019331236
100
AcDbArc
 50
90.0
 51
180.0
  0
ARC
  5
3B6
330
1F
100
AcDbEntity
  8
0-0
  6
Continuous
 62
     3
370
     9
100
AcDbCircle
 10
-167.3731582229201
 20
95.13514833192585
 30
0.0
 40
1.500000019331236
100
AcDbArc
 50
90.0
 51
180.0
  0
ARC
  5
3B7
330
1F
100
AcDbEntity
  8
0-0
  6
Continuous
 62
     3
370
     9
100
AcDbCircle
 10
-167.3731582229201
 20
72.63514833192585
 30
0.0
 40
1.500000019331236
100
AcDbArc
 50
180.0
 51
270.0
  0
ARC
  5
3B8
330
1F
100
AcDbEntity
  8
0-0
  6
Continuous
 62
     3
370
     9
100
AcDbCircle
 10
-144.8731582229201
 20
72.63514833192585
 30
0.0
 40
1.500000019331236
100
AcDbArc
 50
270.0
 51
0.0
  0
ARC
  5
3B9
330
1F
100
AcDbEntity
  8
0-0
  6
Continuous
 62
     3
370
     9
100
AcDbCircle
 10
-144.8731582229201
 20
95.13514833192585
 30
0.0
 40
1.500000019331236
100
AcDbArc
 50
1.403289794921875
 51
90.0
  0
ARC
  5
3BA
330
1F
100
AcDbEntity
  8
0-0
  6
Continuous
 62
     3
370
     9
100
AcDbCircle
 10
-105.3731516245249
 20
95.13514833192585
 30
0.0
 40
1.500000019331236
100
AcDbArc
 50
1.403289794921875
 51
90.0
  0
ARC
  5
3BB
330
1F
100
AcDbEntity
  8
0-0
  6
Continuous
 62
     3
370
     9
100
AcDbCircle
 10
-105.3731516245249
 20
72.63514833192585
 30
0.0
 40
1.500000019331236
100
AcDbArc
 50
270.0
 51
0.0
  0
ARC
  5
3BC
330
1F
100
AcDbEntity
  8
0-0
  6
Continuous
 62
     3
370
     9
100
AcDbCircle
 10
-127.8731516245249
 20
72.63514833192585
 30
0.0
 40
1.500000019331236
100
AcDbArc
 50
180.0
 51
270.0
  0
ARC
  5
3BD
330
1F
100
AcDbEntity
  8
0-0
  6
Continuous
 62
     3
370
     9
100
AcDbCircle
 10
-127.8731516245249
 20
95.13514833192585
 30
0.0
 40
1.500000019331236
100
AcDbArc
 50
90.0
 51
180.0
  0
ARC
  5
3BE
330
1F
100
AcDbEntity
  8
0-0
  6
Continuous
 62
     3
370
     9
100
AcDbCircle
 10
-88.37319451409417
 20
95.13514833192585
 30
0.0
 40
1.500000019331236
100
AcDbArc
 50
90.0
 51
180.0
  0
ARC
  5
3BF
330
1F
100
AcDbEntity
  8
0-0
  6
Continuous
 62
     3
370
     9
100
AcDbCircle
 10
-88.37319451409417
 20
72.63514833192585
 30
0.0
 40
1.500000019331236
100
AcDbArc
 50
180.0
 51
270.0
  0
ARC
  5
3C0
330
1F
100
AcDbEntity
  8
0-0
  6
Continuous
 62
     3
370
     9
100
AcDbCircle
 10
-65.87319451409417
 20
72.63514833192585
 30
0.0
 40
1.500000019331236
100
AcDbArc
 50
270.0
 51
0.0
  0
ARC
  5
3C1
330
1F
100
AcDbEntity
  8
0-0
  6
Continuous
 62
     3
370
     9
100
AcDbCircle
 10
-65.87319451409417
 20
95.13514833192585
 30
0.0
 40
1.500000019331236
100
AcDbArc
 50
1.403289794921875
 51
90.0
  0
ARC
  5
3C2
330
1F
100
AcDbEntity
  8
0-0
  6
Continuous
 62
     3
370
     9
100
AcDbCircle
 10
-26.37313842773438
 20
95.13514833192585
 30
0.0
 40
1.500000019331236
100
AcDbArc
 50
1.403289794921875
 51
90.0
  0
ARC
  5
3C3
330
1F
100
AcDbEntity
  8
0-0
  6
Continuous
 62
     3
370
     9
100
AcDbCircle
 10
-26.37313842773438
 20
72.63514833192585
 30
0.0
 40
1.500000019331236
100
AcDbArc
 50
270.0
 51
0.0
  0
ARC
  5
3C4
330
1F
100
AcDbEntity
  8
0-0
  6
Continuous
 62
     3
370
     9
100
AcDbCircle
 10
-48.87318791569885
 20
72.63514833192585
 30
0.0
 40
1.500000019331236
100
AcDbArc
 50
180.0
 51
270.0
  0
ARC
  5
3C5
330
1F
100
AcDbEntity
  8
0-0
  6
Continuous
 62
     3
370
     9
100
AcDbCircle
 10
-48.87318791569885
 20
95.13514833192585
 30
0.0
 40
1.500000019331236
100
AcDbArc
 50
90.0
 51
180.0
  0
ARC
  5
3C6
330
1F
100
AcDbEntity
  8
0-0
  6
Continuous
 62
     3
370
     9
100
AcDbCircle
 10
-9.373131829339059
 20
95.13514833192585
 30
0.0
 40
1.500000019331236
100
AcDbArc
 50
90.0
 51
180.0
  0
ARC
  5
3C7
330
1F
100
AcDbEntity
  8
0-0
  6
Continuous
 62
     3
370
     9
100
AcDbCircle
 10
-9.373131829339059
 20
72.63514833192585
 30
0.0
 40
1.500000019331236
100
AcDbArc
 50
180.0
 51
270.0
  0
ARC
  5
3C8
330
1F
100
AcDbEntity
  8
0-0
  6
Continuous
 62
     3
370
     9
100
AcDbCircle
 10
13.12686817066094
 20
72.63514833192585
 30
0.0
 40
1.500000019331236
100
AcDbArc
 50
270.0
 51
0.0
  0
ARC
  5
3C9
330
1F
100
AcDbEntity
  8
0-0
  6
Continuous
 62
     3
370
     9
100
AcDbCircle
 10
13.12686817066094
 20
95.13514833192585
 30
0.0
 40
1.500000019331236
100
AcDbArc
 50
1.403289794921875
 51
90.0
  0
ARC
  5
3CA
330
1F
100
AcDbEntity
  8
0-0
  6
Continuous
 62
     3
370
     9
100
AcDbCircle
 10
13.12686817066094
 20
134.6351549303212
 30
0.0
 40
1.500000019331236
100
AcDbArc
 50
1.403289794921875
 51
90.0
  0
ARC
  5
3CB
330
1F
100
AcDbEntity
  8
0-0
  6
Continuous
 62
     3
370
     9
100
AcDbCircle
 10
13.12686817066094
 20
112.1351549303212
 30
0.0
 40
1.500000019331236
100
AcDbArc
 50
270.0
 51
0.0
  0
ARC
  5
3CC
330
1F
100
AcDbEntity
  8
0-0
  6
Continuous
 62
     3
370
     9
100
AcDbCircle
 10
-9.373131829339059
 20
112.1351549303212
 30
0.0
 40
1.500000019331236
100
AcDbArc
 50
180.0
 51
270.0
  0
ARC
  5
3CD
330
1F
100
AcDbEntity
  8
0-0
  6
Continuous
 62
     3
370
     9
100
AcDbCircle
 10
-9.373131829339059
 20
134.6351549303212
 30
0.0
 40
1.500000019331236
100
AcDbArc
 50
90.0
 51
180.0
  0
ARC
  5
3CE
330
1F
100
AcDbEntity
  8
0-0
  6
Continuous
 62
     3
370
     9
100
AcDbCircle
 10
-48.87318791569885
 20
134.6351549303212
 30
0.0
 40
1.500000019331236
100
AcDbArc
 50
90.0
 51
180.0
  0
ARC
  5
3CF
330
1F
100
AcDbEntity
  8
0-0
  6
Continuous
 62
     3
370
     9
100
AcDbCircle
 10
-48.87318791569885
 20
112.1351549303212
 30
0.0
 40
1.500000019331236
100
AcDbArc
 50
180.0
 51
270.0
  0
ARC
  5
3D0
330
1F
100
AcDbEntity
  8
0-0
  6
Continuous
 62
     3
370
     9
100
AcDbCircle
 10
-26.37313842773438
 20
112.1351549303212
 30
0.0
 40
1.500000019331236
100
AcDbArc
 50
270.0
 51
0.0
  0
ARC
  5
3D1
330
1F
100
AcDbEntity
  8
0-0
  6
Continuous
 62
     3
370
     9
100
AcDbCircle
 10
-26.37313842773438
 20
134.6351549303212
 30
0.0
 40
1.500000019331236
100
AcDbArc
 50
1.403289794921875
 51
90.0
  0
ARC
  5
3D2
330
1F
100
AcDbEntity
  8
0-0
  6
Continuous
 62
     3
370
     9
100
AcDbCircle
 10
-65.87319451409417
 20
134.6351549303212
 30
0.0
 40
1.500000019331236
100
AcDbArc
 50
1.403289794921875
 51
90.0
  0
ARC
  5
3D3
330
1F
100
AcDbEntity
  8
0-0
  6
Continuous
 62
     3
370
     9
100
AcDbCircle
 10
-65.87319451409417
 20
112.1351549303212
 30
0.0
 40
1.500000019331236
100
AcDbArc
 50
270.0
 51
0.0
  0
ARC
  5
3D4
330
1F
100
AcDbEntity
  8
0-0
  6
Continuous
 62
     3
370
     9
100
AcDbCircle
 10
-88.37319451409417
 20
112.1351549303212
 30
0.0
 40
1.500000019331236
100
AcDbArc
 50
180.0
 51
270.0
  0
ARC
  5
3D5
330
1F
100
AcDbEntity
  8
0-0
  6
Continuous
 62
     3
370
     9
100
AcDbCircle
 10
-88.37319451409417
 20
134.6351549303212
 30
0.0
 40
1.500000019331236
100
AcDbArc
 50
90.0
 51
180.0
  0
ARC
  5
3D6
330
1F
100
AcDbEntity
  8
0-0
  6
Continuous
 62
     3
370
     9
100
AcDbCircle
 10
-127.8731516245249
 20
134.6351549303212
 30
0.0
 40
1.500000019331236
100
AcDbArc
 50
90.0
 51
180.0
  0
ARC
  5
3D7
330
1F
100
AcDbEntity
  8
0-0
  6
Continuous
 62
     3
370
     9
100
AcDbCircle
 10
-127.8731516245249
 20
112.1351549303212
 30
0.0
 40
1.500000019331236
100
AcDbArc
 50
180.0
 51
270.0
  0
ARC
  5
3D8
330
1F
100
AcDbEntity
  8
0-0
  6
Continuous
 62
     3
370
     9
100
AcDbCircle
 10
-105.3731516245249
 20
112.1351549303212
 30
0.0
 40
1.500000019331236
100
AcDbArc
 50
270.0
 51
0.0
  0
ARC
  5
3D9
330
1F
100
AcDbEntity
  8
0-0
  6
Continuous
 62
     3
370
     9
100
AcDbCircle
 10
-105.3731516245249
 20
134.6351549303212
 30
0.0
 40
1.500000019331236
100
AcDbArc
 50
1.403289794921875
 51
90.0
  0
ARC
  5
3DA
330
1F
100
AcDbEntity
  8
0-0
  6
Continuous
 62
     3
370
     9
100
AcDbCircle
 10
-144.8731582229201
 20
134.6351549303212
 30
0.0
 40
1.500000019331236
100
AcDbArc
 50
1.403289794921875
 51
90.0
  0
ARC
  5
3DB
330
1F
100
AcDbEntity
  8
0-0
  6
Continuous
 62
     3
370
     9
100
AcDbCircle
 10
-144.8731582229201
 20
112.1351549303212
 30
0.0
 40
1.500000019331236
100
AcDbArc
 50
270.0
 51
0.0
  0
ARC
  5
3DC
330
1F
100
AcDbEntity
  8
0-0
  6
Continuous
 62
     3
370
     9
100
AcDbCircle
 10
-167.3731582229201
 20
112.1351549303212
 30
0.0
 40
1.500000019331236
100
AcDbArc
 50
180.0
 51
270.0
  0
ARC
  5
3DD
330
1F
100
AcDbEntity
  8
0-0
  6
Continuous
 62
     3
370
     9
100
AcDbCircle
 10
-167.3731582229201
 20
134.6351549303212
 30
0.0
 40
1.500000019331236
100
AcDbArc
 50
90.0
 51
180.0
  0
ARC
  5
3DE
330
1F
100
AcDbEntity
  8
0-0
  6
Continuous
 62
     3
370
     9
100
AcDbCircle
 10
-206.8731648213154
 20
134.6351549303212
 30
0.0
 40
1.500000019331236
100
AcDbArc
 50
90.0
 51
180.0
  0
ARC
  5
3DF
330
1F
100
AcDbEntity
  8
0-0
  6
Continuous
 62
     3
370
     9
100
AcDbCircle
 10
-206.8731648213154
 20
112.1351549303212
 30
0.0
 40
1.500000019331236
100
AcDbArc
 50
180.0
 51
270.0
  0
ARC
  5
3E0
330
1F
100
AcDbEntity
  8
0-0
  6
Continuous
 62
     3
370
     9
100
AcDbCircle
 10
-184.3731648213154
 20
112.1351549303212
 30
0.0
 40
1.500000019331236
100
AcDbArc
 50
270.0
 51
0.0
  0
ARC
  5
3E1
330
1F
100
AcDbEntity
  8
0-0
  6
Continuous
 62
     3
370
     9
100
AcDbCircle
 10
-184.3731648213154
 20
134.6351549303212
 30
0.0
 40
1.500000019331236
100
AcDbArc
 50
1.403289794921875
 51
90.0
  0
ARC
  5
3E2
330
1F
100
AcDbEntity
  8
0-0
  6
Continuous
 62
     3
370
     9
100
AcDbCircle
 10
-246.3731714197107
 20
134.6351549303212
 30
0.0
 40
1.500000019331236
100
AcDbArc
 50
90.0
 51
180.0
  0
ARC
  5
3E3
330
1F
100
AcDbEntity
  8
0-0
  6
Continuous
 62
     3
370
     9
100
AcDbCircle
 10
-246.3731714197107
 20
112.1351549303212
 30
0.0
 40
1.500000019331236
100
AcDbArc
 50
180.0
 51
270.0
  0
ARC
  5
3E4
330
1F
100
AcDbEntity
  8
0-0
  6
Continuous
 62
     3
370
     9
100
AcDbCircle
 10
-223.8731714197107
 20
112.1351549303212
 30
0.0
 40
1.500000019331236
100
AcDbArc
 50
270.0
 51
0.0
  0
ARC
  5
3E5
330
1F
100
AcDbEntity
  8
0-0
  6
Continuous
 62
     3
370
     9
100
AcDbCircle
 10
-223.8731714197107
 20
134.6351549303212
 30
0.0
 40
1.500000019331236
100
AcDbArc
 50
7.016464233398438
 51
90.0
  0
ARC
  5
3E6
330
1F
100
AcDbEntity
  8
0-0
  6
Continuous
 62
     3
370
     9
100
AcDbCircle
 10
-263.3731780181059
 20
134.6351549303212
 30
0.0
 40
1.500000019331236
100
AcDbArc
 50
7.016464233398438
 51
90.0
  0
ARC
  5
3E7
330
1F
100
AcDbEntity
  8
0-0
  6
Continuous
 62
     3
370
     9
100
AcDbCircle
 10
-263.3731780181059
 20
112.1351549303212
 30
0.0
 40
1.500000019331236
100
AcDbArc
 50
270.0
 51
0.0
  0
ARC
  5
3E8
330
1F
100
AcDbEntity
  8
0-0
  6
Continuous
 62
     3
370
     9
100
AcDbCircle
 10
-285.8731780181059
 20
112.1351549303212
 30
0.0
 40
1.500000019331236
100
AcDbArc
 50
180.0
 51
270.0
  0
ARC
  5
3E9
330
1F
100
AcDbEntity
  8
0-0
  6
Continuous
 62
     3
370
     9
100
AcDbCircle
 10
-285.8731780181059
 20
134.6351549303212
 30
0.0
 40
1.500000019331236
100
AcDbArc
 50
90.0
 51
180.0
  0
ARC
  5
3EA
330
1F
100
AcDbEntity
  8
0-0
  6
Continuous
 62
     3
370
     9
100
AcDbCircle
 10
-325.3731846165012
 20
134.6351549303212
 30
0.0
 40
1.500000019331236
100
AcDbArc
 50
90.0
 51
180.0
  0
ARC
  5
3EB
330
1F
100
AcDbEntity
  8
0-0
  6
Continuous
 62
     3
370
     9
100
AcDbCircle
 10
-325.3731846165012
 20
112.1351549303212
 30
0.0
 40
1.500000019331236
100
AcDbArc
 50
180.0
 51
270.0
  0
ARC
  5
3EC
330
1F
100
AcDbEntity
  8
0-0
  6
Continuous
 62
     3
370
     9
100
AcDbCircle
 10
-302.8731846165012
 20
112.1351549303212
 30
0.0
 40
1.500000019331236
100
AcDbArc
 50
270.0
 51
0.0
  0
ARC
  5
3ED
330
1F
100
AcDbEntity
  8
0-0
  6
Continuous
 62
     3
370
     9
100
AcDbCircle
 10
-302.8731846165012
 20
134.6351549303212
 30
0.0
 40
1.500000019331236
100
AcDbArc
 50
7.016464233398438
 51
90.0
  0
ARC
  5
3EE
330
1F
100
AcDbEntity
  8
0-0
  6
Continuous
 62
     3
370
     9
100
AcDbCircle
 10
-342.3731912148965
 20
134.6351549303212
 30
0.0
 40
1.500000019331236
100
AcDbArc
 50
7.016464233398438
 51
90.0
  0
ARC
  5
3EF
330
1F
100
AcDbEntity
  8
0-0
  6
Continuous
 62
     3
370
     9
100
AcDbCircle
 10
-342.3731912148965
 20
112.1351549303212
 30
0.0
 40
1.500000019331236
100
AcDbArc
 50
270.0
 51
0.0
  0
ARC
  5
3F0
330
1F
100
AcDbEntity
  8
0-0
  6
Continuous
 62
     3
370
     9
100
AcDbCircle
 10
-364.8731912148965
 20
112.1351549303212
 30
0.0
 40
1.500000019331236
100
AcDbArc
 50
180.0
 51
270.0
  0
ARC
  5
3F1
330
1F
100
AcDbEntity
  8
0-0
  6
Continuous
 62
     3
370
     9
100
AcDbCircle
 10
-364.8731912148965
 20
134.6351549303212
 30
0.0
 40
1.500000019331236
100
AcDbArc
 50
90.0
 51
180.0
  0
ARC
  5
3F2
330
1F
100
AcDbEntity
  8
0-0
  6
Continuous
 62
     3
370
     9
100
AcDbCircle
 10
-404.3731978132918
 20
134.6351549303212
 30
0.0
 40
1.500000019331236
100
AcDbArc
 50
90.0
 51
180.0
  0
ARC
  5
3F3
330
1F
100
AcDbEntity
  8
0-0
  6
Continuous
 62
     3
370
     9
100
AcDbCircle
 10
-404.3731978132918
 20
112.1351549303212
 30
0.0
 40
1.500000019331236
100
AcDbArc
 50
180.0
 51
270.0
  0
ARC
  5
3F4
330
1F
100
AcDbEntity
  8
0-0
  6
Continuous
 62
     3
370
     9
100
AcDbCircle
 10
-381.8731978132918
 20
112.1351549303212
 30
0.0
 40
1.500000019331236
100
AcDbArc
 50
270.0
 51
0.0
  0
ARC
  5
3F5
330
1F
100
AcDbEntity
  8
0-0
  6
Continuous
 62
     3
370
     9
100
AcDbCircle
 10
-381.8731978132918
 20
134.6351549303212
 30
0.0
 40
1.500000019331236
100
AcDbArc
 50
7.016464233398438
 51
90.0
  0
ARC
  5
3F6
330
1F
100
AcDbEntity
  8
0-0
  6
Continuous
 62
     3
370
     9
100
AcDbCircle
 10
-421.373204411687
 20
134.6351549303212
 30
0.0
 40
1.500000019331236
100
AcDbArc
 50
7.016464233398438
 51
90.0
  0
ARC
  5
3F7
330
1F
100
AcDbEntity
  8
0-0
  6
Continuous
 62
     3
370
     9
100
AcDbCircle
 10
-421.373204411687
 20
112.1351549303212
 30
0.0
 40
1.500000019331236
100
AcDbArc
 50
270.0
 51
0.0
  0
ARC
  5
3F8
330
1F
100
AcDbEntity
  8
0-0
  6
Continuous
 62
     3
370
     9
100
AcDbCircle
 10
-443.873204411687
 20
112.1351549303212
 30
0.0
 40
1.500000019331236
100
AcDbArc
 50
180.0
 51
270.0
  0
ARC
  5
3F9
330
1F
100
AcDbEntity
  8
0-0
  6
Continuous
 62
     3
370
     9
100
AcDbCircle
 10
-443.873204411687
 20
134.6351549303212
 30
0.0
 40
1.500000019331236
100
AcDbArc
 50
90.0
 51
180.0
  0
ARC
  5
3FA
330
1F
100
AcDbEntity
  8
0-0
  6
Continuous
 62
     3
370
     9
100
AcDbCircle
 10
-443.873204411687
 20
95.13514833192585
 30
0.0
 40
1.500000019331236
100
AcDbArc
 50
90.0
 51
180.0
  0
ARC
  5
3FB
330
1F
100
AcDbEntity
  8
0-0
  6
Continuous
 62
     3
370
     9
100
AcDbCircle
 10
-443.873204411687
 20
72.63514833192585
 30
0.0
 40
1.500000019331236
100
AcDbArc
 50
180.0
 51
270.0
  0
ARC
  5
3FC
330
1F
100
AcDbEntity
  8
0-0
  6
Continuous
 62
     3
370
     9
100
AcDbCircle
 10
-421.373204411687
 20
72.63514833192585
 30
0.0
 40
1.500000019331236
100
AcDbArc
 50
270.0
 51
0.0
  0
ARC
  5
3FD
330
1F
100
AcDbEntity
  8
0-0
  6
Continuous
 62
     3
370
     9
100
AcDbCircle
 10
-421.373204411687
 20
95.13514833192585
 30
0.0
 40
1.500000019331236
100
AcDbArc
 50
7.016464233398438
 51
90.0
  0
ARC
  5
3FE
330
1F
100
AcDbEntity
  8
0-0
  6
Continuous
 62
     3
370
     9
100
AcDbCircle
 10
-381.8731978132918
 20
95.13514833192585
 30
0.0
 40
1.500000019331236
100
AcDbArc
 50
7.016464233398438
 51
90.0
  0
ARC
  5
3FF
330
1F
100
AcDbEntity
  8
0-0
  6
Continuous
 62
     3
370
     9
100
AcDbCircle
 10
-381.8731978132918
 20
72.63514833192585
 30
0.0
 40
1.500000019331236
100
AcDbArc
 50
270.0
 51
0.0
  0
ARC
  5
400
330
1F
100
AcDbEntity
  8
0-0
  6
Continuous
 62
     3
370
     9
100
AcDbCircle
 10
-404.3731978132918
 20
72.63514833192585
 30
0.0
 40
1.500000019331236
100
AcDbArc
 50
180.0
 51
270.0
  0
ARC
  5
401
330
1F
100
AcDbEntity
  8
0-0
  6
Continuous
 62
     3
370
     9
100
AcDbCircle
 10
-404.3731978132918
 20
95.13514833192585
 30
0.0
 40
1.500000019331236
100
AcDbArc
 50
90.0
 51
180.0
  0
ARC
  5
402
330
1F
100
AcDbEntity
  8
0-0
  6
Continuous
 62
     3
370
     9
100
AcDbCircle
 10
-364.8731912148965
 20
95.13514833192585
 30
0.0
 40
1.500000019331236
100
AcDbArc
 50
90.0
 51
180.0
  0
ARC
  5
403
330
1F
100
AcDbEntity
  8
0-0
  6
Continuous
 62
     3
370
     9
100
AcDbCircle
 10
-364.8731912148965
 20
72.63514833192585
 30
0.0
 40
1.500000019331236
100
AcDbArc
 50
180.0
 51
270.0
  0
ARC
  5
404
330
1F
100
AcDbEntity
  8
0-0
  6
Continuous
 62
     3
370
     9
100
AcDbCircle
 10
-342.3731912148965
 20
72.63514833192585
 30
0.0
 40
1.500000019331236
100
AcDbArc
 50
270.0
 51
0.0
  0
ARC
  5
405
330
1F
100
AcDbEntity
  8
0-0
  6
Continuous
 62
     3
370
     9
100
AcDbCircle
 10
-342.3731912148965
 20
95.13514833192585
 30
0.0
 40
1.500000019331236
100
AcDbArc
 50
7.016464233398438
 51
90.0
  0
ARC
  5
406
330
1F
100
AcDbEntity
  8
0-0
  6
Continuous
 62
     3
370
     9
100
AcDbCircle
 10
-302.8731846165012
 20
95.13514833192585
 30
0.0
 40
1.500000019331236
100
AcDbArc
 50
7.016464233398438
 51
90.0
  0
ARC
  5
407
330
1F
100
AcDbEntity
  8
0-0
  6
Continuous
 62
     3
370
     9
100
AcDbCircle
 10
-302.8731846165012
 20
72.63514833192585
 30
0.0
 40
1.500000019331236
100
AcDbArc
 50
270.0
 51
0.0
  0
ARC
  5
408
330
1F
100
AcDbEntity
  8
0-0
  6
Continuous
 62
     3
370
     9
100
AcDbCircle
 10
-325.3731846165012
 20
72.63514833192585
 30
0.0
 40
1.500000019331236
100
AcDbArc
 50
180.0
 51
270.0
  0
ARC
  5
409
330
1F
100
AcDbEntity
  8
0-0
  6
Continuous
 62
     3
370
     9
100
AcDbCircle
 10
-325.3731846165012
 20
95.13514833192585
 30
0.0
 40
1.500000019331236
100
AcDbArc
 50
90.0
 51
180.0
  0
ARC
  5
40A
330
1F
100
AcDbEntity
  8
0-0
  6
Continuous
 62
     3
370
     9
100
AcDbCircle
 10
-285.8731780181059
 20
95.13514833192585
 30
0.0
 40
1.500000019331236
100
AcDbArc
 50
90.0
 51
180.0
  0
ARC
  5
40B
330
1F
100
AcDbEntity
  8
0-0
  6
Continuous
 62
     3
370
     9
100
AcDbCircle
 10
-285.8731780181059
 20
72.63514833192585
 30
0.0
 40
1.500000019331236
100
AcDbArc
 50
180.0
 51
270.0
  0
ARC
  5
40C
330
1F
100
AcDbEntity
  8
0-0
  6
Continuous
 62
     3
370
     9
100
AcDbCircle
 10
-263.3731780181059
 20
72.63514833192585
 30
0.0
 40
1.500000019331236
100
AcDbArc
 50
270.0
 51
0.0
  0
ARC
  5
40D
330
1F
100
AcDbEntity
  8
0-0
  6
Continuous
 62
     3
370
     9
100
AcDbCircle
 10
-263.3731780181059
 20
95.13514833192585
 30
0.0
 40
1.500000019331236
100
AcDbArc
 50
7.016464233398438
 51
90.0
  0
ARC
  5
40E
330
1F
100
AcDbEntity
  8
0-0
  6
Continuous
 62
     3
370
     9
100
AcDbCircle
 10
-223.8731714197107
 20
95.13514833192585
 30
0.0
 40
1.500000019331236
100
AcDbArc
 50
7.016464233398438
 51
90.0
  0
ARC
  5
40F
330
1F
100
AcDbEntity
  8
0-0
  6
Continuous
 62
     3
370
     9
100
AcDbCircle
 10
-223.8731714197107
 20
72.63514833192585
 30
0.0
 40
1.500000019331236
100
AcDbArc
 50
270.0
 51
0.0
  0
ARC
  5
410
330
1F
100
AcDbEntity
  8
0-0
  6
Continuous
 62
     3
370
     9
100
AcDbCircle
 10
-246.3731714197107
 20
72.63514833192585
 30
0.0
 40
1.500000019331236
100
AcDbArc
 50
180.0
 51
270.0
  0
ARC
  5
411
330
1F
100
AcDbEntity
  8
0-0
  6
Continuous
 62
     3
370
     9
100
AcDbCircle
 10
-246.3731714197107
 20
95.13514833192585
 30
0.0
 40
1.500000019331236
100
AcDbArc
 50
90.0
 51
180.0
  0
ARC
  5
412
330
1F
100
AcDbEntity
  8
0-0
  6
Continuous
 62
     3
370
     9
100
AcDbCircle
 10
-246.3731714197107
 20
55.63514173353053
 30
0.0
 40
1.500000019331236
100
AcDbArc
 50
90.0
 51
180.0
  0
ARC
  5
413
330
1F
100
AcDbEntity
  8
0-0
  6
Continuous
 62
     3
370
     9
100
AcDbCircle
 10
-246.3731714197107
 20
33.13514173353053
 30
0.0
 40
1.500000019331236
100
AcDbArc
 50
180.0
 51
270.0
  0
ARC
  5
414
330
1F
100
AcDbEntity
  8
0-0
  6
Continuous
 62
     3
370
     9
100
AcDbCircle
 10
-223.8731714197107
 20
33.13514173353053
 30
0.0
 40
1.500000019331236
100
AcDbArc
 50
270.0
 51
0.0
  0
ARC
  5
415
330
1F
100
AcDbEntity
  8
0-0
  6
Continuous
 62
     3
370
     9
100
AcDbCircle
 10
-223.8731714197107
 20
55.63514173353053
 30
0.0
 40
1.500000019331236
100
AcDbArc
 50
7.016464233398438
 51
90.0
  0
ARC
  5
416
330
1F
100
AcDbEntity
  8
0-0
  6
Continuous
 62
     3
370
     9
100
AcDbCircle
 10
-263.3731780181059
 20
55.63514173353053
 30
0.0
 40
1.500000019331236
100
AcDbArc
 50
7.016464233398438
 51
90.0
  0
ARC
  5
417
330
1F
100
AcDbEntity
  8
0-0
  6
Continuous
 62
     3
370
     9
100
AcDbCircle
 10
-263.3731780181059
 20
33.13514173353053
 30
0.0
 40
1.500000019331236
100
AcDbArc
 50
270.0
 51
0.0
  0
ARC
  5
418
330
1F
100
AcDbEntity
  8
0-0
  6
Continuous
 62
     3
370
     9
100
AcDbCircle
 10
-285.8731780181059
 20
33.13514173353053
 30
0.0
 40
1.500000019331236
100
AcDbArc
 50
180.0
 51
270.0
  0
ARC
  5
419
330
1F
100
AcDbEntity
  8
0-0
  6
Continuous
 62
     3
370
     9
100
AcDbCircle
 10
-285.8731780181059
 20
55.63514173353053
 30
0.0
 40
1.500000019331236
100
AcDbArc
 50
90.0
 51
180.0
  0
ARC
  5
41A
330
1F
100
AcDbEntity
  8
0-0
  6
Continuous
 62
     3
370
     9
100
AcDbCircle
 10
-325.3731846165012
 20
55.63514173353053
 30
0.0
 40
1.500000019331236
100
AcDbArc
 50
90.0
 51
180.0
  0
ARC
  5
41B
330
1F
100
AcDbEntity
  8
0-0
  6
Continuous
 62
     3
370
     9
100
AcDbCircle
 10
-325.3731846165012
 20
33.13514173353053
 30
0.0
 40
1.500000019331236
100
AcDbArc
 50
180.0
 51
270.0
  0
ARC
  5
41C
330
1F
100
AcDbEntity
  8
0-0
  6
Continuous
 62
     3
370
     9
100
AcDbCircle
 10
-302.8731846165012
 20
33.13514173353053
 30
0.0
 40
1.500000019331236
100
AcDbArc
 50
270.0
 51
0.0
  0
ARC
  5
41D
330
1F
100
AcDbEntity
  8
0-0
  6
Continuous
 62
     3
370
     9
100
AcDbCircle
 10
-302.8731846165012
 20
55.63514173353053
 30
0.0
 40
1.500000019331236
100
AcDbArc
 50
7.016464233398438
 51
90.0
  0
ARC
  5
41E
330
1F
100
AcDbEntity
  8
0-0
  6
Continuous
 62
     3
370
     9
100
AcDbCircle
 10
-342.3731912148965
 20
55.63514173353053
 30
0.0
 40
1.500000019331236
100
AcDbArc
 50
7.016464233398438
 51
90.0
  0
ARC
  5
41F
330
1F
100
AcDbEntity
  8
0-0
  6
Continuous
 62
     3
370
     9
100
AcDbCircle
 10
-342.3731912148965
 20
33.13514173353053
 30
0.0
 40
1.500000019331236
100
AcDbArc
 50
270.0
 51
0.0
  0
ARC
  5
420
330
1F
100
AcDbEntity
  8
0-0
  6
Continuous
 62
     3
370
     9
100
AcDbCircle
 10
-364.8731912148965
 20
33.13514173353053
 30
0.0
 40
1.500000019331236
100
AcDbArc
 50
180.0
 51
270.0
  0
ARC
  5
421
330
1F
100
AcDbEntity
  8
0-0
  6
Continuous
 62
     3
370
     9
100
AcDbCircle
 10
-364.8731912148965
 20
55.63514173353053
 30
0.0
 40
1.500000019331236
100
AcDbArc
 50
90.0
 51
180.0
  0
ARC
  5
422
330
1F
100
AcDbEntity
  8
0-0
  6
Continuous
 62
     3
370
     9
100
AcDbCircle
 10
-404.3731978132918
 20
55.63514173353053
 30
0.0
 40
1.500000019331236
100
AcDbArc
 50
90.0
 51
180.0
  0
ARC
  5
423
330
1F
100
AcDbEntity
  8
0-0
  6
Continuous
 62
     3
370
     9
100
AcDbCircle
 10
-404.3731978132918
 20
33.13514173353053
 30
0.0
 40
1.500000019331236
100
AcDbArc
 50
180.0
 51
270.0
  0
ARC
  5
424
330
1F
100
AcDbEntity
  8
0-0
  6
Continuous
 62
     3
370
     9
100
AcDbCircle
 10
-381.8731978132918
 20
33.13514173353053
 30
0.0
 40
1.500000019331236
100
AcDbArc
 50
270.0
 51
0.0
  0
ARC
  5
425
330
1F
100
AcDbEntity
  8
0-0
  6
Continuous
 62
     3
370
     9
100
AcDbCircle
 10
-381.8731978132918
 20
55.63514173353053
 30
0.0
 40
1.500000019331236
100
AcDbArc
 50
7.016464233398438
 51
90.0
  0
ARC
  5
426
330
1F
100
AcDbEntity
  8
0-0
  6
Continuous
 62
     3
370
     9
100
AcDbCircle
 10
-421.373204411687
 20
55.63514173353053
 30
0.0
 40
1.500000019331236
100
AcDbArc
 50
7.016464233398438
 51
90.0
  0
ARC
  5
427
330
1F
100
AcDbEntity
  8
0-0
  6
Continuous
 62
     3
370
     9
100
AcDbCircle
 10
-421.373204411687
 20
33.13514173353053
 30
0.0
 40
1.500000019331236
100
AcDbArc
 50
270.0
 51
0.0
  0
ARC
  5
428
330
1F
100
AcDbEntity
  8
0-0
  6
Continuous
 62
     3
370
     9
100
AcDbCircle
 10
-443.873204411687
 20
33.13514173353053
 30
0.0
 40
1.500000019331236
100
AcDbArc
 50
180.0
 51
270.0
  0
ARC
  5
429
330
1F
100
AcDbEntity
  8
0-0
  6
Continuous
 62
     3
370
     9
100
AcDbCircle
 10
-443.873204411687
 20
55.63514173353053
 30
0.0
 40
1.500000019331236
100
AcDbArc
 50
90.0
 51
180.0
  0
ARC
  5
42A
330
1F
100
AcDbEntity
  8
0-0
  6
Continuous
 62
     3
370
     9
100
AcDbCircle
 10
-443.873204411687
 20
16.1351846230998
 30
0.0
 40
1.500000019331236
100
AcDbArc
 50
90.0
 51
180.0
  0
ARC
  5
42B
330
1F
100
AcDbEntity
  8
0-0
  6
Continuous
 62
     3
370
     9
100
AcDbCircle
 10
-443.873204411687
 20
-6.364815376900196
 30
0.0
 40
1.500000019331236
100
AcDbArc
 50
180.0
 51
270.0
  0
ARC
  5
42C
330
1F
100
AcDbEntity
  8
0-0
  6
Continuous
 62
     3
370
     9
100
AcDbCircle
 10
-421.373204411687
 20
-6.364815376900196
 30
0.0
 40
1.500000019331236
100
AcDbArc
 50
270.0
 51
0.0
  0
ARC
  5
42D
330
1F
100
AcDbEntity
  8
0-0
  6
Continuous
 62
     3
370
     9
100
AcDbCircle
 10
-421.373204411687
 20
16.1351846230998
 30
0.0
 40
1.500000019331236
100
AcDbArc
 50
7.016464233398438
 51
90.0
  0
ARC
  5
42E
330
1F
100
AcDbEntity
  8
0-0
  6
Continuous
 62
     3
370
     9
100
AcDbCircle
 10
-381.8731978132918
 20
16.1351846230998
 30
0.0
 40
1.500000019331236
100
AcDbArc
 50
7.016464233398438
 51
90.0
  0
ARC
  5
42F
330
1F
100
AcDbEntity
  8
0-0
  6
Continuous
 62
     3
370
     9
100
AcDbCircle
 10
-381.8731978132918
 20
-6.364815376900196
 30
0.0
 40
1.500000019331236
100
AcDbArc
 50
270.0
 51
0.0
  0
ARC
  5
430
330
1F
100
AcDbEntity
  8
0-0
  6
Continuous
 62
     3
370
     9
100
AcDbCircle
 10
-404.3731978132918
 20
-6.364815376900196
 30
0.0
 40
1.500000019331236
100
AcDbArc
 50
180.0
 51
270.0
  0
ARC
  5
431
330
1F
100
AcDbEntity
  8
0-0
  6
Continuous
 62
     3
370
     9
100
AcDbCircle
 10
-404.3731978132918
 20
16.1351846230998
 30
0.0
 40
1.500000019331236
100
AcDbArc
 50
90.0
 51
180.0
  0
ARC
  5
432
330
1F
100
AcDbEntity
  8
0-0
  6
Continuous
 62
     3
370
     9
100
AcDbCircle
 10
-364.8731912148965
 20
16.1351846230998
 30
0.0
 40
1.500000019331236
100
AcDbArc
 50
90.0
 51
180.0
  0
ARC
  5
433
330
1F
100
AcDbEntity
  8
0-0
  6
Continuous
 62
     3
370
     9
100
AcDbCircle
 10
-364.8731912148965
 20
-6.364815376900196
 30
0.0
 40
1.500000019331236
100
AcDbArc
 50
180.0
 51
270.0
  0
ARC
  5
434
330
1F
100
AcDbEntity
  8
0-0
  6
Continuous
 62
     3
370
     9
100
AcDbCircle
 10
-342.3731912148965
 20
-6.364815376900196
 30
0.0
 40
1.500000019331236
100
AcDbArc
 50
270.0
 51
0.0
  0
ARC
  5
435
330
1F
100
AcDbEntity
  8
0-0
  6
Continuous
 62
     3
370
     9
100
AcDbCircle
 10
-342.3731912148965
 20
16.1351846230998
 30
0.0
 40
1.500000019331236
100
AcDbArc
 50
7.016464233398438
 51
90.0
  0
ARC
  5
436
330
1F
100
AcDbEntity
  8
0-0
  6
Continuous
 62
     3
370
     9
100
AcDbCircle
 10
-302.8731846165012
 20
16.1351846230998
 30
0.0
 40
1.500000019331236
100
AcDbArc
 50
7.016464233398438
 51
90.0
  0
ARC
  5
437
330
1F
100
AcDbEntity
  8
0-0
  6
Continuous
 62
     3
370
     9
100
AcDbCircle
 10
-302.8731846165012
 20
-6.364815376900196
 30
0.0
 40
1.500000019331236
100
AcDbArc
 50
270.0
 51
0.0
  0
ARC
  5
438
330
1F
100
AcDbEntity
  8
0-0
  6
Continuous
 62
     3
370
     9
100
AcDbCircle
 10
-325.3731846165012
 20
-6.364815376900196
 30
0.0
 40
1.500000019331236
100
AcDbArc
 50
180.0
 51
270.0
  0
ARC
  5
439
330
1F
100
AcDbEntity
  8
0-0
  6
Continuous
 62
     3
370
     9
100
AcDbCircle
 10
-325.3731846165012
 20
16.1351846230998
 30
0.0
 40
1.500000019331236
100
AcDbArc
 50
90.0
 51
180.0
  0
ARC
  5
43A
330
1F
100
AcDbEntity
  8
0-0
  6
Continuous
 62
     3
370
     9
100
AcDbCircle
 10
-285.8731780181059
 20
16.1351846230998
 30
0.0
 40
1.500000019331236
100
AcDbArc
 50
90.0
 51
180.0
  0
ARC
  5
43B
330
1F
100
AcDbEntity
  8
0-0
  6
Continuous
 62
     3
370
     9
100
AcDbCircle
 10
-285.8731780181059
 20
-6.364815376900196
 30
0.0
 40
1.500000019331236
100
AcDbArc
 50
180.0
 51
270.0
  0
ARC
  5
43C
330
1F
100
AcDbEntity
  8
0-0
  6
Continuous
 62
     3
370
     9
100
AcDbCircle
 10
-263.3731780181059
 20
-6.364815376900196
 30
0.0
 40
1.500000019331236
100
AcDbArc
 50
270.0
 51
0.0
  0
ARC
  5
43D
330
1F
100
AcDbEntity
  8
0-0
  6
Continuous
 62
     3
370
     9
100
AcDbCircle
 10
-263.3731780181059
 20
16.1351846230998
 30
0.0
 40
1.500000019331236
100
AcDbArc
 50
7.016464233398438
 51
90.0
  0
ARC
  5
43E
330
1F
100
AcDbEntity
  8
0-0
  6
Continuous
 62
     3
370
     9
100
AcDbCircle
 10
-223.8731714197107
 20
16.1351846230998
 30
0.0
 40
1.500000019331236
100
AcDbArc
 50
7.016464233398438
 51
90.0
  0
ARC
  5
43F
330
1F
100
AcDbEntity
  8
0-0
  6
Continuous
 62
     3
370
     9
100
AcDbCircle
 10
-223.8731714197107
 20
-6.364815376900196
 30
0.0
 40
1.500000019331236
100
AcDbArc
 50
270.0
 51
0.0
  0
ARC
  5
440
330
1F
100
AcDbEntity
  8
0-0
  6
Continuous
 62
     3
370
     9
100
AcDbCircle
 10
-246.3731714197107
 20
-6.364815376900196
 30
0.0
 40
1.500000019331236
100
AcDbArc
 50
180.0
 51
270.0
  0
ARC
  5
441
330
1F
100
AcDbEntity
  8
0-0
  6
Continuous
 62
     3
370
     9
100
AcDbCircle
 10
-246.3731714197107
 20
16.1351846230998
 30
0.0
 40
1.500000019331236
100
AcDbArc
 50
90.0
 51
180.0
  0
ARC
  5
442
330
1F
100
AcDbEntity
  8
0-0
  6
Continuous
 62
     3
370
     9
100
AcDbCircle
 10
-246.3731714197107
 20
-23.3648219752954
 30
0.0
 40
1.500000019331236
100
AcDbArc
 50
90.0
 51
180.0
  0
ARC
  5
443
330
1F
100
AcDbEntity
  8
0-0
  6
Continuous
 62
     3
370
     9
100
AcDbCircle
 10
-246.3731714197107
 20
-45.8648219752954
 30
0.0
 40
1.500000019331236
100
AcDbArc
 50
180.0
 51
270.0
  0
ARC
  5
444
330
1F
100
AcDbEntity
  8
0-0
  6
Continuous
 62
     3
370
     9
100
AcDbCircle
 10
-223.8731714197107
 20
-45.8648219752954
 30
0.0
 40
1.500000019331236
100
AcDbArc
 50
270.0
 51
0.0
  0
ARC
  5
445
330
1F
100
AcDbEntity
  8
0-0
  6
Continuous
 62
     3
370
     9
100
AcDbCircle
 10
-223.8731714197107
 20
-23.3648219752954
 30
0.0
 40
1.500000019331236
100
AcDbArc
 50
7.016464233398438
 51
90.0
  0
ARC
  5
446
330
1F
100
AcDbEntity
  8
0-0
  6
Continuous
 62
     3
370
     9
100
AcDbCircle
 10
-263.3731780181059
 20
-23.3648219752954
 30
0.0
 40
1.500000019331236
100
AcDbArc
 50
7.016464233398438
 51
90.0
  0
ARC
  5
447
330
1F
100
AcDbEntity
  8
0-0
  6
Continuous
 62
     3
370
     9
100
AcDbCircle
 10
-263.3731780181059
 20
-45.8648219752954
 30
0.0
 40
1.500000019331236
100
AcDbArc
 50
270.0
 51
0.0
  0
ARC
  5
448
330
1F
100
AcDbEntity
  8
0-0
  6
Continuous
 62
     3
370
     9
100
AcDbCircle
 10
-285.8731780181059
 20
-45.8648219752954
 30
0.0
 40
1.500000019331236
100
AcDbArc
 50
180.0
 51
270.0
  0
ARC
  5
449
330
1F
100
AcDbEntity
  8
0-0
  6
Continuous
 62
     3
370
     9
100
AcDbCircle
 10
-285.8731780181059
 20
-23.3648219752954
 30
0.0
 40
1.500000019331236
100
AcDbArc
 50
90.0
 51
180.0
  0
ARC
  5
44A
330
1F
100
AcDbEntity
  8
0-0
  6
Continuous
 62
     3
370
     9
100
AcDbCircle
 10
-325.3731846165012
 20
-23.3648219752954
 30
0.0
 40
1.500000019331236
100
AcDbArc
 50
90.0
 51
180.0
  0
ARC
  5
44B
330
1F
100
AcDbEntity
  8
0-0
  6
Continuous
 62
     3
370
     9
100
AcDbCircle
 10
-325.3731846165012
 20
-45.8648219752954
 30
0.0
 40
1.500000019331236
100
AcDbArc
 50
180.0
 51
270.0
  0
ARC
  5
44C
330
1F
100
AcDbEntity
  8
0-0
  6
Continuous
 62
     3
370
     9
100
AcDbCircle
 10
-302.8731846165012
 20
-45.8648219752954
 30
0.0
 40
1.500000019331236
100
AcDbArc
 50
270.0
 51
0.0
  0
ARC
  5
44D
330
1F
100
AcDbEntity
  8
0-0
  6
Continuous
 62
     3
370
     9
100
AcDbCircle
 10
-302.8731846165012
 20
-23.3648219752954
 30
0.0
 40
1.500000019331236
100
AcDbArc
 50
7.016464233398438
 51
90.0
  0
ARC
  5
44E
330
1F
100
AcDbEntity
  8
0-0
  6
Continuous
 62
     3
370
     9
100
AcDbCircle
 10
-342.3731912148965
 20
-23.3648219752954
 30
0.0
 40
1.500000019331236
100
AcDbArc
 50
7.016464233398438
 51
90.0
  0
ARC
  5
44F
330
1F
100
AcDbEntity
  8
0-0
  6
Continuous
 62
     3
370
     9
100
AcDbCircle
 10
-342.3731912148965
 20
-45.8648219752954
 30
0.0
 40
1.500000019331236
100
AcDbArc
 50
270.0
 51
0.0
  0
ARC
  5
450
330
1F
100
AcDbEntity
  8
0-0
  6
Continuous
 62
     3
370
     9
100
AcDbCircle
 10
-364.8731912148965
 20
-45.8648219752954
 30
0.0
 40
1.500000019331236
100
AcDbArc
 50
180.0
 51
270.0
  0
ARC
  5
451
330
1F
100
AcDbEntity
  8
0-0
  6
Continuous
 62
     3
370
     9
100
AcDbCircle
 10
-364.8731912148965
 20
-23.3648219752954
 30
0.0
 40
1.500000019331236
100
AcDbArc
 50
90.0
 51
180.0
  0
ARC
  5
452
330
1F
100
AcDbEntity
  8
0-0
  6
Continuous
 62
     3
370
     9
100
AcDbCircle
 10
-404.3731978132918
 20
-23.3648219752954
 30
0.0
 40
1.500000019331236
100
AcDbArc
 50
90.0
 51
180.0
  0
ARC
  5
453
330
1F
100
AcDbEntity
  8
0-0
  6
Continuous
 62
     3
370
     9
100
AcDbCircle
 10
-404.3731978132918
 20
-45.8648219752954
 30
0.0
 40
1.500000019331236
100
AcDbArc
 50
180.0
 51
270.0
  0
ARC
  5
454
330
1F
100
AcDbEntity
  8
0-0
  6
Continuous
 62
     3
370
     9
100
AcDbCircle
 10
-381.8731978132918
 20
-45.8648219752954
 30
0.0
 40
1.500000019331236
100
AcDbArc
 50
270.0
 51
0.0
  0
ARC
  5
455
330
1F
100
AcDbEntity
  8
0-0
  6
Continuous
 62
     3
370
     9
100
AcDbCircle
 10
-381.8731978132918
 20
-23.3648219752954
 30
0.0
 40
1.500000019331236
100
AcDbArc
 50
7.016464233398438
 51
90.0
  0
ARC
  5
456
330
1F
100
AcDbEntity
  8
0-0
  6
Continuous
 62
     3
370
     9
100
AcDbCircle
 10
-421.373204411687
 20
-23.3648219752954
 30
0.0
 40
1.500000019331236
100
AcDbArc
 50
7.016464233398438
 51
90.0
  0
ARC
  5
457
330
1F
100
AcDbEntity
  8
0-0
  6
Continuous
 62
     3
370
     9
100
AcDbCircle
 10
-421.373204411687
 20
-45.8648219752954
 30
0.0
 40
1.500000019331236
100
AcDbArc
 50
270.0
 51
0.0
  0
ARC
  5
458
330
1F
100
AcDbEntity
  8
0-0
  6
Continuous
 62
     3
370
     9
100
AcDbCircle
 10
-443.873204411687
 20
-45.8648219752954
 30
0.0
 40
1.500000019331236
100
AcDbArc
 50
180.0
 51
270.0
  0
ARC
  5
459
330
1F
100
AcDbEntity
  8
0-0
  6
Continuous
 62
     3
370
     9
100
AcDbCircle
 10
-443.873204411687
 20
-23.3648219752954
 30
0.0
 40
1.500000019331236
100
AcDbArc
 50
90.0
 51
180.0
  0
ARC
  5
45A
330
1F
100
AcDbEntity
  8
0-0
  6
Continuous
 62
     3
370
     9
100
AcDbCircle
 10
-443.873204411687
 20
-62.86482857369072
 30
0.0
 40
1.500000019331236
100
AcDbArc
 50
90.0
 51
180.0
  0
ARC
  5
45B
330
1F
100
AcDbEntity
  8
0-0
  6
Continuous
 62
     3
370
     9
100
AcDbCircle
 10
-443.873204411687
 20
-85.36482857369072
 30
0.0
 40
1.500000019331236
100
AcDbArc
 50
180.0
 51
270.0
  0
ARC
  5
45C
330
1F
100
AcDbEntity
  8
0-0
  6
Continuous
 62
     3
370
     9
100
AcDbCircle
 10
-421.373204411687
 20
-85.36482857369072
 30
0.0
 40
1.500000019331236
100
AcDbArc
 50
270.0
 51
0.0
  0
ARC
  5
45D
330
1F
100
AcDbEntity
  8
0-0
  6
Continuous
 62
     3
370
     9
100
AcDbCircle
 10
-421.373204411687
 20
-62.86482857369072
 30
0.0
 40
1.500000019331236
100
AcDbArc
 50
7.016464233398438
 51
90.0
  0
ARC
  5
45E
330
1F
100
AcDbEntity
  8
0-0
  6
Continuous
 62
     3
370
     9
100
AcDbCircle
 10
-381.8731978132918
 20
-62.86482857369072
 30
0.0
 40
1.500000019331236
100
AcDbArc
 50
7.016464233398438
 51
90.0
  0
ARC
  5
45F
330
1F
100
AcDbEntity
  8
0-0
  6
Continuous
 62
     3
370
     9
100
AcDbCircle
 10
-381.8731978132918
 20
-85.36482857369072
 30
0.0
 40
1.500000019331236
100
AcDbArc
 50
270.0
 51
0.0
  0
ARC
  5
460
330
1F
100
AcDbEntity
  8
0-0
  6
Continuous
 62
     3
370
     9
100
AcDbCircle
 10
-404.3731978132918
 20
-85.36482857369072
 30
0.0
 40
1.500000019331236
100
AcDbArc
 50
180.0
 51
270.0
  0
ARC
  5
461
330
1F
100
AcDbEntity
  8
0-0
  6
Continuous
 62
     3
370
     9
100
AcDbCircle
 10
-404.3731978132918
 20
-62.86482857369072
 30
0.0
 40
1.500000019331236
100
AcDbArc
 50
90.0
 51
180.0
  0
ARC
  5
462
330
1F
100
AcDbEntity
  8
0-0
  6
Continuous
 62
     3
370
     9
100
AcDbCircle
 10
-364.8731912148965
 20
-62.86482857369072
 30
0.0
 40
1.500000019331236
100
AcDbArc
 50
90.0
 51
180.0
  0
ARC
  5
463
330
1F
100
AcDbEntity
  8
0-0
  6
Continuous
 62
     3
370
     9
100
AcDbCircle
 10
-364.8731912148965
 20
-85.36482857369072
 30
0.0
 40
1.500000019331236
100
AcDbArc
 50
180.0
 51
270.0
  0
ARC
  5
464
330
1F
100
AcDbEntity
  8
0-0
  6
Continuous
 62
     3
370
     9
100
AcDbCircle
 10
-342.3731912148965
 20
-85.36482857369072
 30
0.0
 40
1.500000019331236
100
AcDbArc
 50
270.0
 51
0.0
  0
ARC
  5
465
330
1F
100
AcDbEntity
  8
0-0
  6
Continuous
 62
     3
370
     9
100
AcDbCircle
 10
-342.3731912148965
 20
-62.86482857369072
 30
0.0
 40
1.500000019331236
100
AcDbArc
 50
7.016464233398438
 51
90.0
  0
ARC
  5
466
330
1F
100
AcDbEntity
  8
0-0
  6
Continuous
 62
     3
370
     9
100
AcDbCircle
 10
-302.8731846165012
 20
-62.86482857369072
 30
0.0
 40
1.500000019331236
100
AcDbArc
 50
7.016464233398438
 51
90.0
  0
ARC
  5
467
330
1F
100
AcDbEntity
  8
0-0
  6
Continuous
 62
     3
370
     9
100
AcDbCircle
 10
-302.8731846165012
 20
-85.36482857369072
 30
0.0
 40
1.500000019331236
100
AcDbArc
 50
270.0
 51
0.0
  0
ARC
  5
468
330
1F
100
AcDbEntity
  8
0-0
  6
Continuous
 62
     3
370
     9
100
AcDbCircle
 10
-325.3731846165012
 20
-85.36482857369072
 30
0.0
 40
1.500000019331236
100
AcDbArc
 50
180.0
 51
270.0
  0
ARC
  5
469
330
1F
100
AcDbEntity
  8
0-0
  6
Continuous
 62
     3
370
     9
100
AcDbCircle
 10
-325.3731846165012
 20
-62.86482857369072
 30
0.0
 40
1.500000019331236
100
AcDbArc
 50
90.0
 51
180.0
  0
ARC
  5
46A
330
1F
100
AcDbEntity
  8
0-0
  6
Continuous
 62
     3
370
     9
100
AcDbCircle
 10
-285.8731780181059
 20
-62.86482857369072
 30
0.0
 40
1.500000019331236
100
AcDbArc
 50
90.0
 51
180.0
  0
ARC
  5
46B
330
1F
100
AcDbEntity
  8
0-0
  6
Continuous
 62
     3
370
     9
100
AcDbCircle
 10
-285.8731780181059
 20
-85.36482857369072
 30
0.0
 40
1.500000019331236
100
AcDbArc
 50
180.0
 51
270.0
  0
ARC
  5
46C
330
1F
100
AcDbEntity
  8
0-0
  6
Continuous
 62
     3
370
     9
100
AcDbCircle
 10
-263.3731780181059
 20
-85.36482857369072
 30
0.0
 40
1.500000019331236
100
AcDbArc
 50
270.0
 51
0.0
  0
ARC
  5
46D
330
1F
100
AcDbEntity
  8
0-0
  6
Continuous
 62
     3
370
     9
100
AcDbCircle
 10
-263.3731780181059
 20
-62.86482857369072
 30
0.0
 40
1.500000019331236
100
AcDbArc
 50
7.016464233398438
 51
90.0
  0
ARC
  5
46E
330
1F
100
AcDbEntity
  8
0-0
  6
Continuous
 62
     3
370
     9
100
AcDbCircle
 10
-223.8731714197107
 20
-62.86482857369072
 30
0.0
 40
1.500000019331236
100
AcDbArc
 50
7.016464233398438
 51
90.0
  0
ARC
  5
46F
330
1F
100
AcDbEntity
  8
0-0
  6
Continuous
 62
     3
370
     9
100
AcDbCircle
 10
-223.8731714197107
 20
-85.36482857369072
 30
0.0
 40
1.500000019331236
100
AcDbArc
 50
270.0
 51
0.0
  0
ARC
  5
470
330
1F
100
AcDbEntity
  8
0-0
  6
Continuous
 62
     3
370
     9
100
AcDbCircle
 10
-246.3731714197107
 20
-85.36482857369072
 30
0.0
 40
1.500000019331236
100
AcDbArc
 50
180.0
 51
270.0
  0
ARC
  5
471
330
1F
100
AcDbEntity
  8
0-0
  6
Continuous
 62
     3
370
     9
100
AcDbCircle
 10
-246.3731714197107
 20
-62.86482857369072
 30
0.0
 40
1.500000019331236
100
AcDbArc
 50
90.0
 51
180.0
  0
ARC
  5
472
330
1F
100
AcDbEntity
  8
0-0
  6
Continuous
 62
     3
370
     9
100
AcDbCircle
 10
-246.3731714197107
 20
349.1351945206927
 30
0.0
 40
1.500000019331236
100
AcDbArc
 50
180.0
 51
270.0
  0
ARC
  5
473
330
1F
100
AcDbEntity
  8
0-0
  6
Continuous
 62
     3
370
     9
100
AcDbCircle
 10
-246.3731714197107
 20
371.6351945206927
 30
0.0
 40
1.500000019331236
100
AcDbArc
 50
90.0
 51
180.0
  0
ARC
  5
474
330
1F
100
AcDbEntity
  8
0-0
  6
Continuous
 62
     3
370
     9
100
AcDbCircle
 10
-223.8731714197107
 20
371.6351945206927
 30
0.0
 40
1.500000019331236
100
AcDbArc
 50
1.403289794921875
 51
90.0
  0
ARC
  5
475
330
1F
100
AcDbEntity
  8
0-0
  6
Continuous
 62
     3
370
     9
100
AcDbCircle
 10
-223.8731714197107
 20
349.1351945206927
 30
0.0
 40
1.500000019331236
100
AcDbArc
 50
270.0
 51
0.0
  0
ARC
  5
476
330
1F
100
AcDbEntity
  8
0-0
  6
Continuous
 62
     3
370
     9
100
AcDbCircle
 10
-263.3731780181059
 20
349.1351945206927
 30
0.0
 40
1.500000019331236
100
AcDbArc
 50
270.0
 51
0.0
  0
ARC
  5
477
330
1F
100
AcDbEntity
  8
0-0
  6
Continuous
 62
     3
370
     9
100
AcDbCircle
 10
-263.3731780181059
 20
371.6351945206927
 30
0.0
 40
1.500000019331236
100
AcDbArc
 50
1.403289794921875
 51
90.0
  0
ARC
  5
478
330
1F
100
AcDbEntity
  8
0-0
  6
Continuous
 62
     3
370
     9
100
AcDbCircle
 10
-285.8731780181059
 20
371.6351945206927
 30
0.0
 40
1.500000019331236
100
AcDbArc
 50
90.0
 51
180.0
  0
ARC
  5
479
330
1F
100
AcDbEntity
  8
0-0
  6
Continuous
 62
     3
370
     9
100
AcDbCircle
 10
-285.8731780181059
 20
349.1351945206927
 30
0.0
 40
1.500000019331236
100
AcDbArc
 50
180.0
 51
270.0
  0
ARC
  5
47A
330
1F
100
AcDbEntity
  8
0-0
  6
Continuous
 62
     3
370
     9
100
AcDbCircle
 10
-325.3731846165012
 20
349.1351945206927
 30
0.0
 40
1.500000019331236
100
AcDbArc
 50
180.0
 51
270.0
  0
ARC
  5
47B
330
1F
100
AcDbEntity
  8
0-0
  6
Continuous
 62
     3
370
     9
100
AcDbCircle
 10
-325.3731846165012
 20
371.6351945206927
 30
0.0
 40
1.500000019331236
100
AcDbArc
 50
90.0
 51
180.0
  0
ARC
  5
47C
330
1F
100
AcDbEntity
  8
0-0
  6
Continuous
 62
     3
370
     9
100
AcDbCircle
 10
-302.8731846165012
 20
371.6351945206927
 30
0.0
 40
1.500000019331236
100
AcDbArc
 50
1.403289794921875
 51
90.0
  0
ARC
  5
47D
330
1F
100
AcDbEntity
  8
0-0
  6
Continuous
 62
     3
370
     9
100
AcDbCircle
 10
-302.8731846165012
 20
349.1351945206927
 30
0.0
 40
1.500000019331236
100
AcDbArc
 50
270.0
 51
0.0
  0
ARC
  5
47E
330
1F
100
AcDbEntity
  8
0-0
  6
Continuous
 62
     3
370
     9
100
AcDbCircle
 10
-342.3731912148965
 20
349.1351945206927
 30
0.0
 40
1.500000019331236
100
AcDbArc
 50
270.0
 51
0.0
  0
ARC
  5
47F
330
1F
100
AcDbEntity
  8
0-0
  6
Continuous
 62
     3
370
     9
100
AcDbCircle
 10
-342.3731912148965
 20
371.6351945206927
 30
0.0
 40
1.500000019331236
100
AcDbArc
 50
1.403289794921875
 51
90.0
  0
ARC
  5
480
330
1F
100
AcDbEntity
  8
0-0
  6
Continuous
 62
     3
370
     9
100
AcDbCircle
 10
-364.8731912148965
 20
371.6351945206927
 30
0.0
 40
1.500000019331236
100
AcDbArc
 50
90.0
 51
180.0
  0
ARC
  5
481
330
1F
100
AcDbEntity
  8
0-0
  6
Continuous
 62
     3
370
     9
100
AcDbCircle
 10
-364.8731912148965
 20
349.1351945206927
 30
0.0
 40
1.500000019331236
100
AcDbArc
 50
180.0
 51
270.0
  0
ARC
  5
482
330
1F
100
AcDbEntity
  8
0-0
  6
Continuous
 62
     3
370
     9
100
AcDbCircle
 10
-404.3731978132918
 20
349.1351945206927
 30
0.0
 40
1.500000019331236
100
AcDbArc
 50
180.0
 51
270.0
  0
ARC
  5
483
330
1F
100
AcDbEntity
  8
0-0
  6
Continuous
 62
     3
370
     9
100
AcDbCircle
 10
-404.3731978132918
 20
371.6351945206927
 30
0.0
 40
1.500000019331236
100
AcDbArc
 50
90.0
 51
180.0
  0
ARC
  5
484
330
1F
100
AcDbEntity
  8
0-0
  6
Continuous
 62
     3
370
     9
100
AcDbCircle
 10
-381.8731978132918
 20
371.6351945206927
 30
0.0
 40
1.500000019331236
100
AcDbArc
 50
1.403289794921875
 51
90.0
  0
ARC
  5
485
330
1F
100
AcDbEntity
  8
0-0
  6
Continuous
 62
     3
370
     9
100
AcDbCircle
 10
-381.8731978132918
 20
349.1351945206927
 30
0.0
 40
1.500000019331236
100
AcDbArc
 50
270.0
 51
0.0
  0
ARC
  5
486
330
1F
100
AcDbEntity
  8
0-0
  6
Continuous
 62
     3
370
     9
100
AcDbCircle
 10
-421.373204411687
 20
349.1351945206927
 30
0.0
 40
1.500000019331236
100
AcDbArc
 50
270.0
 51
0.0
  0
ARC
  5
487
330
1F
100
AcDbEntity
  8
0-0
  6
Continuous
 62
     3
370
     9
100
AcDbCircle
 10
-421.373204411687
 20
371.6351945206927
 30
0.0
 40
1.500000019331236
100
AcDbArc
 50
1.403289794921875
 51
90.0
  0
ARC
  5
488
330
1F
100
AcDbEntity
  8
0-0
  6
Continuous
 62
     3
370
     9
100
AcDbCircle
 10
-443.873204411687
 20
371.6351945206927
 30
0.0
 40
1.500000019331236
100
AcDbArc
 50
90.0
 51
180.0
  0
ARC
  5
489
330
1F
100
AcDbEntity
  8
0-0
  6
Continuous
 62
     3
370
     9
100
AcDbCircle
 10
-443.873204411687
 20
349.1351945206927
 30
0.0
 40
1.500000019331236
100
AcDbArc
 50
180.0
 51
270.0
  0
ARC
  5
48A
330
1F
100
AcDbEntity
  8
0-0
  6
Continuous
 62
     3
370
     9
100
AcDbCircle
 10
-443.873204411687
 20
309.6351879222975
 30
0.0
 40
1.500000019331236
100
AcDbArc
 50
180.0
 51
270.0
  0
ARC
  5
48B
330
1F
100
AcDbEntity
  8
0-0
  6
Continuous
 62
     3
370
     9
100
AcDbCircle
 10
-443.873204411687
 20
332.1351879222975
 30
0.0
 40
1.500000019331236
100
AcDbArc
 50
90.0
 51
180.0
  0
ARC
  5
48C
330
1F
100
AcDbEntity
  8
0-0
  6
Continuous
 62
     3
370
     9
100
AcDbCircle
 10
-421.373204411687
 20
332.1351879222975
 30
0.0
 40
1.500000019331236
100
AcDbArc
 50
1.403289794921875
 51
90.0
  0
ARC
  5
48D
330
1F
100
AcDbEntity
  8
0-0
  6
Continuous
 62
     3
370
     9
100
AcDbCircle
 10
-421.373204411687
 20
309.6351879222975
 30
0.0
 40
1.500000019331236
100
AcDbArc
 50
270.0
 51
0.0
  0
ARC
  5
48E
330
1F
100
AcDbEntity
  8
0-0
  6
Continuous
 62
     3
370
     9
100
AcDbCircle
 10
-381.8731978132918
 20
309.6351879222975
 30
0.0
 40
1.500000019331236
100
AcDbArc
 50
270.0
 51
0.0
  0
ARC
  5
48F
330
1F
100
AcDbEntity
  8
0-0
  6
Continuous
 62
     3
370
     9
100
AcDbCircle
 10
-381.8731978132918
 20
332.1351879222975
 30
0.0
 40
1.500000019331236
100
AcDbArc
 50
1.403289794921875
 51
90.0
  0
ARC
  5
490
330
1F
100
AcDbEntity
  8
0-0
  6
Continuous
 62
     3
370
     9
100
AcDbCircle
 10
-404.3731978132918
 20
332.1351879222975
 30
0.0
 40
1.500000019331236
100
AcDbArc
 50
90.0
 51
180.0
  0
ARC
  5
491
330
1F
100
AcDbEntity
  8
0-0
  6
Continuous
 62
     3
370
     9
100
AcDbCircle
 10
-404.3731978132918
 20
309.6351879222975
 30
0.0
 40
1.500000019331236
100
AcDbArc
 50
180.0
 51
270.0
  0
ARC
  5
492
330
1F
100
AcDbEntity
  8
0-0
  6
Continuous
 62
     3
370
     9
100
AcDbCircle
 10
-364.8731912148965
 20
309.6351879222975
 30
0.0
 40
1.500000019331236
100
AcDbArc
 50
180.0
 51
270.0
  0
ARC
  5
493
330
1F
100
AcDbEntity
  8
0-0
  6
Continuous
 62
     3
370
     9
100
AcDbCircle
 10
-364.8731912148965
 20
332.1351879222975
 30
0.0
 40
1.500000019331236
100
AcDbArc
 50
90.0
 51
180.0
  0
ARC
  5
494
330
1F
100
AcDbEntity
  8
0-0
  6
Continuous
 62
     3
370
     9
100
AcDbCircle
 10
-342.3731912148965
 20
332.1351879222975
 30
0.0
 40
1.500000019331236
100
AcDbArc
 50
1.403289794921875
 51
90.0
  0
ARC
  5
495
330
1F
100
AcDbEntity
  8
0-0
  6
Continuous
 62
     3
370
     9
100
AcDbCircle
 10
-342.3731912148965
 20
309.6351879222975
 30
0.0
 40
1.500000019331236
100
AcDbArc
 50
270.0
 51
0.0
  0
ARC
  5
496
330
1F
100
AcDbEntity
  8
0-0
  6
Continuous
 62
     3
370
     9
100
AcDbCircle
 10
-302.8731846165012
 20
309.6351879222975
 30
0.0
 40
1.500000019331236
100
AcDbArc
 50
270.0
 51
0.0
  0
ARC
  5
497
330
1F
100
AcDbEntity
  8
0-0
  6
Continuous
 62
     3
370
     9
100
AcDbCircle
 10
-302.8731846165012
 20
332.1351879222975
 30
0.0
 40
1.500000019331236
100
AcDbArc
 50
1.403289794921875
 51
90.0
  0
ARC
  5
498
330
1F
100
AcDbEntity
  8
0-0
  6
Continuous
 62
     3
370
     9
100
AcDbCircle
 10
-325.3731846165012
 20
332.1351879222975
 30
0.0
 40
1.500000019331236
100
AcDbArc
 50
90.0
 51
180.0
  0
ARC
  5
499
330
1F
100
AcDbEntity
  8
0-0
  6
Continuous
 62
     3
370
     9
100
AcDbCircle
 10
-325.3731846165012
 20
309.6351879222975
 30
0.0
 40
1.500000019331236
100
AcDbArc
 50
180.0
 51
270.0
  0
ARC
  5
49A
330
1F
100
AcDbEntity
  8
0-0
  6
Continuous
 62
     3
370
     9
100
AcDbCircle
 10
-285.8731780181059
 20
309.6351879222975
 30
0.0
 40
1.500000019331236
100
AcDbArc
 50
180.0
 51
270.0
  0
ARC
  5
49B
330
1F
100
AcDbEntity
  8
0-0
  6
Continuous
 62
     3
370
     9
100
AcDbCircle
 10
-285.8731780181059
 20
332.1351879222975
 30
0.0
 40
1.500000019331236
100
AcDbArc
 50
90.0
 51
180.0
  0
ARC
  5
49C
330
1F
100
AcDbEntity
  8
0-0
  6
Continuous
 62
     3
370
     9
100
AcDbCircle
 10
-263.3731780181059
 20
332.1351879222975
 30
0.0
 40
1.500000019331236
100
AcDbArc
 50
1.403289794921875
 51
90.0
  0
ARC
  5
49D
330
1F
100
AcDbEntity
  8
0-0
  6
Continuous
 62
     3
370
     9
100
AcDbCircle
 10
-263.3731780181059
 20
309.6351879222975
 30
0.0
 40
1.500000019331236
100
AcDbArc
 50
270.0
 51
0.0
  0
ARC
  5
49E
330
1F
100
AcDbEntity
  8
0-0
  6
Continuous
 62
     3
370
     9
100
AcDbCircle
 10
-223.8731714197107
 20
309.6351879222975
 30
0.0
 40
1.500000019331236
100
AcDbArc
 50
270.0
 51
0.0
  0
ARC
  5
49F
330
1F
100
AcDbEntity
  8
0-0
  6
Continuous
 62
     3
370
     9
100
AcDbCircle
 10
-223.8731714197107
 20
332.1351879222975
 30
0.0
 40
1.500000019331236
100
AcDbArc
 50
1.403289794921875
 51
90.0
  0
ARC
  5
4A0
330
1F
100
AcDbEntity
  8
0-0
  6
Continuous
 62
     3
370
     9
100
AcDbCircle
 10
-246.3731714197107
 20
332.1351879222975
 30
0.0
 40
1.500000019331236
100
AcDbArc
 50
90.0
 51
180.0
  0
ARC
  5
4A1
330
1F
100
AcDbEntity
  8
0-0
  6
Continuous
 62
     3
370
     9
100
AcDbCircle
 10
-246.3731714197107
 20
309.6351879222975
 30
0.0
 40
1.500000019331236
100
AcDbArc
 50
180.0
 51
270.0
  0
ARC
  5
4A2
330
1F
100
AcDbEntity
  8
0-0
  6
Continuous
 62
     3
370
     9
100
AcDbCircle
 10
-246.3731714197107
 20
270.1351813239022
 30
0.0
 40
1.500000019331236
100
AcDbArc
 50
180.0
 51
270.0
  0
ARC
  5
4A3
330
1F
100
AcDbEntity
  8
0-0
  6
Continuous
 62
     3
370
     9
100
AcDbCircle
 10
-246.3731714197107
 20
292.6351813239022
 30
0.0
 40
1.500000019331236
100
AcDbArc
 50
90.0
 51
180.0
  0
ARC
  5
4A4
330
1F
100
AcDbEntity
  8
0-0
  6
Continuous
 62
     3
370
     9
100
AcDbCircle
 10
-223.8731714197107
 20
292.6351813239022
 30
0.0
 40
1.500000019331236
100
AcDbArc
 50
1.403289794921875
 51
90.0
  0
ARC
  5
4A5
330
1F
100
AcDbEntity
  8
0-0
  6
Continuous
 62
     3
370
     9
100
AcDbCircle
 10
-223.8731714197107
 20
270.1351813239022
 30
0.0
 40
1.500000019331236
100
AcDbArc
 50
270.0
 51
0.0
  0
ARC
  5
4A6
330
1F
100
AcDbEntity
  8
0-0
  6
Continuous
 62
     3
370
     9
100
AcDbCircle
 10
-263.3731780181059
 20
270.1351813239022
 30
0.0
 40
1.500000019331236
100
AcDbArc
 50
270.0
 51
0.0
  0
ARC
  5
4A7
330
1F
100
AcDbEntity
  8
0-0
  6
Continuous
 62
     3
370
     9
100
AcDbCircle
 10
-263.3731780181059
 20
292.6351813239022
 30
0.0
 40
1.500000019331236
100
AcDbArc
 50
1.403289794921875
 51
90.0
  0
ARC
  5
4A8
330
1F
100
AcDbEntity
  8
0-0
  6
Continuous
 62
     3
370
     9
100
AcDbCircle
 10
-285.8731780181059
 20
292.6351813239022
 30
0.0
 40
1.500000019331236
100
AcDbArc
 50
90.0
 51
180.0
  0
ARC
  5
4A9
330
1F
100
AcDbEntity
  8
0-0
  6
Continuous
 62
     3
370
     9
100
AcDbCircle
 10
-285.8731780181059
 20
270.1351813239022
 30
0.0
 40
1.500000019331236
100
AcDbArc
 50
180.0
 51
270.0
  0
ARC
  5
4AA
330
1F
100
AcDbEntity
  8
0-0
  6
Continuous
 62
     3
370
     9
100
AcDbCircle
 10
-325.3731846165012
 20
270.1351813239022
 30
0.0
 40
1.500000019331236
100
AcDbArc
 50
180.0
 51
270.0
  0
ARC
  5
4AB
330
1F
100
AcDbEntity
  8
0-0
  6
Continuous
 62
     3
370
     9
100
AcDbCircle
 10
-325.3731846165012
 20
292.6351813239022
 30
0.0
 40
1.500000019331236
100
AcDbArc
 50
90.0
 51
180.0
  0
ARC
  5
4AC
330
1F
100
AcDbEntity
  8
0-0
  6
Continuous
 62
     3
370
     9
100
AcDbCircle
 10
-302.8731846165012
 20
292.6351813239022
 30
0.0
 40
1.500000019331236
100
AcDbArc
 50
1.403289794921875
 51
90.0
  0
ARC
  5
4AD
330
1F
100
AcDbEntity
  8
0-0
  6
Continuous
 62
     3
370
     9
100
AcDbCircle
 10
-302.8731846165012
 20
270.1351813239022
 30
0.0
 40
1.500000019331236
100
AcDbArc
 50
270.0
 51
0.0
  0
ARC
  5
4AE
330
1F
100
AcDbEntity
  8
0-0
  6
Continuous
 62
     3
370
     9
100
AcDbCircle
 10
-342.3731912148965
 20
270.1351813239022
 30
0.0
 40
1.500000019331236
100
AcDbArc
 50
270.0
 51
0.0
  0
ARC
  5
4AF
330
1F
100
AcDbEntity
  8
0-0
  6
Continuous
 62
     3
370
     9
100
AcDbCircle
 10
-342.3731912148965
 20
292.6351813239022
 30
0.0
 40
1.500000019331236
100
AcDbArc
 50
1.403289794921875
 51
90.0
  0
ARC
  5
4B0
330
1F
100
AcDbEntity
  8
0-0
  6
Continuous
 62
     3
370
     9
100
AcDbCircle
 10
-364.8731912148965
 20
292.6351813239022
 30
0.0
 40
1.500000019331236
100
AcDbArc
 50
90.0
 51
180.0
  0
ARC
  5
4B1
330
1F
100
AcDbEntity
  8
0-0
  6
Continuous
 62
     3
370
     9
100
AcDbCircle
 10
-364.8731912148965
 20
270.1351813239022
 30
0.0
 40
1.500000019331236
100
AcDbArc
 50
180.0
 51
270.0
  0
ARC
  5
4B2
330
1F
100
AcDbEntity
  8
0-0
  6
Continuous
 62
     3
370
     9
100
AcDbCircle
 10
-404.3731978132918
 20
270.1351813239022
 30
0.0
 40
1.500000019331236
100
AcDbArc
 50
180.0
 51
270.0
  0
ARC
  5
4B3
330
1F
100
AcDbEntity
  8
0-0
  6
Continuous
 62
     3
370
     9
100
AcDbCircle
 10
-404.3731978132918
 20
292.6351813239022
 30
0.0
 40
1.500000019331236
100
AcDbArc
 50
90.0
 51
180.0
  0
ARC
  5
4B4
330
1F
100
AcDbEntity
  8
0-0
  6
Continuous
 62
     3
370
     9
100
AcDbCircle
 10
-381.8731978132918
 20
292.6351813239022
 30
0.0
 40
1.500000019331236
100
AcDbArc
 50
1.403289794921875
 51
90.0
  0
ARC
  5
4B5
330
1F
100
AcDbEntity
  8
0-0
  6
Continuous
 62
     3
370
     9
100
AcDbCircle
 10
-381.8731978132918
 20
270.1351813239022
 30
0.0
 40
1.500000019331236
100
AcDbArc
 50
270.0
 51
0.0
  0
ARC
  5
4B6
330
1F
100
AcDbEntity
  8
0-0
  6
Continuous
 62
     3
370
     9
100
AcDbCircle
 10
-421.373204411687
 20
270.1351813239022
 30
0.0
 40
1.500000019331236
100
AcDbArc
 50
270.0
 51
0.0
  0
ARC
  5
4B7
330
1F
100
AcDbEntity
  8
0-0
  6
Continuous
 62
     3
370
     9
100
AcDbCircle
 10
-421.373204411687
 20
292.6351813239022
 30
0.0
 40
1.500000019331236
100
AcDbArc
 50
1.403289794921875
 51
90.0
  0
ARC
  5
4B8
330
1F
100
AcDbEntity
  8
0-0
  6
Continuous
 62
     3
370
     9
100
AcDbCircle
 10
-443.873204411687
 20
292.6351813239022
 30
0.0
 40
1.500000019331236
100
AcDbArc
 50
90.0
 51
180.0
  0
ARC
  5
4B9
330
1F
100
AcDbEntity
  8
0-0
  6
Continuous
 62
     3
370
     9
100
AcDbCircle
 10
-443.873204411687
 20
270.1351813239022
 30
0.0
 40
1.500000019331236
100
AcDbArc
 50
180.0
 51
270.0
  0
ARC
  5
4BA
330
1F
100
AcDbEntity
  8
0-0
  6
Continuous
 62
     3
370
     9
100
AcDbCircle
 10
-443.873204411687
 20
230.6351747255069
 30
0.0
 40
1.500000019331236
100
AcDbArc
 50
180.0
 51
270.0
  0
ARC
  5
4BB
330
1F
100
AcDbEntity
  8
0-0
  6
Continuous
 62
     3
370
     9
100
AcDbCircle
 10
-443.873204411687
 20
253.135174725507
 30
0.0
 40
1.500000019331236
100
AcDbArc
 50
90.0
 51
180.0
  0
ARC
  5
4BC
330
1F
100
AcDbEntity
  8
0-0
  6
Continuous
 62
     3
370
     9
100
AcDbCircle
 10
-421.373204411687
 20
253.135174725507
 30
0.0
 40
1.500000019331236
100
AcDbArc
 50
1.403289794921875
 51
90.0
  0
ARC
  5
4BD
330
1F
100
AcDbEntity
  8
0-0
  6
Continuous
 62
     3
370
     9
100
AcDbCircle
 10
-421.373204411687
 20
230.6351747255069
 30
0.0
 40
1.500000019331236
100
AcDbArc
 50
270.0
 51
0.0
  0
ARC
  5
4BE
330
1F
100
AcDbEntity
  8
0-0
  6
Continuous
 62
     3
370
     9
100
AcDbCircle
 10
-381.8731978132918
 20
230.6351747255069
 30
0.0
 40
1.500000019331236
100
AcDbArc
 50
270.0
 51
0.0
  0
ARC
  5
4BF
330
1F
100
AcDbEntity
  8
0-0
  6
Continuous
 62
     3
370
     9
100
AcDbCircle
 10
-381.8731978132918
 20
253.135174725507
 30
0.0
 40
1.500000019331236
100
AcDbArc
 50
1.403289794921875
 51
90.0
  0
ARC
  5
4C0
330
1F
100
AcDbEntity
  8
0-0
  6
Continuous
 62
     3
370
     9
100
AcDbCircle
 10
-404.3731978132918
 20
253.135174725507
 30
0.0
 40
1.500000019331236
100
AcDbArc
 50
90.0
 51
180.0
  0
ARC
  5
4C1
330
1F
100
AcDbEntity
  8
0-0
  6
Continuous
 62
     3
370
     9
100
AcDbCircle
 10
-404.3731978132918
 20
230.6351747255069
 30
0.0
 40
1.500000019331236
100
AcDbArc
 50
180.0
 51
270.0
  0
ARC
  5
4C2
330
1F
100
AcDbEntity
  8
0-0
  6
Continuous
 62
     3
370
     9
100
AcDbCircle
 10
-364.8731912148965
 20
230.6351747255069
 30
0.0
 40
1.500000019331236
100
AcDbArc
 50
180.0
 51
270.0
  0
ARC
  5
4C3
330
1F
100
AcDbEntity
  8
0-0
  6
Continuous
 62
     3
370
     9
100
AcDbCircle
 10
-364.8731912148965
 20
253.135174725507
 30
0.0
 40
1.500000019331236
100
AcDbArc
 50
90.0
 51
180.0
  0
ARC
  5
4C4
330
1F
100
AcDbEntity
  8
0-0
  6
Continuous
 62
     3
370
     9
100
AcDbCircle
 10
-342.3731912148965
 20
253.135174725507
 30
0.0
 40
1.500000019331236
100
AcDbArc
 50
1.403289794921875
 51
90.0
  0
ARC
  5
4C5
330
1F
100
AcDbEntity
  8
0-0
  6
Continuous
 62
     3
370
     9
100
AcDbCircle
 10
-342.3731912148965
 20
230.6351747255069
 30
0.0
 40
1.500000019331236
100
AcDbArc
 50
270.0
 51
0.0
  0
ARC
  5
4C6
330
1F
100
AcDbEntity
  8
0-0
  6
Continuous
 62
     3
370
     9
100
AcDbCircle
 10
-302.8731846165012
 20
230.6351747255069
 30
0.0
 40
1.500000019331236
100
AcDbArc
 50
270.0
 51
0.0
  0
ARC
  5
4C7
330
1F
100
AcDbEntity
  8
0-0
  6
Continuous
 62
     3
370
     9
100
AcDbCircle
 10
-302.8731846165012
 20
253.135174725507
 30
0.0
 40
1.500000019331236
100
AcDbArc
 50
1.403289794921875
 51
90.0
  0
ARC
  5
4C8
330
1F
100
AcDbEntity
  8
0-0
  6
Continuous
 62
     3
370
     9
100
AcDbCircle
 10
-325.3731846165012
 20
253.135174725507
 30
0.0
 40
1.500000019331236
100
AcDbArc
 50
90.0
 51
180.0
  0
ARC
  5
4C9
330
1F
100
AcDbEntity
  8
0-0
  6
Continuous
 62
     3
370
     9
100
AcDbCircle
 10
-325.3731846165012
 20
230.6351747255069
 30
0.0
 40
1.500000019331236
100
AcDbArc
 50
180.0
 51
270.0
  0
ARC
  5
4CA
330
1F
100
AcDbEntity
  8
0-0
  6
Continuous
 62
     3
370
     9
100
AcDbCircle
 10
-285.8731780181059
 20
230.6351747255069
 30
0.0
 40
1.500000019331236
100
AcDbArc
 50
180.0
 51
270.0
  0
ARC
  5
4CB
330
1F
100
AcDbEntity
  8
0-0
  6
Continuous
 62
     3
370
     9
100
AcDbCircle
 10
-285.8731780181059
 20
253.135174725507
 30
0.0
 40
1.500000019331236
100
AcDbArc
 50
90.0
 51
180.0
  0
ARC
  5
4CC
330
1F
100
AcDbEntity
  8
0-0
  6
Continuous
 62
     3
370
     9
100
AcDbCircle
 10
-263.3731780181059
 20
253.135174725507
 30
0.0
 40
1.500000019331236
100
AcDbArc
 50
1.403289794921875
 51
90.0
  0
ARC
  5
4CD
330
1F
100
AcDbEntity
  8
0-0
  6
Continuous
 62
     3
370
     9
100
AcDbCircle
 10
-263.3731780181059
 20
230.6351747255069
 30
0.0
 40
1.500000019331236
100
AcDbArc
 50
270.0
 51
0.0
  0
ARC
  5
4CE
330
1F
100
AcDbEntity
  8
0-0
  6
Continuous
 62
     3
370
     9
100
AcDbCircle
 10
-223.8731714197107
 20
230.6351747255069
 30
0.0
 40
1.500000019331236
100
AcDbArc
 50
270.0
 51
0.0
  0
ARC
  5
4CF
330
1F
100
AcDbEntity
  8
0-0
  6
Continuous
 62
     3
370
     9
100
AcDbCircle
 10
-223.8731714197107
 20
253.135174725507
 30
0.0
 40
1.500000019331236
100
AcDbArc
 50
1.403289794921875
 51
90.0
  0
ARC
  5
4D0
330
1F
100
AcDbEntity
  8
0-0
  6
Continuous
 62
     3
370
     9
100
AcDbCircle
 10
-246.3731714197107
 20
253.135174725507
 30
0.0
 40
1.500000019331236
100
AcDbArc
 50
90.0
 51
180.0
  0
ARC
  5
4D1
330
1F
100
AcDbEntity
  8
0-0
  6
Continuous
 62
     3
370
     9
100
AcDbCircle
 10
-246.3731714197107
 20
230.6351747255069
 30
0.0
 40
1.500000019331236
100
AcDbArc
 50
180.0
 51
270.0
  0
ARC
  5
4D2
330
1F
100
AcDbEntity
  8
0-0
  6
Continuous
 62
     3
370
     9
100
AcDbCircle
 10
-246.3731714197107
 20
191.1351681271117
 30
0.0
 40
1.500000019331236
100
AcDbArc
 50
180.0
 51
270.0
  0
ARC
  5
4D3
330
1F
100
AcDbEntity
  8
0-0
  6
Continuous
 62
     3
370
     9
100
AcDbCircle
 10
-246.3731714197107
 20
213.6351681271117
 30
0.0
 40
1.500000019331236
100
AcDbArc
 50
90.0
 51
180.0
  0
ARC
  5
4D4
330
1F
100
AcDbEntity
  8
0-0
  6
Continuous
 62
     3
370
     9
100
AcDbCircle
 10
-223.8731714197107
 20
213.6351681271117
 30
0.0
 40
1.500000019331236
100
AcDbArc
 50
1.403289794921875
 51
90.0
  0
ARC
  5
4D5
330
1F
100
AcDbEntity
  8
0-0
  6
Continuous
 62
     3
370
     9
100
AcDbCircle
 10
-223.8731714197107
 20
191.1351681271117
 30
0.0
 40
1.500000019331236
100
AcDbArc
 50
270.0
 51
0.0
  0
ARC
  5
4D6
330
1F
100
AcDbEntity
  8
0-0
  6
Continuous
 62
     3
370
     9
100
AcDbCircle
 10
-263.3731780181059
 20
191.1351681271117
 30
0.0
 40
1.500000019331236
100
AcDbArc
 50
270.0
 51
0.0
  0
ARC
  5
4D7
330
1F
100
AcDbEntity
  8
0-0
  6
Continuous
 62
     3
370
     9
100
AcDbCircle
 10
-263.3731780181059
 20
213.6351681271117
 30
0.0
 40
1.500000019331236
100
AcDbArc
 50
1.403289794921875
 51
90.0
  0
ARC
  5
4D8
330
1F
100
AcDbEntity
  8
0-0
  6
Continuous
 62
     3
370
     9
100
AcDbCircle
 10
-285.8731780181059
 20
213.6351681271117
 30
0.0
 40
1.500000019331236
100
AcDbArc
 50
90.0
 51
180.0
  0
ARC
  5
4D9
330
1F
100
AcDbEntity
  8
0-0
  6
Continuous
 62
     3
370
     9
100
AcDbCircle
 10
-285.8731780181059
 20
191.1351681271117
 30
0.0
 40
1.500000019331236
100
AcDbArc
 50
180.0
 51
270.0
  0
ARC
  5
4DA
330
1F
100
AcDbEntity
  8
0-0
  6
Continuous
 62
     3
370
     9
100
AcDbCircle
 10
-325.3731846165012
 20
191.1351681271117
 30
0.0
 40
1.500000019331236
100
AcDbArc
 50
180.0
 51
270.0
  0
ARC
  5
4DB
330
1F
100
AcDbEntity
  8
0-0
  6
Continuous
 62
     3
370
     9
100
AcDbCircle
 10
-325.3731846165012
 20
213.6351681271117
 30
0.0
 40
1.500000019331236
100
AcDbArc
 50
90.0
 51
180.0
  0
ARC
  5
4DC
330
1F
100
AcDbEntity
  8
0-0
  6
Continuous
 62
     3
370
     9
100
AcDbCircle
 10
-302.8731846165012
 20
213.6351681271117
 30
0.0
 40
1.500000019331236
100
AcDbArc
 50
1.403289794921875
 51
90.0
  0
ARC
  5
4DD
330
1F
100
AcDbEntity
  8
0-0
  6
Continuous
 62
     3
370
     9
100
AcDbCircle
 10
-302.8731846165012
 20
191.1351681271117
 30
0.0
 40
1.500000019331236
100
AcDbArc
 50
270.0
 51
0.0
  0
ARC
  5
4DE
330
1F
100
AcDbEntity
  8
0-0
  6
Continuous
 62
     3
370
     9
100
AcDbCircle
 10
-342.3731912148965
 20
191.1351681271117
 30
0.0
 40
1.500000019331236
100
AcDbArc
 50
270.0
 51
0.0
  0
ARC
  5
4DF
330
1F
100
AcDbEntity
  8
0-0
  6
Continuous
 62
     3
370
     9
100
AcDbCircle
 10
-342.3731912148965
 20
213.6351681271117
 30
0.0
 40
1.500000019331236
100
AcDbArc
 50
1.403289794921875
 51
90.0
  0
ARC
  5
4E0
330
1F
100
AcDbEntity
  8
0-0
  6
Continuous
 62
     3
370
     9
100
AcDbCircle
 10
-364.8731912148965
 20
213.6351681271117
 30
0.0
 40
1.500000019331236
100
AcDbArc
 50
90.0
 51
180.0
  0
ARC
  5
4E1
330
1F
100
AcDbEntity
  8
0-0
  6
Continuous
 62
     3
370
     9
100
AcDbCircle
 10
-364.8731912148965
 20
191.1351681271117
 30
0.0
 40
1.500000019331236
100
AcDbArc
 50
180.0
 51
270.0
  0
ARC
  5
4E2
330
1F
100
AcDbEntity
  8
0-0
  6
Continuous
 62
     3
370
     9
100
AcDbCircle
 10
-404.3731978132918
 20
191.1351681271117
 30
0.0
 40
1.500000019331236
100
AcDbArc
 50
180.0
 51
270.0
  0
ARC
  5
4E3
330
1F
100
AcDbEntity
  8
0-0
  6
Continuous
 62
     3
370
     9
100
AcDbCircle
 10
-404.3731978132918
 20
213.6351681271117
 30
0.0
 40
1.500000019331236
100
AcDbArc
 50
90.0
 51
180.0
  0
ARC
  5
4E4
330
1F
100
AcDbEntity
  8
0-0
  6
Continuous
 62
     3
370
     9
100
AcDbCircle
 10
-381.8731978132918
 20
213.6351681271117
 30
0.0
 40
1.500000019331236
100
AcDbArc
 50
1.403289794921875
 51
90.0
  0
ARC
  5
4E5
330
1F
100
AcDbEntity
  8
0-0
  6
Continuous
 62
     3
370
     9
100
AcDbCircle
 10
-381.8731978132918
 20
191.1351681271117
 30
0.0
 40
1.500000019331236
100
AcDbArc
 50
270.0
 51
0.0
  0
ARC
  5
4E6
330
1F
100
AcDbEntity
  8
0-0
  6
Continuous
 62
     3
370
     9
100
AcDbCircle
 10
-421.373204411687
 20
191.1351681271117
 30
0.0
 40
1.500000019331236
100
AcDbArc
 50
270.0
 51
0.0
  0
ARC
  5
4E7
330
1F
100
AcDbEntity
  8
0-0
  6
Continuous
 62
     3
370
     9
100
AcDbCircle
 10
-421.373204411687
 20
213.6351681271117
 30
0.0
 40
1.500000019331236
100
AcDbArc
 50
1.403289794921875
 51
90.0
  0
ARC
  5
4E8
330
1F
100
AcDbEntity
  8
0-0
  6
Continuous
 62
     3
370
     9
100
AcDbCircle
 10
-443.873204411687
 20
213.6351681271117
 30
0.0
 40
1.500000019331236
100
AcDbArc
 50
90.0
 51
180.0
  0
ARC
  5
4E9
330
1F
100
AcDbEntity
  8
0-0
  6
Continuous
 62
     3
370
     9
100
AcDbCircle
 10
-443.873204411687
 20
191.1351681271117
 30
0.0
 40
1.500000019331236
100
AcDbArc
 50
180.0
 51
270.0
  0
ARC
  5
4EA
330
1F
100
AcDbEntity
  8
0-0
  6
Continuous
 62
     3
370
     9
100
AcDbCircle
 10
-443.873204411687
 20
151.6351615287164
 30
0.0
 40
1.500000019331236
100
AcDbArc
 50
180.0
 51
270.0
  0
ARC
  5
4EB
330
1F
100
AcDbEntity
  8
0-0
  6
Continuous
 62
     3
370
     9
100
AcDbCircle
 10
-443.873204411687
 20
174.1351615287164
 30
0.0
 40
1.500000019331236
100
AcDbArc
 50
90.0
 51
180.0
  0
ARC
  5
4EC
330
1F
100
AcDbEntity
  8
0-0
  6
Continuous
 62
     3
370
     9
100
AcDbCircle
 10
-421.373204411687
 20
174.1351615287164
 30
0.0
 40
1.500000019331236
100
AcDbArc
 50
1.403289794921875
 51
90.0
  0
ARC
  5
4ED
330
1F
100
AcDbEntity
  8
0-0
  6
Continuous
 62
     3
370
     9
100
AcDbCircle
 10
-421.373204411687
 20
151.6351615287164
 30
0.0
 40
1.500000019331236
100
AcDbArc
 50
270.0
 51
0.0
  0
ARC
  5
4EE
330
1F
100
AcDbEntity
  8
0-0
  6
Continuous
 62
     3
370
     9
100
AcDbCircle
 10
-381.8731978132918
 20
151.6351615287164
 30
0.0
 40
1.500000019331236
100
AcDbArc
 50
270.0
 51
0.0
  0
ARC
  5
4EF
330
1F
100
AcDbEntity
  8
0-0
  6
Continuous
 62
     3
370
     9
100
AcDbCircle
 10
-381.8731978132918
 20
174.1351615287164
 30
0.0
 40
1.500000019331236
100
AcDbArc
 50
1.403289794921875
 51
90.0
  0
ARC
  5
4F0
330
1F
100
AcDbEntity
  8
0-0
  6
Continuous
 62
     3
370
     9
100
AcDbCircle
 10
-404.3731978132918
 20
174.1351615287164
 30
0.0
 40
1.500000019331236
100
AcDbArc
 50
90.0
 51
180.0
  0
ARC
  5
4F1
330
1F
100
AcDbEntity
  8
0-0
  6
Continuous
 62
     3
370
     9
100
AcDbCircle
 10
-404.3731978132918
 20
151.6351615287164
 30
0.0
 40
1.500000019331236
100
AcDbArc
 50
180.0
 51
270.0
  0
ARC
  5
4F2
330
1F
100
AcDbEntity
  8
0-0
  6
Continuous
 62
     3
370
     9
100
AcDbCircle
 10
-364.8731912148965
 20
151.6351615287164
 30
0.0
 40
1.500000019331236
100
AcDbArc
 50
180.0
 51
270.0
  0
ARC
  5
4F3
330
1F
100
AcDbEntity
  8
0-0
  6
Continuous
 62
     3
370
     9
100
AcDbCircle
 10
-364.8731912148965
 20
174.1351615287164
 30
0.0
 40
1.500000019331236
100
AcDbArc
 50
90.0
 51
180.0
  0
ARC
  5
4F4
330
1F
100
AcDbEntity
  8
0-0
  6
Continuous
 62
     3
370
     9
100
AcDbCircle
 10
-342.3731912148965
 20
174.1351615287164
 30
0.0
 40
1.500000019331236
100
AcDbArc
 50
1.403289794921875
 51
90.0
  0
ARC
  5
4F5
330
1F
100
AcDbEntity
  8
0-0
  6
Continuous
 62
     3
370
     9
100
AcDbCircle
 10
-342.3731912148965
 20
151.6351615287164
 30
0.0
 40
1.500000019331236
100
AcDbArc
 50
270.0
 51
0.0
  0
ARC
  5
4F6
330
1F
100
AcDbEntity
  8
0-0
  6
Continuous
 62
     3
370
     9
100
AcDbCircle
 10
-302.8731846165012
 20
151.6351615287164
 30
0.0
 40
1.500000019331236
100
AcDbArc
 50
270.0
 51
0.0
  0
ARC
  5
4F7
330
1F
100
AcDbEntity
  8
0-0
  6
Continuous
 62
     3
370
     9
100
AcDbCircle
 10
-302.8731846165012
 20
174.1351615287164
 30
0.0
 40
1.500000019331236
100
AcDbArc
 50
1.403289794921875
 51
90.0
  0
ARC
  5
4F8
330
1F
100
AcDbEntity
  8
0-0
  6
Continuous
 62
     3
370
     9
100
AcDbCircle
 10
-325.3731846165012
 20
174.1351615287164
 30
0.0
 40
1.500000019331236
100
AcDbArc
 50
90.0
 51
180.0
  0
ARC
  5
4F9
330
1F
100
AcDbEntity
  8
0-0
  6
Continuous
 62
     3
370
     9
100
AcDbCircle
 10
-325.3731846165012
 20
151.6351615287164
 30
0.0
 40
1.500000019331236
100
AcDbArc
 50
180.0
 51
270.0
  0
ARC
  5
4FA
330
1F
100
AcDbEntity
  8
0-0
  6
Continuous
 62
     3
370
     9
100
AcDbCircle
 10
-285.8731780181059
 20
151.6351615287164
 30
0.0
 40
1.500000019331236
100
AcDbArc
 50
180.0
 51
270.0
  0
ARC
  5
4FB
330
1F
100
AcDbEntity
  8
0-0
  6
Continuous
 62
     3
370
     9
100
AcDbCircle
 10
-285.8731780181059
 20
174.1351615287164
 30
0.0
 40
1.500000019331236
100
AcDbArc
 50
90.0
 51
180.0
  0
ARC
  5
4FC
330
1F
100
AcDbEntity
  8
0-0
  6
Continuous
 62
     3
370
     9
100
AcDbCircle
 10
-263.3731780181059
 20
174.1351615287164
 30
0.0
 40
1.500000019331236
100
AcDbArc
 50
1.403289794921875
 51
90.0
  0
ARC
  5
4FD
330
1F
100
AcDbEntity
  8
0-0
  6
Continuous
 62
     3
370
     9
100
AcDbCircle
 10
-263.3731780181059
 20
151.6351615287164
 30
0.0
 40
1.500000019331236
100
AcDbArc
 50
270.0
 51
0.0
  0
ARC
  5
4FE
330
1F
100
AcDbEntity
  8
0-0
  6
Continuous
 62
     3
370
     9
100
AcDbCircle
 10
-223.8731714197107
 20
151.6351615287164
 30
0.0
 40
1.500000019331236
100
AcDbArc
 50
270.0
 51
0.0
  0
ARC
  5
4FF
330
1F
100
AcDbEntity
  8
0-0
  6
Continuous
 62
     3
370
     9
100
AcDbCircle
 10
-223.8731714197107
 20
174.1351615287164
 30
0.0
 40
1.500000019331236
100
AcDbArc
 50
1.403289794921875
 51
90.0
  0
ARC
  5
500
330
1F
100
AcDbEntity
  8
0-0
  6
Continuous
 62
     3
370
     9
100
AcDbCircle
 10
-246.3731714197107
 20
174.1351615287164
 30
0.0
 40
1.500000019331236
100
AcDbArc
 50
90.0
 51
180.0
  0
ARC
  5
501
330
1F
100
AcDbEntity
  8
0-0
  6
Continuous
 62
     3
370
     9
100
AcDbCircle
 10
-246.3731714197107
 20
151.6351615287164
 30
0.0
 40
1.500000019331236
100
AcDbArc
 50
180.0
 51
270.0
  0
LWPOLYLINE
  5
502
330
1F
100
AcDbEntity
  8
0-F
  6
Continuous
 62
     7
370
     9
100
AcDbPolyline
 90
        4
 70
     1
 43
0.4
 10
94.82681538349875
 20
175.6351417335305
 42
0.4142135623731
 10
94.62681538349875
 20
175.8351417335305
 42
0.4142135623731
 10
94.42681538349875
 20
175.6351417335305
 42
0.4142135623731
 10
94.62681538349875
 20
175.4351417335305
 42
0.4142135623731
  0
LINE
  5
503
330
1F
100
AcDbEntity
  8
0-F
  6
Continuous
 62
     7
370
     9
100
AcDbLine
 10
-208.3731945140942
 20
-166.8648747624576
 30
0.0
 11
-182.8731846165012
 21
-166.8648747624576
 31
0.0
  0
LINE
  5
504
330
1F
100
AcDbEntity
  8
0-F
  6
Continuous
 62
     7
370
     9
100
AcDbLine
 10
-182.8731846165012
 20
-166.8648747624576
 30
0.0
 11
-168.8731879156988
 21
-166.8648747624576
 31
0.0
  0
LINE
  5
505
330
1F
100
AcDbEntity
  8
0-F
  6
Continuous
 62
     7
370
     9
100
AcDbLine
 10
-208.3731945140942
 20
-166.8648747624576
 30
0.0
 11
-247.0203750197951
 21
-166.8648747624576
 31
0.0
  0
LINE
  5
506
330
1F
100
AcDbEntity
  8
0-F
  6
Continuous
 62
     7
370
     9
100
AcDbLine
 10
-208.3731945140942
 20
-166.8648747624576
 30
0.0
 11
-218.2876628154032
 21
-168.1701198268579
 31
0.0
  0
LINE
  5
507
330
1F
100
AcDbEntity
  8
0-F
  6
Continuous
 62
     7
370
     9
100
AcDbLine
 10
-208.3731945140942
 20
-166.8648747624576
 30
0.0
 11
-218.2876628154032
 21
-165.5596296980573
 31
0.0
  0
LINE
  5
508
330
1F
100
AcDbEntity
  8
0-F
  6
Continuous
 62
     7
370
     9
100
AcDbLine
 10
-168.8731879156988
 20
-166.8648747624576
 30
0.0
 11
-158.9587196143897
 21
-165.5596296980573
 31
0.0
  0
LINE
  5
509
330
1F
100
AcDbEntity
  8
0-F
  6
Continuous
 62
     7
370
     9
100
AcDbLine
 10
-168.8731879156988
 20
-166.8648747624576
 30
0.0
 11
-158.9587196143897
 21
-168.1701198268579
 31
0.0
  0
LINE
  5
50A
330
1F
100
AcDbEntity
  8
0-F
  6
Continuous
 62
     7
370
     9
100
AcDbLine
 10
-168.8731879156988
 20
-166.8648747624576
 30
0.0
 11
-145.4262852024387
 21
-166.8648747624576
 31
0.0
  0
LINE
  5
50B
330
1F
100
AcDbEntity
  8
0-F
  6
Continuous
 62
     7
370
     9
100
AcDbLine
 10
34.62691435942781
 20
-206.8648582664694
 30
0.0
 11
24.71239657015417
 21
-205.5596132020692
 31
0.0
  0
LINE
  5
50C
330
1F
100
AcDbEntity
  8
0-F
  6
Continuous
 62
     7
370
     9
100
AcDbLine
 10
34.62691435942781
 20
-206.8648582664694
 30
0.0
 11
24.71239657015417
 21
-208.1701528188344
 31
0.0
  0
LINE
  5
50D
330
1F
100
AcDbEntity
  8
0-F
  6
Continuous
 62
     7
370
     9
100
AcDbLine
 10
309.6267823915223
 20
-166.8648747624576
 30
0.0
 11
319.5412012048669
 21
-168.1701198268579
 31
0.0
  0
LINE
  5
50E
330
1F
100
AcDbEntity
  8
0-F
  6
Continuous
 62
     7
370
     9
100
AcDbLine
 10
294.6268813674515
 20
-166.8648747624576
 30
0.0
 11
284.7124625541069
 21
-165.5596296980573
 31
0.0
  0
LINE
  5
50F
330
1F
100
AcDbEntity
  8
0-F
  6
Continuous
 62
     7
370
     9
100
AcDbLine
 10
294.6268813674515
 20
-166.8648747624576
 30
0.0
 11
284.7124625541069
 21
-168.1701198268579
 31
0.0
  0
LINE
  5
510
330
1F
100
AcDbEntity
  8
0-F
  6
Continuous
 62
     7
370
     9
100
AcDbLine
 10
294.6265844396644
 20
-206.8648582664694
 30
0.0
 11
319.626815383499
 21
-206.8648582664694
 31
0.0
  0
LINE
  5
511
330
1F
100
AcDbEntity
  8
0-F
  6
Continuous
 62
     7
370
     9
100
AcDbLine
 10
294.6265844396644
 20
-206.8648582664694
 30
0.0
 11
304.541003253009
 21
-205.5596132020692
 31
0.0
  0
LINE
  5
512
330
1F
100
AcDbEntity
  8
0-F
  6
Continuous
 62
     7
370
     9
100
AcDbLine
 10
294.6265844396644
 20
-206.8648582664694
 30
0.0
 11
304.541003253009
 21
-208.1701528188344
 31
0.0
  0
LINE
  5
513
330
1F
100
AcDbEntity
  8
0-F
  6
Continuous
 62
     7
370
     9
100
AcDbLine
 10
319.626815383499
 20
-206.8648582664694
 30
0.0
 11
309.7123965701544
 21
-205.5596132020692
 31
0.0
  0
LINE
  5
514
330
1F
100
AcDbEntity
  8
0-F
  6
Continuous
 62
     7
370
     9
100
AcDbLine
 10
319.626815383499
 20
-206.8648582664694
 30
0.0
 11
309.7123965701544
 21
-208.1701528188344
 31
0.0
  0
LINE
  5
515
330
1F
100
AcDbEntity
  8
0-F
  6
Continuous
 62
     7
370
     9
100
AcDbLine
 10
319.5412012048669
 20
-165.5596296980573
 30
0.0
 11
309.6267823915223
 21
-166.8662604254644
 31
0.0
  0
LINE
  5
516
330
1F
100
AcDbEntity
  8
0-F
  6
Continuous
 62
     7
370
     9
100
AcDbLine
 10
329.626749399546
 20
-166.8648747624576
 30
0.0
 11
274.6269143594277
 21
-166.8648747624576
 31
0.0
  0
TEXT
  5
517
330
1F
100
AcDbEntity
  8
0-F
  6
Continuous
 62
     2
370
     9
100
AcDbText
 10
-246.0202150087098
 20
-162.6088681640623
 30
0.0
 40
12.192
  1
25.5
 41
1.09375
  7
ＭＳ ゴシック
100
AcDbText
  0
TEXT
  5
518
330
1F
100
AcDbEntity
  8
0-F
  6
Continuous
 62
     2
370
     9
100
AcDbText
 10
-163.9602669380806
 20
-162.6088681640623
 30
0.0
 40
12.192
  1
14
 41
1.0625
  7
ＭＳ ゴシック
100
AcDbText
  0
TEXT
  5
519
330
1F
100
AcDbEntity
  8
0-F
  6
Continuous
 62
     2
370
     9
100
AcDbText
 10
274.5404126966323
 20
-162.6088681640623
 30
0.0
 40
12.192
  1
15
 41
1.0625
  7
ＭＳ ゴシック
100
AcDbText
  0
TEXT
  5
51A
330
1F
100
AcDbEntity
  8
0-F
  6
Continuous
 62
     2
370
     9
100
AcDbText
 10
-228.3731186325485
 20
-202.6088516680742
 30
0.0
 40
12.192
  1
500
 41
1.083333333333333
  7
ＭＳ ゴシック
100
AcDbText
  0
TEXT
  5
51B
330
1F
100
AcDbEntity
  8
0-F
  6
Continuous
 62
     2
370
     9
100
AcDbText
 10
298.6266999115815
 20
-202.6088516680742
 30
0.0
 40
12.192
  1
25
 41
1.0625
  7
ＭＳ ゴシック
100
AcDbText
  0
LWPOLYLINE
  5
51C
330
1F
100
AcDbEntity
  8
0-F
  6
Continuous
 62
     7
370
     9
100
AcDbPolyline
 90
        4
 70
     1
 43
0.4
 10
-182.6731846165013
 20
-166.8648747624576
 42
0.4142135623731
 10
-182.8731846165012
 20
-166.6648747624576
 42
0.4142135623731
 10
-183.0731846165012
 20
-166.8648747624576
 42
0.4142135623731
 10
-182.8731846165012
 20
-167.0648747624576
 42
0.4142135623731
  0
TEXT
  5
51D
330
1F
100
AcDbEntity
  8
0-F
  6
Continuous
 62
     2
370
     9
100
AcDbText
 10
90.37080955005283
 20
112.4881112427091
 30
0.0
 40
12.192
  1
25.5
 50
90.0000025044784
 41
1.09375
  7
ＭＳ ゴシック
100
AcDbText
  0
TEXT
  5
51E
330
1F
100
AcDbEntity
  8
0-F
  6
Continuous
 62
     2
370
     9
100
AcDbText
 10
130.3708423453281
 20
130.1352076188705
 30
0.0
 40
12.192
  1
500
 50
90.00000250447873
 41
1.083333333333333
  7
ＭＳ ゴシック
100
AcDbText
  0
TEXT
  5
51F
330
1F
100
AcDbEntity
  8
0-F
  6
Continuous
 62
     2
370
     9
100
AcDbText
 10
90.37080915665032
 20
194.5480593133383
 30
0.0
 40
12.192
  1
14
 50
90.00000250447789
 41
1.062499999999999
  7
ＭＳ ゴシック
100
AcDbText
  0
TEXT
  5
520
330
1F
100
AcDbEntity
  8
F-5
  6
Continuous
 62
     2
370
     9
100
AcDbText
 10
-298.0001154719173
 20
-538.9873182999895
 30
0.0
 40
12.192
  1
格子型鋳鉄製集水桝蓋　ＧＡ－５００角×２５
 41
1.119047619047619
  7
ＭＳ ゴシック
100
AcDbText
  0
ENDSEC
  0
SECTION
  2
OBJECTS
  0
DICTIONARY
  5
C
330
0
100
AcDbDictionary
281
     1
  3
ACAD_GROUP
350
D
  3
ACAD_LAYOUT
350
1A
  3
ACAD_MLEADERSTYLE
350
522
  3
ACAD_MLINESTYLE
350
17
  3
ACAD_PLOTSETTINGS
350
19
  3
ACAD_PLOTSTYLENAME
350
E
  3
ACAD_TABLESTYLE
350
521
  3
ACAD_VISUALSTYLE
350
2A
  0
DICTIONARY
  5
D
102
{ACAD_REACTORS
330
C
102
}
330
C
100
AcDbDictionary
281
     1
  0
DICTIONARY
  5
1A
102
{ACAD_REACTORS
330
C
102
}
330
C
100
AcDbDictionary
281
     1
  3
Layout1
350
1E
  3
Layout2
350
26
  3
Model
350
22
  0
DICTIONARY
  5
522
102
{ACAD_REACTORS
330
C
102
}
330
C
100
AcDbDictionary
281
     1
  0
DICTIONARY
  5
17
102
{ACAD_REACTORS
330
C
102
}
330
C
100
AcDbDictionary
281
     1
  3
Standard
350
18
  0
DICTIONARY
  5
19
102
{ACAD_REACTORS
330
C
102
}
330
C
100
AcDbDictionary
281
     1
  0
ACDBDICTIONARYWDFLT
  5
E
102
{ACAD_REACTORS
330
C
102
}
330
C
100
AcDbDictionary
281
     1
  3
Normal
350
F
100
AcDbDictionaryWithDefault
340
F
  0
DICTIONARY
  5
521
102
{ACAD_REACTORS
330
C
102
}
330
C
100
AcDbDictionary
281
     1
  0
DICTIONARY
  5
2A
102
{ACAD_REACTORS
330
C
102
}
330
C
100
AcDbDictionary
281
     1
  3
2dWireframe
350
2F
  3
3D Hidden
350
31
  3
3dWireframe
350
30
  3
Basic
350
32
  3
Brighten
350
36
  3
ColorChange
350
3A
  3
Conceptual
350
34
  3
Dim
350
35
  3
Facepattern
350
39
  3
Flat
350
2B
  3
FlatWithEdges
350
2C
  3
Gouraud
350
2D
  3
GouraudWithEdges
350
2E
  3
Linepattern
350
38
  3
Realistic
350
33
  3
Thicken
350
37
  0
LAYOUT
  5
1E
102
{ACAD_REACTORS
330
1A
102
}
330
1A
100
AcDbPlotSettings
  1

  2
none_device
  4

  6

 40
0.0
 41
0.0
 42
0.0
 43
0.0
 44
0.0
 45
0.0
 46
0.0
 47
0.0
 48
0.0
 49
0.0
140
0.0
141
0.0
142
1.0
143
1.0
 70
   688
 72
     0
 73
     0
 74
     5
  7

 75
    16
 76
     0
 77
     5
 78
   300
147
1.0
148
0.0
149
0.0
100
AcDbLayout
  1
Layout1
 70
     1
 71
     1
 10
0.0
 20
0.0
 11
420.0
 21
297.0
 12
0.0
 22
0.0
 32
0.0
 14
1.000000000000000E+20
 24
1.000000000000000E+20
 34
1.000000000000000E+20
 15
-1.000000000000000E+20
 25
-1.000000000000000E+20
 35
-1.000000000000000E+20
146
0.0
 13
0.0
 23
0.0
 33
0.0
 16
1.0
 26
0.0
 36
0.0
 17
0.0
 27
1.0
 37
0.0
 76
     0
330
1B
  0
LAYOUT
  5
26
102
{ACAD_REACTORS
330
1A
102
}
330
1A
100
AcDbPlotSettings
  1

  2
none_device
  4

  6

 40
0.0
 41
0.0
 42
0.0
 43
0.0
 44
0.0
 45
0.0
 46
0.0
 47
0.0
 48
0.0
 49
0.0
140
0.0
141
0.0
142
1.0
143
1.0
 70
   688
 72
     0
 73
     0
 74
     5
  7

 75
    16
 76
     0
 77
     5
 78
   300
147
1.0
148
0.0
149
0.0
100
AcDbLayout
  1
Layout2
 70
     1
 71
     2
 10
0.0
 20
0.0
 11
0.0
 21
0.0
 12
0.0
 22
0.0
 32
0.0
 14
0.0
 24
0.0
 34
0.0
 15
0.0
 25
0.0
 35
0.0
146
0.0
 13
0.0
 23
0.0
 33
0.0
 16
1.0
 26
0.0
 36
0.0
 17
0.0
 27
1.0
 37
0.0
 76
     0
330
23
  0
LAYOUT
  5
22
102
{ACAD_REACTORS
330
1A
102
}
330
1A
100
AcDbPlotSettings
  1

  2
none_device
  4

  6

 40
0.0
 41
0.0
 42
0.0
 43
0.0
 44
0.0
 45
0.0
 46
0.0
 47
0.0
 48
0.0
 49
0.0
140
0.0
141
0.0
142
1.0
143
1.0
 70
  1712
 72
     0
 73
     0
 74
     0
  7

 75
     0
 76
     0
 77
     5
 78
   300
147
1.0
148
0.0
149
0.0
100
AcDbLayout
  1
Model
 70
     1
 71
     0
 10
-840.0
 20
-594.0
 11
840.0
 21
594.0
 12
0.0
 22
0.0
 32
0.0
 14
-840.0
 24
-594.0
 34
0.0
 15
840.0
 25
594.0
 35
0.0
146
0.0
 13
0.0
 23
0.0
 33
0.0
 16
1.0
 26
0.0
 36
0.0
 17
0.0
 27
1.0
 37
0.0
 76
     0
330
1F
331
29
  0
MLINESTYLE
  5
18
102
{ACAD_REACTORS
330
17
102
}
330
17
100
AcDbMlineStyle
  2
Standard
 70
     0
  3

 62
   256
 51
90.0
 52
90.0
 71
     2
 49
0.5
 62
   256
  6
BYLAYER
 49
-0.5
 62
   256
  6
BYLAYER
  0
ACDBPLACEHOLDER
  5
F
102
{ACAD_REACTORS
330
E
102
}
330
E
  0
VISUALSTYLE
  5
2F
102
{ACAD_REACTORS
330
2A
102
}
330
2A
100
AcDbVisualStyle
  2
2dWireframe
 70
     4
 71
     0
 72
     2
 73
     0
 90
        0
 40
-0.6
 41
-30.0
 62
     5
 63
     7
421
 16777215
 74
     1
 91
        4
 64
     7
 65
   257
 75
     1
175
     1
 42
1.0
 92
        0
 66
   257
 43
1.0
 76
     1
 77
     6
 78
     2
 67
     7
 79
     5
170
     0
171
     0
290
     0
174
     0
 93
        1
 44
0.0
173
     0
291
     0
 45
0.0
1001
ACAD
1000
AcDbSavedByObjectVersion
1070
     0
  0
VISUALSTYLE
  5
31
102
{ACAD_REACTORS
330
2A
102
}
330
2A
100
AcDbVisualStyle
  2
3D Hidden
 70
     6
 71
     1
 72
     2
 73
     2
 90
        0
 40
-0.6
 41
-30.0
 62
     5
 63
     7
421
 16777215
 74
     2
 91
        2
 64
     7
 65
   257
 75
     2
175
     1
 42
40.0
 92
        0
 66
   257
 43
1.0
 76
     1
 77
     6
 78
     2
 67
     7
 79
     3
170
     0
171
     0
290
     0
174
     0
 93
        1
 44
0.0
173
     0
291
     0
 45
0.0
1001
ACAD
1000
AcDbSavedByObjectVersion
1070
     0
  0
VISUALSTYLE
  5
30
102
{ACAD_REACTORS
330
2A
102
}
330
2A
100
AcDbVisualStyle
  2
3dWireframe
 70
     5
 71
     0
 72
     2
 73
     0
 90
        0
 40
-0.6
 41
-30.0
 62
     5
 63
     7
421
 16777215
 74
     1
 91
        4
 64
     7
 65
   257
 75
     1
175
     1
 42
1.0
 92
        0
 66
   257
 43
1.0
 76
     1
 77
     6
 78
     2
 67
     7
 79
     5
170
     0
171
     0
290
     0
174
     0
 93
        1
 44
0.0
173
     0
291
     0
 45
0.0
1001
ACAD
1000
AcDbSavedByObjectVersion
1070
     0
  0
VISUALSTYLE
  5
32
102
{ACAD_REACTORS
330
2A
102
}
330
2A
100
AcDbVisualStyle
  2
Basic
 70
     7
 71
     1
 72
     0
 73
     1
 90
        0
 40
-0.6
 41
-30.0
 62
     5
 63
     7
421
 16777215
 74
     0
 91
        4
 64
     7
 65
   257
 75
     1
175
     1
 42
1.0
 92
        8
 66
     7
 43
1.0
 76
     1
 77
     6
 78
     2
 67
     7
 79
     5
170
     0
171
     0
290
     0
174
     0
 93
        1
 44
0.0
173
     0
291
     1
 45
0.0
1001
ACAD
1000
AcDbSavedByObjectVersion
1070
     0
  0
VISUALSTYLE
  5
36
102
{ACAD_REACTORS
330
2A
102
}
330
2A
100
AcDbVisualStyle
  2
Brighten
 70
    12
 71
     2
 72
     2
 73
     0
 90
        0
 40
-0.6
 41
-30.0
 62
     5
 63
     7
421
 16777215
 74
     1
 91
        4
 64
     7
 65
   257
 75
     1
175
     1
 42
1.0
 92
        8
 66
     7
 43
1.0
 76
     1
 77
     6
 78
     2
 67
     7
 79
     5
170
     0
171
     0
290
     0
174
     0
 93
        1
 44
50.0
173
     0
291
     1
 45
0.0
1001
ACAD
1000
AcDbSavedByObjectVersion
1070
     0
  0
VISUALSTYLE
  5
3A
102
{ACAD_REACTORS
330
2A
102
}
330
2A
100
AcDbVisualStyle
  2
ColorChange
 70
    16
 71
     2
 72
     2
 73
     3
 90
        0
 40
-0.6
 41
-30.0
 62
     5
 63
     8
421
  8421504
 74
     1
 91
        4
 64
     7
 65
   257
 75
     1
175
     1
 42
1.0
 92
        8
 66
     8
424
  8421504
 43
1.0
 76
     1
 77
     6
 78
     2
 67
     7
 79
     5
170
     0
171
     0
290
     0
174
     0
 93
        1
 44
0.0
173
     0
291
     1
 45
0.0
1001
ACAD
1000
AcDbSavedByObjectVersion
1070
     0
  0
VISUALSTYLE
  5
34
102
{ACAD_REACTORS
330
2A
102
}
330
2A
100
AcDbVisualStyle
  2
Conceptual
 70
     9
 71
     3
 72
     2
 73
     0
 90
        0
 40
-0.6
 41
-30.0
 62
     5
 63
     7
421
 16777215
 74
     2
 91
        2
 64
     7
 65
   257
 75
     1
175
     1
 42
40.0
 92
        8
 66
     7
 43
1.0
 76
     1
 77
     6
 78
     2
 67
     7
 79
     3
170
     0
171
     0
290
     0
174
     0
 93
        1
 44
0.0
173
     0
291
     0
 45
0.0
1001
ACAD
1000
AcDbSavedByObjectVersion
1070
     0
  0
VISUALSTYLE
  5
35
102
{ACAD_REACTORS
330
2A
102
}
330
2A
100
AcDbVisualStyle
  2
Dim
 70
    11
 71
     2
 72
     2
 73
     0
 90
        0
 40
-0.6
 41
-30.0
 62
     5
 63
     7
421
 16777215
 74
     1
 91
        4
 64
     7
 65
   257
 75
     1
175
     1
 42
1.0
 92
        8
 66
     7
 43
1.0
 76
     1
 77
     6
 78
     2
 67
     7
 79
     5
170
     0
171
     0
290
     0
174
     0
 93
        1
 44
-50.0
173
     0
291
     1
 45
0.0
1001
ACAD
1000
AcDbSavedByObjectVersion
1070
     0
  0
VISUALSTYLE
  5
39
102
{ACAD_REACTORS
330
2A
102
}
330
2A
100
AcDbVisualStyle
  2
Facepattern
 70
    15
 71
     2
 72
     2
 73
     0
 90
        0
 40
-0.6
 41
-30.0
 62
     5
 63
     7
421
 16777215
 74
     1
 91
        4
 64
     7
 65
   257
 75
     1
175
     1
 42
1.0
 92
        8
 66
     7
 43
1.0
 76
     1
 77
     6
 78
     2
 67
     7
 79
     5
170
     0
171
     0
290
     0
174
     0
 93
        1
 44
0.0
173
     0
291
     1
 45
0.0
1001
ACAD
1000
AcDbSavedByObjectVersion
1070
     0
  0
VISUALSTYLE
  5
2B
102
{ACAD_REACTORS
330
2A
102
}
330
2A
100
AcDbVisualStyle
  2
Flat
 70
     0
 71
     2
 72
     1
 73
     1
 90
        2
 40
-0.6
 41
30.0
 62
     5
 63
     7
421
 16777215
 74
     0
 91
        4
 64
     7
 65
   257
 75
     1
175
     1
 42
1.0
 92
        8
 66
     7
 43
1.0
 76
     1
 77
     6
 78
     2
 67
     7
 79
     5
170
     0
171
     0
290
     0
174
     0
 93
       13
 44
0.0
173
     0
291
     1
 45
0.0
1001
ACAD
1000
AcDbSavedByObjectVersion
1070
     0
  0
VISUALSTYLE
  5
2C
102
{ACAD_REACTORS
330
2A
102
}
330
2A
100
AcDbVisualStyle
  2
FlatWithEdges
 70
     1
 71
     2
 72
     1
 73
     1
 90
        2
 40
-0.6
 41
30.0
 62
     5
 63
     7
421
 16777215
 74
     1
 91
        4
 64
     7
 65
   257
 75
     1
175
     1
 42
1.0
 92
        0
 66
   257
 43
1.0
 76
     1
 77
     6
 78
     2
 67
     7
 79
     5
170
     0
171
     0
290
     0
174
     0
 93
       13
 44
0.0
173
     0
291
     1
 45
0.0
1001
ACAD
1000
AcDbSavedByObjectVersion
1070
     0
  0
VISUALSTYLE
  5
2D
102
{ACAD_REACTORS
330
2A
102
}
330
2A
100
AcDbVisualStyle
  2
Gouraud
 70
     2
 71
     2
 72
     2
 73
     1
 90
        2
 40
-0.6
 41
30.0
 62
     5
 63
     7
421
 16777215
 74
     0
 91
        4
 64
     7
 65
   257
 75
     1
175
     1
 42
1.0
 92
        0
 66
     7
 43
1.0
 76
     1
 77
     6
 78
     2
 67
     7
 79
     5
170
     0
171
     0
290
     0
174
     0
 93
       13
 44
0.0
173
     0
291
     1
 45
0.0
1001
ACAD
1000
AcDbSavedByObjectVersion
1070
     0
  0
VISUALSTYLE
  5
2E
102
{ACAD_REACTORS
330
2A
102
}
330
2A
100
AcDbVisualStyle
  2
GouraudWithEdges
 70
     3
 71
     2
 72
     2
 73
     1
 90
        2
 40
-0.6
 41
30.0
 62
     5
 63
     7
421
 16777215
 74
     1
 91
        4
 64
     7
 65
   257
 75
     1
175
     1
 42
1.0
 92
        0
 66
   257
 43
1.0
 76
     1
 77
     6
 78
     2
 67
     7
 79
     5
170
     0
171
     0
290
     0
174
     0
 93
       13
 44
0.0
173
     0
291
     1
 45
0.0
1001
ACAD
1000
AcDbSavedByObjectVersion
1070
     0
  0
VISUALSTYLE
  5
38
102
{ACAD_REACTORS
330
2A
102
}
330
2A
100
AcDbVisualStyle
  2
Linepattern
 70
    14
 71
     2
 72
     2
 73
     0
 90
        0
 40
-0.6
 41
-30.0
 62
     5
 63
     7
421
 16777215
 74
     1
 91
        4
 64
     7
 65
   257
 75
     7
175
     7
 42
1.0
 92
        8
 66
     7
 43
1.0
 76
     1
 77
     6
 78
     2
 67
     7
 79
     5
170
     0
171
     0
290
     0
174
     0
 93
        1
 44
0.0
173
     0
291
     1
 45
0.0
1001
ACAD
1000
AcDbSavedByObjectVersion
1070
     0
  0
VISUALSTYLE
  5
33
102
{ACAD_REACTORS
330
2A
102
}
330
2A
100
AcDbVisualStyle
  2
Realistic
 70
     8
 71
     2
 72
     2
 73
     0
 90
        0
 40
-0.6
 41
-30.0
 62
     5
 63
     7
421
 16777215
 74
     1
 91
        0
 64
     7
 65
   257
 75
     1
175
     1
 42
1.0
 92
        8
 66
     8
424
  7895160
 43
1.0
 76
     1
 77
     6
 78
     2
 67
     7
 79
     5
170
     0
171
     0
290
     0
174
     0
 93
       13
 44
0.0
173
     0
291
     0
 45
0.0
1001
ACAD
1000
AcDbSavedByObjectVersion
1070
     0
  0
VISUALSTYLE
  5
37
102
{ACAD_REACTORS
330
2A
102
}
330
2A
100
AcDbVisualStyle
  2
Thicken
 70
    13
 71
     2
 72
     2
 73
     0
 90
        0
 40
-0.6
 41
-30.0
 62
     5
 63
     7
421
 16777215
 74
     1
 91
        4
 64
     7
 65
   257
 75
     1
175
     1
 42
1.0
 92
       12
 66
     7
 43
1.0
 76
     1
 77
     6
 78
     2
 67
     7
 79
     5
170
     0
171
     0
290
     0
174
     0
 93
        1
 44
0.0
173
     0
291
     1
 45
0.0
1001
ACAD
1000
AcDbSavedByObjectVersion
1070
     0
  0
ENDSEC
  0
EOF
