  0
SECTION
  2
HEADER
  9
$ACADVER
  1
AC1027
  9
$ACADMAINTVER
 70
   105
  9
$DWGCODEPAGE
  3
ANSI_932
  9
$REQUIREDVERSIONS
160
                 0
  9
$INSBASE
 10
0.0
 20
0.0
 30
0.0
  9
$EXTMIN
 10
-840.0
 20
-594.0
 30
0.0
  9
$EXTMAX
 10
840.0
 20
594.0
 30
0.0
  9
$LIMMIN
 10
-840.0
 20
-594.0
  9
$LIMMAX
 10
840.0
 20
594.0
  9
$ORTHOMODE
 70
     0
  9
$REGENMODE
 70
     1
  9
$FILLMODE
 70
     1
  9
$QTEXTMODE
 70
     0
  9
$MIRRTEXT
 70
     1
  9
$LTSCALE
 40
4.0
  9
$ATTMODE
 70
     1
  9
$TEXTSIZE
 40
2.5
  9
$TRACEWID
 40
1.0
  9
$TEXTSTYLE
  7
Standard
  9
$CLAYER
  8
0
  9
$CELTYPE
  6
ByLayer
  9
$CECOLOR
 62
   256
  9
$CELTSCALE
 40
1.0
  9
$DISPSILH
 70
     0
  9
$DIMSCALE
 40
1.0
  9
$DIMASZ
 40
2.5
  9
$DIMEXO
 40
0.625
  9
$DIMDLI
 40
3.75
  9
$DIMRND
 40
0.0
  9
$DIMDLE
 40
0.0
  9
$DIMEXE
 40
1.25
  9
$DIMTP
 40
0.0
  9
$DIMTM
 40
0.0
  9
$DIMTXT
 40
2.5
  9
$DIMCEN
 40
2.5
  9
$DIMTSZ
 40
0.0
  9
$DIMTOL
 70
     0
  9
$DIMLIM
 70
     0
  9
$DIMTIH
 70
     0
  9
$DIMTOH
 70
     0
  9
$DIMSE1
 70
     0
  9
$DIMSE2
 70
     0
  9
$DIMTAD
 70
     1
  9
$DIMZIN
 70
     8
  9
$DIMBLK
  1

  9
$DIMASO
 70
     1
  9
$DIMSHO
 70
     1
  9
$DIMPOST
  1

  9
$DIMAPOST
  1

  9
$DIMALT
 70
     0
  9
$DIMALTD
 70
     3
  9
$DIMALTF
 40
0.03937007874016
  9
$DIMLFAC
 40
1.0
  9
$DIMTOFL
 70
     1
  9
$DIMTVP
 40
0.0
  9
$DIMTIX
 70
     0
  9
$DIMSOXD
 70
     0
  9
$DIMSAH
 70
     0
  9
$DIMBLK1
  1

  9
$DIMBLK2
  1

  9
$DIMSTYLE
  2
ISO-25
  9
$DIMCLRD
 70
     0
  9
$DIMCLRE
 70
     0
  9
$DIMCLRT
 70
     0
  9
$DIMTFAC
 40
1.0
  9
$DIMGAP
 40
0.625
  9
$DIMJUST
 70
     0
  9
$DIMSD1
 70
     0
  9
$DIMSD2
 70
     0
  9
$DIMTOLJ
 70
     0
  9
$DIMTZIN
 70
     8
  9
$DIMALTZ
 70
     0
  9
$DIMALTTZ
 70
     0
  9
$DIMUPT
 70
     0
  9
$DIMDEC
 70
     2
  9
$DIMTDEC
 70
     2
  9
$DIMALTU
 70
     2
  9
$DIMALTTD
 70
     3
  9
$DIMTXSTY
  7
Standard
  9
$DIMAUNIT
 70
     0
  9
$DIMADEC
 70
     0
  9
$DIMALTRND
 40
0.0
  9
$DIMAZIN
 70
     0
  9
$DIMDSEP
 70
    44
  9
$DIMATFIT
 70
     3
  9
$DIMFRAC
 70
     0
  9
$DIMLDRBLK
  1

  9
$DIMLUNIT
 70
     2
  9
$DIMLWD
 70
    -2
  9
$DIMLWE
 70
    -2
  9
$DIMTMOVE
 70
     0
  9
$DIMFXL
 40
1.0
  9
$DIMFXLON
 70
     0
  9
$DIMJOGANG
 40
0.7853981633974483
  9
$DIMTFILL
 70
     0
  9
$DIMTFILLCLR
 70
     0
  9
$DIMARCSYM
 70
     0
  9
$DIMLTYPE
  6

  9
$DIMLTEX1
  6

  9
$DIMLTEX2
  6

  9
$DIMTXTDIRECTION
 70
     0
  9
$LUNITS
 70
     2
  9
$LUPREC
 70
     4
  9
$SKETCHINC
 40
1.0
  9
$FILLETRAD
 40
10.0
  9
$AUNITS
 70
     0
  9
$AUPREC
 70
     0
  9
$MENU
  1
.
  9
$ELEVATION
 40
0.0
  9
$PELEVATION
 40
0.0
  9
$THICKNESS
 40
0.0
  9
$LIMCHECK
 70
     0
  9
$CHAMFERA
 40
0.0
  9
$CHAMFERB
 40
0.0
  9
$CHAMFERC
 40
0.0
  9
$CHAMFERD
 40
0.0
  9
$SKPOLY
 70
     0
  9
$TDCREATE
 40
2458815.590701643
  9
$TDUCREATE
 40
2458815.215701643
  9
$TDUPDATE
 40
2458815.590701829
  9
$TDUUPDATE
 40
2458815.215701829
  9
$TDINDWG
 40
0.0000000116
  9
$TDUSRTIMER
 40
0.0000000116
  9
$USRTIMER
 70
     1
  9
$ANGBASE
 50
0.0
  9
$ANGDIR
 70
     0
  9
$PDMODE
 70
     0
  9
$PDSIZE
 40
0.0
  9
$PLINEWID
 40
0.0
  9
$SPLFRAME
 70
     0
  9
$SPLINETYPE
 70
     6
  9
$SPLINESEGS
 70
     8
  9
$HANDSEED
  5
541
  9
$SURFTAB1
 70
     6
  9
$SURFTAB2
 70
     6
  9
$SURFTYPE
 70
     6
  9
$SURFU
 70
     6
  9
$SURFV
 70
     6
  9
$UCSBASE
  2

  9
$UCSNAME
  2

  9
$UCSORG
 10
0.0
 20
0.0
 30
0.0
  9
$UCSXDIR
 10
1.0
 20
0.0
 30
0.0
  9
$UCSYDIR
 10
0.0
 20
1.0
 30
0.0
  9
$UCSORTHOREF
  2

  9
$UCSORTHOVIEW
 70
     0
  9
$UCSORGTOP
 10
0.0
 20
0.0
 30
0.0
  9
$UCSORGBOTTOM
 10
0.0
 20
0.0
 30
0.0
  9
$UCSORGLEFT
 10
0.0
 20
0.0
 30
0.0
  9
$UCSORGRIGHT
 10
0.0
 20
0.0
 30
0.0
  9
$UCSORGFRONT
 10
0.0
 20
0.0
 30
0.0
  9
$UCSORGBACK
 10
0.0
 20
0.0
 30
0.0
  9
$PUCSBASE
  2

  9
$PUCSNAME
  2

  9
$PUCSORG
 10
0.0
 20
0.0
 30
0.0
  9
$PUCSXDIR
 10
1.0
 20
0.0
 30
0.0
  9
$PUCSYDIR
 10
0.0
 20
1.0
 30
0.0
  9
$PUCSORTHOREF
  2

  9
$PUCSORTHOVIEW
 70
     0
  9
$PUCSORGTOP
 10
0.0
 20
0.0
 30
0.0
  9
$PUCSORGBOTTOM
 10
0.0
 20
0.0
 30
0.0
  9
$PUCSORGLEFT
 10
0.0
 20
0.0
 30
0.0
  9
$PUCSORGRIGHT
 10
0.0
 20
0.0
 30
0.0
  9
$PUCSORGFRONT
 10
0.0
 20
0.0
 30
0.0
  9
$PUCSORGBACK
 10
0.0
 20
0.0
 30
0.0
  9
$USERI1
 70
     0
  9
$USERI2
 70
     0
  9
$USERI3
 70
     0
  9
$USERI4
 70
     0
  9
$USERI5
 70
     0
  9
$USERR1
 40
0.0
  9
$USERR2
 40
0.0
  9
$USERR3
 40
0.0
  9
$USERR4
 40
0.0
  9
$USERR5
 40
0.0
  9
$WORLDVIEW
 70
     1
  9
$SHADEDGE
 70
     3
  9
$SHADEDIF
 70
    70
  9
$TILEMODE
 70
     1
  9
$MAXACTVP
 70
    64
  9
$PINSBASE
 10
0.0
 20
0.0
 30
0.0
  9
$PLIMCHECK
 70
     0
  9
$PEXTMIN
 10
1.000000000000000E+20
 20
1.000000000000000E+20
 30
1.000000000000000E+20
  9
$PEXTMAX
 10
-1.000000000000000E+20
 20
-1.000000000000000E+20
 30
-1.000000000000000E+20
  9
$PLIMMIN
 10
0.0
 20
0.0
  9
$PLIMMAX
 10
420.0
 20
297.0
  9
$UNITMODE
 70
     0
  9
$VISRETAIN
 70
     1
  9
$PLINEGEN
 70
     0
  9
$PSLTSCALE
 70
     1
  9
$TREEDEPTH
 70
  3020
  9
$CMLSTYLE
  2
Standard
  9
$CMLJUST
 70
     0
  9
$CMLSCALE
 40
20.0
  9
$PROXYGRAPHICS
 70
     1
  9
$MEASUREMENT
 70
     1
  9
$CELWEIGHT
370
    -1
  9
$ENDCAPS
280
     0
  9
$JOINSTYLE
280
     0
  9
$LWDISPLAY
290
     0
  9
$INSUNITS
 70
     4
  9
$HYPERLINKBASE
  1

  9
$STYLESHEET
  1

  9
$XEDIT
290
     1
  9
$CEPSNTYPE
380
     0
  9
$PSTYLEMODE
290
     1
  9
$FINGERPRINTGUID
  2
{6807D76A-F343-49C5-B183-15F58F1F507C}
  9
$VERSIONGUID
  2
{FAEB1C32-E019-11D5-929B-00C0DF256EC4}
  9
$EXTNAMES
290
     1
  9
$PSVPSCALE
 40
0.0
  9
$OLESTARTUP
290
     0
  9
$SORTENTS
280
   127
  9
$INDEXCTL
280
     0
  9
$HIDETEXT
280
     1
  9
$XCLIPFRAME
280
     2
  9
$HALOGAP
280
     0
  9
$OBSCOLOR
 70
   257
  9
$OBSLTYPE
280
     0
  9
$INTERSECTIONDISPLAY
280
     0
  9
$INTERSECTIONCOLOR
 70
   257
  9
$DIMASSOC
280
     2
  9
$PROJECTNAME
  1

  9
$CAMERADISPLAY
290
     0
  9
$LENSLENGTH
 40
50.0
  9
$CAMERAHEIGHT
 40
0.0
  9
$STEPSPERSEC
 40
2.0
  9
$STEPSIZE
 40
6.0
  9
$3DDWFPREC
 40
2.0
  9
$PSOLWIDTH
 40
5.0
  9
$PSOLHEIGHT
 40
80.0
  9
$LOFTANG1
 40
1.570796326794897
  9
$LOFTANG2
 40
1.570796326794897
  9
$LOFTMAG1
 40
0.0
  9
$LOFTMAG2
 40
0.0
  9
$LOFTPARAM
 70
     7
  9
$LOFTNORMALS
280
     1
  9
$LATITUDE
 40
37.795
  9
$LONGITUDE
 40
-122.394
  9
$NORTHDIRECTION
 40
0.0
  9
$TIMEZONE
 70
 -8000
  9
$LIGHTGLYPHDISPLAY
280
     1
  9
$TILEMODELIGHTSYNCH
280
     1
  9
$CMATERIAL
347
44
  9
$SOLIDHIST
280
     0
  9
$SHOWHIST
280
     1
  9
$DWFFRAME
280
     2
  9
$DGNFRAME
280
     2
  9
$REALWORLDSCALE
290
     1
  9
$INTERFERECOLOR
 62
   256
  9
$CSHADOW
280
     0
  9
$SHADOWPLANELOCATION
 40
0.0
  0
ENDSEC
  0
SECTION
  2
CLASSES
  0
CLASS
  1
ACDBDICTIONARYWDFLT
  2
AcDbDictionaryWithDefault
  3
ObjectDBX Classes
 90
        0
 91
        4
280
     0
281
     0
  0
CLASS
  1
VISUALSTYLE
  2
AcDbVisualStyle
  3
ObjectDBX Classes
 90
     4095
 91
        4
280
     0
281
     0
  0
CLASS
  1
MATERIAL
  2
AcDbMaterial
  3
ObjectDBX Classes
 90
     1153
 91
        4
280
     0
281
     0
  0
CLASS
  1
SCALE
  2
AcDbScale
  3
ObjectDBX Classes
 90
     1153
 91
        4
280
     0
281
     0
  0
CLASS
  1
TABLESTYLE
  2
AcDbTableStyle
  3
ObjectDBX Classes
 90
     4095
 91
        4
280
     0
281
     0
  0
CLASS
  1
MLEADERSTYLE
  2
AcDbMLeaderStyle
  3
ACDB_MLEADERSTYLE_CLASS
 90
     4095
 91
        4
280
     0
281
     0
  0
CLASS
  1
SUN
  2
AcDbSun
  3
SCENEOE
 90
     1153
 91
        4
280
     0
281
     0
  0
CLASS
  1
DICTIONARYVAR
  2
AcDbDictionaryVar
  3
ObjectDBX Classes
 90
        0
 91
        4
280
     0
281
     0
  0
CLASS
  1
CELLSTYLEMAP
  2
AcDbCellStyleMap
  3
ObjectDBX Classes
 90
     1152
 91
        4
280
     0
281
     0
  0
ENDSEC
  0
SECTION
  2
TABLES
  0
TABLE
  2
VPORT
  5
8
330
0
100
AcDbSymbolTable
 70
     1
  0
VPORT
  5
29
330
8
100
AcDbSymbolTableRecord
100
AcDbViewportTableRecord
  2
*Active
 70
     0
 10
0.0
 20
0.0
 11
1.0
 21
1.0
 12
0.0
 22
0.0
 13
0.0
 23
0.0
 14
10.0
 24
10.0
 15
10.0
 25
10.0
 16
0.0
 26
0.0
 36
1.0
 17
0.0
 27
0.0
 37
0.0
 40
1306.8
 41
1.414141414141414
 42
50.0
 43
0.0
 44
0.0
 50
0.0
 51
0.0
 71
     0
 72
 10000
 73
     1
 74
     3
 75
     0
 76
     0
 77
     0
 78
     0
281
     0
 65
     1
110
0.0
120
0.0
130
0.0
111
1.0
121
0.0
131
0.0
112
0.0
122
1.0
132
0.0
 79
     0
146
0.0
348
2F
 60
     3
 61
     5
292
     1
282
     1
141
0.0
142
0.0
 63
   250
361
6D
  0
ENDTAB
  0
TABLE
  2
LTYPE
  5
5
330
0
100
AcDbSymbolTable
 70
     2
  0
LTYPE
  5
14
330
5
100
AcDbSymbolTableRecord
100
AcDbLinetypeTableRecord
  2
ByBlock
 70
     0
  3

 72
    65
 73
     0
 40
0.0
  0
LTYPE
  5
15
330
5
100
AcDbSymbolTableRecord
100
AcDbLinetypeTableRecord
  2
ByLayer
 70
     0
  3

 72
    65
 73
     0
 40
0.0
  0
LTYPE
  5
16
330
5
100
AcDbSymbolTableRecord
100
AcDbLinetypeTableRecord
  2
Continuous
 70
     0
  3
Solid line
 72
    65
 73
     0
 40
0.0
  0
LTYPE
  5
6F
330
5
100
AcDbSymbolTableRecord
100
AcDbLinetypeTableRecord
  2
JWW_CENTER1
 70
     0
  3
-----  --  ----------  --  -----
 72
    65
 73
     4
 40
6.773333333333333
 49
4.233333333333333
 74
     0
 49
-0.8466666666666667
 74
     0
 49
0.8466666666666667
 74
     0
 49
-0.8466666666666667
 74
     0
  0
ENDTAB
  0
TABLE
  2
LAYER
  5
2
330
0
100
AcDbSymbolTable
 70
     3
  0
LAYER
  5
10
330
2
100
AcDbSymbolTableRecord
100
AcDbLayerTableRecord
  2
0
 70
     0
 62
     7
  6
Continuous
370
    -3
390
F
347
46
348
0
  0
LAYER
  5
70
330
2
100
AcDbSymbolTableRecord
100
AcDbLayerTableRecord
  2
その他
 70
     0
 62
     7
  6
Continuous
370
    -3
390
F
347
46
348
0
  0
LAYER
  5
71
330
2
100
AcDbSymbolTableRecord
100
AcDbLayerTableRecord
  2
ハッチ
 70
     0
 62
     7
  6
Continuous
370
    -3
390
F
347
46
348
0
  0
ENDTAB
  0
TABLE
  2
STYLE
  5
3
330
0
100
AcDbSymbolTable
 70
     2
  0
STYLE
  5
11
330
3
100
AcDbSymbolTableRecord
100
AcDbTextStyleTableRecord
  2
Standard
 70
     0
 40
0.0
 41
1.0
 50
0.0
 71
     0
 42
2.5
  3
txt
  4

  0
STYLE
  5
6E
330
3
100
AcDbSymbolTableRecord
100
AcDbTextStyleTableRecord
  2
ＭＳ ゴシック
 70
     0
 40
1.0
 41
1.0
 50
0.0
 71
     0
 42
2.5
  3

  4

1001
ACAD
1000
MS Gothic
1071
    32817
  0
ENDTAB
  0
TABLE
  2
VIEW
  5
6
330
0
100
AcDbSymbolTable
 70
     0
  0
ENDTAB
  0
TABLE
  2
UCS
  5
7
330
0
100
AcDbSymbolTable
 70
     0
  0
ENDTAB
  0
TABLE
  2
APPID
  5
9
330
0
100
AcDbSymbolTable
 70
     1
  0
APPID
  5
12
330
9
100
AcDbSymbolTableRecord
100
AcDbRegAppTableRecord
  2
ACAD
 70
     0
  0
ENDTAB
  0
TABLE
  2
DIMSTYLE
  5
A
330
0
100
AcDbSymbolTable
 70
     1
100
AcDbDimStyleTable
  0
DIMSTYLE
105
27
330
A
100
AcDbSymbolTableRecord
100
AcDbDimStyleTableRecord
  2
ISO-25
 70
     0
 41
2.5
 42
0.625
 43
3.75
 44
1.25
 73
     0
 74
     0
 77
     1
 78
     8
140
2.5
141
2.5
143
0.03937007874016
147
0.625
171
     3
172
     1
178
     0
271
     2
272
     2
274
     3
278
    44
283
     0
284
     8
340
11
  0
ENDTAB
  0
TABLE
  2
BLOCK_RECORD
  5
1
330
0
100
AcDbSymbolTable
 70
     1
  0
BLOCK_RECORD
  5
1F
330
1
100
AcDbSymbolTableRecord
100
AcDbBlockTableRecord
  2
*Model_Space
340
22
 70
     0
280
     1
281
     0
  0
BLOCK_RECORD
  5
1B
330
1
100
AcDbSymbolTableRecord
100
AcDbBlockTableRecord
  2
*Paper_Space
340
1E
 70
     0
280
     1
281
     0
  0
BLOCK_RECORD
  5
23
330
1
100
AcDbSymbolTableRecord
100
AcDbBlockTableRecord
  2
*Paper_Space0
340
26
 70
     0
280
     1
281
     0
  0
ENDTAB
  0
ENDSEC
  0
SECTION
  2
BLOCKS
  0
BLOCK
  5
20
330
1F
100
AcDbEntity
  8
0
100
AcDbBlockBegin
  2
*Model_Space
 70
     0
 10
0.0
 20
0.0
 30
0.0
  3
*Model_Space
  1

  0
ENDBLK
  5
21
330
1F
100
AcDbEntity
  8
0
100
AcDbBlockEnd
  0
BLOCK
  5
1C
330
1B
100
AcDbEntity
 67
     1
  8
0
100
AcDbBlockBegin
  2
*Paper_Space
 70
     0
 10
0.0
 20
0.0
 30
0.0
  3
*Paper_Space
  1

  0
ENDBLK
  5
1D
330
1B
100
AcDbEntity
 67
     1
  8
0
100
AcDbBlockEnd
  0
BLOCK
  5
24
330
23
100
AcDbEntity
  8
0
100
AcDbBlockBegin
  2
*Paper_Space0
 70
     0
 10
0.0
 20
0.0
 30
0.0
  3
*Paper_Space0
  1

  0
ENDBLK
  5
25
330
23
100
AcDbEntity
  8
0
100
AcDbBlockEnd
  0
ENDSEC
  0
SECTION
  2
ENTITIES
  0
LINE
  5
72
330
1F
100
AcDbEntity
  8
その他
  6
Continuous
 62
     7
370
     9
100
AcDbLine
 10
395.5283005173142
 20
375.6685626055744
 30
0.0
 11
547.1409153293919
 21
375.6685626055744
 31
0.0
  0
LINE
  5
73
330
1F
100
AcDbEntity
  8
その他
  6
Continuous
 62
     7
370
     9
100
AcDbLine
 10
207.2689571896115
 20
363.0878312394426
 30
0.0
 11
108.2769940350507
 21
363.0878312394426
 31
0.0
  0
LINE
  5
74
330
1F
100
AcDbEntity
  8
その他
  6
Continuous
 62
     7
370
     9
100
AcDbLine
 10
154.2593301309122
 20
287.1913072740711
 30
0.0
 11
49.75183435388522
 21
287.1913072740711
 31
0.0
  0
LINE
  5
75
330
1F
100
AcDbEntity
  8
その他
  6
Continuous
 62
     7
370
     9
100
AcDbLine
 10
154.2593301309122
 20
287.1913072740711
 30
0.0
 11
281.4812077702704
 21
159.969528610642
 31
0.0
  0
LINE
  5
76
330
1F
100
AcDbEntity
  8
その他
  6
Continuous
 62
     7
370
     9
100
AcDbLine
 10
281.4812077702704
 20
159.969528610642
 30
0.0
 11
271.9610100823481
 21
167.2746450063345
 31
0.0
  0
LINE
  5
77
330
1F
100
AcDbEntity
  8
その他
  6
Continuous
 62
     7
370
     9
100
AcDbLine
 10
281.4812077702704
 20
159.969528610642
 30
0.0
 11
274.1759923986488
 21
169.4898252744933
 31
0.0
  0
LINE
  5
78
330
1F
100
AcDbEntity
  8
その他
  6
Continuous
 62
     7
370
     9
100
AcDbLine
 10
285.5351628483954
 20
284.8216255806589
 30
0.0
 11
276.015163112331
 21
292.1266430004223
 31
0.0
  0
LINE
  5
79
330
1F
100
AcDbEntity
  8
その他
  6
Continuous
 62
     7
370
     9
100
AcDbLine
 10
285.5351628483954
 20
284.8216255806589
 30
0.0
 11
278.2301454286319
 21
294.3417242926521
 31
0.0
  0
LINE
  5
7A
330
1F
100
AcDbEntity
  8
その他
  6
Continuous
 62
     7
370
     9
100
AcDbLine
 10
285.5351628483954
 20
284.8216255806589
 30
0.0
 11
207.2689571896115
 21
363.0878312394426
 31
0.0
  0
LINE
  5
7B
330
1F
100
AcDbEntity
  8
その他
  6
Continuous
 62
     7
370
     9
100
AcDbLine
 10
333.6812117293075
 20
313.8216717694257
 30
0.0
 11
395.5283005173142
 21
375.6685626055744
 31
0.0
  0
LINE
  5
7C
330
1F
100
AcDbEntity
  8
その他
  6
Continuous
 62
     7
370
     9
100
AcDbLine
 10
333.6812117293075
 20
313.8216717694257
 30
0.0
 11
340.986328125
 21
323.341770481419
 31
0.0
  0
LINE
  5
7D
330
1F
100
AcDbEntity
  8
その他
  6
Continuous
 62
     7
370
     9
100
AcDbLine
 10
333.6812117293075
 20
313.8216717694257
 30
0.0
 11
343.2014094172298
 21
321.1266891891893
 31
0.0
  0
LINE
  5
7E
330
1F
100
AcDbEntity
  8
その他
  6
Continuous
 62
     2
370
     9
100
AcDbLine
 10
-518.9189684068834
 20
-175.578369140625
 30
0.0
 11
-518.9189684068834
 21
284.8216255806589
 31
0.0
  0
LINE
  5
7F
330
1F
100
AcDbEntity
  8
その他
  6
Continuous
 62
     2
370
     9
100
AcDbLine
 10
-88.71895455025333
 20
104.1216183224241
 30
0.0
 11
-88.71895455025333
 21
132.6216381176098
 31
0.0
  0
LINE
  5
80
330
1F
100
AcDbEntity
  8
その他
  6
Continuous
 62
     2
370
     9
100
AcDbLine
 10
-88.71895455025333
 20
146.6216348184122
 30
0.0
 11
-88.71895455025333
 21
175.121654613598
 31
0.0
  0
LINE
  5
81
330
1F
100
AcDbEntity
  8
その他
  6
Continuous
 62
     2
370
     9
100
AcDbLine
 10
-88.71895455025333
 20
189.1216513144004
 30
0.0
 11
-88.71895455025333
 21
217.6216216216217
 31
0.0
  0
LINE
  5
82
330
1F
100
AcDbEntity
  8
その他
  6
Continuous
 62
     2
370
     9
100
AcDbLine
 10
-88.71895455025333
 20
231.6216678103885
 30
0.0
 11
-88.71895455025333
 21
254.6215952280406
 31
0.0
  0
LINE
  5
83
330
1F
100
AcDbEntity
  8
その他
  6
Continuous
 62
     2
370
     9
100
AcDbLine
 10
-239.2189314558699
 20
254.6215952280406
 30
0.0
 11
-210.7188621727196
 21
254.6215952280406
 31
0.0
  0
LINE
  5
84
330
1F
100
AcDbEntity
  8
その他
  6
Continuous
 62
     2
370
     9
100
AcDbLine
 10
-196.7189149598818
 20
254.6215952280406
 30
0.0
 11
-168.2188951646959
 21
254.6215952280406
 31
0.0
  0
LINE
  5
85
330
1F
100
AcDbEntity
  8
その他
  6
Continuous
 62
     2
370
     9
100
AcDbLine
 10
-154.2188984638935
 20
254.6215952280406
 30
0.0
 11
-125.7189281566723
 21
254.6215952280406
 31
0.0
  0
LINE
  5
86
330
1F
100
AcDbEntity
  8
その他
  6
Continuous
 62
     2
370
     9
100
AcDbLine
 10
-111.7189314558699
 20
254.6215952280406
 30
0.0
 11
-88.71895455025333
 21
254.6215952280406
 31
0.0
  0
LINE
  5
87
330
1F
100
AcDbEntity
  8
その他
  6
Continuous
 62
     2
370
     9
100
AcDbLine
 10
-88.71895455025333
 20
61.62165131440042
 30
0.0
 11
-88.71895455025333
 21
90.12162162162167
 31
0.0
  0
LINE
  5
88
330
1F
100
AcDbEntity
  8
その他
  6
JWW_CENTER1
 62
     2
370
     9
100
AcDbLine
 10
-148.811694995777
 20
289.3216651710304
 30
0.0
 11
-167.2829292915962
 21
289.3216651710304
 31
0.0
  0
LINE
  5
89
330
1F
100
AcDbEntity
  8
その他
  6
Continuous
 62
     2
370
     9
100
AcDbLine
 10
-154.0189175992398
 20
313.8216717694257
 30
0.0
 11
-163.0188978040541
 21
313.8216717694257
 31
0.0
  0
LINE
  5
8A
330
1F
100
AcDbEntity
  8
その他
  6
Continuous
 62
     2
370
     9
100
AcDbLine
 10
-163.0188978040541
 20
289.3216651710304
 30
0.0
 11
-163.0188978040541
 21
313.8216717694257
 31
0.0
  0
LINE
  5
8B
330
1F
100
AcDbEntity
  8
その他
  6
Continuous
 62
     2
370
     9
100
AcDbLine
 10
-154.0189175992398
 20
289.3216651710304
 30
0.0
 11
-154.0189175992398
 21
313.8216717694257
 31
0.0
  0
LINE
  5
8C
330
1F
100
AcDbEntity
  8
その他
  6
Continuous
 62
     2
370
     9
100
AcDbLine
 10
-518.9189684068834
 20
284.8216255806589
 30
0.0
 11
-58.51882522170604
 21
284.8216255806589
 31
0.0
  0
LINE
  5
8D
330
1F
100
AcDbEntity
  8
その他
  6
Continuous
 62
     2
370
     9
100
AcDbLine
 10
-281.7188984638935
 20
254.6215952280406
 30
0.0
 11
-253.2188786687077
 21
254.6215952280406
 31
0.0
  0
LINE
  5
8E
330
1F
100
AcDbEntity
  8
その他
  6
Continuous
 62
     3
370
     9
100
AcDbLine
 10
-513.7188225823479
 20
279.621628220017
 30
0.0
 11
-63.71892155827697
 21
279.621628220017
 31
0.0
  0
LINE
  5
8F
330
1F
100
AcDbEntity
  8
その他
  6
Continuous
 62
     3
370
     9
100
AcDbLine
 10
-63.71892155827697
 20
-170.3783717799831
 30
0.0
 11
-63.71892155827697
 21
279.621628220017
 31
0.0
  0
LINE
  5
90
330
1F
100
AcDbEntity
  8
その他
  6
Continuous
 62
     3
370
     9
100
AcDbLine
 10
-279.7188918654983
 20
61.62165131440042
 30
0.0
 11
-255.2189347550675
 21
61.62165131440042
 31
0.0
  0
LINE
  5
91
330
1F
100
AcDbEntity
  8
その他
  6
Continuous
 62
     3
370
     9
100
AcDbLine
 10
-281.7188984638935
 20
63.62165791279563
 30
0.0
 11
-281.7188984638935
 21
88.12166451119094
 31
0.0
  0
LINE
  5
92
330
1F
100
AcDbEntity
  8
その他
  6
Continuous
 62
     3
370
     9
100
AcDbLine
 10
-279.7188918654983
 20
90.12162162162167
 30
0.0
 11
-255.2189347550675
 21
90.12162162162167
 31
0.0
  0
LINE
  5
93
330
1F
100
AcDbEntity
  8
その他
  6
Continuous
 62
     3
370
     9
100
AcDbLine
 10
-253.2188786687077
 20
63.62165791279563
 30
0.0
 11
-253.2188786687077
 21
88.12166451119094
 31
0.0
  0
LINE
  5
94
330
1F
100
AcDbEntity
  8
その他
  6
Continuous
 62
     3
370
     9
100
AcDbLine
 10
-253.2188786687077
 20
106.1216249208193
 30
0.0
 11
-253.2188786687077
 21
130.6216315192146
 31
0.0
  0
LINE
  5
95
330
1F
100
AcDbEntity
  8
その他
  6
Continuous
 62
     3
370
     9
100
AcDbLine
 10
-279.7188918654983
 20
132.6216381176098
 30
0.0
 11
-255.2189347550675
 21
132.6216381176098
 31
0.0
  0
LINE
  5
96
330
1F
100
AcDbEntity
  8
その他
  6
Continuous
 62
     3
370
     9
100
AcDbLine
 10
-281.7188984638935
 20
106.1216249208193
 30
0.0
 11
-281.7188984638935
 21
130.6216315192146
 31
0.0
  0
LINE
  5
97
330
1F
100
AcDbEntity
  8
その他
  6
Continuous
 62
     3
370
     9
100
AcDbLine
 10
-279.7188918654983
 20
104.1216183224241
 30
0.0
 11
-255.2189347550675
 21
104.1216183224241
 31
0.0
  0
LINE
  5
98
330
1F
100
AcDbEntity
  8
その他
  6
Continuous
 62
     3
370
     9
100
AcDbLine
 10
-279.7188918654983
 20
146.6216348184122
 30
0.0
 11
-255.2189347550675
 21
146.6216348184122
 31
0.0
  0
LINE
  5
99
330
1F
100
AcDbEntity
  8
その他
  6
Continuous
 62
     3
370
     9
100
AcDbLine
 10
-281.7188984638935
 20
148.6216414168075
 30
0.0
 11
-281.7188984638935
 21
173.1216480152027
 31
0.0
  0
LINE
  5
9A
330
1F
100
AcDbEntity
  8
その他
  6
Continuous
 62
     3
370
     9
100
AcDbLine
 10
-279.7188918654983
 20
175.121654613598
 30
0.0
 11
-255.2189347550675
 21
175.121654613598
 31
0.0
  0
LINE
  5
9B
330
1F
100
AcDbEntity
  8
その他
  6
Continuous
 62
     3
370
     9
100
AcDbLine
 10
-253.2188786687077
 20
148.6216414168075
 30
0.0
 11
-253.2188786687077
 21
173.1216480152027
 31
0.0
  0
LINE
  5
9C
330
1F
100
AcDbEntity
  8
その他
  6
Continuous
 62
     3
370
     9
100
AcDbLine
 10
-253.2188786687077
 20
191.1216579127956
 30
0.0
 11
-253.2188786687077
 21
215.6216150232264
 31
0.0
  0
LINE
  5
9D
330
1F
100
AcDbEntity
  8
その他
  6
Continuous
 62
     3
370
     9
100
AcDbLine
 10
-279.7188918654983
 20
217.6216216216217
 30
0.0
 11
-255.2189347550675
 21
217.6216216216217
 31
0.0
  0
LINE
  5
9E
330
1F
100
AcDbEntity
  8
その他
  6
Continuous
 62
     3
370
     9
100
AcDbLine
 10
-281.7188984638935
 20
191.1216579127956
 30
0.0
 11
-281.7188984638935
 21
215.6216150232264
 31
0.0
  0
LINE
  5
9F
330
1F
100
AcDbEntity
  8
その他
  6
Continuous
 62
     3
370
     9
100
AcDbLine
 10
-279.7188918654983
 20
189.1216513144004
 30
0.0
 11
-255.2189347550675
 21
189.1216513144004
 31
0.0
  0
LINE
  5
A0
330
1F
100
AcDbEntity
  8
その他
  6
Continuous
 62
     3
370
     9
100
AcDbLine
 10
-279.7188918654983
 20
231.6216678103885
 30
0.0
 11
-255.2189347550675
 21
231.6216678103885
 31
0.0
  0
LINE
  5
A1
330
1F
100
AcDbEntity
  8
その他
  6
Continuous
 62
     3
370
     9
100
AcDbLine
 10
-281.7188984638935
 20
233.6216744087839
 30
0.0
 11
-281.7188984638935
 21
258.1216810071791
 31
0.0
  0
LINE
  5
A2
330
1F
100
AcDbEntity
  8
その他
  6
Continuous
 62
     3
370
     9
100
AcDbLine
 10
-279.7188918654983
 20
260.1216876055744
 30
0.0
 11
-255.2189347550675
 21
260.1216876055744
 31
0.0
  0
LINE
  5
A3
330
1F
100
AcDbEntity
  8
その他
  6
Continuous
 62
     3
370
     9
100
AcDbLine
 10
-253.2188786687077
 20
233.6216744087839
 30
0.0
 11
-253.2188786687077
 21
258.1216810071791
 31
0.0
  0
LINE
  5
A4
330
1F
100
AcDbEntity
  8
その他
  6
Continuous
 62
     3
370
     9
100
AcDbLine
 10
-210.7188621727196
 20
233.6216744087839
 30
0.0
 11
-210.7188621727196
 21
258.1216810071791
 31
0.0
  0
LINE
  5
A5
330
1F
100
AcDbEntity
  8
その他
  6
Continuous
 62
     3
370
     9
100
AcDbLine
 10
-237.2189743454392
 20
260.1216876055744
 30
0.0
 11
-212.7188687711148
 21
260.1216876055744
 31
0.0
  0
LINE
  5
A6
330
1F
100
AcDbEntity
  8
その他
  6
Continuous
 62
     3
370
     9
100
AcDbLine
 10
-239.2189314558699
 20
233.6216744087839
 30
0.0
 11
-239.2189314558699
 21
258.1216810071791
 31
0.0
  0
LINE
  5
A7
330
1F
100
AcDbEntity
  8
その他
  6
Continuous
 62
     3
370
     9
100
AcDbLine
 10
-237.2189743454392
 20
231.6216678103885
 30
0.0
 11
-212.7188687711148
 21
231.6216678103885
 31
0.0
  0
LINE
  5
A8
330
1F
100
AcDbEntity
  8
その他
  6
Continuous
 62
     3
370
     9
100
AcDbLine
 10
-237.2189743454392
 20
189.1216513144004
 30
0.0
 11
-212.7188687711148
 21
189.1216513144004
 31
0.0
  0
LINE
  5
A9
330
1F
100
AcDbEntity
  8
その他
  6
Continuous
 62
     3
370
     9
100
AcDbLine
 10
-239.2189314558699
 20
191.1216579127956
 30
0.0
 11
-239.2189314558699
 21
215.6216150232264
 31
0.0
  0
LINE
  5
AA
330
1F
100
AcDbEntity
  8
その他
  6
Continuous
 62
     3
370
     9
100
AcDbLine
 10
-237.2189743454392
 20
217.6216216216217
 30
0.0
 11
-212.7188687711148
 21
217.6216216216217
 31
0.0
  0
LINE
  5
AB
330
1F
100
AcDbEntity
  8
その他
  6
Continuous
 62
     3
370
     9
100
AcDbLine
 10
-210.7188621727196
 20
191.1216579127956
 30
0.0
 11
-210.7188621727196
 21
215.6216150232264
 31
0.0
  0
LINE
  5
AC
330
1F
100
AcDbEntity
  8
その他
  6
Continuous
 62
     3
370
     9
100
AcDbLine
 10
-210.7188621727196
 20
148.6216414168075
 30
0.0
 11
-210.7188621727196
 21
173.1216480152027
 31
0.0
  0
LINE
  5
AD
330
1F
100
AcDbEntity
  8
その他
  6
Continuous
 62
     3
370
     9
100
AcDbLine
 10
-237.2189743454392
 20
175.121654613598
 30
0.0
 11
-212.7188687711148
 21
175.121654613598
 31
0.0
  0
LINE
  5
AE
330
1F
100
AcDbEntity
  8
その他
  6
Continuous
 62
     3
370
     9
100
AcDbLine
 10
-239.2189314558699
 20
148.6216414168075
 30
0.0
 11
-239.2189314558699
 21
173.1216480152027
 31
0.0
  0
LINE
  5
AF
330
1F
100
AcDbEntity
  8
その他
  6
Continuous
 62
     3
370
     9
100
AcDbLine
 10
-237.2189743454392
 20
146.6216348184122
 30
0.0
 11
-212.7188687711148
 21
146.6216348184122
 31
0.0
  0
LINE
  5
B0
330
1F
100
AcDbEntity
  8
その他
  6
Continuous
 62
     3
370
     9
100
AcDbLine
 10
-237.2189743454392
 20
104.1216183224241
 30
0.0
 11
-212.7188687711148
 21
104.1216183224241
 31
0.0
  0
LINE
  5
B1
330
1F
100
AcDbEntity
  8
その他
  6
Continuous
 62
     3
370
     9
100
AcDbLine
 10
-239.2189314558699
 20
106.1216249208193
 30
0.0
 11
-239.2189314558699
 21
130.6216315192146
 31
0.0
  0
LINE
  5
B2
330
1F
100
AcDbEntity
  8
その他
  6
Continuous
 62
     3
370
     9
100
AcDbLine
 10
-237.2189743454392
 20
132.6216381176098
 30
0.0
 11
-212.7188687711148
 21
132.6216381176098
 31
0.0
  0
LINE
  5
B3
330
1F
100
AcDbEntity
  8
その他
  6
Continuous
 62
     3
370
     9
100
AcDbLine
 10
-210.7188621727196
 20
106.1216249208193
 30
0.0
 11
-210.7188621727196
 21
130.6216315192146
 31
0.0
  0
LINE
  5
B4
330
1F
100
AcDbEntity
  8
その他
  6
Continuous
 62
     3
370
     9
100
AcDbLine
 10
-210.7188621727196
 20
63.62165791279563
 30
0.0
 11
-210.7188621727196
 21
88.12166451119094
 31
0.0
  0
LINE
  5
B5
330
1F
100
AcDbEntity
  8
その他
  6
Continuous
 62
     3
370
     9
100
AcDbLine
 10
-237.2189743454392
 20
90.12162162162167
 30
0.0
 11
-212.7188687711148
 21
90.12162162162167
 31
0.0
  0
LINE
  5
B6
330
1F
100
AcDbEntity
  8
その他
  6
Continuous
 62
     3
370
     9
100
AcDbLine
 10
-239.2189314558699
 20
63.62165791279563
 30
0.0
 11
-239.2189314558699
 21
88.12166451119094
 31
0.0
  0
LINE
  5
B7
330
1F
100
AcDbEntity
  8
その他
  6
Continuous
 62
     3
370
     9
100
AcDbLine
 10
-237.2189743454392
 20
61.62165131440042
 30
0.0
 11
-212.7188687711148
 21
61.62165131440042
 31
0.0
  0
LINE
  5
B8
330
1F
100
AcDbEntity
  8
その他
  6
Continuous
 62
     3
370
     9
100
AcDbLine
 10
-194.7189083614865
 20
61.62165131440042
 30
0.0
 11
-170.2189017630911
 21
61.62165131440042
 31
0.0
  0
LINE
  5
B9
330
1F
100
AcDbEntity
  8
その他
  6
Continuous
 62
     3
370
     9
100
AcDbLine
 10
-196.7189149598818
 20
63.62165791279563
 30
0.0
 11
-196.7189149598818
 21
88.12166451119094
 31
0.0
  0
LINE
  5
BA
330
1F
100
AcDbEntity
  8
その他
  6
Continuous
 62
     3
370
     9
100
AcDbLine
 10
-194.7189083614865
 20
90.12162162162167
 30
0.0
 11
-170.2189017630911
 21
90.12162162162167
 31
0.0
  0
LINE
  5
BB
330
1F
100
AcDbEntity
  8
その他
  6
Continuous
 62
     3
370
     9
100
AcDbLine
 10
-168.2188951646959
 20
63.62165791279563
 30
0.0
 11
-168.2188951646959
 21
88.12166451119094
 31
0.0
  0
LINE
  5
BC
330
1F
100
AcDbEntity
  8
その他
  6
Continuous
 62
     3
370
     9
100
AcDbLine
 10
-168.2188951646959
 20
106.1216249208193
 30
0.0
 11
-168.2188951646959
 21
130.6216315192146
 31
0.0
  0
LINE
  5
BD
330
1F
100
AcDbEntity
  8
その他
  6
Continuous
 62
     3
370
     9
100
AcDbLine
 10
-194.7189083614865
 20
132.6216381176098
 30
0.0
 11
-170.2189017630911
 21
132.6216381176098
 31
0.0
  0
LINE
  5
BE
330
1F
100
AcDbEntity
  8
その他
  6
Continuous
 62
     3
370
     9
100
AcDbLine
 10
-196.7189149598818
 20
106.1216249208193
 30
0.0
 11
-196.7189149598818
 21
130.6216315192146
 31
0.0
  0
LINE
  5
BF
330
1F
100
AcDbEntity
  8
その他
  6
Continuous
 62
     3
370
     9
100
AcDbLine
 10
-194.7189083614865
 20
104.1216183224241
 30
0.0
 11
-170.2189017630911
 21
104.1216183224241
 31
0.0
  0
LINE
  5
C0
330
1F
100
AcDbEntity
  8
その他
  6
Continuous
 62
     3
370
     9
100
AcDbLine
 10
-194.7189083614865
 20
146.6216348184122
 30
0.0
 11
-170.2189017630911
 21
146.6216348184122
 31
0.0
  0
LINE
  5
C1
330
1F
100
AcDbEntity
  8
その他
  6
Continuous
 62
     3
370
     9
100
AcDbLine
 10
-196.7189149598818
 20
148.6216414168075
 30
0.0
 11
-196.7189149598818
 21
173.1216480152027
 31
0.0
  0
LINE
  5
C2
330
1F
100
AcDbEntity
  8
その他
  6
Continuous
 62
     3
370
     9
100
AcDbLine
 10
-194.7189083614865
 20
175.121654613598
 30
0.0
 11
-170.2189017630911
 21
175.121654613598
 31
0.0
  0
LINE
  5
C3
330
1F
100
AcDbEntity
  8
その他
  6
Continuous
 62
     3
370
     9
100
AcDbLine
 10
-168.2188951646959
 20
148.6216414168075
 30
0.0
 11
-168.2188951646959
 21
173.1216480152027
 31
0.0
  0
LINE
  5
C4
330
1F
100
AcDbEntity
  8
その他
  6
Continuous
 62
     3
370
     9
100
AcDbLine
 10
-168.2188951646959
 20
191.1216579127956
 30
0.0
 11
-168.2188951646959
 21
215.6216150232264
 31
0.0
  0
LINE
  5
C5
330
1F
100
AcDbEntity
  8
その他
  6
Continuous
 62
     3
370
     9
100
AcDbLine
 10
-194.7189083614865
 20
217.6216216216217
 30
0.0
 11
-170.2189017630911
 21
217.6216216216217
 31
0.0
  0
LINE
  5
C6
330
1F
100
AcDbEntity
  8
その他
  6
Continuous
 62
     3
370
     9
100
AcDbLine
 10
-196.7189149598818
 20
191.1216579127956
 30
0.0
 11
-196.7189149598818
 21
215.6216150232264
 31
0.0
  0
LINE
  5
C7
330
1F
100
AcDbEntity
  8
その他
  6
Continuous
 62
     3
370
     9
100
AcDbLine
 10
-194.7189083614865
 20
189.1216513144004
 30
0.0
 11
-170.2189017630911
 21
189.1216513144004
 31
0.0
  0
LINE
  5
C8
330
1F
100
AcDbEntity
  8
その他
  6
Continuous
 62
     3
370
     9
100
AcDbLine
 10
-194.7189083614865
 20
231.6216678103885
 30
0.0
 11
-170.2189017630911
 21
231.6216678103885
 31
0.0
  0
LINE
  5
C9
330
1F
100
AcDbEntity
  8
その他
  6
Continuous
 62
     3
370
     9
100
AcDbLine
 10
-196.7189149598818
 20
233.6216744087839
 30
0.0
 11
-196.7189149598818
 21
258.1216810071791
 31
0.0
  0
LINE
  5
CA
330
1F
100
AcDbEntity
  8
その他
  6
Continuous
 62
     3
370
     9
100
AcDbLine
 10
-194.7189083614865
 20
260.1216876055744
 30
0.0
 11
-170.2189017630911
 21
260.1216876055744
 31
0.0
  0
LINE
  5
CB
330
1F
100
AcDbEntity
  8
その他
  6
Continuous
 62
     3
370
     9
100
AcDbLine
 10
-168.2188951646959
 20
233.6216744087839
 30
0.0
 11
-168.2188951646959
 21
258.1216810071791
 31
0.0
  0
LINE
  5
CC
330
1F
100
AcDbEntity
  8
その他
  6
Continuous
 62
     3
370
     9
100
AcDbLine
 10
-125.7189281566723
 20
233.6216744087839
 30
0.0
 11
-125.7189281566723
 21
258.1216810071791
 31
0.0
  0
LINE
  5
CD
330
1F
100
AcDbEntity
  8
その他
  6
Continuous
 62
     3
370
     9
100
AcDbLine
 10
-152.2188918654982
 20
260.1216876055744
 30
0.0
 11
-127.7189347550675
 21
260.1216876055744
 31
0.0
  0
LINE
  5
CE
330
1F
100
AcDbEntity
  8
その他
  6
Continuous
 62
     3
370
     9
100
AcDbLine
 10
-154.2188984638935
 20
233.6216744087839
 30
0.0
 11
-154.2188984638935
 21
258.1216810071791
 31
0.0
  0
LINE
  5
CF
330
1F
100
AcDbEntity
  8
その他
  6
Continuous
 62
     3
370
     9
100
AcDbLine
 10
-152.2188918654982
 20
231.6216678103885
 30
0.0
 11
-127.7189347550675
 21
231.6216678103885
 31
0.0
  0
LINE
  5
D0
330
1F
100
AcDbEntity
  8
その他
  6
Continuous
 62
     3
370
     9
100
AcDbLine
 10
-152.2188918654982
 20
189.1216513144004
 30
0.0
 11
-127.7189347550675
 21
189.1216513144004
 31
0.0
  0
LINE
  5
D1
330
1F
100
AcDbEntity
  8
その他
  6
Continuous
 62
     3
370
     9
100
AcDbLine
 10
-154.2188984638935
 20
191.1216579127956
 30
0.0
 11
-154.2188984638935
 21
215.6216150232264
 31
0.0
  0
LINE
  5
D2
330
1F
100
AcDbEntity
  8
その他
  6
Continuous
 62
     3
370
     9
100
AcDbLine
 10
-152.2188918654982
 20
217.6216216216217
 30
0.0
 11
-127.7189347550675
 21
217.6216216216217
 31
0.0
  0
LINE
  5
D3
330
1F
100
AcDbEntity
  8
その他
  6
Continuous
 62
     3
370
     9
100
AcDbLine
 10
-125.7189281566723
 20
191.1216579127956
 30
0.0
 11
-125.7189281566723
 21
215.6216150232264
 31
0.0
  0
LINE
  5
D4
330
1F
100
AcDbEntity
  8
その他
  6
Continuous
 62
     3
370
     9
100
AcDbLine
 10
-125.7189281566723
 20
148.6216414168075
 30
0.0
 11
-125.7189281566723
 21
173.1216480152027
 31
0.0
  0
LINE
  5
D5
330
1F
100
AcDbEntity
  8
その他
  6
Continuous
 62
     3
370
     9
100
AcDbLine
 10
-152.2188918654982
 20
175.121654613598
 30
0.0
 11
-127.7189347550675
 21
175.121654613598
 31
0.0
  0
LINE
  5
D6
330
1F
100
AcDbEntity
  8
その他
  6
Continuous
 62
     3
370
     9
100
AcDbLine
 10
-154.2188984638935
 20
148.6216414168075
 30
0.0
 11
-154.2188984638935
 21
173.1216480152027
 31
0.0
  0
LINE
  5
D7
330
1F
100
AcDbEntity
  8
その他
  6
Continuous
 62
     3
370
     9
100
AcDbLine
 10
-152.2188918654982
 20
146.6216348184122
 30
0.0
 11
-127.7189347550675
 21
146.6216348184122
 31
0.0
  0
LINE
  5
D8
330
1F
100
AcDbEntity
  8
その他
  6
Continuous
 62
     3
370
     9
100
AcDbLine
 10
-152.2188918654982
 20
104.1216183224241
 30
0.0
 11
-127.7189347550675
 21
104.1216183224241
 31
0.0
  0
LINE
  5
D9
330
1F
100
AcDbEntity
  8
その他
  6
Continuous
 62
     3
370
     9
100
AcDbLine
 10
-154.2188984638935
 20
106.1216249208193
 30
0.0
 11
-154.2188984638935
 21
130.6216315192146
 31
0.0
  0
LINE
  5
DA
330
1F
100
AcDbEntity
  8
その他
  6
Continuous
 62
     3
370
     9
100
AcDbLine
 10
-152.2188918654982
 20
132.6216381176098
 30
0.0
 11
-127.7189347550675
 21
132.6216381176098
 31
0.0
  0
LINE
  5
DB
330
1F
100
AcDbEntity
  8
その他
  6
Continuous
 62
     3
370
     9
100
AcDbLine
 10
-125.7189281566723
 20
106.1216249208193
 30
0.0
 11
-125.7189281566723
 21
130.6216315192146
 31
0.0
  0
LINE
  5
DC
330
1F
100
AcDbEntity
  8
その他
  6
Continuous
 62
     3
370
     9
100
AcDbLine
 10
-125.7189281566723
 20
63.62165791279563
 30
0.0
 11
-125.7189281566723
 21
88.12166451119094
 31
0.0
  0
LINE
  5
DD
330
1F
100
AcDbEntity
  8
その他
  6
Continuous
 62
     3
370
     9
100
AcDbLine
 10
-152.2188918654982
 20
90.12162162162167
 30
0.0
 11
-127.7189347550675
 21
90.12162162162167
 31
0.0
  0
LINE
  5
DE
330
1F
100
AcDbEntity
  8
その他
  6
Continuous
 62
     3
370
     9
100
AcDbLine
 10
-154.2188984638935
 20
63.62165791279563
 30
0.0
 11
-154.2188984638935
 21
88.12166451119094
 31
0.0
  0
LINE
  5
DF
330
1F
100
AcDbEntity
  8
その他
  6
Continuous
 62
     3
370
     9
100
AcDbLine
 10
-152.2188918654982
 20
61.62165131440042
 30
0.0
 11
-127.7189347550675
 21
61.62165131440042
 31
0.0
  0
LINE
  5
E0
330
1F
100
AcDbEntity
  8
その他
  6
Continuous
 62
     3
370
     9
100
AcDbLine
 10
-109.7189248574746
 20
61.62165131440042
 30
0.0
 11
-85.21896774704385
 21
61.62165131440042
 31
0.0
  0
LINE
  5
E1
330
1F
100
AcDbEntity
  8
その他
  6
Continuous
 62
     3
370
     9
100
AcDbLine
 10
-111.7189314558699
 20
63.62165791279563
 30
0.0
 11
-111.7189314558699
 21
88.12166451119094
 31
0.0
  0
LINE
  5
E2
330
1F
100
AcDbEntity
  8
その他
  6
Continuous
 62
     3
370
     9
100
AcDbLine
 10
-109.7189248574746
 20
90.12162162162167
 30
0.0
 11
-85.21896774704385
 21
90.12162162162167
 31
0.0
  0
LINE
  5
E3
330
1F
100
AcDbEntity
  8
その他
  6
Continuous
 62
     3
370
     9
100
AcDbLine
 10
-83.21886217271958
 20
63.62165791279563
 30
0.0
 11
-83.21886217271958
 21
88.12166451119094
 31
0.0
  0
LINE
  5
E4
330
1F
100
AcDbEntity
  8
その他
  6
Continuous
 62
     3
370
     9
100
AcDbLine
 10
-83.21886217271958
 20
106.1216249208193
 30
0.0
 11
-83.21886217271958
 21
130.6216315192146
 31
0.0
  0
LINE
  5
E5
330
1F
100
AcDbEntity
  8
その他
  6
Continuous
 62
     3
370
     9
100
AcDbLine
 10
-109.7189248574746
 20
132.6216381176098
 30
0.0
 11
-85.21896774704385
 21
132.6216381176098
 31
0.0
  0
LINE
  5
E6
330
1F
100
AcDbEntity
  8
その他
  6
Continuous
 62
     3
370
     9
100
AcDbLine
 10
-111.7189314558699
 20
106.1216249208193
 30
0.0
 11
-111.7189314558699
 21
130.6216315192146
 31
0.0
  0
LINE
  5
E7
330
1F
100
AcDbEntity
  8
その他
  6
Continuous
 62
     3
370
     9
100
AcDbLine
 10
-109.7189248574746
 20
104.1216183224241
 30
0.0
 11
-85.21896774704385
 21
104.1216183224241
 31
0.0
  0
LINE
  5
E8
330
1F
100
AcDbEntity
  8
その他
  6
Continuous
 62
     3
370
     9
100
AcDbLine
 10
-109.7189248574746
 20
146.6216348184122
 30
0.0
 11
-85.21896774704385
 21
146.6216348184122
 31
0.0
  0
LINE
  5
E9
330
1F
100
AcDbEntity
  8
その他
  6
Continuous
 62
     3
370
     9
100
AcDbLine
 10
-111.7189314558699
 20
148.6216414168075
 30
0.0
 11
-111.7189314558699
 21
173.1216480152027
 31
0.0
  0
LINE
  5
EA
330
1F
100
AcDbEntity
  8
その他
  6
Continuous
 62
     3
370
     9
100
AcDbLine
 10
-109.7189248574746
 20
175.121654613598
 30
0.0
 11
-85.21896774704385
 21
175.121654613598
 31
0.0
  0
LINE
  5
EB
330
1F
100
AcDbEntity
  8
その他
  6
Continuous
 62
     3
370
     9
100
AcDbLine
 10
-83.21886217271958
 20
148.6216414168075
 30
0.0
 11
-83.21886217271958
 21
173.1216480152027
 31
0.0
  0
LINE
  5
EC
330
1F
100
AcDbEntity
  8
その他
  6
Continuous
 62
     3
370
     9
100
AcDbLine
 10
-83.21886217271958
 20
191.1216579127956
 30
0.0
 11
-83.21886217271958
 21
215.6216150232264
 31
0.0
  0
LINE
  5
ED
330
1F
100
AcDbEntity
  8
その他
  6
Continuous
 62
     3
370
     9
100
AcDbLine
 10
-109.7189248574746
 20
217.6216216216217
 30
0.0
 11
-85.21896774704385
 21
217.6216216216217
 31
0.0
  0
LINE
  5
EE
330
1F
100
AcDbEntity
  8
その他
  6
Continuous
 62
     3
370
     9
100
AcDbLine
 10
-111.7189314558699
 20
191.1216579127956
 30
0.0
 11
-111.7189314558699
 21
215.6216150232264
 31
0.0
  0
LINE
  5
EF
330
1F
100
AcDbEntity
  8
その他
  6
Continuous
 62
     3
370
     9
100
AcDbLine
 10
-109.7189248574746
 20
189.1216513144004
 30
0.0
 11
-85.21896774704385
 21
189.1216513144004
 31
0.0
  0
LINE
  5
F0
330
1F
100
AcDbEntity
  8
その他
  6
Continuous
 62
     3
370
     9
100
AcDbLine
 10
-109.7189248574746
 20
231.6216678103885
 30
0.0
 11
-85.21896774704385
 21
231.6216678103885
 31
0.0
  0
LINE
  5
F1
330
1F
100
AcDbEntity
  8
その他
  6
Continuous
 62
     3
370
     9
100
AcDbLine
 10
-111.7189314558699
 20
233.6216744087839
 30
0.0
 11
-111.7189314558699
 21
258.1216810071791
 31
0.0
  0
LINE
  5
F2
330
1F
100
AcDbEntity
  8
その他
  6
Continuous
 62
     3
370
     9
100
AcDbLine
 10
-109.7189248574746
 20
260.1216876055744
 30
0.0
 11
-85.21896774704385
 21
260.1216876055744
 31
0.0
  0
LINE
  5
F3
330
1F
100
AcDbEntity
  8
その他
  6
Continuous
 62
     3
370
     9
100
AcDbLine
 10
-83.21886217271958
 20
233.6216744087839
 30
0.0
 11
-83.21886217271958
 21
258.1216810071791
 31
0.0
  0
LINE
  5
F4
330
1F
100
AcDbEntity
  8
その他
  6
Continuous
 62
     2
370
     9
100
AcDbLine
 10
-58.51882522170604
 20
-175.578369140625
 30
0.0
 11
-58.51882522170604
 21
284.8216255806589
 31
0.0
  0
LINE
  5
F5
330
1F
100
AcDbEntity
  8
その他
  6
Continuous
 62
     3
370
     9
100
AcDbLine
 10
-83.21886217271958
 20
-124.37841796875
 30
0.0
 11
-83.21886217271958
 21
-148.8783750791807
 31
0.0
  0
LINE
  5
F6
330
1F
100
AcDbEntity
  8
その他
  6
Continuous
 62
     3
370
     9
100
AcDbLine
 10
-109.7189248574746
 20
-150.878381677576
 30
0.0
 11
-85.21896774704385
 21
-150.878381677576
 31
0.0
  0
LINE
  5
F7
330
1F
100
AcDbEntity
  8
その他
  6
Continuous
 62
     3
370
     9
100
AcDbLine
 10
-111.7189314558699
 20
-124.37841796875
 30
0.0
 11
-111.7189314558699
 21
-148.8783750791807
 31
0.0
  0
LINE
  5
F8
330
1F
100
AcDbEntity
  8
その他
  6
Continuous
 62
     3
370
     9
100
AcDbLine
 10
-109.7189248574746
 20
-122.3784113703547
 30
0.0
 11
-85.21896774704385
 21
-122.3784113703547
 31
0.0
  0
LINE
  5
F9
330
1F
100
AcDbEntity
  8
その他
  6
Continuous
 62
     3
370
     9
100
AcDbLine
 10
-109.7189248574746
 20
-79.87834538640197
 30
0.0
 11
-85.21896774704385
 21
-79.87834538640197
 31
0.0
  0
LINE
  5
FA
330
1F
100
AcDbEntity
  8
その他
  6
Continuous
 62
     3
370
     9
100
AcDbLine
 10
-111.7189314558699
 20
-81.87835198479729
 30
0.0
 11
-111.7189314558699
 21
-106.3783585831926
 31
0.0
  0
LINE
  5
FB
330
1F
100
AcDbEntity
  8
その他
  6
Continuous
 62
     3
370
     9
100
AcDbLine
 10
-109.7189248574746
 20
-108.3783651815878
 30
0.0
 11
-85.21896774704385
 21
-108.3783651815878
 31
0.0
  0
LINE
  5
FC
330
1F
100
AcDbEntity
  8
その他
  6
Continuous
 62
     3
370
     9
100
AcDbLine
 10
-83.21886217271958
 20
-81.87835198479729
 30
0.0
 11
-83.21886217271958
 21
-106.3783585831926
 31
0.0
  0
LINE
  5
FD
330
1F
100
AcDbEntity
  8
その他
  6
Continuous
 62
     3
370
     9
100
AcDbLine
 10
-83.21886217271958
 20
-39.37833548880906
 30
0.0
 11
-83.21886217271958
 21
-63.87834208720437
 31
0.0
  0
LINE
  5
FE
330
1F
100
AcDbEntity
  8
その他
  6
Continuous
 62
     3
370
     9
100
AcDbLine
 10
-109.7189248574746
 20
-65.87834868559958
 30
0.0
 11
-85.21896774704385
 21
-65.87834868559958
 31
0.0
  0
LINE
  5
FF
330
1F
100
AcDbEntity
  8
その他
  6
Continuous
 62
     3
370
     9
100
AcDbLine
 10
-111.7189314558699
 20
-39.37833548880906
 30
0.0
 11
-111.7189314558699
 21
-63.87834208720437
 31
0.0
  0
LINE
  5
100
330
1F
100
AcDbEntity
  8
その他
  6
Continuous
 62
     3
370
     9
100
AcDbLine
 10
-109.7189248574746
 20
-37.37837837837833
 30
0.0
 11
-85.21896774704385
 21
-37.37837837837833
 31
0.0
  0
LINE
  5
101
330
1F
100
AcDbEntity
  8
その他
  6
Continuous
 62
     3
370
     9
100
AcDbLine
 10
-109.7189248574746
 20
5.121638117609791
 30
0.0
 11
-85.21896774704385
 21
5.121638117609791
 31
0.0
  0
LINE
  5
102
330
1F
100
AcDbEntity
  8
その他
  6
Continuous
 62
     3
370
     9
100
AcDbLine
 10
-111.7189314558699
 20
3.121631519214588
 30
0.0
 11
-111.7189314558699
 21
-21.37837507918073
 31
0.0
  0
LINE
  5
103
330
1F
100
AcDbEntity
  8
その他
  6
Continuous
 62
     3
370
     9
100
AcDbLine
 10
-109.7189248574746
 20
-23.37838167757593
 30
0.0
 11
-85.21896774704385
 21
-23.37838167757593
 31
0.0
  0
LINE
  5
104
330
1F
100
AcDbEntity
  8
その他
  6
Continuous
 62
     3
370
     9
100
AcDbLine
 10
-83.21886217271958
 20
3.121631519214588
 30
0.0
 11
-83.21886217271958
 21
-21.37837507918073
 31
0.0
  0
LINE
  5
105
330
1F
100
AcDbEntity
  8
その他
  6
Continuous
 62
     3
370
     9
100
AcDbLine
 10
-83.21886217271958
 20
45.62164801520271
 30
0.0
 11
-83.21886217271958
 21
21.12164141680751
 31
0.0
  0
LINE
  5
106
330
1F
100
AcDbEntity
  8
その他
  6
Continuous
 62
     3
370
     9
100
AcDbLine
 10
-109.7189248574746
 20
19.12163481841219
 30
0.0
 11
-85.21896774704385
 21
19.12163481841219
 31
0.0
  0
LINE
  5
107
330
1F
100
AcDbEntity
  8
その他
  6
Continuous
 62
     3
370
     9
100
AcDbLine
 10
-111.7189314558699
 20
45.62164801520271
 30
0.0
 11
-111.7189314558699
 21
21.12164141680751
 31
0.0
  0
LINE
  5
108
330
1F
100
AcDbEntity
  8
その他
  6
Continuous
 62
     3
370
     9
100
AcDbLine
 10
-109.7189248574746
 20
47.62165461359803
 30
0.0
 11
-85.21896774704385
 21
47.62165461359803
 31
0.0
  0
LINE
  5
109
330
1F
100
AcDbEntity
  8
その他
  6
Continuous
 62
     3
370
     9
100
AcDbLine
 10
-152.2188918654982
 20
47.62165461359803
 30
0.0
 11
-127.7189347550675
 21
47.62165461359803
 31
0.0
  0
LINE
  5
10A
330
1F
100
AcDbEntity
  8
その他
  6
Continuous
 62
     3
370
     9
100
AcDbLine
 10
-154.2188984638935
 20
45.62164801520271
 30
0.0
 11
-154.2188984638935
 21
21.12164141680751
 31
0.0
  0
LINE
  5
10B
330
1F
100
AcDbEntity
  8
その他
  6
Continuous
 62
     3
370
     9
100
AcDbLine
 10
-152.2188918654982
 20
19.12163481841219
 30
0.0
 11
-127.7189347550675
 21
19.12163481841219
 31
0.0
  0
LINE
  5
10C
330
1F
100
AcDbEntity
  8
その他
  6
Continuous
 62
     3
370
     9
100
AcDbLine
 10
-125.7189281566723
 20
45.62164801520271
 30
0.0
 11
-125.7189281566723
 21
21.12164141680751
 31
0.0
  0
LINE
  5
10D
330
1F
100
AcDbEntity
  8
その他
  6
Continuous
 62
     3
370
     9
100
AcDbLine
 10
-125.7189281566723
 20
3.121631519214588
 30
0.0
 11
-125.7189281566723
 21
-21.37837507918073
 31
0.0
  0
LINE
  5
10E
330
1F
100
AcDbEntity
  8
その他
  6
Continuous
 62
     3
370
     9
100
AcDbLine
 10
-152.2188918654982
 20
-23.37838167757593
 30
0.0
 11
-127.7189347550675
 21
-23.37838167757593
 31
0.0
  0
LINE
  5
10F
330
1F
100
AcDbEntity
  8
その他
  6
Continuous
 62
     3
370
     9
100
AcDbLine
 10
-154.2188984638935
 20
3.121631519214588
 30
0.0
 11
-154.2188984638935
 21
-21.37837507918073
 31
0.0
  0
LINE
  5
110
330
1F
100
AcDbEntity
  8
その他
  6
Continuous
 62
     3
370
     9
100
AcDbLine
 10
-152.2188918654982
 20
5.121638117609791
 30
0.0
 11
-127.7189347550675
 21
5.121638117609791
 31
0.0
  0
LINE
  5
111
330
1F
100
AcDbEntity
  8
その他
  6
Continuous
 62
     3
370
     9
100
AcDbLine
 10
-152.2188918654982
 20
-37.37837837837833
 30
0.0
 11
-127.7189347550675
 21
-37.37837837837833
 31
0.0
  0
LINE
  5
112
330
1F
100
AcDbEntity
  8
その他
  6
Continuous
 62
     3
370
     9
100
AcDbLine
 10
-154.2188984638935
 20
-39.37833548880906
 30
0.0
 11
-154.2188984638935
 21
-63.87834208720437
 31
0.0
  0
LINE
  5
113
330
1F
100
AcDbEntity
  8
その他
  6
Continuous
 62
     3
370
     9
100
AcDbLine
 10
-152.2188918654982
 20
-65.87834868559958
 30
0.0
 11
-127.7189347550675
 21
-65.87834868559958
 31
0.0
  0
LINE
  5
114
330
1F
100
AcDbEntity
  8
その他
  6
Continuous
 62
     3
370
     9
100
AcDbLine
 10
-125.7189281566723
 20
-39.37833548880906
 30
0.0
 11
-125.7189281566723
 21
-63.87834208720437
 31
0.0
  0
LINE
  5
115
330
1F
100
AcDbEntity
  8
その他
  6
Continuous
 62
     3
370
     9
100
AcDbLine
 10
-125.7189281566723
 20
-81.87835198479729
 30
0.0
 11
-125.7189281566723
 21
-106.3783585831926
 31
0.0
  0
LINE
  5
116
330
1F
100
AcDbEntity
  8
その他
  6
Continuous
 62
     3
370
     9
100
AcDbLine
 10
-152.2188918654982
 20
-108.3783651815878
 30
0.0
 11
-127.7189347550675
 21
-108.3783651815878
 31
0.0
  0
LINE
  5
117
330
1F
100
AcDbEntity
  8
その他
  6
Continuous
 62
     3
370
     9
100
AcDbLine
 10
-154.2188984638935
 20
-81.87835198479729
 30
0.0
 11
-154.2188984638935
 21
-106.3783585831926
 31
0.0
  0
LINE
  5
118
330
1F
100
AcDbEntity
  8
その他
  6
Continuous
 62
     3
370
     9
100
AcDbLine
 10
-152.2188918654982
 20
-79.87834538640197
 30
0.0
 11
-127.7189347550675
 21
-79.87834538640197
 31
0.0
  0
LINE
  5
119
330
1F
100
AcDbEntity
  8
その他
  6
Continuous
 62
     3
370
     9
100
AcDbLine
 10
-152.2188918654982
 20
-122.3784113703547
 30
0.0
 11
-127.7189347550675
 21
-122.3784113703547
 31
0.0
  0
LINE
  5
11A
330
1F
100
AcDbEntity
  8
その他
  6
Continuous
 62
     3
370
     9
100
AcDbLine
 10
-154.2188984638935
 20
-124.37841796875
 30
0.0
 11
-154.2188984638935
 21
-148.8783750791807
 31
0.0
  0
LINE
  5
11B
330
1F
100
AcDbEntity
  8
その他
  6
Continuous
 62
     3
370
     9
100
AcDbLine
 10
-152.2188918654982
 20
-150.878381677576
 30
0.0
 11
-127.7189347550675
 21
-150.878381677576
 31
0.0
  0
LINE
  5
11C
330
1F
100
AcDbEntity
  8
その他
  6
Continuous
 62
     3
370
     9
100
AcDbLine
 10
-125.7189281566723
 20
-124.37841796875
 30
0.0
 11
-125.7189281566723
 21
-148.8783750791807
 31
0.0
  0
LINE
  5
11D
330
1F
100
AcDbEntity
  8
その他
  6
Continuous
 62
     3
370
     9
100
AcDbLine
 10
-168.2188951646959
 20
-124.37841796875
 30
0.0
 11
-168.2188951646959
 21
-148.8783750791807
 31
0.0
  0
LINE
  5
11E
330
1F
100
AcDbEntity
  8
その他
  6
Continuous
 62
     3
370
     9
100
AcDbLine
 10
-194.7189083614865
 20
-150.878381677576
 30
0.0
 11
-170.2189017630911
 21
-150.878381677576
 31
0.0
  0
LINE
  5
11F
330
1F
100
AcDbEntity
  8
その他
  6
Continuous
 62
     3
370
     9
100
AcDbLine
 10
-196.7189149598818
 20
-124.37841796875
 30
0.0
 11
-196.7189149598818
 21
-148.8783750791807
 31
0.0
  0
LINE
  5
120
330
1F
100
AcDbEntity
  8
その他
  6
Continuous
 62
     3
370
     9
100
AcDbLine
 10
-194.7189083614865
 20
-122.3784113703547
 30
0.0
 11
-170.2189017630911
 21
-122.3784113703547
 31
0.0
  0
LINE
  5
121
330
1F
100
AcDbEntity
  8
その他
  6
Continuous
 62
     3
370
     9
100
AcDbLine
 10
-194.7189083614865
 20
-79.87834538640197
 30
0.0
 11
-170.2189017630911
 21
-79.87834538640197
 31
0.0
  0
LINE
  5
122
330
1F
100
AcDbEntity
  8
その他
  6
Continuous
 62
     3
370
     9
100
AcDbLine
 10
-196.7189149598818
 20
-81.87835198479729
 30
0.0
 11
-196.7189149598818
 21
-106.3783585831926
 31
0.0
  0
LINE
  5
123
330
1F
100
AcDbEntity
  8
その他
  6
Continuous
 62
     3
370
     9
100
AcDbLine
 10
-194.7189083614865
 20
-108.3783651815878
 30
0.0
 11
-170.2189017630911
 21
-108.3783651815878
 31
0.0
  0
LINE
  5
124
330
1F
100
AcDbEntity
  8
その他
  6
Continuous
 62
     3
370
     9
100
AcDbLine
 10
-168.2188951646959
 20
-81.87835198479729
 30
0.0
 11
-168.2188951646959
 21
-106.3783585831926
 31
0.0
  0
LINE
  5
125
330
1F
100
AcDbEntity
  8
その他
  6
Continuous
 62
     3
370
     9
100
AcDbLine
 10
-168.2188951646959
 20
-39.37833548880906
 30
0.0
 11
-168.2188951646959
 21
-63.87834208720437
 31
0.0
  0
LINE
  5
126
330
1F
100
AcDbEntity
  8
その他
  6
Continuous
 62
     3
370
     9
100
AcDbLine
 10
-194.7189083614865
 20
-65.87834868559958
 30
0.0
 11
-170.2189017630911
 21
-65.87834868559958
 31
0.0
  0
LINE
  5
127
330
1F
100
AcDbEntity
  8
その他
  6
Continuous
 62
     3
370
     9
100
AcDbLine
 10
-196.7189149598818
 20
-39.37833548880906
 30
0.0
 11
-196.7189149598818
 21
-63.87834208720437
 31
0.0
  0
LINE
  5
128
330
1F
100
AcDbEntity
  8
その他
  6
Continuous
 62
     3
370
     9
100
AcDbLine
 10
-194.7189083614865
 20
-37.37837837837833
 30
0.0
 11
-170.2189017630911
 21
-37.37837837837833
 31
0.0
  0
LINE
  5
129
330
1F
100
AcDbEntity
  8
その他
  6
Continuous
 62
     3
370
     9
100
AcDbLine
 10
-194.7189083614865
 20
5.121638117609791
 30
0.0
 11
-170.2189017630911
 21
5.121638117609791
 31
0.0
  0
LINE
  5
12A
330
1F
100
AcDbEntity
  8
その他
  6
Continuous
 62
     3
370
     9
100
AcDbLine
 10
-196.7189149598818
 20
3.121631519214588
 30
0.0
 11
-196.7189149598818
 21
-21.37837507918073
 31
0.0
  0
LINE
  5
12B
330
1F
100
AcDbEntity
  8
その他
  6
Continuous
 62
     3
370
     9
100
AcDbLine
 10
-194.7189083614865
 20
-23.37838167757593
 30
0.0
 11
-170.2189017630911
 21
-23.37838167757593
 31
0.0
  0
LINE
  5
12C
330
1F
100
AcDbEntity
  8
その他
  6
Continuous
 62
     3
370
     9
100
AcDbLine
 10
-168.2188951646959
 20
3.121631519214588
 30
0.0
 11
-168.2188951646959
 21
-21.37837507918073
 31
0.0
  0
LINE
  5
12D
330
1F
100
AcDbEntity
  8
その他
  6
Continuous
 62
     3
370
     9
100
AcDbLine
 10
-168.2188951646959
 20
45.62164801520271
 30
0.0
 11
-168.2188951646959
 21
21.12164141680751
 31
0.0
  0
LINE
  5
12E
330
1F
100
AcDbEntity
  8
その他
  6
Continuous
 62
     3
370
     9
100
AcDbLine
 10
-194.7189083614865
 20
19.12163481841219
 30
0.0
 11
-170.2189017630911
 21
19.12163481841219
 31
0.0
  0
LINE
  5
12F
330
1F
100
AcDbEntity
  8
その他
  6
Continuous
 62
     3
370
     9
100
AcDbLine
 10
-196.7189149598818
 20
45.62164801520271
 30
0.0
 11
-196.7189149598818
 21
21.12164141680751
 31
0.0
  0
LINE
  5
130
330
1F
100
AcDbEntity
  8
その他
  6
Continuous
 62
     3
370
     9
100
AcDbLine
 10
-194.7189083614865
 20
47.62165461359803
 30
0.0
 11
-170.2189017630911
 21
47.62165461359803
 31
0.0
  0
LINE
  5
131
330
1F
100
AcDbEntity
  8
その他
  6
Continuous
 62
     3
370
     9
100
AcDbLine
 10
-237.2189743454392
 20
47.62165461359803
 30
0.0
 11
-212.7188687711148
 21
47.62165461359803
 31
0.0
  0
LINE
  5
132
330
1F
100
AcDbEntity
  8
その他
  6
Continuous
 62
     3
370
     9
100
AcDbLine
 10
-239.2189314558699
 20
45.62164801520271
 30
0.0
 11
-239.2189314558699
 21
21.12164141680751
 31
0.0
  0
LINE
  5
133
330
1F
100
AcDbEntity
  8
その他
  6
Continuous
 62
     3
370
     9
100
AcDbLine
 10
-237.2189743454392
 20
19.12163481841219
 30
0.0
 11
-212.7188687711148
 21
19.12163481841219
 31
0.0
  0
LINE
  5
134
330
1F
100
AcDbEntity
  8
その他
  6
Continuous
 62
     3
370
     9
100
AcDbLine
 10
-210.7188621727196
 20
45.62164801520271
 30
0.0
 11
-210.7188621727196
 21
21.12164141680751
 31
0.0
  0
LINE
  5
135
330
1F
100
AcDbEntity
  8
その他
  6
Continuous
 62
     3
370
     9
100
AcDbLine
 10
-210.7188621727196
 20
3.121631519214588
 30
0.0
 11
-210.7188621727196
 21
-21.37837507918073
 31
0.0
  0
LINE
  5
136
330
1F
100
AcDbEntity
  8
その他
  6
Continuous
 62
     3
370
     9
100
AcDbLine
 10
-237.2189743454392
 20
-23.37838167757593
 30
0.0
 11
-212.7188687711148
 21
-23.37838167757593
 31
0.0
  0
LINE
  5
137
330
1F
100
AcDbEntity
  8
その他
  6
Continuous
 62
     3
370
     9
100
AcDbLine
 10
-239.2189314558699
 20
3.121631519214588
 30
0.0
 11
-239.2189314558699
 21
-21.37837507918073
 31
0.0
  0
LINE
  5
138
330
1F
100
AcDbEntity
  8
その他
  6
Continuous
 62
     3
370
     9
100
AcDbLine
 10
-237.2189743454392
 20
5.121638117609791
 30
0.0
 11
-212.7188687711148
 21
5.121638117609791
 31
0.0
  0
LINE
  5
139
330
1F
100
AcDbEntity
  8
その他
  6
Continuous
 62
     3
370
     9
100
AcDbLine
 10
-237.2189743454392
 20
-37.37837837837833
 30
0.0
 11
-212.7188687711148
 21
-37.37837837837833
 31
0.0
  0
LINE
  5
13A
330
1F
100
AcDbEntity
  8
その他
  6
Continuous
 62
     3
370
     9
100
AcDbLine
 10
-239.2189314558699
 20
-39.37833548880906
 30
0.0
 11
-239.2189314558699
 21
-63.87834208720437
 31
0.0
  0
LINE
  5
13B
330
1F
100
AcDbEntity
  8
その他
  6
Continuous
 62
     3
370
     9
100
AcDbLine
 10
-237.2189743454392
 20
-65.87834868559958
 30
0.0
 11
-212.7188687711148
 21
-65.87834868559958
 31
0.0
  0
LINE
  5
13C
330
1F
100
AcDbEntity
  8
その他
  6
Continuous
 62
     3
370
     9
100
AcDbLine
 10
-210.7188621727196
 20
-39.37833548880906
 30
0.0
 11
-210.7188621727196
 21
-63.87834208720437
 31
0.0
  0
LINE
  5
13D
330
1F
100
AcDbEntity
  8
その他
  6
Continuous
 62
     3
370
     9
100
AcDbLine
 10
-210.7188621727196
 20
-81.87835198479729
 30
0.0
 11
-210.7188621727196
 21
-106.3783585831926
 31
0.0
  0
LINE
  5
13E
330
1F
100
AcDbEntity
  8
その他
  6
Continuous
 62
     3
370
     9
100
AcDbLine
 10
-237.2189743454392
 20
-108.3783651815878
 30
0.0
 11
-212.7188687711148
 21
-108.3783651815878
 31
0.0
  0
LINE
  5
13F
330
1F
100
AcDbEntity
  8
その他
  6
Continuous
 62
     3
370
     9
100
AcDbLine
 10
-239.2189314558699
 20
-81.87835198479729
 30
0.0
 11
-239.2189314558699
 21
-106.3783585831926
 31
0.0
  0
LINE
  5
140
330
1F
100
AcDbEntity
  8
その他
  6
Continuous
 62
     3
370
     9
100
AcDbLine
 10
-237.2189743454392
 20
-79.87834538640197
 30
0.0
 11
-212.7188687711148
 21
-79.87834538640197
 31
0.0
  0
LINE
  5
141
330
1F
100
AcDbEntity
  8
その他
  6
Continuous
 62
     3
370
     9
100
AcDbLine
 10
-237.2189743454392
 20
-122.3784113703547
 30
0.0
 11
-212.7188687711148
 21
-122.3784113703547
 31
0.0
  0
LINE
  5
142
330
1F
100
AcDbEntity
  8
その他
  6
Continuous
 62
     3
370
     9
100
AcDbLine
 10
-239.2189314558699
 20
-124.37841796875
 30
0.0
 11
-239.2189314558699
 21
-148.8783750791807
 31
0.0
  0
LINE
  5
143
330
1F
100
AcDbEntity
  8
その他
  6
Continuous
 62
     3
370
     9
100
AcDbLine
 10
-237.2189743454392
 20
-150.878381677576
 30
0.0
 11
-212.7188687711148
 21
-150.878381677576
 31
0.0
  0
LINE
  5
144
330
1F
100
AcDbEntity
  8
その他
  6
Continuous
 62
     3
370
     9
100
AcDbLine
 10
-210.7188621727196
 20
-124.37841796875
 30
0.0
 11
-210.7188621727196
 21
-148.8783750791807
 31
0.0
  0
LINE
  5
145
330
1F
100
AcDbEntity
  8
その他
  6
Continuous
 62
     3
370
     9
100
AcDbLine
 10
-253.2188786687077
 20
-124.37841796875
 30
0.0
 11
-253.2188786687077
 21
-148.8783750791807
 31
0.0
  0
LINE
  5
146
330
1F
100
AcDbEntity
  8
その他
  6
Continuous
 62
     3
370
     9
100
AcDbLine
 10
-279.7188918654983
 20
-150.878381677576
 30
0.0
 11
-255.2189347550675
 21
-150.878381677576
 31
0.0
  0
LINE
  5
147
330
1F
100
AcDbEntity
  8
その他
  6
Continuous
 62
     3
370
     9
100
AcDbLine
 10
-281.7188984638935
 20
-124.37841796875
 30
0.0
 11
-281.7188984638935
 21
-148.8783750791807
 31
0.0
  0
LINE
  5
148
330
1F
100
AcDbEntity
  8
その他
  6
Continuous
 62
     3
370
     9
100
AcDbLine
 10
-279.7188918654983
 20
-122.3784113703547
 30
0.0
 11
-255.2189347550675
 21
-122.3784113703547
 31
0.0
  0
LINE
  5
149
330
1F
100
AcDbEntity
  8
その他
  6
Continuous
 62
     3
370
     9
100
AcDbLine
 10
-279.7188918654983
 20
-79.87834538640197
 30
0.0
 11
-255.2189347550675
 21
-79.87834538640197
 31
0.0
  0
LINE
  5
14A
330
1F
100
AcDbEntity
  8
その他
  6
Continuous
 62
     3
370
     9
100
AcDbLine
 10
-281.7188984638935
 20
-81.87835198479729
 30
0.0
 11
-281.7188984638935
 21
-106.3783585831926
 31
0.0
  0
LINE
  5
14B
330
1F
100
AcDbEntity
  8
その他
  6
Continuous
 62
     3
370
     9
100
AcDbLine
 10
-279.7188918654983
 20
-108.3783651815878
 30
0.0
 11
-255.2189347550675
 21
-108.3783651815878
 31
0.0
  0
LINE
  5
14C
330
1F
100
AcDbEntity
  8
その他
  6
Continuous
 62
     3
370
     9
100
AcDbLine
 10
-253.2188786687077
 20
-81.87835198479729
 30
0.0
 11
-253.2188786687077
 21
-106.3783585831926
 31
0.0
  0
LINE
  5
14D
330
1F
100
AcDbEntity
  8
その他
  6
Continuous
 62
     3
370
     9
100
AcDbLine
 10
-253.2188786687077
 20
-39.37833548880906
 30
0.0
 11
-253.2188786687077
 21
-63.87834208720437
 31
0.0
  0
LINE
  5
14E
330
1F
100
AcDbEntity
  8
その他
  6
Continuous
 62
     3
370
     9
100
AcDbLine
 10
-279.7188918654983
 20
-65.87834868559958
 30
0.0
 11
-255.2189347550675
 21
-65.87834868559958
 31
0.0
  0
LINE
  5
14F
330
1F
100
AcDbEntity
  8
その他
  6
Continuous
 62
     3
370
     9
100
AcDbLine
 10
-281.7188984638935
 20
-39.37833548880906
 30
0.0
 11
-281.7188984638935
 21
-63.87834208720437
 31
0.0
  0
LINE
  5
150
330
1F
100
AcDbEntity
  8
その他
  6
Continuous
 62
     3
370
     9
100
AcDbLine
 10
-279.7188918654983
 20
-37.37837837837833
 30
0.0
 11
-255.2189347550675
 21
-37.37837837837833
 31
0.0
  0
LINE
  5
151
330
1F
100
AcDbEntity
  8
その他
  6
Continuous
 62
     3
370
     9
100
AcDbLine
 10
-279.7188918654983
 20
5.121638117609791
 30
0.0
 11
-255.2189347550675
 21
5.121638117609791
 31
0.0
  0
LINE
  5
152
330
1F
100
AcDbEntity
  8
その他
  6
Continuous
 62
     3
370
     9
100
AcDbLine
 10
-281.7188984638935
 20
3.121631519214588
 30
0.0
 11
-281.7188984638935
 21
-21.37837507918073
 31
0.0
  0
LINE
  5
153
330
1F
100
AcDbEntity
  8
その他
  6
Continuous
 62
     3
370
     9
100
AcDbLine
 10
-279.7188918654983
 20
-23.37838167757593
 30
0.0
 11
-255.2189347550675
 21
-23.37838167757593
 31
0.0
  0
LINE
  5
154
330
1F
100
AcDbEntity
  8
その他
  6
Continuous
 62
     3
370
     9
100
AcDbLine
 10
-253.2188786687077
 20
3.121631519214588
 30
0.0
 11
-253.2188786687077
 21
-21.37837507918073
 31
0.0
  0
LINE
  5
155
330
1F
100
AcDbEntity
  8
その他
  6
Continuous
 62
     3
370
     9
100
AcDbLine
 10
-253.2188786687077
 20
45.62164801520271
 30
0.0
 11
-253.2188786687077
 21
21.12164141680751
 31
0.0
  0
LINE
  5
156
330
1F
100
AcDbEntity
  8
その他
  6
Continuous
 62
     3
370
     9
100
AcDbLine
 10
-279.7188918654983
 20
19.12163481841219
 30
0.0
 11
-255.2189347550675
 21
19.12163481841219
 31
0.0
  0
LINE
  5
157
330
1F
100
AcDbEntity
  8
その他
  6
Continuous
 62
     3
370
     9
100
AcDbLine
 10
-281.7188984638935
 20
45.62164801520271
 30
0.0
 11
-281.7188984638935
 21
21.12164141680751
 31
0.0
  0
LINE
  5
158
330
1F
100
AcDbEntity
  8
その他
  6
Continuous
 62
     3
370
     9
100
AcDbLine
 10
-279.7188918654983
 20
47.62165461359803
 30
0.0
 11
-255.2189347550675
 21
47.62165461359803
 31
0.0
  0
LINE
  5
159
330
1F
100
AcDbEntity
  8
その他
  6
Continuous
 62
     3
370
     9
100
AcDbLine
 10
-513.7188225823479
 20
-170.3783717799831
 30
0.0
 11
-63.71892155827697
 21
-170.3783717799831
 31
0.0
  0
LINE
  5
15A
330
1F
100
AcDbEntity
  8
その他
  6
Continuous
 62
     2
370
     9
100
AcDbLine
 10
-281.7188984638935
 20
-145.3783387880067
 30
0.0
 11
-253.2188786687077
 21
-145.3783387880067
 31
0.0
  0
LINE
  5
15B
330
1F
100
AcDbEntity
  8
その他
  6
Continuous
 62
     2
370
     9
100
AcDbLine
 10
-518.9189684068834
 20
-175.578369140625
 30
0.0
 11
-58.51882522170604
 21
-175.578369140625
 31
0.0
  0
LINE
  5
15C
330
1F
100
AcDbEntity
  8
その他
  6
Continuous
 62
     2
370
     9
100
AcDbLine
 10
-154.0189175992398
 20
-180.0783592430321
 30
0.0
 11
-154.0189175992398
 21
-204.5783658414273
 31
0.0
  0
LINE
  5
15D
330
1F
100
AcDbEntity
  8
その他
  6
Continuous
 62
     2
370
     9
100
AcDbLine
 10
-163.0188978040541
 20
-180.0783592430321
 30
0.0
 11
-163.0188978040541
 21
-204.5783658414273
 31
0.0
  0
LINE
  5
15E
330
1F
100
AcDbEntity
  8
その他
  6
Continuous
 62
     2
370
     9
100
AcDbLine
 10
-154.0189175992398
 20
-204.5783658414273
 30
0.0
 11
-163.0188978040541
 21
-204.5783658414273
 31
0.0
  0
LINE
  5
15F
330
1F
100
AcDbEntity
  8
その他
  6
JWW_CENTER1
 62
     2
370
     9
100
AcDbLine
 10
-148.811694995777
 20
-180.0783592430321
 30
0.0
 11
-167.2829292915962
 21
-180.0783592430321
 31
0.0
  0
LINE
  5
160
330
1F
100
AcDbEntity
  8
その他
  6
Continuous
 62
     2
370
     9
100
AcDbLine
 10
-88.71895455025333
 20
47.62165461359803
 30
0.0
 11
-88.71895455025333
 21
19.12163481841219
 31
0.0
  0
LINE
  5
161
330
1F
100
AcDbEntity
  8
その他
  6
Continuous
 62
     2
370
     9
100
AcDbLine
 10
-111.7189314558699
 20
-145.3783387880067
 30
0.0
 11
-88.71895455025333
 21
-145.3783387880067
 31
0.0
  0
LINE
  5
162
330
1F
100
AcDbEntity
  8
その他
  6
Continuous
 62
     2
370
     9
100
AcDbLine
 10
-154.2188984638935
 20
-145.3783387880067
 30
0.0
 11
-125.7189281566723
 21
-145.3783387880067
 31
0.0
  0
LINE
  5
163
330
1F
100
AcDbEntity
  8
その他
  6
Continuous
 62
     2
370
     9
100
AcDbLine
 10
-196.7189149598818
 20
-145.3783387880067
 30
0.0
 11
-168.2188951646959
 21
-145.3783387880067
 31
0.0
  0
LINE
  5
164
330
1F
100
AcDbEntity
  8
その他
  6
Continuous
 62
     2
370
     9
100
AcDbLine
 10
-239.2189314558699
 20
-145.3783387880067
 30
0.0
 11
-210.7188621727196
 21
-145.3783387880067
 31
0.0
  0
LINE
  5
165
330
1F
100
AcDbEntity
  8
その他
  6
Continuous
 62
     2
370
     9
100
AcDbLine
 10
-88.71895455025333
 20
-122.3784113703547
 30
0.0
 11
-88.71895455025333
 21
-145.3783387880067
 31
0.0
  0
LINE
  5
166
330
1F
100
AcDbEntity
  8
その他
  6
Continuous
 62
     2
370
     9
100
AcDbLine
 10
-88.71895455025333
 20
-79.87834538640197
 30
0.0
 11
-88.71895455025333
 21
-108.3783651815878
 31
0.0
  0
LINE
  5
167
330
1F
100
AcDbEntity
  8
その他
  6
Continuous
 62
     2
370
     9
100
AcDbLine
 10
-88.71895455025333
 20
-37.37837837837833
 30
0.0
 11
-88.71895455025333
 21
-65.87834868559958
 31
0.0
  0
LINE
  5
168
330
1F
100
AcDbEntity
  8
その他
  6
Continuous
 62
     2
370
     9
100
AcDbLine
 10
-88.71895455025333
 20
5.121638117609791
 30
0.0
 11
-88.71895455025333
 21
-23.37838167757593
 31
0.0
  0
LINE
  5
169
330
1F
100
AcDbEntity
  8
その他
  6
Continuous
 62
     2
370
     9
100
AcDbLine
 10
-488.7188885663007
 20
5.121638117609791
 30
0.0
 11
-488.7188885663007
 21
-23.37838167757593
 31
0.0
  0
LINE
  5
16A
330
1F
100
AcDbEntity
  8
その他
  6
Continuous
 62
     2
370
     9
100
AcDbLine
 10
-488.7188885663007
 20
-37.37837837837833
 30
0.0
 11
-488.7188885663007
 21
-65.87834868559958
 31
0.0
  0
LINE
  5
16B
330
1F
100
AcDbEntity
  8
その他
  6
Continuous
 62
     2
370
     9
100
AcDbLine
 10
-488.7188885663007
 20
-79.87834538640197
 30
0.0
 11
-488.7188885663007
 21
-108.3783651815878
 31
0.0
  0
LINE
  5
16C
330
1F
100
AcDbEntity
  8
その他
  6
Continuous
 62
     2
370
     9
100
AcDbLine
 10
-488.7188885663007
 20
-122.3784113703547
 30
0.0
 11
-488.7188885663007
 21
-145.3783387880067
 31
0.0
  0
LINE
  5
16D
330
1F
100
AcDbEntity
  8
その他
  6
Continuous
 62
     2
370
     9
100
AcDbLine
 10
-338.2189116606841
 20
-145.3783387880067
 30
0.0
 11
-366.7188819679054
 21
-145.3783387880067
 31
0.0
  0
LINE
  5
16E
330
1F
100
AcDbEntity
  8
その他
  6
Continuous
 62
     2
370
     9
100
AcDbLine
 10
-380.7188786687078
 20
-145.3783387880067
 30
0.0
 11
-409.218848975929
 21
-145.3783387880067
 31
0.0
  0
LINE
  5
16F
330
1F
100
AcDbEntity
  8
その他
  6
Continuous
 62
     2
370
     9
100
AcDbLine
 10
-423.2188951646959
 20
-145.3783387880067
 30
0.0
 11
-451.7189149598817
 21
-145.3783387880067
 31
0.0
  0
LINE
  5
170
330
1F
100
AcDbEntity
  8
その他
  6
Continuous
 62
     2
370
     9
100
AcDbLine
 10
-465.7189116606841
 20
-145.3783387880067
 30
0.0
 11
-488.7188885663007
 21
-145.3783387880067
 31
0.0
  0
LINE
  5
171
330
1F
100
AcDbEntity
  8
その他
  6
Continuous
 62
     2
370
     9
100
AcDbLine
 10
-488.7188885663007
 20
47.62165461359803
 30
0.0
 11
-488.7188885663007
 21
19.12163481841219
 31
0.0
  0
LINE
  5
172
330
1F
100
AcDbEntity
  8
その他
  6
JWW_CENTER1
 62
     2
370
     9
100
AcDbLine
 10
-428.6260986328125
 20
-180.0783592430321
 30
0.0
 11
-410.1548643369932
 21
-180.0783592430321
 31
0.0
  0
LINE
  5
173
330
1F
100
AcDbEntity
  8
その他
  6
Continuous
 62
     2
370
     9
100
AcDbLine
 10
-423.4189255173142
 20
-204.5783658414273
 30
0.0
 11
-414.4188958245355
 21
-204.5783658414273
 31
0.0
  0
LINE
  5
174
330
1F
100
AcDbEntity
  8
その他
  6
Continuous
 62
     2
370
     9
100
AcDbLine
 10
-414.4188958245355
 20
-180.0783592430321
 30
0.0
 11
-414.4188958245355
 21
-204.5783658414273
 31
0.0
  0
LINE
  5
175
330
1F
100
AcDbEntity
  8
その他
  6
JWW_CENTER1
 62
     2
370
     9
100
AcDbLine
 10
-418.9188859269426
 20
-167.7127025707348
 30
0.0
 11
-418.9188859269426
 21
-209.9646853885135
 31
0.0
  0
LINE
  5
176
330
1F
100
AcDbEntity
  8
その他
  6
Continuous
 62
     2
370
     9
100
AcDbLine
 10
-423.4189255173142
 20
-180.0783592430321
 30
0.0
 11
-423.4189255173142
 21
-204.5783658414273
 31
0.0
  0
LINE
  5
177
330
1F
100
AcDbEntity
  8
その他
  6
Continuous
 62
     2
370
     9
100
AcDbLine
 10
-295.7188951646959
 20
-145.3783387880067
 30
0.0
 11
-324.2189149598818
 21
-145.3783387880067
 31
0.0
  0
LINE
  5
178
330
1F
100
AcDbEntity
  8
その他
  6
Continuous
 62
     3
370
     9
100
AcDbLine
 10
-513.7188225823479
 20
279.621628220017
 30
0.0
 11
-513.7188225823479
 21
-170.3783717799831
 31
0.0
  0
LINE
  5
179
330
1F
100
AcDbEntity
  8
その他
  6
Continuous
 62
     3
370
     9
100
AcDbLine
 10
-297.7189017630911
 20
47.62165461359803
 30
0.0
 11
-322.2188093855574
 21
47.62165461359803
 31
0.0
  0
LINE
  5
17A
330
1F
100
AcDbEntity
  8
その他
  6
Continuous
 62
     3
370
     9
100
AcDbLine
 10
-295.7188951646959
 20
45.62164801520271
 30
0.0
 11
-295.7188951646959
 21
21.12164141680751
 31
0.0
  0
LINE
  5
17B
330
1F
100
AcDbEntity
  8
その他
  6
Continuous
 62
     3
370
     9
100
AcDbLine
 10
-297.7189017630911
 20
19.12163481841219
 30
0.0
 11
-322.2188093855574
 21
19.12163481841219
 31
0.0
  0
LINE
  5
17C
330
1F
100
AcDbEntity
  8
その他
  6
Continuous
 62
     3
370
     9
100
AcDbLine
 10
-324.2189149598818
 20
45.62164801520271
 30
0.0
 11
-324.2189149598818
 21
21.12164141680751
 31
0.0
  0
LINE
  5
17D
330
1F
100
AcDbEntity
  8
その他
  6
Continuous
 62
     3
370
     9
100
AcDbLine
 10
-324.2189149598818
 20
3.121631519214588
 30
0.0
 11
-324.2189149598818
 21
-21.37837507918073
 31
0.0
  0
LINE
  5
17E
330
1F
100
AcDbEntity
  8
その他
  6
Continuous
 62
     3
370
     9
100
AcDbLine
 10
-297.7189017630911
 20
-23.37838167757593
 30
0.0
 11
-322.2188093855574
 21
-23.37838167757593
 31
0.0
  0
LINE
  5
17F
330
1F
100
AcDbEntity
  8
その他
  6
Continuous
 62
     3
370
     9
100
AcDbLine
 10
-295.7188951646959
 20
3.121631519214588
 30
0.0
 11
-295.7188951646959
 21
-21.37837507918073
 31
0.0
  0
LINE
  5
180
330
1F
100
AcDbEntity
  8
その他
  6
Continuous
 62
     3
370
     9
100
AcDbLine
 10
-297.7189017630911
 20
5.121638117609791
 30
0.0
 11
-322.2188093855574
 21
5.121638117609791
 31
0.0
  0
LINE
  5
181
330
1F
100
AcDbEntity
  8
その他
  6
Continuous
 62
     3
370
     9
100
AcDbLine
 10
-297.7189017630911
 20
-37.37837837837833
 30
0.0
 11
-322.2188093855574
 21
-37.37837837837833
 31
0.0
  0
LINE
  5
182
330
1F
100
AcDbEntity
  8
その他
  6
Continuous
 62
     3
370
     9
100
AcDbLine
 10
-295.7188951646959
 20
-39.37833548880906
 30
0.0
 11
-295.7188951646959
 21
-63.87834208720437
 31
0.0
  0
LINE
  5
183
330
1F
100
AcDbEntity
  8
その他
  6
Continuous
 62
     3
370
     9
100
AcDbLine
 10
-297.7189017630911
 20
-65.87834868559958
 30
0.0
 11
-322.2188093855574
 21
-65.87834868559958
 31
0.0
  0
LINE
  5
184
330
1F
100
AcDbEntity
  8
その他
  6
Continuous
 62
     3
370
     9
100
AcDbLine
 10
-324.2189149598818
 20
-39.37833548880906
 30
0.0
 11
-324.2189149598818
 21
-63.87834208720437
 31
0.0
  0
LINE
  5
185
330
1F
100
AcDbEntity
  8
その他
  6
Continuous
 62
     3
370
     9
100
AcDbLine
 10
-324.2189149598818
 20
-81.87835198479729
 30
0.0
 11
-324.2189149598818
 21
-106.3783585831926
 31
0.0
  0
LINE
  5
186
330
1F
100
AcDbEntity
  8
その他
  6
Continuous
 62
     3
370
     9
100
AcDbLine
 10
-297.7189017630911
 20
-108.3783651815878
 30
0.0
 11
-322.2188093855574
 21
-108.3783651815878
 31
0.0
  0
LINE
  5
187
330
1F
100
AcDbEntity
  8
その他
  6
Continuous
 62
     3
370
     9
100
AcDbLine
 10
-295.7188951646959
 20
-81.87835198479729
 30
0.0
 11
-295.7188951646959
 21
-106.3783585831926
 31
0.0
  0
LINE
  5
188
330
1F
100
AcDbEntity
  8
その他
  6
Continuous
 62
     3
370
     9
100
AcDbLine
 10
-297.7189017630911
 20
-79.87834538640197
 30
0.0
 11
-322.2188093855574
 21
-79.87834538640197
 31
0.0
  0
LINE
  5
189
330
1F
100
AcDbEntity
  8
その他
  6
Continuous
 62
     3
370
     9
100
AcDbLine
 10
-297.7189017630911
 20
-122.3784113703547
 30
0.0
 11
-322.2188093855574
 21
-122.3784113703547
 31
0.0
  0
LINE
  5
18A
330
1F
100
AcDbEntity
  8
その他
  6
Continuous
 62
     3
370
     9
100
AcDbLine
 10
-295.7188951646959
 20
-124.37841796875
 30
0.0
 11
-295.7188951646959
 21
-148.8783750791807
 31
0.0
  0
LINE
  5
18B
330
1F
100
AcDbEntity
  8
その他
  6
Continuous
 62
     3
370
     9
100
AcDbLine
 10
-297.7189017630911
 20
-150.878381677576
 30
0.0
 11
-322.2188093855574
 21
-150.878381677576
 31
0.0
  0
LINE
  5
18C
330
1F
100
AcDbEntity
  8
その他
  6
Continuous
 62
     3
370
     9
100
AcDbLine
 10
-324.2189149598818
 20
-124.37841796875
 30
0.0
 11
-324.2189149598818
 21
-148.8783750791807
 31
0.0
  0
LINE
  5
18D
330
1F
100
AcDbEntity
  8
その他
  6
Continuous
 62
     3
370
     9
100
AcDbLine
 10
-366.7188819679054
 20
-124.37841796875
 30
0.0
 11
-366.7188819679054
 21
-148.8783750791807
 31
0.0
  0
LINE
  5
18E
330
1F
100
AcDbEntity
  8
その他
  6
Continuous
 62
     3
370
     9
100
AcDbLine
 10
-340.2189182590794
 20
-150.878381677576
 30
0.0
 11
-364.7188753695101
 21
-150.878381677576
 31
0.0
  0
LINE
  5
18F
330
1F
100
AcDbEntity
  8
その他
  6
Continuous
 62
     3
370
     9
100
AcDbLine
 10
-338.2189116606841
 20
-124.37841796875
 30
0.0
 11
-338.2189116606841
 21
-148.8783750791807
 31
0.0
  0
LINE
  5
190
330
1F
100
AcDbEntity
  8
その他
  6
Continuous
 62
     3
370
     9
100
AcDbLine
 10
-340.2189182590794
 20
-122.3784113703547
 30
0.0
 11
-364.7188753695101
 21
-122.3784113703547
 31
0.0
  0
LINE
  5
191
330
1F
100
AcDbEntity
  8
その他
  6
Continuous
 62
     3
370
     9
100
AcDbLine
 10
-340.2189182590794
 20
-79.87834538640197
 30
0.0
 11
-364.7188753695101
 21
-79.87834538640197
 31
0.0
  0
LINE
  5
192
330
1F
100
AcDbEntity
  8
その他
  6
Continuous
 62
     3
370
     9
100
AcDbLine
 10
-338.2189116606841
 20
-81.87835198479729
 30
0.0
 11
-338.2189116606841
 21
-106.3783585831926
 31
0.0
  0
LINE
  5
193
330
1F
100
AcDbEntity
  8
その他
  6
Continuous
 62
     3
370
     9
100
AcDbLine
 10
-340.2189182590794
 20
-108.3783651815878
 30
0.0
 11
-364.7188753695101
 21
-108.3783651815878
 31
0.0
  0
LINE
  5
194
330
1F
100
AcDbEntity
  8
その他
  6
Continuous
 62
     3
370
     9
100
AcDbLine
 10
-366.7188819679054
 20
-81.87835198479729
 30
0.0
 11
-366.7188819679054
 21
-106.3783585831926
 31
0.0
  0
LINE
  5
195
330
1F
100
AcDbEntity
  8
その他
  6
Continuous
 62
     3
370
     9
100
AcDbLine
 10
-366.7188819679054
 20
-39.37833548880906
 30
0.0
 11
-366.7188819679054
 21
-63.87834208720437
 31
0.0
  0
LINE
  5
196
330
1F
100
AcDbEntity
  8
その他
  6
Continuous
 62
     3
370
     9
100
AcDbLine
 10
-340.2189182590794
 20
-65.87834868559958
 30
0.0
 11
-364.7188753695101
 21
-65.87834868559958
 31
0.0
  0
LINE
  5
197
330
1F
100
AcDbEntity
  8
その他
  6
Continuous
 62
     3
370
     9
100
AcDbLine
 10
-338.2189116606841
 20
-39.37833548880906
 30
0.0
 11
-338.2189116606841
 21
-63.87834208720437
 31
0.0
  0
LINE
  5
198
330
1F
100
AcDbEntity
  8
その他
  6
Continuous
 62
     3
370
     9
100
AcDbLine
 10
-340.2189182590794
 20
-37.37837837837833
 30
0.0
 11
-364.7188753695101
 21
-37.37837837837833
 31
0.0
  0
LINE
  5
199
330
1F
100
AcDbEntity
  8
その他
  6
Continuous
 62
     3
370
     9
100
AcDbLine
 10
-340.2189182590794
 20
5.121638117609791
 30
0.0
 11
-364.7188753695101
 21
5.121638117609791
 31
0.0
  0
LINE
  5
19A
330
1F
100
AcDbEntity
  8
その他
  6
Continuous
 62
     3
370
     9
100
AcDbLine
 10
-338.2189116606841
 20
3.121631519214588
 30
0.0
 11
-338.2189116606841
 21
-21.37837507918073
 31
0.0
  0
LINE
  5
19B
330
1F
100
AcDbEntity
  8
その他
  6
Continuous
 62
     3
370
     9
100
AcDbLine
 10
-340.2189182590794
 20
-23.37838167757593
 30
0.0
 11
-364.7188753695101
 21
-23.37838167757593
 31
0.0
  0
LINE
  5
19C
330
1F
100
AcDbEntity
  8
その他
  6
Continuous
 62
     3
370
     9
100
AcDbLine
 10
-366.7188819679054
 20
3.121631519214588
 30
0.0
 11
-366.7188819679054
 21
-21.37837507918073
 31
0.0
  0
LINE
  5
19D
330
1F
100
AcDbEntity
  8
その他
  6
Continuous
 62
     3
370
     9
100
AcDbLine
 10
-366.7188819679054
 20
45.62164801520271
 30
0.0
 11
-366.7188819679054
 21
21.12164141680751
 31
0.0
  0
LINE
  5
19E
330
1F
100
AcDbEntity
  8
その他
  6
Continuous
 62
     3
370
     9
100
AcDbLine
 10
-340.2189182590794
 20
19.12163481841219
 30
0.0
 11
-364.7188753695101
 21
19.12163481841219
 31
0.0
  0
LINE
  5
19F
330
1F
100
AcDbEntity
  8
その他
  6
Continuous
 62
     3
370
     9
100
AcDbLine
 10
-338.2189116606841
 20
45.62164801520271
 30
0.0
 11
-338.2189116606841
 21
21.12164141680751
 31
0.0
  0
LINE
  5
1A0
330
1F
100
AcDbEntity
  8
その他
  6
Continuous
 62
     3
370
     9
100
AcDbLine
 10
-340.2189182590794
 20
47.62165461359803
 30
0.0
 11
-364.7188753695101
 21
47.62165461359803
 31
0.0
  0
LINE
  5
1A1
330
1F
100
AcDbEntity
  8
その他
  6
Continuous
 62
     3
370
     9
100
AcDbLine
 10
-382.718885267103
 20
47.62165461359803
 30
0.0
 11
-407.2188918654983
 21
47.62165461359803
 31
0.0
  0
LINE
  5
1A2
330
1F
100
AcDbEntity
  8
その他
  6
Continuous
 62
     3
370
     9
100
AcDbLine
 10
-380.7188786687078
 20
45.62164801520271
 30
0.0
 11
-380.7188786687078
 21
21.12164141680751
 31
0.0
  0
LINE
  5
1A3
330
1F
100
AcDbEntity
  8
その他
  6
Continuous
 62
     3
370
     9
100
AcDbLine
 10
-382.718885267103
 20
19.12163481841219
 30
0.0
 11
-407.2188918654983
 21
19.12163481841219
 31
0.0
  0
LINE
  5
1A4
330
1F
100
AcDbEntity
  8
その他
  6
Continuous
 62
     3
370
     9
100
AcDbLine
 10
-409.218848975929
 20
45.62164801520271
 30
0.0
 11
-409.218848975929
 21
21.12164141680751
 31
0.0
  0
LINE
  5
1A5
330
1F
100
AcDbEntity
  8
その他
  6
Continuous
 62
     3
370
     9
100
AcDbLine
 10
-409.218848975929
 20
3.121631519214588
 30
0.0
 11
-409.218848975929
 21
-21.37837507918073
 31
0.0
  0
LINE
  5
1A6
330
1F
100
AcDbEntity
  8
その他
  6
Continuous
 62
     3
370
     9
100
AcDbLine
 10
-382.718885267103
 20
-23.37838167757593
 30
0.0
 11
-407.2188918654983
 21
-23.37838167757593
 31
0.0
  0
LINE
  5
1A7
330
1F
100
AcDbEntity
  8
その他
  6
Continuous
 62
     3
370
     9
100
AcDbLine
 10
-380.7188786687078
 20
3.121631519214588
 30
0.0
 11
-380.7188786687078
 21
-21.37837507918073
 31
0.0
  0
LINE
  5
1A8
330
1F
100
AcDbEntity
  8
その他
  6
Continuous
 62
     3
370
     9
100
AcDbLine
 10
-382.718885267103
 20
5.121638117609791
 30
0.0
 11
-407.2188918654983
 21
5.121638117609791
 31
0.0
  0
LINE
  5
1A9
330
1F
100
AcDbEntity
  8
その他
  6
Continuous
 62
     3
370
     9
100
AcDbLine
 10
-382.718885267103
 20
-37.37837837837833
 30
0.0
 11
-407.2188918654983
 21
-37.37837837837833
 31
0.0
  0
LINE
  5
1AA
330
1F
100
AcDbEntity
  8
その他
  6
Continuous
 62
     3
370
     9
100
AcDbLine
 10
-380.7188786687078
 20
-39.37833548880906
 30
0.0
 11
-380.7188786687078
 21
-63.87834208720437
 31
0.0
  0
LINE
  5
1AB
330
1F
100
AcDbEntity
  8
その他
  6
Continuous
 62
     3
370
     9
100
AcDbLine
 10
-382.718885267103
 20
-65.87834868559958
 30
0.0
 11
-407.2188918654983
 21
-65.87834868559958
 31
0.0
  0
LINE
  5
1AC
330
1F
100
AcDbEntity
  8
その他
  6
Continuous
 62
     3
370
     9
100
AcDbLine
 10
-409.218848975929
 20
-39.37833548880906
 30
0.0
 11
-409.218848975929
 21
-63.87834208720437
 31
0.0
  0
LINE
  5
1AD
330
1F
100
AcDbEntity
  8
その他
  6
Continuous
 62
     3
370
     9
100
AcDbLine
 10
-409.218848975929
 20
-81.87835198479729
 30
0.0
 11
-409.218848975929
 21
-106.3783585831926
 31
0.0
  0
LINE
  5
1AE
330
1F
100
AcDbEntity
  8
その他
  6
Continuous
 62
     3
370
     9
100
AcDbLine
 10
-382.718885267103
 20
-108.3783651815878
 30
0.0
 11
-407.2188918654983
 21
-108.3783651815878
 31
0.0
  0
LINE
  5
1AF
330
1F
100
AcDbEntity
  8
その他
  6
Continuous
 62
     3
370
     9
100
AcDbLine
 10
-380.7188786687078
 20
-81.87835198479729
 30
0.0
 11
-380.7188786687078
 21
-106.3783585831926
 31
0.0
  0
LINE
  5
1B0
330
1F
100
AcDbEntity
  8
その他
  6
Continuous
 62
     3
370
     9
100
AcDbLine
 10
-382.718885267103
 20
-79.87834538640197
 30
0.0
 11
-407.2188918654983
 21
-79.87834538640197
 31
0.0
  0
LINE
  5
1B1
330
1F
100
AcDbEntity
  8
その他
  6
Continuous
 62
     3
370
     9
100
AcDbLine
 10
-382.718885267103
 20
-122.3784113703547
 30
0.0
 11
-407.2188918654983
 21
-122.3784113703547
 31
0.0
  0
LINE
  5
1B2
330
1F
100
AcDbEntity
  8
その他
  6
Continuous
 62
     3
370
     9
100
AcDbLine
 10
-380.7188786687078
 20
-124.37841796875
 30
0.0
 11
-380.7188786687078
 21
-148.8783750791807
 31
0.0
  0
LINE
  5
1B3
330
1F
100
AcDbEntity
  8
その他
  6
Continuous
 62
     3
370
     9
100
AcDbLine
 10
-382.718885267103
 20
-150.878381677576
 30
0.0
 11
-407.2188918654983
 21
-150.878381677576
 31
0.0
  0
LINE
  5
1B4
330
1F
100
AcDbEntity
  8
その他
  6
Continuous
 62
     3
370
     9
100
AcDbLine
 10
-409.218848975929
 20
-124.37841796875
 30
0.0
 11
-409.218848975929
 21
-148.8783750791807
 31
0.0
  0
LINE
  5
1B5
330
1F
100
AcDbEntity
  8
その他
  6
Continuous
 62
     3
370
     9
100
AcDbLine
 10
-451.7189149598817
 20
-124.37841796875
 30
0.0
 11
-451.7189149598817
 21
-148.8783750791807
 31
0.0
  0
LINE
  5
1B6
330
1F
100
AcDbEntity
  8
その他
  6
Continuous
 62
     3
370
     9
100
AcDbLine
 10
-425.2189017630912
 20
-150.878381677576
 30
0.0
 11
-449.7189083614865
 21
-150.878381677576
 31
0.0
  0
LINE
  5
1B7
330
1F
100
AcDbEntity
  8
その他
  6
Continuous
 62
     3
370
     9
100
AcDbLine
 10
-423.2188951646959
 20
-124.37841796875
 30
0.0
 11
-423.2188951646959
 21
-148.8783750791807
 31
0.0
  0
LINE
  5
1B8
330
1F
100
AcDbEntity
  8
その他
  6
Continuous
 62
     3
370
     9
100
AcDbLine
 10
-425.2189017630912
 20
-122.3784113703547
 30
0.0
 11
-449.7189083614865
 21
-122.3784113703547
 31
0.0
  0
LINE
  5
1B9
330
1F
100
AcDbEntity
  8
その他
  6
Continuous
 62
     3
370
     9
100
AcDbLine
 10
-425.2189017630912
 20
-79.87834538640197
 30
0.0
 11
-449.7189083614865
 21
-79.87834538640197
 31
0.0
  0
LINE
  5
1BA
330
1F
100
AcDbEntity
  8
その他
  6
Continuous
 62
     3
370
     9
100
AcDbLine
 10
-423.2188951646959
 20
-81.87835198479729
 30
0.0
 11
-423.2188951646959
 21
-106.3783585831926
 31
0.0
  0
LINE
  5
1BB
330
1F
100
AcDbEntity
  8
その他
  6
Continuous
 62
     3
370
     9
100
AcDbLine
 10
-425.2189017630912
 20
-108.3783651815878
 30
0.0
 11
-449.7189083614865
 21
-108.3783651815878
 31
0.0
  0
LINE
  5
1BC
330
1F
100
AcDbEntity
  8
その他
  6
Continuous
 62
     3
370
     9
100
AcDbLine
 10
-451.7189149598817
 20
-81.87835198479729
 30
0.0
 11
-451.7189149598817
 21
-106.3783585831926
 31
0.0
  0
LINE
  5
1BD
330
1F
100
AcDbEntity
  8
その他
  6
Continuous
 62
     3
370
     9
100
AcDbLine
 10
-451.7189149598817
 20
-39.37833548880906
 30
0.0
 11
-451.7189149598817
 21
-63.87834208720437
 31
0.0
  0
LINE
  5
1BE
330
1F
100
AcDbEntity
  8
その他
  6
Continuous
 62
     3
370
     9
100
AcDbLine
 10
-494.2188819679054
 20
233.6216744087839
 30
0.0
 11
-494.2188819679054
 21
258.1216810071791
 31
0.0
  0
LINE
  5
1BF
330
1F
100
AcDbEntity
  8
その他
  6
Continuous
 62
     3
370
     9
100
AcDbLine
 10
-467.7189182590794
 20
260.1216876055744
 30
0.0
 11
-492.2188753695101
 21
260.1216876055744
 31
0.0
  0
LINE
  5
1C0
330
1F
100
AcDbEntity
  8
その他
  6
Continuous
 62
     3
370
     9
100
AcDbLine
 10
-465.7189116606841
 20
233.6216744087839
 30
0.0
 11
-465.7189116606841
 21
258.1216810071791
 31
0.0
  0
LINE
  5
1C1
330
1F
100
AcDbEntity
  8
その他
  6
Continuous
 62
     3
370
     9
100
AcDbLine
 10
-467.7189182590794
 20
231.6216678103885
 30
0.0
 11
-492.2188753695101
 21
231.6216678103885
 31
0.0
  0
LINE
  5
1C2
330
1F
100
AcDbEntity
  8
その他
  6
Continuous
 62
     3
370
     9
100
AcDbLine
 10
-467.7189182590794
 20
189.1216513144004
 30
0.0
 11
-492.2188753695101
 21
189.1216513144004
 31
0.0
  0
LINE
  5
1C3
330
1F
100
AcDbEntity
  8
その他
  6
Continuous
 62
     3
370
     9
100
AcDbLine
 10
-465.7189116606841
 20
191.1216579127956
 30
0.0
 11
-465.7189116606841
 21
215.6216150232264
 31
0.0
  0
LINE
  5
1C4
330
1F
100
AcDbEntity
  8
その他
  6
Continuous
 62
     3
370
     9
100
AcDbLine
 10
-467.7189182590794
 20
217.6216216216217
 30
0.0
 11
-492.2188753695101
 21
217.6216216216217
 31
0.0
  0
LINE
  5
1C5
330
1F
100
AcDbEntity
  8
その他
  6
Continuous
 62
     3
370
     9
100
AcDbLine
 10
-494.2188819679054
 20
191.1216579127956
 30
0.0
 11
-494.2188819679054
 21
215.6216150232264
 31
0.0
  0
LINE
  5
1C6
330
1F
100
AcDbEntity
  8
その他
  6
Continuous
 62
     3
370
     9
100
AcDbLine
 10
-494.2188819679054
 20
148.6216414168075
 30
0.0
 11
-494.2188819679054
 21
173.1216480152027
 31
0.0
  0
LINE
  5
1C7
330
1F
100
AcDbEntity
  8
その他
  6
Continuous
 62
     3
370
     9
100
AcDbLine
 10
-467.7189182590794
 20
175.121654613598
 30
0.0
 11
-492.2188753695101
 21
175.121654613598
 31
0.0
  0
LINE
  5
1C8
330
1F
100
AcDbEntity
  8
その他
  6
Continuous
 62
     3
370
     9
100
AcDbLine
 10
-465.7189116606841
 20
148.6216414168075
 30
0.0
 11
-465.7189116606841
 21
173.1216480152027
 31
0.0
  0
LINE
  5
1C9
330
1F
100
AcDbEntity
  8
その他
  6
Continuous
 62
     3
370
     9
100
AcDbLine
 10
-467.7189182590794
 20
146.6216348184122
 30
0.0
 11
-492.2188753695101
 21
146.6216348184122
 31
0.0
  0
LINE
  5
1CA
330
1F
100
AcDbEntity
  8
その他
  6
Continuous
 62
     3
370
     9
100
AcDbLine
 10
-467.7189182590794
 20
104.1216183224241
 30
0.0
 11
-492.2188753695101
 21
104.1216183224241
 31
0.0
  0
LINE
  5
1CB
330
1F
100
AcDbEntity
  8
その他
  6
Continuous
 62
     3
370
     9
100
AcDbLine
 10
-465.7189116606841
 20
106.1216249208193
 30
0.0
 11
-465.7189116606841
 21
130.6216315192146
 31
0.0
  0
LINE
  5
1CC
330
1F
100
AcDbEntity
  8
その他
  6
Continuous
 62
     3
370
     9
100
AcDbLine
 10
-467.7189182590794
 20
132.6216381176098
 30
0.0
 11
-492.2188753695101
 21
132.6216381176098
 31
0.0
  0
LINE
  5
1CD
330
1F
100
AcDbEntity
  8
その他
  6
Continuous
 62
     3
370
     9
100
AcDbLine
 10
-494.2188819679054
 20
106.1216249208193
 30
0.0
 11
-494.2188819679054
 21
130.6216315192146
 31
0.0
  0
LINE
  5
1CE
330
1F
100
AcDbEntity
  8
その他
  6
Continuous
 62
     3
370
     9
100
AcDbLine
 10
-494.2188819679054
 20
63.62165791279563
 30
0.0
 11
-494.2188819679054
 21
88.12166451119094
 31
0.0
  0
LINE
  5
1CF
330
1F
100
AcDbEntity
  8
その他
  6
Continuous
 62
     3
370
     9
100
AcDbLine
 10
-467.7189182590794
 20
90.12162162162167
 30
0.0
 11
-492.2188753695101
 21
90.12162162162167
 31
0.0
  0
LINE
  5
1D0
330
1F
100
AcDbEntity
  8
その他
  6
Continuous
 62
     3
370
     9
100
AcDbLine
 10
-465.7189116606841
 20
63.62165791279563
 30
0.0
 11
-465.7189116606841
 21
88.12166451119094
 31
0.0
  0
LINE
  5
1D1
330
1F
100
AcDbEntity
  8
その他
  6
Continuous
 62
     3
370
     9
100
AcDbLine
 10
-467.7189182590794
 20
61.62165131440042
 30
0.0
 11
-492.2188753695101
 21
61.62165131440042
 31
0.0
  0
LINE
  5
1D2
330
1F
100
AcDbEntity
  8
その他
  6
Continuous
 62
     3
370
     9
100
AcDbLine
 10
-425.2189017630912
 20
61.62165131440042
 30
0.0
 11
-449.7189083614865
 21
61.62165131440042
 31
0.0
  0
LINE
  5
1D3
330
1F
100
AcDbEntity
  8
その他
  6
Continuous
 62
     3
370
     9
100
AcDbLine
 10
-423.2188951646959
 20
63.62165791279563
 30
0.0
 11
-423.2188951646959
 21
88.12166451119094
 31
0.0
  0
LINE
  5
1D4
330
1F
100
AcDbEntity
  8
その他
  6
Continuous
 62
     3
370
     9
100
AcDbLine
 10
-425.2189017630912
 20
90.12162162162167
 30
0.0
 11
-449.7189083614865
 21
90.12162162162167
 31
0.0
  0
LINE
  5
1D5
330
1F
100
AcDbEntity
  8
その他
  6
Continuous
 62
     3
370
     9
100
AcDbLine
 10
-451.7189149598817
 20
63.62165791279563
 30
0.0
 11
-451.7189149598817
 21
88.12166451119094
 31
0.0
  0
LINE
  5
1D6
330
1F
100
AcDbEntity
  8
その他
  6
Continuous
 62
     3
370
     9
100
AcDbLine
 10
-451.7189149598817
 20
106.1216249208193
 30
0.0
 11
-451.7189149598817
 21
130.6216315192146
 31
0.0
  0
LINE
  5
1D7
330
1F
100
AcDbEntity
  8
その他
  6
Continuous
 62
     3
370
     9
100
AcDbLine
 10
-425.2189017630912
 20
132.6216381176098
 30
0.0
 11
-449.7189083614865
 21
132.6216381176098
 31
0.0
  0
LINE
  5
1D8
330
1F
100
AcDbEntity
  8
その他
  6
Continuous
 62
     3
370
     9
100
AcDbLine
 10
-423.2188951646959
 20
106.1216249208193
 30
0.0
 11
-423.2188951646959
 21
130.6216315192146
 31
0.0
  0
LINE
  5
1D9
330
1F
100
AcDbEntity
  8
その他
  6
Continuous
 62
     3
370
     9
100
AcDbLine
 10
-425.2189017630912
 20
104.1216183224241
 30
0.0
 11
-449.7189083614865
 21
104.1216183224241
 31
0.0
  0
LINE
  5
1DA
330
1F
100
AcDbEntity
  8
その他
  6
Continuous
 62
     3
370
     9
100
AcDbLine
 10
-425.2189017630912
 20
146.6216348184122
 30
0.0
 11
-449.7189083614865
 21
146.6216348184122
 31
0.0
  0
LINE
  5
1DB
330
1F
100
AcDbEntity
  8
その他
  6
Continuous
 62
     3
370
     9
100
AcDbLine
 10
-423.2188951646959
 20
148.6216414168075
 30
0.0
 11
-423.2188951646959
 21
173.1216480152027
 31
0.0
  0
LINE
  5
1DC
330
1F
100
AcDbEntity
  8
その他
  6
Continuous
 62
     3
370
     9
100
AcDbLine
 10
-425.2189017630912
 20
175.121654613598
 30
0.0
 11
-449.7189083614865
 21
175.121654613598
 31
0.0
  0
LINE
  5
1DD
330
1F
100
AcDbEntity
  8
その他
  6
Continuous
 62
     3
370
     9
100
AcDbLine
 10
-451.7189149598817
 20
148.6216414168075
 30
0.0
 11
-451.7189149598817
 21
173.1216480152027
 31
0.0
  0
LINE
  5
1DE
330
1F
100
AcDbEntity
  8
その他
  6
Continuous
 62
     3
370
     9
100
AcDbLine
 10
-451.7189149598817
 20
191.1216579127956
 30
0.0
 11
-451.7189149598817
 21
215.6216150232264
 31
0.0
  0
LINE
  5
1DF
330
1F
100
AcDbEntity
  8
その他
  6
Continuous
 62
     3
370
     9
100
AcDbLine
 10
-425.2189017630912
 20
217.6216216216217
 30
0.0
 11
-449.7189083614865
 21
217.6216216216217
 31
0.0
  0
LINE
  5
1E0
330
1F
100
AcDbEntity
  8
その他
  6
Continuous
 62
     3
370
     9
100
AcDbLine
 10
-423.2188951646959
 20
191.1216579127956
 30
0.0
 11
-423.2188951646959
 21
215.6216150232264
 31
0.0
  0
LINE
  5
1E1
330
1F
100
AcDbEntity
  8
その他
  6
Continuous
 62
     3
370
     9
100
AcDbLine
 10
-425.2189017630912
 20
189.1216513144004
 30
0.0
 11
-449.7189083614865
 21
189.1216513144004
 31
0.0
  0
LINE
  5
1E2
330
1F
100
AcDbEntity
  8
その他
  6
Continuous
 62
     3
370
     9
100
AcDbLine
 10
-425.2189017630912
 20
231.6216678103885
 30
0.0
 11
-449.7189083614865
 21
231.6216678103885
 31
0.0
  0
LINE
  5
1E3
330
1F
100
AcDbEntity
  8
その他
  6
Continuous
 62
     3
370
     9
100
AcDbLine
 10
-423.2188951646959
 20
233.6216744087839
 30
0.0
 11
-423.2188951646959
 21
258.1216810071791
 31
0.0
  0
LINE
  5
1E4
330
1F
100
AcDbEntity
  8
その他
  6
Continuous
 62
     3
370
     9
100
AcDbLine
 10
-425.2189017630912
 20
260.1216876055744
 30
0.0
 11
-449.7189083614865
 21
260.1216876055744
 31
0.0
  0
LINE
  5
1E5
330
1F
100
AcDbEntity
  8
その他
  6
Continuous
 62
     3
370
     9
100
AcDbLine
 10
-451.7189149598817
 20
233.6216744087839
 30
0.0
 11
-451.7189149598817
 21
258.1216810071791
 31
0.0
  0
LINE
  5
1E6
330
1F
100
AcDbEntity
  8
その他
  6
Continuous
 62
     3
370
     9
100
AcDbLine
 10
-409.218848975929
 20
233.6216744087839
 30
0.0
 11
-409.218848975929
 21
258.1216810071791
 31
0.0
  0
LINE
  5
1E7
330
1F
100
AcDbEntity
  8
その他
  6
Continuous
 62
     3
370
     9
100
AcDbLine
 10
-382.718885267103
 20
260.1216876055744
 30
0.0
 11
-407.2188918654983
 21
260.1216876055744
 31
0.0
  0
LINE
  5
1E8
330
1F
100
AcDbEntity
  8
その他
  6
Continuous
 62
     3
370
     9
100
AcDbLine
 10
-380.7188786687078
 20
233.6216744087839
 30
0.0
 11
-380.7188786687078
 21
258.1216810071791
 31
0.0
  0
LINE
  5
1E9
330
1F
100
AcDbEntity
  8
その他
  6
Continuous
 62
     3
370
     9
100
AcDbLine
 10
-382.718885267103
 20
231.6216678103885
 30
0.0
 11
-407.2188918654983
 21
231.6216678103885
 31
0.0
  0
LINE
  5
1EA
330
1F
100
AcDbEntity
  8
その他
  6
Continuous
 62
     3
370
     9
100
AcDbLine
 10
-382.718885267103
 20
189.1216513144004
 30
0.0
 11
-407.2188918654983
 21
189.1216513144004
 31
0.0
  0
LINE
  5
1EB
330
1F
100
AcDbEntity
  8
その他
  6
Continuous
 62
     3
370
     9
100
AcDbLine
 10
-380.7188786687078
 20
191.1216579127956
 30
0.0
 11
-380.7188786687078
 21
215.6216150232264
 31
0.0
  0
LINE
  5
1EC
330
1F
100
AcDbEntity
  8
その他
  6
Continuous
 62
     3
370
     9
100
AcDbLine
 10
-382.718885267103
 20
217.6216216216217
 30
0.0
 11
-407.2188918654983
 21
217.6216216216217
 31
0.0
  0
LINE
  5
1ED
330
1F
100
AcDbEntity
  8
その他
  6
Continuous
 62
     3
370
     9
100
AcDbLine
 10
-409.218848975929
 20
191.1216579127956
 30
0.0
 11
-409.218848975929
 21
215.6216150232264
 31
0.0
  0
LINE
  5
1EE
330
1F
100
AcDbEntity
  8
その他
  6
Continuous
 62
     3
370
     9
100
AcDbLine
 10
-409.218848975929
 20
148.6216414168075
 30
0.0
 11
-409.218848975929
 21
173.1216480152027
 31
0.0
  0
LINE
  5
1EF
330
1F
100
AcDbEntity
  8
その他
  6
Continuous
 62
     3
370
     9
100
AcDbLine
 10
-382.718885267103
 20
175.121654613598
 30
0.0
 11
-407.2188918654983
 21
175.121654613598
 31
0.0
  0
LINE
  5
1F0
330
1F
100
AcDbEntity
  8
その他
  6
Continuous
 62
     3
370
     9
100
AcDbLine
 10
-380.7188786687078
 20
148.6216414168075
 30
0.0
 11
-380.7188786687078
 21
173.1216480152027
 31
0.0
  0
LINE
  5
1F1
330
1F
100
AcDbEntity
  8
その他
  6
Continuous
 62
     3
370
     9
100
AcDbLine
 10
-382.718885267103
 20
146.6216348184122
 30
0.0
 11
-407.2188918654983
 21
146.6216348184122
 31
0.0
  0
LINE
  5
1F2
330
1F
100
AcDbEntity
  8
その他
  6
Continuous
 62
     3
370
     9
100
AcDbLine
 10
-382.718885267103
 20
104.1216183224241
 30
0.0
 11
-407.2188918654983
 21
104.1216183224241
 31
0.0
  0
LINE
  5
1F3
330
1F
100
AcDbEntity
  8
その他
  6
Continuous
 62
     3
370
     9
100
AcDbLine
 10
-380.7188786687078
 20
106.1216249208193
 30
0.0
 11
-380.7188786687078
 21
130.6216315192146
 31
0.0
  0
LINE
  5
1F4
330
1F
100
AcDbEntity
  8
その他
  6
Continuous
 62
     3
370
     9
100
AcDbLine
 10
-382.718885267103
 20
132.6216381176098
 30
0.0
 11
-407.2188918654983
 21
132.6216381176098
 31
0.0
  0
LINE
  5
1F5
330
1F
100
AcDbEntity
  8
その他
  6
Continuous
 62
     3
370
     9
100
AcDbLine
 10
-409.218848975929
 20
106.1216249208193
 30
0.0
 11
-409.218848975929
 21
130.6216315192146
 31
0.0
  0
LINE
  5
1F6
330
1F
100
AcDbEntity
  8
その他
  6
Continuous
 62
     3
370
     9
100
AcDbLine
 10
-409.218848975929
 20
63.62165791279563
 30
0.0
 11
-409.218848975929
 21
88.12166451119094
 31
0.0
  0
LINE
  5
1F7
330
1F
100
AcDbEntity
  8
その他
  6
Continuous
 62
     3
370
     9
100
AcDbLine
 10
-382.718885267103
 20
90.12162162162167
 30
0.0
 11
-407.2188918654983
 21
90.12162162162167
 31
0.0
  0
LINE
  5
1F8
330
1F
100
AcDbEntity
  8
その他
  6
Continuous
 62
     3
370
     9
100
AcDbLine
 10
-380.7188786687078
 20
63.62165791279563
 30
0.0
 11
-380.7188786687078
 21
88.12166451119094
 31
0.0
  0
LINE
  5
1F9
330
1F
100
AcDbEntity
  8
その他
  6
Continuous
 62
     3
370
     9
100
AcDbLine
 10
-382.718885267103
 20
61.62165131440042
 30
0.0
 11
-407.2188918654983
 21
61.62165131440042
 31
0.0
  0
LINE
  5
1FA
330
1F
100
AcDbEntity
  8
その他
  6
Continuous
 62
     3
370
     9
100
AcDbLine
 10
-340.2189182590794
 20
61.62165131440042
 30
0.0
 11
-364.7188753695101
 21
61.62165131440042
 31
0.0
  0
LINE
  5
1FB
330
1F
100
AcDbEntity
  8
その他
  6
Continuous
 62
     3
370
     9
100
AcDbLine
 10
-338.2189116606841
 20
63.62165791279563
 30
0.0
 11
-338.2189116606841
 21
88.12166451119094
 31
0.0
  0
LINE
  5
1FC
330
1F
100
AcDbEntity
  8
その他
  6
Continuous
 62
     3
370
     9
100
AcDbLine
 10
-340.2189182590794
 20
90.12162162162167
 30
0.0
 11
-364.7188753695101
 21
90.12162162162167
 31
0.0
  0
LINE
  5
1FD
330
1F
100
AcDbEntity
  8
その他
  6
Continuous
 62
     3
370
     9
100
AcDbLine
 10
-366.7188819679054
 20
63.62165791279563
 30
0.0
 11
-366.7188819679054
 21
88.12166451119094
 31
0.0
  0
LINE
  5
1FE
330
1F
100
AcDbEntity
  8
その他
  6
Continuous
 62
     3
370
     9
100
AcDbLine
 10
-366.7188819679054
 20
106.1216249208193
 30
0.0
 11
-366.7188819679054
 21
130.6216315192146
 31
0.0
  0
LINE
  5
1FF
330
1F
100
AcDbEntity
  8
その他
  6
Continuous
 62
     3
370
     9
100
AcDbLine
 10
-340.2189182590794
 20
132.6216381176098
 30
0.0
 11
-364.7188753695101
 21
132.6216381176098
 31
0.0
  0
LINE
  5
200
330
1F
100
AcDbEntity
  8
その他
  6
Continuous
 62
     3
370
     9
100
AcDbLine
 10
-338.2189116606841
 20
106.1216249208193
 30
0.0
 11
-338.2189116606841
 21
130.6216315192146
 31
0.0
  0
LINE
  5
201
330
1F
100
AcDbEntity
  8
その他
  6
Continuous
 62
     3
370
     9
100
AcDbLine
 10
-340.2189182590794
 20
104.1216183224241
 30
0.0
 11
-364.7188753695101
 21
104.1216183224241
 31
0.0
  0
LINE
  5
202
330
1F
100
AcDbEntity
  8
その他
  6
Continuous
 62
     3
370
     9
100
AcDbLine
 10
-340.2189182590794
 20
146.6216348184122
 30
0.0
 11
-364.7188753695101
 21
146.6216348184122
 31
0.0
  0
LINE
  5
203
330
1F
100
AcDbEntity
  8
その他
  6
Continuous
 62
     3
370
     9
100
AcDbLine
 10
-338.2189116606841
 20
148.6216414168075
 30
0.0
 11
-338.2189116606841
 21
173.1216480152027
 31
0.0
  0
LINE
  5
204
330
1F
100
AcDbEntity
  8
その他
  6
Continuous
 62
     3
370
     9
100
AcDbLine
 10
-340.2189182590794
 20
175.121654613598
 30
0.0
 11
-364.7188753695101
 21
175.121654613598
 31
0.0
  0
LINE
  5
205
330
1F
100
AcDbEntity
  8
その他
  6
Continuous
 62
     3
370
     9
100
AcDbLine
 10
-366.7188819679054
 20
148.6216414168075
 30
0.0
 11
-366.7188819679054
 21
173.1216480152027
 31
0.0
  0
LINE
  5
206
330
1F
100
AcDbEntity
  8
その他
  6
Continuous
 62
     3
370
     9
100
AcDbLine
 10
-366.7188819679054
 20
191.1216579127956
 30
0.0
 11
-366.7188819679054
 21
215.6216150232264
 31
0.0
  0
LINE
  5
207
330
1F
100
AcDbEntity
  8
その他
  6
Continuous
 62
     3
370
     9
100
AcDbLine
 10
-340.2189182590794
 20
217.6216216216217
 30
0.0
 11
-364.7188753695101
 21
217.6216216216217
 31
0.0
  0
LINE
  5
208
330
1F
100
AcDbEntity
  8
その他
  6
Continuous
 62
     3
370
     9
100
AcDbLine
 10
-338.2189116606841
 20
191.1216579127956
 30
0.0
 11
-338.2189116606841
 21
215.6216150232264
 31
0.0
  0
LINE
  5
209
330
1F
100
AcDbEntity
  8
その他
  6
Continuous
 62
     3
370
     9
100
AcDbLine
 10
-340.2189182590794
 20
189.1216513144004
 30
0.0
 11
-364.7188753695101
 21
189.1216513144004
 31
0.0
  0
LINE
  5
20A
330
1F
100
AcDbEntity
  8
その他
  6
Continuous
 62
     3
370
     9
100
AcDbLine
 10
-340.2189182590794
 20
231.6216678103885
 30
0.0
 11
-364.7188753695101
 21
231.6216678103885
 31
0.0
  0
LINE
  5
20B
330
1F
100
AcDbEntity
  8
その他
  6
Continuous
 62
     3
370
     9
100
AcDbLine
 10
-338.2189116606841
 20
233.6216744087839
 30
0.0
 11
-338.2189116606841
 21
258.1216810071791
 31
0.0
  0
LINE
  5
20C
330
1F
100
AcDbEntity
  8
その他
  6
Continuous
 62
     3
370
     9
100
AcDbLine
 10
-340.2189182590794
 20
260.1216876055744
 30
0.0
 11
-364.7188753695101
 21
260.1216876055744
 31
0.0
  0
LINE
  5
20D
330
1F
100
AcDbEntity
  8
その他
  6
Continuous
 62
     3
370
     9
100
AcDbLine
 10
-366.7188819679054
 20
233.6216744087839
 30
0.0
 11
-366.7188819679054
 21
258.1216810071791
 31
0.0
  0
LINE
  5
20E
330
1F
100
AcDbEntity
  8
その他
  6
Continuous
 62
     3
370
     9
100
AcDbLine
 10
-324.2189149598818
 20
233.6216744087839
 30
0.0
 11
-324.2189149598818
 21
258.1216810071791
 31
0.0
  0
LINE
  5
20F
330
1F
100
AcDbEntity
  8
その他
  6
Continuous
 62
     3
370
     9
100
AcDbLine
 10
-297.7189017630911
 20
260.1216876055744
 30
0.0
 11
-322.2188093855574
 21
260.1216876055744
 31
0.0
  0
LINE
  5
210
330
1F
100
AcDbEntity
  8
その他
  6
Continuous
 62
     3
370
     9
100
AcDbLine
 10
-295.7188951646959
 20
233.6216744087839
 30
0.0
 11
-295.7188951646959
 21
258.1216810071791
 31
0.0
  0
LINE
  5
211
330
1F
100
AcDbEntity
  8
その他
  6
Continuous
 62
     3
370
     9
100
AcDbLine
 10
-297.7189017630911
 20
231.6216678103885
 30
0.0
 11
-322.2188093855574
 21
231.6216678103885
 31
0.0
  0
LINE
  5
212
330
1F
100
AcDbEntity
  8
その他
  6
Continuous
 62
     3
370
     9
100
AcDbLine
 10
-297.7189017630911
 20
189.1216513144004
 30
0.0
 11
-322.2188093855574
 21
189.1216513144004
 31
0.0
  0
LINE
  5
213
330
1F
100
AcDbEntity
  8
その他
  6
Continuous
 62
     3
370
     9
100
AcDbLine
 10
-295.7188951646959
 20
191.1216579127956
 30
0.0
 11
-295.7188951646959
 21
215.6216150232264
 31
0.0
  0
LINE
  5
214
330
1F
100
AcDbEntity
  8
その他
  6
Continuous
 62
     3
370
     9
100
AcDbLine
 10
-297.7189017630911
 20
217.6216216216217
 30
0.0
 11
-322.2188093855574
 21
217.6216216216217
 31
0.0
  0
LINE
  5
215
330
1F
100
AcDbEntity
  8
その他
  6
Continuous
 62
     3
370
     9
100
AcDbLine
 10
-324.2189149598818
 20
191.1216579127956
 30
0.0
 11
-324.2189149598818
 21
215.6216150232264
 31
0.0
  0
LINE
  5
216
330
1F
100
AcDbEntity
  8
その他
  6
Continuous
 62
     3
370
     9
100
AcDbLine
 10
-324.2189149598818
 20
148.6216414168075
 30
0.0
 11
-324.2189149598818
 21
173.1216480152027
 31
0.0
  0
LINE
  5
217
330
1F
100
AcDbEntity
  8
その他
  6
Continuous
 62
     3
370
     9
100
AcDbLine
 10
-297.7189017630911
 20
175.121654613598
 30
0.0
 11
-322.2188093855574
 21
175.121654613598
 31
0.0
  0
LINE
  5
218
330
1F
100
AcDbEntity
  8
その他
  6
Continuous
 62
     3
370
     9
100
AcDbLine
 10
-295.7188951646959
 20
148.6216414168075
 30
0.0
 11
-295.7188951646959
 21
173.1216480152027
 31
0.0
  0
LINE
  5
219
330
1F
100
AcDbEntity
  8
その他
  6
Continuous
 62
     3
370
     9
100
AcDbLine
 10
-297.7189017630911
 20
146.6216348184122
 30
0.0
 11
-322.2188093855574
 21
146.6216348184122
 31
0.0
  0
LINE
  5
21A
330
1F
100
AcDbEntity
  8
その他
  6
Continuous
 62
     3
370
     9
100
AcDbLine
 10
-297.7189017630911
 20
104.1216183224241
 30
0.0
 11
-322.2188093855574
 21
104.1216183224241
 31
0.0
  0
LINE
  5
21B
330
1F
100
AcDbEntity
  8
その他
  6
Continuous
 62
     3
370
     9
100
AcDbLine
 10
-295.7188951646959
 20
106.1216249208193
 30
0.0
 11
-295.7188951646959
 21
130.6216315192146
 31
0.0
  0
LINE
  5
21C
330
1F
100
AcDbEntity
  8
その他
  6
Continuous
 62
     3
370
     9
100
AcDbLine
 10
-297.7189017630911
 20
132.6216381176098
 30
0.0
 11
-322.2188093855574
 21
132.6216381176098
 31
0.0
  0
LINE
  5
21D
330
1F
100
AcDbEntity
  8
その他
  6
Continuous
 62
     3
370
     9
100
AcDbLine
 10
-324.2189149598818
 20
106.1216249208193
 30
0.0
 11
-324.2189149598818
 21
130.6216315192146
 31
0.0
  0
LINE
  5
21E
330
1F
100
AcDbEntity
  8
その他
  6
Continuous
 62
     3
370
     9
100
AcDbLine
 10
-324.2189149598818
 20
63.62165791279563
 30
0.0
 11
-324.2189149598818
 21
88.12166451119094
 31
0.0
  0
LINE
  5
21F
330
1F
100
AcDbEntity
  8
その他
  6
Continuous
 62
     3
370
     9
100
AcDbLine
 10
-297.7189017630911
 20
90.12162162162167
 30
0.0
 11
-322.2188093855574
 21
90.12162162162167
 31
0.0
  0
LINE
  5
220
330
1F
100
AcDbEntity
  8
その他
  6
Continuous
 62
     3
370
     9
100
AcDbLine
 10
-295.7188951646959
 20
63.62165791279563
 30
0.0
 11
-295.7188951646959
 21
88.12166451119094
 31
0.0
  0
LINE
  5
221
330
1F
100
AcDbEntity
  8
その他
  6
Continuous
 62
     3
370
     9
100
AcDbLine
 10
-297.7189017630911
 20
61.62165131440042
 30
0.0
 11
-322.2188093855574
 21
61.62165131440042
 31
0.0
  0
LINE
  5
222
330
1F
100
AcDbEntity
  8
その他
  6
JWW_CENTER1
 62
     2
370
     9
100
AcDbLine
 10
289.78063634924
 20
289.3216651710304
 30
0.0
 11
319.6811655405406
 21
289.3216651710304
 31
0.0
  0
LINE
  5
223
330
1F
100
AcDbEntity
  8
その他
  6
Continuous
 62
     2
370
     9
100
AcDbLine
 10
324.6811325485642
 20
298.8216717694257
 30
0.0
 11
324.6811325485642
 21
313.8216717694257
 31
0.0
  0
LINE
  5
224
330
1F
100
AcDbEntity
  8
その他
  6
Continuous
 62
     2
370
     9
100
AcDbLine
 10
294.6811325485642
 20
284.8216255806589
 30
0.0
 11
294.6811325485642
 21
293.8217047614021
 31
0.0
  0
LINE
  5
225
330
1F
100
AcDbEntity
  8
その他
  6
Continuous
 62
     2
370
     9
100
AcDbLine
 10
324.6811325485642
 20
313.8216717694257
 30
0.0
 11
333.6812117293075
 21
313.8216717694257
 31
0.0
  0
LINE
  5
226
330
1F
100
AcDbEntity
  8
その他
  6
Continuous
 62
     2
370
     9
100
AcDbLine
 10
294.6811325485642
 20
293.8217047614021
 30
0.0
 11
319.6811655405406
 21
293.8217047614021
 31
0.0
  0
LINE
  5
227
330
1F
100
AcDbEntity
  8
その他
  6
Continuous
 62
     2
370
     9
100
AcDbLine
 10
281.4812077702704
 20
284.8216255806589
 30
0.0
 11
319.6811655405406
 21
284.8216255806589
 31
0.0
  0
LINE
  5
228
330
1F
100
AcDbEntity
  8
その他
  6
Continuous
 62
     3
370
     9
100
AcDbLine
 10
281.4812077702704
 20
47.62165461359803
 30
0.0
 11
296.4812077702704
 21
50.26653887774501
 31
0.0
  0
LINE
  5
229
330
1F
100
AcDbEntity
  8
その他
  6
Continuous
 62
     3
370
     9
100
AcDbLine
 10
281.4812077702704
 20
5.121638117609791
 30
0.0
 11
296.4812077702704
 21
7.766522381756772
 31
0.0
  0
LINE
  5
22A
330
1F
100
AcDbEntity
  8
その他
  6
Continuous
 62
     3
370
     9
100
AcDbLine
 10
281.4812077702704
 20
19.12163481841219
 30
0.0
 11
296.4812077702704
 21
16.47675055426521
 31
0.0
  0
LINE
  5
22B
330
1F
100
AcDbEntity
  8
その他
  6
Continuous
 62
     3
370
     9
100
AcDbLine
 10
281.4812077702704
 20
-108.3783651815878
 30
0.0
 11
296.4812077702704
 21
-111.0232494457348
 31
0.0
  0
LINE
  5
22C
330
1F
100
AcDbEntity
  8
その他
  6
Continuous
 62
     3
370
     9
100
AcDbLine
 10
281.4812077702704
 20
-150.878381677576
 30
0.0
 11
301.481174778294
 21
-154.4048940297719
 31
0.0
  0
LINE
  5
22D
330
1F
100
AcDbEntity
  8
その他
  6
Continuous
 62
     3
370
     9
100
AcDbLine
 10
281.4812077702704
 20
-122.3784113703547
 30
0.0
 11
296.4812077702704
 21
-119.7334776182432
 31
0.0
  0
LINE
  5
22E
330
1F
100
AcDbEntity
  8
その他
  6
Continuous
 62
     3
370
     9
100
AcDbLine
 10
296.4812077702704
 20
262.7665223817568
 30
0.0
 11
296.4812077702704
 21
-153.523265941723
 31
0.0
  0
LINE
  5
22F
330
1F
100
AcDbEntity
  8
その他
  6
Continuous
 62
     3
370
     9
100
AcDbLine
 10
281.4812077702704
 20
-23.37838167757593
 30
0.0
 11
296.4812077702704
 21
-26.02326594172291
 31
0.0
  0
LINE
  5
230
330
1F
100
AcDbEntity
  8
その他
  6
Continuous
 62
     3
370
     9
100
AcDbLine
 10
281.4812077702704
 20
-37.37837837837833
 30
0.0
 11
296.4812077702704
 21
-34.73344462626687
 31
0.0
  0
LINE
  5
231
330
1F
100
AcDbEntity
  8
その他
  6
Continuous
 62
     3
370
     9
100
AcDbLine
 10
281.4812077702704
 20
-79.87834538640197
 30
0.0
 11
296.4812077702704
 21
-77.233461122255
 31
0.0
  0
LINE
  5
232
330
1F
100
AcDbEntity
  8
その他
  6
Continuous
 62
     3
370
     9
100
AcDbLine
 10
281.4812077702704
 20
-65.87834868559958
 30
0.0
 11
296.4812077702704
 21
-68.52323294974656
 31
0.0
  0
LINE
  5
233
330
1F
100
AcDbEntity
  8
その他
  6
Continuous
 62
     2
370
     9
100
AcDbLine
 10
-295.7188951646959
 20
254.6215952280406
 30
0.0
 11
-324.2189149598818
 21
254.6215952280406
 31
0.0
  0
LINE
  5
234
330
1F
100
AcDbEntity
  8
その他
  6
Continuous
 62
     2
370
     9
100
AcDbLine
 10
-423.4189255173142
 20
289.3216651710304
 30
0.0
 11
-423.4189255173142
 21
313.8216717694257
 31
0.0
  0
LINE
  5
235
330
1F
100
AcDbEntity
  8
その他
  6
JWW_CENTER1
 62
     2
370
     9
100
AcDbLine
 10
-418.9188859269426
 20
276.9559095228041
 30
0.0
 11
-418.9188859269426
 21
319.2079418285473
 31
0.0
  0
LINE
  5
236
330
1F
100
AcDbEntity
  8
その他
  6
Continuous
 62
     2
370
     9
100
AcDbLine
 10
-414.4188958245355
 20
289.3216651710304
 30
0.0
 11
-414.4188958245355
 21
313.8216717694257
 31
0.0
  0
LINE
  5
237
330
1F
100
AcDbEntity
  8
その他
  6
Continuous
 62
     2
370
     9
100
AcDbLine
 10
-423.4189255173142
 20
313.8216717694257
 30
0.0
 11
-414.4188958245355
 21
313.8216717694257
 31
0.0
  0
LINE
  5
238
330
1F
100
AcDbEntity
  8
その他
  6
JWW_CENTER1
 62
     2
370
     9
100
AcDbLine
 10
-428.6260986328125
 20
289.3216651710304
 30
0.0
 11
-410.1548643369932
 21
289.3216651710304
 31
0.0
  0
LINE
  5
239
330
1F
100
AcDbEntity
  8
その他
  6
Continuous
 62
     2
370
     9
100
AcDbLine
 10
-488.7188885663007
 20
61.62165131440042
 30
0.0
 11
-488.7188885663007
 21
90.12162162162167
 31
0.0
  0
LINE
  5
23A
330
1F
100
AcDbEntity
  8
その他
  6
Continuous
 62
     2
370
     9
100
AcDbLine
 10
-465.7189116606841
 20
254.6215952280406
 30
0.0
 11
-488.7188885663007
 21
254.6215952280406
 31
0.0
  0
LINE
  5
23B
330
1F
100
AcDbEntity
  8
その他
  6
Continuous
 62
     2
370
     9
100
AcDbLine
 10
-423.2188951646959
 20
254.6215952280406
 30
0.0
 11
-451.7189149598817
 21
254.6215952280406
 31
0.0
  0
LINE
  5
23C
330
1F
100
AcDbEntity
  8
その他
  6
Continuous
 62
     2
370
     9
100
AcDbLine
 10
-380.7188786687078
 20
254.6215952280406
 30
0.0
 11
-409.218848975929
 21
254.6215952280406
 31
0.0
  0
LINE
  5
23D
330
1F
100
AcDbEntity
  8
その他
  6
Continuous
 62
     2
370
     9
100
AcDbLine
 10
-338.2189116606841
 20
254.6215952280406
 30
0.0
 11
-366.7188819679054
 21
254.6215952280406
 31
0.0
  0
LINE
  5
23E
330
1F
100
AcDbEntity
  8
その他
  6
Continuous
 62
     2
370
     9
100
AcDbLine
 10
-488.7188885663007
 20
231.6216678103885
 30
0.0
 11
-488.7188885663007
 21
254.6215952280406
 31
0.0
  0
LINE
  5
23F
330
1F
100
AcDbEntity
  8
その他
  6
Continuous
 62
     2
370
     9
100
AcDbLine
 10
-488.7188885663007
 20
189.1216513144004
 30
0.0
 11
-488.7188885663007
 21
217.6216216216217
 31
0.0
  0
LINE
  5
240
330
1F
100
AcDbEntity
  8
その他
  6
Continuous
 62
     2
370
     9
100
AcDbLine
 10
-488.7188885663007
 20
146.6216348184122
 30
0.0
 11
-488.7188885663007
 21
175.121654613598
 31
0.0
  0
LINE
  5
241
330
1F
100
AcDbEntity
  8
その他
  6
Continuous
 62
     2
370
     9
100
AcDbLine
 10
-488.7188885663007
 20
104.1216183224241
 30
0.0
 11
-488.7188885663007
 21
132.6216381176098
 31
0.0
  0
LINE
  5
242
330
1F
100
AcDbEntity
  8
その他
  6
Continuous
 62
     3
370
     9
100
AcDbLine
 10
-425.2189017630912
 20
-65.87834868559958
 30
0.0
 11
-449.7189083614865
 21
-65.87834868559958
 31
0.0
  0
LINE
  5
243
330
1F
100
AcDbEntity
  8
その他
  6
Continuous
 62
     3
370
     9
100
AcDbLine
 10
-423.2188951646959
 20
-39.37833548880906
 30
0.0
 11
-423.2188951646959
 21
-63.87834208720437
 31
0.0
  0
LINE
  5
244
330
1F
100
AcDbEntity
  8
その他
  6
Continuous
 62
     3
370
     9
100
AcDbLine
 10
-425.2189017630912
 20
-37.37837837837833
 30
0.0
 11
-449.7189083614865
 21
-37.37837837837833
 31
0.0
  0
LINE
  5
245
330
1F
100
AcDbEntity
  8
その他
  6
Continuous
 62
     3
370
     9
100
AcDbLine
 10
-425.2189017630912
 20
5.121638117609791
 30
0.0
 11
-449.7189083614865
 21
5.121638117609791
 31
0.0
  0
LINE
  5
246
330
1F
100
AcDbEntity
  8
その他
  6
Continuous
 62
     3
370
     9
100
AcDbLine
 10
-423.2188951646959
 20
3.121631519214588
 30
0.0
 11
-423.2188951646959
 21
-21.37837507918073
 31
0.0
  0
LINE
  5
247
330
1F
100
AcDbEntity
  8
その他
  6
Continuous
 62
     3
370
     9
100
AcDbLine
 10
-425.2189017630912
 20
-23.37838167757593
 30
0.0
 11
-449.7189083614865
 21
-23.37838167757593
 31
0.0
  0
LINE
  5
248
330
1F
100
AcDbEntity
  8
その他
  6
Continuous
 62
     3
370
     9
100
AcDbLine
 10
-451.7189149598817
 20
3.121631519214588
 30
0.0
 11
-451.7189149598817
 21
-21.37837507918073
 31
0.0
  0
LINE
  5
249
330
1F
100
AcDbEntity
  8
その他
  6
Continuous
 62
     2
370
     9
100
AcDbLine
 10
333.6812117293075
 20
298.8216717694257
 30
0.0
 11
333.6812117293075
 21
313.8216717694257
 31
0.0
  0
LINE
  5
24A
330
1F
100
AcDbEntity
  8
その他
  6
Continuous
 62
     3
370
     9
100
AcDbLine
 10
-451.7189149598817
 20
45.62164801520271
 30
0.0
 11
-451.7189149598817
 21
21.12164141680751
 31
0.0
  0
LINE
  5
24B
330
1F
100
AcDbEntity
  8
その他
  6
Continuous
 62
     3
370
     9
100
AcDbLine
 10
-425.2189017630912
 20
19.12163481841219
 30
0.0
 11
-449.7189083614865
 21
19.12163481841219
 31
0.0
  0
LINE
  5
24C
330
1F
100
AcDbEntity
  8
その他
  6
Continuous
 62
     3
370
     9
100
AcDbLine
 10
-423.2188951646959
 20
45.62164801520271
 30
0.0
 11
-423.2188951646959
 21
21.12164141680751
 31
0.0
  0
LINE
  5
24D
330
1F
100
AcDbEntity
  8
その他
  6
Continuous
 62
     3
370
     9
100
AcDbLine
 10
-425.2189017630912
 20
47.62165461359803
 30
0.0
 11
-449.7189083614865
 21
47.62165461359803
 31
0.0
  0
LINE
  5
24E
330
1F
100
AcDbEntity
  8
その他
  6
Continuous
 62
     3
370
     9
100
AcDbLine
 10
-467.7189182590794
 20
47.62165461359803
 30
0.0
 11
-492.2188753695101
 21
47.62165461359803
 31
0.0
  0
LINE
  5
24F
330
1F
100
AcDbEntity
  8
その他
  6
Continuous
 62
     3
370
     9
100
AcDbLine
 10
-465.7189116606841
 20
45.62164801520271
 30
0.0
 11
-465.7189116606841
 21
21.12164141680751
 31
0.0
  0
LINE
  5
250
330
1F
100
AcDbEntity
  8
その他
  6
Continuous
 62
     3
370
     9
100
AcDbLine
 10
-467.7189182590794
 20
19.12163481841219
 30
0.0
 11
-492.2188753695101
 21
19.12163481841219
 31
0.0
  0
LINE
  5
251
330
1F
100
AcDbEntity
  8
その他
  6
Continuous
 62
     3
370
     9
100
AcDbLine
 10
-494.2188819679054
 20
45.62164801520271
 30
0.0
 11
-494.2188819679054
 21
21.12164141680751
 31
0.0
  0
LINE
  5
252
330
1F
100
AcDbEntity
  8
その他
  6
Continuous
 62
     3
370
     9
100
AcDbLine
 10
-494.2188819679054
 20
3.121631519214588
 30
0.0
 11
-494.2188819679054
 21
-21.37837507918073
 31
0.0
  0
LINE
  5
253
330
1F
100
AcDbEntity
  8
その他
  6
Continuous
 62
     3
370
     9
100
AcDbLine
 10
-467.7189182590794
 20
-23.37838167757593
 30
0.0
 11
-492.2188753695101
 21
-23.37838167757593
 31
0.0
  0
LINE
  5
254
330
1F
100
AcDbEntity
  8
その他
  6
Continuous
 62
     3
370
     9
100
AcDbLine
 10
-465.7189116606841
 20
3.121631519214588
 30
0.0
 11
-465.7189116606841
 21
-21.37837507918073
 31
0.0
  0
LINE
  5
255
330
1F
100
AcDbEntity
  8
その他
  6
Continuous
 62
     3
370
     9
100
AcDbLine
 10
-467.7189182590794
 20
5.121638117609791
 30
0.0
 11
-492.2188753695101
 21
5.121638117609791
 31
0.0
  0
LINE
  5
256
330
1F
100
AcDbEntity
  8
その他
  6
Continuous
 62
     3
370
     9
100
AcDbLine
 10
-467.7189182590794
 20
-37.37837837837833
 30
0.0
 11
-492.2188753695101
 21
-37.37837837837833
 31
0.0
  0
LINE
  5
257
330
1F
100
AcDbEntity
  8
その他
  6
Continuous
 62
     3
370
     9
100
AcDbLine
 10
-465.7189116606841
 20
-39.37833548880906
 30
0.0
 11
-465.7189116606841
 21
-63.87834208720437
 31
0.0
  0
LINE
  5
258
330
1F
100
AcDbEntity
  8
その他
  6
Continuous
 62
     3
370
     9
100
AcDbLine
 10
-467.7189182590794
 20
-65.87834868559958
 30
0.0
 11
-492.2188753695101
 21
-65.87834868559958
 31
0.0
  0
LINE
  5
259
330
1F
100
AcDbEntity
  8
その他
  6
Continuous
 62
     3
370
     9
100
AcDbLine
 10
-494.2188819679054
 20
-39.37833548880906
 30
0.0
 11
-494.2188819679054
 21
-63.87834208720437
 31
0.0
  0
LINE
  5
25A
330
1F
100
AcDbEntity
  8
その他
  6
Continuous
 62
     3
370
     9
100
AcDbLine
 10
-494.2188819679054
 20
-81.87835198479729
 30
0.0
 11
-494.2188819679054
 21
-106.3783585831926
 31
0.0
  0
LINE
  5
25B
330
1F
100
AcDbEntity
  8
その他
  6
Continuous
 62
     3
370
     9
100
AcDbLine
 10
-467.7189182590794
 20
-108.3783651815878
 30
0.0
 11
-492.2188753695101
 21
-108.3783651815878
 31
0.0
  0
LINE
  5
25C
330
1F
100
AcDbEntity
  8
その他
  6
Continuous
 62
     3
370
     9
100
AcDbLine
 10
-465.7189116606841
 20
-81.87835198479729
 30
0.0
 11
-465.7189116606841
 21
-106.3783585831926
 31
0.0
  0
LINE
  5
25D
330
1F
100
AcDbEntity
  8
その他
  6
Continuous
 62
     3
370
     9
100
AcDbLine
 10
-467.7189182590794
 20
-79.87834538640197
 30
0.0
 11
-492.2188753695101
 21
-79.87834538640197
 31
0.0
  0
LINE
  5
25E
330
1F
100
AcDbEntity
  8
その他
  6
Continuous
 62
     3
370
     9
100
AcDbLine
 10
-467.7189182590794
 20
-122.3784113703547
 30
0.0
 11
-492.2188753695101
 21
-122.3784113703547
 31
0.0
  0
LINE
  5
25F
330
1F
100
AcDbEntity
  8
その他
  6
Continuous
 62
     3
370
     9
100
AcDbLine
 10
-465.7189116606841
 20
-124.37841796875
 30
0.0
 11
-465.7189116606841
 21
-148.8783750791807
 31
0.0
  0
LINE
  5
260
330
1F
100
AcDbEntity
  8
その他
  6
Continuous
 62
     3
370
     9
100
AcDbLine
 10
-467.7189182590794
 20
-150.878381677576
 30
0.0
 11
-492.2188753695101
 21
-150.878381677576
 31
0.0
  0
LINE
  5
261
330
1F
100
AcDbEntity
  8
その他
  6
Continuous
 62
     3
370
     9
100
AcDbLine
 10
-494.2188819679054
 20
-124.37841796875
 30
0.0
 11
-494.2188819679054
 21
-148.8783750791807
 31
0.0
  0
LINE
  5
262
330
1F
100
AcDbEntity
  8
その他
  6
Continuous
 62
     2
370
     9
100
AcDbLine
 10
333.6812117293075
 20
-189.5783658414273
 30
0.0
 11
333.6812117293075
 21
-204.5783658414273
 31
0.0
  0
LINE
  5
263
330
1F
100
AcDbEntity
  8
その他
  6
Continuous
 62
     2
370
     9
100
AcDbLine
 10
281.4812077702704
 20
-175.578369140625
 30
0.0
 11
319.6811655405406
 21
-175.578369140625
 31
0.0
  0
LINE
  5
264
330
1F
100
AcDbEntity
  8
その他
  6
Continuous
 62
     2
370
     9
100
AcDbLine
 10
324.6811325485642
 20
-204.5783658414273
 30
0.0
 11
333.6812117293075
 21
-204.5783658414273
 31
0.0
  0
LINE
  5
265
330
1F
100
AcDbEntity
  8
その他
  6
Continuous
 62
     2
370
     9
100
AcDbLine
 10
294.6811325485642
 20
-175.578369140625
 30
0.0
 11
294.6811325485642
 21
-184.5783493454392
 31
0.0
  0
LINE
  5
266
330
1F
100
AcDbEntity
  8
その他
  6
Continuous
 62
     3
370
     9
100
AcDbLine
 10
281.4812077702704
 20
175.121654613598
 30
0.0
 11
296.4812077702704
 21
177.766538877745
 31
0.0
  0
LINE
  5
267
330
1F
100
AcDbEntity
  8
その他
  6
Continuous
 62
     3
370
     9
100
AcDbLine
 10
281.4812077702704
 20
189.1216513144004
 30
0.0
 11
296.4812077702704
 21
186.4767670502534
 31
0.0
  0
LINE
  5
268
330
1F
100
AcDbEntity
  8
その他
  6
Continuous
 62
     3
370
     9
100
AcDbLine
 10
281.4812077702704
 20
146.6216348184122
 30
0.0
 11
296.4812077702704
 21
143.9767505542652
 31
0.0
  0
LINE
  5
269
330
1F
100
AcDbEntity
  8
その他
  6
Continuous
 62
     3
370
     9
100
AcDbLine
 10
281.4812077702704
 20
132.6216381176098
 30
0.0
 11
296.4812077702704
 21
135.2665223817568
 31
0.0
  0
LINE
  5
26A
330
1F
100
AcDbEntity
  8
その他
  6
Continuous
 62
     3
370
     9
100
AcDbLine
 10
281.4812077702704
 20
231.6216678103885
 30
0.0
 11
296.4812077702704
 21
228.9767340582771
 31
0.0
  0
LINE
  5
26B
330
1F
100
AcDbEntity
  8
その他
  6
Continuous
 62
     3
370
     9
100
AcDbLine
 10
281.4812077702704
 20
260.1216876055744
 30
0.0
 11
301.481174778294
 21
263.6481999577703
 31
0.0
  0
LINE
  5
26C
330
1F
100
AcDbEntity
  8
その他
  6
Continuous
 62
     3
370
     9
100
AcDbLine
 10
281.4812077702704
 20
217.6216216216217
 30
0.0
 11
296.4812077702704
 21
220.2665553737331
 31
0.0
  0
LINE
  5
26D
330
1F
100
AcDbEntity
  8
その他
  6
Continuous
 62
     3
370
     9
100
AcDbLine
 10
281.4812077702704
 20
90.12162162162167
 30
0.0
 11
296.4812077702704
 21
92.76655537373313
 31
0.0
  0
LINE
  5
26E
330
1F
100
AcDbEntity
  8
その他
  6
Continuous
 62
     3
370
     9
100
AcDbLine
 10
281.4812077702704
 20
104.1216183224241
 30
0.0
 11
296.4812077702704
 21
101.4767340582771
 31
0.0
  0
LINE
  5
26F
330
1F
100
AcDbEntity
  8
その他
  6
Continuous
 62
     3
370
     9
100
AcDbLine
 10
281.4812077702704
 20
61.62165131440042
 30
0.0
 11
296.4812077702704
 21
58.97676705025344
 31
0.0
  0
LINE
  5
270
330
1F
100
AcDbEntity
  8
その他
  6
Continuous
 62
     2
370
     9
100
AcDbLine
 10
281.4812077702704
 20
281.6216348184122
 30
0.0
 11
298.4812143686656
 21
281.6216348184122
 31
0.0
  0
LINE
  5
271
330
1F
100
AcDbEntity
  8
その他
  6
Continuous
 62
     2
370
     9
100
AcDbLine
 10
281.4812077702704
 20
281.6216348184122
 30
0.0
 11
281.4812077702704
 21
284.8216255806589
 31
0.0
  0
LINE
  5
272
330
1F
100
AcDbEntity
  8
その他
  6
Continuous
 62
     2
370
     9
100
AcDbLine
 10
281.4812077702704
 20
-172.3783783783783
 30
0.0
 11
281.4812077702704
 21
-175.578369140625
 31
0.0
  0
LINE
  5
273
330
1F
100
AcDbEntity
  8
その他
  6
Continuous
 62
     2
370
     9
100
AcDbLine
 10
281.4812077702704
 20
-172.3783783783783
 30
0.0
 11
298.4812143686656
 21
-172.3783783783783
 31
0.0
  0
LINE
  5
274
330
1F
100
AcDbEntity
  8
その他
  6
Continuous
 62
     3
370
     9
100
AcDbLine
 10
281.4812077702704
 20
-170.3783717799831
 30
0.0
 11
301.481174778294
 21
-166.8518594277871
 31
0.0
  0
LINE
  5
275
330
1F
100
AcDbEntity
  8
その他
  6
Continuous
 62
     3
370
     9
100
AcDbLine
 10
281.4812077702704
 20
279.621628220017
 30
0.0
 11
301.481174778294
 21
276.0951158678211
 31
0.0
  0
LINE
  5
276
330
1F
100
AcDbEntity
  8
その他
  6
Continuous
 62
     2
370
     9
100
AcDbLine
 10
301.481174778294
 20
-145.3783387880067
 30
0.0
 11
301.481174778294
 21
-169.37841796875
 31
0.0
  0
LINE
  5
277
330
1F
100
AcDbEntity
  8
その他
  6
Continuous
 62
     2
370
     9
100
AcDbLine
 10
301.481174778294
 20
-145.3783387880067
 30
0.0
 11
304.6811655405406
 21
-145.3783387880067
 31
0.0
  0
LINE
  5
278
330
1F
100
AcDbEntity
  8
その他
  6
Continuous
 62
     2
370
     9
100
AcDbLine
 10
304.6811655405406
 20
-145.3783387880067
 30
0.0
 11
304.6811655405406
 21
-169.37841796875
 31
0.0
  0
LINE
  5
279
330
1F
100
AcDbEntity
  8
その他
  6
Continuous
 62
     2
370
     9
100
AcDbLine
 10
301.481174778294
 20
254.6215952280406
 30
0.0
 11
301.481174778294
 21
278.6216744087839
 31
0.0
  0
LINE
  5
27A
330
1F
100
AcDbEntity
  8
その他
  6
Continuous
 62
     2
370
     9
100
AcDbLine
 10
301.481174778294
 20
254.6215952280406
 30
0.0
 11
304.6811655405406
 21
254.6215952280406
 31
0.0
  0
LINE
  5
27B
330
1F
100
AcDbEntity
  8
その他
  6
Continuous
 62
     2
370
     9
100
AcDbLine
 10
304.6811655405406
 20
254.6215952280406
 30
0.0
 11
304.6811655405406
 21
278.6216744087839
 31
0.0
  0
LINE
  5
27C
330
1F
100
AcDbEntity
  8
その他
  6
JWW_CENTER1
 62
     2
370
     9
100
AcDbLine
 10
319.6811655405406
 20
-180.0783592430321
 30
0.0
 11
289.78063634924
 21
-180.0783592430321
 31
0.0
  0
LINE
  5
27D
330
1F
100
AcDbEntity
  8
その他
  6
Continuous
 62
     2
370
     9
100
AcDbLine
 10
319.6811655405406
 20
-184.5783493454392
 30
0.0
 11
294.6811325485642
 21
-184.5783493454392
 31
0.0
  0
LINE
  5
27E
330
1F
100
AcDbEntity
  8
その他
  6
Continuous
 62
     2
370
     9
100
AcDbLine
 10
324.6811325485642
 20
-189.5783163534628
 30
0.0
 11
324.6811325485642
 21
-204.5783658414273
 31
0.0
  0
LINE
  5
27F
330
1F
100
AcDbEntity
  8
その他
  6
JWW_CENTER1
 62
     2
370
     9
100
AcDbLine
 10
-158.5189077016469
 20
276.9559095228041
 30
0.0
 11
-158.5189077016469
 21
319.2079418285473
 31
0.0
  0
LINE
  5
280
330
1F
100
AcDbEntity
  8
その他
  6
JWW_CENTER1
 62
     2
370
     9
100
AcDbLine
 10
329.1811721389358
 20
298.8216717694257
 30
0.0
 11
329.1811721389358
 21
319.2079418285473
 31
0.0
  0
LINE
  5
281
330
1F
100
AcDbEntity
  8
その他
  6
JWW_CENTER1
 62
     2
370
     9
100
AcDbLine
 10
-158.5189077016469
 20
-167.7127025707348
 30
0.0
 11
-158.5189077016469
 21
-209.9646853885135
 31
0.0
  0
LINE
  5
282
330
1F
100
AcDbEntity
  8
その他
  6
JWW_CENTER1
 62
     2
370
     9
100
AcDbLine
 10
329.1811721389358
 20
-189.5783658414273
 30
0.0
 11
329.1811721389358
 21
-209.9646853885135
 31
0.0
  0
LINE
  5
283
330
1F
100
AcDbEntity
  8
その他
  6
JWW_CENTER1
 62
     3
370
     9
100
AcDbLine
 10
-288.7188720703125
 20
-203.5783625422297
 30
0.0
 11
-288.7188720703125
 21
312.8215200063345
 31
0.0
  0
LINE
  5
284
330
1F
100
AcDbEntity
  8
その他
  6
Continuous
 62
     3
370
     9
100
AcDbLine
 10
281.4812077702704
 20
-170.3783717799831
 30
0.0
 11
281.4812077702704
 21
279.621628220017
 31
0.0
  0
LINE
  5
285
330
1F
100
AcDbEntity
  8
その他
  6
JWW_CENTER1
 62
     3
370
     9
100
AcDbLine
 10
-546.9189618084881
 20
54.62162822001687
 30
0.0
 11
-30.51883182010135
 21
54.62162822001687
 31
0.0
  0
LINE
  5
286
330
1F
100
AcDbEntity
  8
その他
  6
JWW_CENTER1
 62
     3
370
     9
100
AcDbLine
 10
253.4812143686656
 20
54.62162822001687
 30
0.0
 11
329.4811681798988
 21
54.62162822001687
 31
0.0
  0
LINE
  5
287
330
1F
100
AcDbEntity
  8
その他
  6
JWW_CENTER1
 62
     6
370
     9
100
AcDbLine
 10
-161.218921558277
 20
157.1216447160051
 30
0.0
 11
-161.218921558277
 21
207.1216117240288
 31
0.0
  0
LINE
  5
288
330
1F
100
AcDbEntity
  8
その他
  6
JWW_CENTER1
 62
     6
370
     9
100
AcDbLine
 10
-186.2189050622889
 20
182.121628220017
 30
0.0
 11
-136.2189380542652
 21
182.121628220017
 31
0.0
  0
LINE
  5
289
330
1F
100
AcDbEntity
  8
その他
  6
Continuous
 62
     3
370
     9
100
AcDbLine
 10
301.481174778294
 20
-166.8518594277871
 30
0.0
 11
301.481174778294
 21
174.5583826013514
 31
0.0
  0
LINE
  5
28A
330
1F
100
AcDbEntity
  8
その他
  6
Continuous
 62
     3
370
     9
100
AcDbLine
 10
301.481174778294
 20
189.684923326647
 30
0.0
 11
301.481174778294
 21
276.0951158678211
 31
0.0
  0
LINE
  5
28B
330
1F
100
AcDbEntity
  8
その他
  6
Continuous
 62
     7
370
     9
100
AcDbLine
 10
-518.9189684068834
 20
353.8217047614021
 30
0.0
 11
-418.9188859269426
 21
353.8217047614021
 31
0.0
  0
LINE
  5
28C
330
1F
100
AcDbEntity
  8
その他
  6
Continuous
 62
     7
370
     9
100
AcDbLine
 10
-418.9188859269426
 20
323.2079550253379
 30
0.0
 11
-418.9188859269426
 21
355.0216889252534
 31
0.0
  0
LINE
  5
28D
330
1F
100
AcDbEntity
  8
その他
  6
Continuous
 62
     7
370
     9
100
AcDbLine
 10
-518.9189684068834
 20
353.8217047614021
 30
0.0
 11
-507.0215668549409
 21
355.3879988386825
 31
0.0
  0
LINE
  5
28E
330
1F
100
AcDbEntity
  8
その他
  6
Continuous
 62
     7
370
     9
100
AcDbLine
 10
-518.9189684068834
 20
353.8217047614021
 30
0.0
 11
-507.0215668549409
 21
352.2554106841217
 31
0.0
  0
LINE
  5
28F
330
1F
100
AcDbEntity
  8
その他
  6
Continuous
 62
     7
370
     9
100
AcDbLine
 10
-418.9188859269426
 20
353.8217047614021
 30
0.0
 11
-430.8162379909206
 21
355.3879988386825
 31
0.0
  0
LINE
  5
290
330
1F
100
AcDbEntity
  8
その他
  6
Continuous
 62
     7
370
     9
100
AcDbLine
 10
-418.9188859269426
 20
353.8217047614021
 30
0.0
 11
-430.8162379909206
 21
352.2554106841217
 31
0.0
  0
LINE
  5
291
330
1F
100
AcDbEntity
  8
その他
  6
Continuous
 62
     7
370
     9
100
AcDbLine
 10
-158.5189077016469
 20
353.8217047614021
 30
0.0
 11
-58.51882522170604
 21
353.8217047614021
 31
0.0
  0
LINE
  5
292
330
1F
100
AcDbEntity
  8
その他
  6
Continuous
 62
     7
370
     9
100
AcDbLine
 10
-158.5189077016469
 20
323.2079550253379
 30
0.0
 11
-158.5189077016469
 21
355.0216889252534
 31
0.0
  0
LINE
  5
293
330
1F
100
AcDbEntity
  8
その他
  6
Continuous
 62
     7
370
     9
100
AcDbLine
 10
-158.5189077016469
 20
353.8217047614021
 30
0.0
 11
-146.6215556376688
 21
355.3879988386825
 31
0.0
  0
LINE
  5
294
330
1F
100
AcDbEntity
  8
その他
  6
Continuous
 62
     7
370
     9
100
AcDbLine
 10
-158.5189077016469
 20
353.8217047614021
 30
0.0
 11
-146.6215556376688
 21
352.2554106841217
 31
0.0
  0
LINE
  5
295
330
1F
100
AcDbEntity
  8
その他
  6
Continuous
 62
     7
370
     9
100
AcDbLine
 10
-58.51882522170604
 20
353.8217047614021
 30
0.0
 11
-70.41612779771958
 21
355.3879988386825
 31
0.0
  0
LINE
  5
296
330
1F
100
AcDbEntity
  8
その他
  6
Continuous
 62
     7
370
     9
100
AcDbLine
 10
-58.51882522170604
 20
353.8217047614021
 30
0.0
 11
-70.41612779771958
 21
352.2554106841217
 31
0.0
  0
LINE
  5
297
330
1F
100
AcDbEntity
  8
その他
  6
Continuous
 62
     7
370
     9
100
AcDbLine
 10
-58.51882522170604
 20
288.8216387774494
 30
0.0
 11
-58.51882522170604
 21
355.0216889252534
 31
0.0
  0
LINE
  5
298
330
1F
100
AcDbEntity
  8
その他
  6
Continuous
 62
     7
370
     9
100
AcDbLine
 10
-518.9189684068834
 20
288.8216387774494
 30
0.0
 11
-518.9189684068834
 21
355.0216889252534
 31
0.0
  0
LINE
  5
299
330
1F
100
AcDbEntity
  8
その他
  6
Continuous
 62
     7
370
     9
100
AcDbLine
 10
-253.2188786687077
 20
-154.8783948743665
 30
0.0
 11
-253.2188786687077
 21
-236.7783780484586
 31
0.0
  0
LINE
  5
29A
330
1F
100
AcDbEntity
  8
その他
  6
Continuous
 62
     7
370
     9
100
AcDbLine
 10
-281.7188984638935
 20
-154.8783948743665
 30
0.0
 11
-281.7188984638935
 21
-236.7783780484586
 31
0.0
  0
LINE
  5
29B
330
1F
100
AcDbEntity
  8
その他
  6
Continuous
 62
     7
370
     9
100
AcDbLine
 10
-281.7188984638935
 20
-235.578369140625
 30
0.0
 11
-293.6162505278716
 21
-234.0120503193623
 31
0.0
  0
LINE
  5
29C
330
1F
100
AcDbEntity
  8
その他
  6
Continuous
 62
     7
370
     9
100
AcDbLine
 10
-281.7188984638935
 20
-235.578369140625
 30
0.0
 11
-293.6162505278716
 21
-237.1447127058699
 31
0.0
  0
LINE
  5
29D
330
1F
100
AcDbEntity
  8
その他
  6
Continuous
 62
     7
370
     9
100
AcDbLine
 10
-239.2189314558699
 20
-154.8783948743665
 30
0.0
 11
-239.2189314558699
 21
-236.7783780484586
 31
0.0
  0
LINE
  5
29E
330
1F
100
AcDbEntity
  8
その他
  6
Continuous
 62
     7
370
     9
100
AcDbLine
 10
-239.2189314558699
 20
-235.578369140625
 30
0.0
 11
-227.3215793918919
 21
-234.0120503193623
 31
0.0
  0
LINE
  5
29F
330
1F
100
AcDbEntity
  8
その他
  6
Continuous
 62
     7
370
     9
100
AcDbLine
 10
-239.2189314558699
 20
-235.578369140625
 30
0.0
 11
-227.3215793918919
 21
-237.1447127058699
 31
0.0
  0
LINE
  5
2A0
330
1F
100
AcDbEntity
  8
その他
  6
Continuous
 62
     7
370
     9
100
AcDbLine
 10
-253.2188786687077
 20
-235.578369140625
 30
0.0
 11
-325.6498099662161
 21
-235.578369140625
 31
0.0
  0
LINE
  5
2A1
330
1F
100
AcDbEntity
  8
その他
  6
Continuous
 62
     7
370
     9
100
AcDbLine
 10
-202.8194942989865
 20
-235.578369140625
 30
0.0
 11
-253.2188786687077
 21
-235.578369140625
 31
0.0
  0
LINE
  5
2A2
330
1F
100
AcDbEntity
  8
その他
  6
Continuous
 62
     7
370
     9
100
AcDbLine
 10
-79.21894795185801
 20
61.62165131440042
 30
0.0
 11
2.681059966216253
 21
61.62165131440042
 31
0.0
  0
LINE
  5
2A3
330
1F
100
AcDbEntity
  8
その他
  6
Continuous
 62
     7
370
     9
100
AcDbLine
 10
1.480976826435835
 20
61.62165131440042
 30
0.0
 11
-0.0853172508445823
 21
49.72429925042229
 31
0.0
  0
LINE
  5
2A4
330
1F
100
AcDbEntity
  8
その他
  6
Continuous
 62
     7
370
     9
100
AcDbLine
 10
1.480976826435835
 20
61.62165131440042
 30
0.0
 11
3.047369879645316
 21
49.72429925042229
 31
0.0
  0
LINE
  5
2A5
330
1F
100
AcDbEntity
  8
その他
  6
Continuous
 62
     7
370
     9
100
AcDbLine
 10
-79.21894795185801
 20
104.1216183224241
 30
0.0
 11
2.681059966216253
 21
104.1216183224241
 31
0.0
  0
LINE
  5
2A6
330
1F
100
AcDbEntity
  8
その他
  6
Continuous
 62
     7
370
     9
100
AcDbLine
 10
-79.21894795185801
 20
90.12167110958615
 30
0.0
 11
2.681059966216253
 21
90.12167110958615
 31
0.0
  0
LINE
  5
2A7
330
1F
100
AcDbEntity
  8
その他
  6
Continuous
 62
     7
370
     9
100
AcDbLine
 10
1.480976826435835
 20
104.1216183224241
 30
0.0
 11
-0.0853172508445823
 21
116.0189703864021
 31
0.0
  0
LINE
  5
2A8
330
1F
100
AcDbEntity
  8
その他
  6
Continuous
 62
     7
370
     9
100
AcDbLine
 10
1.480976826435835
 20
104.1216183224241
 30
0.0
 11
3.047369879645316
 21
116.0189703864021
 31
0.0
  0
LINE
  5
2A9
330
1F
100
AcDbEntity
  8
その他
  6
Continuous
 62
     7
370
     9
100
AcDbLine
 10
1.480976826435835
 20
90.12167110958615
 30
0.0
 11
1.480976826435835
 21
17.6907893000423
 31
0.0
  0
LINE
  5
2AA
330
1F
100
AcDbEntity
  8
その他
  6
Continuous
 62
     7
370
     9
100
AcDbLine
 10
1.480976826435835
 20
140.5210554793075
 30
0.0
 11
1.480976826435835
 21
90.12167110958615
 31
0.0
  0
LINE
  5
2AB
330
1F
100
AcDbEntity
  8
その他
  6
Continuous
 62
     7
370
     9
100
AcDbLine
 10
304.6811655405406
 20
-179.5783823374155
 30
0.0
 11
304.6811655405406
 21
-236.7783780484586
 31
0.0
  0
LINE
  5
2AC
330
1F
100
AcDbEntity
  8
その他
  6
Continuous
 62
     7
370
     9
100
AcDbLine
 10
281.4812077702704
 20
-179.5783823374155
 30
0.0
 11
281.4812077702704
 21
-276.7783862964527
 31
0.0
  0
LINE
  5
2AD
330
1F
100
AcDbEntity
  8
その他
  6
Continuous
 62
     7
370
     9
100
AcDbLine
 10
304.6811655405406
 20
-235.578369140625
 30
0.0
 11
316.5784681165542
 21
-234.0120750633446
 31
0.0
  0
LINE
  5
2AE
330
1F
100
AcDbEntity
  8
その他
  6
Continuous
 62
     7
370
     9
100
AcDbLine
 10
304.6811655405406
 20
-235.578369140625
 30
0.0
 11
316.5784681165542
 21
-237.1446632179054
 31
0.0
  0
LINE
  5
2AF
330
1F
100
AcDbEntity
  8
その他
  6
Continuous
 62
     7
370
     9
100
AcDbLine
 10
281.4812077702704
 20
-235.578369140625
 30
0.0
 11
269.5839051942569
 21
-234.0120750633446
 31
0.0
  0
LINE
  5
2B0
330
1F
100
AcDbEntity
  8
その他
  6
Continuous
 62
     7
370
     9
100
AcDbLine
 10
281.4812077702704
 20
-275.5784021326014
 30
0.0
 11
333.6812117293075
 21
-275.5784021326014
 31
0.0
  0
LINE
  5
2B1
330
1F
100
AcDbEntity
  8
その他
  6
Continuous
 62
     7
370
     9
100
AcDbLine
 10
333.6812117293075
 20
-208.5783295502533
 30
0.0
 11
333.6812117293075
 21
-276.7783862964527
 31
0.0
  0
LINE
  5
2B2
330
1F
100
AcDbEntity
  8
その他
  6
Continuous
 62
     7
370
     9
100
AcDbLine
 10
281.4812077702704
 20
-275.5784021326014
 30
0.0
 11
293.3785103462837
 21
-274.0120585673564
 31
0.0
  0
LINE
  5
2B3
330
1F
100
AcDbEntity
  8
その他
  6
Continuous
 62
     7
370
     9
100
AcDbLine
 10
281.4812077702704
 20
-275.5784021326014
 30
0.0
 11
293.3785103462837
 21
-277.1446962098817
 31
0.0
  0
LINE
  5
2B4
330
1F
100
AcDbEntity
  8
その他
  6
Continuous
 62
     7
370
     9
100
AcDbLine
 10
333.6812117293075
 20
-275.5784021326014
 30
0.0
 11
321.783909153294
 21
-274.0120585673564
 31
0.0
  0
LINE
  5
2B5
330
1F
100
AcDbEntity
  8
その他
  6
Continuous
 62
     7
370
     9
100
AcDbLine
 10
333.6812117293075
 20
-275.5784021326014
 30
0.0
 11
321.783909153294
 21
-277.1446962098817
 31
0.0
  0
LINE
  5
2B6
330
1F
100
AcDbEntity
  8
その他
  6
Continuous
 62
     7
370
     9
100
AcDbLine
 10
281.4812077702704
 20
-235.578369140625
 30
0.0
 11
269.5839051942569
 21
-237.1446632179054
 31
0.0
  0
LINE
  5
2B7
330
1F
100
AcDbEntity
  8
その他
  6
Continuous
 62
     7
370
     9
100
AcDbLine
 10
326.2793958509292
 20
-235.578369140625
 30
0.0
 11
236.4997162690033
 21
-235.578369140625
 31
0.0
  0
LINE
  5
2B8
330
1F
100
AcDbEntity
  8
その他
  6
Continuous
 62
     7
370
     9
100
AcDbLine
 10
221.4812077702704
 20
-175.578369140625
 30
0.0
 11
221.4812077702704
 21
-172.3783783783783
 31
0.0
  0
LINE
  5
2B9
330
1F
100
AcDbEntity
  8
その他
  6
Continuous
 62
     7
370
     9
100
AcDbLine
 10
277.4811945734798
 20
-172.3783783783783
 30
0.0
 11
220.281223606419
 21
-172.3783783783783
 31
0.0
  0
LINE
  5
2BA
330
1F
100
AcDbEntity
  8
その他
  6
Continuous
 62
     7
370
     9
100
AcDbLine
 10
221.4812077702704
 20
-172.3783783783783
 30
0.0
 11
221.4812077702704
 21
-170.3783717799831
 31
0.0
  0
LINE
  5
2BB
330
1F
100
AcDbEntity
  8
その他
  6
Continuous
 62
     7
370
     9
100
AcDbLine
 10
277.4811945734798
 20
-170.3783717799831
 30
0.0
 11
220.281223606419
 21
-170.3783717799831
 31
0.0
  0
LINE
  5
2BC
330
1F
100
AcDbEntity
  8
その他
  6
Continuous
 62
     7
370
     9
100
AcDbLine
 10
221.4812077702704
 20
-170.3783717799831
 30
0.0
 11
221.4812077702704
 21
279.621628220017
 31
0.0
  0
LINE
  5
2BD
330
1F
100
AcDbEntity
  8
その他
  6
Continuous
 62
     7
370
     9
100
AcDbLine
 10
277.4811945734798
 20
279.621628220017
 30
0.0
 11
220.281223606419
 21
279.621628220017
 31
0.0
  0
LINE
  5
2BE
330
1F
100
AcDbEntity
  8
その他
  6
Continuous
 62
     7
370
     9
100
AcDbLine
 10
221.4812077702704
 20
-170.3783717799831
 30
0.0
 11
219.91491369299
 21
-158.4810692039696
 31
0.0
  0
LINE
  5
2BF
330
1F
100
AcDbEntity
  8
その他
  6
Continuous
 62
     7
370
     9
100
AcDbLine
 10
221.4812077702704
 20
-170.3783717799831
 30
0.0
 11
223.0475018475508
 21
-158.4810692039696
 31
0.0
  0
LINE
  5
2C0
330
1F
100
AcDbEntity
  8
その他
  6
Continuous
 62
     7
370
     9
100
AcDbLine
 10
221.4812077702704
 20
279.621628220017
 30
0.0
 11
219.91491369299
 21
267.7243256440034
 31
0.0
  0
LINE
  5
2C1
330
1F
100
AcDbEntity
  8
その他
  6
Continuous
 62
     7
370
     9
100
AcDbLine
 10
221.4812077702704
 20
279.621628220017
 30
0.0
 11
223.0475018475508
 21
267.7243256440034
 31
0.0
  0
LINE
  5
2C2
330
1F
100
AcDbEntity
  8
その他
  6
Continuous
 62
     7
370
     9
100
AcDbLine
 10
221.4812077702704
 20
279.621628220017
 30
0.0
 11
221.4812077702704
 21
281.6216348184122
 31
0.0
  0
LINE
  5
2C3
330
1F
100
AcDbEntity
  8
その他
  6
Continuous
 62
     7
370
     9
100
AcDbLine
 10
277.4811945734798
 20
281.6216348184122
 30
0.0
 11
220.281223606419
 21
281.6216348184122
 31
0.0
  0
LINE
  5
2C4
330
1F
100
AcDbEntity
  8
その他
  6
Continuous
 62
     7
370
     9
100
AcDbLine
 10
221.4812077702704
 20
281.6216348184122
 30
0.0
 11
221.4812077702704
 21
284.8216255806589
 31
0.0
  0
LINE
  5
2C5
330
1F
100
AcDbEntity
  8
その他
  6
Continuous
 62
     7
370
     9
100
AcDbLine
 10
181.481174778294
 20
-175.578369140625
 30
0.0
 11
181.481174778294
 21
284.8217245565879
 31
0.0
  0
LINE
  5
2C6
330
1F
100
AcDbEntity
  8
その他
  6
Continuous
 62
     7
370
     9
100
AcDbLine
 10
181.481174778294
 20
-175.578369140625
 30
0.0
 11
179.9148807010135
 21
-163.6810170766469
 31
0.0
  0
LINE
  5
2C7
330
1F
100
AcDbEntity
  8
その他
  6
Continuous
 62
     7
370
     9
100
AcDbLine
 10
181.481174778294
 20
-175.578369140625
 30
0.0
 11
183.0474688555744
 21
-163.6810170766469
 31
0.0
  0
LINE
  5
2C8
330
1F
100
AcDbEntity
  8
その他
  6
Continuous
 62
     7
370
     9
100
AcDbLine
 10
181.481174778294
 20
284.8217245565879
 30
0.0
 11
179.9148807010135
 21
272.9244219805744
 31
0.0
  0
LINE
  5
2C9
330
1F
100
AcDbEntity
  8
その他
  6
Continuous
 62
     7
370
     9
100
AcDbLine
 10
181.481174778294
 20
284.8217245565879
 30
0.0
 11
183.0474688555744
 21
272.9244219805744
 31
0.0
  0
LINE
  5
2CA
330
1F
100
AcDbEntity
  8
その他
  6
Continuous
 62
     7
370
     9
100
AcDbLine
 10
277.4811945734798
 20
284.8216255806589
 30
0.0
 11
180.2811906144426
 21
284.8217245565879
 31
0.0
  0
LINE
  5
2CB
330
1F
100
AcDbEntity
  8
その他
  6
Continuous
 62
     7
370
     9
100
AcDbLine
 10
277.4811945734798
 20
-175.578369140625
 30
0.0
 11
180.2811906144426
 21
-175.578369140625
 31
0.0
  0
LINE
  5
2CC
330
1F
100
AcDbEntity
  8
その他
  6
Continuous
 62
     7
370
     9
100
AcDbLine
 10
221.4812077702704
 20
-175.578369140625
 30
0.0
 11
221.4812077702704
 21
-206.1164517789273
 31
0.0
  0
LINE
  5
2CD
330
1F
100
AcDbEntity
  8
その他
  6
Continuous
 62
     7
370
     9
100
AcDbLine
 10
221.4812077702704
 20
-175.578369140625
 30
0.0
 11
223.0475018475508
 21
-187.4756717166385
 31
0.0
  0
LINE
  5
2CE
330
1F
100
AcDbEntity
  8
その他
  6
Continuous
 62
     7
370
     9
100
AcDbLine
 10
221.4812077702704
 20
-175.578369140625
 30
0.0
 11
219.91491369299
 21
-187.4756717166385
 31
0.0
  0
LINE
  5
2CF
330
1F
100
AcDbEntity
  8
その他
  6
Continuous
 62
     7
370
     9
100
AcDbLine
 10
221.4812077702704
 20
284.8217245565879
 30
0.0
 11
219.91491369299
 21
296.7190271326014
 31
0.0
  0
LINE
  5
2D0
330
1F
100
AcDbEntity
  8
その他
  6
Continuous
 62
     7
370
     9
100
AcDbLine
 10
221.4812077702704
 20
284.8217245565879
 30
0.0
 11
223.0475018475508
 21
296.7190271326014
 31
0.0
  0
LINE
  5
2D1
330
1F
100
AcDbEntity
  8
その他
  6
Continuous
 62
     7
370
     9
100
AcDbLine
 10
373.6812447212837
 20
-204.5783658414273
 30
0.0
 11
373.6812447212837
 21
-175.578369140625
 31
0.0
  0
LINE
  5
2D2
330
1F
100
AcDbEntity
  8
その他
  6
Continuous
 62
     7
370
     9
100
AcDbLine
 10
337.6812249260981
 20
-204.5783658414273
 30
0.0
 11
374.8812288851352
 21
-204.5783658414273
 31
0.0
  0
LINE
  5
2D3
330
1F
100
AcDbEntity
  8
その他
  6
Continuous
 62
     7
370
     9
100
AcDbLine
 10
373.6812447212837
 20
-204.5783658414273
 30
0.0
 11
372.1149506440036
 21
-192.6810137774493
 31
0.0
  0
LINE
  5
2D4
330
1F
100
AcDbEntity
  8
その他
  6
Continuous
 62
     7
370
     9
100
AcDbLine
 10
373.6812447212837
 20
-204.5783658414273
 30
0.0
 11
375.2475387985642
 21
-192.6810137774493
 31
0.0
  0
LINE
  5
2D5
330
1F
100
AcDbEntity
  8
その他
  6
Continuous
 62
     7
370
     9
100
AcDbLine
 10
373.6812447212837
 20
-175.578369140625
 30
0.0
 11
372.1149506440036
 21
-187.4756717166385
 31
0.0
  0
LINE
  5
2D6
330
1F
100
AcDbEntity
  8
その他
  6
Continuous
 62
     7
370
     9
100
AcDbLine
 10
373.6812447212837
 20
-175.578369140625
 30
0.0
 11
375.2475387985642
 21
-187.4756717166385
 31
0.0
  0
LINE
  5
2D7
330
1F
100
AcDbEntity
  8
その他
  6
Continuous
 62
     7
370
     9
100
AcDbLine
 10
373.6812447212837
 20
-175.578369140625
 30
0.0
 11
373.6812447212837
 21
-145.3783387880067
 31
0.0
  0
LINE
  5
2D8
330
1F
100
AcDbEntity
  8
その他
  6
Continuous
 62
     7
370
     9
100
AcDbLine
 10
373.6812447212837
 20
-175.578369140625
 30
0.0
 11
372.1149506440036
 21
-163.6810170766469
 31
0.0
  0
LINE
  5
2D9
330
1F
100
AcDbEntity
  8
その他
  6
Continuous
 62
     7
370
     9
100
AcDbLine
 10
373.6812447212837
 20
-175.578369140625
 30
0.0
 11
375.2475387985642
 21
-163.6810170766469
 31
0.0
  0
LINE
  5
2DA
330
1F
100
AcDbEntity
  8
その他
  6
Continuous
 62
     7
370
     9
100
AcDbLine
 10
373.6812447212837
 20
-145.3783387880067
 30
0.0
 11
372.1149506440036
 21
-157.2756908519848
 31
0.0
  0
LINE
  5
2DB
330
1F
100
AcDbEntity
  8
その他
  6
Continuous
 62
     7
370
     9
100
AcDbLine
 10
373.6812447212837
 20
-145.3783387880067
 30
0.0
 11
375.2475387985642
 21
-157.2756908519848
 31
0.0
  0
LINE
  5
2DC
330
1F
100
AcDbEntity
  8
その他
  6
Continuous
 62
     7
370
     9
100
AcDbLine
 10
373.6812447212837
 20
-145.3783387880067
 30
0.0
 11
373.6812447212837
 21
254.6215952280406
 31
0.0
  0
LINE
  5
2DD
330
1F
100
AcDbEntity
  8
その他
  6
Continuous
 62
     7
370
     9
100
AcDbLine
 10
373.6812447212837
 20
-145.3783387880067
 30
0.0
 11
372.1149506440036
 21
-133.4809867240287
 31
0.0
  0
LINE
  5
2DE
330
1F
100
AcDbEntity
  8
その他
  6
Continuous
 62
     7
370
     9
100
AcDbLine
 10
373.6812447212837
 20
-145.3783387880067
 30
0.0
 11
375.2475387985642
 21
-133.4809867240287
 31
0.0
  0
LINE
  5
2DF
330
1F
100
AcDbEntity
  8
その他
  6
Continuous
 62
     7
370
     9
100
AcDbLine
 10
373.6812447212837
 20
254.6215952280406
 30
0.0
 11
372.1149506440036
 21
242.7242926520271
 31
0.0
  0
LINE
  5
2E0
330
1F
100
AcDbEntity
  8
その他
  6
Continuous
 62
     7
370
     9
100
AcDbLine
 10
373.6812447212837
 20
254.6215952280406
 30
0.0
 11
375.2475387985642
 21
242.7242926520271
 31
0.0
  0
LINE
  5
2E1
330
1F
100
AcDbEntity
  8
その他
  6
Continuous
 62
     7
370
     9
100
AcDbLine
 10
373.6812447212837
 20
254.6215952280406
 30
0.0
 11
373.6812447212837
 21
284.8216255806589
 31
0.0
  0
LINE
  5
2E2
330
1F
100
AcDbEntity
  8
その他
  6
Continuous
 62
     7
370
     9
100
AcDbLine
 10
373.6812447212837
 20
254.6215952280406
 30
0.0
 11
372.1149506440036
 21
266.5188978040541
 31
0.0
  0
LINE
  5
2E3
330
1F
100
AcDbEntity
  8
その他
  6
Continuous
 62
     7
370
     9
100
AcDbLine
 10
373.6812447212837
 20
254.6215952280406
 30
0.0
 11
375.2475387985642
 21
266.5188978040541
 31
0.0
  0
LINE
  5
2E4
330
1F
100
AcDbEntity
  8
その他
  6
Continuous
 62
     7
370
     9
100
AcDbLine
 10
373.6812447212837
 20
284.8216255806589
 30
0.0
 11
372.1149506440036
 21
272.9243230046453
 31
0.0
  0
LINE
  5
2E5
330
1F
100
AcDbEntity
  8
その他
  6
Continuous
 62
     7
370
     9
100
AcDbLine
 10
373.6812447212837
 20
284.8216255806589
 30
0.0
 11
375.2475387985642
 21
272.9243230046453
 31
0.0
  0
LINE
  5
2E6
330
1F
100
AcDbEntity
  8
その他
  6
Continuous
 62
     7
370
     9
100
AcDbLine
 10
373.6812447212837
 20
284.8216255806589
 30
0.0
 11
373.6812447212837
 21
313.8216717694257
 31
0.0
  0
LINE
  5
2E7
330
1F
100
AcDbEntity
  8
その他
  6
Continuous
 62
     7
370
     9
100
AcDbLine
 10
337.6812249260981
 20
313.8216717694257
 30
0.0
 11
374.8812288851352
 21
313.8216717694257
 31
0.0
  0
LINE
  5
2E8
330
1F
100
AcDbEntity
  8
その他
  6
Continuous
 62
     7
370
     9
100
AcDbLine
 10
373.6812447212837
 20
284.8216255806589
 30
0.0
 11
372.1149506440036
 21
296.7189281566723
 31
0.0
  0
LINE
  5
2E9
330
1F
100
AcDbEntity
  8
その他
  6
Continuous
 62
     7
370
     9
100
AcDbLine
 10
373.6812447212837
 20
284.8216255806589
 30
0.0
 11
375.2475387985642
 21
296.7189281566723
 31
0.0
  0
LINE
  5
2EA
330
1F
100
AcDbEntity
  8
その他
  6
Continuous
 62
     7
370
     9
100
AcDbLine
 10
373.6812447212837
 20
313.8216717694257
 30
0.0
 11
372.1149506440036
 21
301.9243691934122
 31
0.0
  0
LINE
  5
2EB
330
1F
100
AcDbEntity
  8
その他
  6
Continuous
 62
     7
370
     9
100
AcDbLine
 10
373.6812447212837
 20
313.8216717694257
 30
0.0
 11
375.2475387985642
 21
301.9243691934122
 31
0.0
  0
LINE
  5
2EC
330
1F
100
AcDbEntity
  8
その他
  6
Continuous
 62
     7
370
     9
100
AcDbLine
 10
308.681178737331
 20
-145.3783387880067
 30
0.0
 11
374.8812288851352
 21
-145.3783387880067
 31
0.0
  0
LINE
  5
2ED
330
1F
100
AcDbEntity
  8
その他
  6
Continuous
 62
     7
370
     9
100
AcDbLine
 10
330.6621489653717
 20
-175.578369140625
 30
0.0
 11
374.8812288851352
 21
-175.578369140625
 31
0.0
  0
LINE
  5
2EE
330
1F
100
AcDbEntity
  8
その他
  6
Continuous
 62
     7
370
     9
100
AcDbLine
 10
308.681178737331
 20
254.6215952280406
 30
0.0
 11
374.8812288851352
 21
254.6215952280406
 31
0.0
  0
LINE
  5
2EF
330
1F
100
AcDbEntity
  8
その他
  6
Continuous
 62
     7
370
     9
100
AcDbLine
 10
330.6621489653717
 20
284.8216255806589
 30
0.0
 11
374.8812288851352
 21
284.8216255806589
 31
0.0
  0
LINE
  5
2F0
330
1F
100
AcDbEntity
  8
その他
  6
Continuous
 62
     7
370
     9
100
AcDbLine
 10
301.4813727301521
 20
-60.47837046030406
 30
0.0
 11
301.4813727301521
 21
-61.67835462415542
 31
0.0
  0
LINE
  5
2F1
330
1F
100
AcDbEntity
  8
その他
  6
Continuous
 62
     7
370
     9
100
AcDbLine
 10
281.4812077702704
 20
-60.47837046030406
 30
0.0
 11
281.4812077702704
 21
-61.67835462415542
 31
0.0
  0
LINE
  5
2F2
330
1F
100
AcDbEntity
  8
その他
  6
Continuous
 62
     7
370
     9
100
AcDbLine
 10
296.4812077702704
 20
-60.47837046030406
 30
0.0
 11
308.3785103462837
 21
-58.91207638302365
 31
0.0
  0
LINE
  5
2F3
330
1F
100
AcDbEntity
  8
その他
  6
Continuous
 62
     7
370
     9
100
AcDbLine
 10
281.4812077702704
 20
-60.47837046030406
 30
0.0
 11
269.5839051942569
 21
-58.91207638302365
 31
0.0
  0
LINE
  5
2F4
330
1F
100
AcDbEntity
  8
その他
  6
Continuous
 62
     7
370
     9
100
AcDbLine
 10
281.4812077702704
 20
-60.47837046030406
 30
0.0
 11
269.5839051942569
 21
-62.04466453758448
 31
0.0
  0
LINE
  5
2F5
330
1F
100
AcDbEntity
  8
その他
  6
Continuous
 62
     7
370
     9
100
AcDbLine
 10
296.4812077702704
 20
-60.47837046030406
 30
0.0
 11
308.3785103462837
 21
-62.04466453758448
 31
0.0
  0
LINE
  5
2F6
330
1F
100
AcDbEntity
  8
その他
  6
Continuous
 62
     7
370
     9
100
AcDbLine
 10
296.4813067461994
 20
-100.4783539643158
 30
0.0
 11
296.4813067461994
 21
-101.6783381281672
 31
0.0
  0
LINE
  5
2F7
330
1F
100
AcDbEntity
  8
その他
  6
Continuous
 62
     7
370
     9
100
AcDbLine
 10
281.4812077702704
 20
-100.4783539643158
 30
0.0
 11
281.4812077702704
 21
-101.6783381281672
 31
0.0
  0
LINE
  5
2F8
330
1F
100
AcDbEntity
  8
その他
  6
Continuous
 62
     7
370
     9
100
AcDbLine
 10
301.481174778294
 20
-100.4783539643158
 30
0.0
 11
313.3784773543075
 21
-98.91205988703547
 31
0.0
  0
LINE
  5
2F9
330
1F
100
AcDbEntity
  8
その他
  6
Continuous
 62
     7
370
     9
100
AcDbLine
 10
301.481174778294
 20
-100.4783539643158
 30
0.0
 11
313.3784773543075
 21
-102.0445985536317
 31
0.0
  0
LINE
  5
2FA
330
1F
100
AcDbEntity
  8
その他
  6
Continuous
 62
     7
370
     9
100
AcDbLine
 10
281.4812077702704
 20
-100.4783539643158
 30
0.0
 11
269.5839051942569
 21
-98.91205988703547
 31
0.0
  0
LINE
  5
2FB
330
1F
100
AcDbEntity
  8
その他
  6
Continuous
 62
     7
370
     9
100
AcDbLine
 10
281.4812077702704
 20
-100.4783539643158
 30
0.0
 11
269.5839051942569
 21
-102.0445985536317
 31
0.0
  0
LINE
  5
2FC
330
1F
100
AcDbEntity
  8
その他
  6
Continuous
 62
     7
370
     9
100
AcDbLine
 10
324.1621027766048
 20
-100.4783539643158
 30
0.0
 11
251.6103713576858
 21
-100.4783539643158
 31
0.0
  0
LINE
  5
2FD
330
1F
100
AcDbEntity
  8
その他
  6
Continuous
 62
     7
370
     9
100
AcDbLine
 10
221.4812077702704
 20
284.8217245565879
 30
0.0
 11
221.4812077702704
 21
320.3200353673986
 31
0.0
  0
LINE
  5
2FE
330
1F
100
AcDbEntity
  8
その他
  6
Continuous
 62
     2
370
     9
100
AcDbLine
 10
-63.71892155827697
 20
279.621628220017
 30
0.0
 11
-58.51882522170604
 21
284.8216255806589
 31
0.0
  0
LINE
  5
2FF
330
1F
100
AcDbEntity
  8
その他
  6
Continuous
 62
     2
370
     9
100
AcDbLine
 10
-61.71891495988166
 20
-172.3783783783783
 30
0.0
 11
-61.71891495988166
 21
281.6216348184122
 31
0.0
  0
LINE
  5
300
330
1F
100
AcDbEntity
  8
その他
  6
Continuous
 62
     2
370
     9
100
AcDbLine
 10
-63.71892155827697
 20
-170.3783717799831
 30
0.0
 11
-58.51882522170604
 21
-175.578369140625
 31
0.0
  0
LINE
  5
301
330
1F
100
AcDbEntity
  8
その他
  6
Continuous
 62
     2
370
     9
100
AcDbLine
 10
-513.7188225823479
 20
-170.3783717799831
 30
0.0
 11
-518.9189684068834
 21
-175.578369140625
 31
0.0
  0
LINE
  5
302
330
1F
100
AcDbEntity
  8
その他
  6
Continuous
 62
     2
370
     9
100
AcDbLine
 10
-61.71891495988166
 20
-172.3783783783783
 30
0.0
 11
-515.7189281566723
 21
-172.3783783783783
 31
0.0
  0
LINE
  5
303
330
1F
100
AcDbEntity
  8
その他
  6
Continuous
 62
     2
370
     9
100
AcDbLine
 10
-61.71891495988166
 20
281.6216348184122
 30
0.0
 11
-515.7189281566723
 21
281.6216348184122
 31
0.0
  0
LINE
  5
304
330
1F
100
AcDbEntity
  8
その他
  6
Continuous
 62
     2
370
     9
100
AcDbLine
 10
-515.7189281566723
 20
281.6216348184122
 30
0.0
 11
-515.7189281566723
 21
-172.3783783783783
 31
0.0
  0
LINE
  5
305
330
1F
100
AcDbEntity
  8
その他
  6
Continuous
 62
     2
370
     9
100
AcDbLine
 10
-513.7188225823479
 20
279.621628220017
 30
0.0
 11
-518.9189684068834
 21
284.8216255806589
 31
0.0
  0
LINE
  5
306
330
1F
100
AcDbEntity
  8
その他
  6
Continuous
 62
     2
370
     9
100
AcDbLine
 10
-88.71895455025333
 20
254.6215952280406
 30
0.0
 11
-83.804750184755
 21
259.5358490815034
 31
0.0
  0
LINE
  5
307
330
1F
100
AcDbEntity
  8
その他
  6
Continuous
 62
     2
370
     9
100
AcDbLine
 10
-488.7188885663007
 20
-145.3783387880067
 30
0.0
 11
-493.633092931799
 21
-150.2925926414696
 31
0.0
  0
LINE
  5
308
330
1F
100
AcDbEntity
  8
その他
  6
Continuous
 62
     2
370
     9
100
AcDbLine
 10
-488.7188885663007
 20
254.6215952280406
 30
0.0
 11
-493.633092931799
 21
259.5358490815034
 31
0.0
  0
LINE
  5
309
330
1F
100
AcDbEntity
  8
その他
  6
Continuous
 62
     2
370
     9
100
AcDbLine
 10
-88.71895455025333
 20
-145.3783387880067
 30
0.0
 11
-83.804750184755
 21
-150.2925926414696
 31
0.0
  0
LINE
  5
30A
330
1F
100
AcDbEntity
  8
その他
  6
Continuous
 62
     7
370
     9
100
AcDbLine
 10
314.794921875
 20
-60.47837046030406
 30
0.0
 11
251.6103713576858
 21
-60.47837046030406
 31
0.0
  0
CIRCLE
  5
30B
330
1F
100
AcDbEntity
  8
その他
  6
Continuous
 62
     2
370
     9
100
AcDbCircle
 10
-158.5189077016469
 20
289.3216651710304
 30
0.0
 40
4.500000154649889
  0
ARC
  5
30C
330
1F
100
AcDbEntity
  8
その他
  6
Continuous
 62
     3
370
     9
100
AcDbCircle
 10
-279.7188918654983
 20
88.12166451119094
 30
0.0
 40
2.000000025774982
100
AcDbArc
 50
90.0
 51
180.0
  0
ARC
  5
30D
330
1F
100
AcDbEntity
  8
その他
  6
Continuous
 62
     3
370
     9
100
AcDbCircle
 10
-255.2189347550675
 20
88.12166451119094
 30
0.0
 40
2.000000025774982
100
AcDbArc
 50
7.016464233398438
 51
90.0
  0
ARC
  5
30E
330
1F
100
AcDbEntity
  8
その他
  6
Continuous
 62
     3
370
     9
100
AcDbCircle
 10
-255.2189347550675
 20
63.62165791279563
 30
0.0
 40
2.000000025774982
100
AcDbArc
 50
270.0
 51
0.0
  0
ARC
  5
30F
330
1F
100
AcDbEntity
  8
その他
  6
Continuous
 62
     3
370
     9
100
AcDbCircle
 10
-279.7188918654983
 20
63.62165791279563
 30
0.0
 40
2.000000025774982
100
AcDbArc
 50
180.0
 51
270.0
  0
ARC
  5
310
330
1F
100
AcDbEntity
  8
その他
  6
Continuous
 62
     3
370
     9
100
AcDbCircle
 10
-279.7188918654983
 20
106.1216249208193
 30
0.0
 40
2.000000025774982
100
AcDbArc
 50
180.0
 51
270.0
  0
ARC
  5
311
330
1F
100
AcDbEntity
  8
その他
  6
Continuous
 62
     3
370
     9
100
AcDbCircle
 10
-255.2189347550675
 20
106.1216249208193
 30
0.0
 40
2.000000025774982
100
AcDbArc
 50
270.0
 51
0.0
  0
ARC
  5
312
330
1F
100
AcDbEntity
  8
その他
  6
Continuous
 62
     3
370
     9
100
AcDbCircle
 10
-255.2189347550675
 20
130.6216315192146
 30
0.0
 40
2.000000025774982
100
AcDbArc
 50
7.016464233398438
 51
90.0
  0
ARC
  5
313
330
1F
100
AcDbEntity
  8
その他
  6
Continuous
 62
     3
370
     9
100
AcDbCircle
 10
-279.7188918654983
 20
130.6216315192146
 30
0.0
 40
2.000000025774982
100
AcDbArc
 50
90.0
 51
180.0
  0
ARC
  5
314
330
1F
100
AcDbEntity
  8
その他
  6
Continuous
 62
     3
370
     9
100
AcDbCircle
 10
-279.7188918654983
 20
173.1216480152027
 30
0.0
 40
2.000000025774982
100
AcDbArc
 50
90.0
 51
180.0
  0
ARC
  5
315
330
1F
100
AcDbEntity
  8
その他
  6
Continuous
 62
     3
370
     9
100
AcDbCircle
 10
-255.2189347550675
 20
173.1216480152027
 30
0.0
 40
2.000000025774982
100
AcDbArc
 50
7.016464233398438
 51
90.0
  0
ARC
  5
316
330
1F
100
AcDbEntity
  8
その他
  6
Continuous
 62
     3
370
     9
100
AcDbCircle
 10
-255.2189347550675
 20
148.6216414168075
 30
0.0
 40
2.000000025774982
100
AcDbArc
 50
270.0
 51
0.0
  0
ARC
  5
317
330
1F
100
AcDbEntity
  8
その他
  6
Continuous
 62
     3
370
     9
100
AcDbCircle
 10
-279.7188918654983
 20
148.6216414168075
 30
0.0
 40
2.000000025774982
100
AcDbArc
 50
180.0
 51
270.0
  0
ARC
  5
318
330
1F
100
AcDbEntity
  8
その他
  6
Continuous
 62
     3
370
     9
100
AcDbCircle
 10
-279.7188918654983
 20
191.1216579127956
 30
0.0
 40
2.000000025774982
100
AcDbArc
 50
180.0
 51
270.0
  0
ARC
  5
319
330
1F
100
AcDbEntity
  8
その他
  6
Continuous
 62
     3
370
     9
100
AcDbCircle
 10
-255.2189347550675
 20
191.1216579127956
 30
0.0
 40
2.000000025774982
100
AcDbArc
 50
270.0
 51
0.0
  0
ARC
  5
31A
330
1F
100
AcDbEntity
  8
その他
  6
Continuous
 62
     3
370
     9
100
AcDbCircle
 10
-255.2189347550675
 20
215.6216150232264
 30
0.0
 40
2.000000025774982
100
AcDbArc
 50
7.016464233398438
 51
90.0
  0
ARC
  5
31B
330
1F
100
AcDbEntity
  8
その他
  6
Continuous
 62
     3
370
     9
100
AcDbCircle
 10
-279.7188918654983
 20
215.6216150232264
 30
0.0
 40
2.000000025774982
100
AcDbArc
 50
90.0
 51
180.0
  0
ARC
  5
31C
330
1F
100
AcDbEntity
  8
その他
  6
Continuous
 62
     3
370
     9
100
AcDbCircle
 10
-279.7188918654983
 20
258.1216810071791
 30
0.0
 40
2.000000025774982
100
AcDbArc
 50
90.0
 51
180.0
  0
ARC
  5
31D
330
1F
100
AcDbEntity
  8
その他
  6
Continuous
 62
     3
370
     9
100
AcDbCircle
 10
-255.2189347550675
 20
258.1216810071791
 30
0.0
 40
2.000000025774982
100
AcDbArc
 50
7.016464233398438
 51
90.0
  0
ARC
  5
31E
330
1F
100
AcDbEntity
  8
その他
  6
Continuous
 62
     3
370
     9
100
AcDbCircle
 10
-255.2189347550675
 20
233.6216744087839
 30
0.0
 40
2.000000025774982
100
AcDbArc
 50
270.0
 51
0.0
  0
ARC
  5
31F
330
1F
100
AcDbEntity
  8
その他
  6
Continuous
 62
     3
370
     9
100
AcDbCircle
 10
-279.7188918654983
 20
233.6216744087839
 30
0.0
 40
2.000000025774982
100
AcDbArc
 50
180.0
 51
270.0
  0
ARC
  5
320
330
1F
100
AcDbEntity
  8
その他
  6
Continuous
 62
     3
370
     9
100
AcDbCircle
 10
-237.2189743454392
 20
233.6216744087839
 30
0.0
 40
2.000000025774982
100
AcDbArc
 50
180.0
 51
270.0
  0
ARC
  5
321
330
1F
100
AcDbEntity
  8
その他
  6
Continuous
 62
     3
370
     9
100
AcDbCircle
 10
-212.7188687711148
 20
233.6216744087839
 30
0.0
 40
2.000000025774982
100
AcDbArc
 50
270.0
 51
0.0
  0
ARC
  5
322
330
1F
100
AcDbEntity
  8
その他
  6
Continuous
 62
     3
370
     9
100
AcDbCircle
 10
-212.7188687711148
 20
258.1216810071791
 30
0.0
 40
2.000000025774982
100
AcDbArc
 50
7.016464233398438
 51
90.0
  0
ARC
  5
323
330
1F
100
AcDbEntity
  8
その他
  6
Continuous
 62
     3
370
     9
100
AcDbCircle
 10
-237.2189743454392
 20
258.1216810071791
 30
0.0
 40
2.000000025774982
100
AcDbArc
 50
90.0
 51
180.0
  0
ARC
  5
324
330
1F
100
AcDbEntity
  8
その他
  6
Continuous
 62
     3
370
     9
100
AcDbCircle
 10
-237.2189743454392
 20
215.6216150232264
 30
0.0
 40
2.000000025774982
100
AcDbArc
 50
90.0
 51
180.0
  0
ARC
  5
325
330
1F
100
AcDbEntity
  8
その他
  6
Continuous
 62
     3
370
     9
100
AcDbCircle
 10
-212.7188687711148
 20
215.6216150232264
 30
0.0
 40
2.000000025774982
100
AcDbArc
 50
7.016464233398438
 51
90.0
  0
ARC
  5
326
330
1F
100
AcDbEntity
  8
その他
  6
Continuous
 62
     3
370
     9
100
AcDbCircle
 10
-212.7188687711148
 20
191.1216579127956
 30
0.0
 40
2.000000025774982
100
AcDbArc
 50
270.0
 51
0.0
  0
ARC
  5
327
330
1F
100
AcDbEntity
  8
その他
  6
Continuous
 62
     3
370
     9
100
AcDbCircle
 10
-237.2189743454392
 20
191.1216579127956
 30
0.0
 40
2.000000025774982
100
AcDbArc
 50
180.0
 51
270.0
  0
ARC
  5
328
330
1F
100
AcDbEntity
  8
その他
  6
Continuous
 62
     3
370
     9
100
AcDbCircle
 10
-237.2189743454392
 20
148.6216414168075
 30
0.0
 40
2.000000025774982
100
AcDbArc
 50
180.0
 51
270.0
  0
ARC
  5
329
330
1F
100
AcDbEntity
  8
その他
  6
Continuous
 62
     3
370
     9
100
AcDbCircle
 10
-212.7188687711148
 20
148.6216414168075
 30
0.0
 40
2.000000025774982
100
AcDbArc
 50
270.0
 51
0.0
  0
ARC
  5
32A
330
1F
100
AcDbEntity
  8
その他
  6
Continuous
 62
     3
370
     9
100
AcDbCircle
 10
-212.7188687711148
 20
173.1216480152027
 30
0.0
 40
2.000000025774982
100
AcDbArc
 50
7.016464233398438
 51
90.0
  0
ARC
  5
32B
330
1F
100
AcDbEntity
  8
その他
  6
Continuous
 62
     3
370
     9
100
AcDbCircle
 10
-237.2189743454392
 20
173.1216480152027
 30
0.0
 40
2.000000025774982
100
AcDbArc
 50
90.0
 51
180.0
  0
ARC
  5
32C
330
1F
100
AcDbEntity
  8
その他
  6
Continuous
 62
     3
370
     9
100
AcDbCircle
 10
-237.2189743454392
 20
130.6216315192146
 30
0.0
 40
2.000000025774982
100
AcDbArc
 50
90.0
 51
180.0
  0
ARC
  5
32D
330
1F
100
AcDbEntity
  8
その他
  6
Continuous
 62
     3
370
     9
100
AcDbCircle
 10
-212.7188687711148
 20
130.6216315192146
 30
0.0
 40
2.000000025774982
100
AcDbArc
 50
7.016464233398438
 51
90.0
  0
ARC
  5
32E
330
1F
100
AcDbEntity
  8
その他
  6
Continuous
 62
     3
370
     9
100
AcDbCircle
 10
-212.7188687711148
 20
106.1216249208193
 30
0.0
 40
2.000000025774982
100
AcDbArc
 50
270.0
 51
0.0
  0
ARC
  5
32F
330
1F
100
AcDbEntity
  8
その他
  6
Continuous
 62
     3
370
     9
100
AcDbCircle
 10
-237.2189743454392
 20
106.1216249208193
 30
0.0
 40
2.000000025774982
100
AcDbArc
 50
180.0
 51
270.0
  0
ARC
  5
330
330
1F
100
AcDbEntity
  8
その他
  6
Continuous
 62
     3
370
     9
100
AcDbCircle
 10
-237.2189743454392
 20
63.62165791279563
 30
0.0
 40
2.000000025774982
100
AcDbArc
 50
180.0
 51
270.0
  0
ARC
  5
331
330
1F
100
AcDbEntity
  8
その他
  6
Continuous
 62
     3
370
     9
100
AcDbCircle
 10
-212.7188687711148
 20
63.62165791279563
 30
0.0
 40
2.000000025774982
100
AcDbArc
 50
270.0
 51
0.0
  0
ARC
  5
332
330
1F
100
AcDbEntity
  8
その他
  6
Continuous
 62
     3
370
     9
100
AcDbCircle
 10
-212.7188687711148
 20
88.12166451119094
 30
0.0
 40
2.000000025774982
100
AcDbArc
 50
7.016464233398438
 51
90.0
  0
ARC
  5
333
330
1F
100
AcDbEntity
  8
その他
  6
Continuous
 62
     3
370
     9
100
AcDbCircle
 10
-237.2189743454392
 20
88.12166451119094
 30
0.0
 40
2.000000025774982
100
AcDbArc
 50
90.0
 51
180.0
  0
ARC
  5
334
330
1F
100
AcDbEntity
  8
その他
  6
Continuous
 62
     3
370
     9
100
AcDbCircle
 10
-194.7189083614865
 20
88.12166451119094
 30
0.0
 40
2.000000025774982
100
AcDbArc
 50
90.0
 51
180.0
  0
ARC
  5
335
330
1F
100
AcDbEntity
  8
その他
  6
Continuous
 62
     3
370
     9
100
AcDbCircle
 10
-170.2189017630911
 20
88.12166451119094
 30
0.0
 40
2.000000025774982
100
AcDbArc
 50
7.016464233398438
 51
90.0
  0
ARC
  5
336
330
1F
100
AcDbEntity
  8
その他
  6
Continuous
 62
     3
370
     9
100
AcDbCircle
 10
-170.2189017630911
 20
63.62165791279563
 30
0.0
 40
2.000000025774982
100
AcDbArc
 50
270.0
 51
0.0
  0
ARC
  5
337
330
1F
100
AcDbEntity
  8
その他
  6
Continuous
 62
     3
370
     9
100
AcDbCircle
 10
-194.7189083614865
 20
63.62165791279563
 30
0.0
 40
2.000000025774982
100
AcDbArc
 50
180.0
 51
270.0
  0
ARC
  5
338
330
1F
100
AcDbEntity
  8
その他
  6
Continuous
 62
     3
370
     9
100
AcDbCircle
 10
-194.7189083614865
 20
106.1216249208193
 30
0.0
 40
2.000000025774982
100
AcDbArc
 50
180.0
 51
270.0
  0
ARC
  5
339
330
1F
100
AcDbEntity
  8
その他
  6
Continuous
 62
     3
370
     9
100
AcDbCircle
 10
-170.2189017630911
 20
106.1216249208193
 30
0.0
 40
2.000000025774982
100
AcDbArc
 50
270.0
 51
0.0
  0
ARC
  5
33A
330
1F
100
AcDbEntity
  8
その他
  6
Continuous
 62
     3
370
     9
100
AcDbCircle
 10
-170.2189017630911
 20
130.6216315192146
 30
0.0
 40
2.000000025774982
100
AcDbArc
 50
7.016464233398438
 51
90.0
  0
ARC
  5
33B
330
1F
100
AcDbEntity
  8
その他
  6
Continuous
 62
     3
370
     9
100
AcDbCircle
 10
-194.7189083614865
 20
130.6216315192146
 30
0.0
 40
2.000000025774982
100
AcDbArc
 50
90.0
 51
180.0
  0
ARC
  5
33C
330
1F
100
AcDbEntity
  8
その他
  6
Continuous
 62
     3
370
     9
100
AcDbCircle
 10
-194.7189083614865
 20
173.1216480152027
 30
0.0
 40
2.000000025774982
100
AcDbArc
 50
90.0
 51
180.0
  0
ARC
  5
33D
330
1F
100
AcDbEntity
  8
その他
  6
Continuous
 62
     3
370
     9
100
AcDbCircle
 10
-170.2189017630911
 20
173.1216480152027
 30
0.0
 40
2.000000025774982
100
AcDbArc
 50
7.016464233398438
 51
90.0
  0
ARC
  5
33E
330
1F
100
AcDbEntity
  8
その他
  6
Continuous
 62
     3
370
     9
100
AcDbCircle
 10
-170.2189017630911
 20
148.6216414168075
 30
0.0
 40
2.000000025774982
100
AcDbArc
 50
270.0
 51
0.0
  0
ARC
  5
33F
330
1F
100
AcDbEntity
  8
その他
  6
Continuous
 62
     3
370
     9
100
AcDbCircle
 10
-194.7189083614865
 20
148.6216414168075
 30
0.0
 40
2.000000025774982
100
AcDbArc
 50
180.0
 51
270.0
  0
ARC
  5
340
330
1F
100
AcDbEntity
  8
その他
  6
Continuous
 62
     3
370
     9
100
AcDbCircle
 10
-194.7189083614865
 20
191.1216579127956
 30
0.0
 40
2.000000025774982
100
AcDbArc
 50
180.0
 51
270.0
  0
ARC
  5
341
330
1F
100
AcDbEntity
  8
その他
  6
Continuous
 62
     3
370
     9
100
AcDbCircle
 10
-170.2189017630911
 20
191.1216579127956
 30
0.0
 40
2.000000025774982
100
AcDbArc
 50
270.0
 51
0.0
  0
ARC
  5
342
330
1F
100
AcDbEntity
  8
その他
  6
Continuous
 62
     3
370
     9
100
AcDbCircle
 10
-170.2189017630911
 20
215.6216150232264
 30
0.0
 40
2.000000025774982
100
AcDbArc
 50
7.016464233398438
 51
90.0
  0
ARC
  5
343
330
1F
100
AcDbEntity
  8
その他
  6
Continuous
 62
     3
370
     9
100
AcDbCircle
 10
-194.7189083614865
 20
215.6216150232264
 30
0.0
 40
2.000000025774982
100
AcDbArc
 50
90.0
 51
180.0
  0
ARC
  5
344
330
1F
100
AcDbEntity
  8
その他
  6
Continuous
 62
     3
370
     9
100
AcDbCircle
 10
-194.7189083614865
 20
258.1216810071791
 30
0.0
 40
2.000000025774982
100
AcDbArc
 50
90.0
 51
180.0
  0
ARC
  5
345
330
1F
100
AcDbEntity
  8
その他
  6
Continuous
 62
     3
370
     9
100
AcDbCircle
 10
-170.2189017630911
 20
258.1216810071791
 30
0.0
 40
2.000000025774982
100
AcDbArc
 50
7.016464233398438
 51
90.0
  0
ARC
  5
346
330
1F
100
AcDbEntity
  8
その他
  6
Continuous
 62
     3
370
     9
100
AcDbCircle
 10
-170.2189017630911
 20
233.6216744087839
 30
0.0
 40
2.000000025774982
100
AcDbArc
 50
270.0
 51
0.0
  0
ARC
  5
347
330
1F
100
AcDbEntity
  8
その他
  6
Continuous
 62
     3
370
     9
100
AcDbCircle
 10
-194.7189083614865
 20
233.6216744087839
 30
0.0
 40
2.000000025774982
100
AcDbArc
 50
180.0
 51
270.0
  0
ARC
  5
348
330
1F
100
AcDbEntity
  8
その他
  6
Continuous
 62
     3
370
     9
100
AcDbCircle
 10
-152.2188918654982
 20
233.6216744087839
 30
0.0
 40
2.000000025774982
100
AcDbArc
 50
180.0
 51
270.0
  0
ARC
  5
349
330
1F
100
AcDbEntity
  8
その他
  6
Continuous
 62
     3
370
     9
100
AcDbCircle
 10
-127.7189347550675
 20
233.6216744087839
 30
0.0
 40
2.000000025774982
100
AcDbArc
 50
270.0
 51
0.0
  0
ARC
  5
34A
330
1F
100
AcDbEntity
  8
その他
  6
Continuous
 62
     3
370
     9
100
AcDbCircle
 10
-127.7189347550675
 20
258.1216810071791
 30
0.0
 40
2.000000025774982
100
AcDbArc
 50
7.016464233398438
 51
90.0
  0
ARC
  5
34B
330
1F
100
AcDbEntity
  8
その他
  6
Continuous
 62
     3
370
     9
100
AcDbCircle
 10
-152.2188918654982
 20
258.1216810071791
 30
0.0
 40
2.000000025774982
100
AcDbArc
 50
90.0
 51
180.0
  0
ARC
  5
34C
330
1F
100
AcDbEntity
  8
その他
  6
Continuous
 62
     3
370
     9
100
AcDbCircle
 10
-152.2188918654982
 20
215.6216150232264
 30
0.0
 40
2.000000025774982
100
AcDbArc
 50
90.0
 51
180.0
  0
ARC
  5
34D
330
1F
100
AcDbEntity
  8
その他
  6
Continuous
 62
     3
370
     9
100
AcDbCircle
 10
-127.7189347550675
 20
215.6216150232264
 30
0.0
 40
2.000000025774982
100
AcDbArc
 50
7.016464233398438
 51
90.0
  0
ARC
  5
34E
330
1F
100
AcDbEntity
  8
その他
  6
Continuous
 62
     3
370
     9
100
AcDbCircle
 10
-127.7189347550675
 20
191.1216579127956
 30
0.0
 40
2.000000025774982
100
AcDbArc
 50
270.0
 51
0.0
  0
ARC
  5
34F
330
1F
100
AcDbEntity
  8
その他
  6
Continuous
 62
     3
370
     9
100
AcDbCircle
 10
-152.2188918654982
 20
191.1216579127956
 30
0.0
 40
2.000000025774982
100
AcDbArc
 50
180.0
 51
270.0
  0
ARC
  5
350
330
1F
100
AcDbEntity
  8
その他
  6
Continuous
 62
     3
370
     9
100
AcDbCircle
 10
-152.2188918654982
 20
148.6216414168075
 30
0.0
 40
2.000000025774982
100
AcDbArc
 50
180.0
 51
270.0
  0
ARC
  5
351
330
1F
100
AcDbEntity
  8
その他
  6
Continuous
 62
     3
370
     9
100
AcDbCircle
 10
-127.7189347550675
 20
148.6216414168075
 30
0.0
 40
2.000000025774982
100
AcDbArc
 50
270.0
 51
0.0
  0
ARC
  5
352
330
1F
100
AcDbEntity
  8
その他
  6
Continuous
 62
     3
370
     9
100
AcDbCircle
 10
-127.7189347550675
 20
173.1216480152027
 30
0.0
 40
2.000000025774982
100
AcDbArc
 50
7.016464233398438
 51
90.0
  0
ARC
  5
353
330
1F
100
AcDbEntity
  8
その他
  6
Continuous
 62
     3
370
     9
100
AcDbCircle
 10
-152.2188918654982
 20
173.1216480152027
 30
0.0
 40
2.000000025774982
100
AcDbArc
 50
90.0
 51
180.0
  0
ARC
  5
354
330
1F
100
AcDbEntity
  8
その他
  6
Continuous
 62
     3
370
     9
100
AcDbCircle
 10
-152.2188918654982
 20
130.6216315192146
 30
0.0
 40
2.000000025774982
100
AcDbArc
 50
90.0
 51
180.0
  0
ARC
  5
355
330
1F
100
AcDbEntity
  8
その他
  6
Continuous
 62
     3
370
     9
100
AcDbCircle
 10
-127.7189347550675
 20
130.6216315192146
 30
0.0
 40
2.000000025774982
100
AcDbArc
 50
7.016464233398438
 51
90.0
  0
ARC
  5
356
330
1F
100
AcDbEntity
  8
その他
  6
Continuous
 62
     3
370
     9
100
AcDbCircle
 10
-127.7189347550675
 20
106.1216249208193
 30
0.0
 40
2.000000025774982
100
AcDbArc
 50
270.0
 51
0.0
  0
ARC
  5
357
330
1F
100
AcDbEntity
  8
その他
  6
Continuous
 62
     3
370
     9
100
AcDbCircle
 10
-152.2188918654982
 20
106.1216249208193
 30
0.0
 40
2.000000025774982
100
AcDbArc
 50
180.0
 51
270.0
  0
ARC
  5
358
330
1F
100
AcDbEntity
  8
その他
  6
Continuous
 62
     3
370
     9
100
AcDbCircle
 10
-152.2188918654982
 20
63.62165791279563
 30
0.0
 40
2.000000025774982
100
AcDbArc
 50
180.0
 51
270.0
  0
ARC
  5
359
330
1F
100
AcDbEntity
  8
その他
  6
Continuous
 62
     3
370
     9
100
AcDbCircle
 10
-127.7189347550675
 20
63.62165791279563
 30
0.0
 40
2.000000025774982
100
AcDbArc
 50
270.0
 51
0.0
  0
ARC
  5
35A
330
1F
100
AcDbEntity
  8
その他
  6
Continuous
 62
     3
370
     9
100
AcDbCircle
 10
-127.7189347550675
 20
88.12166451119094
 30
0.0
 40
2.000000025774982
100
AcDbArc
 50
7.016464233398438
 51
90.0
  0
ARC
  5
35B
330
1F
100
AcDbEntity
  8
その他
  6
Continuous
 62
     3
370
     9
100
AcDbCircle
 10
-152.2188918654982
 20
88.12166451119094
 30
0.0
 40
2.000000025774982
100
AcDbArc
 50
90.0
 51
180.0
  0
ARC
  5
35C
330
1F
100
AcDbEntity
  8
その他
  6
Continuous
 62
     3
370
     9
100
AcDbCircle
 10
-109.7189248574746
 20
88.12166451119094
 30
0.0
 40
2.000000025774982
100
AcDbArc
 50
90.0
 51
180.0
  0
ARC
  5
35D
330
1F
100
AcDbEntity
  8
その他
  6
Continuous
 62
     3
370
     9
100
AcDbCircle
 10
-85.21896774704385
 20
88.12166451119094
 30
0.0
 40
2.000000025774982
100
AcDbArc
 50
7.016464233398438
 51
90.0
  0
ARC
  5
35E
330
1F
100
AcDbEntity
  8
その他
  6
Continuous
 62
     3
370
     9
100
AcDbCircle
 10
-85.21896774704385
 20
63.62165791279563
 30
0.0
 40
2.000000025774982
100
AcDbArc
 50
270.0
 51
0.0
  0
ARC
  5
35F
330
1F
100
AcDbEntity
  8
その他
  6
Continuous
 62
     3
370
     9
100
AcDbCircle
 10
-109.7189248574746
 20
63.62165791279563
 30
0.0
 40
2.000000025774982
100
AcDbArc
 50
180.0
 51
270.0
  0
ARC
  5
360
330
1F
100
AcDbEntity
  8
その他
  6
Continuous
 62
     3
370
     9
100
AcDbCircle
 10
-109.7189248574746
 20
106.1216249208193
 30
0.0
 40
2.000000025774982
100
AcDbArc
 50
180.0
 51
270.0
  0
ARC
  5
361
330
1F
100
AcDbEntity
  8
その他
  6
Continuous
 62
     3
370
     9
100
AcDbCircle
 10
-85.21896774704385
 20
106.1216249208193
 30
0.0
 40
2.000000025774982
100
AcDbArc
 50
270.0
 51
0.0
  0
ARC
  5
362
330
1F
100
AcDbEntity
  8
その他
  6
Continuous
 62
     3
370
     9
100
AcDbCircle
 10
-85.21896774704385
 20
130.6216315192146
 30
0.0
 40
2.000000025774982
100
AcDbArc
 50
7.016464233398438
 51
90.0
  0
ARC
  5
363
330
1F
100
AcDbEntity
  8
その他
  6
Continuous
 62
     3
370
     9
100
AcDbCircle
 10
-109.7189248574746
 20
130.6216315192146
 30
0.0
 40
2.000000025774982
100
AcDbArc
 50
90.0
 51
180.0
  0
ARC
  5
364
330
1F
100
AcDbEntity
  8
その他
  6
Continuous
 62
     3
370
     9
100
AcDbCircle
 10
-109.7189248574746
 20
173.1216480152027
 30
0.0
 40
2.000000025774982
100
AcDbArc
 50
90.0
 51
180.0
  0
ARC
  5
365
330
1F
100
AcDbEntity
  8
その他
  6
Continuous
 62
     3
370
     9
100
AcDbCircle
 10
-85.21896774704385
 20
173.1216480152027
 30
0.0
 40
2.000000025774982
100
AcDbArc
 50
7.016464233398438
 51
90.0
  0
ARC
  5
366
330
1F
100
AcDbEntity
  8
その他
  6
Continuous
 62
     3
370
     9
100
AcDbCircle
 10
-85.21896774704385
 20
148.6216414168075
 30
0.0
 40
2.000000025774982
100
AcDbArc
 50
270.0
 51
0.0
  0
ARC
  5
367
330
1F
100
AcDbEntity
  8
その他
  6
Continuous
 62
     3
370
     9
100
AcDbCircle
 10
-109.7189248574746
 20
148.6216414168075
 30
0.0
 40
2.000000025774982
100
AcDbArc
 50
180.0
 51
270.0
  0
ARC
  5
368
330
1F
100
AcDbEntity
  8
その他
  6
Continuous
 62
     3
370
     9
100
AcDbCircle
 10
-109.7189248574746
 20
191.1216579127956
 30
0.0
 40
2.000000025774982
100
AcDbArc
 50
180.0
 51
270.0
  0
ARC
  5
369
330
1F
100
AcDbEntity
  8
その他
  6
Continuous
 62
     3
370
     9
100
AcDbCircle
 10
-85.21896774704385
 20
191.1216579127956
 30
0.0
 40
2.000000025774982
100
AcDbArc
 50
270.0
 51
0.0
  0
ARC
  5
36A
330
1F
100
AcDbEntity
  8
その他
  6
Continuous
 62
     3
370
     9
100
AcDbCircle
 10
-85.21896774704385
 20
215.6216150232264
 30
0.0
 40
2.000000025774982
100
AcDbArc
 50
7.016464233398438
 51
90.0
  0
ARC
  5
36B
330
1F
100
AcDbEntity
  8
その他
  6
Continuous
 62
     3
370
     9
100
AcDbCircle
 10
-109.7189248574746
 20
215.6216150232264
 30
0.0
 40
2.000000025774982
100
AcDbArc
 50
90.0
 51
180.0
  0
ARC
  5
36C
330
1F
100
AcDbEntity
  8
その他
  6
Continuous
 62
     3
370
     9
100
AcDbCircle
 10
-109.7189248574746
 20
258.1216810071791
 30
0.0
 40
2.000000025774982
100
AcDbArc
 50
90.0
 51
180.0
  0
ARC
  5
36D
330
1F
100
AcDbEntity
  8
その他
  6
Continuous
 62
     3
370
     9
100
AcDbCircle
 10
-85.21896774704385
 20
258.1216810071791
 30
0.0
 40
2.000000025774982
100
AcDbArc
 50
7.016464233398438
 51
90.0
  0
ARC
  5
36E
330
1F
100
AcDbEntity
  8
その他
  6
Continuous
 62
     3
370
     9
100
AcDbCircle
 10
-85.21896774704385
 20
233.6216744087839
 30
0.0
 40
2.000000025774982
100
AcDbArc
 50
270.0
 51
0.0
  0
ARC
  5
36F
330
1F
100
AcDbEntity
  8
その他
  6
Continuous
 62
     3
370
     9
100
AcDbCircle
 10
-109.7189248574746
 20
233.6216744087839
 30
0.0
 40
2.000000025774982
100
AcDbArc
 50
180.0
 51
270.0
  0
ARC
  5
370
330
1F
100
AcDbEntity
  8
その他
  6
Continuous
 62
     3
370
     9
100
AcDbCircle
 10
-109.7189248574746
 20
-124.37841796875
 30
0.0
 40
2.000000025774982
100
AcDbArc
 50
90.0
 51
180.0
  0
ARC
  5
371
330
1F
100
AcDbEntity
  8
その他
  6
Continuous
 62
     3
370
     9
100
AcDbCircle
 10
-85.21896774704385
 20
-124.37841796875
 30
0.0
 40
2.000000025774982
100
AcDbArc
 50
1.403289794921875
 51
90.0
  0
ARC
  5
372
330
1F
100
AcDbEntity
  8
その他
  6
Continuous
 62
     3
370
     9
100
AcDbCircle
 10
-85.21896774704385
 20
-148.8783750791807
 30
0.0
 40
2.000000025774982
100
AcDbArc
 50
270.0
 51
0.0
  0
ARC
  5
373
330
1F
100
AcDbEntity
  8
その他
  6
Continuous
 62
     3
370
     9
100
AcDbCircle
 10
-109.7189248574746
 20
-148.8783750791807
 30
0.0
 40
2.000000025774982
100
AcDbArc
 50
180.0
 51
270.0
  0
ARC
  5
374
330
1F
100
AcDbEntity
  8
その他
  6
Continuous
 62
     3
370
     9
100
AcDbCircle
 10
-109.7189248574746
 20
-106.3783585831926
 30
0.0
 40
2.000000025774982
100
AcDbArc
 50
180.0
 51
270.0
  0
ARC
  5
375
330
1F
100
AcDbEntity
  8
その他
  6
Continuous
 62
     3
370
     9
100
AcDbCircle
 10
-85.21896774704385
 20
-106.3783585831926
 30
0.0
 40
2.000000025774982
100
AcDbArc
 50
270.0
 51
0.0
  0
ARC
  5
376
330
1F
100
AcDbEntity
  8
その他
  6
Continuous
 62
     3
370
     9
100
AcDbCircle
 10
-85.21896774704385
 20
-81.87835198479729
 30
0.0
 40
2.000000025774982
100
AcDbArc
 50
1.403289794921875
 51
90.0
  0
ARC
  5
377
330
1F
100
AcDbEntity
  8
その他
  6
Continuous
 62
     3
370
     9
100
AcDbCircle
 10
-109.7189248574746
 20
-81.87835198479729
 30
0.0
 40
2.000000025774982
100
AcDbArc
 50
90.0
 51
180.0
  0
ARC
  5
378
330
1F
100
AcDbEntity
  8
その他
  6
Continuous
 62
     3
370
     9
100
AcDbCircle
 10
-109.7189248574746
 20
-39.37833548880906
 30
0.0
 40
2.000000025774982
100
AcDbArc
 50
90.0
 51
180.0
  0
ARC
  5
379
330
1F
100
AcDbEntity
  8
その他
  6
Continuous
 62
     3
370
     9
100
AcDbCircle
 10
-85.21896774704385
 20
-39.37833548880906
 30
0.0
 40
2.000000025774982
100
AcDbArc
 50
1.403289794921875
 51
90.0
  0
ARC
  5
37A
330
1F
100
AcDbEntity
  8
その他
  6
Continuous
 62
     3
370
     9
100
AcDbCircle
 10
-85.21896774704385
 20
-63.87834208720437
 30
0.0
 40
2.000000025774982
100
AcDbArc
 50
270.0
 51
0.0
  0
ARC
  5
37B
330
1F
100
AcDbEntity
  8
その他
  6
Continuous
 62
     3
370
     9
100
AcDbCircle
 10
-109.7189248574746
 20
-63.87834208720437
 30
0.0
 40
2.000000025774982
100
AcDbArc
 50
180.0
 51
270.0
  0
ARC
  5
37C
330
1F
100
AcDbEntity
  8
その他
  6
Continuous
 62
     3
370
     9
100
AcDbCircle
 10
-109.7189248574746
 20
-21.37837507918073
 30
0.0
 40
2.000000025774982
100
AcDbArc
 50
180.0
 51
270.0
  0
ARC
  5
37D
330
1F
100
AcDbEntity
  8
その他
  6
Continuous
 62
     3
370
     9
100
AcDbCircle
 10
-85.21896774704385
 20
-21.37837507918073
 30
0.0
 40
2.000000025774982
100
AcDbArc
 50
270.0
 51
0.0
  0
ARC
  5
37E
330
1F
100
AcDbEntity
  8
その他
  6
Continuous
 62
     3
370
     9
100
AcDbCircle
 10
-85.21896774704385
 20
3.121631519214588
 30
0.0
 40
2.000000025774982
100
AcDbArc
 50
1.403289794921875
 51
90.0
  0
ARC
  5
37F
330
1F
100
AcDbEntity
  8
その他
  6
Continuous
 62
     3
370
     9
100
AcDbCircle
 10
-109.7189248574746
 20
3.121631519214588
 30
0.0
 40
2.000000025774982
100
AcDbArc
 50
90.0
 51
180.0
  0
ARC
  5
380
330
1F
100
AcDbEntity
  8
その他
  6
Continuous
 62
     3
370
     9
100
AcDbCircle
 10
-109.7189248574746
 20
45.62164801520271
 30
0.0
 40
2.000000025774982
100
AcDbArc
 50
90.0
 51
180.0
  0
ARC
  5
381
330
1F
100
AcDbEntity
  8
その他
  6
Continuous
 62
     3
370
     9
100
AcDbCircle
 10
-85.21896774704385
 20
45.62164801520271
 30
0.0
 40
2.000000025774982
100
AcDbArc
 50
1.403289794921875
 51
90.0
  0
ARC
  5
382
330
1F
100
AcDbEntity
  8
その他
  6
Continuous
 62
     3
370
     9
100
AcDbCircle
 10
-85.21896774704385
 20
21.12164141680751
 30
0.0
 40
2.000000025774982
100
AcDbArc
 50
270.0
 51
0.0
  0
ARC
  5
383
330
1F
100
AcDbEntity
  8
その他
  6
Continuous
 62
     3
370
     9
100
AcDbCircle
 10
-109.7189248574746
 20
21.12164141680751
 30
0.0
 40
2.000000025774982
100
AcDbArc
 50
180.0
 51
270.0
  0
ARC
  5
384
330
1F
100
AcDbEntity
  8
その他
  6
Continuous
 62
     3
370
     9
100
AcDbCircle
 10
-152.2188918654982
 20
21.12164141680751
 30
0.0
 40
2.000000025774982
100
AcDbArc
 50
180.0
 51
270.0
  0
ARC
  5
385
330
1F
100
AcDbEntity
  8
その他
  6
Continuous
 62
     3
370
     9
100
AcDbCircle
 10
-127.7189347550675
 20
21.12164141680751
 30
0.0
 40
2.000000025774982
100
AcDbArc
 50
270.0
 51
0.0
  0
ARC
  5
386
330
1F
100
AcDbEntity
  8
その他
  6
Continuous
 62
     3
370
     9
100
AcDbCircle
 10
-127.7189347550675
 20
45.62164801520271
 30
0.0
 40
2.000000025774982
100
AcDbArc
 50
1.403289794921875
 51
90.0
  0
ARC
  5
387
330
1F
100
AcDbEntity
  8
その他
  6
Continuous
 62
     3
370
     9
100
AcDbCircle
 10
-152.2188918654982
 20
45.62164801520271
 30
0.0
 40
2.000000025774982
100
AcDbArc
 50
90.0
 51
180.0
  0
ARC
  5
388
330
1F
100
AcDbEntity
  8
その他
  6
Continuous
 62
     3
370
     9
100
AcDbCircle
 10
-152.2188918654982
 20
3.121631519214588
 30
0.0
 40
2.000000025774982
100
AcDbArc
 50
90.0
 51
180.0
  0
ARC
  5
389
330
1F
100
AcDbEntity
  8
その他
  6
Continuous
 62
     3
370
     9
100
AcDbCircle
 10
-127.7189347550675
 20
3.121631519214588
 30
0.0
 40
2.000000025774982
100
AcDbArc
 50
1.403289794921875
 51
90.0
  0
ARC
  5
38A
330
1F
100
AcDbEntity
  8
その他
  6
Continuous
 62
     3
370
     9
100
AcDbCircle
 10
-127.7189347550675
 20
-21.37837507918073
 30
0.0
 40
2.000000025774982
100
AcDbArc
 50
270.0
 51
0.0
  0
ARC
  5
38B
330
1F
100
AcDbEntity
  8
その他
  6
Continuous
 62
     3
370
     9
100
AcDbCircle
 10
-152.2188918654982
 20
-21.37837507918073
 30
0.0
 40
2.000000025774982
100
AcDbArc
 50
180.0
 51
270.0
  0
ARC
  5
38C
330
1F
100
AcDbEntity
  8
その他
  6
Continuous
 62
     3
370
     9
100
AcDbCircle
 10
-152.2188918654982
 20
-63.87834208720437
 30
0.0
 40
2.000000025774982
100
AcDbArc
 50
180.0
 51
270.0
  0
ARC
  5
38D
330
1F
100
AcDbEntity
  8
その他
  6
Continuous
 62
     3
370
     9
100
AcDbCircle
 10
-127.7189347550675
 20
-63.87834208720437
 30
0.0
 40
2.000000025774982
100
AcDbArc
 50
270.0
 51
0.0
  0
ARC
  5
38E
330
1F
100
AcDbEntity
  8
その他
  6
Continuous
 62
     3
370
     9
100
AcDbCircle
 10
-127.7189347550675
 20
-39.37833548880906
 30
0.0
 40
2.000000025774982
100
AcDbArc
 50
1.403289794921875
 51
90.0
  0
ARC
  5
38F
330
1F
100
AcDbEntity
  8
その他
  6
Continuous
 62
     3
370
     9
100
AcDbCircle
 10
-152.2188918654982
 20
-39.37833548880906
 30
0.0
 40
2.000000025774982
100
AcDbArc
 50
90.0
 51
180.0
  0
ARC
  5
390
330
1F
100
AcDbEntity
  8
その他
  6
Continuous
 62
     3
370
     9
100
AcDbCircle
 10
-152.2188918654982
 20
-81.87835198479729
 30
0.0
 40
2.000000025774982
100
AcDbArc
 50
90.0
 51
180.0
  0
ARC
  5
391
330
1F
100
AcDbEntity
  8
その他
  6
Continuous
 62
     3
370
     9
100
AcDbCircle
 10
-127.7189347550675
 20
-81.87835198479729
 30
0.0
 40
2.000000025774982
100
AcDbArc
 50
1.403289794921875
 51
90.0
  0
ARC
  5
392
330
1F
100
AcDbEntity
  8
その他
  6
Continuous
 62
     3
370
     9
100
AcDbCircle
 10
-127.7189347550675
 20
-106.3783585831926
 30
0.0
 40
2.000000025774982
100
AcDbArc
 50
270.0
 51
0.0
  0
ARC
  5
393
330
1F
100
AcDbEntity
  8
その他
  6
Continuous
 62
     3
370
     9
100
AcDbCircle
 10
-152.2188918654982
 20
-106.3783585831926
 30
0.0
 40
2.000000025774982
100
AcDbArc
 50
180.0
 51
270.0
  0
ARC
  5
394
330
1F
100
AcDbEntity
  8
その他
  6
Continuous
 62
     3
370
     9
100
AcDbCircle
 10
-152.2188918654982
 20
-148.8783750791807
 30
0.0
 40
2.000000025774982
100
AcDbArc
 50
180.0
 51
270.0
  0
ARC
  5
395
330
1F
100
AcDbEntity
  8
その他
  6
Continuous
 62
     3
370
     9
100
AcDbCircle
 10
-127.7189347550675
 20
-148.8783750791807
 30
0.0
 40
2.000000025774982
100
AcDbArc
 50
270.0
 51
0.0
  0
ARC
  5
396
330
1F
100
AcDbEntity
  8
その他
  6
Continuous
 62
     3
370
     9
100
AcDbCircle
 10
-127.7189347550675
 20
-124.37841796875
 30
0.0
 40
2.000000025774982
100
AcDbArc
 50
1.403289794921875
 51
90.0
  0
ARC
  5
397
330
1F
100
AcDbEntity
  8
その他
  6
Continuous
 62
     3
370
     9
100
AcDbCircle
 10
-152.2188918654982
 20
-124.37841796875
 30
0.0
 40
2.000000025774982
100
AcDbArc
 50
90.0
 51
180.0
  0
ARC
  5
398
330
1F
100
AcDbEntity
  8
その他
  6
Continuous
 62
     3
370
     9
100
AcDbCircle
 10
-194.7189083614865
 20
-124.37841796875
 30
0.0
 40
2.000000025774982
100
AcDbArc
 50
90.0
 51
180.0
  0
ARC
  5
399
330
1F
100
AcDbEntity
  8
その他
  6
Continuous
 62
     3
370
     9
100
AcDbCircle
 10
-170.2189017630911
 20
-124.37841796875
 30
0.0
 40
2.000000025774982
100
AcDbArc
 50
1.403289794921875
 51
90.0
  0
ARC
  5
39A
330
1F
100
AcDbEntity
  8
その他
  6
Continuous
 62
     3
370
     9
100
AcDbCircle
 10
-170.2189017630911
 20
-148.8783750791807
 30
0.0
 40
2.000000025774982
100
AcDbArc
 50
270.0
 51
0.0
  0
ARC
  5
39B
330
1F
100
AcDbEntity
  8
その他
  6
Continuous
 62
     3
370
     9
100
AcDbCircle
 10
-194.7189083614865
 20
-148.8783750791807
 30
0.0
 40
2.000000025774982
100
AcDbArc
 50
180.0
 51
270.0
  0
ARC
  5
39C
330
1F
100
AcDbEntity
  8
その他
  6
Continuous
 62
     3
370
     9
100
AcDbCircle
 10
-194.7189083614865
 20
-106.3783585831926
 30
0.0
 40
2.000000025774982
100
AcDbArc
 50
180.0
 51
270.0
  0
ARC
  5
39D
330
1F
100
AcDbEntity
  8
その他
  6
Continuous
 62
     3
370
     9
100
AcDbCircle
 10
-170.2189017630911
 20
-106.3783585831926
 30
0.0
 40
2.000000025774982
100
AcDbArc
 50
270.0
 51
0.0
  0
ARC
  5
39E
330
1F
100
AcDbEntity
  8
その他
  6
Continuous
 62
     3
370
     9
100
AcDbCircle
 10
-170.2189017630911
 20
-81.87835198479729
 30
0.0
 40
2.000000025774982
100
AcDbArc
 50
1.403289794921875
 51
90.0
  0
ARC
  5
39F
330
1F
100
AcDbEntity
  8
その他
  6
Continuous
 62
     3
370
     9
100
AcDbCircle
 10
-194.7189083614865
 20
-81.87835198479729
 30
0.0
 40
2.000000025774982
100
AcDbArc
 50
90.0
 51
180.0
  0
ARC
  5
3A0
330
1F
100
AcDbEntity
  8
その他
  6
Continuous
 62
     3
370
     9
100
AcDbCircle
 10
-194.7189083614865
 20
-39.37833548880906
 30
0.0
 40
2.000000025774982
100
AcDbArc
 50
90.0
 51
180.0
  0
ARC
  5
3A1
330
1F
100
AcDbEntity
  8
その他
  6
Continuous
 62
     3
370
     9
100
AcDbCircle
 10
-170.2189017630911
 20
-39.37833548880906
 30
0.0
 40
2.000000025774982
100
AcDbArc
 50
1.403289794921875
 51
90.0
  0
ARC
  5
3A2
330
1F
100
AcDbEntity
  8
その他
  6
Continuous
 62
     3
370
     9
100
AcDbCircle
 10
-170.2189017630911
 20
-63.87834208720437
 30
0.0
 40
2.000000025774982
100
AcDbArc
 50
270.0
 51
0.0
  0
ARC
  5
3A3
330
1F
100
AcDbEntity
  8
その他
  6
Continuous
 62
     3
370
     9
100
AcDbCircle
 10
-194.7189083614865
 20
-63.87834208720437
 30
0.0
 40
2.000000025774982
100
AcDbArc
 50
180.0
 51
270.0
  0
ARC
  5
3A4
330
1F
100
AcDbEntity
  8
その他
  6
Continuous
 62
     3
370
     9
100
AcDbCircle
 10
-194.7189083614865
 20
-21.37837507918073
 30
0.0
 40
2.000000025774982
100
AcDbArc
 50
180.0
 51
270.0
  0
ARC
  5
3A5
330
1F
100
AcDbEntity
  8
その他
  6
Continuous
 62
     3
370
     9
100
AcDbCircle
 10
-170.2189017630911
 20
-21.37837507918073
 30
0.0
 40
2.000000025774982
100
AcDbArc
 50
270.0
 51
0.0
  0
ARC
  5
3A6
330
1F
100
AcDbEntity
  8
その他
  6
Continuous
 62
     3
370
     9
100
AcDbCircle
 10
-170.2189017630911
 20
3.121631519214588
 30
0.0
 40
2.000000025774982
100
AcDbArc
 50
1.403289794921875
 51
90.0
  0
ARC
  5
3A7
330
1F
100
AcDbEntity
  8
その他
  6
Continuous
 62
     3
370
     9
100
AcDbCircle
 10
-194.7189083614865
 20
3.121631519214588
 30
0.0
 40
2.000000025774982
100
AcDbArc
 50
90.0
 51
180.0
  0
ARC
  5
3A8
330
1F
100
AcDbEntity
  8
その他
  6
Continuous
 62
     3
370
     9
100
AcDbCircle
 10
-194.7189083614865
 20
45.62164801520271
 30
0.0
 40
2.000000025774982
100
AcDbArc
 50
90.0
 51
180.0
  0
ARC
  5
3A9
330
1F
100
AcDbEntity
  8
その他
  6
Continuous
 62
     3
370
     9
100
AcDbCircle
 10
-170.2189017630911
 20
45.62164801520271
 30
0.0
 40
2.000000025774982
100
AcDbArc
 50
1.403289794921875
 51
90.0
  0
ARC
  5
3AA
330
1F
100
AcDbEntity
  8
その他
  6
Continuous
 62
     3
370
     9
100
AcDbCircle
 10
-170.2189017630911
 20
21.12164141680751
 30
0.0
 40
2.000000025774982
100
AcDbArc
 50
270.0
 51
0.0
  0
ARC
  5
3AB
330
1F
100
AcDbEntity
  8
その他
  6
Continuous
 62
     3
370
     9
100
AcDbCircle
 10
-194.7189083614865
 20
21.12164141680751
 30
0.0
 40
2.000000025774982
100
AcDbArc
 50
180.0
 51
270.0
  0
ARC
  5
3AC
330
1F
100
AcDbEntity
  8
その他
  6
Continuous
 62
     3
370
     9
100
AcDbCircle
 10
-237.2189743454392
 20
21.12164141680751
 30
0.0
 40
2.000000025774982
100
AcDbArc
 50
180.0
 51
270.0
  0
ARC
  5
3AD
330
1F
100
AcDbEntity
  8
その他
  6
Continuous
 62
     3
370
     9
100
AcDbCircle
 10
-212.7188687711148
 20
21.12164141680751
 30
0.0
 40
2.000000025774982
100
AcDbArc
 50
270.0
 51
0.0
  0
ARC
  5
3AE
330
1F
100
AcDbEntity
  8
その他
  6
Continuous
 62
     3
370
     9
100
AcDbCircle
 10
-212.7188687711148
 20
45.62164801520271
 30
0.0
 40
2.000000025774982
100
AcDbArc
 50
1.403289794921875
 51
90.0
  0
ARC
  5
3AF
330
1F
100
AcDbEntity
  8
その他
  6
Continuous
 62
     3
370
     9
100
AcDbCircle
 10
-237.2189743454392
 20
45.62164801520271
 30
0.0
 40
2.000000025774982
100
AcDbArc
 50
90.0
 51
180.0
  0
ARC
  5
3B0
330
1F
100
AcDbEntity
  8
その他
  6
Continuous
 62
     3
370
     9
100
AcDbCircle
 10
-237.2189743454392
 20
3.121631519214588
 30
0.0
 40
2.000000025774982
100
AcDbArc
 50
90.0
 51
180.0
  0
ARC
  5
3B1
330
1F
100
AcDbEntity
  8
その他
  6
Continuous
 62
     3
370
     9
100
AcDbCircle
 10
-212.7188687711148
 20
3.121631519214588
 30
0.0
 40
2.000000025774982
100
AcDbArc
 50
1.403289794921875
 51
90.0
  0
ARC
  5
3B2
330
1F
100
AcDbEntity
  8
その他
  6
Continuous
 62
     3
370
     9
100
AcDbCircle
 10
-212.7188687711148
 20
-21.37837507918073
 30
0.0
 40
2.000000025774982
100
AcDbArc
 50
270.0
 51
0.0
  0
ARC
  5
3B3
330
1F
100
AcDbEntity
  8
その他
  6
Continuous
 62
     3
370
     9
100
AcDbCircle
 10
-237.2189743454392
 20
-21.37837507918073
 30
0.0
 40
2.000000025774982
100
AcDbArc
 50
180.0
 51
270.0
  0
ARC
  5
3B4
330
1F
100
AcDbEntity
  8
その他
  6
Continuous
 62
     3
370
     9
100
AcDbCircle
 10
-237.2189743454392
 20
-63.87834208720437
 30
0.0
 40
2.000000025774982
100
AcDbArc
 50
180.0
 51
270.0
  0
ARC
  5
3B5
330
1F
100
AcDbEntity
  8
その他
  6
Continuous
 62
     3
370
     9
100
AcDbCircle
 10
-212.7188687711148
 20
-63.87834208720437
 30
0.0
 40
2.000000025774982
100
AcDbArc
 50
270.0
 51
0.0
  0
ARC
  5
3B6
330
1F
100
AcDbEntity
  8
その他
  6
Continuous
 62
     3
370
     9
100
AcDbCircle
 10
-212.7188687711148
 20
-39.37833548880906
 30
0.0
 40
2.000000025774982
100
AcDbArc
 50
1.403289794921875
 51
90.0
  0
ARC
  5
3B7
330
1F
100
AcDbEntity
  8
その他
  6
Continuous
 62
     3
370
     9
100
AcDbCircle
 10
-237.2189743454392
 20
-39.37833548880906
 30
0.0
 40
2.000000025774982
100
AcDbArc
 50
90.0
 51
180.0
  0
ARC
  5
3B8
330
1F
100
AcDbEntity
  8
その他
  6
Continuous
 62
     3
370
     9
100
AcDbCircle
 10
-237.2189743454392
 20
-81.87835198479729
 30
0.0
 40
2.000000025774982
100
AcDbArc
 50
90.0
 51
180.0
  0
ARC
  5
3B9
330
1F
100
AcDbEntity
  8
その他
  6
Continuous
 62
     3
370
     9
100
AcDbCircle
 10
-212.7188687711148
 20
-81.87835198479729
 30
0.0
 40
2.000000025774982
100
AcDbArc
 50
1.403289794921875
 51
90.0
  0
ARC
  5
3BA
330
1F
100
AcDbEntity
  8
その他
  6
Continuous
 62
     3
370
     9
100
AcDbCircle
 10
-212.7188687711148
 20
-106.3783585831926
 30
0.0
 40
2.000000025774982
100
AcDbArc
 50
270.0
 51
0.0
  0
ARC
  5
3BB
330
1F
100
AcDbEntity
  8
その他
  6
Continuous
 62
     3
370
     9
100
AcDbCircle
 10
-237.2189743454392
 20
-106.3783585831926
 30
0.0
 40
2.000000025774982
100
AcDbArc
 50
180.0
 51
270.0
  0
ARC
  5
3BC
330
1F
100
AcDbEntity
  8
その他
  6
Continuous
 62
     3
370
     9
100
AcDbCircle
 10
-237.2189743454392
 20
-148.8783750791807
 30
0.0
 40
2.000000025774982
100
AcDbArc
 50
180.0
 51
270.0
  0
ARC
  5
3BD
330
1F
100
AcDbEntity
  8
その他
  6
Continuous
 62
     3
370
     9
100
AcDbCircle
 10
-212.7188687711148
 20
-148.8783750791807
 30
0.0
 40
2.000000025774982
100
AcDbArc
 50
270.0
 51
0.0
  0
ARC
  5
3BE
330
1F
100
AcDbEntity
  8
その他
  6
Continuous
 62
     3
370
     9
100
AcDbCircle
 10
-212.7188687711148
 20
-124.37841796875
 30
0.0
 40
2.000000025774982
100
AcDbArc
 50
1.403289794921875
 51
90.0
  0
ARC
  5
3BF
330
1F
100
AcDbEntity
  8
その他
  6
Continuous
 62
     3
370
     9
100
AcDbCircle
 10
-237.2189743454392
 20
-124.37841796875
 30
0.0
 40
2.000000025774982
100
AcDbArc
 50
90.0
 51
180.0
  0
ARC
  5
3C0
330
1F
100
AcDbEntity
  8
その他
  6
Continuous
 62
     3
370
     9
100
AcDbCircle
 10
-279.7188918654983
 20
-124.37841796875
 30
0.0
 40
2.000000025774982
100
AcDbArc
 50
90.0
 51
180.0
  0
ARC
  5
3C1
330
1F
100
AcDbEntity
  8
その他
  6
Continuous
 62
     3
370
     9
100
AcDbCircle
 10
-255.2189347550675
 20
-124.37841796875
 30
0.0
 40
2.000000025774982
100
AcDbArc
 50
1.403289794921875
 51
90.0
  0
ARC
  5
3C2
330
1F
100
AcDbEntity
  8
その他
  6
Continuous
 62
     3
370
     9
100
AcDbCircle
 10
-255.2189347550675
 20
-148.8783750791807
 30
0.0
 40
2.000000025774982
100
AcDbArc
 50
270.0
 51
0.0
  0
ARC
  5
3C3
330
1F
100
AcDbEntity
  8
その他
  6
Continuous
 62
     3
370
     9
100
AcDbCircle
 10
-279.7188918654983
 20
-148.8783750791807
 30
0.0
 40
2.000000025774982
100
AcDbArc
 50
180.0
 51
270.0
  0
ARC
  5
3C4
330
1F
100
AcDbEntity
  8
その他
  6
Continuous
 62
     3
370
     9
100
AcDbCircle
 10
-279.7188918654983
 20
-106.3783585831926
 30
0.0
 40
2.000000025774982
100
AcDbArc
 50
180.0
 51
270.0
  0
ARC
  5
3C5
330
1F
100
AcDbEntity
  8
その他
  6
Continuous
 62
     3
370
     9
100
AcDbCircle
 10
-255.2189347550675
 20
-106.3783585831926
 30
0.0
 40
2.000000025774982
100
AcDbArc
 50
270.0
 51
0.0
  0
ARC
  5
3C6
330
1F
100
AcDbEntity
  8
その他
  6
Continuous
 62
     3
370
     9
100
AcDbCircle
 10
-255.2189347550675
 20
-81.87835198479729
 30
0.0
 40
2.000000025774982
100
AcDbArc
 50
1.403289794921875
 51
90.0
  0
ARC
  5
3C7
330
1F
100
AcDbEntity
  8
その他
  6
Continuous
 62
     3
370
     9
100
AcDbCircle
 10
-279.7188918654983
 20
-81.87835198479729
 30
0.0
 40
2.000000025774982
100
AcDbArc
 50
90.0
 51
180.0
  0
ARC
  5
3C8
330
1F
100
AcDbEntity
  8
その他
  6
Continuous
 62
     3
370
     9
100
AcDbCircle
 10
-279.7188918654983
 20
-39.37833548880906
 30
0.0
 40
2.000000025774982
100
AcDbArc
 50
90.0
 51
180.0
  0
ARC
  5
3C9
330
1F
100
AcDbEntity
  8
その他
  6
Continuous
 62
     3
370
     9
100
AcDbCircle
 10
-255.2189347550675
 20
-39.37833548880906
 30
0.0
 40
2.000000025774982
100
AcDbArc
 50
1.403289794921875
 51
90.0
  0
ARC
  5
3CA
330
1F
100
AcDbEntity
  8
その他
  6
Continuous
 62
     3
370
     9
100
AcDbCircle
 10
-255.2189347550675
 20
-63.87834208720437
 30
0.0
 40
2.000000025774982
100
AcDbArc
 50
270.0
 51
0.0
  0
ARC
  5
3CB
330
1F
100
AcDbEntity
  8
その他
  6
Continuous
 62
     3
370
     9
100
AcDbCircle
 10
-279.7188918654983
 20
-63.87834208720437
 30
0.0
 40
2.000000025774982
100
AcDbArc
 50
180.0
 51
270.0
  0
ARC
  5
3CC
330
1F
100
AcDbEntity
  8
その他
  6
Continuous
 62
     3
370
     9
100
AcDbCircle
 10
-279.7188918654983
 20
-21.37837507918073
 30
0.0
 40
2.000000025774982
100
AcDbArc
 50
180.0
 51
270.0
  0
ARC
  5
3CD
330
1F
100
AcDbEntity
  8
その他
  6
Continuous
 62
     3
370
     9
100
AcDbCircle
 10
-255.2189347550675
 20
-21.37837507918073
 30
0.0
 40
2.000000025774982
100
AcDbArc
 50
270.0
 51
0.0
  0
ARC
  5
3CE
330
1F
100
AcDbEntity
  8
その他
  6
Continuous
 62
     3
370
     9
100
AcDbCircle
 10
-255.2189347550675
 20
3.121631519214588
 30
0.0
 40
2.000000025774982
100
AcDbArc
 50
1.403289794921875
 51
90.0
  0
ARC
  5
3CF
330
1F
100
AcDbEntity
  8
その他
  6
Continuous
 62
     3
370
     9
100
AcDbCircle
 10
-279.7188918654983
 20
3.121631519214588
 30
0.0
 40
2.000000025774982
100
AcDbArc
 50
90.0
 51
180.0
  0
ARC
  5
3D0
330
1F
100
AcDbEntity
  8
その他
  6
Continuous
 62
     3
370
     9
100
AcDbCircle
 10
-279.7188918654983
 20
45.62164801520271
 30
0.0
 40
2.000000025774982
100
AcDbArc
 50
90.0
 51
180.0
  0
ARC
  5
3D1
330
1F
100
AcDbEntity
  8
その他
  6
Continuous
 62
     3
370
     9
100
AcDbCircle
 10
-255.2189347550675
 20
45.62164801520271
 30
0.0
 40
2.000000025774982
100
AcDbArc
 50
1.403289794921875
 51
90.0
  0
ARC
  5
3D2
330
1F
100
AcDbEntity
  8
その他
  6
Continuous
 62
     3
370
     9
100
AcDbCircle
 10
-255.2189347550675
 20
21.12164141680751
 30
0.0
 40
2.000000025774982
100
AcDbArc
 50
270.0
 51
0.0
  0
ARC
  5
3D3
330
1F
100
AcDbEntity
  8
その他
  6
Continuous
 62
     3
370
     9
100
AcDbCircle
 10
-279.7188918654983
 20
21.12164141680751
 30
0.0
 40
2.000000025774982
100
AcDbArc
 50
180.0
 51
270.0
  0
CIRCLE
  5
3D4
330
1F
100
AcDbEntity
  8
その他
  6
Continuous
 62
     2
370
     9
100
AcDbCircle
 10
-158.5189077016469
 20
-180.0783592430321
 30
0.0
 40
4.500000154649889
  0
ARC
  5
3D5
330
1F
100
AcDbEntity
  8
その他
  6
Continuous
 62
     2
370
     9
100
AcDbCircle
 10
-418.9188859269426
 20
-180.0783592430321
 30
0.0
 40
4.500000154649889
100
AcDbArc
 50
2.104934692382813
 51
0.0
  0
ARC
  5
3D6
330
1F
100
AcDbEntity
  8
その他
  6
Continuous
 62
     3
370
     9
100
AcDbCircle
 10
-297.7189017630911
 20
21.12164141680751
 30
0.0
 40
2.000000025774982
100
AcDbArc
 50
270.0
 51
0.0
  0
ARC
  5
3D7
330
1F
100
AcDbEntity
  8
その他
  6
Continuous
 62
     3
370
     9
100
AcDbCircle
 10
-322.2188093855574
 20
21.12164141680751
 30
0.0
 40
2.000000025774982
100
AcDbArc
 50
180.0
 51
270.0
  0
ARC
  5
3D8
330
1F
100
AcDbEntity
  8
その他
  6
Continuous
 62
     3
370
     9
100
AcDbCircle
 10
-322.2188093855574
 20
45.62164801520271
 30
0.0
 40
2.000000025774982
100
AcDbArc
 50
90.0
 51
180.0
  0
ARC
  5
3D9
330
1F
100
AcDbEntity
  8
その他
  6
Continuous
 62
     3
370
     9
100
AcDbCircle
 10
-297.7189017630911
 20
45.62164801520271
 30
0.0
 40
2.000000025774982
100
AcDbArc
 50
7.016464233398438
 51
90.0
  0
ARC
  5
3DA
330
1F
100
AcDbEntity
  8
その他
  6
Continuous
 62
     3
370
     9
100
AcDbCircle
 10
-297.7189017630911
 20
3.121631519214588
 30
0.0
 40
2.000000025774982
100
AcDbArc
 50
7.016464233398438
 51
90.0
  0
ARC
  5
3DB
330
1F
100
AcDbEntity
  8
その他
  6
Continuous
 62
     3
370
     9
100
AcDbCircle
 10
-322.2188093855574
 20
3.121631519214588
 30
0.0
 40
2.000000025774982
100
AcDbArc
 50
90.0
 51
180.0
  0
ARC
  5
3DC
330
1F
100
AcDbEntity
  8
その他
  6
Continuous
 62
     3
370
     9
100
AcDbCircle
 10
-322.2188093855574
 20
-21.37837507918073
 30
0.0
 40
2.000000025774982
100
AcDbArc
 50
180.0
 51
270.0
  0
ARC
  5
3DD
330
1F
100
AcDbEntity
  8
その他
  6
Continuous
 62
     3
370
     9
100
AcDbCircle
 10
-297.7189017630911
 20
-21.37837507918073
 30
0.0
 40
2.000000025774982
100
AcDbArc
 50
270.0
 51
0.0
  0
ARC
  5
3DE
330
1F
100
AcDbEntity
  8
その他
  6
Continuous
 62
     3
370
     9
100
AcDbCircle
 10
-297.7189017630911
 20
-63.87834208720437
 30
0.0
 40
2.000000025774982
100
AcDbArc
 50
270.0
 51
0.0
  0
ARC
  5
3DF
330
1F
100
AcDbEntity
  8
その他
  6
Continuous
 62
     3
370
     9
100
AcDbCircle
 10
-322.2188093855574
 20
-63.87834208720437
 30
0.0
 40
2.000000025774982
100
AcDbArc
 50
180.0
 51
270.0
  0
ARC
  5
3E0
330
1F
100
AcDbEntity
  8
その他
  6
Continuous
 62
     3
370
     9
100
AcDbCircle
 10
-322.2188093855574
 20
-39.37833548880906
 30
0.0
 40
2.000000025774982
100
AcDbArc
 50
90.0
 51
180.0
  0
ARC
  5
3E1
330
1F
100
AcDbEntity
  8
その他
  6
Continuous
 62
     3
370
     9
100
AcDbCircle
 10
-297.7189017630911
 20
-39.37833548880906
 30
0.0
 40
2.000000025774982
100
AcDbArc
 50
7.016464233398438
 51
90.0
  0
ARC
  5
3E2
330
1F
100
AcDbEntity
  8
その他
  6
Continuous
 62
     3
370
     9
100
AcDbCircle
 10
-297.7189017630911
 20
-81.87835198479729
 30
0.0
 40
2.000000025774982
100
AcDbArc
 50
7.016464233398438
 51
90.0
  0
ARC
  5
3E3
330
1F
100
AcDbEntity
  8
その他
  6
Continuous
 62
     3
370
     9
100
AcDbCircle
 10
-322.2188093855574
 20
-81.87835198479729
 30
0.0
 40
2.000000025774982
100
AcDbArc
 50
90.0
 51
180.0
  0
ARC
  5
3E4
330
1F
100
AcDbEntity
  8
その他
  6
Continuous
 62
     3
370
     9
100
AcDbCircle
 10
-322.2188093855574
 20
-106.3783585831926
 30
0.0
 40
2.000000025774982
100
AcDbArc
 50
180.0
 51
270.0
  0
ARC
  5
3E5
330
1F
100
AcDbEntity
  8
その他
  6
Continuous
 62
     3
370
     9
100
AcDbCircle
 10
-297.7189017630911
 20
-106.3783585831926
 30
0.0
 40
2.000000025774982
100
AcDbArc
 50
270.0
 51
0.0
  0
ARC
  5
3E6
330
1F
100
AcDbEntity
  8
その他
  6
Continuous
 62
     3
370
     9
100
AcDbCircle
 10
-297.7189017630911
 20
-148.8783750791807
 30
0.0
 40
2.000000025774982
100
AcDbArc
 50
270.0
 51
0.0
  0
ARC
  5
3E7
330
1F
100
AcDbEntity
  8
その他
  6
Continuous
 62
     3
370
     9
100
AcDbCircle
 10
-322.2188093855574
 20
-148.8783750791807
 30
0.0
 40
2.000000025774982
100
AcDbArc
 50
180.0
 51
270.0
  0
ARC
  5
3E8
330
1F
100
AcDbEntity
  8
その他
  6
Continuous
 62
     3
370
     9
100
AcDbCircle
 10
-322.2188093855574
 20
-124.37841796875
 30
0.0
 40
2.000000025774982
100
AcDbArc
 50
90.0
 51
180.0
  0
ARC
  5
3E9
330
1F
100
AcDbEntity
  8
その他
  6
Continuous
 62
     3
370
     9
100
AcDbCircle
 10
-297.7189017630911
 20
-124.37841796875
 30
0.0
 40
2.000000025774982
100
AcDbArc
 50
7.016464233398438
 51
90.0
  0
ARC
  5
3EA
330
1F
100
AcDbEntity
  8
その他
  6
Continuous
 62
     3
370
     9
100
AcDbCircle
 10
-340.2189182590794
 20
-124.37841796875
 30
0.0
 40
2.000000025774982
100
AcDbArc
 50
7.016464233398438
 51
90.0
  0
ARC
  5
3EB
330
1F
100
AcDbEntity
  8
その他
  6
Continuous
 62
     3
370
     9
100
AcDbCircle
 10
-364.7188753695101
 20
-124.37841796875
 30
0.0
 40
2.000000025774982
100
AcDbArc
 50
90.0
 51
180.0
  0
ARC
  5
3EC
330
1F
100
AcDbEntity
  8
その他
  6
Continuous
 62
     3
370
     9
100
AcDbCircle
 10
-364.7188753695101
 20
-148.8783750791807
 30
0.0
 40
2.000000025774982
100
AcDbArc
 50
180.0
 51
270.0
  0
ARC
  5
3ED
330
1F
100
AcDbEntity
  8
その他
  6
Continuous
 62
     3
370
     9
100
AcDbCircle
 10
-340.2189182590794
 20
-148.8783750791807
 30
0.0
 40
2.000000025774982
100
AcDbArc
 50
270.0
 51
0.0
  0
ARC
  5
3EE
330
1F
100
AcDbEntity
  8
その他
  6
Continuous
 62
     3
370
     9
100
AcDbCircle
 10
-340.2189182590794
 20
-106.3783585831926
 30
0.0
 40
2.000000025774982
100
AcDbArc
 50
270.0
 51
0.0
  0
ARC
  5
3EF
330
1F
100
AcDbEntity
  8
その他
  6
Continuous
 62
     3
370
     9
100
AcDbCircle
 10
-364.7188753695101
 20
-106.3783585831926
 30
0.0
 40
2.000000025774982
100
AcDbArc
 50
180.0
 51
270.0
  0
ARC
  5
3F0
330
1F
100
AcDbEntity
  8
その他
  6
Continuous
 62
     3
370
     9
100
AcDbCircle
 10
-364.7188753695101
 20
-81.87835198479729
 30
0.0
 40
2.000000025774982
100
AcDbArc
 50
90.0
 51
180.0
  0
ARC
  5
3F1
330
1F
100
AcDbEntity
  8
その他
  6
Continuous
 62
     3
370
     9
100
AcDbCircle
 10
-340.2189182590794
 20
-81.87835198479729
 30
0.0
 40
2.000000025774982
100
AcDbArc
 50
7.016464233398438
 51
90.0
  0
ARC
  5
3F2
330
1F
100
AcDbEntity
  8
その他
  6
Continuous
 62
     3
370
     9
100
AcDbCircle
 10
-340.2189182590794
 20
-39.37833548880906
 30
0.0
 40
2.000000025774982
100
AcDbArc
 50
7.016464233398438
 51
90.0
  0
ARC
  5
3F3
330
1F
100
AcDbEntity
  8
その他
  6
Continuous
 62
     3
370
     9
100
AcDbCircle
 10
-364.7188753695101
 20
-39.37833548880906
 30
0.0
 40
2.000000025774982
100
AcDbArc
 50
90.0
 51
180.0
  0
ARC
  5
3F4
330
1F
100
AcDbEntity
  8
その他
  6
Continuous
 62
     3
370
     9
100
AcDbCircle
 10
-364.7188753695101
 20
-63.87834208720437
 30
0.0
 40
2.000000025774982
100
AcDbArc
 50
180.0
 51
270.0
  0
ARC
  5
3F5
330
1F
100
AcDbEntity
  8
その他
  6
Continuous
 62
     3
370
     9
100
AcDbCircle
 10
-340.2189182590794
 20
-63.87834208720437
 30
0.0
 40
2.000000025774982
100
AcDbArc
 50
270.0
 51
0.0
  0
ARC
  5
3F6
330
1F
100
AcDbEntity
  8
その他
  6
Continuous
 62
     3
370
     9
100
AcDbCircle
 10
-340.2189182590794
 20
-21.37837507918073
 30
0.0
 40
2.000000025774982
100
AcDbArc
 50
270.0
 51
0.0
  0
ARC
  5
3F7
330
1F
100
AcDbEntity
  8
その他
  6
Continuous
 62
     3
370
     9
100
AcDbCircle
 10
-364.7188753695101
 20
-21.37837507918073
 30
0.0
 40
2.000000025774982
100
AcDbArc
 50
180.0
 51
270.0
  0
ARC
  5
3F8
330
1F
100
AcDbEntity
  8
その他
  6
Continuous
 62
     3
370
     9
100
AcDbCircle
 10
-364.7188753695101
 20
3.121631519214588
 30
0.0
 40
2.000000025774982
100
AcDbArc
 50
90.0
 51
180.0
  0
ARC
  5
3F9
330
1F
100
AcDbEntity
  8
その他
  6
Continuous
 62
     3
370
     9
100
AcDbCircle
 10
-340.2189182590794
 20
3.121631519214588
 30
0.0
 40
2.000000025774982
100
AcDbArc
 50
7.016464233398438
 51
90.0
  0
ARC
  5
3FA
330
1F
100
AcDbEntity
  8
その他
  6
Continuous
 62
     3
370
     9
100
AcDbCircle
 10
-340.2189182590794
 20
45.62164801520271
 30
0.0
 40
2.000000025774982
100
AcDbArc
 50
7.016464233398438
 51
90.0
  0
ARC
  5
3FB
330
1F
100
AcDbEntity
  8
その他
  6
Continuous
 62
     3
370
     9
100
AcDbCircle
 10
-364.7188753695101
 20
45.62164801520271
 30
0.0
 40
2.000000025774982
100
AcDbArc
 50
90.0
 51
180.0
  0
ARC
  5
3FC
330
1F
100
AcDbEntity
  8
その他
  6
Continuous
 62
     3
370
     9
100
AcDbCircle
 10
-364.7188753695101
 20
21.12164141680751
 30
0.0
 40
2.000000025774982
100
AcDbArc
 50
180.0
 51
270.0
  0
ARC
  5
3FD
330
1F
100
AcDbEntity
  8
その他
  6
Continuous
 62
     3
370
     9
100
AcDbCircle
 10
-340.2189182590794
 20
21.12164141680751
 30
0.0
 40
2.000000025774982
100
AcDbArc
 50
270.0
 51
0.0
  0
ARC
  5
3FE
330
1F
100
AcDbEntity
  8
その他
  6
Continuous
 62
     3
370
     9
100
AcDbCircle
 10
-382.718885267103
 20
21.12164141680751
 30
0.0
 40
2.000000025774982
100
AcDbArc
 50
270.0
 51
0.0
  0
ARC
  5
3FF
330
1F
100
AcDbEntity
  8
その他
  6
Continuous
 62
     3
370
     9
100
AcDbCircle
 10
-407.2188918654983
 20
21.12164141680751
 30
0.0
 40
2.000000025774982
100
AcDbArc
 50
180.0
 51
270.0
  0
ARC
  5
400
330
1F
100
AcDbEntity
  8
その他
  6
Continuous
 62
     3
370
     9
100
AcDbCircle
 10
-407.2188918654983
 20
45.62164801520271
 30
0.0
 40
2.000000025774982
100
AcDbArc
 50
90.0
 51
180.0
  0
ARC
  5
401
330
1F
100
AcDbEntity
  8
その他
  6
Continuous
 62
     3
370
     9
100
AcDbCircle
 10
-382.718885267103
 20
45.62164801520271
 30
0.0
 40
2.000000025774982
100
AcDbArc
 50
7.016464233398438
 51
90.0
  0
ARC
  5
402
330
1F
100
AcDbEntity
  8
その他
  6
Continuous
 62
     3
370
     9
100
AcDbCircle
 10
-382.718885267103
 20
3.121631519214588
 30
0.0
 40
2.000000025774982
100
AcDbArc
 50
7.016464233398438
 51
90.0
  0
ARC
  5
403
330
1F
100
AcDbEntity
  8
その他
  6
Continuous
 62
     3
370
     9
100
AcDbCircle
 10
-407.2188918654983
 20
3.121631519214588
 30
0.0
 40
2.000000025774982
100
AcDbArc
 50
90.0
 51
180.0
  0
ARC
  5
404
330
1F
100
AcDbEntity
  8
その他
  6
Continuous
 62
     3
370
     9
100
AcDbCircle
 10
-407.2188918654983
 20
-21.37837507918073
 30
0.0
 40
2.000000025774982
100
AcDbArc
 50
180.0
 51
270.0
  0
ARC
  5
405
330
1F
100
AcDbEntity
  8
その他
  6
Continuous
 62
     3
370
     9
100
AcDbCircle
 10
-382.718885267103
 20
-21.37837507918073
 30
0.0
 40
2.000000025774982
100
AcDbArc
 50
270.0
 51
0.0
  0
ARC
  5
406
330
1F
100
AcDbEntity
  8
その他
  6
Continuous
 62
     3
370
     9
100
AcDbCircle
 10
-382.718885267103
 20
-63.87834208720437
 30
0.0
 40
2.000000025774982
100
AcDbArc
 50
270.0
 51
0.0
  0
ARC
  5
407
330
1F
100
AcDbEntity
  8
その他
  6
Continuous
 62
     3
370
     9
100
AcDbCircle
 10
-407.2188918654983
 20
-63.87834208720437
 30
0.0
 40
2.000000025774982
100
AcDbArc
 50
180.0
 51
270.0
  0
ARC
  5
408
330
1F
100
AcDbEntity
  8
その他
  6
Continuous
 62
     3
370
     9
100
AcDbCircle
 10
-407.2188918654983
 20
-39.37833548880906
 30
0.0
 40
2.000000025774982
100
AcDbArc
 50
90.0
 51
180.0
  0
ARC
  5
409
330
1F
100
AcDbEntity
  8
その他
  6
Continuous
 62
     3
370
     9
100
AcDbCircle
 10
-382.718885267103
 20
-39.37833548880906
 30
0.0
 40
2.000000025774982
100
AcDbArc
 50
7.016464233398438
 51
90.0
  0
ARC
  5
40A
330
1F
100
AcDbEntity
  8
その他
  6
Continuous
 62
     3
370
     9
100
AcDbCircle
 10
-382.718885267103
 20
-81.87835198479729
 30
0.0
 40
2.000000025774982
100
AcDbArc
 50
7.016464233398438
 51
90.0
  0
ARC
  5
40B
330
1F
100
AcDbEntity
  8
その他
  6
Continuous
 62
     3
370
     9
100
AcDbCircle
 10
-407.2188918654983
 20
-81.87835198479729
 30
0.0
 40
2.000000025774982
100
AcDbArc
 50
90.0
 51
180.0
  0
ARC
  5
40C
330
1F
100
AcDbEntity
  8
その他
  6
Continuous
 62
     3
370
     9
100
AcDbCircle
 10
-407.2188918654983
 20
-106.3783585831926
 30
0.0
 40
2.000000025774982
100
AcDbArc
 50
180.0
 51
270.0
  0
ARC
  5
40D
330
1F
100
AcDbEntity
  8
その他
  6
Continuous
 62
     3
370
     9
100
AcDbCircle
 10
-382.718885267103
 20
-106.3783585831926
 30
0.0
 40
2.000000025774982
100
AcDbArc
 50
270.0
 51
0.0
  0
ARC
  5
40E
330
1F
100
AcDbEntity
  8
その他
  6
Continuous
 62
     3
370
     9
100
AcDbCircle
 10
-382.718885267103
 20
-148.8783750791807
 30
0.0
 40
2.000000025774982
100
AcDbArc
 50
270.0
 51
0.0
  0
ARC
  5
40F
330
1F
100
AcDbEntity
  8
その他
  6
Continuous
 62
     3
370
     9
100
AcDbCircle
 10
-407.2188918654983
 20
-148.8783750791807
 30
0.0
 40
2.000000025774982
100
AcDbArc
 50
180.0
 51
270.0
  0
ARC
  5
410
330
1F
100
AcDbEntity
  8
その他
  6
Continuous
 62
     3
370
     9
100
AcDbCircle
 10
-407.2188918654983
 20
-124.37841796875
 30
0.0
 40
2.000000025774982
100
AcDbArc
 50
90.0
 51
180.0
  0
ARC
  5
411
330
1F
100
AcDbEntity
  8
その他
  6
Continuous
 62
     3
370
     9
100
AcDbCircle
 10
-382.718885267103
 20
-124.37841796875
 30
0.0
 40
2.000000025774982
100
AcDbArc
 50
7.016464233398438
 51
90.0
  0
ARC
  5
412
330
1F
100
AcDbEntity
  8
その他
  6
Continuous
 62
     3
370
     9
100
AcDbCircle
 10
-425.2189017630912
 20
-124.37841796875
 30
0.0
 40
2.000000025774982
100
AcDbArc
 50
7.016464233398438
 51
90.0
  0
ARC
  5
413
330
1F
100
AcDbEntity
  8
その他
  6
Continuous
 62
     3
370
     9
100
AcDbCircle
 10
-449.7189083614865
 20
-124.37841796875
 30
0.0
 40
2.000000025774982
100
AcDbArc
 50
90.0
 51
180.0
  0
ARC
  5
414
330
1F
100
AcDbEntity
  8
その他
  6
Continuous
 62
     3
370
     9
100
AcDbCircle
 10
-449.7189083614865
 20
-148.8783750791807
 30
0.0
 40
2.000000025774982
100
AcDbArc
 50
180.0
 51
270.0
  0
ARC
  5
415
330
1F
100
AcDbEntity
  8
その他
  6
Continuous
 62
     3
370
     9
100
AcDbCircle
 10
-425.2189017630912
 20
-148.8783750791807
 30
0.0
 40
2.000000025774982
100
AcDbArc
 50
270.0
 51
0.0
  0
ARC
  5
416
330
1F
100
AcDbEntity
  8
その他
  6
Continuous
 62
     3
370
     9
100
AcDbCircle
 10
-425.2189017630912
 20
-106.3783585831926
 30
0.0
 40
2.000000025774982
100
AcDbArc
 50
270.0
 51
0.0
  0
ARC
  5
417
330
1F
100
AcDbEntity
  8
その他
  6
Continuous
 62
     3
370
     9
100
AcDbCircle
 10
-449.7189083614865
 20
-106.3783585831926
 30
0.0
 40
2.000000025774982
100
AcDbArc
 50
180.0
 51
270.0
  0
ARC
  5
418
330
1F
100
AcDbEntity
  8
その他
  6
Continuous
 62
     3
370
     9
100
AcDbCircle
 10
-449.7189083614865
 20
-81.87835198479729
 30
0.0
 40
2.000000025774982
100
AcDbArc
 50
90.0
 51
180.0
  0
ARC
  5
419
330
1F
100
AcDbEntity
  8
その他
  6
Continuous
 62
     3
370
     9
100
AcDbCircle
 10
-425.2189017630912
 20
-81.87835198479729
 30
0.0
 40
2.000000025774982
100
AcDbArc
 50
7.016464233398438
 51
90.0
  0
ARC
  5
41A
330
1F
100
AcDbEntity
  8
その他
  6
Continuous
 62
     3
370
     9
100
AcDbCircle
 10
-425.2189017630912
 20
-39.37833548880906
 30
0.0
 40
2.000000025774982
100
AcDbArc
 50
7.016464233398438
 51
90.0
  0
ARC
  5
41B
330
1F
100
AcDbEntity
  8
その他
  6
Continuous
 62
     3
370
     9
100
AcDbCircle
 10
-449.7189083614865
 20
-39.37833548880906
 30
0.0
 40
2.000000025774982
100
AcDbArc
 50
90.0
 51
180.0
  0
ARC
  5
41C
330
1F
100
AcDbEntity
  8
その他
  6
Continuous
 62
     3
370
     9
100
AcDbCircle
 10
-449.7189083614865
 20
-63.87834208720437
 30
0.0
 40
2.000000025774982
100
AcDbArc
 50
180.0
 51
270.0
  0
ARC
  5
41D
330
1F
100
AcDbEntity
  8
その他
  6
Continuous
 62
     3
370
     9
100
AcDbCircle
 10
-425.2189017630912
 20
-63.87834208720437
 30
0.0
 40
2.000000025774982
100
AcDbArc
 50
270.0
 51
0.0
  0
ARC
  5
41E
330
1F
100
AcDbEntity
  8
その他
  6
Continuous
 62
     3
370
     9
100
AcDbCircle
 10
-467.7189182590794
 20
233.6216744087839
 30
0.0
 40
2.000000025774982
100
AcDbArc
 50
270.0
 51
0.0
  0
ARC
  5
41F
330
1F
100
AcDbEntity
  8
その他
  6
Continuous
 62
     3
370
     9
100
AcDbCircle
 10
-492.2188753695101
 20
233.6216744087839
 30
0.0
 40
2.000000025774982
100
AcDbArc
 50
180.0
 51
270.0
  0
ARC
  5
420
330
1F
100
AcDbEntity
  8
その他
  6
Continuous
 62
     3
370
     9
100
AcDbCircle
 10
-492.2188753695101
 20
258.1216810071791
 30
0.0
 40
2.000000025774982
100
AcDbArc
 50
90.0
 51
180.0
  0
ARC
  5
421
330
1F
100
AcDbEntity
  8
その他
  6
Continuous
 62
     3
370
     9
100
AcDbCircle
 10
-467.7189182590794
 20
258.1216810071791
 30
0.0
 40
2.000000025774982
100
AcDbArc
 50
1.403289794921875
 51
90.0
  0
ARC
  5
422
330
1F
100
AcDbEntity
  8
その他
  6
Continuous
 62
     3
370
     9
100
AcDbCircle
 10
-467.7189182590794
 20
215.6216150232264
 30
0.0
 40
2.000000025774982
100
AcDbArc
 50
1.403289794921875
 51
90.0
  0
ARC
  5
423
330
1F
100
AcDbEntity
  8
その他
  6
Continuous
 62
     3
370
     9
100
AcDbCircle
 10
-492.2188753695101
 20
215.6216150232264
 30
0.0
 40
2.000000025774982
100
AcDbArc
 50
90.0
 51
180.0
  0
ARC
  5
424
330
1F
100
AcDbEntity
  8
その他
  6
Continuous
 62
     3
370
     9
100
AcDbCircle
 10
-492.2188753695101
 20
191.1216579127956
 30
0.0
 40
2.000000025774982
100
AcDbArc
 50
180.0
 51
270.0
  0
ARC
  5
425
330
1F
100
AcDbEntity
  8
その他
  6
Continuous
 62
     3
370
     9
100
AcDbCircle
 10
-467.7189182590794
 20
191.1216579127956
 30
0.0
 40
2.000000025774982
100
AcDbArc
 50
270.0
 51
0.0
  0
ARC
  5
426
330
1F
100
AcDbEntity
  8
その他
  6
Continuous
 62
     3
370
     9
100
AcDbCircle
 10
-467.7189182590794
 20
148.6216414168075
 30
0.0
 40
2.000000025774982
100
AcDbArc
 50
270.0
 51
0.0
  0
ARC
  5
427
330
1F
100
AcDbEntity
  8
その他
  6
Continuous
 62
     3
370
     9
100
AcDbCircle
 10
-492.2188753695101
 20
148.6216414168075
 30
0.0
 40
2.000000025774982
100
AcDbArc
 50
180.0
 51
270.0
  0
ARC
  5
428
330
1F
100
AcDbEntity
  8
その他
  6
Continuous
 62
     3
370
     9
100
AcDbCircle
 10
-492.2188753695101
 20
173.1216480152027
 30
0.0
 40
2.000000025774982
100
AcDbArc
 50
90.0
 51
180.0
  0
ARC
  5
429
330
1F
100
AcDbEntity
  8
その他
  6
Continuous
 62
     3
370
     9
100
AcDbCircle
 10
-467.7189182590794
 20
173.1216480152027
 30
0.0
 40
2.000000025774982
100
AcDbArc
 50
1.403289794921875
 51
90.0
  0
ARC
  5
42A
330
1F
100
AcDbEntity
  8
その他
  6
Continuous
 62
     3
370
     9
100
AcDbCircle
 10
-467.7189182590794
 20
130.6216315192146
 30
0.0
 40
2.000000025774982
100
AcDbArc
 50
1.403289794921875
 51
90.0
  0
ARC
  5
42B
330
1F
100
AcDbEntity
  8
その他
  6
Continuous
 62
     3
370
     9
100
AcDbCircle
 10
-492.2188753695101
 20
130.6216315192146
 30
0.0
 40
2.000000025774982
100
AcDbArc
 50
90.0
 51
180.0
  0
ARC
  5
42C
330
1F
100
AcDbEntity
  8
その他
  6
Continuous
 62
     3
370
     9
100
AcDbCircle
 10
-492.2188753695101
 20
106.1216249208193
 30
0.0
 40
2.000000025774982
100
AcDbArc
 50
180.0
 51
270.0
  0
ARC
  5
42D
330
1F
100
AcDbEntity
  8
その他
  6
Continuous
 62
     3
370
     9
100
AcDbCircle
 10
-467.7189182590794
 20
106.1216249208193
 30
0.0
 40
2.000000025774982
100
AcDbArc
 50
270.0
 51
0.0
  0
ARC
  5
42E
330
1F
100
AcDbEntity
  8
その他
  6
Continuous
 62
     3
370
     9
100
AcDbCircle
 10
-467.7189182590794
 20
63.62165791279563
 30
0.0
 40
2.000000025774982
100
AcDbArc
 50
270.0
 51
0.0
  0
ARC
  5
42F
330
1F
100
AcDbEntity
  8
その他
  6
Continuous
 62
     3
370
     9
100
AcDbCircle
 10
-492.2188753695101
 20
63.62165791279563
 30
0.0
 40
2.000000025774982
100
AcDbArc
 50
180.0
 51
270.0
  0
ARC
  5
430
330
1F
100
AcDbEntity
  8
その他
  6
Continuous
 62
     3
370
     9
100
AcDbCircle
 10
-492.2188753695101
 20
88.12166451119094
 30
0.0
 40
2.000000025774982
100
AcDbArc
 50
90.0
 51
180.0
  0
ARC
  5
431
330
1F
100
AcDbEntity
  8
その他
  6
Continuous
 62
     3
370
     9
100
AcDbCircle
 10
-467.7189182590794
 20
88.12166451119094
 30
0.0
 40
2.000000025774982
100
AcDbArc
 50
1.403289794921875
 51
90.0
  0
ARC
  5
432
330
1F
100
AcDbEntity
  8
その他
  6
Continuous
 62
     3
370
     9
100
AcDbCircle
 10
-425.2189017630912
 20
88.12166451119094
 30
0.0
 40
2.000000025774982
100
AcDbArc
 50
1.403289794921875
 51
90.0
  0
ARC
  5
433
330
1F
100
AcDbEntity
  8
その他
  6
Continuous
 62
     3
370
     9
100
AcDbCircle
 10
-449.7189083614865
 20
88.12166451119094
 30
0.0
 40
2.000000025774982
100
AcDbArc
 50
90.0
 51
180.0
  0
ARC
  5
434
330
1F
100
AcDbEntity
  8
その他
  6
Continuous
 62
     3
370
     9
100
AcDbCircle
 10
-449.7189083614865
 20
63.62165791279563
 30
0.0
 40
2.000000025774982
100
AcDbArc
 50
180.0
 51
270.0
  0
ARC
  5
435
330
1F
100
AcDbEntity
  8
その他
  6
Continuous
 62
     3
370
     9
100
AcDbCircle
 10
-425.2189017630912
 20
63.62165791279563
 30
0.0
 40
2.000000025774982
100
AcDbArc
 50
270.0
 51
0.0
  0
ARC
  5
436
330
1F
100
AcDbEntity
  8
その他
  6
Continuous
 62
     3
370
     9
100
AcDbCircle
 10
-425.2189017630912
 20
106.1216249208193
 30
0.0
 40
2.000000025774982
100
AcDbArc
 50
270.0
 51
0.0
  0
ARC
  5
437
330
1F
100
AcDbEntity
  8
その他
  6
Continuous
 62
     3
370
     9
100
AcDbCircle
 10
-449.7189083614865
 20
106.1216249208193
 30
0.0
 40
2.000000025774982
100
AcDbArc
 50
180.0
 51
270.0
  0
ARC
  5
438
330
1F
100
AcDbEntity
  8
その他
  6
Continuous
 62
     3
370
     9
100
AcDbCircle
 10
-449.7189083614865
 20
130.6216315192146
 30
0.0
 40
2.000000025774982
100
AcDbArc
 50
90.0
 51
180.0
  0
ARC
  5
439
330
1F
100
AcDbEntity
  8
その他
  6
Continuous
 62
     3
370
     9
100
AcDbCircle
 10
-425.2189017630912
 20
130.6216315192146
 30
0.0
 40
2.000000025774982
100
AcDbArc
 50
1.403289794921875
 51
90.0
  0
ARC
  5
43A
330
1F
100
AcDbEntity
  8
その他
  6
Continuous
 62
     3
370
     9
100
AcDbCircle
 10
-425.2189017630912
 20
173.1216480152027
 30
0.0
 40
2.000000025774982
100
AcDbArc
 50
1.403289794921875
 51
90.0
  0
ARC
  5
43B
330
1F
100
AcDbEntity
  8
その他
  6
Continuous
 62
     3
370
     9
100
AcDbCircle
 10
-449.7189083614865
 20
173.1216480152027
 30
0.0
 40
2.000000025774982
100
AcDbArc
 50
90.0
 51
180.0
  0
ARC
  5
43C
330
1F
100
AcDbEntity
  8
その他
  6
Continuous
 62
     3
370
     9
100
AcDbCircle
 10
-449.7189083614865
 20
148.6216414168075
 30
0.0
 40
2.000000025774982
100
AcDbArc
 50
180.0
 51
270.0
  0
ARC
  5
43D
330
1F
100
AcDbEntity
  8
その他
  6
Continuous
 62
     3
370
     9
100
AcDbCircle
 10
-425.2189017630912
 20
148.6216414168075
 30
0.0
 40
2.000000025774982
100
AcDbArc
 50
270.0
 51
0.0
  0
ARC
  5
43E
330
1F
100
AcDbEntity
  8
その他
  6
Continuous
 62
     3
370
     9
100
AcDbCircle
 10
-425.2189017630912
 20
191.1216579127956
 30
0.0
 40
2.000000025774982
100
AcDbArc
 50
270.0
 51
0.0
  0
ARC
  5
43F
330
1F
100
AcDbEntity
  8
その他
  6
Continuous
 62
     3
370
     9
100
AcDbCircle
 10
-449.7189083614865
 20
191.1216579127956
 30
0.0
 40
2.000000025774982
100
AcDbArc
 50
180.0
 51
270.0
  0
ARC
  5
440
330
1F
100
AcDbEntity
  8
その他
  6
Continuous
 62
     3
370
     9
100
AcDbCircle
 10
-449.7189083614865
 20
215.6216150232264
 30
0.0
 40
2.000000025774982
100
AcDbArc
 50
90.0
 51
180.0
  0
ARC
  5
441
330
1F
100
AcDbEntity
  8
その他
  6
Continuous
 62
     3
370
     9
100
AcDbCircle
 10
-425.2189017630912
 20
215.6216150232264
 30
0.0
 40
2.000000025774982
100
AcDbArc
 50
1.403289794921875
 51
90.0
  0
ARC
  5
442
330
1F
100
AcDbEntity
  8
その他
  6
Continuous
 62
     3
370
     9
100
AcDbCircle
 10
-425.2189017630912
 20
258.1216810071791
 30
0.0
 40
2.000000025774982
100
AcDbArc
 50
1.403289794921875
 51
90.0
  0
ARC
  5
443
330
1F
100
AcDbEntity
  8
その他
  6
Continuous
 62
     3
370
     9
100
AcDbCircle
 10
-449.7189083614865
 20
258.1216810071791
 30
0.0
 40
2.000000025774982
100
AcDbArc
 50
90.0
 51
180.0
  0
ARC
  5
444
330
1F
100
AcDbEntity
  8
その他
  6
Continuous
 62
     3
370
     9
100
AcDbCircle
 10
-449.7189083614865
 20
233.6216744087839
 30
0.0
 40
2.000000025774982
100
AcDbArc
 50
180.0
 51
270.0
  0
ARC
  5
445
330
1F
100
AcDbEntity
  8
その他
  6
Continuous
 62
     3
370
     9
100
AcDbCircle
 10
-425.2189017630912
 20
233.6216744087839
 30
0.0
 40
2.000000025774982
100
AcDbArc
 50
270.0
 51
0.0
  0
ARC
  5
446
330
1F
100
AcDbEntity
  8
その他
  6
Continuous
 62
     3
370
     9
100
AcDbCircle
 10
-382.718885267103
 20
233.6216744087839
 30
0.0
 40
2.000000025774982
100
AcDbArc
 50
270.0
 51
0.0
  0
ARC
  5
447
330
1F
100
AcDbEntity
  8
その他
  6
Continuous
 62
     3
370
     9
100
AcDbCircle
 10
-407.2188918654983
 20
233.6216744087839
 30
0.0
 40
2.000000025774982
100
AcDbArc
 50
180.0
 51
270.0
  0
ARC
  5
448
330
1F
100
AcDbEntity
  8
その他
  6
Continuous
 62
     3
370
     9
100
AcDbCircle
 10
-407.2188918654983
 20
258.1216810071791
 30
0.0
 40
2.000000025774982
100
AcDbArc
 50
90.0
 51
180.0
  0
ARC
  5
449
330
1F
100
AcDbEntity
  8
その他
  6
Continuous
 62
     3
370
     9
100
AcDbCircle
 10
-382.718885267103
 20
258.1216810071791
 30
0.0
 40
2.000000025774982
100
AcDbArc
 50
1.403289794921875
 51
90.0
  0
ARC
  5
44A
330
1F
100
AcDbEntity
  8
その他
  6
Continuous
 62
     3
370
     9
100
AcDbCircle
 10
-382.718885267103
 20
215.6216150232264
 30
0.0
 40
2.000000025774982
100
AcDbArc
 50
1.403289794921875
 51
90.0
  0
ARC
  5
44B
330
1F
100
AcDbEntity
  8
その他
  6
Continuous
 62
     3
370
     9
100
AcDbCircle
 10
-407.2188918654983
 20
215.6216150232264
 30
0.0
 40
2.000000025774982
100
AcDbArc
 50
90.0
 51
180.0
  0
ARC
  5
44C
330
1F
100
AcDbEntity
  8
その他
  6
Continuous
 62
     3
370
     9
100
AcDbCircle
 10
-407.2188918654983
 20
191.1216579127956
 30
0.0
 40
2.000000025774982
100
AcDbArc
 50
180.0
 51
270.0
  0
ARC
  5
44D
330
1F
100
AcDbEntity
  8
その他
  6
Continuous
 62
     3
370
     9
100
AcDbCircle
 10
-382.718885267103
 20
191.1216579127956
 30
0.0
 40
2.000000025774982
100
AcDbArc
 50
270.0
 51
0.0
  0
ARC
  5
44E
330
1F
100
AcDbEntity
  8
その他
  6
Continuous
 62
     3
370
     9
100
AcDbCircle
 10
-382.718885267103
 20
148.6216414168075
 30
0.0
 40
2.000000025774982
100
AcDbArc
 50
270.0
 51
0.0
  0
ARC
  5
44F
330
1F
100
AcDbEntity
  8
その他
  6
Continuous
 62
     3
370
     9
100
AcDbCircle
 10
-407.2188918654983
 20
148.6216414168075
 30
0.0
 40
2.000000025774982
100
AcDbArc
 50
180.0
 51
270.0
  0
ARC
  5
450
330
1F
100
AcDbEntity
  8
その他
  6
Continuous
 62
     3
370
     9
100
AcDbCircle
 10
-407.2188918654983
 20
173.1216480152027
 30
0.0
 40
2.000000025774982
100
AcDbArc
 50
90.0
 51
180.0
  0
ARC
  5
451
330
1F
100
AcDbEntity
  8
その他
  6
Continuous
 62
     3
370
     9
100
AcDbCircle
 10
-382.718885267103
 20
173.1216480152027
 30
0.0
 40
2.000000025774982
100
AcDbArc
 50
1.403289794921875
 51
90.0
  0
ARC
  5
452
330
1F
100
AcDbEntity
  8
その他
  6
Continuous
 62
     3
370
     9
100
AcDbCircle
 10
-382.718885267103
 20
130.6216315192146
 30
0.0
 40
2.000000025774982
100
AcDbArc
 50
1.403289794921875
 51
90.0
  0
ARC
  5
453
330
1F
100
AcDbEntity
  8
その他
  6
Continuous
 62
     3
370
     9
100
AcDbCircle
 10
-407.2188918654983
 20
130.6216315192146
 30
0.0
 40
2.000000025774982
100
AcDbArc
 50
90.0
 51
180.0
  0
ARC
  5
454
330
1F
100
AcDbEntity
  8
その他
  6
Continuous
 62
     3
370
     9
100
AcDbCircle
 10
-407.2188918654983
 20
106.1216249208193
 30
0.0
 40
2.000000025774982
100
AcDbArc
 50
180.0
 51
270.0
  0
ARC
  5
455
330
1F
100
AcDbEntity
  8
その他
  6
Continuous
 62
     3
370
     9
100
AcDbCircle
 10
-382.718885267103
 20
106.1216249208193
 30
0.0
 40
2.000000025774982
100
AcDbArc
 50
270.0
 51
0.0
  0
ARC
  5
456
330
1F
100
AcDbEntity
  8
その他
  6
Continuous
 62
     3
370
     9
100
AcDbCircle
 10
-382.718885267103
 20
63.62165791279563
 30
0.0
 40
2.000000025774982
100
AcDbArc
 50
270.0
 51
0.0
  0
ARC
  5
457
330
1F
100
AcDbEntity
  8
その他
  6
Continuous
 62
     3
370
     9
100
AcDbCircle
 10
-407.2188918654983
 20
63.62165791279563
 30
0.0
 40
2.000000025774982
100
AcDbArc
 50
180.0
 51
270.0
  0
ARC
  5
458
330
1F
100
AcDbEntity
  8
その他
  6
Continuous
 62
     3
370
     9
100
AcDbCircle
 10
-407.2188918654983
 20
88.12166451119094
 30
0.0
 40
2.000000025774982
100
AcDbArc
 50
90.0
 51
180.0
  0
ARC
  5
459
330
1F
100
AcDbEntity
  8
その他
  6
Continuous
 62
     3
370
     9
100
AcDbCircle
 10
-382.718885267103
 20
88.12166451119094
 30
0.0
 40
2.000000025774982
100
AcDbArc
 50
1.403289794921875
 51
90.0
  0
ARC
  5
45A
330
1F
100
AcDbEntity
  8
その他
  6
Continuous
 62
     3
370
     9
100
AcDbCircle
 10
-340.2189182590794
 20
88.12166451119094
 30
0.0
 40
2.000000025774982
100
AcDbArc
 50
1.403289794921875
 51
90.0
  0
ARC
  5
45B
330
1F
100
AcDbEntity
  8
その他
  6
Continuous
 62
     3
370
     9
100
AcDbCircle
 10
-364.7188753695101
 20
88.12166451119094
 30
0.0
 40
2.000000025774982
100
AcDbArc
 50
90.0
 51
180.0
  0
ARC
  5
45C
330
1F
100
AcDbEntity
  8
その他
  6
Continuous
 62
     3
370
     9
100
AcDbCircle
 10
-364.7188753695101
 20
63.62165791279563
 30
0.0
 40
2.000000025774982
100
AcDbArc
 50
180.0
 51
270.0
  0
ARC
  5
45D
330
1F
100
AcDbEntity
  8
その他
  6
Continuous
 62
     3
370
     9
100
AcDbCircle
 10
-340.2189182590794
 20
63.62165791279563
 30
0.0
 40
2.000000025774982
100
AcDbArc
 50
270.0
 51
0.0
  0
ARC
  5
45E
330
1F
100
AcDbEntity
  8
その他
  6
Continuous
 62
     3
370
     9
100
AcDbCircle
 10
-340.2189182590794
 20
106.1216249208193
 30
0.0
 40
2.000000025774982
100
AcDbArc
 50
270.0
 51
0.0
  0
ARC
  5
45F
330
1F
100
AcDbEntity
  8
その他
  6
Continuous
 62
     3
370
     9
100
AcDbCircle
 10
-364.7188753695101
 20
106.1216249208193
 30
0.0
 40
2.000000025774982
100
AcDbArc
 50
180.0
 51
270.0
  0
ARC
  5
460
330
1F
100
AcDbEntity
  8
その他
  6
Continuous
 62
     3
370
     9
100
AcDbCircle
 10
-364.7188753695101
 20
130.6216315192146
 30
0.0
 40
2.000000025774982
100
AcDbArc
 50
90.0
 51
180.0
  0
ARC
  5
461
330
1F
100
AcDbEntity
  8
その他
  6
Continuous
 62
     3
370
     9
100
AcDbCircle
 10
-340.2189182590794
 20
130.6216315192146
 30
0.0
 40
2.000000025774982
100
AcDbArc
 50
1.403289794921875
 51
90.0
  0
ARC
  5
462
330
1F
100
AcDbEntity
  8
その他
  6
Continuous
 62
     3
370
     9
100
AcDbCircle
 10
-340.2189182590794
 20
173.1216480152027
 30
0.0
 40
2.000000025774982
100
AcDbArc
 50
1.403289794921875
 51
90.0
  0
ARC
  5
463
330
1F
100
AcDbEntity
  8
その他
  6
Continuous
 62
     3
370
     9
100
AcDbCircle
 10
-364.7188753695101
 20
173.1216480152027
 30
0.0
 40
2.000000025774982
100
AcDbArc
 50
90.0
 51
180.0
  0
ARC
  5
464
330
1F
100
AcDbEntity
  8
その他
  6
Continuous
 62
     3
370
     9
100
AcDbCircle
 10
-364.7188753695101
 20
148.6216414168075
 30
0.0
 40
2.000000025774982
100
AcDbArc
 50
180.0
 51
270.0
  0
ARC
  5
465
330
1F
100
AcDbEntity
  8
その他
  6
Continuous
 62
     3
370
     9
100
AcDbCircle
 10
-340.2189182590794
 20
148.6216414168075
 30
0.0
 40
2.000000025774982
100
AcDbArc
 50
270.0
 51
0.0
  0
ARC
  5
466
330
1F
100
AcDbEntity
  8
その他
  6
Continuous
 62
     3
370
     9
100
AcDbCircle
 10
-340.2189182590794
 20
191.1216579127956
 30
0.0
 40
2.000000025774982
100
AcDbArc
 50
270.0
 51
0.0
  0
ARC
  5
467
330
1F
100
AcDbEntity
  8
その他
  6
Continuous
 62
     3
370
     9
100
AcDbCircle
 10
-364.7188753695101
 20
191.1216579127956
 30
0.0
 40
2.000000025774982
100
AcDbArc
 50
180.0
 51
270.0
  0
ARC
  5
468
330
1F
100
AcDbEntity
  8
その他
  6
Continuous
 62
     3
370
     9
100
AcDbCircle
 10
-364.7188753695101
 20
215.6216150232264
 30
0.0
 40
2.000000025774982
100
AcDbArc
 50
90.0
 51
180.0
  0
ARC
  5
469
330
1F
100
AcDbEntity
  8
その他
  6
Continuous
 62
     3
370
     9
100
AcDbCircle
 10
-340.2189182590794
 20
215.6216150232264
 30
0.0
 40
2.000000025774982
100
AcDbArc
 50
1.403289794921875
 51
90.0
  0
ARC
  5
46A
330
1F
100
AcDbEntity
  8
その他
  6
Continuous
 62
     3
370
     9
100
AcDbCircle
 10
-340.2189182590794
 20
258.1216810071791
 30
0.0
 40
2.000000025774982
100
AcDbArc
 50
1.403289794921875
 51
90.0
  0
ARC
  5
46B
330
1F
100
AcDbEntity
  8
その他
  6
Continuous
 62
     3
370
     9
100
AcDbCircle
 10
-364.7188753695101
 20
258.1216810071791
 30
0.0
 40
2.000000025774982
100
AcDbArc
 50
90.0
 51
180.0
  0
ARC
  5
46C
330
1F
100
AcDbEntity
  8
その他
  6
Continuous
 62
     3
370
     9
100
AcDbCircle
 10
-364.7188753695101
 20
233.6216744087839
 30
0.0
 40
2.000000025774982
100
AcDbArc
 50
180.0
 51
270.0
  0
ARC
  5
46D
330
1F
100
AcDbEntity
  8
その他
  6
Continuous
 62
     3
370
     9
100
AcDbCircle
 10
-340.2189182590794
 20
233.6216744087839
 30
0.0
 40
2.000000025774982
100
AcDbArc
 50
270.0
 51
0.0
  0
ARC
  5
46E
330
1F
100
AcDbEntity
  8
その他
  6
Continuous
 62
     3
370
     9
100
AcDbCircle
 10
-297.7189017630911
 20
233.6216744087839
 30
0.0
 40
2.000000025774982
100
AcDbArc
 50
270.0
 51
0.0
  0
ARC
  5
46F
330
1F
100
AcDbEntity
  8
その他
  6
Continuous
 62
     3
370
     9
100
AcDbCircle
 10
-322.2188093855574
 20
233.6216744087839
 30
0.0
 40
2.000000025774982
100
AcDbArc
 50
180.0
 51
270.0
  0
ARC
  5
470
330
1F
100
AcDbEntity
  8
その他
  6
Continuous
 62
     3
370
     9
100
AcDbCircle
 10
-322.2188093855574
 20
258.1216810071791
 30
0.0
 40
2.000000025774982
100
AcDbArc
 50
90.0
 51
180.0
  0
ARC
  5
471
330
1F
100
AcDbEntity
  8
その他
  6
Continuous
 62
     3
370
     9
100
AcDbCircle
 10
-297.7189017630911
 20
258.1216810071791
 30
0.0
 40
2.000000025774982
100
AcDbArc
 50
1.403289794921875
 51
90.0
  0
ARC
  5
472
330
1F
100
AcDbEntity
  8
その他
  6
Continuous
 62
     3
370
     9
100
AcDbCircle
 10
-297.7189017630911
 20
215.6216150232264
 30
0.0
 40
2.000000025774982
100
AcDbArc
 50
1.403289794921875
 51
90.0
  0
ARC
  5
473
330
1F
100
AcDbEntity
  8
その他
  6
Continuous
 62
     3
370
     9
100
AcDbCircle
 10
-322.2188093855574
 20
215.6216150232264
 30
0.0
 40
2.000000025774982
100
AcDbArc
 50
90.0
 51
180.0
  0
ARC
  5
474
330
1F
100
AcDbEntity
  8
その他
  6
Continuous
 62
     3
370
     9
100
AcDbCircle
 10
-322.2188093855574
 20
191.1216579127956
 30
0.0
 40
2.000000025774982
100
AcDbArc
 50
180.0
 51
270.0
  0
ARC
  5
475
330
1F
100
AcDbEntity
  8
その他
  6
Continuous
 62
     3
370
     9
100
AcDbCircle
 10
-297.7189017630911
 20
191.1216579127956
 30
0.0
 40
2.000000025774982
100
AcDbArc
 50
270.0
 51
0.0
  0
ARC
  5
476
330
1F
100
AcDbEntity
  8
その他
  6
Continuous
 62
     3
370
     9
100
AcDbCircle
 10
-297.7189017630911
 20
148.6216414168075
 30
0.0
 40
2.000000025774982
100
AcDbArc
 50
270.0
 51
0.0
  0
ARC
  5
477
330
1F
100
AcDbEntity
  8
その他
  6
Continuous
 62
     3
370
     9
100
AcDbCircle
 10
-322.2188093855574
 20
148.6216414168075
 30
0.0
 40
2.000000025774982
100
AcDbArc
 50
180.0
 51
270.0
  0
ARC
  5
478
330
1F
100
AcDbEntity
  8
その他
  6
Continuous
 62
     3
370
     9
100
AcDbCircle
 10
-322.2188093855574
 20
173.1216480152027
 30
0.0
 40
2.000000025774982
100
AcDbArc
 50
90.0
 51
180.0
  0
ARC
  5
479
330
1F
100
AcDbEntity
  8
その他
  6
Continuous
 62
     3
370
     9
100
AcDbCircle
 10
-297.7189017630911
 20
173.1216480152027
 30
0.0
 40
2.000000025774982
100
AcDbArc
 50
1.403289794921875
 51
90.0
  0
ARC
  5
47A
330
1F
100
AcDbEntity
  8
その他
  6
Continuous
 62
     3
370
     9
100
AcDbCircle
 10
-297.7189017630911
 20
130.6216315192146
 30
0.0
 40
2.000000025774982
100
AcDbArc
 50
1.403289794921875
 51
90.0
  0
ARC
  5
47B
330
1F
100
AcDbEntity
  8
その他
  6
Continuous
 62
     3
370
     9
100
AcDbCircle
 10
-322.2188093855574
 20
130.6216315192146
 30
0.0
 40
2.000000025774982
100
AcDbArc
 50
90.0
 51
180.0
  0
ARC
  5
47C
330
1F
100
AcDbEntity
  8
その他
  6
Continuous
 62
     3
370
     9
100
AcDbCircle
 10
-322.2188093855574
 20
106.1216249208193
 30
0.0
 40
2.000000025774982
100
AcDbArc
 50
180.0
 51
270.0
  0
ARC
  5
47D
330
1F
100
AcDbEntity
  8
その他
  6
Continuous
 62
     3
370
     9
100
AcDbCircle
 10
-297.7189017630911
 20
106.1216249208193
 30
0.0
 40
2.000000025774982
100
AcDbArc
 50
270.0
 51
0.0
  0
ARC
  5
47E
330
1F
100
AcDbEntity
  8
その他
  6
Continuous
 62
     3
370
     9
100
AcDbCircle
 10
-297.7189017630911
 20
63.62165791279563
 30
0.0
 40
2.000000025774982
100
AcDbArc
 50
270.0
 51
0.0
  0
ARC
  5
47F
330
1F
100
AcDbEntity
  8
その他
  6
Continuous
 62
     3
370
     9
100
AcDbCircle
 10
-322.2188093855574
 20
63.62165791279563
 30
0.0
 40
2.000000025774982
100
AcDbArc
 50
180.0
 51
270.0
  0
ARC
  5
480
330
1F
100
AcDbEntity
  8
その他
  6
Continuous
 62
     3
370
     9
100
AcDbCircle
 10
-322.2188093855574
 20
88.12166451119094
 30
0.0
 40
2.000000025774982
100
AcDbArc
 50
90.0
 51
180.0
  0
ARC
  5
481
330
1F
100
AcDbEntity
  8
その他
  6
Continuous
 62
     3
370
     9
100
AcDbCircle
 10
-297.7189017630911
 20
88.12166451119094
 30
0.0
 40
2.000000025774982
100
AcDbArc
 50
1.403289794921875
 51
90.0
  0
ARC
  5
482
330
1F
100
AcDbEntity
  8
その他
  6
JWW_CENTER1
 62
     2
370
     9
100
AcDbCircle
 10
319.6811655405406
 20
298.8216717694257
 30
0.0
 40
9.500000412399705
100
AcDbArc
 50
270.0
 51
0.0
  0
ARC
  5
483
330
1F
100
AcDbEntity
  8
その他
  6
Continuous
 62
     2
370
     9
100
AcDbCircle
 10
319.6811655405406
 20
298.8216717694257
 30
0.0
 40
5.000000257749815
100
AcDbArc
 50
270.0
 51
0.0
  0
ARC
  5
484
330
1F
100
AcDbEntity
  8
その他
  6
Continuous
 62
     2
370
     9
100
AcDbCircle
 10
298.4812143686656
 20
278.6216744087839
 30
0.0
 40
6.199999886590081
100
AcDbArc
 50
1.403289794921875
 51
90.0
  0
CIRCLE
  5
485
330
1F
100
AcDbEntity
  8
その他
  6
Continuous
 62
     2
370
     9
100
AcDbCircle
 10
-418.9188859269426
 20
289.3216651710304
 30
0.0
 40
4.500000154649889
  0
ARC
  5
486
330
1F
100
AcDbEntity
  8
その他
  6
Continuous
 62
     3
370
     9
100
AcDbCircle
 10
-425.2189017630912
 20
-21.37837507918073
 30
0.0
 40
2.000000025774982
100
AcDbArc
 50
270.0
 51
0.0
  0
ARC
  5
487
330
1F
100
AcDbEntity
  8
その他
  6
Continuous
 62
     3
370
     9
100
AcDbCircle
 10
-449.7189083614865
 20
-21.37837507918073
 30
0.0
 40
2.000000025774982
100
AcDbArc
 50
180.0
 51
270.0
  0
ARC
  5
488
330
1F
100
AcDbEntity
  8
その他
  6
Continuous
 62
     3
370
     9
100
AcDbCircle
 10
-449.7189083614865
 20
3.121631519214588
 30
0.0
 40
2.000000025774982
100
AcDbArc
 50
90.0
 51
180.0
  0
ARC
  5
489
330
1F
100
AcDbEntity
  8
その他
  6
Continuous
 62
     3
370
     9
100
AcDbCircle
 10
-425.2189017630912
 20
3.121631519214588
 30
0.0
 40
2.000000025774982
100
AcDbArc
 50
7.016464233398438
 51
90.0
  0
ARC
  5
48A
330
1F
100
AcDbEntity
  8
その他
  6
Continuous
 62
     3
370
     9
100
AcDbCircle
 10
-425.2189017630912
 20
45.62164801520271
 30
0.0
 40
2.000000025774982
100
AcDbArc
 50
7.016464233398438
 51
90.0
  0
ARC
  5
48B
330
1F
100
AcDbEntity
  8
その他
  6
Continuous
 62
     3
370
     9
100
AcDbCircle
 10
-449.7189083614865
 20
45.62164801520271
 30
0.0
 40
2.000000025774982
100
AcDbArc
 50
90.0
 51
180.0
  0
ARC
  5
48C
330
1F
100
AcDbEntity
  8
その他
  6
Continuous
 62
     3
370
     9
100
AcDbCircle
 10
-449.7189083614865
 20
21.12164141680751
 30
0.0
 40
2.000000025774982
100
AcDbArc
 50
180.0
 51
270.0
  0
ARC
  5
48D
330
1F
100
AcDbEntity
  8
その他
  6
Continuous
 62
     3
370
     9
100
AcDbCircle
 10
-425.2189017630912
 20
21.12164141680751
 30
0.0
 40
2.000000025774982
100
AcDbArc
 50
270.0
 51
0.0
  0
ARC
  5
48E
330
1F
100
AcDbEntity
  8
その他
  6
Continuous
 62
     3
370
     9
100
AcDbCircle
 10
-467.7189182590794
 20
21.12164141680751
 30
0.0
 40
2.000000025774982
100
AcDbArc
 50
270.0
 51
0.0
  0
ARC
  5
48F
330
1F
100
AcDbEntity
  8
その他
  6
Continuous
 62
     3
370
     9
100
AcDbCircle
 10
-492.2188753695101
 20
21.12164141680751
 30
0.0
 40
2.000000025774982
100
AcDbArc
 50
180.0
 51
270.0
  0
ARC
  5
490
330
1F
100
AcDbEntity
  8
その他
  6
Continuous
 62
     3
370
     9
100
AcDbCircle
 10
-492.2188753695101
 20
45.62164801520271
 30
0.0
 40
2.000000025774982
100
AcDbArc
 50
90.0
 51
180.0
  0
ARC
  5
491
330
1F
100
AcDbEntity
  8
その他
  6
Continuous
 62
     3
370
     9
100
AcDbCircle
 10
-467.7189182590794
 20
45.62164801520271
 30
0.0
 40
2.000000025774982
100
AcDbArc
 50
7.016464233398438
 51
90.0
  0
ARC
  5
492
330
1F
100
AcDbEntity
  8
その他
  6
Continuous
 62
     3
370
     9
100
AcDbCircle
 10
-467.7189182590794
 20
3.121631519214588
 30
0.0
 40
2.000000025774982
100
AcDbArc
 50
7.016464233398438
 51
90.0
  0
ARC
  5
493
330
1F
100
AcDbEntity
  8
その他
  6
Continuous
 62
     3
370
     9
100
AcDbCircle
 10
-492.2188753695101
 20
3.121631519214588
 30
0.0
 40
2.000000025774982
100
AcDbArc
 50
90.0
 51
180.0
  0
ARC
  5
494
330
1F
100
AcDbEntity
  8
その他
  6
Continuous
 62
     3
370
     9
100
AcDbCircle
 10
-492.2188753695101
 20
-21.37837507918073
 30
0.0
 40
2.000000025774982
100
AcDbArc
 50
180.0
 51
270.0
  0
ARC
  5
495
330
1F
100
AcDbEntity
  8
その他
  6
Continuous
 62
     3
370
     9
100
AcDbCircle
 10
-467.7189182590794
 20
-21.37837507918073
 30
0.0
 40
2.000000025774982
100
AcDbArc
 50
270.0
 51
0.0
  0
ARC
  5
496
330
1F
100
AcDbEntity
  8
その他
  6
Continuous
 62
     3
370
     9
100
AcDbCircle
 10
-467.7189182590794
 20
-63.87834208720437
 30
0.0
 40
2.000000025774982
100
AcDbArc
 50
270.0
 51
0.0
  0
ARC
  5
497
330
1F
100
AcDbEntity
  8
その他
  6
Continuous
 62
     3
370
     9
100
AcDbCircle
 10
-492.2188753695101
 20
-63.87834208720437
 30
0.0
 40
2.000000025774982
100
AcDbArc
 50
180.0
 51
270.0
  0
ARC
  5
498
330
1F
100
AcDbEntity
  8
その他
  6
Continuous
 62
     3
370
     9
100
AcDbCircle
 10
-492.2188753695101
 20
-39.37833548880906
 30
0.0
 40
2.000000025774982
100
AcDbArc
 50
90.0
 51
180.0
  0
ARC
  5
499
330
1F
100
AcDbEntity
  8
その他
  6
Continuous
 62
     3
370
     9
100
AcDbCircle
 10
-467.7189182590794
 20
-39.37833548880906
 30
0.0
 40
2.000000025774982
100
AcDbArc
 50
7.016464233398438
 51
90.0
  0
ARC
  5
49A
330
1F
100
AcDbEntity
  8
その他
  6
Continuous
 62
     3
370
     9
100
AcDbCircle
 10
-467.7189182590794
 20
-81.87835198479729
 30
0.0
 40
2.000000025774982
100
AcDbArc
 50
7.016464233398438
 51
90.0
  0
ARC
  5
49B
330
1F
100
AcDbEntity
  8
その他
  6
Continuous
 62
     3
370
     9
100
AcDbCircle
 10
-492.2188753695101
 20
-81.87835198479729
 30
0.0
 40
2.000000025774982
100
AcDbArc
 50
90.0
 51
180.0
  0
ARC
  5
49C
330
1F
100
AcDbEntity
  8
その他
  6
Continuous
 62
     3
370
     9
100
AcDbCircle
 10
-492.2188753695101
 20
-106.3783585831926
 30
0.0
 40
2.000000025774982
100
AcDbArc
 50
180.0
 51
270.0
  0
ARC
  5
49D
330
1F
100
AcDbEntity
  8
その他
  6
Continuous
 62
     3
370
     9
100
AcDbCircle
 10
-467.7189182590794
 20
-106.3783585831926
 30
0.0
 40
2.000000025774982
100
AcDbArc
 50
270.0
 51
0.0
  0
ARC
  5
49E
330
1F
100
AcDbEntity
  8
その他
  6
Continuous
 62
     3
370
     9
100
AcDbCircle
 10
-467.7189182590794
 20
-148.8783750791807
 30
0.0
 40
2.000000025774982
100
AcDbArc
 50
270.0
 51
0.0
  0
ARC
  5
49F
330
1F
100
AcDbEntity
  8
その他
  6
Continuous
 62
     3
370
     9
100
AcDbCircle
 10
-492.2188753695101
 20
-148.8783750791807
 30
0.0
 40
2.000000025774982
100
AcDbArc
 50
180.0
 51
270.0
  0
ARC
  5
4A0
330
1F
100
AcDbEntity
  8
その他
  6
Continuous
 62
     3
370
     9
100
AcDbCircle
 10
-492.2188753695101
 20
-124.37841796875
 30
0.0
 40
2.000000025774982
100
AcDbArc
 50
90.0
 51
180.0
  0
ARC
  5
4A1
330
1F
100
AcDbEntity
  8
その他
  6
Continuous
 62
     3
370
     9
100
AcDbCircle
 10
-467.7189182590794
 20
-124.37841796875
 30
0.0
 40
2.000000025774982
100
AcDbArc
 50
7.016464233398438
 51
90.0
  0
ARC
  5
4A2
330
1F
100
AcDbEntity
  8
その他
  6
Continuous
 62
     2
370
     9
100
AcDbCircle
 10
298.4812143686656
 20
-169.37841796875
 30
0.0
 40
3.000000038662472
100
AcDbArc
 50
270.0
 51
0.0
  0
ARC
  5
4A3
330
1F
100
AcDbEntity
  8
その他
  6
Continuous
 62
     2
370
     9
100
AcDbCircle
 10
319.6811655405406
 20
-189.5783658414273
 30
0.0
 40
13.99999979380015
100
AcDbArc
 50
1.403289794921875
 51
90.0
  0
ARC
  5
4A4
330
1F
100
AcDbEntity
  8
その他
  6
Continuous
 62
     2
370
     9
100
AcDbCircle
 10
298.4812143686656
 20
-169.37841796875
 30
0.0
 40
6.199999886590081
100
AcDbArc
 50
270.0
 51
0.0
  0
ARC
  5
4A5
330
1F
100
AcDbEntity
  8
その他
  6
Continuous
 62
     2
370
     9
100
AcDbCircle
 10
319.6811655405406
 20
298.8216717694257
 30
0.0
 40
13.99999979380015
100
AcDbArc
 50
270.0
 51
0.0
  0
ARC
  5
4A6
330
1F
100
AcDbEntity
  8
その他
  6
Continuous
 62
     2
370
     9
100
AcDbCircle
 10
298.4812143686656
 20
278.6216744087839
 30
0.0
 40
3.000000038662472
100
AcDbArc
 50
1.403289794921875
 51
90.0
  0
ARC
  5
4A7
330
1F
100
AcDbEntity
  8
その他
  6
JWW_CENTER1
 62
     2
370
     9
100
AcDbCircle
 10
319.6811655405406
 20
-189.5783658414273
 30
0.0
 40
9.500000412399705
100
AcDbArc
 50
0.0
 51
90.0
  0
ARC
  5
4A8
330
1F
100
AcDbEntity
  8
その他
  6
Continuous
 62
     2
370
     9
100
AcDbCircle
 10
319.6811655405406
 20
-189.5783163534628
 30
0.0
 40
5.000000257749815
100
AcDbArc
 50
0.0
 51
90.0
  0
TEXT
  5
4A9
330
1F
100
AcDbEntity
  8
その他
  6
Continuous
 62
     7
370
     9
100
AcDbText
 10
113.7867728568412
 20
369.4140821896116
 30
0.0
 40
9.144
  1
枠：ＳＰＨＣ
 41
1.138888888888889
  7
ＭＳ ゴシック
100
AcDbText
  0
TEXT
  5
4AA
330
1F
100
AcDbEntity
  8
その他
  6
Continuous
 62
     7
370
     9
100
AcDbText
 10
122.0512893264359
 20
350.1298101245777
 30
0.0
 40
9.144
  1
樹脂系塗装
 41
1.133333333333333
  7
ＭＳ ゴシック
100
AcDbText
  0
TEXT
  5
4AB
330
1F
100
AcDbEntity
  8
その他
  6
Continuous
 62
     7
370
     9
100
AcDbText
 10
56.63898529877542
 20
292.9100439717062
 30
0.0
 40
9.144
  1
蓋：ＦＣ２００
 41
1.142857142857143
  7
ＭＳ ゴシック
100
AcDbText
  0
TEXT
  5
4AC
330
1F
100
AcDbEntity
  8
その他
  6
Continuous
 62
     7
370
     9
100
AcDbText
 10
69.03611961570948
 20
275.0034178631757
 30
0.0
 40
9.144
  1
樹脂系塗装
 41
1.133333333333333
  7
ＭＳ ゴシック
100
AcDbText
  0
TEXT
  5
4AD
330
1F
100
AcDbEntity
  8
その他
  6
Continuous
 62
     7
370
     9
100
AcDbText
 10
417.0984051678632
 20
360.7258761613176
 30
0.0
 40
9.144
  1
樹脂系塗装，φ９
 41
1.145833333333333
  7
ＭＳ ゴシック
100
AcDbText
  0
TEXT
  5
4AE
330
1F
100
AcDbEntity
  8
その他
  6
Continuous
 62
     2
370
     9
100
AcDbText
 10
460.916061813767
 20
-378.5681593644425
 30
0.0
 40
12.192
  1
仕様
 41
1.0625
  7
ＭＳ ゴシック
100
AcDbText
  0
TEXT
  5
4AF
330
1F
100
AcDbEntity
  8
その他
  6
Continuous
 62
     2
370
     9
100
AcDbText
 10
460.9160420185812
 20
-402.5681890572213
 30
0.0
 40
12.192
  1
適用荷重：歩行用
 41
1.109375
  7
ＭＳ ゴシック
100
AcDbText
  0
TEXT
  5
4B0
330
1F
100
AcDbEntity
  8
その他
  6
Continuous
 62
     2
370
     9
100
AcDbText
 10
-481.9188900509396
 20
358.0777113597974
 30
0.0
 40
12.192
  1
100
 41
1.083333333333333
  7
ＭＳ ゴシック
100
AcDbText
  0
TEXT
  5
4B1
330
1F
100
AcDbEntity
  8
その他
  6
Continuous
 62
     2
370
     9
100
AcDbText
 10
-121.5188912056587
 20
358.0777113597974
 30
0.0
 40
12.192
  1
100
 41
1.083333333333333
  7
ＭＳ ゴシック
100
AcDbText
  0
TEXT
  5
4B2
330
1F
100
AcDbEntity
  8
その他
  6
Continuous
 62
     2
370
     9
100
AcDbText
 10
-324.113398371516
 20
-231.3223625422297
 30
0.0
 40
12.192
  1
28.5
 41
1.09375
  7
ＭＳ ゴシック
100
AcDbText
  0
TEXT
  5
4B3
330
1F
100
AcDbEntity
  8
その他
  6
Continuous
 62
     2
370
     9
100
AcDbText
 10
-225.8234269425676
 20
-231.3223625422297
 30
0.0
 40
12.192
  1
14
 41
1.0625
  7
ＭＳ ゴシック
100
AcDbText
  0
TEXT
  5
4B4
330
1F
100
AcDbEntity
  8
その他
  6
Continuous
 62
     2
370
     9
100
AcDbText
 10
-2.774930796030305
 20
19.22715140677792
 30
0.0
 40
12.192
  1
28.5
 50
90.0
 41
1.09375
  7
ＭＳ ゴシック
100
AcDbText
  0
TEXT
  5
4B5
330
1F
100
AcDbEntity
  8
その他
  6
Continuous
 62
     2
370
     9
100
AcDbText
 10
-2.774930796030305
 20
117.5171228357264
 30
0.0
 40
12.192
  1
14
 50
90.0
 41
1.0625
  7
ＭＳ ゴシック
100
AcDbText
  0
TEXT
  5
4B6
330
1F
100
AcDbEntity
  8
その他
  6
Continuous
 62
     2
370
     9
100
AcDbText
 10
239.4285954655828
 20
-231.3223625422297
 30
0.0
 40
12.192
  1
23.2
 41
1.09375
  7
ＭＳ ゴシック
100
AcDbText
  0
TEXT
  5
4B7
330
1F
100
AcDbEntity
  8
その他
  6
Continuous
 62
     2
370
     9
100
AcDbText
 10
290.081209749789
 20
-271.3223955342061
 30
0.0
 40
12.192
  1
52.2
 41
1.09375
  7
ＭＳ ゴシック
100
AcDbText
  0
TEXT
  5
4B8
330
1F
100
AcDbEntity
  8
その他
  6
Continuous
 62
     2
370
     9
100
AcDbText
 10
217.225201171875
 20
-206.4254983438028
 30
0.0
 40
12.192
  1
3.2
 50
90.0
 41
1.083333333333333
  7
ＭＳ ゴシック
100
AcDbText
  0
TEXT
  5
4B9
330
1F
100
AcDbEntity
  8
その他
  6
Continuous
 62
     2
370
     9
100
AcDbText
 10
217.225201171875
 20
-158.7181281012458
 30
0.0
 40
12.192
  1
2
 50
90.0
  7
ＭＳ ゴシック
100
AcDbText
  0
TEXT
  5
4BA
330
1F
100
AcDbEntity
  8
その他
  6
Continuous
 62
     2
370
     9
100
AcDbText
 10
217.225201171875
 20
261.3347497888514
 30
0.0
 40
12.192
  1
2
 50
90.0
  7
ＭＳ ゴシック
100
AcDbText
  0
TEXT
  5
4BB
330
1F
100
AcDbEntity
  8
その他
  6
Continuous
 62
     2
370
     9
100
AcDbText
 10
217.225201171875
 20
293.0515664590372
 30
0.0
 40
12.192
  1
3.2
 50
90.0
 41
1.083333333333333
  7
ＭＳ ゴシック
100
AcDbText
  0
TEXT
  5
4BC
330
1F
100
AcDbEntity
  8
その他
  6
Continuous
 62
     2
370
     9
100
AcDbText
 10
369.4252381228886
 20
-198.5783922350084
 30
0.0
 40
12.192
  1
29
 50
90.0
 41
1.0625
  7
ＭＳ ゴシック
100
AcDbText
  0
TEXT
  5
4BD
330
1F
100
AcDbEntity
  8
その他
  6
Continuous
 62
     2
370
     9
100
AcDbText
 10
391.5100341005069
 20
-177.9783292203336
 30
0.0
 40
12.192
  1
30.2
 50
90.0
 41
1.09375
  7
ＭＳ ゴシック
100
AcDbText
  0
TEXT
  5
4BE
330
1F
100
AcDbEntity
  8
その他
  6
Continuous
 62
     2
370
     9
100
AcDbText
 10
390.7462368559967
 20
252.2216104043497
 30
0.0
 40
12.192
  1
30.2
 50
90.0
 41
1.09375
  7
ＭＳ ゴシック
100
AcDbText
  0
TEXT
  5
4BF
330
1F
100
AcDbEntity
  8
その他
  6
Continuous
 62
     2
370
     9
100
AcDbText
 10
369.4252381228886
 20
290.8216486750423
 30
0.0
 40
12.192
  1
29
 50
90.0
 41
1.0625
  7
ＭＳ ゴシック
100
AcDbText
  0
TEXT
  5
4C0
330
1F
100
AcDbEntity
  8
その他
  6
Continuous
 62
     2
370
     9
100
AcDbText
 10
177.2251681798988
 20
23.62162822001693
 30
0.0
 40
12.192
  1
□460.4
 50
90.0
 41
1.107142857142857
  7
ＭＳ ゴシック
100
AcDbText
  0
TEXT
  5
4C1
330
1F
100
AcDbEntity
  8
その他
  6
Continuous
 62
     2
370
     9
100
AcDbText
 10
217.225201171875
 20
32.62165296399922
 30
0.0
 40
12.192
  1
□450
 50
90.0
 41
1.1
  7
ＭＳ ゴシック
100
AcDbText
  0
TEXT
  5
4C2
330
1F
100
AcDbEntity
  8
その他
  6
Continuous
 62
     2
370
     9
100
AcDbText
 10
369.4252381228886
 20
32.62165296399922
 30
0.0
 40
12.192
  1
□400
 50
90.0
 41
1.1
  7
ＭＳ ゴシック
100
AcDbText
  0
TEXT
  5
4C3
330
1F
100
AcDbEntity
  8
その他
  6
Continuous
 62
     2
370
     9
100
AcDbText
 10
253.6018693253801
 20
-56.22236386190875
 30
0.0
 40
12.192
  1
15
 41
1.0625
  7
ＭＳ ゴシック
100
AcDbText
  0
TEXT
  5
4C4
330
1F
100
AcDbEntity
  8
その他
  6
Continuous
 62
     2
370
     9
100
AcDbText
 10
253.3134534681166
 20
-96.22234736592057
 30
0.0
 40
12.192
  1
20
 41
1.0625
  7
ＭＳ ゴシック
100
AcDbText
  0
TEXT
  5
4C5
330
1F
100
AcDbEntity
  8
その他
  6
Continuous
 62
     7
370
     9
100
AcDbText
 10
403.0981577280406
 20
384.1423932643581
 30
0.0
 40
9.144
  1
アンカー：ＳＳ４００
 41
1.15
  7
ＭＳ ゴシック
100
AcDbText
  0
LWPOLYLINE
  5
4C6
330
1F
100
AcDbEntity
  8
その他
  6
Continuous
 62
     7
370
     9
100
AcDbPolyline
 90
        4
 70
     1
 43
0.8
 10
-252.8188786687077
 20
-235.578369140625
 42
0.4142135623731
 10
-253.2188786687077
 20
-235.178369140625
 42
0.4142135623731
 10
-253.6188786687077
 20
-235.578369140625
 42
0.4142135623731
 10
-253.2188786687077
 20
-235.978369140625
 42
0.4142135623731
  0
LWPOLYLINE
  5
4C7
330
1F
100
AcDbEntity
  8
その他
  6
Continuous
 62
     7
370
     9
100
AcDbPolyline
 90
        4
 70
     1
 43
0.8
 10
1.880976826435835
 20
90.12167110958615
 42
0.4142135623731
 10
1.480976826435835
 20
90.52167110958615
 42
0.4142135623731
 10
1.080976826435835
 20
90.12167110958615
 42
0.4142135623731
 10
1.480976826435835
 20
89.72167110958614
 42
0.4142135623731
  0
LWPOLYLINE
  5
4C8
330
1F
100
AcDbEntity
  8
その他
  6
Continuous
 62
     7
370
     9
100
AcDbPolyline
 90
        4
 70
     1
 43
0.8
 10
221.8812077702704
 20
-172.3783783783783
 42
0.4142135623731
 10
221.4812077702704
 20
-171.9783783783783
 42
0.4142135623731
 10
221.0812077702704
 20
-172.3783783783783
 42
0.4142135623731
 10
221.4812077702704
 20
-172.7783783783783
 42
0.4142135623731
  0
LWPOLYLINE
  5
4C9
330
1F
100
AcDbEntity
  8
その他
  6
Continuous
 62
     7
370
     9
100
AcDbPolyline
 90
        4
 70
     1
 43
0.8
 10
221.8812077702704
 20
281.6216348184122
 42
0.4142135623731
 10
221.4812077702704
 20
282.0216348184122
 42
0.4142135623731
 10
221.0812077702704
 20
281.6216348184122
 42
0.4142135623731
 10
221.4812077702704
 20
281.2216348184122
 42
0.4142135623731
  0
TEXT
  5
4CA
330
1F
100
AcDbEntity
  8
その他
  6
Continuous
 62
     2
370
     9
100
AcDbText
 10
-352.0001402158994
 20
-545.5174903202399
 30
0.0
 40
12.192
  1
格子型　集水桝用　受枠付　鋳鉄製みぞ蓋　ＧＡＣ４４２０
 41
1.12037037037037
  7
ＭＳ ゴシック
100
AcDbText
  0
LINE
  5
4CB
330
1F
100
AcDbEntity
  8
ハッチ
  6
Continuous
 62
     7
370
     9
100
AcDbLine
 10
351.3419816300677
 20
192.5320649018159
 30
0.0
 11
358.6470980257602
 21
202.0523615656673
 31
0.0
  0
LINE
  5
4CC
330
1F
100
AcDbEntity
  8
ハッチ
  6
Continuous
 62
     7
370
     9
100
AcDbLine
 10
351.3419816300677
 20
192.5320649018159
 30
0.0
 11
360.86217931799
 21
199.8372802734375
 31
0.0
  0
LINE
  5
4CD
330
1F
100
AcDbEntity
  8
ハッチ
  6
Continuous
 62
     6
370
     9
100
AcDbLine
 10
316.4812737542231
 20
185.2716361380913
 30
0.0
 11
302.6482989336994
 21
185.2716361380913
 31
0.0
  0
LINE
  5
4CE
330
1F
100
AcDbEntity
  8
ハッチ
  6
Continuous
 62
     6
370
     9
100
AcDbLine
 10
316.4812737542231
 20
178.9716697899071
 30
0.0
 11
302.6482989336994
 21
178.9716697899071
 31
0.0
  0
LINE
  5
4CF
330
1F
100
AcDbEntity
  8
ハッチ
  6
Continuous
 62
     6
370
     9
100
AcDbLine
 10
312.9813859269427
 20
173.132188951647
 30
0.0
 11
341.9812341638515
 21
175.1600572740709
 31
0.0
  0
LINE
  5
4D0
330
1F
100
AcDbEntity
  8
ハッチ
  6
Continuous
 62
     6
370
     9
100
AcDbLine
 10
296.4812077702704
 20
174.1216018264358
 30
0.0
 11
301.4813727301521
 21
174.5591249208193
 31
0.0
  0
LINE
  5
4D1
330
1F
100
AcDbEntity
  8
ハッチ
  6
Continuous
 62
     6
370
     9
100
AcDbLine
 10
296.4812077702704
 20
190.121654613598
 30
0.0
 11
301.4813727301521
 21
189.6841810071791
 31
0.0
  0
LINE
  5
4D2
330
1F
100
AcDbEntity
  8
ハッチ
  6
Continuous
 62
     6
370
     9
100
AcDbLine
 10
326.6312552787163
 20
185.2716361380913
 30
0.0
 11
323.4813463365711
 21
185.2716361380913
 31
0.0
  0
LINE
  5
4D3
330
1F
100
AcDbEntity
  8
ハッチ
  6
Continuous
 62
     6
370
     9
100
AcDbLine
 10
326.6312552787163
 20
178.9716697899071
 30
0.0
 11
323.4813463365711
 21
178.9716697899071
 31
0.0
  0
LINE
  5
4D4
330
1F
100
AcDbEntity
  8
ハッチ
  6
Continuous
 62
     6
370
     9
100
AcDbLine
 10
317.481227565456
 20
173.86639239337
 30
0.0
 11
316.4812737542231
 21
173.86639239337
 31
0.0
  0
LINE
  5
4D5
330
1F
100
AcDbEntity
  8
ハッチ
  6
Continuous
 62
     6
370
     9
100
AcDbLine
 10
323.4813463365711
 20
173.86639239337
 30
0.0
 11
322.4812935494087
 21
173.86639239337
 31
0.0
  0
LINE
  5
4D6
330
1F
100
AcDbEntity
  8
ハッチ
  6
Continuous
 62
     6
370
     9
100
AcDbLine
 10
315.48131994299
 20
190.936325485642
 30
0.0
 11
315.48131994299
 21
197.9363485800254
 31
0.0
  0
LINE
  5
4D7
330
1F
100
AcDbEntity
  8
ハッチ
  6
Continuous
 62
     6
370
     9
100
AcDbLine
 10
324.481201171875
 20
190.3069870407518
 30
0.0
 11
324.481201171875
 21
197.3070101351352
 31
0.0
  0
LINE
  5
4D8
330
1F
100
AcDbEntity
  8
ハッチ
  6
Continuous
 62
     6
370
     9
100
AcDbLine
 10
312.9813859269427
 20
166.1321658572635
 30
0.0
 11
341.9812341638515
 21
168.1600341796875
 31
0.0
  0
LINE
  5
4D9
330
1F
100
AcDbEntity
  8
ハッチ
  6
Continuous
 62
     6
370
     9
100
AcDbLine
 10
312.9813859269427
 20
191.1111664643159
 30
0.0
 11
341.9812341638515
 21
189.083298141892
 31
0.0
  0
LINE
  5
4DA
330
1F
100
AcDbEntity
  8
ハッチ
  6
Continuous
 62
     6
370
     9
100
AcDbLine
 10
303.4812803526183
 20
182.1216777079815
 30
0.0
 11
301.4813727301521
 21
174.5591249208193
 31
0.0
  0
LINE
  5
4DB
330
1F
100
AcDbEntity
  8
ハッチ
  6
Continuous
 62
     6
370
     9
100
AcDbLine
 10
303.4812803526183
 20
182.1216777079815
 30
0.0
 11
301.4813727301521
 21
189.6841810071791
 31
0.0
  0
LINE
  5
4DC
330
1F
100
AcDbEntity
  8
ハッチ
  6
Continuous
 62
     6
370
     9
100
AcDbLine
 10
312.9813859269427
 20
198.1111400707348
 30
0.0
 11
341.9812341638515
 21
196.0832717483108
 31
0.0
  0
LINE
  5
4DD
330
1F
100
AcDbEntity
  8
ハッチ
  6
Continuous
 62
     6
370
     9
100
AcDbLine
 10
312.9813859269427
 20
166.1321658572635
 30
0.0
 11
312.9813859269427
 21
173.132188951647
 31
0.0
  0
LINE
  5
4DE
330
1F
100
AcDbEntity
  8
ハッチ
  6
Continuous
 62
     6
370
     9
100
AcDbLine
 10
312.9813859269427
 20
191.1111664643159
 30
0.0
 11
312.9813859269427
 21
198.1111400707348
 31
0.0
  0
LINE
  5
4DF
330
1F
100
AcDbEntity
  8
ハッチ
  6
Continuous
 62
     6
370
     9
100
AcDbLine
 10
376.3354822107265
 20
179.6215952280406
 30
0.0
 11
355.7563080658786
 21
179.6215952280406
 31
0.0
  0
LINE
  5
4E0
330
1F
100
AcDbEntity
  8
ハッチ
  6
Continuous
 62
     6
370
     9
100
AcDbLine
 10
376.3354822107265
 20
184.6216612119933
 30
0.0
 11
355.7563080658786
 21
184.6216612119933
 31
0.0
  0
LINE
  5
4E1
330
1F
100
AcDbEntity
  8
ハッチ
  6
Continuous
 62
     6
370
     9
100
AcDbLine
 10
383.4813463365711
 20
184.6216612119933
 30
0.0
 11
381.8588339315879
 21
184.6216612119933
 31
0.0
  0
LINE
  5
4E2
330
1F
100
AcDbEntity
  8
ハッチ
  6
Continuous
 62
     6
370
     9
100
AcDbLine
 10
383.4813463365711
 20
179.6215952280406
 30
0.0
 11
381.8588339315879
 21
179.6215952280406
 31
0.0
  0
LINE
  5
4E3
330
1F
100
AcDbEntity
  8
ハッチ
  6
Continuous
 62
     6
370
     9
100
AcDbLine
 10
348.5195840371623
 20
179.6215952280406
 30
0.0
 11
346.4813727301521
 21
179.6215952280406
 31
0.0
  0
LINE
  5
4E4
330
1F
100
AcDbEntity
  8
ハッチ
  6
Continuous
 62
     6
370
     9
100
AcDbLine
 10
348.5195840371623
 20
184.6216612119933
 30
0.0
 11
346.4813727301521
 21
184.6216612119933
 31
0.0
  0
LINE
  5
4E5
330
1F
100
AcDbEntity
  8
ハッチ
  6
Continuous
 62
     6
370
     9
100
AcDbLine
 10
323.4813463365711
 20
166.3769333298143
 30
0.0
 11
323.4813463365711
 21
198.8617240287163
 31
0.0
  0
LINE
  5
4E6
330
1F
100
AcDbEntity
  8
ハッチ
  6
Continuous
 62
     6
370
     9
100
AcDbLine
 10
316.4812737542231
 20
166.3769333298143
 30
0.0
 11
316.4812737542231
 21
198.8617240287163
 31
0.0
  0
LINE
  5
4E7
330
1F
100
AcDbEntity
  8
ハッチ
  6
Continuous
 62
     6
370
     9
100
AcDbLine
 10
408.9812077702704
 20
186.1216414168075
 30
0.0
 11
384.981227565456
 21
186.1216414168075
 31
0.0
  0
LINE
  5
4E8
330
1F
100
AcDbEntity
  8
ハッチ
  6
Continuous
 62
     6
370
     9
100
AcDbLine
 10
408.9812077702704
 20
178.1216150232264
 30
0.0
 11
384.981227565456
 21
178.1216150232264
 31
0.0
  0
LINE
  5
4E9
330
1F
100
AcDbEntity
  8
ハッチ
  6
Continuous
 62
     6
370
     9
100
AcDbLine
 10
408.9812077702704
 20
191.1216084248312
 30
0.0
 11
384.981227565456
 21
191.1216084248312
 31
0.0
  0
LINE
  5
4EA
330
1F
100
AcDbEntity
  8
ハッチ
  6
Continuous
 62
     6
370
     9
100
AcDbLine
 10
322.4812935494087
 20
165.3769300306166
 30
0.0
 11
317.481227565456
 21
165.3769300306166
 31
0.0
  0
LINE
  5
4EB
330
1F
100
AcDbEntity
  8
ハッチ
  6
Continuous
 62
     6
370
     9
100
AcDbLine
 10
408.9812077702704
 20
173.1216480152027
 30
0.0
 11
384.981227565456
 21
173.1216480152027
 31
0.0
  0
LINE
  5
4EC
330
1F
100
AcDbEntity
  8
ハッチ
  6
Continuous
 62
     6
370
     9
100
AcDbLine
 10
314.9812935494087
 20
199.8616778399494
 30
0.0
 11
314.9812935494087
 21
205.8616976351352
 31
0.0
  0
LINE
  5
4ED
330
1F
100
AcDbEntity
  8
ハッチ
  6
Continuous
 62
     6
370
     9
100
AcDbLine
 10
324.981227565456
 20
199.8616778399494
 30
0.0
 11
324.981227565456
 21
205.8616976351352
 31
0.0
  0
LINE
  5
4EE
330
1F
100
AcDbEntity
  8
ハッチ
  6
Continuous
 62
     6
370
     9
100
AcDbLine
 10
498.1556495460304
 20
-60.15125501478042
 30
0.0
 11
498.1556495460304
 21
19.0661588101774
 31
0.0
  0
LINE
  5
4EF
330
1F
100
AcDbEntity
  8
ハッチ
  6
Continuous
 62
     6
370
     9
100
AcDbLine
 10
323.4813463365711
 20
198.8617240287163
 30
0.0
 11
324.981227565456
 21
199.8616778399494
 31
0.0
  0
LINE
  5
4F0
330
1F
100
AcDbEntity
  8
ハッチ
  6
Continuous
 62
     6
370
     9
100
AcDbLine
 10
316.4812737542231
 20
198.8617240287163
 30
0.0
 11
314.9812935494087
 21
199.8616778399494
 31
0.0
  0
LINE
  5
4F1
330
1F
100
AcDbEntity
  8
ハッチ
  6
Continuous
 62
     6
370
     9
100
AcDbLine
 10
322.98131994299
 20
207.8616547455659
 30
0.0
 11
316.981201171875
 21
207.8616547455659
 31
0.0
  0
LINE
  5
4F2
330
1F
100
AcDbEntity
  8
ハッチ
  6
Continuous
 62
     6
370
     9
100
AcDbLine
 10
491.1554779877536
 20
-67.15132759712833
 30
0.0
 11
468.1554515941723
 21
-67.15132759712833
 31
0.0
  0
LINE
  5
4F3
330
1F
100
AcDbEntity
  8
ハッチ
  6
Continuous
 62
     6
370
     9
100
AcDbLine
 10
317.481227565456
 20
165.3769300306166
 30
0.0
 11
317.481227565456
 21
173.86639239337
 31
0.0
  0
LINE
  5
4F4
330
1F
100
AcDbEntity
  8
ハッチ
  6
Continuous
 62
     6
370
     9
100
AcDbLine
 10
322.4812935494087
 20
165.3769300306166
 30
0.0
 11
322.4812935494087
 21
173.86639239337
 31
0.0
  0
LINE
  5
4F5
330
1F
100
AcDbEntity
  8
ハッチ
  6
Continuous
 62
     6
370
     9
100
AcDbLine
 10
410.4812869510135
 20
179.6215952280406
 30
0.0
 11
412.1037003800677
 21
179.6215952280406
 31
0.0
  0
LINE
  5
4F6
330
1F
100
AcDbEntity
  8
ハッチ
  6
Continuous
 62
     6
370
     9
100
AcDbLine
 10
410.4812869510135
 20
184.6216612119933
 30
0.0
 11
412.1037003800677
 21
184.6216612119933
 31
0.0
  0
LINE
  5
4F7
330
1F
100
AcDbEntity
  8
ハッチ
  6
Continuous
 62
     6
370
     9
100
AcDbLine
 10
417.6271510768581
 20
184.6216612119933
 30
0.0
 11
434.2557010135135
 21
184.6216612119933
 31
0.0
  0
LINE
  5
4F8
330
1F
100
AcDbEntity
  8
ハッチ
  6
Continuous
 62
     6
370
     9
100
AcDbLine
 10
417.6271510768581
 20
179.6215952280406
 30
0.0
 11
436.2186906144427
 21
179.6215952280406
 31
0.0
  0
LINE
  5
4F9
330
1F
100
AcDbEntity
  8
ハッチ
  6
Continuous
 62
     6
370
     9
100
AcDbLine
 10
322.4812935494087
 20
165.3769300306166
 30
0.0
 11
323.4813463365711
 21
166.3769333298143
 31
0.0
  0
LINE
  5
4FA
330
1F
100
AcDbEntity
  8
ハッチ
  6
Continuous
 62
     6
370
     9
100
AcDbLine
 10
317.481227565456
 20
165.3769300306166
 30
0.0
 11
316.4812737542231
 21
166.3769333298143
 31
0.0
  0
LINE
  5
4FB
330
1F
100
AcDbEntity
  8
ハッチ
  6
JWW_CENTER1
 62
     6
370
     9
100
AcDbLine
 10
491.1685428103885
 20
43.27675979201865
 30
0.0
 11
533.2831965266048
 21
116.2212771853885
 31
0.0
  0
LINE
  5
4FC
330
1F
100
AcDbEntity
  8
ハッチ
  6
Continuous
 62
     6
370
     9
100
AcDbLine
 10
489.1555703652873
 20
-60.15125501478042
 30
0.0
 11
468.1554515941723
 21
-60.15125501478042
 31
0.0
  0
LINE
  5
4FD
330
1F
100
AcDbEntity
  8
ハッチ
  6
Continuous
 62
     6
370
     9
100
AcDbLine
 10
430.1625514674831
 20
195.0468453072214
 30
0.0
 11
439.8847590266048
 21
170.2845524968328
 31
0.0
  0
LINE
  5
4FE
330
1F
100
AcDbEntity
  8
ハッチ
  6
Continuous
 62
     6
370
     9
100
AcDbLine
 10
491.1554779877536
 20
-58.1512484163851
 30
0.0
 11
491.1554779877536
 21
19.98767419763522
 31
0.0
  0
LINE
  5
4FF
330
1F
100
AcDbEntity
  8
ハッチ
  6
Continuous
 62
     6
370
     9
100
AcDbLine
 10
468.1554515941723
 20
-67.15132759712833
 30
0.0
 11
468.1554515941723
 21
-60.15125501478042
 31
0.0
  0
LINE
  5
500
330
1F
100
AcDbEntity
  8
ハッチ
  6
Continuous
 62
     6
370
     9
100
AcDbLine
 10
488.155517578125
 20
27.84873838682438
 30
0.0
 11
481.1555439717063
 21
27.84873838682438
 31
0.0
  0
LINE
  5
501
330
1F
100
AcDbEntity
  8
ハッチ
  6
JWW_CENTER1
 62
     6
370
     9
100
AcDbLine
 10
489.1555703652873
 20
-63.65124181798978
 30
0.0
 11
459.266819309544
 21
-63.65124181798978
 31
0.0
  0
LINE
  5
502
330
1F
100
AcDbEntity
  8
ハッチ
  6
Continuous
 62
     6
370
     9
100
AcDbLine
 10
505.1555241765204
 20
45.8487482844173
 30
0.0
 11
498.3258881440036
 21
20.36021959459458
 31
0.0
  0
LINE
  5
503
330
1F
100
AcDbEntity
  8
ハッチ
  6
Continuous
 62
     6
370
     9
100
AcDbLine
 10
488.155517578125
 20
27.84873838682438
 30
0.0
 11
488.155517578125
 21
45.8487482844173
 31
0.0
  0
LINE
  5
504
330
1F
100
AcDbEntity
  8
ハッチ
  6
Continuous
 62
     6
370
     9
100
AcDbLine
 10
481.1555439717063
 20
27.84873838682438
 30
0.0
 11
481.1555439717063
 21
45.8487482844173
 31
0.0
  0
LINE
  5
505
330
1F
100
AcDbEntity
  8
ハッチ
  6
JWW_CENTER1
 62
     6
370
     9
100
AcDbLine
 10
494.6555637668919
 20
-58.1512484163851
 30
0.0
 11
494.6555637668919
 21
19.98767419763522
 31
0.0
  0
LINE
  5
506
330
1F
100
AcDbEntity
  8
ハッチ
  6
Continuous
 62
     6
370
     9
100
AcDbLine
 10
496.4317857896961
 20
57.39285525760135
 30
0.0
 11
506.8123812288852
 21
75.37247611380917
 31
0.0
  0
LINE
  5
507
330
1F
100
AcDbEntity
  8
ハッチ
  6
Continuous
 62
     6
370
     9
100
AcDbLine
 10
498.1027963999156
 20
46.57330157305751
 30
0.0
 11
491.3259145375846
 21
21.28178447001687
 31
0.0
  0
LINE
  5
508
330
1F
100
AcDbEntity
  8
ハッチ
  6
Continuous
 62
     6
370
     9
100
AcDbLine
 10
500.8547231313346
 20
55.05336122255073
 30
0.0
 11
511.1424791490711
 21
72.87249260979729
 31
0.0
  0
LINE
  5
509
330
1F
100
AcDbEntity
  8
ハッチ
  6
Continuous
 62
     6
370
     9
100
AcDbLine
 10
491.885227512669
 20
49.51803341427365
 30
0.0
 11
492.6381374049831
 21
50.8218928156673
 31
0.0
  0
LINE
  5
50A
330
1F
100
AcDbEntity
  8
ハッチ
  6
Continuous
 62
     6
370
     9
100
AcDbLine
 10
496.2155233847129
 20
47.01804991026188
 30
0.0
 11
497.220821896115
 21
48.75958086993251
 31
0.0
  0
LINE
  5
50B
330
1F
100
AcDbEntity
  8
ハッチ
  6
Continuous
 62
     6
370
     9
100
AcDbLine
 10
530.9864600929054
 20
94.24327623521958
 30
0.0
 11
521.0946077913852
 21
77.11004803631761
 31
0.0
  0
LINE
  5
50C
330
1F
100
AcDbEntity
  8
ハッチ
  6
Continuous
 62
     6
370
     9
100
AcDbLine
 10
510.2020098711994
 20
94.24327623521958
 30
0.0
 11
505.5059979413008
 21
86.1099787531673
 31
0.0
  0
LINE
  5
50D
330
1F
100
AcDbEntity
  8
ハッチ
  6
Continuous
 62
     6
370
     9
100
AcDbLine
 10
525.2129961993244
 20
94.24327623521958
 30
0.0
 11
516.7645098711994
 21
79.61003154032937
 31
0.0
  0
LINE
  5
50E
330
1F
100
AcDbEntity
  8
ハッチ
  6
Continuous
 62
     6
370
     9
100
AcDbLine
 10
515.9754737647804
 20
94.24327623521958
 30
0.0
 11
509.8362938133446
 21
83.60999524915542
 31
0.0
  0
LINE
  5
50F
330
1F
100
AcDbEntity
  8
ハッチ
  6
Continuous
 62
     6
370
     9
100
AcDbLine
 10
509.5741065772804
 20
80.15583430109803
 30
0.0
 11
510.3853132918075
 21
81.56099556587844
 31
0.0
  0
LINE
  5
510
330
1F
100
AcDbEntity
  8
ハッチ
  6
Continuous
 62
     6
370
     9
100
AcDbLine
 10
513.9042044974663
 20
77.65585079708615
 30
0.0
 11
514.7154112119933
 21
79.0609130859375
 31
0.0
  0
LINE
  5
511
330
1F
100
AcDbEntity
  8
ハッチ
  6
Continuous
 62
     6
370
     9
100
AcDbLine
 10
538.0859045080238
 20
94.24327623521958
 30
0.0
 11
503.3638619087837
 21
94.24327623521958
 31
0.0
  0
LINE
  5
512
330
1F
100
AcDbEntity
  8
ハッチ
  6
JWW_CENTER1
 62
     6
370
     9
100
AcDbLine
 10
484.6555307749156
 20
16.47204919763522
 30
0.0
 11
484.6555307749156
 21
45.8487482844173
 31
0.0
  0
LINE
  5
513
330
1F
100
AcDbEntity
  8
ハッチ
  6
JWW_CENTER1
 62
     6
370
     9
100
AcDbLine
 10
499.1848012563346
 20
182.1216777079815
 30
0.0
 11
289.5383432749156
 21
182.1216777079815
 31
0.0
  0
LINE
  5
514
330
1F
100
AcDbEntity
  8
ハッチ
  6
JWW_CENTER1
 62
     6
370
     9
100
AcDbLine
 10
501.6450459248313
 20
46.27008881440042
 30
0.0
 11
494.7066353462837
 21
20.37590727934969
 31
0.0
  0
LINE
  5
515
330
1F
100
AcDbEntity
  8
ハッチ
  6
JWW_CENTER1
 62
     6
370
     9
100
AcDbLine
 10
326.6312552787163
 20
176.6216843063768
 30
0.0
 11
326.6312552787163
 21
187.6211267419764
 31
0.0
  0
LINE
  5
516
330
1F
100
AcDbEntity
  8
ハッチ
  6
JWW_CENTER1
 62
     6
370
     9
100
AcDbLine
 10
319.9812605574325
 20
157.1216447160051
 30
0.0
 11
319.9812605574325
 21
207.1216117240288
 31
0.0
  0
LINE
  5
517
330
1F
100
AcDbEntity
  8
ハッチ
  6
Continuous
 62
     7
370
     9
100
AcDbLine
 10
465.3267195418075
 20
306.5168523015203
 30
0.0
 11
351.3419816300677
 21
192.5320649018159
 31
0.0
  0
LINE
  5
518
330
1F
100
AcDbEntity
  8
ハッチ
  6
Continuous
 62
     7
370
     9
100
AcDbLine
 10
465.3267195418075
 20
306.5168523015203
 30
0.0
 11
666.522117820946
 21
306.5168523015203
 31
0.0
  0
CIRCLE
  5
519
330
1F
100
AcDbEntity
  8
ハッチ
  6
Continuous
 62
     6
370
     9
100
AcDbCircle
 10
346.4813727301521
 20
182.1216777079815
 30
0.0
 40
2.500000128874908
  0
CIRCLE
  5
51A
330
1F
100
AcDbEntity
  8
ハッチ
  6
Continuous
 62
     6
370
     9
100
AcDbCircle
 10
326.6312552787163
 20
182.1216777079815
 30
0.0
 40
3.150000185579867
  0
CIRCLE
  5
51B
330
1F
100
AcDbEntity
  8
ハッチ
  6
Continuous
 62
     6
370
     9
100
AcDbCircle
 10
383.4813463365711
 20
182.1216777079815
 30
0.0
 40
2.500000128874908
  0
ARC
  5
51C
330
1F
100
AcDbEntity
  8
ハッチ
  6
Continuous
 62
     6
370
     9
100
AcDbCircle
 10
341.9812341638515
 20
182.1216777079815
 30
0.0
 40
6.999999896900074
100
AcDbArc
 50
270.0
 51
90.0
  0
ARC
  5
51D
330
1F
100
AcDbEntity
  8
ハッチ
  6
Continuous
 62
     6
370
     9
100
AcDbCircle
 10
341.9812341638515
 20
182.1216777079815
 30
0.0
 40
13.99999979380015
100
AcDbArc
 50
270.0
 51
90.0
  0
ARC
  5
51E
330
1F
100
AcDbEntity
  8
ハッチ
  6
Continuous
 62
     6
370
     9
100
AcDbCircle
 10
316.981201171875
 20
205.8616976351352
 30
0.0
 40
2.000000025774982
100
AcDbArc
 50
90.0
 51
180.0
  0
ARC
  5
51F
330
1F
100
AcDbEntity
  8
ハッチ
  6
Continuous
 62
     6
370
     9
100
AcDbCircle
 10
384.981227565456
 20
182.1216777079815
 30
0.0
 40
4.000000051549963
100
AcDbArc
 50
90.0
 51
270.0
  0
ARC
  5
520
330
1F
100
AcDbEntity
  8
ハッチ
  6
Continuous
 62
     6
370
     9
100
AcDbCircle
 10
384.981227565456
 20
182.1216777079815
 30
0.0
 40
9.000000309299779
100
AcDbArc
 50
90.0
 51
270.0
  0
ARC
  5
521
330
1F
100
AcDbEntity
  8
ハッチ
  6
Continuous
 62
     6
370
     9
100
AcDbCircle
 10
491.1554779877536
 20
-60.15125501478042
 30
0.0
 40
6.999999896900074
100
AcDbArc
 50
270.0
 51
0.0
  0
ARC
  5
522
330
1F
100
AcDbEntity
  8
ハッチ
  6
Continuous
 62
     6
370
     9
100
AcDbCircle
 10
322.98131994299
 20
205.8616976351352
 30
0.0
 40
2.000000025774982
100
AcDbArc
 50
0.0
 51
90.0
  0
ARC
  5
523
330
1F
100
AcDbEntity
  8
ハッチ
  6
Continuous
 62
     6
370
     9
100
AcDbCircle
 10
408.9812077702704
 20
182.1216777079815
 30
0.0
 40
4.000000051549963
100
AcDbArc
 50
270.0
 51
90.0
  0
CIRCLE
  5
524
330
1F
100
AcDbEntity
  8
ハッチ
  6
Continuous
 62
     6
370
     9
100
AcDbCircle
 10
319.9812605574325
 20
202.8616877375423
 30
0.0
 40
2.500000128874908
  0
ARC
  5
525
330
1F
100
AcDbEntity
  8
ハッチ
  6
Continuous
 62
     6
370
     9
100
AcDbCircle
 10
408.9812077702704
 20
182.1216777079815
 30
0.0
 40
9.000000309299779
100
AcDbArc
 50
270.0
 51
90.0
  0
ARC
  5
526
330
1F
100
AcDbEntity
  8
ハッチ
  6
Continuous
 62
     6
370
     9
100
AcDbCircle
 10
489.1555703652873
 20
-58.1512484163851
 30
0.0
 40
2.000000025774982
100
AcDbArc
 50
270.0
 51
0.0
  0
CIRCLE
  5
527
330
1F
100
AcDbEntity
  8
ハッチ
  6
Continuous
 62
     6
370
     9
100
AcDbCircle
 10
410.4812869510135
 20
182.1216777079815
 30
0.0
 40
2.500000128874908
  0
ARC
  5
528
330
1F
100
AcDbEntity
  8
ハッチ
  6
Continuous
 62
     6
370
     9
100
AcDbCircle
 10
496.1555439717063
 20
19.98767419763522
 30
0.0
 40
5.000000257749815
100
AcDbArc
 50
164.9999847412109
 51
179.9999847412109
  0
ARC
  5
529
330
1F
100
AcDbEntity
  8
ハッチ
  6
Continuous
 62
     6
370
     9
100
AcDbCircle
 10
503.155517578125
 20
19.0661588101774
 30
0.0
 40
5.000000257749815
100
AcDbArc
 50
164.9999847412109
 51
179.9999847412109
  0
ARC
  5
52A
330
1F
100
AcDbEntity
  8
ハッチ
  6
Continuous
 62
     6
370
     9
100
AcDbCircle
 10
493.1554845861488
 20
45.8487482844173
 30
0.0
 40
5.000000257749815
100
AcDbArc
 50
8.332473754882812
 51
179.9999847412109
  0
ARC
  5
52B
330
1F
100
AcDbEntity
  8
ハッチ
  6
Continuous
 62
     6
370
     9
100
AcDbCircle
 10
493.1554845861488
 20
45.8487482844173
 30
0.0
 40
12.00000015464989
100
AcDbArc
 50
359.999984741211
 51
180.0
  0
ARC
  5
52C
330
1F
100
AcDbEntity
  8
ハッチ
  6
JWW_CENTER1
 62
     6
370
     9
100
AcDbCircle
 10
489.1555703652873
 20
-58.1512484163851
 30
0.0
 40
5.499999587600296
100
AcDbArc
 50
270.0
 51
0.0
  0
ARC
  5
52D
330
1F
100
AcDbEntity
  8
ハッチ
  6
Continuous
 62
     6
370
     9
100
AcDbCircle
 10
513.3003523543075
 20
81.60998865076022
 30
0.0
 40
9.000000309299779
100
AcDbArc
 50
150.0
 51
330.0
  0
CIRCLE
  5
52E
330
1F
100
AcDbEntity
  8
ハッチ
  6
Continuous
 62
     6
370
     9
100
AcDbCircle
 10
494.0504249366554
 20
48.26801691828553
 30
0.0
 40
2.500000128874908
  0
CIRCLE
  5
52F
330
1F
100
AcDbEntity
  8
ハッチ
  6
Continuous
 62
     6
370
     9
100
AcDbCircle
 10
512.5503127639358
 20
80.31097906989021
 30
0.0
 40
2.500000128874908
  0
ARC
  5
530
330
1F
100
AcDbEntity
  8
ハッチ
  6
Continuous
 62
     6
370
     9
100
AcDbCircle
 10
513.3003523543075
 20
81.60998865076022
 30
0.0
 40
4.000000051549963
100
AcDbArc
 50
150.0
 51
330.0
  0
ARC
  5
531
330
1F
100
AcDbEntity
  8
ハッチ
  6
JWW_CENTER1
 62
     6
370
     9
100
AcDbCircle
 10
496.1555439717063
 20
19.98767419763522
 30
0.0
 40
1.500000019331236
100
AcDbArc
 50
164.9999847412109
 51
179.9999847412109
  0
ARC
  5
532
330
1F
100
AcDbEntity
  8
ハッチ
  6
JWW_CENTER1
 62
     6
370
     9
100
AcDbCircle
 10
494.4466255806587
 20
137.898193359375
 30
0.0
 40
44.47660600816882
100
AcDbArc
 50
330.8316497802734
 51
83.88453674316406
  0
ARC
  5
533
330
1F
100
AcDbEntity
  8
ハッチ
  6
JWW_CENTER1
 62
     6
370
     9
100
AcDbCircle
 10
493.1554845861488
 20
45.8487482844173
 30
0.0
 40
8.500000206199852
100
AcDbArc
 50
2.841537475585938
 51
180.0
  0
TEXT
  5
534
330
1F
100
AcDbEntity
  8
ハッチ
  6
Continuous
 62
     7
370
     9
100
AcDbText
 10
524.9243691934122
 20
314.3831687077703
 30
0.0
 40
9.144
  1
鎖：ＳＷＲＭ
 41
1.138888888888889
  7
ＭＳ ゴシック
100
AcDbText
  0
TEXT
  5
535
330
1F
100
AcDbEntity
  8
ハッチ
  6
Continuous
 62
     7
370
     9
100
AcDbText
 10
470.2198156408361
 20
293.7215476140203
 30
0.0
 40
9.144
  1
溶融亜鉛めっき，φ６×５００
 41
1.154761904761905
  7
ＭＳ ゴシック
100
AcDbText
  0
ENDSEC
  0
SECTION
  2
OBJECTS
  0
DICTIONARY
  5
C
330
0
100
AcDbDictionary
281
     1
  3
ACAD_DETAILVIEWSTYLE
350
53D
  3
ACAD_GROUP
350
D
  3
ACAD_LAYOUT
350
1A
  3
ACAD_MATERIAL
350
43
  3
ACAD_MLEADERSTYLE
350
6B
  3
ACAD_MLINESTYLE
350
17
  3
ACAD_PLOTSETTINGS
350
19
  3
ACAD_PLOTSTYLENAME
350
E
  3
ACAD_SCALELIST
350
47
  3
ACAD_SECTIONVIEWSTYLE
350
53E
  3
ACAD_TABLESTYLE
350
69
  3
ACAD_VISUALSTYLE
350
2A
  3
ACDB_RECOMPOSE_DATA
350
53A
  3
AcDbVariableDictionary
350
536
  0
SUN
  5
6D
330
29
100
AcDbSun
 90
        1
290
     0
 63
     7
421
 16777215
 40
1.0
291
     1
 91
  2455826
 92
 54000000
292
     0
 70
     2
 71
   256
280
     1
  0
DICTIONARY
  5
53D
102
{ACAD_REACTORS
330
C
102
}
330
C
100
AcDbDictionary
281
     1
  0
DICTIONARY
  5
D
102
{ACAD_REACTORS
330
C
102
}
330
C
100
AcDbDictionary
281
     1
  0
DICTIONARY
  5
1A
102
{ACAD_REACTORS
330
C
102
}
330
C
100
AcDbDictionary
281
     1
  3
Layout1
350
1E
  3
Layout2
350
26
  3
Model
350
22
  0
DICTIONARY
  5
43
102
{ACAD_REACTORS
330
C
102
}
330
C
100
AcDbDictionary
281
     1
  3
ByBlock
350
45
  3
ByLayer
350
44
  3
Global
350
46
  0
DICTIONARY
  5
6B
102
{ACAD_REACTORS
330
C
102
}
330
C
100
AcDbDictionary
281
     1
  3
Standard
350
6C
  0
DICTIONARY
  5
17
102
{ACAD_REACTORS
330
C
102
}
330
C
100
AcDbDictionary
281
     1
  3
Standard
350
18
  0
DICTIONARY
  5
19
102
{ACAD_REACTORS
330
C
102
}
330
C
100
AcDbDictionary
281
     1
  0
ACDBDICTIONARYWDFLT
  5
E
102
{ACAD_REACTORS
330
C
102
}
330
C
100
AcDbDictionary
281
     1
  3
Normal
350
F
100
AcDbDictionaryWithDefault
340
F
  0
DICTIONARY
  5
47
102
{ACAD_REACTORS
330
C
102
}
330
C
100
AcDbDictionary
281
     1
  3
A0
350
48
  3
A1
350
49
  3
A2
350
4A
  3
A3
350
4B
  3
A4
350
4C
  3
A5
350
4D
  3
A6
350
4E
  3
A7
350
4F
  3
A8
350
50
  3
A9
350
51
  3
B0
350
52
  3
B1
350
53
  3
B2
350
54
  3
B3
350
55
  3
B4
350
56
  3
B5
350
57
  3
B6
350
58
  3
B7
350
59
  3
B8
350
5A
  3
B9
350
5B
  3
C0
350
5C
  3
C1
350
5D
  3
C2
350
5E
  3
C3
350
5F
  3
C4
350
60
  3
C5
350
61
  3
C6
350
62
  3
C7
350
63
  3
C8
350
64
  3
C9
350
65
  3
D0
350
66
  3
D1
350
67
  3
D2
350
68
  0
DICTIONARY
  5
53E
102
{ACAD_REACTORS
330
C
102
}
330
C
100
AcDbDictionary
281
     1
  0
DICTIONARY
  5
69
102
{ACAD_REACTORS
330
C
102
}
330
C
100
AcDbDictionary
281
     1
  3
Standard
350
6A
  0
DICTIONARY
  5
2A
102
{ACAD_REACTORS
330
C
102
}
330
C
100
AcDbDictionary
281
     1
  3
2dWireframe
350
2F
  3
Basic
350
32
  3
Brighten
350
36
  3
ColorChange
350
3A
  3
Conceptual
350
34
  3
Dim
350
35
  3
EdgeColorOff
350
3D
  3
Facepattern
350
39
  3
Flat
350
2B
  3
FlatWithEdges
350
2C
  3
Gouraud
350
2D
  3
GouraudWithEdges
350
2E
  3
Hidden
350
31
  3
JitterOff
350
3B
  3
Linepattern
350
38
  3
OverhangOff
350
3C
  3
Realistic
350
33
  3
Shaded
350
42
  3
Shaded with edges
350
41
  3
Shades of Gray
350
3E
  3
Sketchy
350
3F
  3
Thicken
350
37
  3
Wireframe
350
30
  3
X-Ray
350
40
  0
XRECORD
  5
53A
102
{ACAD_REACTORS
330
C
102
}
330
C
100
AcDbXrecord
280
     1
 90
        1
330
6A
  0
DICTIONARY
  5
536
102
{ACAD_REACTORS
330
C
102
}
330
C
100
AcDbDictionary
281
     1
  3
CANNOSCALE
350
537
  3
CENTEREXE
350
53F
  3
CENTERLTYPEFILE
350
540
  3
CMLEADERSTYLE
350
53C
  3
CTABLESTYLE
350
53B
  0
LAYOUT
  5
1E
102
{ACAD_REACTORS
330
1A
102
}
330
1A
100
AcDbPlotSettings
  1

  2
none_device
  4

  6

 40
0.0
 41
0.0
 42
0.0
 43
0.0
 44
0.0
 45
0.0
 46
0.0
 47
0.0
 48
0.0
 49
0.0
140
0.0
141
0.0
142
1.0
143
1.0
 70
   688
 72
     1
 73
     0
 74
     5
  7

 75
    16
 76
     0
 77
     5
 78
   300
147
1.0
148
0.0
149
0.0
100
AcDbLayout
  1
Layout1
 70
     1
 71
     1
 10
0.0
 20
0.0
 11
420.0
 21
297.0
 12
0.0
 22
0.0
 32
0.0
 14
1.000000000000000E+20
 24
1.000000000000000E+20
 34
1.000000000000000E+20
 15
-1.000000000000000E+20
 25
-1.000000000000000E+20
 35
-1.000000000000000E+20
146
0.0
 13
0.0
 23
0.0
 33
0.0
 16
1.0
 26
0.0
 36
0.0
 17
0.0
 27
1.0
 37
0.0
 76
     0
330
1B
  0
LAYOUT
  5
26
102
{ACAD_REACTORS
330
1A
102
}
330
1A
100
AcDbPlotSettings
  1

  2
none_device
  4

  6

 40
0.0
 41
0.0
 42
0.0
 43
0.0
 44
0.0
 45
0.0
 46
0.0
 47
0.0
 48
0.0
 49
0.0
140
0.0
141
0.0
142
1.0
143
1.0
 70
   688
 72
     1
 73
     0
 74
     5
  7

 75
    16
 76
     0
 77
     5
 78
   300
147
1.0
148
0.0
149
0.0
100
AcDbLayout
  1
Layout2
 70
     1
 71
     2
 10
0.0
 20
0.0
 11
0.0
 21
0.0
 12
0.0
 22
0.0
 32
0.0
 14
0.0
 24
0.0
 34
0.0
 15
0.0
 25
0.0
 35
0.0
146
0.0
 13
0.0
 23
0.0
 33
0.0
 16
1.0
 26
0.0
 36
0.0
 17
0.0
 27
1.0
 37
0.0
 76
     0
330
23
  0
LAYOUT
  5
22
102
{ACAD_REACTORS
330
1A
102
}
330
1A
100
AcDbPlotSettings
  1

  2
none_device
  4
Letter_(8.50_x_11.00_Inches)
  6

 40
6.35
 41
6.35
 42
6.35000508
 43
6.35000508
 44
215.9
 45
279.4
 46
0.0
 47
0.0
 48
0.0
 49
0.0
140
0.0
141
0.0
142
1.0
143
1.0
 70
  1712
 72
     1
 73
     0
 74
     0
  7

 75
     0
 76
     0
 77
     5
 78
   300
147
1.0
148
0.0
149
0.0
100
AcDbLayout
  1
Model
 70
     1
 71
     0
 10
-840.0
 20
-594.0
 11
840.0
 21
594.0
 12
0.0
 22
0.0
 32
0.0
 14
-840.0
 24
-594.0
 34
0.0
 15
840.0
 25
594.0
 35
0.0
146
0.0
 13
0.0
 23
0.0
 33
0.0
 16
1.0
 26
0.0
 36
0.0
 17
0.0
 27
1.0
 37
0.0
 76
     0
330
1F
331
29
  0
MATERIAL
  5
45
102
{ACAD_REACTORS
330
43
102
}
330
43
100
AcDbMaterial
  1
ByBlock
 72
     1
 94
      127
  0
MATERIAL
  5
44
102
{ACAD_REACTORS
330
43
102
}
330
43
100
AcDbMaterial
  1
ByLayer
 72
     1
 94
      127
  0
MATERIAL
  5
46
102
{ACAD_REACTORS
330
43
102
}
330
43
100
AcDbMaterial
  1
Global
 72
     1
 94
      127
  0
MLEADERSTYLE
  5
6C
102
{ACAD_REACTORS
330
6B
102
}
330
6B
100
AcDbMLeaderStyle
179
     2
170
     2
171
     1
172
     0
 90
        2
 40
0.0
 41
0.0
173
     1
 91
-1056964608
340
14
 92
       -2
290
     1
 42
2.0
291
     1
 43
8.0
  3
Standard
341
0
 44
4.0
300

342
11
174
     1
178
     6
175
     1
176
     0
 93
-1056964608
 45
4.0
292
     0
297
     0
 46
4.0
343
0
 94
-1056964608
 47
1.0
 49
1.0
140
1.0
293
     1
141
0.0
294
     1
177
     0
142
1.0
295
     0
296
     0
143
3.75
271
     0
272
     9
273
     9
298
     0
  0
MLINESTYLE
  5
18
102
{ACAD_REACTORS
330
17
102
}
330
17
100
AcDbMlineStyle
  2
Standard
 70
     0
  3

 62
   256
 51
90.0
 52
90.0
 71
     2
 49
0.5
 62
   256
  6
BYLAYER
 49
-0.5
 62
   256
  6
BYLAYER
  0
ACDBPLACEHOLDER
  5
F
102
{ACAD_REACTORS
330
E
102
}
330
E
  0
SCALE
  5
48
102
{ACAD_REACTORS
330
47
102
}
330
47
100
AcDbScale
 70
     0
300
1:1
140
1.0
141
1.0
290
     1
  0
SCALE
  5
49
102
{ACAD_REACTORS
330
47
102
}
330
47
100
AcDbScale
 70
     0
300
1:2
140
1.0
141
2.0
290
     0
  0
SCALE
  5
4A
102
{ACAD_REACTORS
330
47
102
}
330
47
100
AcDbScale
 70
     0
300
1:4
140
1.0
141
4.0
290
     0
  0
SCALE
  5
4B
102
{ACAD_REACTORS
330
47
102
}
330
47
100
AcDbScale
 70
     0
300
1:5
140
1.0
141
5.0
290
     0
  0
SCALE
  5
4C
102
{ACAD_REACTORS
330
47
102
}
330
47
100
AcDbScale
 70
     0
300
1:8
140
1.0
141
8.0
290
     0
  0
SCALE
  5
4D
102
{ACAD_REACTORS
330
47
102
}
330
47
100
AcDbScale
 70
     0
300
1:10
140
1.0
141
10.0
290
     0
  0
SCALE
  5
4E
102
{ACAD_REACTORS
330
47
102
}
330
47
100
AcDbScale
 70
     0
300
1:16
140
1.0
141
16.0
290
     0
  0
SCALE
  5
4F
102
{ACAD_REACTORS
330
47
102
}
330
47
100
AcDbScale
 70
     0
300
1:20
140
1.0
141
20.0
290
     0
  0
SCALE
  5
50
102
{ACAD_REACTORS
330
47
102
}
330
47
100
AcDbScale
 70
     0
300
1:30
140
1.0
141
30.0
290
     0
  0
SCALE
  5
51
102
{ACAD_REACTORS
330
47
102
}
330
47
100
AcDbScale
 70
     0
300
1:40
140
1.0
141
40.0
290
     0
  0
SCALE
  5
52
102
{ACAD_REACTORS
330
47
102
}
330
47
100
AcDbScale
 70
     0
300
1:50
140
1.0
141
50.0
290
     0
  0
SCALE
  5
53
102
{ACAD_REACTORS
330
47
102
}
330
47
100
AcDbScale
 70
     0
300
1:100
140
1.0
141
100.0
290
     0
  0
SCALE
  5
54
102
{ACAD_REACTORS
330
47
102
}
330
47
100
AcDbScale
 70
     0
300
2:1
140
2.0
141
1.0
290
     0
  0
SCALE
  5
55
102
{ACAD_REACTORS
330
47
102
}
330
47
100
AcDbScale
 70
     0
300
4:1
140
4.0
141
1.0
290
     0
  0
SCALE
  5
56
102
{ACAD_REACTORS
330
47
102
}
330
47
100
AcDbScale
 70
     0
300
8:1
140
8.0
141
1.0
290
     0
  0
SCALE
  5
57
102
{ACAD_REACTORS
330
47
102
}
330
47
100
AcDbScale
 70
     0
300
10:1
140
10.0
141
1.0
290
     0
  0
SCALE
  5
58
102
{ACAD_REACTORS
330
47
102
}
330
47
100
AcDbScale
 70
     0
300
100:1
140
100.0
141
1.0
290
     0
  0
SCALE
  5
59
102
{ACAD_REACTORS
330
47
102
}
330
47
100
AcDbScale
 70
     0
300
1/128" = 1'-0"
140
0.0078125
141
12.0
290
     0
  0
SCALE
  5
5A
102
{ACAD_REACTORS
330
47
102
}
330
47
100
AcDbScale
 70
     0
300
1/64" = 1'-0"
140
0.015625
141
12.0
290
     0
  0
SCALE
  5
5B
102
{ACAD_REACTORS
330
47
102
}
330
47
100
AcDbScale
 70
     0
300
1/32" = 1'-0"
140
0.03125
141
12.0
290
     0
  0
SCALE
  5
5C
102
{ACAD_REACTORS
330
47
102
}
330
47
100
AcDbScale
 70
     0
300
1/16" = 1'-0"
140
0.0625
141
12.0
290
     0
  0
SCALE
  5
5D
102
{ACAD_REACTORS
330
47
102
}
330
47
100
AcDbScale
 70
     0
300
3/32" = 1'-0"
140
0.09375
141
12.0
290
     0
  0
SCALE
  5
5E
102
{ACAD_REACTORS
330
47
102
}
330
47
100
AcDbScale
 70
     0
300
1/8" = 1'-0"
140
0.125
141
12.0
290
     0
  0
SCALE
  5
5F
102
{ACAD_REACTORS
330
47
102
}
330
47
100
AcDbScale
 70
     0
300
3/16" = 1'-0"
140
0.1875
141
12.0
290
     0
  0
SCALE
  5
60
102
{ACAD_REACTORS
330
47
102
}
330
47
100
AcDbScale
 70
     0
300
1/4" = 1'-0"
140
0.25
141
12.0
290
     0
  0
SCALE
  5
61
102
{ACAD_REACTORS
330
47
102
}
330
47
100
AcDbScale
 70
     0
300
3/8" = 1'-0"
140
0.375
141
12.0
290
     0
  0
SCALE
  5
62
102
{ACAD_REACTORS
330
47
102
}
330
47
100
AcDbScale
 70
     0
300
1/2" = 1'-0"
140
0.5
141
12.0
290
     0
  0
SCALE
  5
63
102
{ACAD_REACTORS
330
47
102
}
330
47
100
AcDbScale
 70
     0
300
3/4" = 1'-0"
140
0.75
141
12.0
290
     0
  0
SCALE
  5
64
102
{ACAD_REACTORS
330
47
102
}
330
47
100
AcDbScale
 70
     0
300
1" = 1'-0"
140
1.0
141
12.0
290
     0
  0
SCALE
  5
65
102
{ACAD_REACTORS
330
47
102
}
330
47
100
AcDbScale
 70
     0
300
1-1/2" = 1'-0"
140
1.5
141
12.0
290
     0
  0
SCALE
  5
66
102
{ACAD_REACTORS
330
47
102
}
330
47
100
AcDbScale
 70
     0
300
3" = 1'-0"
140
3.0
141
12.0
290
     0
  0
SCALE
  5
67
102
{ACAD_REACTORS
330
47
102
}
330
47
100
AcDbScale
 70
     0
300
6" = 1'-0"
140
6.0
141
12.0
290
     0
  0
SCALE
  5
68
102
{ACAD_REACTORS
330
47
102
}
330
47
100
AcDbScale
 70
     0
300
1'-0" = 1'-0"
140
12.0
141
12.0
290
     0
  0
TABLESTYLE
  5
6A
102
{ACAD_REACTORS
330
69
102
}
102
{ACAD_XDICTIONARY
360
538
102
}
330
69
100
AcDbTableStyle
  3
Standard
 70
     0
 71
     0
 40
0.06
 41
0.06
280
     0
281
     0
  7
Standard
140
4.5
170
     2
 62
     0
 63
   257
283
     0
 90
        4
 91
        0
  1

274
    -2
284
     1
 64
     0
275
    -2
285
     1
 65
     0
276
    -2
286
     1
 66
     0
277
    -2
287
     1
 67
     0
278
    -2
288
     1
 68
     0
279
    -2
289
     1
 69
     0
  7
Standard
140
6.0
170
     5
 62
     0
 63
   257
283
     0
 90
        4
 91
        0
  1

274
    -2
284
     1
 64
     0
275
    -2
285
     1
 65
     0
276
    -2
286
     1
 66
     0
277
    -2
287
     1
 67
     0
278
    -2
288
     1
 68
     0
279
    -2
289
     1
 69
     0
  7
Standard
140
4.5
170
     5
 62
     0
 63
   257
283
     0
 90
        4
 91
        0
  1

274
    -2
284
     1
 64
     0
275
    -2
285
     1
 65
     0
276
    -2
286
     1
 66
     0
277
    -2
287
     1
 67
     0
278
    -2
288
     1
 68
     0
279
    -2
289
     1
 69
     0
  0
VISUALSTYLE
  5
2F
102
{ACAD_REACTORS
330
2A
102
}
330
2A
100
AcDbVisualStyle
  2
2dWireframe
 70
     4
177
     3
291
     0
 70
    58
 90
        0
176
     1
 90
        2
176
     1
 90
        0
176
     1
 90
        0
176
     1
 40
0.6
176
     1
 40
30.0
176
     1
 62
     7
420
 16777215
176
     1
 90
        1
176
     1
 90
        4
176
     1
 62
     7
176
     1
 62
   257
176
     1
 90
        1
176
     1
 90
        1
176
     1
 40
1.0
176
     1
 90
        0
176
     1
 62
   257
176
     1
 40
1.0
176
     1
 90
        1
176
     1
 90
        6
176
     1
 90
        2
176
     1
 62
     7
176
     1
 90
        5
176
     1
 90
        0
176
     1
 90
        0
176
     1
290
     0
176
     1
 90
        1
176
     1
 40
0.0
176
     1
 90
        0
176
     1
290
     1
176
     1
290
     1
176
     1
290
     0
176
     1
290
     0
176
     1
290
     0
176
     1
290
     0
176
     1
290
     0
176
     1
290
     0
176
     1
290
     0
176
     1
 90
       50
176
     1
 40
0.0
176
     1
 40
1.0
176
     1
 90
        0
176
     1
 62
    18
420
        0
176
     1
 90
       50
176
     1
 90
        3
176
     1
 62
     5
420
      255
176
     1
290
     0
176
     1
 90
       50
176
     1
 90
       50
176
     1
 90
       50
176
     1
290
     0
176
     1
 90
       50
176
     1
 62
   256
176
     0
 40
1.0
176
     0
 90
        2
176
     1
  1
strokes_ogs.tif
176
     1
290
     0
176
     1
 40
1.0
176
     1
 40
1.0
176
     1
  0
VISUALSTYLE
  5
32
102
{ACAD_REACTORS
330
2A
102
}
330
2A
100
AcDbVisualStyle
  2
Basic
 70
     7
177
     3
291
     1
 70
    58
 90
        1
176
     1
 90
        0
176
     1
 90
        1
176
     1
 90
        0
176
     1
 40
0.6
176
     1
 40
30.0
176
     1
 62
     7
420
 16777215
176
     1
 90
        0
176
     1
 90
        4
176
     1
 62
     7
176
     1
 62
   257
176
     1
 90
        1
176
     1
 90
        1
176
     1
 40
1.0
176
     1
 90
        8
176
     1
 62
     7
176
     1
 40
1.0
176
     1
 90
        1
176
     1
 90
        6
176
     1
 90
        2
176
     1
 62
     7
176
     1
 90
        5
176
     1
 90
        0
176
     1
 90
        0
176
     1
290
     0
176
     1
 90
        1
176
     1
 40
0.0
176
     1
 90
        0
176
     1
290
     0
176
     1
290
     1
176
     1
290
     1
176
     1
290
     0
176
     1
290
     0
176
     1
290
     0
176
     1
290
     0
176
     1
290
     0
176
     1
290
     0
176
     1
 90
       50
176
     1
 40
0.0
176
     1
 40
1.0
176
     1
 90
        0
176
     1
 62
    18
420
        0
176
     1
 90
       50
176
     1
 90
        3
176
     1
 62
     5
420
      255
176
     1
290
     0
176
     1
 90
       50
176
     1
 90
       50
176
     1
 90
       50
176
     1
290
     0
176
     1
 90
       50
176
     1
 62
   256
176
     0
 40
1.0
176
     0
 90
        2
176
     1
  1
strokes_ogs.tif
176
     1
290
     0
176
     1
 40
1.0
176
     1
 40
1.0
176
     1
  0
VISUALSTYLE
  5
36
102
{ACAD_REACTORS
330
2A
102
}
330
2A
100
AcDbVisualStyle
  2
Brighten
 70
    12
177
     3
291
     1
 70
    58
 90
        2
176
     1
 90
        2
176
     1
 90
        0
176
     1
 90
        0
176
     1
 40
0.6
176
     1
 40
30.0
176
     1
 62
     7
420
 16777215
176
     1
 90
        1
176
     1
 90
        4
176
     1
 62
     7
176
     1
 62
   257
176
     1
 90
        1
176
     1
 90
        1
176
     1
 40
1.0
176
     1
 90
        8
176
     1
 62
     7
176
     1
 40
1.0
176
     1
 90
        1
176
     1
 90
        6
176
     1
 90
        2
176
     1
 62
     7
176
     1
 90
        5
176
     1
 90
        0
176
     1
 90
        0
176
     1
290
     0
176
     1
 90
        1
176
     1
 40
50.0
176
     1
 90
        0
176
     1
290
     0
176
     1
290
     1
176
     1
290
     1
176
     1
290
     0
176
     1
290
     0
176
     1
290
     0
176
     1
290
     0
176
     1
290
     0
176
     1
290
     0
176
     1
 90
       50
176
     1
 40
0.0
176
     1
 40
1.0
176
     1
 90
        0
176
     1
 62
    18
420
        0
176
     1
 90
       50
176
     1
 90
        3
176
     1
 62
     5
420
      255
176
     1
290
     0
176
     1
 90
       50
176
     1
 90
       50
176
     1
 90
       50
176
     1
290
     0
176
     1
 90
       50
176
     1
 62
   256
176
     0
 40
1.0
176
     0
 90
        2
176
     1
  1
strokes_ogs.tif
176
     1
290
     0
176
     1
 40
1.0
176
     1
 40
1.0
176
     1
  0
VISUALSTYLE
  5
3A
102
{ACAD_REACTORS
330
2A
102
}
330
2A
100
AcDbVisualStyle
  2
ColorChange
 70
    16
177
     3
291
     1
 70
    58
 90
        2
176
     1
 90
        2
176
     1
 90
        3
176
     1
 90
        0
176
     1
 40
0.6
176
     1
 40
30.0
176
     1
 62
     8
420
  8421504
176
     1
 90
        1
176
     1
 90
        4
176
     1
 62
     7
176
     1
 62
   257
176
     1
 90
        1
176
     1
 90
        1
176
     1
 40
1.0
176
     1
 90
        8
176
     1
 62
     8
420
  8421504
176
     1
 40
1.0
176
     1
 90
        1
176
     1
 90
        6
176
     1
 90
        2
176
     1
 62
     7
176
     1
 90
        5
176
     1
 90
        0
176
     1
 90
        0
176
     1
290
     0
176
     1
 90
        1
176
     1
 40
0.0
176
     1
 90
        0
176
     1
290
     0
176
     1
290
     1
176
     1
290
     1
176
     1
290
     0
176
     1
290
     0
176
     1
290
     0
176
     1
290
     0
176
     1
290
     0
176
     1
290
     0
176
     1
 90
       50
176
     1
 40
0.0
176
     1
 40
1.0
176
     1
 90
        0
176
     1
 62
    18
420
        0
176
     1
 90
       50
176
     1
 90
        3
176
     1
 62
     5
420
      255
176
     1
290
     0
176
     1
 90
       50
176
     1
 90
       50
176
     1
 90
       50
176
     1
290
     0
176
     1
 90
       50
176
     1
 62
   256
176
     0
 40
1.0
176
     0
 90
        2
176
     1
  1
strokes_ogs.tif
176
     1
290
     0
176
     1
 40
1.0
176
     1
 40
1.0
176
     1
  0
VISUALSTYLE
  5
34
102
{ACAD_REACTORS
330
2A
102
}
330
2A
100
AcDbVisualStyle
  2
Conceptual
 70
     9
177
     3
291
     0
 70
    58
 90
        3
176
     1
 90
        2
176
     1
 90
        0
176
     1
 90
        0
176
     1
 40
0.6
176
     1
 40
30.0
176
     1
 62
     7
420
 16777215
176
     1
 90
        2
176
     1
 90
        2
176
     1
 62
     7
176
     1
 62
   257
176
     1
 90
        1
176
     1
 90
        1
176
     1
 40
179.0
176
     1
 90
        8
176
     1
 62
     7
176
     1
 40
1.0
176
     1
 90
        1
176
     1
 90
        6
176
     1
 90
        2
176
     1
 62
     7
176
     1
 90
        3
176
     1
 90
        0
176
     1
 90
        0
176
     1
290
     0
176
     1
 90
        1
176
     1
 40
0.0
176
     1
 90
        0
176
     1
290
     0
176
     1
290
     1
176
     1
290
     1
176
     1
290
     0
176
     1
290
     0
176
     1
290
     0
176
     1
290
     0
176
     1
290
     0
176
     1
290
     0
176
     1
 90
       50
176
     1
 40
0.0
176
     1
 40
1.0
176
     1
 90
        0
176
     1
 62
    18
420
        0
176
     1
 90
       50
176
     1
 90
        3
176
     1
 62
     5
420
      255
176
     1
290
     0
176
     1
 90
       50
176
     1
 90
       50
176
     1
 90
       50
176
     1
290
     0
176
     1
 90
       50
176
     1
 62
   256
176
     0
 40
1.0
176
     0
 90
        2
176
     1
  1
strokes_ogs.tif
176
     1
290
     0
176
     1
 40
1.0
176
     1
 40
1.0
176
     1
  0
VISUALSTYLE
  5
35
102
{ACAD_REACTORS
330
2A
102
}
330
2A
100
AcDbVisualStyle
  2
Dim
 70
    11
177
     3
291
     1
 70
    58
 90
        2
176
     1
 90
        2
176
     1
 90
        0
176
     1
 90
        0
176
     1
 40
0.6
176
     1
 40
30.0
176
     1
 62
     7
420
 16777215
176
     1
 90
        1
176
     1
 90
        4
176
     1
 62
     7
176
     1
 62
   257
176
     1
 90
        1
176
     1
 90
        1
176
     1
 40
1.0
176
     1
 90
        8
176
     1
 62
     7
176
     1
 40
1.0
176
     1
 90
        1
176
     1
 90
        6
176
     1
 90
        2
176
     1
 62
     7
176
     1
 90
        5
176
     1
 90
        0
176
     1
 90
        0
176
     1
290
     0
176
     1
 90
        1
176
     1
 40
-50.0
176
     1
 90
        0
176
     1
290
     0
176
     1
290
     1
176
     1
290
     1
176
     1
290
     0
176
     1
290
     0
176
     1
290
     0
176
     1
290
     0
176
     1
290
     0
176
     1
290
     0
176
     1
 90
       50
176
     1
 40
0.0
176
     1
 40
1.0
176
     1
 90
        0
176
     1
 62
    18
420
        0
176
     1
 90
       50
176
     1
 90
        3
176
     1
 62
     5
420
      255
176
     1
290
     0
176
     1
 90
       50
176
     1
 90
       50
176
     1
 90
       50
176
     1
290
     0
176
     1
 90
       50
176
     1
 62
   256
176
     0
 40
1.0
176
     0
 90
        2
176
     1
  1
strokes_ogs.tif
176
     1
290
     0
176
     1
 40
1.0
176
     1
 40
1.0
176
     1
  0
VISUALSTYLE
  5
3D
102
{ACAD_REACTORS
330
2A
102
}
330
2A
100
AcDbVisualStyle
  2
EdgeColorOff
 70
    22
177
     3
291
     1
 70
    58
 90
        2
176
     0
 90
        2
176
     0
 90
        0
176
     0
 90
        0
176
     0
 40
0.6
176
     0
 40
30.0
176
     0
 62
     7
420
 16777215
176
     0
 90
        1
176
     0
 90
        4
176
     0
 62
     7
176
     0
 62
   257
176
     0
 90
        1
176
     0
 90
        1
176
     0
 40
1.0
176
     0
 90
        8
176
     2
 62
     7
176
     0
 40
1.0
176
     0
 90
        1
176
     0
 90
        6
176
     0
 90
        2
176
     0
 62
     7
176
     0
 90
        5
176
     0
 90
        0
176
     0
 90
        0
176
     0
290
     0
176
     0
 90
        1
176
     0
 40
0.0
176
     0
 90
        0
176
     0
290
     0
176
     0
290
     1
176
     0
290
     1
176
     0
290
     0
176
     0
290
     0
176
     0
290
     0
176
     0
290
     0
176
     0
290
     0
176
     0
290
     0
176
     0
 90
       50
176
     0
 40
0.0
176
     0
 40
1.0
176
     0
 90
        0
176
     0
 62
    18
420
        0
176
     0
 90
       50
176
     0
 90
        3
176
     0
 62
     5
420
      255
176
     0
290
     0
176
     0
 90
       50
176
     0
 90
       50
176
     0
 90
       50
176
     0
290
     0
176
     0
 90
       50
176
     0
 62
   256
176
     0
 40
1.0
176
     0
 90
        2
176
     0
  1
strokes_ogs.tif
176
     0
290
     0
176
     0
 40
1.0
176
     0
 40
1.0
176
     0
  0
VISUALSTYLE
  5
39
102
{ACAD_REACTORS
330
2A
102
}
330
2A
100
AcDbVisualStyle
  2
Facepattern
 70
    15
177
     3
291
     1
 70
    58
 90
        2
176
     1
 90
        2
176
     1
 90
        0
176
     1
 90
        0
176
     1
 40
0.6
176
     1
 40
30.0
176
     1
 62
     7
420
 16777215
176
     1
 90
        1
176
     1
 90
        4
176
     1
 62
     7
176
     1
 62
   257
176
     1
 90
        1
176
     1
 90
        1
176
     1
 40
1.0
176
     1
 90
        8
176
     1
 62
     7
176
     1
 40
1.0
176
     1
 90
        1
176
     1
 90
        6
176
     1
 90
        2
176
     1
 62
     7
176
     1
 90
        5
176
     1
 90
        0
176
     1
 90
        0
176
     1
290
     0
176
     1
 90
        1
176
     1
 40
0.0
176
     1
 90
        0
176
     1
290
     0
176
     1
290
     1
176
     1
290
     1
176
     1
290
     0
176
     1
290
     0
176
     1
290
     0
176
     1
290
     0
176
     1
290
     0
176
     1
290
     0
176
     1
 90
       50
176
     1
 40
0.0
176
     1
 40
1.0
176
     1
 90
        0
176
     1
 62
    18
420
        0
176
     1
 90
       50
176
     1
 90
        3
176
     1
 62
     5
420
      255
176
     1
290
     0
176
     1
 90
       50
176
     1
 90
       50
176
     1
 90
       50
176
     1
290
     0
176
     1
 90
       50
176
     1
 62
   256
176
     0
 40
1.0
176
     0
 90
        2
176
     1
  1
strokes_ogs.tif
176
     1
290
     0
176
     1
 40
1.0
176
     1
 40
1.0
176
     1
  0
VISUALSTYLE
  5
2B
102
{ACAD_REACTORS
330
2A
102
}
330
2A
100
AcDbVisualStyle
  2
Flat
 70
     0
177
     3
291
     1
 70
    58
 90
        2
176
     1
 90
        1
176
     1
 90
        1
176
     1
 90
        2
176
     1
 40
0.6
176
     1
 40
30.0
176
     1
 62
     7
420
 16777215
176
     1
 90
        0
176
     1
 90
        0
176
     1
 62
     7
176
     1
 62
   257
176
     1
 90
        1
176
     1
 90
        1
176
     1
 40
1.0
176
     1
 90
        8
176
     1
 62
     7
176
     1
 40
1.0
176
     1
 90
        1
176
     1
 90
        6
176
     1
 90
        2
176
     1
 62
     7
176
     1
 90
        5
176
     1
 90
        0
176
     1
 90
        0
176
     1
290
     0
176
     1
 90
       13
176
     1
 40
0.0
176
     1
 90
        0
176
     1
290
     0
176
     1
290
     1
176
     1
290
     1
176
     1
290
     0
176
     1
290
     0
176
     1
290
     0
176
     1
290
     0
176
     1
290
     0
176
     1
290
     0
176
     1
 90
       50
176
     1
 40
0.0
176
     1
 40
1.0
176
     1
 90
        0
176
     1
 62
    18
420
        0
176
     1
 90
       50
176
     1
 90
        3
176
     1
 62
     5
420
      255
176
     1
290
     0
176
     1
 90
       50
176
     1
 90
       50
176
     1
 90
       50
176
     1
290
     0
176
     1
 90
       50
176
     1
 62
   256
176
     0
 40
1.0
176
     0
 90
        2
176
     1
  1
strokes_ogs.tif
176
     1
290
     0
176
     1
 40
1.0
176
     1
 40
1.0
176
     1
  0
VISUALSTYLE
  5
2C
102
{ACAD_REACTORS
330
2A
102
}
330
2A
100
AcDbVisualStyle
  2
FlatWithEdges
 70
     1
177
     3
291
     1
 70
    58
 90
        2
176
     1
 90
        1
176
     1
 90
        1
176
     1
 90
        2
176
     1
 40
0.6
176
     1
 40
30.0
176
     1
 62
     7
420
 16777215
176
     1
 90
        1
176
     1
 90
        0
176
     1
 62
     7
176
     1
 62
   257
176
     1
 90
        1
176
     1
 90
        1
176
     1
 40
1.0
176
     1
 90
        0
176
     1
 62
   257
176
     1
 40
1.0
176
     1
 90
        1
176
     1
 90
        6
176
     1
 90
        2
176
     1
 62
     7
176
     1
 90
        5
176
     1
 90
        0
176
     1
 90
        0
176
     1
290
     0
176
     1
 90
       13
176
     1
 40
0.0
176
     1
 90
        0
176
     1
290
     0
176
     1
290
     1
176
     1
290
     1
176
     1
290
     0
176
     1
290
     0
176
     1
290
     0
176
     1
290
     0
176
     1
290
     0
176
     1
290
     0
176
     1
 90
       50
176
     1
 40
0.0
176
     1
 40
1.0
176
     1
 90
        0
176
     1
 62
    18
420
        0
176
     1
 90
       50
176
     1
 90
        3
176
     1
 62
     5
420
      255
176
     1
290
     0
176
     1
 90
       50
176
     1
 90
       50
176
     1
 90
       50
176
     1
290
     0
176
     1
 90
       50
176
     1
 62
   256
176
     0
 40
1.0
176
     0
 90
        2
176
     1
  1
strokes_ogs.tif
176
     1
290
     0
176
     1
 40
1.0
176
     1
 40
1.0
176
     1
  0
VISUALSTYLE
  5
2D
102
{ACAD_REACTORS
330
2A
102
}
330
2A
100
AcDbVisualStyle
  2
Gouraud
 70
     2
177
     3
291
     1
 70
    58
 90
        2
176
     1
 90
        2
176
     1
 90
        1
176
     1
 90
        2
176
     1
 40
0.6
176
     1
 40
30.0
176
     1
 62
     7
420
 16777215
176
     1
 90
        0
176
     1
 90
        0
176
     1
 62
     7
176
     1
 62
   257
176
     1
 90
        1
176
     1
 90
        1
176
     1
 40
1.0
176
     1
 90
        0
176
     1
 62
     7
176
     1
 40
1.0
176
     1
 90
        1
176
     1
 90
        6
176
     1
 90
        2
176
     1
 62
     7
176
     1
 90
        5
176
     1
 90
        0
176
     1
 90
        0
176
     1
290
     0
176
     1
 90
       13
176
     1
 40
0.0
176
     1
 90
        0
176
     1
290
     0
176
     1
290
     1
176
     1
290
     1
176
     1
290
     0
176
     1
290
     0
176
     1
290
     0
176
     1
290
     0
176
     1
290
     0
176
     1
290
     0
176
     1
 90
       50
176
     1
 40
0.0
176
     1
 40
1.0
176
     1
 90
        0
176
     1
 62
    18
420
        0
176
     1
 90
       50
176
     1
 90
        3
176
     1
 62
     5
420
      255
176
     1
290
     0
176
     1
 90
       50
176
     1
 90
       50
176
     1
 90
       50
176
     1
290
     0
176
     1
 90
       50
176
     1
 62
   256
176
     0
 40
1.0
176
     0
 90
        2
176
     1
  1
strokes_ogs.tif
176
     1
290
     0
176
     1
 40
1.0
176
     1
 40
1.0
176
     1
  0
VISUALSTYLE
  5
2E
102
{ACAD_REACTORS
330
2A
102
}
330
2A
100
AcDbVisualStyle
  2
GouraudWithEdges
 70
     3
177
     3
291
     1
 70
    58
 90
        2
176
     1
 90
        2
176
     1
 90
        1
176
     1
 90
        2
176
     1
 40
0.6
176
     1
 40
30.0
176
     1
 62
     7
420
 16777215
176
     1
 90
        1
176
     1
 90
        0
176
     1
 62
     7
176
     1
 62
   257
176
     1
 90
        1
176
     1
 90
        1
176
     1
 40
1.0
176
     1
 90
        0
176
     1
 62
   257
176
     1
 40
1.0
176
     1
 90
        1
176
     1
 90
        6
176
     1
 90
        2
176
     1
 62
     7
176
     1
 90
        5
176
     1
 90
        0
176
     1
 90
        0
176
     1
290
     0
176
     1
 90
       13
176
     1
 40
0.0
176
     1
 90
        0
176
     1
290
     0
176
     1
290
     1
176
     1
290
     1
176
     1
290
     0
176
     1
290
     0
176
     1
290
     0
176
     1
290
     0
176
     1
290
     0
176
     1
290
     0
176
     1
 90
       50
176
     1
 40
0.0
176
     1
 40
1.0
176
     1
 90
        0
176
     1
 62
    18
420
        0
176
     1
 90
       50
176
     1
 90
        3
176
     1
 62
     5
420
      255
176
     1
290
     0
176
     1
 90
       50
176
     1
 90
       50
176
     1
 90
       50
176
     1
290
     0
176
     1
 90
       50
176
     1
 62
   256
176
     0
 40
1.0
176
     0
 90
        2
176
     1
  1
strokes_ogs.tif
176
     1
290
     0
176
     1
 40
1.0
176
     1
 40
1.0
176
     1
  0
VISUALSTYLE
  5
31
102
{ACAD_REACTORS
330
2A
102
}
330
2A
100
AcDbVisualStyle
  2
Hidden
 70
     6
177
     3
291
     0
 70
    58
 90
        1
176
     1
 90
        2
176
     1
 90
        2
176
     1
 90
        0
176
     1
 40
0.6
176
     1
 40
30.0
176
     1
 62
     7
420
 16777215
176
     1
 90
        2
176
     1
 90
        2
176
     1
 62
     7
176
     1
 62
   257
176
     1
 90
        2
176
     1
 90
        1
176
     1
 40
40.0
176
     1
 90
        0
176
     1
 62
   257
176
     1
 40
1.0
176
     1
 90
        1
176
     1
 90
        6
176
     1
 90
        2
176
     1
 62
     7
176
     1
 90
        3
176
     1
 90
        0
176
     1
 90
        0
176
     1
290
     0
176
     1
 90
        1
176
     1
 40
0.0
176
     1
 90
        0
176
     1
290
     0
176
     1
290
     1
176
     1
290
     1
176
     1
290
     0
176
     1
290
     0
176
     1
290
     0
176
     1
290
     0
176
     1
290
     0
176
     1
290
     0
176
     1
 90
       50
176
     1
 40
0.0
176
     1
 40
1.0
176
     1
 90
        0
176
     1
 62
    18
420
        0
176
     1
 90
       50
176
     1
 90
        3
176
     1
 62
     5
420
      255
176
     1
290
     0
176
     1
 90
       50
176
     1
 90
       50
176
     1
 90
       50
176
     1
290
     0
176
     1
 90
       50
176
     1
 62
   256
176
     0
 40
1.0
176
     0
 90
        2
176
     1
  1
strokes_ogs.tif
176
     1
290
     0
176
     1
 40
1.0
176
     1
 40
1.0
176
     1
  0
VISUALSTYLE
  5
3B
102
{ACAD_REACTORS
330
2A
102
}
330
2A
100
AcDbVisualStyle
  2
JitterOff
 70
    20
177
     3
291
     1
 70
    58
 90
        2
176
     0
 90
        2
176
     0
 90
        0
176
     0
 90
        0
176
     0
 40
0.6
176
     0
 40
30.0
176
     0
 62
     7
420
 16777215
176
     0
 90
        1
176
     0
 90
        4
176
     0
 62
     7
176
     0
 62
   257
176
     0
 90
        1
176
     0
 90
        1
176
     0
 40
1.0
176
     0
 90
       10
176
     2
 62
     7
176
     0
 40
1.0
176
     0
 90
        1
176
     0
 90
        6
176
     0
 90
        2
176
     0
 62
     7
176
     0
 90
        5
176
     0
 90
        0
176
     0
 90
        0
176
     0
290
     0
176
     0
 90
        1
176
     0
 40
0.0
176
     0
 90
        0
176
     0
290
     0
176
     0
290
     1
176
     0
290
     1
176
     0
290
     0
176
     0
290
     0
176
     0
290
     0
176
     0
290
     0
176
     0
290
     0
176
     0
290
     0
176
     0
 90
       50
176
     0
 40
0.0
176
     0
 40
1.0
176
     0
 90
        0
176
     0
 62
    18
420
        0
176
     0
 90
       50
176
     0
 90
        3
176
     0
 62
     5
420
      255
176
     0
290
     0
176
     0
 90
       50
176
     0
 90
       50
176
     0
 90
       50
176
     0
290
     0
176
     0
 90
       50
176
     0
 62
   256
176
     0
 40
1.0
176
     0
 90
        2
176
     0
  1
strokes_ogs.tif
176
     0
290
     0
176
     0
 40
1.0
176
     0
 40
1.0
176
     0
  0
VISUALSTYLE
  5
38
102
{ACAD_REACTORS
330
2A
102
}
330
2A
100
AcDbVisualStyle
  2
Linepattern
 70
    14
177
     3
291
     1
 70
    58
 90
        2
176
     1
 90
        2
176
     1
 90
        0
176
     1
 90
        0
176
     1
 40
0.6
176
     1
 40
30.0
176
     1
 62
     7
420
 16777215
176
     1
 90
        1
176
     1
 90
        4
176
     1
 62
     7
176
     1
 62
   257
176
     1
 90
        7
176
     1
 90
        7
176
     1
 40
1.0
176
     1
 90
        8
176
     1
 62
     7
176
     1
 40
1.0
176
     1
 90
        1
176
     1
 90
        6
176
     1
 90
        2
176
     1
 62
     7
176
     1
 90
        5
176
     1
 90
        0
176
     1
 90
        0
176
     1
290
     0
176
     1
 90
        1
176
     1
 40
0.0
176
     1
 90
        0
176
     1
290
     0
176
     1
290
     1
176
     1
290
     1
176
     1
290
     0
176
     1
290
     0
176
     1
290
     0
176
     1
290
     0
176
     1
290
     0
176
     1
290
     0
176
     1
 90
       50
176
     1
 40
0.0
176
     1
 40
1.0
176
     1
 90
        0
176
     1
 62
    18
420
        0
176
     1
 90
       50
176
     1
 90
        3
176
     1
 62
     5
420
      255
176
     1
290
     0
176
     1
 90
       50
176
     1
 90
       50
176
     1
 90
       50
176
     1
290
     0
176
     1
 90
       50
176
     1
 62
   256
176
     0
 40
1.0
176
     0
 90
        2
176
     1
  1
strokes_ogs.tif
176
     1
290
     0
176
     1
 40
1.0
176
     1
 40
1.0
176
     1
  0
VISUALSTYLE
  5
3C
102
{ACAD_REACTORS
330
2A
102
}
330
2A
100
AcDbVisualStyle
  2
OverhangOff
 70
    21
177
     3
291
     1
 70
    58
 90
        2
176
     0
 90
        2
176
     0
 90
        0
176
     0
 90
        0
176
     0
 40
0.6
176
     0
 40
30.0
176
     0
 62
     7
420
 16777215
176
     0
 90
        1
176
     0
 90
        4
176
     0
 62
     7
176
     0
 62
   257
176
     0
 90
        1
176
     0
 90
        1
176
     0
 40
1.0
176
     0
 90
        9
176
     2
 62
     7
176
     0
 40
1.0
176
     0
 90
        1
176
     0
 90
        6
176
     0
 90
        2
176
     0
 62
     7
176
     0
 90
        5
176
     0
 90
        0
176
     0
 90
        0
176
     0
290
     0
176
     0
 90
        1
176
     0
 40
0.0
176
     0
 90
        0
176
     0
290
     0
176
     0
290
     1
176
     0
290
     1
176
     0
290
     0
176
     0
290
     0
176
     0
290
     0
176
     0
290
     0
176
     0
290
     0
176
     0
290
     0
176
     0
 90
       50
176
     0
 40
0.0
176
     0
 40
1.0
176
     0
 90
        0
176
     0
 62
    18
420
        0
176
     0
 90
       50
176
     0
 90
        3
176
     0
 62
     5
420
      255
176
     0
290
     0
176
     0
 90
       50
176
     0
 90
       50
176
     0
 90
       50
176
     0
290
     0
176
     0
 90
       50
176
     0
 62
   256
176
     0
 40
1.0
176
     0
 90
        2
176
     0
  1
strokes_ogs.tif
176
     0
290
     0
176
     0
 40
1.0
176
     0
 40
1.0
176
     0
  0
VISUALSTYLE
  5
33
102
{ACAD_REACTORS
330
2A
102
}
330
2A
100
AcDbVisualStyle
  2
Realistic
 70
     8
177
     3
291
     0
 70
    58
 90
        2
176
     1
 90
        3
176
     1
 90
        0
176
     1
 90
        2
176
     1
 40
0.6
176
     1
 40
30.0
176
     1
 62
     7
420
 16777215
176
     1
 90
        0
176
     1
 90
        0
176
     1
 62
     7
176
     1
 62
   257
176
     1
 90
        1
176
     1
 90
        1
176
     1
 40
1.0
176
     1
 90
        8
176
     1
 62
   257
176
     1
 40
1.0
176
     1
 90
        1
176
     1
 90
        6
176
     1
 90
        2
176
     1
 62
     7
176
     1
 90
        3
176
     1
 90
        0
176
     1
 90
        0
176
     1
290
     0
176
     1
 90
       13
176
     1
 40
0.0
176
     1
 90
        0
176
     1
290
     0
176
     1
290
     1
176
     1
290
     1
176
     1
290
     0
176
     1
290
     0
176
     1
290
     0
176
     1
290
     0
176
     1
290
     0
176
     1
290
     0
176
     1
 90
       50
176
     1
 40
0.0
176
     1
 40
1.0
176
     1
 90
        0
176
     1
 62
    18
420
        0
176
     1
 90
       50
176
     1
 90
        3
176
     1
 62
     5
420
      255
176
     1
290
     0
176
     1
 90
       50
176
     1
 90
       50
176
     1
 90
       50
176
     1
290
     0
176
     1
 90
       50
176
     1
 62
   256
176
     0
 40
1.0
176
     0
 90
        2
176
     1
  1
strokes_ogs.tif
176
     1
290
     0
176
     1
 40
1.0
176
     1
 40
1.0
176
     1
  0
VISUALSTYLE
  5
42
102
{ACAD_REACTORS
330
2A
102
}
330
2A
100
AcDbVisualStyle
  2
Shaded
 70
    27
177
     3
291
     0
 70
    58
 90
        2
176
     1
 90
        2
176
     1
 90
        1
176
     1
 90
        2
176
     1
 40
0.6
176
     1
 40
30.0
176
     1
 62
     7
420
 16777215
176
     1
 90
        0
176
     1
 90
        4
176
     1
 62
     7
176
     1
 62
   257
176
     1
 90
        1
176
     1
 90
        1
176
     1
 40
1.0
176
     1
 90
        8
176
     1
 62
   257
176
     1
 40
1.0
176
     1
 90
        1
176
     1
 90
        6
176
     1
 90
        2
176
     1
 62
     8
420
  7895160
176
     1
 90
        3
176
     1
 90
        0
176
     1
 90
        0
176
     1
290
     0
176
     1
 90
        5
176
     1
 40
0.0
176
     1
 90
        0
176
     1
290
     0
176
     1
290
     1
176
     1
290
     1
176
     1
290
     0
176
     1
290
     0
176
     1
290
     0
176
     1
290
     0
176
     1
290
     0
176
     1
290
     0
176
     1
 90
       50
176
     1
 40
0.0
176
     1
 40
1.0
176
     1
 90
        0
176
     1
 62
    18
420
        0
176
     1
 90
       50
176
     1
 90
        3
176
     1
 62
     5
420
      255
176
     1
290
     0
176
     1
 90
       50
176
     1
 90
       50
176
     1
 90
       50
176
     1
290
     0
176
     1
 90
       50
176
     1
 62
   256
176
     0
 40
1.0
176
     0
 90
        2
176
     1
  1
strokes_ogs.tif
176
     1
290
     0
176
     1
 40
1.0
176
     1
 40
1.0
176
     1
  0
VISUALSTYLE
  5
41
102
{ACAD_REACTORS
330
2A
102
}
330
2A
100
AcDbVisualStyle
  2
Shaded with edges
 70
    26
177
     3
291
     0
 70
    58
 90
        2
176
     1
 90
        2
176
     1
 90
        1
176
     1
 90
        2
176
     1
 40
0.6
176
     1
 40
30.0
176
     1
 62
     7
420
 16777215
176
     1
 90
        1
176
     1
 90
       10
176
     1
 62
     7
176
     1
 62
   257
176
     1
 90
        2
176
     1
 90
        1
176
     1
 40
1.0
176
     1
 90
        8
176
     1
 62
   257
176
     1
 40
1.0
176
     1
 90
        1
176
     1
 90
        6
176
     1
 90
        2
176
     1
 62
     7
176
     1
 90
        3
176
     1
 90
        0
176
     1
 90
        0
176
     1
290
     0
176
     1
 90
        5
176
     1
 40
0.0
176
     1
 90
        0
176
     1
290
     0
176
     1
290
     1
176
     1
290
     1
176
     1
290
     0
176
     1
290
     0
176
     1
290
     0
176
     1
290
     0
176
     1
290
     0
176
     1
290
     0
176
     1
 90
       50
176
     1
 40
0.0
176
     1
 40
1.0
176
     1
 90
        0
176
     1
 62
    18
420
        0
176
     1
 90
       50
176
     1
 90
        3
176
     1
 62
     5
420
      255
176
     1
290
     0
176
     1
 90
       50
176
     1
 90
       50
176
     1
 90
       50
176
     1
290
     0
176
     1
 90
       50
176
     1
 62
   256
176
     0
 40
1.0
176
     0
 90
        2
176
     1
  1
strokes_ogs.tif
176
     1
290
     0
176
     1
 40
1.0
176
     1
 40
1.0
176
     1
  0
VISUALSTYLE
  5
3E
102
{ACAD_REACTORS
330
2A
102
}
330
2A
100
AcDbVisualStyle
  2
Shades of Gray
 70
    23
177
     3
291
     0
 70
    58
 90
        2
176
     1
 90
        2
176
     1
 90
        3
176
     1
 90
        0
176
     1
 40
0.6
176
     1
 40
30.0
176
     1
 62
     7
420
 16777215
176
     1
 90
        2
176
     1
 90
        2
176
     1
 62
     7
176
     1
 62
     7
176
     1
 90
        1
176
     1
 90
        1
176
     1
 40
40.0
176
     1
 90
        8
176
     1
 62
     7
176
     1
 40
1.0
176
     1
 90
        1
176
     1
 90
        6
176
     1
 90
        2
176
     1
 62
     7
176
     1
 90
        3
176
     1
 90
        0
176
     1
 90
        0
176
     1
290
     0
176
     1
 90
        1
176
     1
 40
0.0
176
     1
 90
        0
176
     1
290
     0
176
     1
290
     1
176
     1
290
     1
176
     1
290
     0
176
     1
290
     0
176
     1
290
     0
176
     1
290
     0
176
     1
290
     0
176
     1
290
     0
176
     1
 90
       50
176
     1
 40
0.0
176
     1
 40
1.0
176
     1
 90
        0
176
     1
 62
    18
420
        0
176
     1
 90
       50
176
     1
 90
        3
176
     1
 62
     5
420
      255
176
     1
290
     0
176
     1
 90
       50
176
     1
 90
       50
176
     1
 90
       50
176
     1
290
     0
176
     1
 90
       50
176
     1
 62
   256
176
     0
 40
1.0
176
     0
 90
        2
176
     1
  1
strokes_ogs.tif
176
     1
290
     0
176
     1
 40
1.0
176
     1
 40
1.0
176
     1
  0
VISUALSTYLE
  5
3F
102
{ACAD_REACTORS
330
2A
102
}
330
2A
100
AcDbVisualStyle
  2
Sketchy
 70
    24
177
     3
291
     0
 70
    58
 90
        1
176
     1
 90
        2
176
     1
 90
        2
176
     1
 90
        0
176
     1
 40
0.6
176
     1
 40
30.0
176
     1
 62
     7
420
 16777215
176
     1
 90
        2
176
     1
 90
        2
176
     1
 62
     7
176
     1
 62
     7
176
     1
 90
        1
176
     1
 90
        1
176
     1
 40
40.0
176
     1
 90
       11
176
     1
 62
     7
176
     1
 40
1.0
176
     1
 90
        1
176
     1
 90
        6
176
     1
 90
        2
176
     1
 62
     7
176
     1
 90
        6
176
     1
 90
        0
176
     1
 90
        0
176
     1
290
     0
176
     1
 90
        1
176
     1
 40
0.0
176
     1
 90
        0
176
     1
290
     0
176
     1
290
     1
176
     1
290
     1
176
     1
290
     0
176
     1
290
     0
176
     1
290
     0
176
     1
290
     0
176
     1
290
     0
176
     1
290
     0
176
     1
 90
       50
176
     1
 40
0.0
176
     1
 40
1.0
176
     1
 90
        0
176
     1
 62
    18
420
        0
176
     1
 90
       50
176
     1
 90
        3
176
     1
 62
     5
420
      255
176
     1
290
     0
176
     1
 90
       50
176
     1
 90
       50
176
     1
 90
       50
176
     1
290
     0
176
     1
 90
       50
176
     1
 62
   256
176
     0
 40
1.0
176
     0
 90
        2
176
     1
  1
strokes_ogs.tif
176
     1
290
     0
176
     1
 40
1.0
176
     1
 40
1.0
176
     1
  0
VISUALSTYLE
  5
37
102
{ACAD_REACTORS
330
2A
102
}
330
2A
100
AcDbVisualStyle
  2
Thicken
 70
    13
177
     3
291
     1
 70
    58
 90
        2
176
     1
 90
        2
176
     1
 90
        0
176
     1
 90
        0
176
     1
 40
0.6
176
     1
 40
30.0
176
     1
 62
     7
420
 16777215
176
     1
 90
        1
176
     1
 90
        4
176
     1
 62
     7
176
     1
 62
   257
176
     1
 90
        1
176
     1
 90
        1
176
     1
 40
1.0
176
     1
 90
       12
176
     1
 62
     7
176
     1
 40
1.0
176
     1
 90
        1
176
     1
 90
        6
176
     1
 90
        2
176
     1
 62
     7
176
     1
 90
        5
176
     1
 90
        0
176
     1
 90
        0
176
     1
290
     0
176
     1
 90
        1
176
     1
 40
0.0
176
     1
 90
        0
176
     1
290
     0
176
     1
290
     1
176
     1
290
     1
176
     1
290
     0
176
     1
290
     0
176
     1
290
     0
176
     1
290
     0
176
     1
290
     0
176
     1
290
     0
176
     1
 90
       50
176
     1
 40
0.0
176
     1
 40
1.0
176
     1
 90
        0
176
     1
 62
    18
420
        0
176
     1
 90
       50
176
     1
 90
        3
176
     1
 62
     5
420
      255
176
     1
290
     0
176
     1
 90
       50
176
     1
 90
       50
176
     1
 90
       50
176
     1
290
     0
176
     1
 90
       50
176
     1
 62
   256
176
     0
 40
1.0
176
     0
 90
        2
176
     1
  1
strokes_ogs.tif
176
     1
290
     0
176
     1
 40
1.0
176
     1
 40
1.0
176
     1
  0
VISUALSTYLE
  5
30
102
{ACAD_REACTORS
330
2A
102
}
330
2A
100
AcDbVisualStyle
  2
Wireframe
 70
     5
177
     3
291
     0
 70
    58
 90
        0
176
     1
 90
        2
176
     1
 90
        0
176
     1
 90
        0
176
     1
 40
0.6
176
     1
 40
30.0
176
     1
 62
     7
420
 16777215
176
     1
 90
        1
176
     1
 90
        4
176
     1
 62
     7
176
     1
 62
   257
176
     1
 90
        1
176
     1
 90
        1
176
     1
 40
1.0
176
     1
 90
        0
176
     1
 62
   257
176
     1
 40
1.0
176
     1
 90
        1
176
     1
 90
        6
176
     1
 90
        2
176
     1
 62
     7
176
     1
 90
        3
176
     1
 90
        0
176
     1
 90
        0
176
     1
290
     0
176
     1
 90
        1
176
     1
 40
0.0
176
     1
 90
        0
176
     1
290
     0
176
     1
290
     1
176
     1
290
     1
176
     1
290
     0
176
     1
290
     0
176
     1
290
     0
176
     1
290
     0
176
     1
290
     0
176
     1
290
     0
176
     1
 90
       50
176
     1
 40
0.0
176
     1
 40
1.0
176
     1
 90
        0
176
     1
 62
    18
420
        0
176
     1
 90
       50
176
     1
 90
        3
176
     1
 62
     5
420
      255
176
     1
290
     0
176
     1
 90
       50
176
     1
 90
       50
176
     1
 90
       50
176
     1
290
     0
176
     1
 90
       50
176
     1
 62
   256
176
     0
 40
1.0
176
     0
 90
        2
176
     1
  1
strokes_ogs.tif
176
     1
290
     0
176
     1
 40
1.0
176
     1
 40
1.0
176
     1
  0
VISUALSTYLE
  5
40
102
{ACAD_REACTORS
330
2A
102
}
330
2A
100
AcDbVisualStyle
  2
X-Ray
 70
    25
177
     3
291
     0
 70
    58
 90
        2
176
     1
 90
        2
176
     1
 90
        1
176
     1
 90
        1
176
     1
 40
0.5
176
     1
 40
30.0
176
     1
 62
     7
420
 16777215
176
     1
 90
        1
176
     1
 90
        0
176
     1
 62
     7
176
     1
 62
   257
176
     1
 90
        1
176
     1
 90
        1
176
     1
 40
1.0
176
     1
 90
        8
176
     1
 62
     7
176
     1
 40
1.0
176
     1
 90
        1
176
     1
 90
        6
176
     1
 90
        2
176
     1
 62
     7
176
     1
 90
        3
176
     1
 90
        0
176
     1
 90
        0
176
     1
290
     0
176
     1
 90
       13
176
     1
 40
0.0
176
     1
 90
        0
176
     1
290
     0
176
     1
290
     1
176
     1
290
     1
176
     1
290
     0
176
     1
290
     0
176
     1
290
     0
176
     1
290
     0
176
     1
290
     0
176
     1
290
     0
176
     1
 90
       50
176
     1
 40
0.0
176
     1
 40
1.0
176
     1
 90
        0
176
     1
 62
    18
420
        0
176
     1
 90
       50
176
     1
 90
        3
176
     1
 62
     5
420
      255
176
     1
290
     0
176
     1
 90
       50
176
     1
 90
       50
176
     1
 90
       50
176
     1
290
     0
176
     1
 90
       50
176
     1
 62
   256
176
     0
 40
1.0
176
     0
 90
        2
176
     1
  1
strokes_ogs.tif
176
     1
290
     0
176
     1
 40
1.0
176
     1
 40
1.0
176
     1
  0
DICTIONARYVAR
  5
537
102
{ACAD_REACTORS
330
536
102
}
330
536
100
DictionaryVariables
280
     0
  1
1:1
  0
DICTIONARYVAR
  5
53F
102
{ACAD_REACTORS
330
536
102
}
330
536
100
DictionaryVariables
280
     0
  1
3.500000
  0
DICTIONARYVAR
  5
540
102
{ACAD_REACTORS
330
536
102
}
330
536
100
DictionaryVariables
280
     0
  1
acadiso.lin
  0
DICTIONARYVAR
  5
53C
102
{ACAD_REACTORS
330
536
102
}
330
536
100
DictionaryVariables
280
     0
  1
Standard
  0
DICTIONARYVAR
  5
53B
102
{ACAD_REACTORS
330
536
102
}
330
536
100
DictionaryVariables
280
     0
  1
Standard
  0
DICTIONARY
  5
538
330
6A
100
AcDbDictionary
280
     1
281
     1
  3
ACAD_ROUNDTRIP_2008_TABLESTYLE_CELLSTYLEMAP
360
539
  0
CELLSTYLEMAP
  5
539
102
{ACAD_REACTORS
330
538
102
}
330
538
100
AcDbCellStyleMap
 90
        3
300
CELLSTYLE
  1
TABLEFORMAT_BEGIN
 90
        5
170
     1
 91
        0
 92
    32768
 62
   257
 93
        1
300
CONTENTFORMAT
  1
CONTENTFORMAT_BEGIN
 90
        0
 91
        0
 92
        4
 93
        0
300

 40
0.0
140
1.0
 94
        5
 62
     0
340
11
144
6.0
309
CONTENTFORMAT_END
171
     1
301
MARGIN
  1
CELLMARGIN_BEGIN
 40
1.5
 40
1.5
 40
1.5
 40
1.5
 40
1.5
 40
1.5
309
CELLMARGIN_END
 94
        6
 95
        1
302
GRIDFORMAT
  1
GRIDFORMAT_BEGIN
 90
        0
 91
        1
 62
     0
 92
       -2
340
14
 93
        0
 40
0.045
309
GRIDFORMAT_END
 95
        2
302
GRIDFORMAT
  1
GRIDFORMAT_BEGIN
 90
        0
 91
        1
 62
     0
 92
       -2
340
14
 93
        0
 40
0.045
309
GRIDFORMAT_END
 95
        4
302
GRIDFORMAT
  1
GRIDFORMAT_BEGIN
 90
        0
 91
        1
 62
     0
 92
       -2
340
14
 93
        0
 40
0.045
309
GRIDFORMAT_END
 95
        8
302
GRIDFORMAT
  1
GRIDFORMAT_BEGIN
 90
        0
 91
        1
 62
     0
 92
       -2
340
14
 93
        0
 40
0.045
309
GRIDFORMAT_END
 95
       16
302
GRIDFORMAT
  1
GRIDFORMAT_BEGIN
 90
        0
 91
        1
 62
     0
 92
       -2
340
14
 93
        0
 40
0.045
309
GRIDFORMAT_END
 95
       32
302
GRIDFORMAT
  1
GRIDFORMAT_BEGIN
 90
        0
 91
        1
 62
     0
 92
       -2
340
14
 93
        0
 40
0.045
309
GRIDFORMAT_END
309
TABLEFORMAT_END
  1
CELLSTYLE_BEGIN
 90
        1
 91
        1
300
_TITLE
309
CELLSTYLE_END
300
CELLSTYLE
  1
TABLEFORMAT_BEGIN
 90
        5
170
     1
 91
        0
 92
        0
 62
   257
 93
        1
300
CONTENTFORMAT
  1
CONTENTFORMAT_BEGIN
 90
        0
 91
        0
 92
        4
 93
        0
300

 40
0.0
140
1.0
 94
        5
 62
     0
340
11
144
4.5
309
CONTENTFORMAT_END
171
     1
301
MARGIN
  1
CELLMARGIN_BEGIN
 40
1.5
 40
1.5
 40
1.5
 40
1.5
 40
1.5
 40
1.5
309
CELLMARGIN_END
 94
        6
 95
        1
302
GRIDFORMAT
  1
GRIDFORMAT_BEGIN
 90
        0
 91
        1
 62
     0
 92
       -2
340
14
 93
        0
 40
0.045
309
GRIDFORMAT_END
 95
        2
302
GRIDFORMAT
  1
GRIDFORMAT_BEGIN
 90
        0
 91
        1
 62
     0
 92
       -2
340
14
 93
        0
 40
0.045
309
GRIDFORMAT_END
 95
        4
302
GRIDFORMAT
  1
GRIDFORMAT_BEGIN
 90
        0
 91
        1
 62
     0
 92
       -2
340
14
 93
        0
 40
0.045
309
GRIDFORMAT_END
 95
        8
302
GRIDFORMAT
  1
GRIDFORMAT_BEGIN
 90
        0
 91
        1
 62
     0
 92
       -2
340
14
 93
        0
 40
0.045
309
GRIDFORMAT_END
 95
       16
302
GRIDFORMAT
  1
GRIDFORMAT_BEGIN
 90
        0
 91
        1
 62
     0
 92
       -2
340
14
 93
        0
 40
0.045
309
GRIDFORMAT_END
 95
       32
302
GRIDFORMAT
  1
GRIDFORMAT_BEGIN
 90
        0
 91
        1
 62
     0
 92
       -2
340
14
 93
        0
 40
0.045
309
GRIDFORMAT_END
309
TABLEFORMAT_END
  1
CELLSTYLE_BEGIN
 90
        2
 91
        1
300
_HEADER
309
CELLSTYLE_END
300
CELLSTYLE
  1
TABLEFORMAT_BEGIN
 90
        5
170
     1
 91
        0
 92
        0
 62
   257
 93
        1
300
CONTENTFORMAT
  1
CONTENTFORMAT_BEGIN
 90
        0
 91
        0
 92
        4
 93
        0
300

 40
0.0
140
1.0
 94
        2
 62
     0
340
11
144
4.5
309
CONTENTFORMAT_END
171
     1
301
MARGIN
  1
CELLMARGIN_BEGIN
 40
1.5
 40
1.5
 40
1.5
 40
1.5
 40
1.5
 40
1.5
309
CELLMARGIN_END
 94
        6
 95
        1
302
GRIDFORMAT
  1
GRIDFORMAT_BEGIN
 90
        0
 91
        1
 62
     0
 92
       -2
340
14
 93
        0
 40
0.045
309
GRIDFORMAT_END
 95
        2
302
GRIDFORMAT
  1
GRIDFORMAT_BEGIN
 90
        0
 91
        1
 62
     0
 92
       -2
340
14
 93
        0
 40
0.045
309
GRIDFORMAT_END
 95
        4
302
GRIDFORMAT
  1
GRIDFORMAT_BEGIN
 90
        0
 91
        1
 62
     0
 92
       -2
340
14
 93
        0
 40
0.045
309
GRIDFORMAT_END
 95
        8
302
GRIDFORMAT
  1
GRIDFORMAT_BEGIN
 90
        0
 91
        1
 62
     0
 92
       -2
340
14
 93
        0
 40
0.045
309
GRIDFORMAT_END
 95
       16
302
GRIDFORMAT
  1
GRIDFORMAT_BEGIN
 90
        0
 91
        1
 62
     0
 92
       -2
340
14
 93
        0
 40
0.045
309
GRIDFORMAT_END
 95
       32
302
GRIDFORMAT
  1
GRIDFORMAT_BEGIN
 90
        0
 91
        1
 62
     0
 92
       -2
340
14
 93
        0
 40
0.045
309
GRIDFORMAT_END
309
TABLEFORMAT_END
  1
CELLSTYLE_BEGIN
 90
        3
 91
        2
300
_DATA
309
CELLSTYLE_END
  0
ENDSEC
  0
EOF
